  0
SECTION
  2
HEADER
  9
$ACADVER
  1
AC1015
  9
$ACADMAINTVER
 70
     6
  9
$DWGCODEPAGE
  3
DOS932
  9
$INSBASE
 10
0.0
 20
0.0
 30
0.0
  9
$EXTMIN
 10
0.0
 20
0.0
 30
0.0
  9
$EXTMAX
 10
431.8
 20
279.4
 30
0.0
  9
$LIMMIN
 10
0.0
 20
0.0
  9
$LIMMAX
 10
431.8
 20
279.4
  9
$ORTHOMODE
 70
     0
  9
$REGENMODE
 70
     1
  9
$FILLMODE
 70
     1
  9
$QTEXTMODE
 70
     0
  9
$MIRRTEXT
 70
     1
  9
$LTSCALE
 40
1.0
  9
$ATTMODE
 70
     1
  9
$TEXTSIZE
 40
3.5
  9
$TRACEWID
 40
1.0
  9
$TEXTSTYLE
  7
Standard
  9
$CLAYER
  8
0
  9
$CELTYPE
  6
ByLayer
  9
$CECOLOR
 62
   256
  9
$CELTSCALE
 40
1.0
  9
$DISPSILH
 70
     0
  9
$DIMSCALE
 40
1.0
  9
$DIMASZ
 40
3.556
  9
$DIMEXO
 40
1.0
  9
$DIMDLI
 40
3.75
  9
$DIMRND
 40
0.0
  9
$DIMDLE
 40
0.0
  9
$DIMEXE
 40
1.0
  9
$DIMTP
 40
0.0
  9
$DIMTM
 40
0.0
  9
$DIMTXT
 40
3.5
  9
$DIMCEN
 40
2.5
  9
$DIMTSZ
 40
0.0
  9
$DIMTOL
 70
     0
  9
$DIMLIM
 70
     0
  9
$DIMTIH
 70
     1
  9
$DIMTOH
 70
     1
  9
$DIMSE1
 70
     0
  9
$DIMSE2
 70
     0
  9
$DIMTAD
 70
     1
  9
$DIMZIN
 70
     0
  9
$DIMBLK
  1

  9
$DIMASO
 70
     1
  9
$DIMSHO
 70
     1
  9
$DIMPOST
  1

  9
$DIMAPOST
  1

  9
$DIMALT
 70
     0
  9
$DIMALTD
 70
     3
  9
$DIMALTF
 40
0.0393700787
  9
$DIMLFAC
 40
1.0
  9
$DIMTOFL
 70
     1
  9
$DIMTVP
 40
0.0
  9
$DIMTIX
 70
     0
  9
$DIMSOXD
 70
     0
  9
$DIMSAH
 70
     0
  9
$DIMBLK1
  1

  9
$DIMBLK2
  1

  9
$DIMSTYLE
  2
ISO-25
  9
$DIMCLRD
 70
     0
  9
$DIMCLRE
 70
     0
  9
$DIMCLRT
 70
     0
  9
$DIMTFAC
 40
1.0
  9
$DIMGAP
 40
1.524
  9
$DIMJUST
 70
     0
  9
$DIMSD1
 70
     0
  9
$DIMSD2
 70
     0
  9
$DIMTOLJ
 70
     0
  9
$DIMTZIN
 70
     0
  9
$DIMALTZ
 70
     0
  9
$DIMALTTZ
 70
     0
  9
$DIMUPT
 70
     0
  9
$DIMDEC
 70
     3
  9
$DIMTDEC
 70
     3
  9
$DIMALTU
 70
     2
  9
$DIMALTTD
 70
     3
  9
$DIMTXSTY
  7
Standard
  9
$DIMAUNIT
 70
     0
  9
$DIMADEC
 70
     2
  9
$DIMALTRND
 40
0.0
  9
$DIMAZIN
 70
     0
  9
$DIMDSEP
 70
    44
  9
$DIMATFIT
 70
     3
  9
$DIMFRAC
 70
     0
  9
$DIMLDRBLK
  1

  9
$DIMLUNIT
 70
     2
  9
$DIMLWD
 70
    -2
  9
$DIMLWE
 70
    -2
  9
$DIMTMOVE
 70
     0
  9
$LUNITS
 70
     2
  9
$LUPREC
 70
     3
  9
$SKETCHINC
 40
1.0
  9
$FILLETRAD
 40
0.0
  9
$AUNITS
 70
     0
  9
$AUPREC
 70
     2
  9
$MENU
  1
.
  9
$ELEVATION
 40
0.0
  9
$PELEVATION
 40
0.0
  9
$THICKNESS
 40
0.0
  9
$LIMCHECK
 70
     0
  9
$CHAMFERA
 40
0.0
  9
$CHAMFERB
 40
0.0
  9
$CHAMFERC
 40
0.0
  9
$CHAMFERD
 40
0.0
  9
$SKPOLY
 70
     0
  9
$TDCREATE
 40
2460297.666934305
  9
$TDUCREATE
 40
2460297.291934305
  9
$TDUPDATE
 40
2460297.666935382
  9
$TDUUPDATE
 40
2460297.291935382
  9
$TDINDWG
 40
0.0000000116
  9
$TDUSRTIMER
 40
0.0000000116
  9
$USRTIMER
 70
     1
  9
$ANGBASE
 50
0.0
  9
$ANGDIR
 70
     0
  9
$PDMODE
 70
     0
  9
$PDSIZE
 40
-1.0
  9
$PLINEWID
 40
0.0
  9
$SPLFRAME
 70
     0
  9
$SPLINETYPE
 70
     6
  9
$SPLINESEGS
 70
     8
  9
$HANDSEED
  5
300
  9
$SURFTAB1
 70
     6
  9
$SURFTAB2
 70
     6
  9
$SURFTYPE
 70
     6
  9
$SURFU
 70
     6
  9
$SURFV
 70
     6
  9
$UCSBASE
  2

  9
$UCSNAME
  2

  9
$UCSORG
 10
0.0
 20
0.0
 30
0.0
  9
$UCSXDIR
 10
1.0
 20
0.0
 30
0.0
  9
$UCSYDIR
 10
0.0
 20
1.0
 30
0.0
  9
$UCSORTHOREF
  2

  9
$UCSORTHOVIEW
 70
     0
  9
$UCSORGTOP
 10
0.0
 20
0.0
 30
0.0
  9
$UCSORGBOTTOM
 10
0.0
 20
0.0
 30
0.0
  9
$UCSORGLEFT
 10
0.0
 20
0.0
 30
0.0
  9
$UCSORGRIGHT
 10
0.0
 20
0.0
 30
0.0
  9
$UCSORGFRONT
 10
0.0
 20
0.0
 30
0.0
  9
$UCSORGBACK
 10
0.0
 20
0.0
 30
0.0
  9
$PUCSBASE
  2

  9
$PUCSNAME
  2

  9
$PUCSORG
 10
0.0
 20
0.0
 30
0.0
  9
$PUCSXDIR
 10
1.0
 20
0.0
 30
0.0
  9
$PUCSYDIR
 10
0.0
 20
1.0
 30
0.0
  9
$PUCSORTHOREF
  2

  9
$PUCSORTHOVIEW
 70
     0
  9
$PUCSORGTOP
 10
0.0
 20
0.0
 30
0.0
  9
$PUCSORGBOTTOM
 10
0.0
 20
0.0
 30
0.0
  9
$PUCSORGLEFT
 10
0.0
 20
0.0
 30
0.0
  9
$PUCSORGRIGHT
 10
0.0
 20
0.0
 30
0.0
  9
$PUCSORGFRONT
 10
0.0
 20
0.0
 30
0.0
  9
$PUCSORGBACK
 10
0.0
 20
0.0
 30
0.0
  9
$USERI1
 70
     0
  9
$USERI2
 70
     0
  9
$USERI3
 70
     0
  9
$USERI4
 70
     0
  9
$USERI5
 70
     0
  9
$USERR1
 40
0.0
  9
$USERR2
 40
0.0
  9
$USERR3
 40
0.0
  9
$USERR4
 40
0.0
  9
$USERR5
 40
0.0
  9
$WORLDVIEW
 70
     1
  9
$SHADEDGE
 70
     3
  9
$SHADEDIF
 70
    70
  9
$TILEMODE
 70
     1
  9
$MAXACTVP
 70
    64
  9
$PINSBASE
 10
0.0
 20
0.0
 30
0.0
  9
$PLIMCHECK
 70
     0
  9
$PEXTMIN
 10
1.0000000000E+20
 20
1.0000000000E+20
 30
1.0000000000E+20
  9
$PEXTMAX
 10
-1.0000000000E+20
 20
-1.0000000000E+20
 30
-1.0000000000E+20
  9
$PLIMMIN
 10
0.0
 20
0.0
  9
$PLIMMAX
 10
420.0
 20
297.0
  9
$UNITMODE
 70
     0
  9
$VISRETAIN
 70
     1
  9
$PLINEGEN
 70
     0
  9
$PSLTSCALE
 70
     1
  9
$TREEDEPTH
 70
  3020
  9
$CMLSTYLE
  2
Standard
  9
$CMLJUST
 70
     0
  9
$CMLSCALE
 40
20.0
  9
$PROXYGRAPHICS
 70
     1
  9
$MEASUREMENT
 70
     1
  9
$CELWEIGHT
370
    -1
  9
$ENDCAPS
280
     0
  9
$JOINSTYLE
280
     0
  9
$LWDISPLAY
290
     1
  9
$INSUNITS
 70
     4
  9
$HYPERLINKBASE
  1

  9
$STYLESHEET
  1

  9
$XEDIT
290
     1
  9
$CEPSNTYPE
380
     0
  9
$PSTYLEMODE
290
     1
  9
$FINGERPRINTGUID
  2
{d27ecd6f-06ec-4f85-8bb8-6f69d00480c3}
  9
$VERSIONGUID
  2
{FAEB1C32-E019-11D5-929B-00C0DF256EC4}
  9
$EXTNAMES
290
     1
  9
$PSVPSCALE
 40
0.0
  9
$OLESTARTUP
290
     0
  0
ENDSEC
  0
SECTION
  2
CLASSES
  0
CLASS
  1
ACDBDICTIONARYWDFLT
  2
AcDbDictionaryWithDefault
  3
ObjectDBX Classes
 90
        0
280
     0
281
     0
  0
CLASS
  1
VISUALSTYLE
  2
AcDbVisualStyle
  3
ObjectDBX Classes
 90
     4095
280
     0
281
     0
  0
CLASS
  1
MATERIAL
  2
AcDbMaterial
  3
ObjectDBX Classes
 90
     1153
280
     0
281
     0
  0
CLASS
  1
SCALE
  2
AcDbScale
  3
ObjectDBX Classes
 90
     1153
280
     0
281
     0
  0
CLASS
  1
TABLESTYLE
  2
AcDbTableStyle
  3
ObjectDBX Classes
 90
     4095
280
     0
281
     0
  0
CLASS
  1
MLEADERSTYLE
  2
AcDbMLeaderStyle
  3
ACDB_MLEADERSTYLE_CLASS
 90
     4095
280
     0
281
     0
  0
CLASS
  1
SUN
  2
AcDbSun
  3
SCENEOE
 90
     1153
280
     0
281
     0
  0
CLASS
  1
ACDBPLACEHOLDER
  2
AcDbPlaceHolder
  3
ObjectDBX Classes
 90
        0
280
     0
281
     0
  0
CLASS
  1
LAYOUT
  2
AcDbLayout
  3
ObjectDBX Classes
 90
        0
280
     0
281
     0
  0
ENDSEC
  0
SECTION
  2
TABLES
  0
TABLE
  2
VPORT
  5
8
330
0
100
AcDbSymbolTable
 70
     1
  0
VPORT
  5
29
330
8
100
AcDbSymbolTableRecord
100
AcDbViewportTableRecord
  2
*Active
 70
     0
 10
0.0
 20
0.0
 11
1.0
 21
1.0
 12
215.9
 22
139.7
 13
0.0
 23
0.0
 14
10.0
 24
10.0
 15
10.0
 25
10.0
 16
0.0
 26
0.0
 36
1.0
 17
0.0
 27
0.0
 37
0.0
 40
279.4
 41
1.5454545455
 42
50.0
 43
0.0
 44
0.0
 50
0.0
 51
0.0
 71
     0
 72
  2000
 73
     1
 74
     3
 75
     0
 76
     0
 77
     0
 78
     0
281
     0
 65
     1
110
0.0
120
0.0
130
0.0
111
1.0
121
0.0
131
0.0
112
0.0
122
1.0
132
0.0
 79
     0
146
0.0
  0
ENDTAB
  0
TABLE
  2
LTYPE
  5
5
330
0
100
AcDbSymbolTable
 70
     6
  0
LTYPE
  5
14
330
5
100
AcDbSymbolTableRecord
100
AcDbLinetypeTableRecord
  2
ByBlock
 70
     0
  3

 72
    65
 73
     0
 40
0.0
  0
LTYPE
  5
15
330
5
100
AcDbSymbolTableRecord
100
AcDbLinetypeTableRecord
  2
ByLayer
 70
     0
  3

 72
    65
 73
     0
 40
0.0
  0
LTYPE
  5
16
330
5
100
AcDbSymbolTableRecord
100
AcDbLinetypeTableRecord
  2
Continuous
 70
     0
  3
Solid line
 72
    65
 73
     0
 40
0.0
  0
LTYPE
  5
5E
330
5
100
AcDbSymbolTableRecord
100
AcDbLinetypeTableRecord
  2
HIDDEN
 70
     0
  3
Hidden __ __ __ __ __ __ __ __ __ __ __ __ __ __
 72
    65
 73
     2
 40
1.905
 49
1.27
 74
     0
 49
-0.635
 74
     0
  0
LTYPE
  5
5F
330
5
100
AcDbSymbolTableRecord
100
AcDbLinetypeTableRecord
  2
PHANTOM
 70
     0
  3
Phantom ______  __  __  ______  __  __  ______
 72
    65
 73
     6
 40
12.7
 49
6.35
 74
     0
 49
-1.27
 74
     0
 49
1.27
 74
     0
 49
-1.27
 74
     0
 49
1.27
 74
     0
 49
-1.27
 74
     0
  0
LTYPE
  5
60
330
5
100
AcDbSymbolTableRecord
100
AcDbLinetypeTableRecord
  2
CENTER
 70
     0
  3
Center ____ _ ____ _ ____ _ ____ _ ____ _ ____
 72
    65
 73
     4
 40
10.16
 49
6.35
 74
     0
 49
-1.27
 74
     0
 49
1.27
 74
     0
 49
-1.27
 74
     0
  0
LTYPE
  5
61
330
5
100
AcDbSymbolTableRecord
100
AcDbLinetypeTableRecord
  2
CENTERX2
 70
     0
  3
Center (2x) ________  __  ________  __  _____
 72
    65
 73
     4
 40
20.32
 49
12.7
 74
     0
 49
-2.54
 74
     0
 49
2.54
 74
     0
 49
-2.54
 74
     0
  0
LTYPE
  5
62
330
5
100
AcDbSymbolTableRecord
100
AcDbLinetypeTableRecord
  2
DOT2
 70
     0
  3
Dot (.5x) ........................................
 72
    65
 73
     2
 40
0.635
 49
0.0
 74
     0
 49
-0.635
 74
     0
  0
ENDTAB
  0
TABLE
  2
LAYER
  5
2
330
0
100
AcDbSymbolTable
 70
     1
  0
LAYER
  5
10
330
2
100
AcDbSymbolTableRecord
100
AcDbLayerTableRecord
  2
0
 70
     0
 62
     7
  6
Continuous
370
    -3
390
F
  0
ENDTAB
  0
TABLE
  2
STYLE
  5
3
330
0
100
AcDbSymbolTable
 70
     2
  0
STYLE
  5
11
330
3
100
AcDbSymbolTableRecord
100
AcDbTextStyleTableRecord
  2
Standard
 70
     0
 40
0.0
 41
1.0
 50
0.0
 71
     0
 42
3.5
  3
txt
  4
bigfont
  0
STYLE
  5
63
330
3
100
AcDbSymbolTableRecord
100
AcDbTextStyleTableRecord
  2
SLDTEXTSTYLE0
 70
     0
 40
0.0
 41
0.7
 50
0.0
 71
     0
 42
3.5
  3
TXT
  4
bigfont
  0
ENDTAB
  0
TABLE
  2
VIEW
  5
6
330
0
100
AcDbSymbolTable
 70
     0
  0
ENDTAB
  0
TABLE
  2
UCS
  5
7
330
0
100
AcDbSymbolTable
 70
     0
  0
ENDTAB
  0
TABLE
  2
APPID
  5
9
330
0
100
AcDbSymbolTable
 70
     1
  0
APPID
  5
12
330
9
100
AcDbSymbolTableRecord
100
AcDbRegAppTableRecord
  2
ACAD
 70
     0
  0
ENDTAB
  0
TABLE
  2
DIMSTYLE
  5
A
330
0
100
AcDbSymbolTable
 70
     1
100
AcDbDimStyleTable
  0
DIMSTYLE
105
27
330
A
100
AcDbSymbolTableRecord
100
AcDbDimStyleTableRecord
  2
ISO-25
 70
     0
 41
2.5
 42
0.625
 43
3.75
 44
1.25
 73
     0
 74
     0
 77
     1
 78
     8
140
2.5
141
2.5
143
0.0393700787
147
0.625
171
     3
172
     1
178
     0
271
     2
272
     2
274
     3
278
    44
283
     0
284
     8
340
11
  0
ENDTAB
  0
TABLE
  2
BLOCK_RECORD
  5
1
330
0
100
AcDbSymbolTable
 70
     3
  0
BLOCK_RECORD
  5
1F
330
1
100
AcDbSymbolTableRecord
100
AcDbBlockTableRecord
  2
*Model_Space
340
22
  0
BLOCK_RECORD
  5
1B
330
1
100
AcDbSymbolTableRecord
100
AcDbBlockTableRecord
  2
*Paper_Space
340
1E
  0
BLOCK_RECORD
  5
23
330
1
100
AcDbSymbolTableRecord
100
AcDbBlockTableRecord
  2
*Paper_Space0
340
26
  0
BLOCK_RECORD
  5
212
330
1
100
AcDbSymbolTableRecord
100
AcDbBlockTableRecord
  2
SW_CENTERMARKSYMBOL_0
340
0
102
{BLKREFS
331
21D
102
}
  0
BLOCK_RECORD
  5
2F3
330
1
100
AcDbSymbolTableRecord
100
AcDbBlockTableRecord
  2
SW_CENTERMARKSYMBOL_1
340
0
102
{BLKREFS
331
2FE
102
}
  0
ENDTAB
  0
ENDSEC
  0
SECTION
  2
BLOCKS
  0
BLOCK
  5
20
330
1F
100
AcDbEntity
  8
0
100
AcDbBlockBegin
  2
*Model_Space
 70
     0
 10
0.0
 20
0.0
 30
0.0
  3
*Model_Space
  1

  0
ENDBLK
  5
21
330
1F
100
AcDbEntity
  8
0
100
AcDbBlockEnd
  0
BLOCK
  5
1C
330
1B
100
AcDbEntity
 67
     1
  8
0
100
AcDbBlockBegin
  2
*Paper_Space
 70
     0
 10
0.0
 20
0.0
 30
0.0
  3
*Paper_Space
  1

  0
ENDBLK
  5
1D
330
1B
100
AcDbEntity
 67
     1
  8
0
100
AcDbBlockEnd
  0
BLOCK
  5
24
330
23
100
AcDbEntity
  8
0
100
AcDbBlockBegin
  2
*Paper_Space0
 70
     0
 10
0.0
 20
0.0
 30
0.0
  3
*Paper_Space0
  1

  0
ENDBLK
  5
25
330
23
100
AcDbEntity
  8
0
100
AcDbBlockEnd
  0
BLOCK
  5
213
330
212
100
AcDbEntity
  8
0
100
AcDbBlockBegin
  2
SW_CENTERMARKSYMBOL_0
 70
     0
 10
0.0
 20
0.0
 30
0.0
  3
SW_CENTERMARKSYMBOL_0
  1

  0
LINE
  5
215
330
212
100
AcDbEntity
  8
0
  6
Continuous
 62
     0
370
    18
100
AcDbLine
 10
0.0
 20
0.0
 30
0.0
 11
0.0
 21
2.5
 31
0.0
  0
LINE
  5
216
330
212
100
AcDbEntity
  8
0
  6
Continuous
 62
     0
370
    18
100
AcDbLine
 10
0.0
 20
0.0
 30
0.0
 11
-2.5
 21
0.0
 31
0.0
  0
LINE
  5
217
330
212
100
AcDbEntity
  8
0
  6
Continuous
 62
     0
370
    18
100
AcDbLine
 10
0.0
 20
0.0
 30
0.0
 11
0.0
 21
-2.5
 31
0.0
  0
LINE
  5
218
330
212
100
AcDbEntity
  8
0
  6
Continuous
 62
     0
370
    18
100
AcDbLine
 10
0.0
 20
0.0
 30
0.0
 11
2.5
 21
0.0
 31
0.0
  0
LINE
  5
219
330
212
100
AcDbEntity
  8
0
  6
Continuous
 62
     0
370
    18
100
AcDbLine
 10
0.0
 20
5.0
 30
0.0
 11
0.0
 21
42.1813205319
 31
0.0
  0
LINE
  5
21A
330
212
100
AcDbEntity
  8
0
  6
Continuous
 62
     0
370
    18
100
AcDbLine
 10
-5.0
 20
0.0
 30
0.0
 11
-18.5
 21
0.0
 31
0.0
  0
LINE
  5
21B
330
212
100
AcDbEntity
  8
0
  6
Continuous
 62
     0
370
    18
100
AcDbLine
 10
0.0
 20
-5.0
 30
0.0
 11
0.0
 21
-18.5
 31
0.0
  0
LINE
  5
21C
330
212
100
AcDbEntity
  8
0
  6
Continuous
 62
     0
370
    18
100
AcDbLine
 10
5.0
 20
0.0
 30
0.0
 11
18.5
 21
0.0
 31
0.0
  0
ENDBLK
  5
214
330
212
100
AcDbEntity
  8
0
100
AcDbBlockEnd
  0
BLOCK
  5
2F4
330
2F3
100
AcDbEntity
  8
0
100
AcDbBlockBegin
  2
SW_CENTERMARKSYMBOL_1
 70
     0
 10
0.0
 20
0.0
 30
0.0
  3
SW_CENTERMARKSYMBOL_1
  1

  0
LINE
  5
2F6
330
2F3
100
AcDbEntity
  8
0
  6
Continuous
 62
     0
370
    18
100
AcDbLine
 10
0.0
 20
0.0
 30
0.0
 11
0.0
 21
2.5
 31
0.0
  0
LINE
  5
2F7
330
2F3
100
AcDbEntity
  8
0
  6
Continuous
 62
     0
370
    18
100
AcDbLine
 10
0.0
 20
0.0
 30
0.0
 11
-2.5
 21
0.0
 31
0.0
  0
LINE
  5
2F8
330
2F3
100
AcDbEntity
  8
0
  6
Continuous
 62
     0
370
    18
100
AcDbLine
 10
0.0
 20
0.0
 30
0.0
 11
0.0
 21
-2.5
 31
0.0
  0
LINE
  5
2F9
330
2F3
100
AcDbEntity
  8
0
  6
Continuous
 62
     0
370
    18
100
AcDbLine
 10
0.0
 20
0.0
 30
0.0
 11
2.5
 21
0.0
 31
0.0
  0
LINE
  5
2FA
330
2F3
100
AcDbEntity
  8
0
  6
Continuous
 62
     0
370
    18
100
AcDbLine
 10
0.0
 20
5.0
 30
0.0
 11
0.0
 21
17.8664080119
 31
0.0
  0
LINE
  5
2FB
330
2F3
100
AcDbEntity
  8
0
  6
Continuous
 62
     0
370
    18
100
AcDbLine
 10
-5.0
 20
0.0
 30
0.0
 11
-57.0583321726
 21
0.0
 31
0.0
  0
LINE
  5
2FC
330
2F3
100
AcDbEntity
  8
0
  6
Continuous
 62
     0
370
    18
100
AcDbLine
 10
0.0
 20
-5.0
 30
0.0
 11
0.0
 21
-17.5097244604
 31
0.0
  0
LINE
  5
2FD
330
2F3
100
AcDbEntity
  8
0
  6
Continuous
 62
     0
370
    18
100
AcDbLine
 10
5.0
 20
0.0
 30
0.0
 11
30.2073784774
 21
0.0
 31
0.0
  0
ENDBLK
  5
2F5
330
2F3
100
AcDbEntity
  8
0
100
AcDbBlockEnd
  0
ENDSEC
  0
SECTION
  2
ENTITIES
  0
MTEXT
  5
64
330
1F
100
AcDbEntity
  8
0
  6
Continuous
 62
     7
370
     0
100
AcDbMText
 10
167.0049820104
 20
115.7363938955
 30
0.0
 40
4.2333333333
 41
0.0
 71
     1
 72
     1
  1
エースボールZERO　BW-0066
  7
SLDTEXTSTYLE0
 73
     1
 44
1.0
  0
LINE
  5
65
330
1F
100
AcDbEntity
  8
0
  6
Continuous
 62
     7
370
    25
100
AcDbLine
 10
136.2744950415
 20
73.0880447376
 30
0.0
 11
119.4744950415
 21
73.0880447376
 31
0.0
  0
LINE
  5
66
330
1F
100
AcDbEntity
  8
0
  6
Continuous
 62
     7
370
    25
100
AcDbLine
 10
119.4744950415
 20
41.5880447376
 30
0.0
 11
136.2744950415
 21
41.5880447376
 31
0.0
  0
LINE
  5
67
330
1F
100
AcDbEntity
  8
0
  6
Continuous
 62
     7
370
    25
100
AcDbLine
 10
119.4744950415
 20
73.0880447376
 30
0.0
 11
119.2744950415
 21
72.8880447376
 31
0.0
  0
LINE
  5
68
330
1F
100
AcDbEntity
  8
0
  6
Continuous
 62
     7
370
    25
100
AcDbLine
 10
119.2744950415
 20
41.7880447376
 30
0.0
 11
119.4744950415
 21
41.5880447376
 31
0.0
  0
LINE
  5
69
330
1F
100
AcDbEntity
  8
0
  6
Continuous
 62
     7
370
    25
100
AcDbLine
 10
177.7744950415
 20
41.5880447376
 30
0.0
 11
178.2744950415
 21
42.0880447376
 31
0.0
  0
LINE
  5
6A
330
1F
100
AcDbEntity
  8
0
  6
Continuous
 62
     7
370
    25
100
AcDbLine
 10
178.2744950415
 20
72.5880447376
 30
0.0
 11
177.7744950415
 21
73.0880447376
 31
0.0
  0
LINE
  5
6B
330
1F
100
AcDbEntity
  8
0
  6
Continuous
 62
     7
370
    25
100
AcDbLine
 10
177.7744950415
 20
73.0880447376
 30
0.0
 11
162.2744950415
 21
73.0880447376
 31
0.0
  0
LINE
  5
6C
330
1F
100
AcDbEntity
  8
0
  6
Continuous
 62
     7
370
    25
100
AcDbLine
 10
162.2744950415
 20
41.5880447376
 30
0.0
 11
177.7744950415
 21
41.5880447376
 31
0.0
  0
ARC
  5
6D
330
1F
100
AcDbEntity
  8
0
  6
Continuous
 62
     7
370
    25
100
AcDbCircle
 10
158.0244950415
 20
73.8380447376
 30
0.0
 40
0.5
100
AcDbArc
 50
180.0
 51
270.0
  0
ARC
  5
6E
330
1F
100
AcDbEntity
  8
0
  6
Continuous
 62
     7
370
    25
100
AcDbCircle
 10
140.5244950415
 20
73.8380447376
 30
0.0
 40
0.5000000000000284
100
AcDbArc
 50
270.0
 51
0.0
  0
LINE
  5
6F
330
1F
100
AcDbEntity
  8
0
  6
Continuous
 62
     7
370
    25
100
AcDbLine
 10
157.5244950415
 20
76.7380447376
 30
0.0
 11
157.0244950415
 21
77.2380447376
 31
0.0
  0
LINE
  5
70
330
1F
100
AcDbEntity
  8
0
  6
Continuous
 62
     7
370
    25
100
AcDbLine
 10
141.5244950415
 20
77.2380447376
 30
0.0
 11
141.0244950415
 21
76.7380447376
 31
0.0
  0
LINE
  5
71
330
1F
100
AcDbEntity
  8
0
  6
Continuous
 62
     7
370
    25
100
AcDbLine
 10
157.5244950415
 20
73.8380447376
 30
0.0
 11
157.5244950415
 21
76.7380447376
 31
0.0
  0
LINE
  5
72
330
1F
100
AcDbEntity
  8
0
  6
Continuous
 62
     7
370
    25
100
AcDbLine
 10
141.0244950415
 20
76.7380447376
 30
0.0
 11
141.0244950415
 21
73.8380447376
 31
0.0
  0
LINE
  5
73
330
1F
100
AcDbEntity
  8
0
  6
Continuous
 62
     7
370
    25
100
AcDbLine
 10
144.2744950415
 20
77.7380447376
 30
0.0
 11
144.2744950415
 21
77.2380447376
 31
0.0
  0
LINE
  5
74
330
1F
100
AcDbEntity
  8
0
  6
Continuous
 62
     7
370
    25
100
AcDbLine
 10
154.2744950415
 20
77.2380447376
 30
0.0
 11
154.2744950415
 21
77.7380447376
 31
0.0
  0
ARC
  5
75
330
1F
100
AcDbEntity
  8
0
  6
Continuous
 62
     7
370
    25
100
AcDbCircle
 10
149.2744950415
 20
75.2380447376
 30
0.0
 40
20.60000000000002
100
AcDbArc
 50
90.6157730356
 51
93.3558231766
  0
ARC
  5
76
330
1F
100
AcDbEntity
  8
0
  6
Continuous
 62
     7
370
    25
100
AcDbCircle
 10
149.2744950415
 20
75.2380447376
 30
0.0
 40
20.60000000000002
100
AcDbArc
 50
86.6441768145
 51
89.3868209349
  0
ARC
  5
77
330
1F
100
AcDbEntity
  8
0
  6
Continuous
 62
     7
370
    25
100
AcDbCircle
 10
157.2682654098
 20
87.7256240423
 30
0.0
 40
0.9999999999999957
100
AcDbArc
 50
354.2894068625
 51
7.1250163489
  0
LINE
  5
78
330
1F
100
AcDbEntity
  8
0
  6
Continuous
 62
     7
370
    25
100
AcDbLine
 10
140.8678671848
 20
81.8043233039
 30
0.0
 11
141.0944950415
 21
79.5380447376
 31
0.0
  0
LINE
  5
79
330
1F
100
AcDbEntity
  8
0
  6
Continuous
 62
     7
370
    25
100
AcDbLine
 10
157.3195198555
 20
78.1882928781
 30
0.0
 11
158.2633026
 21
87.6261203233
 31
0.0
  0
LINE
  5
7A
330
1F
100
AcDbEntity
  8
0
  6
Continuous
 62
     7
370
    25
100
AcDbLine
 10
158.2605432865
 20
87.8496587769
 30
0.0
 11
157.3292428706
 21
95.3000621049
 31
0.0
  0
LINE
  5
7B
330
1F
100
AcDbEntity
  8
0
  6
Continuous
 62
     7
370
    25
100
AcDbLine
 10
141.2197472124
 20
95.3000621049
 30
0.0
 11
141.0244950415
 21
93.7380447376
 31
0.0
  0
ARC
  5
7C
330
1F
100
AcDbEntity
  8
0
  6
Continuous
 62
     7
370
    25
100
AcDbCircle
 10
141.7158861507
 20
95.2380447376
 30
0.0
 40
0.5
100
AcDbArc
 50
90.0
 51
172.8749836511
  0
ARC
  5
7D
330
1F
100
AcDbEntity
  8
0
  6
Continuous
 62
     7
370
    25
100
AcDbCircle
 10
156.8331039322
 20
95.2380447376
 30
0.0
 40
0.5000000000000017
100
AcDbArc
 50
7.1250163489
 51
90.0
  0
ARC
  5
7E
330
1F
100
AcDbEntity
  8
0
  6
Continuous
 62
     7
370
    25
100
AcDbCircle
 10
156.8220012604
 20
78.2380447376
 30
0.0
 40
0.5000000000000254
100
AcDbArc
 50
270.0
 51
354.2894068625
  0
LINE
  5
7F
330
1F
100
AcDbEntity
  8
0
  6
Continuous
 62
     7
370
    25
100
AcDbLine
 10
143.7744950415
 20
77.2380447376
 30
0.0
 11
143.7744950415
 21
77.7380447376
 31
0.0
  0
LINE
  5
80
330
1F
100
AcDbEntity
  8
0
  6
Continuous
 62
     7
370
    25
100
AcDbLine
 10
141.7744950415
 20
77.7412794695
 30
0.0
 11
141.7744950415
 21
77.2380447376
 31
0.0
  0
LINE
  5
81
330
1F
100
AcDbEntity
  8
0
  6
Continuous
 62
     7
370
    25
100
AcDbLine
 10
119.4744950415
 20
73.0880447376
 30
0.0
 11
119.4744950415
 21
41.5880447376
 31
0.0
  0
LINE
  5
82
330
1F
100
AcDbEntity
  8
0
  6
Continuous
 62
     7
370
    25
100
AcDbLine
 10
119.2744950415
 20
41.7880447376
 30
0.0
 11
119.2744950415
 21
72.8880447376
 31
0.0
  0
SPLINE
  5
83
330
1F
100
AcDbEntity
  8
0
  6
Continuous
 62
     7
370
    25
100
AcDbSpline
210
0.0
220
0.0
230
1.0
 70
     8
 71
     3
 72
     8
 73
     4
 74
     0
 42
0.00000001
 43
0.00000001
 40
0.0
 40
0.0
 40
0.0
 40
0.0
 40
1.0
 40
1.0
 40
1.0
 40
1.0
 10
160.8702010216006
 20
41.33804473757164
 30
0.0
 10
160.8451878956719
 20
41.33804473757164
 30
0.0
 10
160.831119368489
 20
41.36129237367306
 30
0.0
 10
160.831119368489
 20
41.40748918201607
 30
0.0
  0
LINE
  5
84
330
1F
100
AcDbEntity
  8
0
  6
Continuous
 62
     7
370
    25
100
AcDbLine
 10
160.8311193685
 20
47.9323337229
 30
0.0
 11
160.8311193685
 21
41.407489182
 31
0.0
  0
SPLINE
  5
85
330
1F
100
AcDbEntity
  8
0
  6
Continuous
 62
     7
370
    25
100
AcDbSpline
210
0.0
220
0.0
230
1.0
 70
     8
 71
     3
 72
     8
 73
     4
 74
     0
 42
0.00000001
 43
0.00000001
 40
0.0
 40
0.0
 40
0.0
 40
0.0
 40
1.0
 40
1.0
 40
1.0
 40
1.0
 10
160.831119368489
 20
47.93233372290837
 30
0.0
 10
160.831119368489
 20
48.01059621678382
 30
0.0
 10
160.8451766812932
 20
48.09924286323461
 30
0.0
 10
160.8702010216006
 20
48.18654212871007
 30
0.0
  0
SPLINE
  5
86
330
1F
100
AcDbEntity
  8
0
  6
Continuous
 62
     7
370
    25
100
AcDbSpline
210
0.0
220
0.0
230
1.0
 70
     8
 71
     3
 72
    10
 73
     6
 74
     0
 42
0.00000001
 43
0.00000001
 40
0.0
 40
0.0
 40
0.0
 40
0.0
 40
0.5
 40
0.5
 40
1.0
 40
1.0
 40
1.0
 40
1.0
 10
162.274495041463
 20
57.33804473757164
 30
0.0
 10
162.274495041463
 20
55.76995746012989
 30
0.0
 10
162.1394379244868
 20
54.22658902525676
 30
0.0
 10
161.6500363141631
 20
51.17998724987034
 30
0.0
 10
161.2972866568095
 20
49.67646201433709
 30
0.0
 10
160.8702010216006
 20
48.18654212871007
 30
0.0
  0
LINE
  5
87
330
1F
100
AcDbEntity
  8
0
  6
Continuous
 62
     7
370
    25
100
AcDbLine
 10
162.2744950415
 20
57.3380447376
 30
0.0
 11
162.2744950415
 21
41.3380447376
 31
0.0
  0
SPLINE
  5
88
330
1F
100
AcDbEntity
  8
0
  6
Continuous
 62
     7
370
    25
100
AcDbSpline
210
0.0
220
0.0
230
1.0
 70
    24
 71
     3
 72
    10
 73
     6
 74
     0
 42
0.00000001
 43
0.00000001
 40
0.0
 40
0.0
 40
0.0
 40
0.0
 40
0.5
 40
0.5
 40
1.0
 40
1.0
 40
1.0
 40
1.0
 10
160.8702010216006
 20
41.33804473757164
 30
0.0
 10
161.2972760575252
 20
41.33804473757164
 30
0.0
 10
161.6500235772124
 20
41.33804473757164
 30
0.0
 10
162.1394305751295
 20
41.33804473757164
 30
0.0
 10
162.274495041463
 20
41.33804473757164
 30
0.0
 10
162.274495041463
 20
41.33804473757164
 30
0.0
  0
SPLINE
  5
89
330
1F
100
AcDbEntity
  8
0
  6
Continuous
 62
     7
370
    25
100
AcDbSpline
210
0.0
220
0.0
230
1.0
 70
     8
 71
     3
 72
     8
 73
     4
 74
     0
 42
0.00000001
 43
0.00000001
 40
0.0
 40
0.0
 40
0.0
 40
0.0
 40
1.0
 40
1.0
 40
1.0
 40
1.0
 10
160.8702010216006
 20
66.4895473464332
 30
0.0
 10
160.8451878956719
 20
66.57680748971754
 30
0.0
 10
160.831119368489
 20
66.66551171298572
 30
0.0
 10
160.831119368489
 20
66.7437557522349
 30
0.0
  0
LINE
  5
8A
330
1F
100
AcDbEntity
  8
0
  6
Continuous
 62
     7
370
    25
100
AcDbLine
 10
160.8311193685
 20
73.2686002931
 30
0.0
 11
160.8311193685
 21
66.7437557522
 31
0.0
  0
SPLINE
  5
8B
330
1F
100
AcDbEntity
  8
0
  6
Continuous
 62
     7
370
    25
100
AcDbSpline
210
0.0
220
0.0
230
1.0
 70
     8
 71
     3
 72
     8
 73
     4
 74
     0
 42
0.00000001
 43
0.00000001
 40
0.0
 40
0.0
 40
0.0
 40
0.0
 40
1.0
 40
1.0
 40
1.0
 40
1.0
 10
160.831119368489
 20
73.2686002931272
 30
0.0
 10
160.831119368489
 20
73.31480799744186
 30
0.0
 10
160.8451766812932
 20
73.33804473757164
 30
0.0
 10
160.8702010216006
 20
73.33804473757164
 30
0.0
  0
SPLINE
  5
8C
330
1F
100
AcDbEntity
  8
0
  6
Continuous
 62
     7
370
    25
100
AcDbSpline
210
0.0
220
0.0
230
1.0
 70
    24
 71
     3
 72
    10
 73
     6
 74
     0
 42
0.00000001
 43
0.00000001
 40
0.0
 40
0.0
 40
0.0
 40
0.0
 40
0.5
 40
0.5
 40
1.0
 40
1.0
 40
1.0
 40
1.0
 10
162.274495041463
 20
73.33804473757164
 30
0.0
 10
162.274495041463
 20
73.33804473757164
 30
0.0
 10
162.1394379244868
 20
73.33804473757164
 30
0.0
 10
161.6500363141631
 20
73.33804473757164
 30
0.0
 10
161.2972866568095
 20
73.33804473757164
 30
0.0
 10
160.8702010216006
 20
73.33804473757164
 30
0.0
  0
SPLINE
  5
8D
330
1F
100
AcDbEntity
  8
0
  6
Continuous
 62
     7
370
    25
100
AcDbSpline
210
0.0
220
0.0
230
1.0
 70
     8
 71
     3
 72
    10
 73
     6
 74
     0
 42
0.00000001
 43
0.00000001
 40
0.0
 40
0.0
 40
0.0
 40
0.0
 40
0.5
 40
0.5
 40
1.0
 40
1.0
 40
1.0
 40
1.0
 10
160.8702010216006
 20
66.4895473464332
 30
0.0
 10
161.2972760575252
 20
64.99966443719464
 30
0.0
 10
161.6500235772124
 20
63.49616255686139
 30
0.0
 10
162.1394305751295
 20
60.44956515793689
 30
0.0
 10
162.274495041463
 20
58.90574799449499
 30
0.0
 10
162.274495041463
 20
57.33804473757164
 30
0.0
  0
LINE
  5
8E
330
1F
100
AcDbEntity
  8
0
  6
Continuous
 62
     7
370
    25
100
AcDbLine
 10
162.2744950415
 20
73.3380447376
 30
0.0
 11
162.2744950415
 21
57.3380447376
 31
0.0
  0
LINE
  5
8F
330
1F
100
AcDbEntity
  8
0
  6
Continuous
 62
     7
370
    25
100
AcDbLine
 10
151.6246040355
 20
55.4773957632
 30
0.0
 11
151.251315727
 21
55.8506840717
 31
0.0
  0
LINE
  5
90
330
1F
100
AcDbEntity
  8
0
  6
Continuous
 62
     7
370
    25
100
AcDbLine
 10
151.251315727
 20
56.8564727572
 30
0.0
 11
151.6246040355
 21
57.2297610657
 31
0.0
  0
ARC
  5
91
330
1F
100
AcDbEntity
  8
0
  6
Continuous
 62
     7
370
    25
100
AcDbCircle
 10
150.7484213842
 20
56.3535784144
 30
0.0
 40
0.7111999999997523
100
AcDbArc
 50
45.0
 51
315.0
  0
ARC
  5
92
330
1F
100
AcDbEntity
  8
0
  6
Continuous
 62
     7
370
    25
100
AcDbCircle
 10
150.7484213842
 20
56.3535784144
 30
0.0
 40
1.239109388553836
100
AcDbArc
 50
45.0
 51
315.0
  0
LINE
  5
93
330
1F
100
AcDbEntity
  8
0
  6
Continuous
 62
     7
370
    25
100
AcDbLine
 10
154.2983197126
 20
56.6075784144
 30
0.0
 11
152.7578408623
 21
56.6075784144
 31
0.0
  0
LINE
  5
94
330
1F
100
AcDbEntity
  8
0
  6
Continuous
 62
     7
370
    25
100
AcDbLine
 10
154.2983197126
 20
56.0995784144
 30
0.0
 11
154.2983197126
 21
56.6075784144
 31
0.0
  0
LINE
  5
95
330
1F
100
AcDbEntity
  8
0
  6
Continuous
 62
     7
370
    25
100
AcDbLine
 10
152.7578408623
 20
56.0995784144
 30
0.0
 11
154.2983197126
 21
56.0995784144
 31
0.0
  0
ARC
  5
96
330
1F
100
AcDbEntity
  8
0
  6
Continuous
 62
     7
370
    25
100
AcDbCircle
 10
153.4221370613
 20
56.3535784144
 30
0.0
 40
0.7112000000000971
100
AcDbArc
 50
200.9248324276
 51
315.0
  0
LINE
  5
97
330
1F
100
AcDbEntity
  8
0
  6
Continuous
 62
     7
370
    25
100
AcDbLine
 10
154.2983197126
 20
55.4773957632
 30
0.0
 11
153.9250314041
 21
55.8506840717
 31
0.0
  0
ARC
  5
98
330
1F
100
AcDbEntity
  8
0
  6
Continuous
 62
     7
370
    25
100
AcDbCircle
 10
153.4221370613
 20
56.3535784144
 30
0.0
 40
1.239109388553836
100
AcDbArc
 50
45.0
 51
315.0
  0
LINE
  5
99
330
1F
100
AcDbEntity
  8
0
  6
Continuous
 62
     7
370
    25
100
AcDbLine
 10
153.9250314041
 20
56.8564727572
 30
0.0
 11
154.2983197126
 21
57.2297610657
 31
0.0
  0
ARC
  5
9A
330
1F
100
AcDbEntity
  8
0
  6
Continuous
 62
     7
370
    25
100
AcDbCircle
 10
153.4221370613
 20
56.3535784144
 30
0.0
 40
0.7112000000000588
100
AcDbArc
 50
45.0
 51
159.0751675723
  0
LINE
  5
9B
330
1F
100
AcDbEntity
  8
0
  6
Continuous
 62
     7
370
    25
100
AcDbLine
 10
137.6787890613
 20
48.1865421287
 30
0.0
 11
160.8702010216
 21
48.1865421287
 31
0.0
  0
SPLINE
  5
9C
330
1F
100
AcDbEntity
  8
0
  6
Continuous
 62
     7
370
    25
100
AcDbSpline
210
0.0
220
0.0
230
1.0
 70
     8
 71
     3
 72
    12
 73
     8
 74
     0
 42
0.00000001
 43
0.00000001
 40
0.0
 40
0.0
 40
0.0
 40
0.0
 40
0.25
 40
0.25
 40
0.5
 40
0.5
 40
1.0
 40
1.0
 40
1.0
 40
1.0
 10
137.6787890613253
 20
48.18654212871006
 30
0.0
 10
137.465125832601
 20
48.93192213463801
 30
0.0
 10
137.2686844489331
 20
49.68596080438942
 30
0.0
 10
136.9220202949954
 20
51.20347548133848
 30
0.0
 10
136.7723800659212
 20
51.96430061747292
 30
0.0
 10
136.4063410567835
 20
54.25400984489944
 30
0.0
 10
136.274495041463
 20
55.79027360576614
 30
0.0
 10
136.274495041463
 20
57.33804473757164
 30
0.0
  0
SPLINE
  5
9D
330
1F
100
AcDbEntity
  8
0
  6
Continuous
 62
     7
370
    25
100
AcDbSpline
210
0.0
220
0.0
230
1.0
 70
     8
 71
     3
 72
    12
 73
     8
 74
     0
 42
0.00000001
 43
0.00000001
 40
0.0
 40
0.0
 40
0.0
 40
0.0
 40
0.25
 40
0.25
 40
0.5
 40
0.5
 40
1.0
 40
1.0
 40
1.0
 40
1.0
 10
136.274495041463
 20
57.33804473757164
 30
0.0
 10
136.274495041463
 20
58.11245065146898
 30
0.0
 10
136.3072259167084
 20
58.8908680525914
 30
0.0
 10
136.4369052295831
 20
60.44846827779335
 30
0.0
 10
136.5329396867326
 20
61.21910172867863
 30
0.0
 10
136.9016548151064
 20
63.50989827768491
 30
0.0
 10
137.2544176461056
 20
65.00909621836263
 30
0.0
 10
137.6787890613254
 20
66.4895473464332
 30
0.0
  0
LINE
  5
9E
330
1F
100
AcDbEntity
  8
0
  6
Continuous
 62
     7
370
    25
100
AcDbLine
 10
160.8702010216
 20
66.4895473464
 30
0.0
 11
137.6787890613
 21
66.4895473464
 31
0.0
  0
LINE
  5
9F
330
1F
100
AcDbEntity
  8
0
  6
Continuous
 62
     7
370
    25
100
AcDbLine
 10
153.2744950415
 20
61.3380447376
 30
0.0
 11
145.2744950415
 21
61.3380447376
 31
0.0
  0
ARC
  5
A0
330
1F
100
AcDbEntity
  8
0
  6
Continuous
 62
     7
370
    25
100
AcDbCircle
 10
145.2744950415
 20
59.3380447376
 30
0.0
 40
2.0
100
AcDbArc
 50
90.0
 51
180.0
  0
LINE
  5
A1
330
1F
100
AcDbEntity
  8
0
  6
Continuous
 62
     7
370
    25
100
AcDbLine
 10
143.2744950415
 20
59.3380447376
 30
0.0
 11
143.2744950415
 21
55.3380447376
 31
0.0
  0
ARC
  5
A2
330
1F
100
AcDbEntity
  8
0
  6
Continuous
 62
     7
370
    25
100
AcDbCircle
 10
153.2744950415
 20
55.3380447376
 30
0.0
 40
2.0
100
AcDbArc
 50
270.0
 51
0.0
  0
LINE
  5
A3
330
1F
100
AcDbEntity
  8
0
  6
Continuous
 62
     7
370
    25
100
AcDbLine
 10
145.2744950415
 20
53.3380447376
 30
0.0
 11
153.2744950415
 21
53.3380447376
 31
0.0
  0
ARC
  5
A4
330
1F
100
AcDbEntity
  8
0
  6
Continuous
 62
     7
370
    25
100
AcDbCircle
 10
153.2744950415
 20
59.3380447376
 30
0.0
 40
2.0
100
AcDbArc
 50
0.0
 51
90.0
  0
ARC
  5
A5
330
1F
100
AcDbEntity
  8
0
  6
Continuous
 62
     7
370
    25
100
AcDbCircle
 10
145.2744950415
 20
55.3380447376
 30
0.0
 40
2.0
100
AcDbArc
 50
180.0
 51
270.0
  0
LINE
  5
A6
330
1F
100
AcDbEntity
  8
0
  6
Continuous
 62
     7
370
    25
100
AcDbLine
 10
155.2744950415
 20
55.3380447376
 30
0.0
 11
155.2744950415
 21
59.3380447376
 31
0.0
  0
SPLINE
  5
A7
330
1F
100
AcDbEntity
  8
0
  6
Continuous
 62
     7
370
    25
100
AcDbSpline
210
0.0
220
0.0
230
1.0
 70
     8
 71
     3
 72
     8
 73
     4
 74
     0
 42
0.00000001
 43
0.00000001
 40
0.0
 40
0.0
 40
0.0
 40
0.0
 40
1.0
 40
1.0
 40
1.0
 40
1.0
 10
137.6787890613254
 20
48.18654212871007
 30
0.0
 10
137.7038021872542
 20
48.09928198542574
 30
0.0
 10
137.7178707144371
 20
48.01057776215755
 30
0.0
 10
137.7178707144371
 20
47.93233372290837
 30
0.0
  0
LINE
  5
A8
330
1F
100
AcDbEntity
  8
0
  6
Continuous
 62
     7
370
    25
100
AcDbLine
 10
160.8311193685
 20
47.9323337229
 30
0.0
 11
137.7178707144
 21
47.9323337229
 31
0.0
  0
ELLIPSE
  5
A9
330
1F
100
AcDbEntity
  8
0
  6
Continuous
 62
     7
370
    25
100
AcDbEllipse
 10
148.1166768343
 20
55.1591765674
 30
0.0
 11
0.0678412947923448
 21
0.0
 31
0.0
210
0.0
220
0.0
230
1.0
 40
0.9533039403
 41
3.962594650552328
 42
5.81953769817827
  0
LINE
  5
AA
330
1F
100
AcDbEntity
  8
0
  6
Continuous
 62
     7
370
    25
100
AcDbLine
 10
144.2424272712
 20
56.3220798806
 30
0.0
 11
144.2011628148
 21
56.3447914366
 31
0.0
  0
ELLIPSE
  5
AB
330
1F
100
AcDbEntity
  8
0
  6
Continuous
 62
     7
370
    25
100
AcDbEllipse
 10
144.5137924504
 20
56.7701501568
 30
0.0
 11
-0.5427303583406626
 21
3.623767952376511E-13
 31
0.0
210
0.0
220
0.0
230
1.0
 40
0.9533039403
 41
1.047197551197493
 42
2.813039483038414
  0
LINE
  5
AC
330
1F
100
AcDbEntity
  8
0
  6
Continuous
 62
     7
370
    25
100
AcDbLine
 10
144.2011628148
 20
56.3447914366
 30
0.0
 11
144.8381777424
 21
55.1302537554
 31
0.0
  0
LINE
  5
AD
330
1F
100
AcDbEntity
  8
0
  6
Continuous
 62
     7
370
    25
100
AcDbLine
 10
146.4438778487
 20
57.3383764079
 30
0.0
 11
146.2009385038
 21
56.6899103144
 31
0.0
  0
LINE
  5
AE
330
1F
100
AcDbEntity
  8
0
  6
Continuous
 62
     7
370
    25
100
AcDbLine
 10
146.8145951721
 20
56.6899103141
 30
0.0
 11
146.57165583
 21
57.3383764079
 31
0.0
  0
ELLIPSE
  5
AF
330
1F
100
AcDbEntity
  8
0
  6
Continuous
 62
     7
370
    25
100
AcDbEllipse
 10
146.7507061815
 20
56.6681583048
 30
0.0
 11
-0.06784129479237322
 21
0.0
 31
0.0
210
0.0
220
0.0
230
1.0
 40
0.9533039403
 41
1.570796326794897
 42
3.484616592148483
  0
LINE
  5
B0
330
1F
100
AcDbEntity
  8
0
  6
Continuous
 62
     7
370
    25
100
AcDbLine
 10
146.2648274944
 20
56.6034849311
 30
0.0
 11
146.7507061815
 21
56.6034849311
 31
0.0
  0
ELLIPSE
  5
B1
330
1F
100
AcDbEntity
  8
0
  6
Continuous
 62
     7
370
    25
100
AcDbEllipse
 10
146.2648274944
 20
56.6681583048
 30
0.0
 11
0.0678412947923448
 21
0.0
 31
0.0
210
0.0
220
0.0
230
1.0
 40
0.9533039403
 41
2.798568711309806
 42
4.712388980384703
  0
LINE
  5
B2
330
1F
100
AcDbEntity
  8
0
  6
Continuous
 62
     7
370
    25
100
AcDbLine
 10
146.0349811369
 20
59.4205026611
 30
0.0
 11
145.027492264
 21
56.6032028648
 31
0.0
  0
ELLIPSE
  5
B3
330
1F
100
AcDbEntity
  8
0
  6
Continuous
 62
     7
370
    25
100
AcDbEllipse
 10
146.5077668378
 20
59.2106303062
 30
0.0
 11
0.5215299537176747
 21
0.0
 31
0.0
210
0.0
220
0.0
230
1.0
 40
0.9533039403
 41
0.4357918987553373
 42
2.705800754834453
  0
LINE
  5
B4
330
1F
100
AcDbEntity
  8
0
  6
Continuous
 62
     7
370
    25
100
AcDbLine
 10
147.988276248
 20
56.6025461777
 30
0.0
 11
146.9805525386
 21
59.4205026611
 31
0.0
  0
ELLIPSE
  5
B5
330
1F
100
AcDbEntity
  8
0
  6
Continuous
 62
     7
370
    25
100
AcDbEllipse
 10
148.5019760616
 20
56.7694934697
 30
0.0
 11
0.5427303583402932
 21
3.552713678800501E-13
 31
0.0
210
0.0
220
0.0
230
1.0
 40
0.9533039404
 41
3.470145824138284
 42
5.25246918053928
  0
LINE
  5
B6
330
1F
100
AcDbEntity
  8
0
  6
Continuous
 62
     7
370
    25
100
AcDbLine
 10
148.8143708607
 20
56.3447914366
 30
0.0
 11
148.7810506053
 21
56.3257474927
 31
0.0
  0
LINE
  5
B7
330
1F
100
AcDbEntity
  8
0
  6
Continuous
 62
     7
370
    25
100
AcDbLine
 10
148.1773559331
 20
55.1302537554
 30
0.0
 11
148.8143708607
 21
56.3447914366
 31
0.0
  0
ELLIPSE
  5
B8
330
1F
100
AcDbEntity
  8
0
  6
Continuous
 62
     7
370
    25
100
AcDbEllipse
 10
146.5077668377
 20
53.512097671
 30
0.0
 11
2.293035763987632
 21
-1.065814103640150E-12
 31
0.0
210
0.0
220
0.0
230
1.0
 40
0.9533039403
 41
0.8210019969646759
 42
2.320590656625866
  0
ELLIPSE
  5
B9
330
1F
100
AcDbEntity
  8
0
  6
Continuous
 62
     7
370
    25
100
AcDbEllipse
 10
144.8988568412
 20
55.1591765674
 30
0.0
 11
0.06784129479237322
 21
0.0
 31
0.0
210
0.0
220
0.0
230
1.0
 40
0.9533039403
 41
3.605240262598956
 42
5.462183310201372
  0
ELLIPSE
  5
BA
330
1F
100
AcDbEntity
  8
0
  6
Continuous
 62
     7
370
    25
100
AcDbEllipse
 10
146.5077668394
 20
57.3166243984
 30
0.0
 11
0.06784129479271428
 21
0.0
 31
0.0
210
0.0
220
0.0
230
1.0
 40
0.9533039403
 41
0.343023940419056
 42
2.798568713170737
  0
LINE
  5
BB
330
1F
100
AcDbEntity
  8
0
  6
Continuous
 62
     7
370
    25
100
AcDbLine
 10
136.2744950415
 20
57.3380447376
 30
0.0
 11
136.2744950415
 21
73.3380447376
 31
0.0
  0
SPLINE
  5
BC
330
1F
100
AcDbEntity
  8
0
  6
Continuous
 62
     7
370
    25
100
AcDbSpline
210
0.0
220
0.0
230
1.0
 70
    24
 71
     3
 72
    12
 73
     8
 74
     0
 42
0.00000001
 43
0.00000001
 40
0.0
 40
0.0
 40
0.0
 40
0.0
 40
0.2500000000000001
 40
0.2500000000000001
 40
0.5000000000000001
 40
0.5000000000000001
 40
1.0
 40
1.0
 40
1.0
 40
1.0
 10
136.274495041463
 20
73.33804473757164
 30
0.0
 10
136.274495041463
 20
73.33804473757164
 30
0.0
 10
136.3072259167084
 20
73.33804473757164
 30
0.0
 10
136.436905229583
 20
73.33804473757164
 30
0.0
 10
136.5329396867326
 20
73.33804473757164
 30
0.0
 10
136.9016548151064
 20
73.33804473757164
 30
0.0
 10
137.2544176461056
 20
73.33804473757164
 30
0.0
 10
137.6787890613254
 20
73.33804473757164
 30
0.0
  0
SPLINE
  5
BD
330
1F
100
AcDbEntity
  8
0
  6
Continuous
 62
     7
370
    25
100
AcDbSpline
210
0.0
220
0.0
230
1.0
 70
     8
 71
     3
 72
     8
 73
     4
 74
     0
 42
0.00000001
 43
0.00000001
 40
0.0
 40
0.0
 40
0.0
 40
0.0
 40
1.0
 40
1.0
 40
1.0
 40
1.0
 10
137.6787890613254
 20
73.33804473757164
 30
0.0
 10
137.7038021872542
 20
73.33804473757164
 30
0.0
 10
137.7178707144371
 20
73.3147971014702
 30
0.0
 10
137.7178707144371
 20
73.2686002931272
 30
0.0
  0
LINE
  5
BE
330
1F
100
AcDbEntity
  8
0
  6
Continuous
 62
     7
370
    25
100
AcDbLine
 10
137.7178707144
 20
66.7437557522
 30
0.0
 11
137.7178707144
 21
73.2686002931
 31
0.0
  0
SPLINE
  5
BF
330
1F
100
AcDbEntity
  8
0
  6
Continuous
 62
     7
370
    25
100
AcDbSpline
210
0.0
220
0.0
230
1.0
 70
     8
 71
     3
 72
     8
 73
     4
 74
     0
 42
0.00000001
 43
0.00000001
 40
0.0
 40
0.0
 40
0.0
 40
0.0
 40
1.0
 40
1.0
 40
1.0
 40
1.0
 10
137.7178707144371
 20
66.7437557522349
 30
0.0
 10
137.7178707144371
 20
66.66549325835943
 30
0.0
 10
137.7038134016329
 20
66.57684661190866
 30
0.0
 10
137.6787890613254
 20
66.4895473464332
 30
0.0
  0
LINE
  5
C0
330
1F
100
AcDbEntity
  8
0
  6
Continuous
 62
     7
370
    25
100
AcDbLine
 10
137.7178707144
 20
41.407489182
 30
0.0
 11
137.7178707144
 21
47.9323337229
 31
0.0
  0
SPLINE
  5
C1
330
1F
100
AcDbEntity
  8
0
  6
Continuous
 62
     7
370
    25
100
AcDbSpline
210
0.0
220
0.0
230
1.0
 70
     8
 71
     3
 72
     8
 73
     4
 74
     0
 42
0.00000001
 43
0.00000001
 40
0.0
 40
0.0
 40
0.0
 40
0.0
 40
1.0
 40
1.0
 40
1.0
 40
1.0
 10
137.7178707144371
 20
41.40748918201607
 30
0.0
 10
137.7178707144371
 20
41.36128147770141
 30
0.0
 10
137.7038134016329
 20
41.33804473757164
 30
0.0
 10
137.6787890613254
 20
41.33804473757164
 30
0.0
  0
SPLINE
  5
C2
330
1F
100
AcDbEntity
  8
0
  6
Continuous
 62
     7
370
    25
100
AcDbSpline
210
0.0
220
0.0
230
1.0
 70
    24
 71
     3
 72
    12
 73
     8
 74
     0
 42
0.00000001
 43
0.00000001
 40
0.0
 40
0.0
 40
0.0
 40
0.0
 40
0.2500000000000001
 40
0.2500000000000001
 40
0.5000000000000001
 40
0.5000000000000001
 40
1.0
 40
1.0
 40
1.0
 40
1.0
 10
136.274495041463
 20
41.33804473757164
 30
0.0
 10
136.274495041463
 20
41.33804473757164
 30
0.0
 10
136.3072259167132
 20
41.33804473757164
 30
0.0
 10
136.4369052295881
 20
41.33804473757164
 30
0.0
 10
136.5329396867366
 20
41.33804473757164
 30
0.0
 10
136.9016548151073
 20
41.33804473757164
 30
0.0
 10
137.2544176461043
 20
41.33804473757164
 30
0.0
 10
137.6787890613254
 20
41.33804473757164
 30
0.0
  0
LINE
  5
C3
330
1F
100
AcDbEntity
  8
0
  6
Continuous
 62
     7
370
    25
100
AcDbLine
 10
136.2744950415
 20
41.3380447376
 30
0.0
 11
136.2744950415
 21
57.3380447376
 31
0.0
  0
LINE
  5
C4
330
1F
100
AcDbEntity
  8
0
  6
Continuous
 62
     7
370
    25
100
AcDbLine
 10
137.7178707144
 20
66.7437557522
 30
0.0
 11
160.8311193685
 21
66.7437557522
 31
0.0
  0
LINE
  5
C5
330
1F
100
AcDbEntity
  8
0
  6
Continuous
 62
     7
370
    25
100
AcDbLine
 10
137.7178707144
 20
41.407489182
 30
0.0
 11
160.8311193685
 21
41.407489182
 31
0.0
  0
LINE
  5
C6
330
1F
100
AcDbEntity
  8
0
  6
Continuous
 62
     7
370
    25
100
AcDbLine
 10
160.8311193685
 20
73.2686002931
 30
0.0
 11
137.7178707144
 21
73.2686002931
 31
0.0
  0
LINE
  5
C7
330
1F
100
AcDbEntity
  8
0
  6
Continuous
 62
     7
370
    25
100
AcDbLine
 10
178.2744950415
 20
72.5880447376
 30
0.0
 11
178.2744950415
 21
42.0880447376
 31
0.0
  0
LINE
  5
C8
330
1F
100
AcDbEntity
  8
0
  6
Continuous
 62
     7
370
    25
100
AcDbLine
 10
177.7744950415
 20
41.5880447376
 30
0.0
 11
177.7744950415
 21
73.0880447376
 31
0.0
  0
LINE
  5
C9
330
1F
100
AcDbEntity
  8
0
  6
Continuous
 62
     7
370
    25
100
AcDbLine
 10
160.8702010216
 20
41.3380447376
 30
0.0
 11
137.6787890613
 21
41.3380447376
 31
0.0
  0
LINE
  5
CA
330
1F
100
AcDbEntity
  8
0
  6
Continuous
 62
     7
370
    25
100
AcDbLine
 10
137.6787890613
 20
73.3380447376
 30
0.0
 11
160.8702010216
 21
73.3380447376
 31
0.0
  0
LINE
  5
CB
330
1F
100
AcDbEntity
  8
0
  6
Continuous
 62
     7
370
    25
100
AcDbLine
 10
149.2744950415
 20
77.2380447376
 30
0.0
 11
157.0244950415
 21
77.2380447376
 31
0.0
  0
LINE
  5
CC
330
1F
100
AcDbEntity
  8
0
  6
Continuous
 62
     7
370
    25
100
AcDbLine
 10
141.5244950415
 20
77.2380447376
 30
0.0
 11
149.2744950415
 21
77.2380447376
 31
0.0
  0
LINE
  5
CD
330
1F
100
AcDbEntity
  8
0
  6
Continuous
 62
     7
370
    25
100
AcDbLine
 10
149.2744950415
 20
76.7380447376
 30
0.0
 11
141.0244950415
 21
76.7380447376
 31
0.0
  0
LINE
  5
CE
330
1F
100
AcDbEntity
  8
0
  6
Continuous
 62
     7
370
    25
100
AcDbLine
 10
157.5244950415
 20
76.7380447376
 30
0.0
 11
149.2744950415
 21
76.7380447376
 31
0.0
  0
ARC
  5
CF
330
1F
100
AcDbEntity
  8
0
  6
Continuous
 62
     7
370
    25
100
AcDbCircle
 10
148.2075433723
 20
93.4391207884
 30
0.0
 40
2.367678303507892
100
AcDbArc
 50
93.3632881501
 51
99.4868245017
  0
ARC
  5
D0
330
1F
100
AcDbEntity
  8
0
  6
Continuous
 62
     7
370
    25
100
AcDbCircle
 10
150.3414503972
 20
93.439162039
 30
0.0
 40
2.367636907666558
100
AcDbArc
 50
80.5187694298
 51
86.636742268
  0
SPLINE
  5
D1
330
1F
100
AcDbEntity
  8
0
  6
Continuous
 62
     7
370
    25
100
AcDbSpline
210
0.0
220
0.0
230
1.0
 70
     8
 71
     3
 72
    15
 73
    11
 74
     0
 42
0.00000001
 43
0.00000001
 40
0.0
 40
0.0
 40
0.0
 40
0.0
 40
0.1233867499278388
 40
0.2487396502211601
 40
0.3739317114754985
 40
0.4999973617625659
 40
0.6259591330513601
 40
0.7512551380600303
 40
0.8765613478174267
 40
1.0
 40
1.0
 40
1.0
 40
1.0
 10
149.2116121766569
 20
95.83793763487611
 30
0.0
 10
149.2144903778488
 20
95.83793829394826
 30
0.0
 10
149.2202926439604
 20
95.83793962259476
 30
0.0
 10
149.2358220486812
 20
95.83794357222192
 30
0.0
 10
149.2541766305546
 20
95.8379453545713
 30
0.0
 10
149.2744894470376
 20
95.83794690814923
 30
0.0
 10
149.2948078647527
 20
95.8379453540143
 30
0.0
 10
149.3131607339168
 20
95.83794357713374
 30
0.0
 10
149.3286988383122
 20
95.83793960961559
 30
0.0
 10
149.3344994003435
 20
95.83793828981963
 30
0.0
 10
149.3373779062691
 20
95.83793763487613
 30
0.0
  0
ARC
  5
D2
330
1F
100
AcDbEntity
  8
0
  6
Continuous
 62
     7
370
    25
100
AcDbCircle
 10
149.2125066043
 20
93.293588222
 30
0.0
 40
2.544349570057344
100
AcDbArc
 50
90.0201414662
 51
95.4127462174
  0
SPLINE
  5
D3
330
1F
100
AcDbEntity
  8
0
  6
Continuous
 62
     7
370
    25
100
AcDbSpline
210
0.0
220
0.0
230
1.0
 70
     8
 71
     3
 72
    15
 73
    11
 74
     0
 42
0.00000001
 43
0.00000001
 40
0.0
 40
0.0
 40
0.0
 40
0.0
 40
0.126158522421064
 40
0.2513121451548799
 40
0.3762846848783793
 40
0.499306278334087
 40
0.6261594278645742
 40
0.7521171342021308
 40
0.875819692269278
 40
1.0
 40
1.0
 40
1.0
 40
1.0
 10
149.0353815157852
 20
95.8246945034654
 30
0.0
 10
149.0301504192966
 20
95.82464357771492
 30
0.0
 10
149.0197298939539
 20
95.82454213185656
 30
0.0
 10
149.0049433434395
 20
95.82453795021931
 30
0.0
 10
148.991752990814
 20
95.82463728903994
 30
0.0
 10
148.9808824159728
 20
95.824857831243
 30
0.0
 10
148.9728748286442
 20
95.82518169864446
 30
0.0
 10
148.9687082016115
 20
95.82560156849196
 30
0.0
 10
148.9680871500999
 20
95.82608028555767
 30
0.0
 10
148.9710262624547
 20
95.82642157480325
 30
0.0
 10
148.9724986509374
 20
95.82659254831286
 30
0.0
  0
ARC
  5
D4
330
1F
100
AcDbEntity
  8
0
  6
Continuous
 62
     7
370
    25
100
AcDbCircle
 10
149.2744950415
 20
75.2380447376
 30
0.0
 40
20.58803836847347
100
AcDbArc
 50
89.3345405821
 51
90.66545941
  0
SPLINE
  5
D5
330
1F
100
AcDbEntity
  8
0
  6
Continuous
 62
     7
370
    25
100
AcDbSpline
210
0.0
220
0.0
230
1.0
 70
     8
 71
     3
 72
    15
 73
    11
 74
     0
 42
0.00000001
 43
0.00000001
 40
0.0
 40
0.0
 40
0.0
 40
0.0
 40
0.1241186784437694
 40
0.2478474916628983
 40
0.3736574149478942
 40
0.5005082335853297
 40
0.6234527658309919
 40
0.7484986612277521
 40
0.8736976492452766
 40
1.0
 40
1.0
 40
1.0
 40
1.0
 10
149.5764914347146
 20
95.82659254827955
 30
0.0
 10
149.5779625073234
 20
95.82642166800106
 30
0.0
 10
149.5809000318018
 20
95.82608044419068
 30
0.0
 10
149.5802832973017
 20
95.8256019079032
 30
0.0
 10
149.5761213357071
 20
95.8251821180313
 30
0.0
 10
149.5681225879087
 20
95.8248583301849
 30
0.0
 10
149.5572564963719
 20
95.82463763197921
 30
0.0
 10
149.5440687785473
 20
95.82453804006903
 30
0.0
 10
149.5292743319721
 20
95.82454195446763
 30
0.0
 10
149.5188457410647
 20
95.82464350527304
 30
0.0
 10
149.5136085699503
 20
95.82469450343275
 30
0.0
  0
ARC
  5
D6
330
1F
100
AcDbEntity
  8
0
  6
Continuous
 62
     7
370
    25
100
AcDbCircle
 10
149.3364834785
 20
93.2935881698
 30
0.0
 40
2.544349622300826
100
AcDbArc
 50
84.5872538302
 51
89.9798585321
  0
SPLINE
  5
D7
330
1F
100
AcDbEntity
  8
0
  6
Continuous
 62
     7
370
    25
100
AcDbSpline
210
0.0
220
0.0
230
1.0
 70
     8
 71
     3
 72
    12
 73
     8
 74
     0
 42
0.00000001
 43
0.00000001
 40
0.0
 40
0.0
 40
0.0
 40
0.0
 40
0.1374975366677113
 40
0.2750385788614215
 40
0.5575409445665217
 40
0.7769626822980097
 40
1.0
 40
1.0
 40
1.0
 40
1.0
 10
129.7502942741069
 20
87.01441733959788
 30
0.0
 10
130.235602662364
 20
86.92809918522781
 30
0.0
 10
131.2063729950597
 20
86.75543556460414
 30
0.0
 10
133.1090684507474
 20
86.2227771124077
 30
0.0
 10
135.1922904391527
 20
85.37485784753746
 30
0.0
 10
137.4140670156838
 20
84.1109691717997
 30
0.0
 10
138.65098318866
 20
83.12363104812759
 30
0.0
 10
139.274495041463
 20
82.62592794076775
 30
0.0
  0
ELLIPSE
  5
D8
330
1F
100
AcDbEntity
  8
0
  6
Continuous
 62
     7
370
    25
100
AcDbEllipse
 10
251.7883905139
 20
80.3598674559
 30
0.0
 11
171.000000000001
 21
0.0
 31
0.0
210
0.0
220
0.0
230
1.0
 40
0.0555555556
 41
2.292395939553286
 42
2.365524293035123
  0
LINE
  5
D9
330
1F
100
AcDbEntity
  8
0
  6
Continuous
 62
     7
370
    25
100
AcDbLine
 10
138.8281116865
 20
87.4919925282
 30
0.0
 11
139.2744950415
 21
87.4545305624
 31
0.0
  0
LINE
  5
DA
330
1F
100
AcDbEntity
  8
0
  6
Continuous
 62
     7
370
    25
100
AcDbLine
 10
139.2744950415
 20
82.6259279408
 30
0.0
 11
139.2744950415
 21
87.4545305624
 31
0.0
  0
SPLINE
  5
DB
330
1F
100
AcDbEntity
  8
0
  6
Continuous
 62
     7
370
    25
100
AcDbSpline
210
0.0
220
0.0
230
1.0
 70
     8
 71
     3
 72
    11
 73
     7
 74
     0
 42
0.00000001
 43
0.00000001
 40
0.0
 40
0.0
 40
0.0
 40
0.0
 40
0.2795638428677821
 40
0.5590315779132455
 40
0.7794196683689393
 40
1.0
 40
1.0
 40
1.0
 40
1.0
 10
126.8381670873855
 20
87.23804473757163
 30
0.0
 10
126.7145937416094
 20
87.27656358951972
 30
0.0
 10
126.4674895318209
 20
87.35358805149255
 30
0.0
 10
126.2137336238977
 20
87.88638594928224
 30
0.0
 10
126.0971151829172
 20
88.51412251614863
 30
0.0
 10
126.1236345689524
 20
88.91510533231727
 30
0.0
 10
126.136900042563
 20
89.11568414508186
 30
0.0
  0
SPLINE
  5
DC
330
1F
100
AcDbEntity
  8
0
  6
Continuous
 62
     7
370
    25
100
AcDbSpline
210
0.0
220
0.0
230
1.0
 70
     8
 71
     3
 72
     9
 73
     5
 74
     0
 42
0.00000001
 43
0.00000001
 40
0.0
 40
0.0
 40
0.0
 40
0.0
 40
0.498674098273861
 40
1.0
 40
1.0
 40
1.0
 40
1.0
 10
127.4284605836319
 20
89.14548517051232
 30
0.0
 10
127.2219869425621
 20
89.14695024976898
 30
0.0
 10
126.8079416938025
 20
89.14988819914657
 30
0.0
 10
126.3609755918576
 20
89.12710492021486
 30
0.0
 10
126.1368999077591
 20
89.11568307236014
 30
0.0
  0
SPLINE
  5
DD
330
1F
100
AcDbEntity
  8
0
  6
Continuous
 62
     7
370
    25
100
AcDbSpline
210
0.0
220
0.0
230
1.0
 70
     8
 71
     3
 72
    13
 73
     9
 74
     0
 42
0.00000001
 43
0.00000001
 40
0.0
 40
0.0
 40
0.0
 40
0.0
 40
0.3327087167328944
 40
0.5628656559531304
 40
0.6987124125384707
 40
0.8016200683166484
 40
0.9052998751809803
 40
1.0
 40
1.0
 40
1.0
 40
1.0
 10
129.4192613239025
 20
87.06259177642251
 30
0.0
 10
129.0568704935753
 20
87.14837735134066
 30
0.0
 10
128.443789614822
 20
87.29350656337866
 30
0.0
 10
127.7942442901595
 20
87.74387325980595
 30
0.0
 10
127.4515472745615
 20
88.1436144084118
 30
0.0
 10
127.3026236634177
 20
88.49950665482338
 30
0.0
 10
127.290450943991
 20
88.8469405018576
 30
0.0
 10
127.3838675378112
 20
89.04901937303669
 30
0.0
 10
127.4284615802623
 20
89.14548525122085
 30
0.0
  0
SPLINE
  5
DE
330
1F
100
AcDbEntity
  8
0
  6
Continuous
 62
     7
370
    25
100
AcDbSpline
210
0.0
220
0.0
230
1.0
 70
     8
 71
     3
 72
     9
 73
     5
 74
     0
 42
0.00000001
 43
0.00000001
 40
0.0
 40
0.0
 40
0.0
 40
0.0
 40
0.5551829690770672
 40
1.0
 40
1.0
 40
1.0
 40
1.0
 10
126.8381670873855
 20
87.23804473757163
 30
0.0
 10
127.3681899611067
 20
87.22504571708058
 30
0.0
 10
128.3228713963141
 20
87.20163177750554
 30
0.0
 10
129.0817148374715
 20
87.10539813815383
 30
0.0
 10
129.4192613239025
 20
87.06259177642251
 30
0.0
  0
LINE
  5
DF
330
1F
100
AcDbEntity
  8
0
  6
Continuous
 62
     7
370
    25
100
AcDbLine
 10
138.8281116865
 20
92.7380447376
 30
0.0
 11
138.8281116865
 21
87.4919925282
 31
0.0
  0
LINE
  5
E0
330
1F
100
AcDbEntity
  8
0
  6
Continuous
 62
     7
370
    25
100
AcDbLine
 10
139.2744950415
 20
92.7380447376
 30
0.0
 11
138.8281116865
 21
92.7380447376
 31
0.0
  0
LINE
  5
E1
330
1F
100
AcDbEntity
  8
0
  6
Continuous
 62
     7
370
    25
100
AcDbLine
 10
139.2744950415
 20
87.4545305624
 30
0.0
 11
139.2744950415
 21
92.7380447376
 31
0.0
  0
ARC
  5
E2
330
1F
100
AcDbEntity
  8
0
  6
Continuous
 62
     7
370
    25
100
AcDbCircle
 10
145.6509241001
 20
93.1118908914
 30
0.0
 40
6.833046917561504
100
AcDbArc
 50
170.513808076
 51
183.1363032674
  0
ARC
  5
E3
330
1F
100
AcDbEntity
  8
0
  6
Continuous
 62
     7
370
    25
100
AcDbCircle
 10
138.9069271751
 20
93.4477947891
 30
0.0
 40
0.7902621394877652
100
AcDbArc
 50
62.2819181136
 51
89.6817467964
  0
LINE
  5
E4
330
1F
100
AcDbEntity
  8
0
  6
Continuous
 62
     7
370
    25
100
AcDbLine
 10
139.2744950415
 20
92.7380447376
 30
0.0
 11
139.2744950415
 21
94.1473718848
 31
0.0
  0
LINE
  5
E5
330
1F
100
AcDbEntity
  8
0
  6
Continuous
 62
     7
370
    25
100
AcDbLine
 10
127.4282875099
 20
89.1455856569
 30
0.0
 11
129.4942412448
 21
92.7381557435
 31
0.0
  0
LINE
  5
E6
330
1F
100
AcDbEntity
  8
0
  6
Continuous
 62
     7
370
    25
100
AcDbLine
 10
129.494433675
 20
92.7380447376
 30
0.0
 11
138.8281116865
 21
92.7380447376
 31
0.0
  0
ARC
  5
E7
330
1F
100
AcDbEntity
  8
0
  6
Continuous
 62
     7
370
    25
100
AcDbCircle
 10
126.8381670874
 20
68.1650374903
 30
0.0
 40
19.0730072472477
100
AcDbArc
 50
81.2175477188
 51
82.2224666688
  0
LINE
  5
E8
330
1F
100
AcDbEntity
  8
0
  6
Continuous
 62
     7
370
    25
100
AcDbLine
 10
138.911316716
 20
94.2380447376
 30
0.0
 11
127.4955874325
 21
94.2380447376
 31
0.0
  0
SPLINE
  5
E9
330
1F
100
AcDbEntity
  8
0
  6
Continuous
 62
     7
370
    25
100
AcDbSpline
210
0.0
220
0.0
230
1.0
 70
     8
 71
     3
 72
    15
 73
    11
 74
     0
 42
0.00000001
 43
0.00000001
 40
0.0
 40
0.0
 40
0.0
 40
0.0
 40
0.2070474010410777
 40
0.4175968630246832
 40
0.5931232720441626
 40
0.6923428991082513
 40
0.7730996831079096
 40
0.8543284120985933
 40
0.926147516637204
 40
1.0
 40
1.0
 40
1.0
 40
1.0
 10
127.4930211457775
 20
94.23803001146564
 30
0.0
 10
127.7241103827424
 20
94.2341797726243
 30
0.0
 10
128.190197568334
 20
94.2264141708638
 30
0.0
 10
128.8147953676411
 20
94.13976420812634
 30
0.0
 10
129.2764745580718
 20
93.96981369858375
 30
0.0
 10
129.5383782570555
 20
93.74044884123519
 30
0.0
 10
129.6588449131867
 20
93.50265537595587
 30
0.0
 10
129.6776389513824
 20
93.24074239868263
 30
0.0
 10
129.6166005593824
 20
92.97519999666724
 30
0.0
 10
129.5354054657676
 20
92.81790237365351
 30
0.0
 10
129.4942412319818
 20
92.7381557308525
 30
0.0
  0
SPLINE
  5
EA
330
1F
100
AcDbEntity
  8
0
  6
Continuous
 62
     7
370
    25
100
AcDbSpline
210
0.0
220
0.0
230
1.0
 70
     8
 71
     3
 72
    11
 73
     7
 74
     0
 42
0.00000001
 43
0.00000001
 40
0.0
 40
0.0
 40
0.0
 40
0.0
 40
0.249115000282908
 40
0.4989585322854286
 40
0.7493328274976518
 40
1.0
 40
1.0
 40
1.0
 40
1.0
 10
126.136900042563
 20
89.11568414508186
 30
0.0
 10
125.7111887612496
 20
89.08943103711303
 30
0.0
 10
124.8585212146937
 20
89.03684804449844
 30
0.0
 10
123.4949554534419
 20
88.95252701427195
 30
0.0
 10
122.0942828362296
 20
88.86579374546022
 30
0.0
 10
121.1434626007425
 20
88.80681618003264
 30
0.0
 10
120.6677745881819
 20
88.77731016003344
 30
0.0
  0
SPLINE
  5
EB
330
1F
100
AcDbEntity
  8
0
  6
Continuous
 62
     7
370
    25
100
AcDbSpline
210
0.0
220
0.0
230
1.0
 70
     8
 71
     3
 72
     9
 73
     5
 74
     0
 42
0.00000001
 43
0.00000001
 40
0.0
 40
0.0
 40
0.0
 40
0.0
 40
0.5599987526606142
 40
1.0
 40
1.0
 40
1.0
 40
1.0
 10
123.2316759558393
 20
93.75113321172546
 30
0.0
 10
122.7519096979521
 20
92.82329191187613
 30
0.0
 10
121.8951823291718
 20
91.16642875737615
 30
0.0
 10
121.0428165806992
 20
89.50732005746569
 30
0.0
 10
120.6677745881819
 20
88.77731016003345
 30
0.0
  0
SPLINE
  5
EC
330
1F
100
AcDbEntity
  8
0
  6
Continuous
 62
     7
370
    25
100
AcDbSpline
210
0.0
220
0.0
230
1.0
 70
     8
 71
     3
 72
     9
 73
     5
 74
     0
 42
0.00000001
 43
0.00000001
 40
0.0
 40
0.0
 40
0.0
 40
0.0
 40
0.5600000882143262
 40
1.0
 40
1.0
 40
1.0
 40
1.0
 10
123.7361630933914
 20
94.72495626341758
 30
0.0
 10
123.6419506778597
 20
94.5431973925858
 30
0.0
 10
123.4737142480547
 20
94.21862803151416
 30
0.0
 10
123.3056320903861
 20
93.89397883121734
 30
0.0
 10
123.2316759558393
 20
93.75113321172546
 30
0.0
  0
SPLINE
  5
ED
330
1F
100
AcDbEntity
  8
0
  6
Continuous
 62
     7
370
    25
100
AcDbSpline
210
0.0
220
0.0
230
1.0
 70
     8
 71
     3
 72
    10
 73
     6
 74
     0
 42
0.00000001
 43
0.00000001
 40
0.0
 40
0.0
 40
0.0
 40
0.0
 40
0.428349366631063
 40
0.7616603141144168
 40
1.0
 40
1.0
 40
1.0
 40
1.0
 10
123.7361630933916
 20
94.72495626341778
 30
0.0
 10
124.1830902946746
 20
94.62316000059464
 30
0.0
 10
124.9777843902742
 20
94.44215314134009
 30
0.0
 10
126.0143391912797
 20
94.268490758387
 30
0.0
 10
126.6002045242801
 20
94.24700348049123
 30
0.0
 10
126.8444707793802
 20
94.23804473757154
 30
0.0
  0
LINE
  5
EE
330
1F
100
AcDbEntity
  8
0
  6
Continuous
 62
     7
370
    25
100
AcDbLine
 10
126.8423706193
 20
94.2380447376
 30
0.0
 11
127.4930240854
 21
94.2380447376
 31
0.0
  0
LINE
  5
EF
330
1F
100
AcDbEntity
  8
0
  6
Continuous
 62
     7
370
    25
100
AcDbLine
 10
139.2744950415
 20
94.2380447376
 30
0.0
 11
138.911316716
 21
94.2380447376
 31
0.0
  0
LINE
  5
F0
330
1F
100
AcDbEntity
  8
0
  6
Continuous
 62
     7
370
    25
100
AcDbLine
 10
139.2744950415
 20
94.1473718848
 30
0.0
 11
139.2744950415
 21
94.2380447376
 31
0.0
  0
SPLINE
  5
F1
330
1F
100
AcDbEntity
  8
0
  6
Continuous
 62
     7
370
    25
100
AcDbSpline
210
0.0
220
0.0
230
1.0
 70
    24
 71
     3
 72
    11
 73
     7
 74
     0
 42
0.00000001
 43
0.00000001
 40
0.0
 40
0.0
 40
0.0
 40
0.0
 40
0.2799857774483057
 40
0.5599458358671288
 40
0.779998565900937
 40
0.9999999999999999
 40
0.9999999999999999
 40
0.9999999999999999
 40
0.9999999999999999
 10
120.7070265553641
 20
87.23804473757163
 30
0.0
 10
121.3043505424481
 20
87.23804473757163
 30
0.0
 10
122.4989436474245
 20
87.23804473757164
 30
0.0
 10
124.1263054029072
 20
87.23804473757163
 30
0.0
 10
125.5820349724053
 20
87.23804473757164
 30
0.0
 10
126.4194889223131
 20
87.23804473757163
 30
0.0
 10
126.8381670873855
 20
87.23804473757163
 30
0.0
  0
SPLINE
  5
F2
330
1F
100
AcDbEntity
  8
0
  6
Continuous
 62
     7
370
    25
100
AcDbSpline
210
0.0
220
0.0
230
1.0
 70
     8
 71
     3
 72
    11
 73
     7
 74
     0
 42
0.00000001
 43
0.00000001
 40
0.0
 40
0.0
 40
0.0
 40
0.0
 40
0.2500000000000001
 40
0.4999999999999998
 40
0.7500000000000001
 40
1.0
 40
1.0
 40
1.0
 40
1.0
 10
120.7070265553641
 20
87.23804473757163
 30
0.0
 10
120.701795521604
 20
87.26136626987994
 30
0.0
 10
120.6913334540837
 20
87.30800933449655
 30
0.0
 10
120.6782189662164
 20
87.66599040286324
 30
0.0
 10
120.6691946227225
 20
88.1761833409052
 30
0.0
 10
120.6682479330287
 20
88.57693455365737
 30
0.0
 10
120.6677745881819
 20
88.77731016003345
 30
0.0
  0
SPLINE
  5
F3
330
1F
100
AcDbEntity
  8
0
  6
Continuous
 62
     7
370
    25
100
AcDbSpline
210
0.0
220
0.0
230
1.0
 70
     8
 71
     3
 72
    11
 73
     7
 74
     0
 42
0.00000001
 43
0.00000001
 40
0.0
 40
0.0
 40
0.0
 40
0.0
 40
0.2499999999999989
 40
0.4999999999999994
 40
0.7499999999999989
 40
1.0
 40
1.0
 40
1.0
 40
1.0
 10
136.2614245076819
 20
94.23804473757163
 30
0.0
 10
136.2631109781858
 20
94.24530704722376
 30
0.0
 10
136.2664839191937
 20
94.25983166652804
 30
0.0
 10
136.270763816095
 20
94.37180387012053
 30
0.0
 10
136.2738059369088
 20
94.53231544814552
 30
0.0
 10
136.2742743101313
 20
94.66074265832697
 30
0.0
 10
136.2745084967426
 20
94.72495626341768
 30
0.0
  0
SPLINE
  5
F4
330
1F
100
AcDbEntity
  8
0
  6
Continuous
 62
     7
370
    25
100
AcDbSpline
210
0.0
220
0.0
230
1.0
 70
     8
 71
     3
 72
    13
 73
     9
 74
     0
 42
0.00000001
 43
0.00000001
 40
0.0
 40
0.0
 40
0.0
 40
0.0
 40
0.288694968291485
 40
0.5545536835943152
 40
0.6780091910936104
 40
0.7888922083801199
 40
0.8964194071406489
 40
1.0
 40
1.0
 40
1.0
 40
1.0
 10
136.2745084967426
 20
94.72495626341768
 30
0.0
 10
136.5462336873188
 20
94.68632610953969
 30
0.0
 10
137.0681901531733
 20
94.61212151131745
 30
0.0
 10
137.6657655612765
 20
94.52905879178881
 30
0.0
 10
138.0296197414561
 20
94.48007786118023
 30
0.0
 10
138.2261672330218
 20
94.45406090140874
 30
0.0
 10
138.352450522128
 20
94.4387020910645
 30
0.0
 10
138.367239024099
 20
94.43826110737704
 30
0.0
 10
138.374495041463
 20
94.43804473757164
 30
0.0
  0
SPLINE
  5
F5
330
1F
100
AcDbEntity
  8
0
  6
Continuous
 62
     7
370
    25
100
AcDbSpline
210
0.0
220
0.0
230
1.0
 70
     8
 71
     3
 72
    11
 73
     7
 74
     0
 42
0.00000001
 43
0.00000001
 40
0.0
 40
0.0
 40
0.0
 40
0.0
 40
0.2500000000000007
 40
0.5000000000000022
 40
0.7500000000000036
 40
1.0
 40
1.0
 40
1.0
 40
1.0
 10
138.374495041463
 20
94.43804473757164
 30
0.0
 10
138.3997549796672
 20
94.40866706773987
 30
0.0
 10
138.4502748560755
 20
94.34991172807634
 30
0.0
 10
138.5491334652759
 20
94.28732158519735
 30
0.0
 10
138.6585207450993
 20
94.24578878356441
 30
0.0
 10
138.7358369426751
 20
94.2406260862359
 30
0.0
 10
138.774495041463
 20
94.23804473757164
 30
0.0
  0
LINE
  5
F6
330
1F
100
AcDbEntity
  8
0
  6
Continuous
 62
     7
370
    25
100
AcDbLine
 10
136.2745084967
 20
94.7249562634
 30
0.0
 11
123.7361630934
 21
94.7249562634
 31
0.0
  0
LINE
  5
F7
330
1F
100
AcDbEntity
  8
0
  6
Continuous
 62
     7
370
    25
100
AcDbLine
 10
138.3744950415
 20
94.4380447376
 30
0.0
 11
135.9744950415
 21
97.6380447376
 31
0.0
  0
LINE
  5
F8
330
1F
100
AcDbEntity
  8
0
  6
Continuous
 62
     7
370
    25
100
AcDbLine
 10
134.1509492433
 20
97.5563686014
 30
0.0
 11
136.2745084967
 21
94.7249562634
 31
0.0
  0
ELLIPSE
  5
F9
330
1F
100
AcDbEntity
  8
0
  6
Continuous
 62
     7
370
    25
100
AcDbEllipse
 10
134.1744950415
 20
97.5380447376
 30
0.0
 11
1.560063634884898
 21
0.419871674099312
 31
0.0
210
0.0
220
0.0
230
0.9999999999999999
 40
0.0147408623
 41
0.9331929812039188
 42
1.581922327328506
  0
SPLINE
  5
FA
330
1F
100
AcDbEntity
  8
0
  6
Continuous
 62
     7
370
    25
100
AcDbSpline
210
0.0
220
0.0
230
1.0
 70
     8
 71
     3
 72
    11
 73
     7
 74
     0
 42
0.00000001
 43
0.00000001
 40
0.0
 40
0.0
 40
0.0
 40
0.0
 40
0.2307374805226516
 40
0.4903955403005857
 40
0.7438105520730655
 40
1.0
 40
1.0
 40
1.0
 40
1.0
 10
135.098183045098
 20
97.80646073272494
 30
0.0
 10
135.1898150498575
 20
97.8251765831294
 30
0.0
 10
135.3845641923942
 20
97.86495412404078
 30
0.0
 10
135.6320717596322
 20
97.84763413548217
 30
0.0
 10
135.8418804890262
 20
97.77664924315602
 30
0.0
 10
135.9301300385066
 20
97.68441362535229
 30
0.0
 10
135.974495041463
 20
97.63804473757163
 30
0.0
  0
LINE
  5
FB
330
1F
100
AcDbEntity
  8
0
  6
Continuous
 62
     7
370
    25
100
AcDbLine
 10
120.6677745882
 20
88.77731016
 30
0.0
 11
99.0402264194
 21
88.77731016
 31
0.0
  0
LINE
  5
FC
330
1F
100
AcDbEntity
  8
0
  6
Continuous
 62
     7
370
    25
100
AcDbLine
 10
99.0402264194
 20
88.77731016
 30
0.0
 11
99.2626713306
 21
97.2721385965
 31
0.0
  0
ARC
  5
FD
330
1F
100
AcDbEntity
  8
0
  6
Continuous
 62
     7
370
    25
100
AcDbCircle
 10
99.8742114455
 20
96.7563686014
 30
0.0
 40
0.8000000000000114
100
AcDbArc
 50
90.0
 51
139.8558773282
  0
LINE
  5
FE
330
1F
100
AcDbEntity
  8
0
  6
Continuous
 62
     7
370
    25
100
AcDbLine
 10
99.8742114455
 20
97.5563686014
 30
0.0
 11
134.1509492433
 21
97.5563686014
 31
0.0
  0
SPLINE
  5
FF
330
1F
100
AcDbEntity
  8
0
  6
Continuous
 62
     7
370
    25
100
AcDbSpline
210
0.0
220
0.0
230
1.0
 70
     8
 71
     3
 72
    11
 73
     7
 74
     0
 42
0.00000001
 43
0.00000001
 40
0.0
 40
0.0
 40
0.0
 40
0.0
 40
0.2499999999999985
 40
0.4999999999999984
 40
0.7499999999999983
 40
1.0
 40
1.0
 40
1.0
 40
1.0
 10
99.87421144552788
 20
97.55636860138715
 30
0.0
 10
99.87453930678369
 20
97.64626764851417
 30
0.0
 10
99.87519502929531
 20
97.8260657427682
 30
0.0
 10
99.8794539984346
 20
98.05078195200313
 30
0.0
 10
99.88544585409639
 20
98.20754303703264
 30
0.0
 10
99.89016797150741
 20
98.22787750405864
 30
0.0
 10
99.89252903021291
 20
98.23804473757164
 30
0.0
  0
LINE
  5
100
330
1F
100
AcDbEntity
  8
0
  6
Continuous
 62
     7
370
    25
100
AcDbLine
 10
134.169266828
 20
98.2380447376
 30
0.0
 11
99.8925290302
 21
98.2380447376
 31
0.0
  0
SPLINE
  5
101
330
1F
100
AcDbEntity
  8
0
  6
Continuous
 62
     7
370
    25
100
AcDbSpline
210
0.0
220
0.0
230
1.0
 70
     8
 71
     3
 72
    11
 73
     7
 74
     0
 42
0.00000001
 43
0.00000001
 40
0.0
 40
0.0
 40
0.0
 40
0.0
 40
0.2500000000000006
 40
0.4999999999999992
 40
0.7499999999999969
 40
1.0
 40
1.0
 40
1.0
 40
1.0
 10
134.1692668279506
 20
98.23804473757164
 30
0.0
 10
134.1669057692451
 20
98.22787750405864
 30
0.0
 10
134.1621836518341
 20
98.20754303703264
 30
0.0
 10
134.1561917961722
 20
98.05078195200315
 30
0.0
 10
134.151932827033
 20
97.82606574276817
 30
0.0
 10
134.1512771045213
 20
97.64626764851415
 30
0.0
 10
134.1509492432655
 20
97.55636860138713
 30
0.0
  0
LINE
  5
102
330
1F
100
AcDbEntity
  8
0
  6
Continuous
 62
     7
370
    25
100
AcDbLine
 10
134.7744950415
 20
98.2380447376
 30
0.0
 11
134.169266828
 21
98.2380447376
 31
0.0
  0
SPLINE
  5
103
330
1F
100
AcDbEntity
  8
0
  6
Continuous
 62
     7
370
    25
100
AcDbSpline
210
0.0
220
0.0
230
1.0
 70
     8
 71
     3
 72
    10
 73
     6
 74
     0
 42
0.00000001
 43
0.00000001
 40
0.0
 40
0.0
 40
0.0
 40
0.0
 40
0.280833517338673
 40
0.5616510917414113
 40
1.0
 40
1.0
 40
1.0
 40
1.0
 10
134.774495041463
 20
98.23804473757164
 30
0.0
 10
134.8128454904255
 20
98.23047012930373
 30
0.0
 10
134.889544211193
 20
98.21532134277882
 30
0.0
 10
135.014698561235
 20
98.08169040971919
 30
0.0
 10
135.0665676275883
 20
97.91068969536094
 30
0.0
 10
135.098183045098
 20
97.80646073272494
 30
0.0
  0
LINE
  5
104
330
1F
100
AcDbEntity
  8
0
  6
Continuous
 62
     7
370
    25
100
AcDbLine
 10
99.0402264194
 20
88.77731016
 30
0.0
 11
98.997233992
 21
88.7144230752
 31
0.0
  0
ELLIPSE
  5
105
330
1F
100
AcDbEntity
  8
0
  6
Continuous
 62
     7
370
    25
100
AcDbEllipse
 10
94.7744950415
 20
88.7380447376
 30
0.0
 11
0.5000325503426383
 21
1.499994860147552
 31
0.0
210
0.0
220
0.0
230
0.9999999999999999
 40
0.0078530307
 41
2.36388800015615
 42
3.14421050388531
  0
SPLINE
  5
106
330
1F
100
AcDbEntity
  8
0
  6
Continuous
 62
     7
370
    25
100
AcDbSpline
210
0.0
220
0.0
230
1.0
 70
     8
 71
     3
 72
    12
 73
     8
 74
     0
 42
0.00000001
 43
0.00000001
 40
0.0
 40
0.0
 40
0.0
 40
0.0
 40
0.0715202026166142
 40
0.1260836237049476
 40
0.3855387013103047
 40
0.8475626424815554
 40
1.0
 40
1.0
 40
1.0
 40
1.0
 10
94.74906642846244
 20
88.06635268722084
 30
0.0
 10
94.73461229368357
 20
88.06324403935602
 30
0.0
 10
94.70913096639751
 20
88.0577637754127
 30
0.0
 10
94.64265923875134
 20
88.01817522999228
 30
0.0
 10
94.53795485161831
 20
87.91174109701
 30
0.0
 10
94.45112629277197
 20
87.78123408130176
 30
0.0
 10
94.41812972606212
 20
87.69372436733842
 30
0.0
 10
94.40994384121117
 20
87.67201470135585
 30
0.0
  0
ELLIPSE
  5
107
330
1F
100
AcDbEntity
  8
0
  6
Continuous
 62
     7
370
    25
100
AcDbEllipse
 10
62.8503582008
 20
88.7380447376
 30
0.0
 11
36.17607470647087
 21
0.04043410480178978
 31
0.0
210
0.0
220
0.0
230
1.0
 40
0.0414488012
 41
5.791928562280367
 42
6.243021298617577
  0
ELLIPSE
  5
108
330
1F
100
AcDbEntity
  8
0
  6
Continuous
 62
     7
370
    25
100
AcDbEllipse
 10
99.0794783866
 20
88.7380447376
 30
0.0
 11
0.03725061189165047
 21
1.499998630535885
 31
0.0
210
0.0
220
0.0
230
1.0
 40
0.0544129722
 41
1.585352277991052
 42
1.587896030767889
  0
LINE
  5
109
330
1F
100
AcDbEntity
  8
0
  6
Continuous
 62
     7
370
    25
100
AcDbLine
 10
94.2744950415
 20
87.2380447376
 30
0.0
 11
120.7070265554
 21
87.2380447376
 31
0.0
  0
SPLINE
  5
10A
330
1F
100
AcDbEntity
  8
0
  6
Continuous
 62
     7
370
    25
100
AcDbSpline
210
0.0
220
0.0
230
1.0
 70
     8
 71
     3
 72
    11
 73
     7
 74
     0
 42
0.00000001
 43
0.00000001
 40
0.0
 40
0.0
 40
0.0
 40
0.0
 40
0.2561894651307283
 40
0.5096044939206907
 40
0.7692742066553652
 40
1.0
 40
1.0
 40
1.0
 40
1.0
 10
135.974495041463
 20
97.63804473757163
 30
0.0
 10
135.8988989091691
 20
97.72605510256008
 30
0.0
 10
135.7485253224945
 20
97.90112271311469
 30
0.0
 10
135.4493125365392
 20
98.09131028281622
 30
0.0
 10
135.1217928016524
 20
98.21530908354192
 30
0.0
 10
134.8856144208386
 20
98.2307703694211
 30
0.0
 10
134.774495041463
 20
98.23804473757164
 30
0.0
  0
ARC
  5
10B
330
1F
100
AcDbEntity
  8
0
  6
Continuous
 62
     7
370
    25
100
AcDbCircle
 10
103.4732332635
 20
88.7430487855
 30
0.0
 40
8.750371682089538
100
AcDbArc
 50
182.878079786
 51
184.4353064954
  0
ELLIPSE
  5
10C
330
1F
100
AcDbEntity
  8
0
  6
Continuous
 62
     7
370
    25
100
AcDbEllipse
 10
62.823487842
 20
88.751479917
 30
0.0
 11
36.18915847374971
 21
0.02692057091445577
 31
0.0
210
0.0
220
0.0
230
1.0
 40
0.0276225703
 41
5.791964074121238
 42
6.254836299513471
  0
SPLINE
  5
10D
330
1F
100
AcDbEntity
  8
0
  6
Continuous
 62
     7
370
    25
100
AcDbSpline
210
0.0
220
0.0
230
1.0
 70
     8
 71
     3
 72
     9
 73
     5
 74
     0
 42
0.00000001
 43
0.00000001
 40
0.0
 40
0.0
 40
0.0
 40
0.0
 40
0.8673350121728702
 40
1.0
 40
1.0
 40
1.0
 40
1.0
 10
98.99812636513863
 20
88.7500547334342
 30
0.0
 10
98.99788897950876
 20
88.740856310059
 30
0.0
 10
98.99761528407788
 20
88.73025092315993
 30
0.0
 10
98.99735939756924
 20
88.71964529855852
 30
0.0
 10
98.9973254503887
 20
88.7182383034999
 30
0.0
  0
LINE
  5
10E
330
1F
100
AcDbEntity
  8
0
  6
Continuous
 62
     7
370
    25
100
AcDbLine
 10
99.2474261065
 20
97.2308549722
 30
0.0
 11
99.2205557476
 21
97.2442901516
 31
0.0
  0
LINE
  5
10F
330
1F
100
AcDbEntity
  8
0
  6
Continuous
 62
     7
370
    25
100
AcDbLine
 10
99.2474261065
 20
97.2308549722
 30
0.0
 11
99.0254981003
 21
88.7557663415
 31
0.0
  0
LINE
  5
110
330
1F
100
AcDbEntity
  8
0
  6
Continuous
 62
     7
370
    25
100
AcDbLine
 10
99.2205557476
 20
97.2442901516
 30
0.0
 11
98.9981263651
 21
88.7500547334
 31
0.0
  0
ARC
  5
111
330
1F
100
AcDbEntity
  8
0
  6
Continuous
 62
     7
370
    25
100
AcDbCircle
 10
99.8549105278
 20
96.7568539888
 30
0.0
 40
0.8000000000000103
100
AcDbArc
 50
142.4614409777
 51
153.4349488229
  0
LINE
  5
112
330
1F
100
AcDbEntity
  8
0
  6
Continuous
 62
     7
370
    25
100
AcDbLine
 10
94.7338989508
 20
88.3036852168
 30
0.0
 11
99.139368775
 21
97.1146248652
 31
0.0
  0
SPLINE
  5
113
330
1F
100
AcDbEntity
  8
0
  6
Continuous
 62
     7
370
    25
100
AcDbSpline
210
0.0
220
0.0
230
1.0
 70
    24
 71
     3
 72
    11
 73
     7
 74
     0
 42
0.00000001
 43
0.00000001
 40
0.0
 40
0.0
 40
0.0
 40
0.0
 40
0.2499999999999989
 40
0.4999999999999977
 40
0.7499999999999992
 40
1.0
 40
1.0
 40
1.0
 40
1.0
 10
99.13936877498607
 20
97.11462486518508
 30
0.0
 10
99.06113366665382
 20
97.1537424193512
 30
0.0
 10
98.90466344998929
 20
97.23197752768345
 30
0.0
 10
98.7113372985728
 20
97.3286406033917
 30
0.0
 10
98.57696086629383
 20
97.39582881953119
 30
0.0
 10
98.55957911790664
 20
97.40451969372478
 30
0.0
 10
98.55088824371303
 20
97.40886513082158
 30
0.0
  0
SPLINE
  5
114
330
1F
100
AcDbEntity
  8
0
  6
Continuous
 62
     7
370
    25
100
AcDbSpline
210
0.0
220
0.0
230
1.0
 70
     8
 71
     3
 72
    12
 73
     8
 74
     0
 42
0.00000001
 43
0.00000001
 40
0.0
 40
0.0
 40
0.0
 40
0.0
 40
0.139683458618249
 40
0.3831896274038307
 40
0.5513169293013299
 40
0.819472946160705
 40
0.9999999999999999
 40
0.9999999999999999
 40
0.9999999999999999
 40
0.9999999999999999
 10
93.97193810055781
 20
88.2509648445111
 30
0.0
 10
93.98217948130407
 20
88.26427721817205
 30
0.0
 10
94.0102743674924
 20
88.30079667118001
 30
0.0
 10
94.11742472884718
 20
88.3384687317714
 30
0.0
 10
94.29776181626018
 20
88.3628360525329
 30
0.0
 10
94.50621796082918
 20
88.36171901776893
 30
0.0
 10
94.66857486153312
 20
88.32033572939136
 30
0.0
 10
94.7338989507815
 20
88.30368521677595
 30
0.0
  0
LINE
  5
115
330
1F
100
AcDbEntity
  8
0
  6
Continuous
 62
     7
370
    25
100
AcDbLine
 10
98.5508882437
 20
97.4088651308
 30
0.0
 11
93.9719381006
 21
88.2509648445
 31
0.0
  0
LWPOLYLINE
  5
116
330
1F
100
AcDbEntity
  8
0
  6
Continuous
 62
     7
370
    25
100
AcDbPolyline
 90
        9
 70
   128
 43
0.0
 10
93.9719381006
 20
88.2509648445
 10
93.9490876107
 20
88.1746343669
 10
93.9519927368
 20
88.0902343676
 10
93.9804943018
 20
88.0023892671
 10
94.0330306563
 20
87.9159122488
 10
94.1067232434
 20
87.8355415364
 10
94.1975343203
 20
87.7656807791
 10
94.3004881925
 20
87.7101577671
 10
94.4099438412
 20
87.6720147014
  0
LINE
  5
117
330
1F
100
AcDbEntity
  8
0
  6
Continuous
 62
     7
370
    25
100
AcDbLine
 10
99.1281038866
 20
97.3827572315
 30
0.0
 11
98.7458913148
 21
97.7051134784
 31
0.0
  0
SPLINE
  5
118
330
1F
100
AcDbEntity
  8
0
  6
Continuous
 62
     7
370
    25
100
AcDbSpline
210
0.0
220
0.0
230
1.0
 70
     8
 71
     3
 72
    12
 73
     8
 74
     0
 42
0.00000001
 43
0.00000001
 40
0.0
 40
0.0
 40
0.0
 40
0.0
 40
0.2198609600791264
 40
0.4397396970008128
 40
0.6583291451397731
 40
0.8791239516843589
 40
1.0
 40
1.0
 40
1.0
 40
1.0
 10
99.262671330622
 20
97.27213859650213
 30
0.0
 10
99.20275626789311
 20
97.32262681263002
 30
0.0
 10
99.08292129800711
 20
97.42360732710698
 30
0.0
 10
98.9261863097326
 20
97.555270320057
 30
0.0
 10
98.80961798594647
 20
97.65283164283007
 30
0.0
 10
98.75336129415221
 20
97.69949103430677
 30
0.0
 10
98.74784342293592
 20
97.70364418130814
 30
0.0
 10
98.74589131476439
 20
97.70511347841223
 30
0.0
  0
SPLINE
  5
119
330
1F
100
AcDbEntity
  8
0
  6
Continuous
 62
     7
370
    25
100
AcDbSpline
210
0.0
220
0.0
230
1.0
 70
     8
 71
     3
 72
    12
 73
     8
 74
     0
 42
0.00000001
 43
0.00000001
 40
0.0
 40
0.0
 40
0.0
 40
0.0
 40
0.0006864401057837
 40
0.2840613788817063
 40
0.5703177902163716
 40
0.8469872112136456
 40
1.0
 40
1.0
 40
1.0
 40
1.0
 10
99.22539956593249
 20
97.30146228399977
 30
0.0
 10
99.22535884817539
 20
97.30149657863669
 30
0.0
 10
99.2085091010138
 20
97.31568832204657
 30
0.0
 10
99.17928016490096
 20
97.34022060189683
 30
0.0
 10
99.14603411920214
 20
97.36805018664296
 30
0.0
 10
99.13035189609224
 20
97.38105104961598
 30
0.0
 10
99.12877166828623
 20
97.382243862502
 30
0.0
 10
99.12820893830114
 20
97.38266863137079
 30
0.0
  0
SPLINE
  5
11A
330
1F
100
AcDbEntity
  8
0
  6
Continuous
 62
     7
370
    25
100
AcDbSpline
210
0.0
220
0.0
230
1.0
 70
     8
 71
     3
 72
    12
 73
     8
 74
     0
 42
0.00000001
 43
0.00000001
 40
0.0
 40
0.0
 40
0.0
 40
0.0
 40
0.2225634137435263
 40
0.4462063173695687
 40
0.6680851268158023
 40
0.8917990985569296
 40
1.0
 40
1.0
 40
1.0
 40
1.0
 10
98.70311381734453
 20
97.65198754289223
 30
0.0
 10
98.70870038344705
 20
97.6465604702785
 30
0.0
 10
98.71990061193661
 20
97.63568000235107
 30
0.0
 10
98.81395138962367
 20
97.56038657133075
 30
0.0
 10
98.95344245302168
 20
97.45090802657747
 30
0.0
 10
99.09866655285806
 20
97.33819338603097
 30
0.0
 10
99.1905897215881
 20
97.26737592858676
 30
0.0
 10
99.22055574758951
 20
97.24429015162275
 30
0.0
  0
LINE
  5
11B
330
1F
100
AcDbEntity
  8
0
  6
Continuous
 62
     7
370
    25
100
AcDbLine
 10
99.099585555
 20
97.3473399411
 30
0.0
 11
98.7031138173
 21
97.6519875429
 31
0.0
  0
ARC
  5
11C
330
1F
100
AcDbEntity
  8
0
  6
Continuous
 62
     7
370
    25
100
AcDbCircle
 10
99.8925290302
 20
96.7380447376
 30
0.0
 40
1.500000000000012
100
AcDbArc
 50
90.0
 51
139.8558773282
  0
ARC
  5
11D
330
1F
100
AcDbEntity
  8
0
  6
Continuous
 62
     7
370
    25
100
AcDbCircle
 10
99.8925290302
 20
96.7380447376
 30
0.0
 40
1.50000000000002
100
AcDbArc
 50
142.4614409777
 51
153.4349488229
  0
LINE
  5
11E
330
1F
100
AcDbEntity
  8
0
  6
Continuous
 62
     7
370
    25
100
AcDbLine
 10
93.827281446
 20
87.9616515353
 30
0.0
 11
93.9719381006
 21
88.2509648445
 31
0.0
  0
ARC
  5
11F
330
1F
100
AcDbEntity
  8
0
  6
Continuous
 62
     7
370
    25
100
AcDbCircle
 10
94.2744950415
 20
87.7380447376
 30
0.0
 40
0.5000000000000088
100
AcDbArc
 50
153.4349488229
 51
270.0
  0
SPLINE
  5
120
330
1F
100
AcDbEntity
  8
0
  6
Continuous
 62
     7
370
    25
100
AcDbSpline
210
0.0
220
0.0
230
1.0
 70
     8
 71
     3
 72
     9
 73
     5
 74
     0
 42
0.00000001
 43
0.00000001
 40
0.0
 40
0.0
 40
0.0
 40
0.0
 40
0.5600029565045049
 40
1.0
 40
1.0
 40
1.0
 40
1.0
 10
98.74589131476439
 20
97.70511347841223
 30
0.0
 10
98.73774355541127
 20
97.69532701625228
 30
0.0
 10
98.72319406195152
 20
97.67785128322929
 30
0.0
 10
98.70924941901097
 20
97.65989031556349
 30
0.0
 10
98.70311381734453
 20
97.65198754289223
 30
0.0
  0
LINE
  5
121
330
1F
100
AcDbEntity
  8
0
  6
Continuous
 62
     7
370
    25
100
AcDbLine
 10
140.8684341864
 20
87.6261203233
 30
0.0
 11
140.8705743016
 21
87.8496587769
 31
0.0
  0
SPLINE
  5
122
330
1F
100
AcDbEntity
  8
0
  6
Continuous
 62
     7
370
    25
100
AcDbSpline
210
0.0
220
0.0
230
1.0
 70
     8
 71
     3
 72
    10
 73
     6
 74
     0
 42
0.00000001
 43
0.00000001
 40
0.0
 40
0.0
 40
0.0
 40
0.0
 40
0.3536466237081646
 40
0.7182931081305522
 40
1.0
 40
1.0
 40
1.0
 40
1.0
 10
141.0197221502522
 20
85.67985167685741
 30
0.0
 10
140.982215115943
 20
85.23631402673882
 30
0.0
 10
140.9060344246974
 20
84.33544288611827
 30
0.0
 10
140.9444708273106
 20
82.957433591307
 30
0.0
 10
141.0074529466436
 20
82.03939956000214
 30
0.0
 10
141.0349030965637
 20
81.6392832721087
 30
0.0
  0
LINE
  5
123
330
1F
100
AcDbEntity
  8
0
  6
Continuous
 62
     7
370
    25
100
AcDbLine
 10
140.8684341864
 20
87.6261203233
 30
0.0
 11
141.0197221503
 21
85.6798516769
 31
0.0
  0
LINE
  5
124
330
1F
100
AcDbEntity
  8
0
  6
Continuous
 62
     7
370
    25
100
AcDbLine
 10
141.0944950415
 20
79.5380447376
 30
0.0
 11
141.1558498343
 21
79.5380447376
 31
0.0
  0
LWPOLYLINE
  5
125
330
1F
100
AcDbEntity
  8
0
  6
Continuous
 62
     7
370
    25
100
AcDbPolyline
 90
        3
 70
   128
 43
0.0
 10
141.2918623768
 20
78.1882928781
 10
141.2505636046
 20
78.5980940226
 10
141.1558498343
 20
79.5380447376
  0
SPLINE
  5
126
330
1F
100
AcDbEntity
  8
0
  6
Continuous
 62
     7
370
    25
100
AcDbSpline
210
0.0
220
0.0
230
1.0
 70
     8
 71
     3
 72
    11
 73
     7
 74
     0
 42
0.00000001
 43
0.00000001
 40
0.0
 40
0.0
 40
0.0
 40
0.0
 40
0.2920574028183093
 40
0.5665622171831317
 40
0.8065682389915578
 40
1.0
 40
1.0
 40
1.0
 40
1.0
 10
141.1582894344097
 20
93.73804473757167
 30
0.0
 10
141.1899499707251
 20
93.72121294152296
 30
0.0
 10
141.2513682517858
 20
93.68856093682629
 30
0.0
 10
141.3312806110503
 20
93.43316904978526
 30
0.0
 10
141.3703794247778
 20
93.09744613321067
 30
0.0
 10
141.3549630618483
 20
92.84894443838957
 30
0.0
 10
141.3480831488641
 20
92.73804473755953
 30
0.0
  0
LINE
  5
127
330
1F
100
AcDbEntity
  8
0
  6
Continuous
 62
     7
370
    25
100
AcDbLine
 10
141.3480831489
 20
92.7380447376
 30
0.0
 11
140.8705743016
 21
87.8496587769
 31
0.0
  0
LINE
  5
128
330
1F
100
AcDbEntity
  8
0
  6
Continuous
 62
     7
370
    25
100
AcDbLine
 10
141.7158861507
 20
95.7380447376
 30
0.0
 11
156.8331039322
 21
95.7380447376
 31
0.0
  0
LINE
  5
129
330
1F
100
AcDbEntity
  8
0
  6
Continuous
 62
     7
370
    25
100
AcDbLine
 10
156.8220012604
 20
77.7380447376
 30
0.0
 11
141.7935291864
 21
77.7380447376
 31
0.0
  0
SPLINE
  5
12A
330
1F
100
AcDbEntity
  8
0
  6
Continuous
 62
     7
370
    25
100
AcDbSpline
210
0.0
220
0.0
230
1.0
 70
     8
 71
     3
 72
    12
 73
     8
 74
     0
 42
0.00000001
 43
0.00000001
 40
0.0
 40
0.0
 40
0.0
 40
0.0
 40
0.2316347876629375
 40
0.46330664808196
 40
0.6939442291381526
 40
0.9227406525226395
 40
1.0
 40
1.0
 40
1.0
 40
1.0
 10
141.7935291863747
 20
77.73804473757164
 30
0.0
 10
141.7364758687259
 20
77.74363420260191
 30
0.0
 10
141.6223601021414
 20
77.75481402724688
 30
0.0
 10
141.4705067716633
 20
77.84213709320254
 30
0.0
 10
141.3563393887794
 20
77.97044726698459
 30
0.0
 10
141.3045850564122
 20
78.0951266936824
 30
0.0
 10
141.2944267054251
 20
78.16951470243572
 30
0.0
 10
141.2918623768176
 20
78.18829287806115
 30
0.0
  0
LINE
  5
12B
330
1F
100
AcDbEntity
  8
0
  6
Continuous
 62
     7
370
    25
100
AcDbLine
 10
139.2744950415
 20
83.2587535252
 30
0.0
 11
141.0349030966
 21
81.6392832721
 31
0.0
  0
SPLINE
  5
12C
330
1F
100
AcDbEntity
  8
0
  6
Continuous
 62
     7
370
    25
100
AcDbSpline
210
0.0
220
0.0
230
1.0
 70
     8
 71
     3
 72
     9
 73
     5
 74
     0
 42
0.00000001
 43
0.00000001
 40
0.0
 40
0.0
 40
0.0
 40
0.0
 40
0.7210175706402088
 40
0.9999999999999999
 40
0.9999999999999999
 40
0.9999999999999999
 40
0.9999999999999999
 10
139.6184234971605
 20
87.43584487380652
 30
0.0
 10
139.5494902781642
 20
87.49909568671582
 30
0.0
 10
139.4538848147148
 20
87.58682005777816
 30
0.0
 10
139.3136250510669
 20
87.6316292441221
 30
0.0
 10
139.274495041463
 20
87.64413021978596
 30
0.0
  0
ARC
  5
12D
330
1F
100
AcDbEntity
  8
0
  6
Continuous
 62
     7
370
    25
100
AcDbCircle
 10
132.5522687026
 20
80.3598674559
 30
0.0
 40
10.00000000000004
100
AcDbArc
 50
32.1405798582
 51
45.0397956095
  0
LINE
  5
12E
330
1F
100
AcDbEntity
  8
0
  6
Continuous
 62
     7
370
    25
100
AcDbLine
 10
139.6184234972
 20
92.7380447376
 30
0.0
 11
139.6184234972
 21
87.4358448738
 31
0.0
  0
LINE
  5
12F
330
1F
100
AcDbEntity
  8
0
  6
Continuous
 62
     7
370
    25
100
AcDbLine
 10
141.3480831489
 20
92.7380447376
 30
0.0
 11
139.6184234972
 21
92.7380447376
 31
0.0
  0
LINE
  5
130
330
1F
100
AcDbEntity
  8
0
  6
Continuous
 62
     7
370
    25
100
AcDbLine
 10
139.2744950415
 20
93.7380447376
 30
0.0
 11
141.1582894344
 21
93.7380447376
 31
0.0
  0
ARC
  5
131
330
1F
100
AcDbEntity
  8
0
  6
Continuous
 62
     7
370
    25
100
AcDbCircle
 10
101.661954367
 20
100.4473899587
 30
0.0
 40
4.021945305522999
100
AcDbArc
 50
230.4243196696
 51
233.1058614851
  0
LINE
  5
132
330
1F
100
AcDbEntity
  8
0
  6
Continuous
 62
     7
370
    25
100
AcDbLine
 10
141.0244950415
 20
73.8380447376
 30
0.0
 11
157.5244950415
 21
73.8380447376
 31
0.0
  0
LINE
  5
133
330
1F
100
AcDbEntity
  8
0
  6
Continuous
 62
     7
370
    25
100
AcDbLine
 10
149.2116121767
 20
95.825987073
 30
0.0
 11
149.2116121767
 21
95.8379376349
 31
0.0
  0
LINE
  5
134
330
1F
100
AcDbEntity
  8
0
  6
Continuous
 62
     7
370
    25
100
AcDbLine
 10
149.3373779063
 20
95.825987073
 30
0.0
 11
149.3373779063
 21
95.8379376349
 31
0.0
  0
LINE
  5
135
330
1F
100
AcDbEntity
  8
0
  6
Continuous
 62
     7
370
    25
100
AcDbLine
 10
140.8705743016
 20
87.8496587769
 30
0.0
 11
158.2605432865
 21
87.849658777
 31
0.0
  0
LINE
  5
136
330
1F
100
AcDbEntity
  8
0
  6
Continuous
 62
     7
370
    25
100
AcDbLine
 10
158.2633026
 20
87.6261203233
 30
0.0
 11
140.8684341864
 21
87.6261203233
 31
0.0
  0
LINE
  5
137
330
1F
100
AcDbEntity
  8
0
  6
Continuous
 62
     7
370
    25
100
AcDbLine
 10
141.2918623768
 20
78.1882928781
 30
0.0
 11
157.3195198555
 21
78.1882928781
 31
0.0
  0
LINE
  5
138
330
1F
100
AcDbEntity
  8
0
  6
Continuous
 62
     7
370
    25
100
AcDbLine
 10
157.3292428706
 20
95.3000621049
 30
0.0
 11
141.2197472124
 21
95.3000621049
 31
0.0
  0
LINE
  5
139
330
1F
100
AcDbEntity
  8
0
  6
Continuous
 62
     7
370
    25
100
AcDbLine
 10
139.2744950415
 20
92.7380447376
 30
0.0
 11
139.6184234972
 21
92.7380447376
 31
0.0
  0
ARC
  5
13A
330
1F
100
AcDbEntity
  8
0
  6
Continuous
 62
     7
370
    25
100
AcDbCircle
 10
138.5125497783
 20
92.7927093206
 30
0.0
 40
1.107223960532725
100
AcDbArc
 50
357.1701084939
 51
46.5155082001
  0
LINE
  5
13B
330
1F
100
AcDbEntity
  8
0
  6
Continuous
 62
     7
370
    25
100
AcDbLine
 10
99.0254981003
 20
88.7557663415
 30
0.0
 11
99.2474255367
 21
97.2308332133
 31
0.0
  0
LINE
  5
13C
330
1F
100
AcDbEntity
  8
0
  6
CENTERX2
 62
     7
370
    18
100
AcDbLine
 10
117.59901677
 20
57.3380447376
 30
0.0
 11
179.7744950415
 21
57.3380447376
 31
0.0
  0
LINE
  5
13D
330
1F
100
AcDbEntity
  8
0
  6
CENTERX2
 62
     7
370
    18
100
AcDbLine
 10
149.2744950415
 20
39.5285889087
 30
0.0
 11
149.2744950415
 21
97.543383415
 31
0.0
  0
ARC
  5
13E
330
1F
100
AcDbEntity
  8
0
  6
Continuous
 62
     7
370
    25
100
AcDbCircle
 10
227.1755577373
 20
73.8380447376
 30
0.0
 40
0.5
100
AcDbArc
 50
180.0
 51
270.0
  0
ARC
  5
13F
330
1F
100
AcDbEntity
  8
0
  6
Continuous
 62
     7
370
    25
100
AcDbCircle
 10
209.6755577373
 20
73.8380447376
 30
0.0
 40
0.5
100
AcDbArc
 50
270.0
 51
0.0
  0
LINE
  5
140
330
1F
100
AcDbEntity
  8
0
  6
Continuous
 62
     7
370
    25
100
AcDbLine
 10
226.6755577373
 20
73.8380447376
 30
0.0
 11
226.6755577373
 21
76.7380447376
 31
0.0
  0
LINE
  5
141
330
1F
100
AcDbEntity
  8
0
  6
Continuous
 62
     7
370
    25
100
AcDbLine
 10
210.1755577373
 20
76.7380447376
 30
0.0
 11
210.1755577373
 21
73.8380447376
 31
0.0
  0
LINE
  5
142
330
1F
100
AcDbEntity
  8
0
  6
Continuous
 62
     7
370
    25
100
AcDbLine
 10
226.6755577373
 20
76.7380447376
 30
0.0
 11
226.1755577373
 21
77.2380447376
 31
0.0
  0
LINE
  5
143
330
1F
100
AcDbEntity
  8
0
  6
Continuous
 62
     7
370
    25
100
AcDbLine
 10
210.6755577373
 20
77.2380447376
 30
0.0
 11
210.1755577373
 21
76.7380447376
 31
0.0
  0
LINE
  5
144
330
1F
100
AcDbEntity
  8
0
  6
Continuous
 62
     7
370
    25
100
AcDbLine
 10
213.4255577373
 20
79.5380447376
 30
0.0
 11
213.4255577373
 21
77.2380447376
 31
0.0
  0
LINE
  5
145
330
1F
100
AcDbEntity
  8
0
  6
Continuous
 62
     7
370
    25
100
AcDbLine
 10
223.4255577373
 20
77.2380447376
 30
0.0
 11
223.4255577373
 21
77.7380447376
 31
0.0
  0
SPLINE
  5
146
330
1F
100
AcDbEntity
  8
0
  6
Continuous
 62
     7
370
    25
100
AcDbSpline
210
0.0
220
0.0
230
1.0
 70
     8
 71
     3
 72
     9
 73
     5
 74
     0
 42
0.00000001
 43
0.00000001
 40
0.0
 40
0.0
 40
0.0
 40
0.0
 40
0.4993165458323638
 40
1.0
 40
1.0
 40
1.0
 40
1.0
 10
219.4348505322097
 20
98.22561216632334
 30
0.0
 10
219.4117199145625
 20
98.22896320197097
 30
0.0
 10
219.3653953578453
 20
98.23567444692289
 30
0.0
 10
219.318835964717
 20
98.23134727761726
 30
0.0
 10
219.2955244469416
 20
98.22918073554251
 30
0.0
  0
SPLINE
  5
147
330
1F
100
AcDbEntity
  8
0
  6
Continuous
 62
     7
370
    25
100
AcDbSpline
210
0.0
220
0.0
230
1.0
 70
     8
 71
     3
 72
     9
 73
     5
 74
     0
 42
0.00000001
 43
0.00000001
 40
0.0
 40
0.0
 40
0.0
 40
0.0
 40
0.5006834545219042
 40
1.0
 40
1.0
 40
1.0
 40
1.0
 10
217.5555909750615
 20
98.2291807354701
 30
0.0
 10
217.5322794604105
 20
98.2313472761354
 30
0.0
 10
217.4857200735555
 20
98.23567444262297
 30
0.0
 10
217.4393955232989
 20
98.22896319626831
 30
0.0
 10
217.416264908894
 20
98.22561215992265
 30
0.0
  0
LINE
  5
148
330
1F
100
AcDbEntity
  8
0
  6
Continuous
 62
     7
370
    25
100
AcDbLine
 10
215.949703219
 20
97.5700951271
 30
0.0
 11
215.8189258644
 21
94.7168336369
 31
0.0
  0
LINE
  5
149
330
1F
100
AcDbEntity
  8
0
  6
Continuous
 62
     7
370
    25
100
AcDbLine
 10
221.0321896102
 20
94.7168336369
 30
0.0
 11
220.9014122556
 21
97.5700951271
 31
0.0
  0
LINE
  5
14A
330
1F
100
AcDbEntity
  8
0
  6
Continuous
 62
     7
370
    25
100
AcDbLine
 10
216.4725837571
 20
98.2151960181
 30
0.0
 11
216.4241528141
 21
98.193991504
 31
0.0
  0
SPLINE
  5
14B
330
1F
100
AcDbEntity
  8
0
  6
Continuous
 62
     7
370
    25
100
AcDbSpline
210
0.0
220
0.0
230
1.0
 70
     8
 71
     3
 72
     9
 73
     5
 74
     0
 42
0.00000001
 43
0.00000001
 40
0.0
 40
0.0
 40
0.0
 40
0.0
 40
0.0503631419175621
 40
0.9999999999999999
 40
0.9999999999999999
 40
0.9999999999999999
 40
0.9999999999999999
 10
216.0060655430792
 20
97.80860329551244
 30
0.0
 10
216.0041694624851
 20
97.80543323814841
 30
0.0
 10
215.9665212832428
 20
97.74248924293077
 30
0.0
 10
215.9599808402275
 20
97.66734164423687
 30
0.0
 10
215.953769794472
 20
97.59597871472076
 30
0.0
  0
SPLINE
  5
14C
330
1F
100
AcDbEntity
  8
0
  6
Continuous
 62
     7
370
    25
100
AcDbSpline
210
0.0
220
0.0
230
1.0
 70
     8
 71
     3
 72
    11
 73
     7
 74
     0
 42
0.00000001
 43
0.00000001
 40
0.0
 40
0.0
 40
0.0
 40
0.0
 40
0.2436788845968619
 40
0.4915884466681963
 40
0.7437897073051941
 40
0.9999999999999999
 40
0.9999999999999999
 40
0.9999999999999999
 40
0.9999999999999999
 10
220.8973456801488
 20
97.59597871472077
 30
0.0
 10
220.8860417233203
 20
97.6650980666176
 30
0.0
 10
220.8632375538588
 20
97.80453679923447
 30
0.0
 10
220.7500727549543
 20
97.9891906917744
 30
0.0
 10
220.587789162144
 20
98.13981919758362
 30
0.0
 10
220.4486499222256
 20
98.18993867374643
 30
0.0
 10
220.3785317174932
 20
98.21519601806372
 30
0.0
  0
SPLINE
  5
14D
330
1F
100
AcDbEntity
  8
0
  6
Continuous
 62
     7
370
    25
100
AcDbSpline
210
0.0
220
0.0
230
1.0
 70
     8
 71
     3
 72
    10
 73
     6
 74
     0
 42
0.00000001
 43
0.00000001
 40
0.0
 40
0.0
 40
0.0
 40
0.0
 40
0.266346429650298
 40
0.5214744039517446
 40
1.0
 40
1.0
 40
1.0
 40
1.0
 10
221.3803249342253
 20
94.26129051563794
 30
0.0
 10
221.3351434703087
 20
94.28027658137744
 30
0.0
 10
221.2466835761909
 20
94.31744902377851
 30
0.0
 10
221.1000992367914
 20
94.44701614189444
 30
0.0
 10
221.0460751200143
 20
94.5774955333373
 30
0.0
 10
221.0108378858121
 20
94.66260072614982
 30
0.0
  0
SPLINE
  5
14E
330
1F
100
AcDbEntity
  8
0
  6
Continuous
 62
     7
370
    25
100
AcDbSpline
210
0.0
220
0.0
230
1.0
 70
     8
 71
     3
 72
    10
 73
     6
 74
     0
 42
0.00000001
 43
0.00000001
 40
0.0
 40
0.0
 40
0.0
 40
0.0
 40
0.478525596048254
 40
0.7336535703497082
 40
1.0
 40
1.0
 40
1.0
 40
1.0
 10
215.8402775888086
 20
94.6626007261498
 30
0.0
 10
215.8050403546063
 20
94.57749553333727
 30
0.0
 10
215.7510162378293
 20
94.44701614189441
 30
0.0
 10
215.6044318984298
 20
94.31744902377851
 30
0.0
 10
215.5159720043119
 20
94.28027658137744
 30
0.0
 10
215.4707905403954
 20
94.26129051563794
 30
0.0
  0
ARC
  5
14F
330
1F
100
AcDbEntity
  8
0
  6
Continuous
 62
     7
370
    25
100
AcDbCircle
 10
214.6988193131
 20
92.7380447376
 30
0.0
 40
1.5
100
AcDbArc
 50
90.0
 51
180.0
  0
LINE
  5
150
330
1F
100
AcDbEntity
  8
0
  6
Continuous
 62
     7
370
    25
100
AcDbLine
 10
213.1988193131
 20
92.7380447376
 30
0.0
 11
213.1988193131
 21
87.4850901054
 31
0.0
  0
ARC
  5
151
330
1F
100
AcDbEntity
  8
0
  6
Continuous
 62
     7
370
    25
100
AcDbCircle
 10
222.1522961615
 20
92.7380447376
 30
0.0
 40
1.5
100
AcDbArc
 50
0.0
 51
90.0
  0
LINE
  5
152
330
1F
100
AcDbEntity
  8
0
  6
Continuous
 62
     7
370
    25
100
AcDbLine
 10
223.6522961615
 20
87.4850901054
 30
0.0
 11
223.6522961615
 21
92.7380447376
 31
0.0
  0
LINE
  5
153
330
1F
100
AcDbEntity
  8
0
  6
Continuous
 62
     7
370
    25
100
AcDbLine
 10
209.4367501787
 20
87.6261203233
 30
0.0
 11
210.2455577373
 21
79.5380447376
 31
0.0
  0
LINE
  5
154
330
1F
100
AcDbEntity
  8
0
  6
Continuous
 62
     7
370
    25
100
AcDbLine
 10
226.4705825514
 20
78.1882928781
 30
0.0
 11
227.4143652959
 21
87.6261203233
 31
0.0
  0
ARC
  5
155
330
1F
100
AcDbEntity
  8
0
  6
Continuous
 62
     7
370
    25
100
AcDbCircle
 10
226.4193281057
 20
87.7256240423
 30
0.0
 40
1.000000000000024
100
AcDbArc
 50
354.2894068625
 51
7.1250163489
  0
ARC
  5
156
330
1F
100
AcDbEntity
  8
0
  6
Continuous
 62
     7
370
    25
100
AcDbCircle
 10
210.4317873689
 20
87.7256240423
 30
0.0
 40
1.000000000000024
100
AcDbArc
 50
172.8749836511
 51
185.7105931375
  0
LINE
  5
157
330
1F
100
AcDbEntity
  8
0
  6
Continuous
 62
     7
370
    25
100
AcDbLine
 10
227.4116059824
 20
87.8496587769
 30
0.0
 11
226.4803055664
 21
95.3000621049
 31
0.0
  0
LINE
  5
158
330
1F
100
AcDbEntity
  8
0
  6
Continuous
 62
     7
370
    25
100
AcDbLine
 10
210.3708099082
 20
95.3000621049
 30
0.0
 11
209.4395094922
 21
87.8496587769
 31
0.0
  0
ARC
  5
159
330
1F
100
AcDbEntity
  8
0
  6
Continuous
 62
     7
370
    25
100
AcDbCircle
 10
210.8669488466
 20
95.2380447376
 30
0.0
 40
0.5
100
AcDbArc
 50
90.0
 51
172.8749836511
  0
ARC
  5
15A
330
1F
100
AcDbEntity
  8
0
  6
Continuous
 62
     7
370
    25
100
AcDbCircle
 10
225.984166628
 20
95.2380447376
 30
0.0
 40
0.5000000000000017
100
AcDbArc
 50
7.1250163489
 51
90.0
  0
ARC
  5
15B
330
1F
100
AcDbEntity
  8
0
  6
Continuous
 62
     7
370
    25
100
AcDbCircle
 10
225.9730639563
 20
78.2380447376
 30
0.0
 40
0.5
100
AcDbArc
 50
270.0
 51
354.2894068625
  0
LINE
  5
15C
330
1F
100
AcDbEntity
  8
0
  6
Continuous
 62
     7
370
    25
100
AcDbLine
 10
219.4255577373
 20
77.2380447376
 30
0.0
 11
219.4255577373
 21
77.709253584
 31
0.0
  0
LINE
  5
15D
330
1F
100
AcDbEntity
  8
0
  6
Continuous
 62
     7
370
    25
100
AcDbLine
 10
217.4255577373
 20
79.0380447376
 30
0.0
 11
217.4255577373
 21
77.2380447376
 31
0.0
  0
ARC
  5
15E
330
1F
100
AcDbEntity
  8
0
  6
Continuous
 62
     7
370
    25
100
AcDbCircle
 10
217.6255577373
 20
79.0380447376
 30
0.0
 40
0.2000000000000171
100
AcDbArc
 50
90.0
 51
180.0
  0
ARC
  5
15F
330
1F
100
AcDbEntity
  8
0
  6
Continuous
 62
     7
370
    25
100
AcDbCircle
 10
219.2255577373
 20
79.0380447376
 30
0.0
 40
0.2000000000000171
100
AcDbArc
 50
0.0
 51
90.0
  0
CIRCLE
  5
160
330
1F
100
AcDbEntity
  8
0
  6
Continuous
 62
     7
370
    25
100
AcDbCircle
 10
218.4255577373
 20
57.3380447376
 30
0.0
 40
15.55000000000002
  0
CIRCLE
  5
161
330
1F
100
AcDbEntity
  8
0
  6
Continuous
 62
     7
370
    25
100
AcDbCircle
 10
218.4255577373
 20
57.3380447376
 30
0.0
 40
15.75000000000001
  0
CIRCLE
  5
162
330
1F
100
AcDbEntity
  8
0
  6
Continuous
 62
     7
370
    25
100
AcDbCircle
 10
218.4255577373
 20
57.3380447376
 30
0.0
 40
13.24999999999999
  0
CIRCLE
  5
163
330
1F
100
AcDbEntity
  8
0
  6
Continuous
 62
     7
370
    25
100
AcDbCircle
 10
218.4255577373
 20
57.3380447376
 30
0.0
 40
12.25
  0
CIRCLE
  5
164
330
1F
100
AcDbEntity
  8
0
  6
Continuous
 62
     7
370
    25
100
AcDbCircle
 10
218.4255577373
 20
57.3380447376
 30
0.0
 40
6.499999999999986
  0
SPLINE
  5
165
330
1F
100
AcDbEntity
  8
0
  6
Continuous
 62
     7
370
    25
100
AcDbSpline
210
0.0
220
0.0
230
1.0
 70
     8
 71
     3
 72
     8
 73
     4
 74
     0
 42
0.00000001
 43
0.00000001
 40
0.0
 40
0.0
 40
0.0
 40
0.0
 40
1.0
 40
1.0
 40
1.0
 40
1.0
 10
202.4950021817548
 20
47.93233372290837
 30
0.0
 10
202.4487944774401
 20
48.01059621678383
 30
0.0
 10
202.4255577373104
 20
48.09924286323461
 30
0.0
 10
202.4255577373104
 20
48.18654212871007
 30
0.0
  0
ARC
  5
166
330
1F
100
AcDbEntity
  8
0
  6
Continuous
 62
     7
370
    25
100
AcDbCircle
 10
218.4255577373
 20
57.3380447376
 30
0.0
 40
16.0
100
AcDbArc
 50
180.0
 51
270.0
  0
SPLINE
  5
167
330
1F
100
AcDbEntity
  8
0
  6
Continuous
 62
     7
370
    25
100
AcDbSpline
210
0.0
220
0.0
230
1.0
 70
    24
 71
     3
 72
    12
 73
     8
 74
     0
 42
0.00000001
 43
0.00000001
 40
0.0
 40
0.0
 40
0.0
 40
0.0
 40
0.2500000000000001
 40
0.2500000000000001
 40
0.5000000000000001
 40
0.5000000000000001
 40
1.0
 40
1.0
 40
1.0
 40
1.0
 10
209.2740551284488
 20
41.33804473757164
 30
0.0
 10
210.0194351343696
 20
41.33804473757164
 30
0.0
 10
210.7734738041096
 20
41.33804473757164
 30
0.0
 10
212.2909884810534
 20
41.33804473757164
 30
0.0
 10
213.0518136171866
 20
41.33804473757164
 30
0.0
 10
215.3415228446145
 20
41.33804473757164
 30
0.0
 10
216.8777866054888
 20
41.33804473757164
 30
0.0
 10
218.4255577373104
 20
41.33804473757164
 30
0.0
  0
SPLINE
  5
168
330
1F
100
AcDbEntity
  8
0
  6
Continuous
 62
     7
370
    25
100
AcDbSpline
210
0.0
220
0.0
230
1.0
 70
     8
 71
     3
 72
     8
 73
     4
 74
     0
 42
0.00000001
 43
0.00000001
 40
0.0
 40
0.0
 40
0.0
 40
0.0
 40
1.0
 40
1.0
 40
1.0
 40
1.0
 10
209.2740551284488
 20
41.33804473757164
 30
0.0
 10
209.1867949851645
 20
41.33804473757164
 30
0.0
 10
209.0980907618963
 20
41.36129237367306
 30
0.0
 10
209.0198467226471
 20
41.40748918201607
 30
0.0
  0
ARC
  5
169
330
1F
100
AcDbEntity
  8
0
  6
Continuous
 62
     7
370
    25
100
AcDbCircle
 10
218.4255577373
 20
57.3380447376
 30
0.0
 40
18.5
100
AcDbArc
 50
210.5584317859
 51
239.4415682141
  0
SPLINE
  5
16A
330
1F
100
AcDbEntity
  8
0
  6
Continuous
 62
     7
370
    25
100
AcDbSpline
210
0.0
220
0.0
230
1.0
 70
    24
 71
     3
 72
    12
 73
     8
 74
     0
 42
0.00000001
 43
0.00000001
 40
0.0
 40
0.0
 40
0.0
 40
0.0
 40
0.25
 40
0.25
 40
0.5
 40
0.5
 40
1.0
 40
1.0
 40
1.0
 40
1.0
 10
202.4255577373104
 20
48.18654212871007
 30
0.0
 10
202.4255577373104
 20
48.93192213463802
 30
0.0
 10
202.4255577373104
 20
49.68596080438943
 30
0.0
 10
202.4255577373104
 20
51.20347548133849
 30
0.0
 10
202.4255577373104
 20
51.96430061747294
 30
0.0
 10
202.4255577373104
 20
54.25400984489944
 30
0.0
 10
202.4255577373104
 20
55.79027360576614
 30
0.0
 10
202.4255577373104
 20
57.33804473757164
 30
0.0
  0
SPLINE
  5
16B
330
1F
100
AcDbEntity
  8
0
  6
Continuous
 62
     7
370
    25
100
AcDbSpline
210
0.0
220
0.0
230
1.0
 70
     8
 71
     3
 72
     8
 73
     4
 74
     0
 42
0.00000001
 43
0.00000001
 40
0.0
 40
0.0
 40
0.0
 40
0.0
 40
1.0
 40
1.0
 40
1.0
 40
1.0
 10
202.4255577373104
 20
66.48954734643321
 30
0.0
 10
202.4255577373104
 20
66.57680748971754
 30
0.0
 10
202.4488053734118
 20
66.66551171298573
 30
0.0
 10
202.4950021817548
 20
66.74375575223492
 30
0.0
  0
ARC
  5
16C
330
1F
100
AcDbEntity
  8
0
  6
Continuous
 62
     7
370
    25
100
AcDbCircle
 10
218.4255577373
 20
57.3380447376
 30
0.0
 40
18.5
100
AcDbArc
 50
120.5584317859
 51
149.4415682141
  0
SPLINE
  5
16D
330
1F
100
AcDbEntity
  8
0
  6
Continuous
 62
     7
370
    25
100
AcDbSpline
210
0.0
220
0.0
230
1.0
 70
     8
 71
     3
 72
     8
 73
     4
 74
     0
 42
0.00000001
 43
0.00000001
 40
0.0
 40
0.0
 40
0.0
 40
0.0
 40
1.0
 40
1.0
 40
1.0
 40
1.0
 10
209.0198467226471
 20
73.2686002931272
 30
0.0
 10
209.0981092165225
 20
73.31480799744186
 30
0.0
 10
209.1867558629733
 20
73.33804473757164
 30
0.0
 10
209.2740551284488
 20
73.33804473757164
 30
0.0
  0
SPLINE
  5
16E
330
1F
100
AcDbEntity
  8
0
  6
Continuous
 62
     7
370
    25
100
AcDbSpline
210
0.0
220
0.0
230
1.0
 70
    24
 71
     3
 72
    12
 73
     8
 74
     0
 42
0.00000001
 43
0.00000001
 40
0.0
 40
0.0
 40
0.0
 40
0.0
 40
0.2499999999999999
 40
0.2499999999999999
 40
0.4999999999999998
 40
0.4999999999999998
 40
1.0
 40
1.0
 40
1.0
 40
1.0
 10
209.2740551284488
 20
73.33804473757164
 30
0.0
 10
210.0194351343767
 20
73.33804473757165
 30
0.0
 10
210.7734738041281
 20
73.33804473757164
 30
0.0
 10
212.2909884810772
 20
73.33804473757164
 30
0.0
 10
213.0518136172116
 20
73.33804473757164
 30
0.0
 10
215.3415228446382
 20
73.33804473757164
 30
0.0
 10
216.8777866055049
 20
73.33804473757164
 30
0.0
 10
218.4255577373104
 20
73.33804473757164
 30
0.0
  0
ARC
  5
16F
330
1F
100
AcDbEntity
  8
0
  6
Continuous
 62
     7
370
    25
100
AcDbCircle
 10
218.4255577373
 20
57.3380447376
 30
0.0
 40
16.0
100
AcDbArc
 50
90.0
 51
180.0
  0
SPLINE
  5
170
330
1F
100
AcDbEntity
  8
0
  6
Continuous
 62
     7
370
    25
100
AcDbSpline
210
0.0
220
0.0
230
1.0
 70
    24
 71
     3
 72
    12
 73
     8
 74
     0
 42
0.00000001
 43
0.00000001
 40
0.0
 40
0.0
 40
0.0
 40
0.0
 40
0.25
 40
0.25
 40
0.5
 40
0.5
 40
1.0
 40
1.0
 40
1.0
 40
1.0
 10
202.4255577373104
 20
57.33804473757164
 30
0.0
 10
202.4255577373104
 20
58.11245065146898
 30
0.0
 10
202.4255577373104
 20
58.89086805259141
 30
0.0
 10
202.4255577373104
 20
60.44846827779335
 30
0.0
 10
202.4255577373104
 20
61.21910172867864
 30
0.0
 10
202.4255577373104
 20
63.50989827768493
 30
0.0
 10
202.4255577373104
 20
65.00909621836264
 30
0.0
 10
202.4255577373104
 20
66.48954734643321
 30
0.0
  0
ARC
  5
171
330
1F
100
AcDbEntity
  8
0
  6
Continuous
 62
     7
370
    25
100
AcDbCircle
 10
218.4255577373
 20
57.3380447376
 30
0.0
 40
16.0
100
AcDbArc
 50
0.0
 51
90.0
  0
ARC
  5
172
330
1F
100
AcDbEntity
  8
0
  6
Continuous
 62
     7
370
    25
100
AcDbCircle
 10
218.4255577373
 20
57.3380447376
 30
0.0
 40
16.0
100
AcDbArc
 50
270.0
 51
0.0
  0
SPLINE
  5
173
330
1F
100
AcDbEntity
  8
0
  6
Continuous
 62
     7
370
    25
100
AcDbSpline
210
0.0
220
0.0
230
1.0
 70
    24
 71
     3
 72
    12
 73
     8
 74
     0
 42
0.00000001
 43
0.00000001
 40
0.0
 40
0.0
 40
0.0
 40
0.0
 40
0.25
 40
0.25
 40
0.5
 40
0.5
 40
1.0
 40
1.0
 40
1.0
 40
1.0
 10
234.4255577373104
 20
48.18654212871006
 30
0.0
 10
234.4255577373104
 20
48.93192213463801
 30
0.0
 10
234.4255577373104
 20
49.68596080438942
 30
0.0
 10
234.4255577373104
 20
51.20347548133848
 30
0.0
 10
234.4255577373104
 20
51.96430061747292
 30
0.0
 10
234.4255577373104
 20
54.25400984489944
 30
0.0
 10
234.4255577373104
 20
55.79027360576614
 30
0.0
 10
234.4255577373104
 20
57.33804473757164
 30
0.0
  0
SPLINE
  5
174
330
1F
100
AcDbEntity
  8
0
  6
Continuous
 62
     7
370
    25
100
AcDbSpline
210
0.0
220
0.0
230
1.0
 70
     8
 71
     3
 72
     8
 73
     4
 74
     0
 42
0.00000001
 43
0.00000001
 40
0.0
 40
0.0
 40
0.0
 40
0.0
 40
1.0
 40
1.0
 40
1.0
 40
1.0
 10
234.4255577373104
 20
48.18654212871007
 30
0.0
 10
234.4255577373104
 20
48.09928198542574
 30
0.0
 10
234.4023101012089
 20
48.01057776215755
 30
0.0
 10
234.3561132928659
 20
47.93233372290837
 30
0.0
  0
ARC
  5
175
330
1F
100
AcDbEntity
  8
0
  6
Continuous
 62
     7
370
    25
100
AcDbCircle
 10
218.4255577373
 20
57.3380447376
 30
0.0
 40
18.5
100
AcDbArc
 50
300.5584317859
 51
329.4415682141
  0
SPLINE
  5
176
330
1F
100
AcDbEntity
  8
0
  6
Continuous
 62
     7
370
    25
100
AcDbSpline
210
0.0
220
0.0
230
1.0
 70
     8
 71
     3
 72
     8
 73
     4
 74
     0
 42
0.00000001
 43
0.00000001
 40
0.0
 40
0.0
 40
0.0
 40
0.0
 40
1.0
 40
1.0
 40
1.0
 40
1.0
 10
227.8312687519736
 20
41.40748918201607
 30
0.0
 10
227.7530062580982
 20
41.36128147770141
 30
0.0
 10
227.6643596116474
 20
41.33804473757164
 30
0.0
 10
227.5770603461719
 20
41.33804473757164
 30
0.0
  0
SPLINE
  5
177
330
1F
100
AcDbEntity
  8
0
  6
Continuous
 62
     7
370
    25
100
AcDbSpline
210
0.0
220
0.0
230
1.0
 70
    24
 71
     3
 72
    12
 73
     8
 74
     0
 42
0.00000001
 43
0.00000001
 40
0.0
 40
0.0
 40
0.0
 40
0.0
 40
0.2500000000000001
 40
0.2500000000000001
 40
0.5000000000000001
 40
0.5000000000000001
 40
1.0
 40
1.0
 40
1.0
 40
1.0
 10
218.4255577373104
 20
41.33804473757164
 30
0.0
 10
219.1999636512276
 20
41.33804473757164
 30
0.0
 10
219.9783810524068
 20
41.33804473757164
 30
0.0
 10
221.5359812775733
 20
41.33804473757164
 30
0.0
 10
222.3066147284455
 20
41.33804473757164
 30
0.0
 10
224.5974112774234
 20
41.33804473757164
 30
0.0
 10
226.0966092180968
 20
41.33804473757164
 30
0.0
 10
227.5770603461719
 20
41.33804473757164
 30
0.0
  0
SPLINE
  5
178
330
1F
100
AcDbEntity
  8
0
  6
Continuous
 62
     7
370
    25
100
AcDbSpline
210
0.0
220
0.0
230
1.0
 70
     8
 71
     3
 72
     8
 73
     4
 74
     0
 42
0.00000001
 43
0.00000001
 40
0.0
 40
0.0
 40
0.0
 40
0.0
 40
1.0
 40
1.0
 40
1.0
 40
1.0
 10
227.5770603461719
 20
73.33804473757164
 30
0.0
 10
227.6643204894562
 20
73.33804473757164
 30
0.0
 10
227.7530247127244
 20
73.3147971014702
 30
0.0
 10
227.8312687519736
 20
73.2686002931272
 30
0.0
  0
ARC
  5
179
330
1F
100
AcDbEntity
  8
0
  6
Continuous
 62
     7
370
    25
100
AcDbCircle
 10
218.4255577373
 20
57.3380447376
 30
0.0
 40
18.5
100
AcDbArc
 50
30.5584317859
 51
59.4415682141
  0
SPLINE
  5
17A
330
1F
100
AcDbEntity
  8
0
  6
Continuous
 62
     7
370
    25
100
AcDbSpline
210
0.0
220
0.0
230
1.0
 70
     8
 71
     3
 72
     8
 73
     4
 74
     0
 42
0.00000001
 43
0.00000001
 40
0.0
 40
0.0
 40
0.0
 40
0.0
 40
1.0
 40
1.0
 40
1.0
 40
1.0
 10
234.3561132928659
 20
66.7437557522349
 30
0.0
 10
234.4023209971806
 20
66.66549325835943
 30
0.0
 10
234.4255577373104
 20
66.57684661190866
 30
0.0
 10
234.4255577373104
 20
66.4895473464332
 30
0.0
  0
SPLINE
  5
17B
330
1F
100
AcDbEntity
  8
0
  6
Continuous
 62
     7
370
    25
100
AcDbSpline
210
0.0
220
0.0
230
1.0
 70
    24
 71
     3
 72
    12
 73
     8
 74
     0
 42
0.00000001
 43
0.00000001
 40
0.0
 40
0.0
 40
0.0
 40
0.0
 40
0.25
 40
0.25
 40
0.5
 40
0.5
 40
1.0
 40
1.0
 40
1.0
 40
1.0
 10
234.4255577373104
 20
57.33804473757164
 30
0.0
 10
234.4255577373104
 20
58.11245065146898
 30
0.0
 10
234.4255577373104
 20
58.8908680525914
 30
0.0
 10
234.4255577373104
 20
60.44846827779335
 30
0.0
 10
234.4255577373104
 20
61.21910172867863
 30
0.0
 10
234.4255577373104
 20
63.50989827768491
 30
0.0
 10
234.4255577373104
 20
65.00909621836263
 30
0.0
 10
234.4255577373104
 20
66.4895473464332
 30
0.0
  0
SPLINE
  5
17C
330
1F
100
AcDbEntity
  8
0
  6
Continuous
 62
     7
370
    25
100
AcDbSpline
210
0.0
220
0.0
230
1.0
 70
    24
 71
     3
 72
    12
 73
     8
 74
     0
 42
0.00000001
 43
0.00000001
 40
0.0
 40
0.0
 40
0.0
 40
0.0
 40
0.2500000000000001
 40
0.2500000000000001
 40
0.5000000000000001
 40
0.5000000000000001
 40
1.0
 40
1.0
 40
1.0
 40
1.0
 10
218.4255577373104
 20
73.33804473757164
 30
0.0
 10
219.1999636512077
 20
73.33804473757164
 30
0.0
 10
219.9783810523301
 20
73.33804473757164
 30
0.0
 10
221.5359812775321
 20
73.33804473757164
 30
0.0
 10
222.3066147284173
 20
73.33804473757164
 30
0.0
 10
224.5974112774236
 20
73.33804473757164
 30
0.0
 10
226.0966092181014
 20
73.33804473757164
 30
0.0
 10
227.5770603461719
 20
73.33804473757164
 30
0.0
  0
LINE
  5
17D
330
1F
100
AcDbEntity
  8
0
  6
Continuous
 62
     7
370
    25
100
AcDbLine
 10
226.6755577373
 20
76.7380447376
 30
0.0
 11
210.1755577373
 21
76.7380447376
 31
0.0
  0
LINE
  5
17E
330
1F
100
AcDbEntity
  8
0
  6
Continuous
 62
     7
370
    25
100
AcDbLine
 10
210.6755577373
 20
77.2380447376
 30
0.0
 11
226.1755577373
 21
77.2380447376
 31
0.0
  0
ELLIPSE
  5
17F
330
1F
100
AcDbEntity
  8
0
  6
Continuous
 62
     7
370
    25
100
AcDbEllipse
 10
218.2510191822
 20
88.9616515353
 30
0.0
 11
0.7234244958980298
 21
-0.7001325129304804
 31
0.0
210
0.0
220
0.0
230
1.0
 40
0.9869902583
 41
4.707649545362581
 42
5.487972049091407
  0
LINE
  5
180
330
1F
100
AcDbEntity
  8
0
  6
Continuous
 62
     7
370
    25
100
AcDbLine
 10
218.264112143
 20
87.9616515353
 30
0.0
 11
218.264112143
 21
87.2380447376
 31
0.0
  0
ELLIPSE
  5
181
330
1F
100
AcDbEntity
  8
0
  6
Continuous
 62
     7
370
    25
100
AcDbEllipse
 10
218.2510191822
 20
88.7380447376
 30
0.0
 11
1.074619436156752
 21
-1.056020081253678
 31
0.0
210
0.0
220
0.0
230
0.9999999999999999
 40
0.9913091236
 41
4.713099434383474
 42
5.4934219381123
  0
LWPOLYLINE
  5
182
330
1F
100
AcDbEntity
  8
0
  6
Continuous
 62
     7
370
    25
100
AcDbPolyline
 90
        9
 70
   128
 43
0.0
 10
217.5565743628
 20
88.2509648445
 10
217.4708454807
 20
88.1746343669
 10
217.3898138308
 20
88.0902343676
 10
217.3179192759
 20
88.0023892671
 10
217.2591010417
 20
87.9159122488
 10
217.21658188
 20
87.8355415364
 10
217.1926914883
 20
87.7656807791
 10
217.1887388622
 20
87.7101577671
 10
217.2049405728
 20
87.6720147014
  0
LINE
  5
183
330
1F
100
AcDbEntity
  8
0
  6
Continuous
 62
     7
370
    25
100
AcDbLine
 10
218.264112143
 20
87.9616515353
 30
0.0
 11
218.5870033316
 21
87.9616515353
 31
0.0
  0
LINE
  5
184
330
1F
100
AcDbEntity
  8
0
  6
Continuous
 62
     7
370
    25
100
AcDbLine
 10
218.5870033316
 20
87.9616515353
 30
0.0
 11
218.5870033316
 21
87.2380447376
 31
0.0
  0
LINE
  5
185
330
1F
100
AcDbEntity
  8
0
  6
Continuous
 62
     7
370
    25
100
AcDbLine
 10
218.5870033316
 20
87.2380447376
 30
0.0
 11
218.264112143
 21
87.2380447376
 31
0.0
  0
ELLIPSE
  5
186
330
1F
100
AcDbEntity
  8
0
  6
Continuous
 62
     7
370
    25
100
AcDbEllipse
 10
218.6000962924
 20
88.9616515353
 30
0.0
 11
0.7234244958980298
 21
0.7001325129304662
 31
0.0
210
0.0
220
0.0
230
1.0
 40
0.9869902583
 41
3.936805911678
 42
4.717128415406837
  0
LWPOLYLINE
  5
187
330
1F
100
AcDbEntity
  8
0
  6
Continuous
 62
     7
370
    25
100
AcDbPolyline
 90
        9
 70
   128
 43
0.0
 10
219.2945411118
 20
88.2509648445
 10
219.3802699939
 20
88.1746343669
 10
219.4613016438
 20
88.0902343676
 10
219.5331961987
 20
88.0023892671
 10
219.5920144329
 20
87.9159122488
 10
219.6345335946
 20
87.8355415364
 10
219.6584239863
 20
87.7656807791
 10
219.6623766124
 20
87.7101577671
 10
219.6461749019
 20
87.6720147014
  0
ELLIPSE
  5
188
330
1F
100
AcDbEntity
  8
0
  6
Continuous
 62
     7
370
    25
100
AcDbEllipse
 10
218.6000962924
 20
88.7380447376
 30
0.0
 11
1.07461943615678
 21
1.056020081253678
 31
0.0
210
0.0
220
0.0
230
1.0
 40
0.9913091236
 41
3.931356022657126
 42
4.711678526385946
  0
LINE
  5
189
330
1F
100
AcDbEntity
  8
0
  6
Continuous
 62
     7
370
    25
100
AcDbLine
 10
217.5565743628
 20
88.2509648445
 30
0.0
 11
217.5565743628
 21
97.4088651308
 31
0.0
  0
LINE
  5
18A
330
1F
100
AcDbEntity
  8
0
  6
Continuous
 62
     7
370
    25
100
AcDbLine
 10
217.5565743628
 20
97.4088651308
 30
0.0
 11
219.2945411118
 21
97.4088651308
 31
0.0
  0
LINE
  5
18B
330
1F
100
AcDbEntity
  8
0
  6
Continuous
 62
     7
370
    25
100
AcDbLine
 10
219.2945411118
 20
97.4088651308
 30
0.0
 11
219.2945411118
 21
88.2509648445
 31
0.0
  0
SPLINE
  5
18C
330
1F
100
AcDbEntity
  8
0
  6
Continuous
 62
     7
370
    25
100
AcDbSpline
210
0.0
220
0.0
230
1.0
 70
     8
 71
     3
 72
    12
 73
     8
 74
     0
 42
0.00000001
 43
0.00000001
 40
0.0
 40
0.0
 40
0.0
 40
0.0
 40
0.139683458618249
 40
0.3831896274038307
 40
0.5513169293013299
 40
0.819472946160705
 40
0.9999999999999999
 40
0.9999999999999999
 40
0.9999999999999999
 40
0.9999999999999999
 10
219.2945411118291
 20
88.2509648445111
 30
0.0
 10
219.3442560323075
 20
88.26427721817205
 30
0.0
 10
219.4806375483653
 20
88.30079667118001
 30
0.0
 10
219.6605536575775
 20
88.3384687317714
 30
0.0
 10
219.8388950859623
 20
88.3628360525329
 30
0.0
 10
219.9594153105138
 20
88.36171901776893
 30
0.0
 10
219.9835613238207
 20
88.32033572939136
 30
0.0
 10
219.9932764410804
 20
88.30368521677595
 30
0.0
  0
ARC
  5
18D
330
1F
100
AcDbEntity
  8
0
  6
Continuous
 62
     7
370
    25
100
AcDbCircle
 10
219.4950222604
 20
88.2888322311
 30
0.0
 40
0.498475515683782
100
AcDbArc
 50
333.4921832491
 51
1.7074848132
  0
SPLINE
  5
18E
330
1F
100
AcDbEntity
  8
0
  6
Continuous
 62
     7
370
    25
100
AcDbSpline
210
0.0
220
0.0
230
1.0
 70
     8
 71
     3
 72
    12
 73
     8
 74
     0
 42
0.00000001
 43
0.00000001
 40
0.0
 40
0.0
 40
0.0
 40
0.0
 40
0.0715202026166142
 40
0.1260836237049476
 40
0.3855387013103047
 40
0.8475626424815554
 40
1.0
 40
1.0
 40
1.0
 40
1.0
 10
219.9410947795193
 20
88.06635268722084
 30
0.0
 10
219.9391587338141
 20
88.06324403935602
 30
0.0
 10
219.9357456610146
 20
88.0577637754127
 30
0.0
 10
219.9135632105093
 20
88.01817522999228
 30
0.0
 10
219.8505497357429
 20
87.91174109701
 30
0.0
 10
219.753503410271
 20
87.78123408130176
 30
0.0
 10
219.6675087170528
 20
87.69372436733842
 30
0.0
 10
219.6461749018512
 20
87.67201470135585
 30
0.0
  0
SPLINE
  5
18F
330
1F
100
AcDbEntity
  8
0
  6
Continuous
 62
     7
370
    25
100
AcDbSpline
210
0.0
220
0.0
230
1.0
 70
     8
 71
     3
 72
    11
 73
     7
 74
     0
 42
0.00000001
 43
0.00000001
 40
0.0
 40
0.0
 40
0.0
 40
0.0
 40
0.2499999999999989
 40
0.4999999999999977
 40
0.7499999999999992
 40
1.0
 40
1.0
 40
1.0
 40
1.0
 10
219.9932764410804
 20
97.11462486518508
 30
0.0
 10
219.9782771359138
 20
97.1537424193512
 30
0.0
 10
219.9482785255807
 20
97.23197752768345
 30
0.0
 10
219.784758822784
 20
97.3286406033917
 30
0.0
 10
219.5591792087016
 20
97.39582881953119
 30
0.0
 10
219.3827538107866
 20
97.40451969372478
 30
0.0
 10
219.2945411118291
 20
97.40886513082158
 30
0.0
  0
LINE
  5
190
330
1F
100
AcDbEntity
  8
0
  6
Continuous
 62
     7
370
    25
100
AcDbLine
 10
219.9932764411
 20
88.3036852168
 30
0.0
 11
219.9932764411
 21
97.1146248652
 31
0.0
  0
SPLINE
  5
191
330
1F
100
AcDbEntity
  8
0
  6
Continuous
 62
     7
370
    25
100
AcDbSpline
210
0.0
220
0.0
230
1.0
 70
     8
 71
     3
 72
    11
 73
     7
 74
     0
 42
0.00000001
 43
0.00000001
 40
0.0
 40
0.0
 40
0.0
 40
0.0
 40
0.2499999999999988
 40
0.5000000000000019
 40
0.7499999999999991
 40
1.0
 40
1.0
 40
1.0
 40
1.0
 10
216.8578390335403
 20
97.11462486518505
 30
0.0
 10
216.8728383387069
 20
97.15374241935119
 30
0.0
 10
216.9028369490401
 20
97.23197752768345
 30
0.0
 10
217.0663566518367
 20
97.32864060339169
 30
0.0
 10
217.2919362659191
 20
97.39582881953119
 30
0.0
 10
217.4683616638341
 20
97.40451969372478
 30
0.0
 10
217.5565743627917
 20
97.40886513082158
 30
0.0
  0
SPLINE
  5
192
330
1F
100
AcDbEntity
  8
0
  6
Continuous
 62
     7
370
    25
100
AcDbSpline
210
0.0
220
0.0
230
1.0
 70
     8
 71
     3
 72
    13
 73
     9
 74
     0
 42
0.00000001
 43
0.00000001
 40
0.0
 40
0.0
 40
0.0
 40
0.0
 40
0.1143463544469914
 40
0.2890454840074685
 40
0.5294852105593209
 40
0.7014879056604271
 40
0.9335094878266192
 40
1.0
 40
1.0
 40
1.0
 40
1.0
 10
216.8578390335404
 20
88.30368521677595
 30
0.0
 10
216.8626736250454
 20
88.31507204853393
 30
0.0
 10
216.8748945379755
 20
88.3438557584538
 30
0.0
 10
216.9475426330165
 20
88.36410593590267
 30
0.0
 10
217.0780548994233
 20
88.35624860915706
 30
0.0
 10
217.2649224985929
 20
88.32372119282911
 30
0.0
 10
217.4262959033495
 20
88.2865998378772
 30
0.0
 10
217.5328422542015
 20
88.25745627475825
 30
0.0
 10
217.5565743627917
 20
88.2509648445111
 30
0.0
  0
LINE
  5
193
330
1F
100
AcDbEntity
  8
0
  6
Continuous
 62
     7
370
    25
100
AcDbLine
 10
216.8578390335
 20
97.1146248652
 30
0.0
 11
216.8578390335
 21
88.3036852168
 31
0.0
  0
SPLINE
  5
194
330
1F
100
AcDbEntity
  8
0
  6
Continuous
 62
     7
370
    25
100
AcDbSpline
210
0.0
220
0.0
230
1.0
 70
     8
 71
     3
 72
    11
 73
     7
 74
     0
 42
0.00000001
 43
0.00000001
 40
0.0
 40
0.0
 40
0.0
 40
0.0
 40
0.3325271082490199
 40
0.7778992719027311
 40
0.9254453528959206
 40
1.0
 40
1.0
 40
1.0
 40
1.0
 10
217.2049405727695
 20
87.67201470135585
 30
0.0
 10
217.1597097496233
 20
87.71995124948405
 30
0.0
 10
217.0538987540077
 20
87.83209189895712
 30
0.0
 10
216.9661387795301
 20
87.96745211697431
 30
0.0
 10
216.9185258875923
 20
88.05245275075278
 30
0.0
 10
216.9121581976641
 20
88.06285939181892
 30
0.0
 10
216.9100206951015
 20
88.06635268722084
 30
0.0
  0
ARC
  5
195
330
1F
100
AcDbEntity
  8
0
  6
Continuous
 62
     7
370
    25
100
AcDbCircle
 10
217.3560932142
 20
88.2888322311
 30
0.0
 40
0.4984755156838387
100
AcDbArc
 50
178.2925151868
 51
206.5078167509
  0
LINE
  5
196
330
1F
100
AcDbEntity
  8
0
  6
Continuous
 62
     7
370
    25
100
AcDbLine
 10
217.5719519459
 20
87.2380447376
 30
0.0
 11
218.264112143
 21
87.2380447376
 31
0.0
  0
SPLINE
  5
197
330
1F
100
AcDbEntity
  8
0
  6
Continuous
 62
     7
370
    25
100
AcDbSpline
210
0.0
220
0.0
230
1.0
 70
     8
 71
     3
 72
    11
 73
     7
 74
     0
 42
0.00000001
 43
0.00000001
 40
0.0
 40
0.0
 40
0.0
 40
0.0
 40
0.2500000000000013
 40
0.5000000000000004
 40
0.7500000000000003
 40
1.0
 40
1.0
 40
1.0
 40
1.0
 10
216.0729797948133
 20
88.77731016003345
 30
0.0
 10
216.0910561052313
 20
88.57693455365737
 30
0.0
 10
216.1272087260674
 20
88.17618334090521
 30
0.0
 10
216.4718345002679
 20
87.66599040286323
 30
0.0
 10
216.972656586388
 20
87.30800933449656
 30
0.0
 10
217.3721868260488
 20
87.26136626987994
 30
0.0
 10
217.5719519458792
 20
87.23804473757163
 30
0.0
  0
LINE
  5
198
330
1F
100
AcDbEntity
  8
0
  6
Continuous
 62
     7
370
    25
100
AcDbLine
 10
216.6393170749
 20
88.77731016
 30
0.0
 11
216.0729797948
 21
88.77731016
 31
0.0
  0
SPLINE
  5
199
330
1F
100
AcDbEntity
  8
0
  6
Continuous
 62
     7
370
    25
100
AcDbSpline
210
0.0
220
0.0
230
1.0
 70
     8
 71
     3
 72
     9
 73
     5
 74
     0
 42
0.00000001
 43
0.00000001
 40
0.0
 40
0.0
 40
0.0
 40
0.0
 40
0.540774756067758
 40
1.0
 40
1.0
 40
1.0
 40
1.0
 10
216.6393170748937
 20
88.77731016003345
 30
0.0
 10
216.6392875744809
 20
88.76597620623278
 30
0.0
 10
216.6392330223545
 20
88.74501747309384
 30
0.0
 10
216.6398372674894
 20
88.72405128022588
 30
0.0
 10
216.6401147521088
 20
88.71442307519176
 30
0.0
  0
ELLIPSE
  5
19A
330
1F
100
AcDbEntity
  8
0
  6
Continuous
 62
     7
370
    25
100
AcDbEllipse
 10
218.138289226
 20
88.7380447376
 30
0.0
 11
-0.3999861399326506
 21
1.445826639360078
 31
0.0
210
0.0
220
0.0
230
1.0
 40
0.9987379186
 41
1.314426961368743
 42
1.3169707141365
  0
ELLIPSE
  5
19B
330
1F
100
AcDbEntity
  8
0
  6
Continuous
 62
     7
370
    25
100
AcDbEllipse
 10
219.0869821257
 20
88.7380447376
 30
0.0
 11
2.447559743737003
 21
-0.02501587584977472
 31
0.0
210
0.0
220
0.0
230
1.0
 40
0.6127700831
 41
3.171475350442015
 42
3.622568086779185
  0
LINE
  5
19C
330
1F
100
AcDbEntity
  8
0
  6
Continuous
 62
     7
370
    25
100
AcDbLine
 10
220.2117983997
 20
88.77731016
 30
0.0
 11
220.2110007225
 21
88.7144230752
 31
0.0
  0
LINE
  5
19D
330
1F
100
AcDbEntity
  8
0
  6
Continuous
 62
     7
370
    25
100
AcDbLine
 10
220.7781356798
 20
88.77731016
 30
0.0
 11
220.2117983997
 21
88.77731016
 31
0.0
  0
SPLINE
  5
19E
330
1F
100
AcDbEntity
  8
0
  6
Continuous
 62
     7
370
    25
100
AcDbSpline
210
0.0
220
0.0
230
1.0
 70
     8
 71
     3
 72
    11
 73
     7
 74
     0
 42
0.00000001
 43
0.00000001
 40
0.0
 40
0.0
 40
0.0
 40
0.0
 40
0.2500000000000001
 40
0.4999999999999998
 40
0.7500000000000001
 40
1.0
 40
1.0
 40
1.0
 40
1.0
 10
219.2791635287415
 20
87.23804473757163
 30
0.0
 10
219.4789286485719
 20
87.26136626987994
 30
0.0
 10
219.8784588882327
 20
87.30800933449655
 30
0.0
 10
220.3792809743528
 20
87.66599040286324
 30
0.0
 10
220.7239067485534
 20
88.1761833409052
 30
0.0
 10
220.7600593693894
 20
88.57693455365737
 30
0.0
 10
220.7781356798075
 20
88.77731016003345
 30
0.0
  0
LINE
  5
19F
330
1F
100
AcDbEntity
  8
0
  6
Continuous
 62
     7
370
    25
100
AcDbLine
 10
218.5870033316
 20
87.2380447376
 30
0.0
 11
219.2791635287
 21
87.2380447376
 31
0.0
  0
ELLIPSE
  5
1A0
330
1F
100
AcDbEntity
  8
0
  6
Continuous
 62
     7
370
    25
100
AcDbEllipse
 10
217.764133349
 20
88.7380447376
 30
0.0
 11
2.447559743736974
 21
0.02501587584980314
 31
0.0
210
0.0
220
0.0
230
1.0
 40
0.6127700831
 41
5.802209873990222
 42
6.253302610327371
  0
ELLIPSE
  5
1A1
330
1F
100
AcDbEntity
  8
0
  6
Continuous
 62
     7
370
    25
100
AcDbEllipse
 10
218.7128262487
 20
88.7380447376
 30
0.0
 11
0.3999861399325653
 21
1.445826639360106
 31
0.0
210
0.0
220
0.0
230
1.0
 40
0.9987379186
 41
4.966214593033936
 42
4.968758345810775
  0
ELLIPSE
  5
1A2
330
1F
100
AcDbEntity
  8
0
  6
Continuous
 62
     7
370
    25
100
AcDbEllipse
 10
216.8096848755
 20
96.7568539888
 30
0.0
 11
0.02159772760037981
 21
0.7999991561933228
 31
0.0
210
0.0
220
0.0
230
1.0
 40
0.0537988877
 41
5.177489007048905
 42
5.369012849440422
  0
ELLIPSE
  5
1A3
330
1F
100
AcDbEntity
  8
0
  6
Continuous
 62
     7
370
    25
100
AcDbEllipse
 10
218.5878854619
 20
88.751479917
 30
0.0
 11
1.947791790405574
 21
-0.01776981143129319
 31
0.0
210
0.0
220
0.0
230
1.0
 40
0.513320833
 41
3.160788584408894
 42
3.623660809788542
  0
LINE
  5
1A4
330
1F
100
AcDbEntity
  8
0
  6
Continuous
 62
     7
370
    25
100
AcDbLine
 10
216.6402774382
 20
88.7500547334
 30
0.0
 11
216.8569585494
 21
97.2442901516
 31
0.0
  0
ELLIPSE
  5
1A5
330
1F
100
AcDbEntity
  8
0
  6
Continuous
 62
     7
370
    25
100
AcDbEllipse
 10
220.0414305991
 20
96.7568539888
 30
0.0
 11
-0.02159772760037981
 21
0.7999991561933228
 31
0.0
210
0.0
220
0.0
230
1.0
 40
0.0537988877
 41
0.9141724577395826
 42
1.105696300131252
  0
LINE
  5
1A6
330
1F
100
AcDbEntity
  8
0
  6
Continuous
 62
     7
370
    25
100
AcDbLine
 10
219.9941569252
 20
97.2442901516
 30
0.0
 11
220.2108380364
 21
88.7500547334
 31
0.0
  0
ELLIPSE
  5
1A7
330
1F
100
AcDbEntity
  8
0
  6
Continuous
 62
     7
370
    25
100
AcDbEllipse
 10
218.2632300127
 20
88.751479917
 30
0.0
 11
1.947791790405546
 21
0.0177698114313074
 31
0.0
210
0.0
220
0.0
230
1.0
 40
0.513320833
 41
5.80111715098087
 42
6.263989376373016
  0
LINE
  5
1A8
330
1F
100
AcDbEntity
  8
0
  6
Continuous
 62
     7
370
    25
100
AcDbLine
 10
216.640057103
 20
88.7182383035
 30
0.0
 11
216.6402774382
 21
88.7500547334
 31
0.0
  0
SPLINE
  5
1A9
330
1F
100
AcDbEntity
  8
0
  6
Continuous
 62
     7
370
    25
100
AcDbSpline
210
0.0
220
0.0
230
1.0
 70
     8
 71
     3
 72
     9
 73
     5
 74
     0
 42
0.00000001
 43
0.00000001
 40
0.0
 40
0.0
 40
0.0
 40
0.0
 40
0.8673350121728702
 40
1.0
 40
1.0
 40
1.0
 40
1.0
 10
220.2108380364358
 20
88.7500547334342
 30
0.0
 10
220.211008768623
 20
88.740856310059
 30
0.0
 10
220.2112056154986
 20
88.73025092315993
 30
0.0
 10
220.2110756177333
 20
88.71964529855852
 30
0.0
 10
220.2110583715814
 20
88.7182383034999
 30
0.0
  0
ELLIPSE
  5
1AA
330
1F
100
AcDbEntity
  8
0
  6
Continuous
 62
     7
370
    25
100
AcDbEllipse
 10
217.5260093668
 20
96.7380447376
 30
0.0
 11
0.0209600052571659
 21
1.499999971448759
 31
0.0
210
0.0
220
0.0
230
1.0
 40
0.013963099
 41
5.413231207420202
 42
6.283380418268021
  0
LINE
  5
1AB
330
1F
100
AcDbEntity
  8
0
  6
Continuous
 62
     7
370
    25
100
AcDbLine
 10
219.3041501895
 20
98.2380447376
 30
0.0
 11
217.5469652852
 21
98.2380447376
 31
0.0
  0
ELLIPSE
  5
1AC
330
1F
100
AcDbEntity
  8
0
  6
Continuous
 62
     7
370
    25
100
AcDbEllipse
 10
219.3251061078
 20
96.7380447376
 30
0.0
 11
-0.0209600052571659
 21
1.499999971448744
 31
0.0
210
0.0
220
0.0
230
1.0
 40
0.013963099
 41
6.282990196092133
 42
7.153139406940043
  0
SPLINE
  5
1AD
330
1F
100
AcDbEntity
  8
0
  6
Continuous
 62
     7
370
    25
100
AcDbSpline
210
0.0
220
0.0
230
1.0
 70
     8
 71
     3
 72
     9
 73
     5
 74
     0
 42
0.00000001
 43
0.00000001
 40
0.0
 40
0.0
 40
0.0
 40
0.0
 40
0.5600029565045049
 40
1.0
 40
1.0
 40
1.0
 40
1.0
 10
219.2955818239343
 20
97.70511347841223
 30
0.0
 10
219.2955874620005
 20
97.69532701625228
 30
0.0
 10
219.2955975299228
 20
97.67785128322929
 30
0.0
 10
219.2954753533193
 20
97.65989031556349
 30
0.0
 10
219.295421595975
 20
97.65198754289223
 30
0.0
  0
ELLIPSE
  5
1AE
330
1F
100
AcDbEntity
  8
0
  6
Continuous
 62
     7
370
    25
100
AcDbEllipse
 10
219.3426952698
 20
96.7380447376
 30
0.0
 11
-0.02155295842283067
 21
1.499999872388898
 31
0.0
210
0.0
220
0.0
230
1.0
 40
0.0287076702
 41
0.9152123852433449
 42
1.106736227634804
  0
ELLIPSE
  5
1AF
330
1F
100
AcDbEntity
  8
0
  6
Continuous
 62
     7
370
    25
100
AcDbEllipse
 10
217.5084202048
 20
96.7380447376
 30
0.0
 11
0.02155295842283067
 21
1.499999872388898
 31
0.0
210
0.0
220
0.0
230
1.0
 40
0.0287076702
 41
5.176449079544879
 42
5.367972921936406
  0
SPLINE
  5
1B0
330
1F
100
AcDbEntity
  8
0
  6
Continuous
 62
     7
370
    25
100
AcDbSpline
210
0.0
220
0.0
230
1.0
 70
     8
 71
     3
 72
     9
 73
     5
 74
     0
 42
0.00000001
 43
0.00000001
 40
0.0
 40
0.0
 40
0.0
 40
0.0
 40
0.5599925069634957
 40
0.9999999999999999
 40
0.9999999999999999
 40
0.9999999999999999
 40
0.9999999999999999
 10
217.5556938786457
 20
97.65198754289221
 30
0.0
 10
217.5556281334943
 20
97.66203513719508
 30
0.0
 10
217.5555107298673
 20
97.67997750995531
 30
0.0
 10
217.55552664702
 20
97.6974329527766
 30
0.0
 10
217.5555336506864
 20
97.70511347841223
 30
0.0
  0
SPLINE
  5
1B1
330
1F
100
AcDbEntity
  8
0
  6
Continuous
 62
     7
370
    25
100
AcDbSpline
210
0.0
220
0.0
230
1.0
 70
     8
 71
     3
 72
    12
 73
     8
 74
     0
 42
0.00000001
 43
0.00000001
 40
0.0
 40
0.0
 40
0.0
 40
0.0
 40
0.2225634137434412
 40
0.446206317369527
 40
0.6680851268156953
 40
0.8917990985568368
 40
1.0
 40
1.0
 40
1.0
 40
1.0
 10
216.8569585493944
 20
97.24429015162275
 30
0.0
 10
216.8693116569611
 20
97.29187609492907
 30
0.0
 10
216.8940777878481
 20
97.38727878562355
 30
0.0
 10
217.026661715846
 20
97.51149751819649
 30
0.0
 10
217.2130191193406
 20
97.60338731930096
 30
0.0
 10
217.4011099306938
 20
97.64584289831102
 30
0.0
 10
217.5176899635822
 20
97.65047690382617
 30
0.0
 10
217.5556938786457
 20
97.65198754289223
 30
0.0
  0
SPLINE
  5
1B2
330
1F
100
AcDbEntity
  8
0
  6
Continuous
 62
     7
370
    25
100
AcDbSpline
210
0.0
220
0.0
230
1.0
 70
     8
 71
     3
 72
    12
 73
     8
 74
     0
 42
0.00000001
 43
0.00000001
 40
0.0
 40
0.0
 40
0.0
 40
0.0
 40
0.2225634137435263
 40
0.4462063173695687
 40
0.6680851268158023
 40
0.8917990985569296
 40
1.0
 40
1.0
 40
1.0
 40
1.0
 10
219.295421595975
 20
97.65198754289223
 30
0.0
 10
219.3739252560176
 20
97.6465604702785
 30
0.0
 10
219.5313133390742
 20
97.63568000235107
 30
0.0
 10
219.7406648767017
 20
97.56038657133075
 30
0.0
 10
219.8994241711717
 20
97.45090802657747
 30
0.0
 10
219.9772730414884
 20
97.33819338603097
 30
0.0
 10
219.9900060823217
 20
97.26737592858676
 30
0.0
 10
219.9941569252263
 20
97.24429015162275
 30
0.0
  0
SPLINE
  5
1B3
330
1F
100
AcDbEntity
  8
0
  6
Continuous
 62
     7
370
    25
100
AcDbSpline
210
0.0
220
0.0
230
1.0
 70
     8
 71
     3
 72
    12
 73
     8
 74
     0
 42
0.00000001
 43
0.00000001
 40
0.0
 40
0.0
 40
0.0
 40
0.0
 40
0.2198609600791264
 40
0.4397396970008128
 40
0.6583291451397731
 40
0.8791239516843589
 40
1.0
 40
1.0
 40
1.0
 40
1.0
 10
219.9951021610984
 20
97.27213859650213
 30
0.0
 10
219.9844301664543
 20
97.32262681263002
 30
0.0
 10
219.9630853142827
 20
97.42360732710698
 30
0.0
 10
219.8349669190157
 20
97.555270320057
 30
0.0
 10
219.6520289829506
 20
97.65283164283007
 30
0.0
 10
219.4604798110635
 20
97.69949103430677
 30
0.0
 10
219.3386741393785
 20
97.70364418130814
 30
0.0
 10
219.2955818239343
 20
97.70511347841223
 30
0.0
  0
SPLINE
  5
1B4
330
1F
100
AcDbEntity
  8
0
  6
Continuous
 62
     7
370
    25
100
AcDbSpline
210
0.0
220
0.0
230
1.0
 70
     8
 71
     3
 72
    12
 73
     8
 74
     0
 42
0.00000001
 43
0.00000001
 40
0.0
 40
0.0
 40
0.0
 40
0.0
 40
0.2198610998683205
 40
0.4397399767664977
 40
0.6583294271823363
 40
0.8791242261983233
 40
1.0
 40
1.0
 40
1.0
 40
1.0
 10
217.5555336506864
 20
97.70511347841223
 30
0.0
 10
217.4768427409673
 20
97.70028968506261
 30
0.0
 10
217.319454558918
 20
97.69064170833202
 30
0.0
 10
217.110172810433
 20
97.6134675706703
 30
0.0
 10
216.9515234897686
 20
97.49960006145812
 30
0.0
 10
216.8714234270533
 20
97.37811949195452
 30
0.0
 10
216.8600403897516
 20
97.29983424871003
 30
0.0
 10
216.8560133135223
 20
97.27213859650213
 30
0.0
  0
LINE
  5
1B5
330
1F
100
AcDbEntity
  8
0
  6
Continuous
 62
     7
370
    25
100
AcDbLine
 10
219.431639847
 20
98.2131103593
 30
0.0
 11
219.3041501895
 21
98.2380447376
 31
0.0
  0
ELLIPSE
  5
1B6
330
1F
100
AcDbEntity
  8
0
  6
Continuous
 62
     7
370
    25
100
AcDbEllipse
 10
220.0246264449
 20
96.7563686014
 30
0.0
 11
-0.02097028290367575
 21
0.7999998117963115
 31
0.0
210
0.0
220
0.0
230
1.0
 40
0.0261679535
 41
6.282499370390492
 42
7.152648581237666
  0
ELLIPSE
  5
1B7
330
1F
100
AcDbEntity
  8
0
  6
Continuous
 62
     7
370
    25
100
AcDbEllipse
 10
216.8264890297
 20
96.7563686014
 30
0.0
 11
0.02097028290364733
 21
0.7999998117963116
 31
0.0
210
0.0
220
0.0
230
0.9999999999999998
 40
0.0261679535
 41
5.413722033121336
 42
6.283871243969172
  0
SPLINE
  5
1B8
330
1F
100
AcDbEntity
  8
0
  6
Continuous
 62
     7
370
    25
100
AcDbSpline
210
0.0
220
0.0
230
1.0
 70
     8
 71
     3
 72
    11
 73
     7
 74
     0
 42
0.00000001
 43
0.00000001
 40
0.0
 40
0.0
 40
0.0
 40
0.0
 40
0.2500000000000027
 40
0.5000000000000003
 40
0.7499999999999988
 40
1.0
 40
1.0
 40
1.0
 40
1.0
 10
216.8474449479969
 20
97.55636860138713
 30
0.0
 10
216.8599654642194
 20
97.64626764851417
 30
0.0
 10
216.8850064966646
 20
97.82606574276817
 30
0.0
 10
217.0476499662872
 20
98.05078195200315
 30
0.0
 10
217.2764697023416
 20
98.20754303703264
 30
0.0
 10
217.4568000908879
 20
98.22787750405865
 30
0.0
 10
217.546965285161
 20
98.23804473757164
 30
0.0
  0
LINE
  5
1B9
330
1F
100
AcDbEntity
  8
0
  6
Continuous
 62
     7
370
    25
100
AcDbLine
 10
220.210143878
 20
88.77726682
 30
0.0
 11
220.2117983997
 21
88.77731016
 31
0.0
  0
LINE
  5
1BA
330
1F
100
AcDbEntity
  8
0
  6
Continuous
 62
     7
370
    25
100
AcDbLine
 10
216.6409715966
 20
88.77726682
 30
0.0
 11
216.6393170749
 21
88.77731016
 31
0.0
  0
SPLINE
  5
1BB
330
1F
100
AcDbEntity
  8
0
  6
Continuous
 62
     7
370
    25
100
AcDbSpline
210
0.0
220
0.0
230
1.0
 70
     8
 71
     3
 72
     9
 73
     5
 74
     0
 42
0.00000001
 43
0.00000001
 40
0.0
 40
0.0
 40
0.0
 40
0.0
 40
0.5600012771711208
 40
0.9999999999999999
 40
0.9999999999999999
 40
0.9999999999999999
 40
0.9999999999999999
 10
216.0729797948133
 20
88.77731016003344
 30
0.0
 10
216.0848142071583
 20
89.70635979946162
 30
0.0
 10
216.105947038149
 20
91.36537322907614
 30
0.0
 10
216.1269077675615
 20
93.02215246424274
 30
0.0
 10
216.1361304617325
 20
93.75113321172546
 30
0.0
  0
SPLINE
  5
1BC
330
1F
100
AcDbEntity
  8
0
  6
Continuous
 62
     7
370
    25
100
AcDbSpline
210
0.0
220
0.0
230
1.0
 70
     8
 71
     3
 72
     9
 73
     5
 74
     0
 42
0.00000001
 43
0.00000001
 40
0.0
 40
0.0
 40
0.0
 40
0.0
 40
0.5599999095970982
 40
1.0
 40
1.0
 40
1.0
 40
1.0
 10
216.1361304617325
 20
93.75113321172546
 30
0.0
 10
216.1384278716298
 20
93.93293492647426
 30
0.0
 10
216.1425303899657
 20
94.25758089807736
 30
0.0
 10
216.1466267831587
 20
94.58214710363187
 30
0.0
 10
216.148429196534
 20
94.72495626341758
 30
0.0
  0
LINE
  5
1BD
330
1F
100
AcDbEntity
  8
0
  6
Continuous
 62
     7
370
    25
100
AcDbLine
 10
216.1484291965
 20
94.7249562634
 30
0.0
 11
215.8201010672
 21
94.7249562634
 31
0.0
  0
LINE
  5
1BE
330
1F
100
AcDbEntity
  8
0
  6
Continuous
 62
     7
370
    25
100
AcDbLine
 10
215.8201010672
 20
94.7249562634
 30
0.0
 11
215.9498769804
 21
97.5563686014
 31
0.0
  0
LINE
  5
1BF
330
1F
100
AcDbEntity
  8
0
  6
Continuous
 62
     7
370
    25
100
AcDbLine
 10
215.9498769804
 20
97.5563686014
 30
0.0
 11
216.847444948
 21
97.5563686014
 31
0.0
  0
LINE
  5
1C0
330
1F
100
AcDbEntity
  8
0
  6
Continuous
 62
     7
370
    25
100
AcDbLine
 10
216.8560133135
 20
97.2721385965
 30
0.0
 11
216.6393170749
 21
88.77731016
 31
0.0
  0
LINE
  5
1C1
330
1F
100
AcDbEntity
  8
0
  6
Continuous
 62
     7
370
    25
100
AcDbLine
 10
221.0310144074
 20
94.7249562634
 30
0.0
 11
220.7026862781
 21
94.7249562634
 31
0.0
  0
SPLINE
  5
1C2
330
1F
100
AcDbEntity
  8
0
  6
Continuous
 62
     7
370
    25
100
AcDbSpline
210
0.0
220
0.0
230
1.0
 70
     8
 71
     3
 72
     9
 73
     5
 74
     0
 42
0.00000001
 43
0.00000001
 40
0.0
 40
0.0
 40
0.0
 40
0.0
 40
0.5600000882143262
 40
1.0
 40
1.0
 40
1.0
 40
1.0
 10
220.7026862780867
 20
94.72495626341758
 30
0.0
 10
220.7049803942278
 20
94.5431973925858
 30
0.0
 10
220.7090770295487
 20
94.21862803151416
 30
0.0
 10
220.713179796008
 20
93.89397883121734
 30
0.0
 10
220.7149850128882
 20
93.75113321172546
 30
0.0
  0
SPLINE
  5
1C3
330
1F
100
AcDbEntity
  8
0
  6
Continuous
 62
     7
370
    25
100
AcDbSpline
210
0.0
220
0.0
230
1.0
 70
     8
 71
     3
 72
     9
 73
     5
 74
     0
 42
0.00000001
 43
0.00000001
 40
0.0
 40
0.0
 40
0.0
 40
0.0
 40
0.5599987526606142
 40
1.0
 40
1.0
 40
1.0
 40
1.0
 10
220.7149850128882
 20
93.75113321172546
 30
0.0
 10
220.7267265994106
 20
92.82329191187613
 30
0.0
 10
220.7476937649026
 20
91.16642875737615
 30
0.0
 10
220.7688339652747
 20
89.50732005746569
 30
0.0
 10
220.7781356798075
 20
88.77731016003345
 30
0.0
  0
LINE
  5
1C4
330
1F
100
AcDbEntity
  8
0
  6
Continuous
 62
     7
370
    25
100
AcDbLine
 10
220.2117983997
 20
88.77731016
 30
0.0
 11
219.9951021611
 21
97.2721385965
 31
0.0
  0
LINE
  5
1C5
330
1F
100
AcDbEntity
  8
0
  6
Continuous
 62
     7
370
    25
100
AcDbLine
 10
220.0036705266
 20
97.5563686014
 30
0.0
 11
220.9012384942
 21
97.5563686014
 31
0.0
  0
LINE
  5
1C6
330
1F
100
AcDbEntity
  8
0
  6
Continuous
 62
     7
370
    25
100
AcDbLine
 10
220.9012384942
 20
97.5563686014
 30
0.0
 11
221.0310144074
 21
94.7249562634
 31
0.0
  0
LINE
  5
1C7
330
1F
100
AcDbEntity
  8
0
  6
Continuous
 62
     7
370
    25
100
AcDbLine
 10
217.5469652852
 20
98.2380447376
 30
0.0
 11
216.6493973175
 21
98.2380447376
 31
0.0
  0
SPLINE
  5
1C8
330
1F
100
AcDbEntity
  8
0
  6
Continuous
 62
     7
370
    25
100
AcDbSpline
210
0.0
220
0.0
230
1.0
 70
     8
 71
     3
 72
    11
 73
     7
 74
     0
 42
0.00000001
 43
0.00000001
 40
0.0
 40
0.0
 40
0.0
 40
0.0
 40
0.2499999999999985
 40
0.4999999999999984
 40
0.7499999999999983
 40
1.0
 40
1.0
 40
1.0
 40
1.0
 10
215.9498769803777
 20
97.55636860138715
 30
0.0
 10
215.9623974966003
 20
97.64626764851417
 30
0.0
 10
215.9874385290454
 20
97.8260657427682
 30
0.0
 10
216.150081998668
 20
98.05078195200313
 30
0.0
 10
216.3789017347225
 20
98.20754303703264
 30
0.0
 10
216.5592321232687
 20
98.22787750405864
 30
0.0
 10
216.6493973175419
 20
98.23804473757164
 30
0.0
  0
LINE
  5
1C9
330
1F
100
AcDbEntity
  8
0
  6
Continuous
 62
     7
370
    25
100
AcDbLine
 10
220.2017181571
 20
98.2380447376
 30
0.0
 11
219.3041501895
 21
98.2380447376
 31
0.0
  0
SPLINE
  5
1CA
330
1F
100
AcDbEntity
  8
0
  6
Continuous
 62
     7
370
    25
100
AcDbSpline
210
0.0
220
0.0
230
1.0
 70
     8
 71
     3
 72
    11
 73
     7
 74
     0
 42
0.00000001
 43
0.00000001
 40
0.0
 40
0.0
 40
0.0
 40
0.0
 40
0.2500000000000006
 40
0.4999999999999992
 40
0.7499999999999969
 40
1.0
 40
1.0
 40
1.0
 40
1.0
 10
220.2017181570789
 20
98.23804473757164
 30
0.0
 10
220.291883351352
 20
98.22787750405864
 30
0.0
 10
220.4722137398982
 20
98.20754303703264
 30
0.0
 10
220.7010334759527
 20
98.05078195200315
 30
0.0
 10
220.8636769455753
 20
97.82606574276817
 30
0.0
 10
220.8887179780204
 20
97.64626764851415
 30
0.0
 10
220.901238494243
 20
97.55636860138713
 30
0.0
  0
LINE
  5
1CB
330
1F
100
AcDbEntity
  8
0
  6
Continuous
 62
     7
370
    25
100
AcDbLine
 10
215.5606093252
 20
94.2380447376
 30
0.0
 11
215.3265141913
 21
94.2380447376
 31
0.0
  0
SPLINE
  5
1CC
330
1F
100
AcDbEntity
  8
0
  6
Continuous
 62
     7
370
    25
100
AcDbSpline
210
0.0
220
0.0
230
1.0
 70
     8
 71
     3
 72
    10
 73
     6
 74
     0
 42
0.00000001
 43
0.00000001
 40
0.0
 40
0.0
 40
0.0
 40
0.0
 40
0.2383396858856108
 40
0.5716506333689652
 40
1.0
 40
1.0
 40
1.0
 40
1.0
 10
215.5670352952556
 20
94.23804473757154
 30
0.0
 10
215.6416334976825
 20
94.2470034804912
 30
0.0
 10
215.8205550629564
 20
94.26849075838693
 30
0.0
 10
216.0568991752114
 20
94.44215314134001
 30
0.0
 10
216.1154825513968
 20
94.6231600005946
 30
0.0
 10
216.148429196534
 20
94.72495626341775
 30
0.0
  0
SPLINE
  5
1CD
330
1F
100
AcDbEntity
  8
0
  6
Continuous
 62
     7
370
    25
100
AcDbSpline
210
0.0
220
0.0
230
1.0
 70
     8
 71
     3
 72
    11
 73
     7
 74
     0
 42
0.00000001
 43
0.00000001
 40
0.0
 40
0.0
 40
0.0
 40
0.0
 40
0.2506671725023491
 40
0.5010414677145718
 40
0.7508849997170934
 40
1.0
 40
1.0
 40
1.0
 40
1.0
 10
216.0729797948133
 20
88.77731016003345
 30
0.0
 10
216.0461052281581
 20
88.80681618003264
 30
0.0
 10
215.9923874948519
 20
88.86579374546022
 30
0.0
 10
215.706922031198
 20
88.95252701427195
 30
0.0
 10
215.2853938845783
 20
89.03684804449846
 30
0.0
 10
214.8690368068814
 20
89.08943103711303
 30
0.0
 10
214.6611622305049
 20
89.11568414508186
 30
0.0
  0
SPLINE
  5
1CE
330
1F
100
AcDbEntity
  8
0
  6
Continuous
 62
     7
370
    25
100
AcDbSpline
210
0.0
220
0.0
230
1.0
 70
     8
 71
     3
 72
     9
 73
     5
 74
     0
 42
0.00000001
 43
0.00000001
 40
0.0
 40
0.0
 40
0.0
 40
0.0
 40
0.5013259021989908
 40
1.0
 40
1.0
 40
1.0
 40
1.0
 10
214.6611621771407
 20
89.11568391079463
 30
0.0
 10
214.5361195196706
 20
89.12710575790724
 30
0.0
 10
214.286695628103
 20
89.1498890353372
 30
0.0
 10
213.9849275196817
 20
89.1469510814297
 30
0.0
 10
213.8344435804697
 20
89.14548599991551
 30
0.0
  0
LINE
  5
1CF
330
1F
100
AcDbEntity
  8
0
  6
Continuous
 62
     7
370
    25
100
AcDbLine
 10
213.7196771411
 20
92.7381557435
 30
0.0
 11
213.8344523486
 21
89.1455856569
 31
0.0
  0
SPLINE
  5
1D0
330
1F
100
AcDbEntity
  8
0
  6
Continuous
 62
     7
370
    25
100
AcDbSpline
210
0.0
220
0.0
230
1.0
 70
     8
 71
     3
 72
    14
 73
    10
 74
     0
 42
0.00000001
 43
0.00000001
 40
0.0
 40
0.0
 40
0.0
 40
0.0
 40
0.0829413618596697
 40
0.1664594845668882
 40
0.2437726390188663
 40
0.3161479456895724
 40
0.435372571819233
 40
0.6486290670514194
 40
1.0
 40
1.0
 40
1.0
 40
1.0
 10
213.719677145973
 20
92.73815573083233
 30
0.0
 10
213.7214923355554
 20
92.82801963842222
 30
0.0
 10
213.7251353372557
 20
93.00837235271553
 30
0.0
 10
213.8067964697432
 20
93.29625706350143
 30
0.0
 10
213.9400799500281
 20
93.54778309092818
 30
0.0
 10
214.1284064062657
 20
93.7817324208292
 30
0.0
 10
214.426673485928
 20
94.02254339133718
 30
0.0
 10
214.8847006447133
 20
94.2144849945766
 30
0.0
 10
215.1570361733912
 20
94.22899829819946
 30
0.0
 10
215.326512157041
 20
94.23803001146668
 30
0.0
  0
LINE
  5
1D1
330
1F
100
AcDbEntity
  8
0
  6
Continuous
 62
     7
370
    25
100
AcDbLine
 10
223.016663126
 20
89.1455856569
 30
0.0
 11
223.1314383335
 21
92.7381557435
 31
0.0
  0
SPLINE
  5
1D2
330
1F
100
AcDbEntity
  8
0
  6
Continuous
 62
     7
370
    25
100
AcDbSpline
210
0.0
220
0.0
230
1.0
 70
     8
 71
     3
 72
     9
 73
     5
 74
     0
 42
0.00000001
 43
0.00000001
 40
0.0
 40
0.0
 40
0.0
 40
0.0
 40
0.498674098273861
 40
1.0
 40
1.0
 40
1.0
 40
1.0
 10
223.0166720759863
 20
89.14548517051232
 30
0.0
 10
222.8661881397073
 20
89.14695024976898
 30
0.0
 10
222.5644200374539
 20
89.14988819914657
 30
0.0
 10
222.3149961458316
 20
89.12710492021486
 30
0.0
 10
222.1899534884521
 20
89.11568307236014
 30
0.0
  0
SPLINE
  5
1D3
330
1F
100
AcDbEntity
  8
0
  6
Continuous
 62
     7
370
    25
100
AcDbSpline
210
0.0
220
0.0
230
1.0
 70
     8
 71
     3
 72
    11
 73
     7
 74
     0
 42
0.00000001
 43
0.00000001
 40
0.0
 40
0.0
 40
0.0
 40
0.0
 40
0.249115000282908
 40
0.4989585322854286
 40
0.7493328274976518
 40
1.0
 40
1.0
 40
1.0
 40
1.0
 10
222.1899532441159
 20
89.11568414508186
 30
0.0
 10
221.9820786677394
 20
89.08943103711303
 30
0.0
 10
221.5657215900424
 20
89.03684804449844
 30
0.0
 10
221.1441934434227
 20
88.95252701427195
 30
0.0
 10
220.8587279797688
 20
88.86579374546022
 30
0.0
 10
220.8050102464626
 20
88.80681618003264
 30
0.0
 10
220.7781356798075
 20
88.77731016003344
 30
0.0
  0
SPLINE
  5
1D4
330
1F
100
AcDbEntity
  8
0
  6
Continuous
 62
     7
370
    25
100
AcDbSpline
210
0.0
220
0.0
230
1.0
 70
     8
 71
     3
 72
    10
 73
     6
 74
     0
 42
0.00000001
 43
0.00000001
 40
0.0
 40
0.0
 40
0.0
 40
0.0
 40
0.428349366631063
 40
0.7616603141144168
 40
1.0
 40
1.0
 40
1.0
 40
1.0
 10
220.7026862780867
 20
94.72495626341778
 30
0.0
 10
220.7356329232238
 20
94.62316000059464
 30
0.0
 10
220.7942162994093
 20
94.44215314134009
 30
0.0
 10
221.0305604116643
 20
94.268490758387
 30
0.0
 10
221.209481976938
 20
94.24700348049123
 30
0.0
 10
221.2840801793649
 20
94.23804473757154
 30
0.0
  0
LINE
  5
1D5
330
1F
100
AcDbEntity
  8
0
  6
Continuous
 62
     7
370
    25
100
AcDbLine
 10
221.2905061498
 20
94.2380447376
 30
0.0
 11
221.5246012835
 21
94.2380447376
 31
0.0
  0
SPLINE
  5
1D6
330
1F
100
AcDbEntity
  8
0
  6
Continuous
 62
     7
370
    25
100
AcDbSpline
210
0.0
220
0.0
230
1.0
 70
     8
 71
     3
 72
    15
 73
    11
 74
     0
 42
0.00000001
 43
0.00000001
 40
0.0
 40
0.0
 40
0.0
 40
0.0
 40
0.2091652517822444
 40
0.4176299509274903
 40
0.5931463878153086
 40
0.6923603779431097
 40
0.7731125739307014
 40
0.8543366880968429
 40
0.9261517123972135
 40
0.9999999999999999
 40
0.9999999999999999
 40
0.9999999999999999
 40
0.9999999999999999
 10
221.5246033178112
 20
94.23803001146564
 30
0.0
 10
221.6223009503006
 20
94.23493852096715
 30
0.0
 10
221.8173689987199
 20
94.22876589423223
 30
0.0
 10
222.1666488520724
 20
94.13849243442202
 30
0.0
 10
222.4995390390158
 20
93.96988598231862
 30
0.0
 10
222.7611571250518
 20
93.74043727426564
 30
0.0
 10
222.9417511379656
 20
93.5026582310093
 30
0.0
 10
223.0638453012759
 20
93.24074173417083
 30
0.0
 10
223.1278952905944
 20
92.97520015943283
 30
0.0
 10
223.1302463766323
 20
92.81790242841126
 30
0.0
 10
223.1314383286457
 20
92.7381557308525
 30
0.0
  0
SPLINE
  5
1D7
330
1F
100
AcDbEntity
  8
0
  6
Continuous
 62
     7
370
    25
100
AcDbSpline
210
0.0
220
0.0
230
1.0
 70
     8
 71
     3
 72
    11
 73
     7
 74
     0
 42
0.00000001
 43
0.00000001
 40
0.0
 40
0.0
 40
0.0
 40
0.0
 40
0.279563842830426
 40
0.5590315778757569
 40
0.7794196683313495
 40
1.0
 40
1.0
 40
1.0
 40
1.0
 10
214.6611622305049
 20
89.11568414508186
 30
0.0
 10
214.6374130543779
 20
88.85841853490102
 30
0.0
 10
214.5899228665587
 20
88.3439757566917
 30
0.0
 10
214.9256099479769
 20
87.70146155745255
 30
0.0
 10
215.4043248372403
 20
87.30978825625861
 30
0.0
 10
215.7562104079096
 20
87.26196619318065
 30
0.0
 10
215.9322298959122
 20
87.23804473757163
 30
0.0
  0
SPLINE
  5
1D8
330
1F
100
AcDbEntity
  8
0
  6
Continuous
 62
     7
370
    25
100
AcDbSpline
210
0.0
220
0.0
230
1.0
 70
    24
 71
     3
 72
    11
 73
     7
 74
     0
 42
0.00000001
 43
0.00000001
 40
0.0
 40
0.0
 40
0.0
 40
0.0
 40
0.2799317596299056
 40
0.5599103390525025
 40
0.7799480709991914
 40
1.0
 40
1.0
 40
1.0
 40
1.0
 10
215.9322298959122
 20
87.23804473757163
 30
0.0
 10
216.1997978533518
 20
87.23804473757163
 30
0.0
 10
216.7349785201243
 20
87.23804473757163
 30
0.0
 10
217.2088453137868
 20
87.23804473757163
 30
0.0
 10
217.4940950713355
 20
87.23804473757164
 30
0.0
 10
217.5459990962327
 20
87.23804473757164
 30
0.0
 10
217.5719519458792
 20
87.23804473757163
 30
0.0
  0
SPLINE
  5
1D9
330
1F
100
AcDbEntity
  8
0
  6
Continuous
 62
     7
370
    25
100
AcDbSpline
210
0.0
220
0.0
230
1.0
 70
     8
 71
     3
 72
    11
 73
     7
 74
     0
 42
0.00000001
 43
0.00000001
 40
0.0
 40
0.0
 40
0.0
 40
0.0
 40
0.2795638428677821
 40
0.5590315779132455
 40
0.7794196683689393
 40
1.0
 40
1.0
 40
1.0
 40
1.0
 10
220.9188855787085
 20
87.23804473757163
 30
0.0
 10
221.1428659942747
 20
87.27656358951972
 30
0.0
 10
221.5907498259292
 20
87.35358805149255
 30
0.0
 10
222.0506900610347
 20
87.88638594928224
 30
0.0
 10
222.262064501934
 20
88.51412251614863
 30
0.0
 10
222.2139973150547
 20
88.91510533231727
 30
0.0
 10
222.1899532441159
 20
89.11568414508186
 30
0.0
  0
SPLINE
  5
1DA
330
1F
100
AcDbEntity
  8
0
  6
Continuous
 62
     7
370
    25
100
AcDbSpline
210
0.0
220
0.0
230
1.0
 70
    24
 71
     3
 72
    11
 73
     7
 74
     0
 42
0.00000001
 43
0.00000001
 40
0.0
 40
0.0
 40
0.0
 40
0.0
 40
0.2799857774483057
 40
0.5599458358671288
 40
0.779998565900937
 40
0.9999999999999999
 40
0.9999999999999999
 40
0.9999999999999999
 40
0.9999999999999999
 10
219.2791635287415
 20
87.23804473757163
 30
0.0
 10
219.3169172483494
 20
87.23804473757163
 30
0.0
 10
219.392421219571
 20
87.23804473757164
 30
0.0
 10
219.7739743698799
 20
87.23804473757163
 30
0.0
 10
220.2774050516929
 20
87.23804473757164
 30
0.0
 10
220.7050753538303
 20
87.23804473757163
 30
0.0
 10
220.9188855787085
 20
87.23804473757163
 30
0.0
  0
SPLINE
  5
1DB
330
1F
100
AcDbEntity
  8
0
  6
Continuous
 62
     7
370
    25
100
AcDbSpline
210
0.0
220
0.0
230
1.0
 70
     8
 71
     3
 72
    11
 73
     7
 74
     0
 42
0.00000001
 43
0.00000001
 40
0.0
 40
0.0
 40
0.0
 40
0.0
 40
0.2499999999999989
 40
0.4999999999999994
 40
0.7499999999999989
 40
1.0
 40
1.0
 40
1.0
 40
1.0
 10
221.5306717911149
 20
94.23804473757163
 30
0.0
 10
221.4662680809198
 20
94.24530704722376
 30
0.0
 10
221.3374606605297
 20
94.25983166652804
 30
0.0
 10
221.1740179919193
 20
94.37180387012053
 30
0.0
 10
221.0578440850461
 20
94.53231544814552
 30
0.0
 10
221.0399576332995
 20
94.66074265832697
 30
0.0
 10
221.0310144074263
 20
94.72495626341768
 30
0.0
  0
SPLINE
  5
1DC
330
1F
100
AcDbEntity
  8
0
  6
Continuous
 62
     7
370
    25
100
AcDbSpline
210
0.0
220
0.0
230
1.0
 70
     8
 71
     3
 72
    11
 73
     7
 74
     0
 42
0.00000001
 43
0.00000001
 40
0.0
 40
0.0
 40
0.0
 40
0.0
 40
0.2500000000000008
 40
0.5000000000000002
 40
0.7500000000000006
 40
1.0
 40
1.0
 40
1.0
 40
1.0
 10
215.8201010671944
 20
94.72495626341768
 30
0.0
 10
215.8111578413212
 20
94.66074265832697
 30
0.0
 10
215.7932713895746
 20
94.53231544814552
 30
0.0
 10
215.6770974827014
 20
94.37180387012053
 30
0.0
 10
215.513654814091
 20
94.25983166652804
 30
0.0
 10
215.3848473937009
 20
94.24530704722375
 30
0.0
 10
215.3204436835058
 20
94.23804473757163
 30
0.0
  0
SPLINE
  5
1DD
330
1F
100
AcDbEntity
  8
0
  6
Continuous
 62
     7
370
    25
100
AcDbSpline
210
0.0
220
0.0
230
1.0
 70
     8
 71
     3
 72
     9
 73
     5
 74
     0
 42
0.00000001
 43
0.00000001
 40
0.0
 40
0.0
 40
0.0
 40
0.0
 40
0.5642319118445199
 40
1.0
 40
1.0
 40
1.0
 40
1.0
 10
213.723842692311
 20
87.06259177642251
 30
0.0
 10
214.1992743035844
 20
87.11617374514982
 30
0.0
 10
215.0418916764998
 20
87.21113818725688
 30
0.0
 10
215.6620045114049
 20
87.22987836579736
 30
0.0
 10
215.9322298959122
 20
87.23804473757163
 30
0.0
  0
SPLINE
  5
1DE
330
1F
100
AcDbEntity
  8
0
  6
Continuous
 62
     7
370
    25
100
AcDbSpline
210
0.0
220
0.0
230
1.0
 70
     8
 71
     3
 72
    13
 73
     9
 74
     0
 42
0.00000001
 43
0.00000001
 40
0.0
 40
0.0
 40
0.0
 40
0.0
 40
0.0926677825201015
 40
0.1856533156297223
 40
0.2733112842947882
 40
0.4135488925758325
 40
0.6528449691515648
 40
0.9999999999999999
 40
0.9999999999999999
 40
0.9999999999999999
 40
0.9999999999999999
 10
213.8344426780687
 20
89.14548525122085
 30
0.0
 10
213.8368773455198
 20
89.05125053410207
 30
0.0
 10
213.8417550287066
 20
88.8624579763786
 30
0.0
 10
213.8416805415605
 20
88.54924757215771
 30
0.0
 10
213.8352934845042
 20
88.20751343736464
 30
0.0
 10
213.8173788384074
 20
87.79065928046126
 30
0.0
 10
213.7803170976409
 20
87.30743063479838
 30
0.0
 10
213.7448423120872
 20
87.15363342444513
 30
0.0
 10
213.723842692311
 20
87.06259177642251
 30
0.0
  0
SPLINE
  5
1DF
330
1F
100
AcDbEntity
  8
0
  6
Continuous
 62
     7
370
    25
100
AcDbSpline
210
0.0
220
0.0
230
1.0
 70
     8
 71
     3
 72
     9
 73
     5
 74
     0
 42
0.00000001
 43
0.00000001
 40
0.0
 40
0.0
 40
0.0
 40
0.0
 40
0.5551829690770672
 40
1.0
 40
1.0
 40
1.0
 40
1.0
 10
220.9188855787085
 20
87.23804473757163
 30
0.0
 10
221.2691400374565
 20
87.22504571708058
 30
0.0
 10
221.9000211672044
 20
87.20163177750554
 30
0.0
 10
222.7494377984033
 20
87.10539813815383
 30
0.0
 10
223.1272727823097
 20
87.06259177642251
 30
0.0
  0
SPLINE
  5
1E0
330
1F
100
AcDbEntity
  8
0
  6
Continuous
 62
     7
370
    25
100
AcDbSpline
210
0.0
220
0.0
230
1.0
 70
     8
 71
     3
 72
    13
 73
     9
 74
     0
 42
0.00000001
 43
0.00000001
 40
0.0
 40
0.0
 40
0.0
 40
0.0
 40
0.3327087167328944
 40
0.5628656559531304
 40
0.6987124125384707
 40
0.8016200683166484
 40
0.9052998751809803
 40
1.0
 40
1.0
 40
1.0
 40
1.0
 10
223.1272727823097
 20
87.06259177642251
 30
0.0
 10
223.1071399584027
 20
87.14837735134066
 30
0.0
 10
223.073079909583
 20
87.29350656337866
 30
0.0
 10
223.0369940582129
 20
87.74387325980595
 30
0.0
 10
223.0179553351241
 20
88.1436144084118
 30
0.0
 10
223.0096818011717
 20
88.49950665482338
 30
0.0
 10
223.0090055389813
 20
88.8469405018576
 30
0.0
 10
223.0141953497491
 20
89.04901937303669
 30
0.0
 10
223.016672796552
 20
89.14548525122085
 30
0.0
  0
SPLINE
  5
1E1
330
1F
100
AcDbEntity
  8
0
  6
Continuous
 62
     7
370
    25
100
AcDbSpline
210
0.0
220
0.0
230
1.0
 70
     8
 71
     3
 72
    13
 73
     9
 74
     0
 42
0.00000001
 43
0.00000001
 40
0.0
 40
0.0
 40
0.0
 40
0.0
 40
0.1400312919410834
 40
0.2800978778503041
 40
0.4240602241121907
 40
0.5680316995452359
 40
0.7822812815056388
 40
0.9999999999999999
 40
0.9999999999999999
 40
0.9999999999999999
 40
0.9999999999999999
 10
216.1513352058055
 20
82.62592793650019
 30
0.0
 10
216.0624895854962
 20
82.94405355664081
 30
0.0
 10
215.8847759519221
 20
83.58038497839681
 30
0.0
 10
215.5305599329238
 20
84.41349306982023
 30
0.0
 10
215.1393840071107
 20
85.15578984452311
 30
0.0
 10
214.664611243843
 20
85.89424821631927
 30
0.0
 10
214.124261060322
 20
86.57740284100153
 30
0.0
 10
213.8458004408984
 20
86.86796799734113
 30
0.0
 10
213.7054519728552
 20
87.01441733959788
 30
0.0
  0
ELLIPSE
  5
1E2
330
1F
100
AcDbEntity
  8
0
  6
Continuous
 62
     7
370
    25
100
AcDbEllipse
 10
213.8672368166
 20
68.1650374903
 30
0.0
 11
0.0
 21
19.07300724724768
 31
0.0
210
0.0
220
0.0
230
1.0
 40
0.0555555556
 41
0.1357435643135845
 42
0.1532827087060913
  0
ELLIPSE
  5
1E3
330
1F
100
AcDbEntity
  8
0
  6
Continuous
 62
     7
370
    25
100
AcDbEllipse
 10
222.9838786581
 20
68.1650374903
 30
0.0
 11
0.0
 21
19.07300724724768
 31
0.0
210
0.0
220
0.0
230
1.0
 40
0.0555555556
 41
6.129902598473738
 42
6.147441742866246
  0
SPLINE
  5
1E4
330
1F
100
AcDbEntity
  8
0
  6
Continuous
 62
     7
370
    25
100
AcDbSpline
210
0.0
220
0.0
230
1.0
 70
     8
 71
     3
 72
    12
 73
     8
 74
     0
 42
0.00000001
 43
0.00000001
 40
0.0
 40
0.0
 40
0.0
 40
0.0
 40
0.1374975366677113
 40
0.2750385788614215
 40
0.5575409445665217
 40
0.7769626822980097
 40
1.0
 40
1.0
 40
1.0
 40
1.0
 10
223.1456635017655
 20
87.01441733959788
 30
0.0
 10
223.0623875750033
 20
86.92809918522781
 30
0.0
 10
222.8958093721849
 20
86.75543556460414
 30
0.0
 10
222.4328668042068
 20
86.2227771124077
 30
0.0
 10
221.8229061354701
 20
85.37485784753746
 30
0.0
 10
221.1452675545694
 20
84.1109691717997
 30
0.0
 10
220.8490827951094
 20
83.12363104812759
 30
0.0
 10
220.6997802698634
 20
82.62592794076775
 30
0.0
  0
LINE
  5
1E5
330
1F
100
AcDbEntity
  8
0
  6
Continuous
 62
     7
370
    25
100
AcDbLine
 10
216.1513352058
 20
82.6259279365
 30
0.0
 11
220.6997802699
 21
82.6259279408
 31
0.0
  0
LINE
  5
1E6
330
1F
100
AcDbEntity
  8
0
  6
Continuous
 62
     7
370
    25
100
AcDbLine
 10
213.2011287833
 20
92.7380447376
 30
0.0
 11
213.7196664506
 21
92.7380447376
 31
0.0
  0
ARC
  5
1E7
330
1F
100
AcDbEntity
  8
0
  6
Continuous
 62
     7
370
    25
100
AcDbCircle
 10
206.9255577373
 20
80.3598674559
 30
0.0
 40
9.499999999999995
100
AcDbArc
 50
44.4654416734
 51
48.6553876907
  0
LINE
  5
1E8
330
1F
100
AcDbEntity
  8
0
  6
Continuous
 62
     7
370
    25
100
AcDbLine
 10
213.2011287833
 20
87.4919925282
 30
0.0
 11
213.2011287833
 21
92.7380447376
 31
0.0
  0
LINE
  5
1E9
330
1F
100
AcDbEntity
  8
0
  6
Continuous
 62
     7
370
    25
100
AcDbLine
 10
223.6499866913
 20
92.7380447376
 30
0.0
 11
223.6499866913
 21
87.4919925282
 31
0.0
  0
ARC
  5
1EA
330
1F
100
AcDbEntity
  8
0
  6
Continuous
 62
     7
370
    25
100
AcDbCircle
 10
229.9255577373
 20
80.3598674559
 30
0.0
 40
9.50000000000001
100
AcDbArc
 50
131.3446123093
 51
135.5345583266
  0
LINE
  5
1EB
330
1F
100
AcDbEntity
  8
0
  6
Continuous
 62
     7
370
    25
100
AcDbLine
 10
223.131449024
 20
92.7380447376
 30
0.0
 11
223.6499866913
 21
92.7380447376
 31
0.0
  0
ARC
  5
1EC
330
1F
100
AcDbEntity
  8
0
  6
Continuous
 62
     7
370
    25
100
AcDbCircle
 10
222.1511405361
 20
92.7391985837
 30
0.0
 40
1.498846599345423
100
AcDbArc
 50
359.9558924033
 51
89.9558243884
  0
LINE
  5
1ED
330
1F
100
AcDbEntity
  8
0
  6
Continuous
 62
     7
370
    25
100
AcDbLine
 10
222.1522961615
 20
94.2380447376
 30
0.0
 11
221.5180889791
 21
94.2380447376
 31
0.0
  0
ARC
  5
1EE
330
1F
100
AcDbEntity
  8
0
  6
Continuous
 62
     7
370
    25
100
AcDbCircle
 10
214.6999749385
 20
92.7391985837
 30
0.0
 40
1.49884659934548
100
AcDbArc
 50
90.0441756116
 51
180.0441075967
  0
LINE
  5
1EF
330
1F
100
AcDbEntity
  8
0
  6
Continuous
 62
     7
370
    25
100
AcDbLine
 10
215.3330264955
 20
94.2380447376
 30
0.0
 11
214.6988193131
 21
94.2380447376
 31
0.0
  0
LINE
  5
1F0
330
1F
100
AcDbEntity
  8
0
  6
Continuous
 62
     7
370
    25
100
AcDbLine
 10
215.8650600505
 20
94.6684826885
 30
0.0
 11
215.8275718526
 21
94.7155721109
 31
0.0
  0
LINE
  5
1F1
330
1F
100
AcDbEntity
  8
0
  6
Continuous
 62
     7
370
    25
100
AcDbLine
 10
221.0235436221
 20
94.7155721109
 30
0.0
 11
220.9860554241
 21
94.6684826885
 31
0.0
  0
ELLIPSE
  5
1F2
330
1F
100
AcDbEntity
  8
0
  6
Continuous
 62
     7
370
    25
100
AcDbEllipse
 10
219.4013065007
 20
97.5380447376
 30
0.0
 11
1.500207016110437
 21
0.02894030982645291
 31
0.0
210
0.0
220
0.0
230
1.0
 40
0.2796306798
 41
6.257897524076023
 42
6.352561004482541
  0
LINE
  5
1F3
330
1F
100
AcDbEntity
  8
0
  6
Continuous
 62
     7
370
    25
100
AcDbLine
 10
213.2089264248
 20
87.4850901054
 30
0.0
 11
213.2011287833
 21
87.4919925282
 31
0.0
  0
LINE
  5
1F4
330
1F
100
AcDbEntity
  8
0
  6
Continuous
 62
     7
370
    25
100
AcDbLine
 10
223.6499866913
 20
87.4919925282
 30
0.0
 11
223.6421890499
 21
87.4850901054
 31
0.0
  0
LINE
  5
1F5
330
1F
100
AcDbEntity
  8
0
  6
Continuous
 62
     7
370
    25
100
AcDbLine
 10
220.22878518
 20
82.6259279403
 30
0.0
 11
220.0077406805
 21
81.6392832721
 31
0.0
  0
SPLINE
  5
1F6
330
1F
100
AcDbEntity
  8
0
  6
Continuous
 62
     7
370
    25
100
AcDbSpline
210
0.0
220
0.0
230
1.0
 70
     8
 71
     3
 72
    10
 73
     6
 74
     0
 42
0.00000001
 43
0.00000001
 40
0.0
 40
0.0
 40
0.0
 40
0.0
 40
0.2746918501531821
 40
0.5573359346812419
 40
1.0
 40
1.0
 40
1.0
 40
1.0
 10
220.0077406804704
 20
81.6392832721087
 30
0.0
 10
219.723119922116
 20
81.69250731527184
 30
0.0
 10
219.1456387325626
 20
81.80049621930114
 30
0.0
 10
218.0666207893958
 20
81.84228229253968
 30
0.0
 10
217.3069877449631
 20
81.71622035200915
 30
0.0
 10
216.8433747941503
 20
81.6392832721087
 30
0.0
  0
LINE
  5
1F7
330
1F
100
AcDbEntity
  8
0
  6
Continuous
 62
     7
370
    25
100
AcDbLine
 10
216.8433747942
 20
81.6392832721
 30
0.0
 11
216.6281400084
 21
82.6259279369
 31
0.0
  0
LINE
  5
1F8
330
1F
100
AcDbEntity
  8
0
  6
Continuous
 62
     7
370
    25
100
AcDbLine
 10
210.2455577373
 20
79.5380447376
 30
0.0
 11
219.4255577373
 21
79.5380447376
 31
0.0
  0
LWPOLYLINE
  5
1F9
330
1F
100
AcDbEntity
  8
0
  6
Continuous
 62
     7
370
    25
100
AcDbPolyline
 90
        3
 70
   128
 43
0.0
 10
210.3069125301
 20
79.5380447376
 10
210.4003962063
 20
78.6103005482
 10
210.4429250727
 20
78.1882928781
  0
LINE
  5
1FA
330
1F
100
AcDbEntity
  8
0
  6
Continuous
 62
     7
370
    25
100
AcDbLine
 10
219.4255577373
 20
78.1882928781
 30
0.0
 11
219.4255577373
 21
79.5380447376
 31
0.0
  0
LINE
  5
1FB
330
1F
100
AcDbEntity
  8
0
  6
Continuous
 62
     7
370
    25
100
AcDbLine
 10
210.8669488466
 20
95.7380447376
 30
0.0
 11
215.8657324002
 21
95.7380447376
 31
0.0
  0
LINE
  5
1FC
330
1F
100
AcDbEntity
  8
0
  6
Continuous
 62
     7
370
    25
100
AcDbLine
 10
220.9853830744
 20
95.7380447376
 30
0.0
 11
225.9841665939
 21
95.7380447376
 31
0.0
  0
SPLINE
  5
1FD
330
1F
100
AcDbEntity
  8
0
  6
Continuous
 62
     7
370
    25
100
AcDbSpline
210
0.0
220
0.0
230
1.0
 70
     8
 71
     3
 72
    12
 73
     8
 74
     0
 42
0.00000001
 43
0.00000001
 40
0.0
 40
0.0
 40
0.0
 40
0.0
 40
0.2271543139929595
 40
0.4542742953683955
 40
0.6823371405829712
 40
0.9121899191033219
 40
1.0
 40
1.0
 40
1.0
 40
1.0
 10
210.442925072665
 20
78.18829287806115
 30
0.0
 10
210.4540290178633
 20
78.13317307116677
 30
0.0
 10
210.4762352299846
 20
78.0229417883105
 30
0.0
 10
210.5767314415231
 20
77.88308772872207
 30
0.0
 10
210.7141937163535
 20
77.78283933963652
 30
0.0
 10
210.8451672997097
 20
77.74191064906178
 30
0.0
 10
210.9230602835245
 20
77.73888194757245
 30
0.0
 10
210.944591882222
 20
77.73804473757164
 30
0.0
  0
LINE
  5
1FE
330
1F
100
AcDbEntity
  8
0
  6
Continuous
 62
     7
370
    25
100
AcDbLine
 10
225.9730639563
 20
77.7380447376
 30
0.0
 11
219.4255577373
 21
77.7380447376
 31
0.0
  0
SPLINE
  5
1FF
330
1F
100
AcDbEntity
  8
0
  6
Continuous
 62
     7
370
    25
100
AcDbSpline
210
0.0
220
0.0
230
1.0
 70
    24
 71
     3
 72
    12
 73
     8
 74
     0
 42
0.00000001
 43
0.00000001
 40
0.0
 40
0.0
 40
0.0
 40
0.0
 40
0.2316347876629375
 40
0.46330664808196
 40
0.6939442291381526
 40
0.9227406525226395
 40
1.0
 40
1.0
 40
1.0
 40
1.0
 10
219.4255577373104
 20
77.73804473757164
 30
0.0
 10
219.4255577373104
 20
77.74363420260191
 30
0.0
 10
219.4255577373104
 20
77.75481402724688
 30
0.0
 10
219.4255577373104
 20
77.84213709320254
 30
0.0
 10
219.4255577373104
 20
77.97044726698459
 30
0.0
 10
219.4255577373104
 20
78.0951266936824
 30
0.0
 10
219.4255577373104
 20
78.16951470243572
 30
0.0
 10
219.4255577373104
 20
78.18829287806115
 30
0.0
  0
SPLINE
  5
200
330
1F
100
AcDbEntity
  8
0
  6
Continuous
 62
     7
370
    25
100
AcDbSpline
210
0.0
220
0.0
230
1.0
 70
     8
 71
     3
 72
    11
 73
     7
 74
     0
 42
0.00000001
 43
0.00000001
 40
0.0
 40
0.0
 40
0.0
 40
0.0
 40
0.2981995125517616
 40
0.5964325929955604
 40
0.8933636912282888
 40
1.0
 40
1.0
 40
1.0
 40
1.0
 10
212.5094779542108
 20
77.73804473757164
 30
0.0
 10
212.6255004458191
 20
77.74924150317726
 30
0.0
 10
212.8575584895216
 20
77.77163629479237
 30
0.0
 10
213.1594623396898
 20
77.95098522093647
 30
0.0
 10
213.3594094681096
 20
78.14913191450576
 30
0.0
 10
213.4117322651684
 20
78.2967483363573
 30
0.0
 10
213.4255577373104
 20
78.33575364270048
 30
0.0
  0
LINE
  5
201
330
1F
100
AcDbEntity
  8
0
  6
Continuous
 62
     7
370
    25
100
AcDbLine
 10
213.4255577373
 20
77.7380447376
 30
0.0
 11
212.5094779542
 21
77.7380447376
 31
0.0
  0
LINE
  5
202
330
1F
100
AcDbEntity
  8
0
  6
Continuous
 62
     7
370
    25
100
AcDbLine
 10
210.9445918822
 20
77.7380447376
 30
0.0
 11
212.5094779542
 21
77.7380447376
 31
0.0
  0
LINE
  5
203
330
1F
100
AcDbEntity
  8
0
  6
Continuous
 62
     7
370
    25
100
AcDbLine
 10
217.6255577373
 20
79.2380447376
 30
0.0
 11
219.2255577373
 21
79.2380447376
 31
0.0
  0
LINE
  5
204
330
1F
100
AcDbEntity
  8
0
  6
Continuous
 62
     7
370
    25
100
AcDbLine
 10
210.1755577373
 20
73.8380447376
 30
0.0
 11
226.6755577373
 21
73.8380447376
 31
0.0
  0
SPLINE
  5
205
330
1F
100
AcDbEntity
  8
0
  6
Continuous
 62
     7
370
    25
100
AcDbSpline
210
0.0
220
0.0
230
1.0
 70
     8
 71
     3
 72
    11
 73
     7
 74
     0
 42
0.00000001
 43
0.00000001
 40
0.0
 40
0.0
 40
0.0
 40
0.0
 40
0.2843931288920273
 40
0.5687862577840562
 40
0.8531793866760852
 40
1.0
 40
1.0
 40
1.0
 40
1.0
 10
220.0036705266238
 20
97.55636860138715
 30
0.0
 10
219.9912040030084
 20
97.64643122223556
 30
0.0
 10
219.9662709557776
 20
97.82655646393245
 30
0.0
 10
219.8028175970475
 20
98.04881906734612
 30
0.0
 10
219.6134756585412
 20
98.1881232004832
 30
0.0
 10
219.4778261075624
 20
98.20676362582265
 30
0.0
 10
219.4316398469635
 20
98.21311035927066
 30
0.0
  0
LINE
  5
206
330
1F
100
AcDbEntity
  8
0
  6
Continuous
 62
     7
370
    25
100
AcDbLine
 10
215.8275718526
 20
94.7155721109
 30
0.0
 11
215.8201010672
 21
94.7249562634
 31
0.0
  0
ELLIPSE
  5
207
330
1F
100
AcDbEntity
  8
0
  6
Continuous
 62
     7
370
    25
100
AcDbEllipse
 10
217.4498089739
 20
97.5380447376
 30
0.0
 11
1.500207016110408
 21
-0.02894030982646712
 31
0.0
210
0.0
220
0.0
230
1.0
 40
0.2796306798
 41
3.072248304391437
 42
3.166880436693491
  0
LINE
  5
208
330
1F
100
AcDbEntity
  8
0
  6
Continuous
 62
     7
370
    25
100
AcDbLine
 10
213.2011287833
 20
92.7380447376
 30
0.0
 11
213.1988193131
 21
92.7380447376
 31
0.0
  0
LINE
  5
209
330
1F
100
AcDbEntity
  8
0
  6
Continuous
 62
     7
370
    25
100
AcDbLine
 10
223.6522961615
 20
92.7380447376
 30
0.0
 11
223.6499866913
 21
92.7380447376
 31
0.0
  0
LINE
  5
20A
330
1F
100
AcDbEntity
  8
0
  6
Continuous
 62
     7
370
    25
100
AcDbLine
 10
213.1988193131
 20
87.6261203233
 30
0.0
 11
209.4367501787
 21
87.6261203233
 31
0.0
  0
LINE
  5
20B
330
1F
100
AcDbEntity
  8
0
  6
Continuous
 62
     7
370
    25
100
AcDbLine
 10
227.4143652959
 20
87.6261203233
 30
0.0
 11
223.6522961615
 21
87.6261203233
 31
0.0
  0
LINE
  5
20C
330
1F
100
AcDbEntity
  8
0
  6
Continuous
 62
     7
370
    25
100
AcDbLine
 10
219.4255577373
 20
78.1882928781
 30
0.0
 11
226.4705825514
 21
78.1882928781
 31
0.0
  0
LINE
  5
20D
330
1F
100
AcDbEntity
  8
0
  6
Continuous
 62
     7
370
    25
100
AcDbLine
 10
223.6522961615
 20
87.8496587769
 30
0.0
 11
227.4116059824
 21
87.8496587769
 31
0.0
  0
LINE
  5
20E
330
1F
100
AcDbEntity
  8
0
  6
Continuous
 62
     7
370
    25
100
AcDbLine
 10
209.4395094922
 20
87.8496587769
 30
0.0
 11
213.1988193131
 21
87.8496587769
 31
0.0
  0
LINE
  5
20F
330
1F
100
AcDbEntity
  8
0
  6
Continuous
 62
     7
370
    25
100
AcDbLine
 10
226.4803055664
 20
95.3000621049
 30
0.0
 11
221.0054577189
 21
95.3000621049
 31
0.0
  0
LINE
  5
210
330
1F
100
AcDbEntity
  8
0
  6
Continuous
 62
     7
370
    25
100
AcDbLine
 10
215.8456577557
 20
95.3000621049
 30
0.0
 11
210.3708099082
 21
95.3000621049
 31
0.0
  0
LINE
  5
211
330
1F
100
AcDbEntity
  8
0
  6
Continuous
 62
     7
370
    25
100
AcDbLine
 10
219.4255577373
 20
79.0380447376
 30
0.0
 11
217.4255577373
 21
79.0380447376
 31
0.0
  0
INSERT
  5
21D
330
1F
100
AcDbEntity
  8
0
  6
Continuous
 62
     7
370
    18
100
AcDbBlockReference
  2
SW_CENTERMARKSYMBOL_0
 10
218.4255577373
 20
57.3380447376
 30
0.0
  0
LINE
  5
21E
330
1F
100
AcDbEntity
  8
0
  6
Continuous
 62
     7
370
    25
100
AcDbLine
 10
136.2744950415
 20
159.2653502342
 30
0.0
 11
119.4744950415
 21
159.2653502342
 31
0.0
  0
LINE
  5
21F
330
1F
100
AcDbEntity
  8
0
  6
Continuous
 62
     7
370
    25
100
AcDbLine
 10
119.4744950415
 20
127.7653502342
 30
0.0
 11
136.2744950415
 21
127.7653502342
 31
0.0
  0
LINE
  5
220
330
1F
100
AcDbEntity
  8
0
  6
Continuous
 62
     7
370
    25
100
AcDbLine
 10
119.4744950415
 20
159.2653502342
 30
0.0
 11
119.2744950415
 21
159.0653502342
 31
0.0
  0
LINE
  5
221
330
1F
100
AcDbEntity
  8
0
  6
Continuous
 62
     7
370
    25
100
AcDbLine
 10
119.2744950415
 20
127.9653502342
 30
0.0
 11
119.4744950415
 21
127.7653502342
 31
0.0
  0
LINE
  5
222
330
1F
100
AcDbEntity
  8
0
  6
Continuous
 62
     7
370
    25
100
AcDbLine
 10
177.7744950415
 20
159.2653502342
 30
0.0
 11
162.2744950415
 21
159.2653502342
 31
0.0
  0
LINE
  5
223
330
1F
100
AcDbEntity
  8
0
  6
Continuous
 62
     7
370
    25
100
AcDbLine
 10
162.2744950415
 20
127.7653502342
 30
0.0
 11
177.7744950415
 21
127.7653502342
 31
0.0
  0
LINE
  5
224
330
1F
100
AcDbEntity
  8
0
  6
Continuous
 62
     7
370
    25
100
AcDbLine
 10
177.7744950415
 20
127.7653502342
 30
0.0
 11
178.2744950415
 21
128.2653502342
 31
0.0
  0
LINE
  5
225
330
1F
100
AcDbEntity
  8
0
  6
Continuous
 62
     7
370
    25
100
AcDbLine
 10
178.2744950415
 20
158.7653502342
 30
0.0
 11
177.7744950415
 21
159.2653502342
 31
0.0
  0
LINE
  5
226
330
1F
100
AcDbEntity
  8
0
  6
Continuous
 62
     7
370
    25
100
AcDbLine
 10
98.7306696493
 20
142.6453211518
 30
0.0
 11
98.7480886397
 21
142.6453211518
 31
0.0
  0
LINE
  5
227
330
1F
100
AcDbEntity
  8
0
  6
Continuous
 62
     7
370
    25
100
AcDbLine
 10
127.3088427189
 20
148.1105085936
 30
0.0
 11
126.116602662
 21
147.3165353553
 31
0.0
  0
LINE
  5
228
330
1F
100
AcDbEntity
  8
0
  6
Continuous
 62
     7
370
    25
100
AcDbLine
 10
126.1166026028
 20
139.7141650057
 30
0.0
 11
127.3132218748
 21
138.9172754831
 31
0.0
  0
SPLINE
  5
229
330
1F
100
AcDbEntity
  8
0
  6
Continuous
 62
     7
370
    25
100
AcDbSpline
210
0.0
220
0.0
230
1.0
 70
     8
 71
     3
 72
    11
 73
     7
 74
     0
 42
0.00000001
 43
0.00000001
 40
0.0
 40
0.0
 40
0.0
 40
0.0
 40
0.2485427336868735
 40
0.4982459407376401
 40
0.7488347621401439
 40
1.0
 40
1.0
 40
1.0
 40
1.0
 10
126.1165228200112
 20
147.3166800713429
 30
0.0
 10
125.6952426769551
 20
147.1029148378878
 30
0.0
 10
124.8507153875132
 20
146.6743862775877
 30
0.0
 10
123.4941098202791
 20
146.2356923159743
 30
0.0
 10
122.0960127141527
 20
145.9347633714802
 30
0.0
 10
121.1446568151719
 20
145.8734826873676
 30
0.0
 10
120.6684324055315
 20
145.8428071456012
 30
0.0
  0
SPLINE
  5
22A
330
1F
100
AcDbEntity
  8
0
  6
Continuous
 62
     7
370
    25
100
AcDbSpline
210
0.0
220
0.0
230
1.0
 70
     8
 71
     3
 72
    10
 73
     6
 74
     0
 42
0.00000001
 43
0.00000001
 40
0.0
 40
0.0
 40
0.0
 40
0.0
 40
0.0711023749286113
 40
0.5366329433438246
 40
1.0
 40
1.0
 40
1.0
 40
1.0
 10
123.2770077326679
 20
140.8154442769916
 30
0.0
 10
123.3479821250213
 20
140.8012179233889
 30
0.0
 10
123.883649141895
 20
140.6938469668702
 30
0.0
 10
124.8489243571789
 20
140.3473572671893
 30
0.0
 10
125.6946465945685
 20
139.9248046288308
 30
0.0
 10
126.1165228200112
 20
139.714020397034
 30
0.0
  0
LINE
  5
22B
330
1F
100
AcDbEntity
  8
0
  6
Continuous
 62
     7
370
    25
100
AcDbLine
 10
120.6677611329
 20
145.8684420131
 30
0.0
 11
99.0133701031
 21
145.3014018279
 31
0.0
  0
LINE
  5
22C
330
1F
100
AcDbEntity
  8
0
  6
Continuous
 62
     7
370
    25
100
AcDbLine
 10
99.0133736217
 20
141.7292985483
 30
0.0
 11
120.6677611329
 21
141.1622584553
 31
0.0
  0
SPLINE
  5
22D
330
1F
100
AcDbEntity
  8
0
  6
Continuous
 62
     7
370
    25
100
AcDbSpline
210
0.0
220
0.0
230
1.0
 70
     8
 71
     3
 72
    12
 73
     8
 74
     0
 42
0.00000001
 43
0.00000001
 40
0.0
 40
0.0
 40
0.0
 40
0.0
 40
0.1171526842044575
 40
0.3378523569888469
 40
0.6075913195983319
 40
0.8592753162499291
 40
1.0
 40
1.0
 40
1.0
 40
1.0
 10
93.97489336541337
 20
142.4303428195568
 30
0.0
 10
93.99072623361357
 20
142.3965739580058
 30
0.0
 10
94.03638606527389
 20
142.2991891687004
 30
0.0
 10
94.17174649235862
 20
142.1621650828054
 30
0.0
 10
94.36285920197854
 20
142.0400936170361
 30
0.0
 10
94.560200601312
 20
141.9633703934573
 30
0.0
 10
94.68900052512981
 20
141.9555973561343
 30
0.0
 10
94.73519045275255
 20
141.9528098076582
 30
0.0
  0
SPLINE
  5
22E
330
1F
100
AcDbEntity
  8
0
  6
Continuous
 62
     7
370
    25
100
AcDbSpline
210
0.0
220
0.0
230
1.0
 70
     8
 71
     3
 72
    12
 73
     8
 74
     0
 42
0.00000001
 43
0.00000001
 40
0.0
 40
0.0
 40
0.0
 40
0.0
 40
0.0692886051424986
 40
0.2376603578712721
 40
0.4634296144750091
 40
0.7693563941113214
 40
1.0
 40
1.0
 40
1.0
 40
1.0
 10
94.73496438543518
 20
145.0789004381797
 30
0.0
 10
94.71228087464259
 20
145.0788044020066
 30
0.0
 10
94.63447628784711
 20
145.0784749973198
 30
0.0
 10
94.48858091947571
 20
145.038346923817
 30
0.0
 10
94.29041887639384
 20
144.9533751471168
 30
0.0
 10
94.09607065941744
 20
144.8127764568412
 30
0.0
 10
94.01043212562118
 20
144.6654516500551
 30
0.0
 10
93.97362058929598
 20
144.6021244042908
 30
0.0
  0
SPLINE
  5
22F
330
1F
100
AcDbEntity
  8
0
  6
Continuous
 62
     7
370
    25
100
AcDbSpline
210
0.0
220
0.0
230
1.0
 70
     8
 71
     3
 72
    10
 73
     6
 74
     0
 42
0.00000001
 43
0.00000001
 40
0.0
 40
0.0
 40
0.0
 40
0.0
 40
0.2308507889820292
 40
0.6422760733541285
 40
1.0
 40
1.0
 40
1.0
 40
1.0
 10
93.96988206051017
 20
144.6037801729887
 30
0.0
 10
93.94262370020145
 20
144.5418164271778
 30
0.0
 10
93.86678513494316
 20
144.3694200861245
 30
0.0
 10
93.7910003011386
 20
144.0559546569703
 30
0.0
 10
93.7797346075722
 20
143.7971591421918
 30
0.0
 10
93.774495041463
 20
143.6767958285216
 30
0.0
  0
SPLINE
  5
230
330
1F
100
AcDbEntity
  8
0
  6
Continuous
 62
     7
370
    25
100
AcDbSpline
210
0.0
220
0.0
230
1.0
 70
     8
 71
     3
 72
    10
 73
     6
 74
     0
 42
0.00000001
 43
0.00000001
 40
0.0
 40
0.0
 40
0.0
 40
0.0
 40
0.2058819319677561
 40
0.6002588533455752
 40
1.0
 40
1.0
 40
1.0
 40
1.0
 10
93.774495041463
 20
143.3539046398554
 30
0.0
 10
93.77630630057408
 20
143.2847642131154
 30
0.0
 10
93.781587115198
 20
143.0831819135998
 30
0.0
 10
93.83509450008629
 20
142.7549338768743
 30
0.0
 10
93.92475099874362
 20
142.5367494306569
 30
0.0
 10
93.96988206051017
 20
142.4269202953883
 30
0.0
  0
LINE
  5
231
330
1F
100
AcDbEntity
  8
0
  6
Continuous
 62
     7
370
    25
100
AcDbLine
 10
93.7744950415
 20
143.6767958285
 30
0.0
 11
93.7744950415
 21
143.3539046399
 31
0.0
  0
ARC
  5
232
330
1F
100
AcDbEntity
  8
0
  6
Continuous
 62
     7
370
    25
100
AcDbCircle
 10
149.2744950415
 20
143.5153502342
 30
0.0
 40
8.993770368365608
100
AcDbArc
 50
200.7395564372
 51
90.0
  0
ARC
  5
233
330
1F
100
AcDbEntity
  8
0
  6
Continuous
 62
     7
370
    25
100
AcDbCircle
 10
149.2744950415
 20
143.5153502342
 30
0.0
 40
8.993770368365617
100
AcDbArc
 50
90.0
 51
159.2593952799
  0
LINE
  5
234
330
1F
100
AcDbEntity
  8
0
  6
Continuous
 62
     7
370
    25
100
AcDbLine
 10
119.4744950415
 20
150.7400249241
 30
0.0
 11
119.4744950415
 21
145.8371952408
 31
0.0
  0
LINE
  5
235
330
1F
100
AcDbEntity
  8
0
  6
Continuous
 62
     7
370
    25
100
AcDbLine
 10
119.4744950415
 20
141.1935052276
 30
0.0
 11
119.4744950415
 21
127.7653502342
 31
0.0
  0
LINE
  5
236
330
1F
100
AcDbEntity
  8
0
  6
Continuous
 62
     7
370
    25
100
AcDbLine
 10
119.4744950415
 20
159.2653502342
 30
0.0
 11
119.4744950415
 21
150.7400249241
 31
0.0
  0
LINE
  5
237
330
1F
100
AcDbEntity
  8
0
  6
Continuous
 62
     7
370
    25
100
AcDbLine
 10
119.2744950415
 20
150.6482830233
 30
0.0
 11
119.2744950415
 21
159.0653502342
 31
0.0
  0
LINE
  5
238
330
1F
100
AcDbEntity
  8
0
  6
Continuous
 62
     7
370
    25
100
AcDbLine
 10
119.2744950415
 20
127.9653502342
 30
0.0
 11
119.2744950415
 21
141.1987424119
 31
0.0
  0
LINE
  5
239
330
1F
100
AcDbEntity
  8
0
  6
Continuous
 62
     7
370
    25
100
AcDbLine
 10
119.2744950415
 20
145.8319580565
 30
0.0
 11
119.2744950415
 21
150.6482830233
 31
0.0
  0
LINE
  5
23A
330
1F
100
AcDbEntity
  8
0
  6
Continuous
 62
     7
370
    25
100
AcDbLine
 10
162.2744950415
 20
159.5153502342
 30
0.0
 11
162.2744950415
 21
143.5153502342
 31
0.0
  0
SPLINE
  5
23B
330
1F
100
AcDbEntity
  8
0
  6
Continuous
 62
     7
370
    25
100
AcDbSpline
210
0.0
220
0.0
230
1.0
 70
     8
 71
     3
 72
    10
 73
     6
 74
     0
 42
0.00000001
 43
0.00000001
 40
0.0
 40
0.0
 40
0.0
 40
0.0
 40
0.5
 40
0.5
 40
1.0
 40
1.0
 40
1.0
 40
1.0
 10
160.8702010216006
 20
152.66685284305
 30
0.0
 10
161.2972760575252
 20
151.1769699338115
 30
0.0
 10
161.6500235772124
 20
149.6734680534782
 30
0.0
 10
162.1394305751295
 20
146.6268706545537
 30
0.0
 10
162.274495041463
 20
145.0830534911118
 30
0.0
 10
162.274495041463
 20
143.5153502341885
 30
0.0
  0
SPLINE
  5
23C
330
1F
100
AcDbEntity
  8
0
  6
Continuous
 62
     7
370
    25
100
AcDbSpline
210
0.0
220
0.0
230
1.0
 70
     8
 71
     3
 72
     8
 73
     4
 74
     0
 42
0.00000001
 43
0.00000001
 40
0.0
 40
0.0
 40
0.0
 40
0.0
 40
1.0
 40
1.0
 40
1.0
 40
1.0
 10
160.8702010216006
 20
152.66685284305
 30
0.0
 10
160.8451878956718
 20
152.7541129863344
 30
0.0
 10
160.8311193684889
 20
152.8428172096026
 30
0.0
 10
160.8311193684889
 20
152.9210612488517
 30
0.0
  0
LINE
  5
23D
330
1F
100
AcDbEntity
  8
0
  6
Continuous
 62
     7
370
    25
100
AcDbLine
 10
160.8311193685
 20
159.4459057897
 30
0.0
 11
160.8311193685
 21
152.9210612489
 31
0.0
  0
SPLINE
  5
23E
330
1F
100
AcDbEntity
  8
0
  6
Continuous
 62
     7
370
    25
100
AcDbSpline
210
0.0
220
0.0
230
1.0
 70
     8
 71
     3
 72
     8
 73
     4
 74
     0
 42
0.00000001
 43
0.00000001
 40
0.0
 40
0.0
 40
0.0
 40
0.0
 40
1.0
 40
1.0
 40
1.0
 40
1.0
 10
160.8311193684889
 20
159.445905789744
 30
0.0
 10
160.8311193684889
 20
159.4921134940587
 30
0.0
 10
160.8451766812931
 20
159.5153502341885
 30
0.0
 10
160.8702010216006
 20
159.5153502341885
 30
0.0
  0
SPLINE
  5
23F
330
1F
100
AcDbEntity
  8
0
  6
Continuous
 62
     7
370
    25
100
AcDbSpline
210
0.0
220
0.0
230
1.0
 70
    24
 71
     3
 72
    10
 73
     6
 74
     0
 42
0.00000001
 43
0.00000001
 40
0.0
 40
0.0
 40
0.0
 40
0.0
 40
0.5
 40
0.5
 40
1.0
 40
1.0
 40
1.0
 40
1.0
 10
162.274495041463
 20
159.5153502341885
 30
0.0
 10
162.274495041463
 20
159.5153502341885
 30
0.0
 10
162.1394379244867
 20
159.5153502341885
 30
0.0
 10
161.6500363141631
 20
159.5153502341885
 30
0.0
 10
161.2972866568095
 20
159.5153502341885
 30
0.0
 10
160.8702010216006
 20
159.5153502341885
 30
0.0
  0
SPLINE
  5
240
330
1F
100
AcDbEntity
  8
0
  6
Continuous
 62
     7
370
    25
100
AcDbSpline
210
0.0
220
0.0
230
1.0
 70
     8
 71
     3
 72
     8
 73
     4
 74
     0
 42
0.00000001
 43
0.00000001
 40
0.0
 40
0.0
 40
0.0
 40
0.0
 40
1.0
 40
1.0
 40
1.0
 40
1.0
 10
137.6787890613253
 20
159.5153502341885
 30
0.0
 10
137.7038021872542
 20
159.5153502341885
 30
0.0
 10
137.7178707144371
 20
159.4921025980871
 30
0.0
 10
137.7178707144371
 20
159.445905789744
 30
0.0
  0
LINE
  5
241
330
1F
100
AcDbEntity
  8
0
  6
Continuous
 62
     7
370
    25
100
AcDbLine
 10
137.7178707144
 20
152.9210612489
 30
0.0
 11
137.7178707144
 21
159.4459057897
 31
0.0
  0
SPLINE
  5
242
330
1F
100
AcDbEntity
  8
0
  6
Continuous
 62
     7
370
    25
100
AcDbSpline
210
0.0
220
0.0
230
1.0
 70
     8
 71
     3
 72
     8
 73
     4
 74
     0
 42
0.00000001
 43
0.00000001
 40
0.0
 40
0.0
 40
0.0
 40
0.0
 40
1.0
 40
1.0
 40
1.0
 40
1.0
 10
137.7178707144371
 20
152.9210612488517
 30
0.0
 10
137.7178707144371
 20
152.8427987549763
 30
0.0
 10
137.7038134016329
 20
152.7541521085255
 30
0.0
 10
137.6787890613253
 20
152.66685284305
 30
0.0
  0
SPLINE
  5
243
330
1F
100
AcDbEntity
  8
0
  6
Continuous
 62
     7
370
    25
100
AcDbSpline
210
0.0
220
0.0
230
1.0
 70
     8
 71
     3
 72
     9
 73
     5
 74
     0
 42
0.00000001
 43
0.00000001
 40
0.0
 40
0.0
 40
0.0
 40
0.0
 40
0.5366158295761138
 40
1.0
 40
1.0
 40
1.0
 40
1.0
 10
136.7834433365594
 20
148.6261865021132
 30
0.0
 10
136.9044568563282
 20
149.3577322455745
 30
0.0
 10
137.1299692491781
 20
150.7209900981041
 30
0.0
 10
137.5050039278628
 20
152.0506906540301
 30
0.0
 10
137.6787890613253
 20
152.66685284305
 30
0.0
  0
LINE
  5
244
330
1F
100
AcDbEntity
  8
0
  6
Continuous
 62
     7
370
    25
100
AcDbLine
 10
136.2744950415
 20
148.5979115968
 30
0.0
 11
136.2744950415
 21
159.5153502342
 31
0.0
  0
SPLINE
  5
245
330
1F
100
AcDbEntity
  8
0
  6
Continuous
 62
     7
370
    25
100
AcDbSpline
210
0.0
220
0.0
230
1.0
 70
    24
 71
     3
 72
    12
 73
     8
 74
     0
 42
0.00000001
 43
0.00000001
 40
0.0
 40
0.0
 40
0.0
 40
0.0
 40
0.25
 40
0.25
 40
0.5
 40
0.5
 40
1.0
 40
1.0
 40
1.0
 40
1.0
 10
136.274495041463
 20
159.5153502341885
 30
0.0
 10
136.274495041463
 20
159.5153502341885
 30
0.0
 10
136.3072259167084
 20
159.5153502341885
 30
0.0
 10
136.436905229583
 20
159.5153502341885
 30
0.0
 10
136.5329396867325
 20
159.5153502341885
 30
0.0
 10
136.9016548151064
 20
159.5153502341885
 30
0.0
 10
137.2544176461056
 20
159.5153502341885
 30
0.0
 10
137.6787890613253
 20
159.5153502341885
 30
0.0
  0
LINE
  5
246
330
1F
100
AcDbEntity
  8
0
  6
Continuous
 62
     7
370
    25
100
AcDbLine
 10
137.7178707144
 20
152.9210612489
 30
0.0
 11
160.8311193685
 21
152.9210612489
 31
0.0
  0
LINE
  5
247
330
1F
100
AcDbEntity
  8
0
  6
Continuous
 62
     7
370
    25
100
AcDbLine
 10
160.8702010216
 20
152.6668528431
 30
0.0
 11
137.6787890613
 21
152.6668528431
 31
0.0
  0
SPLINE
  5
248
330
1F
100
AcDbEntity
  8
0
  6
Continuous
 62
     7
370
    25
100
AcDbSpline
210
0.0
220
0.0
230
1.0
 70
     8
 71
     3
 72
    10
 73
     6
 74
     0
 42
0.00000001
 43
0.00000001
 40
0.0
 40
0.0
 40
0.0
 40
0.0
 40
0.5
 40
0.5
 40
1.0
 40
1.0
 40
1.0
 40
1.0
 10
162.274495041463
 20
143.5153502341885
 30
0.0
 10
162.274495041463
 20
141.9472629567467
 30
0.0
 10
162.1394379244867
 20
140.4038945218736
 30
0.0
 10
161.6500363141631
 20
137.3572927464872
 30
0.0
 10
161.2972866568095
 20
135.853767510954
 30
0.0
 10
160.8702010216006
 20
134.3638476253269
 30
0.0
  0
LINE
  5
249
330
1F
100
AcDbEntity
  8
0
  6
Continuous
 62
     7
370
    25
100
AcDbLine
 10
137.6787890613
 20
134.3638476253
 30
0.0
 11
160.8702010216
 21
134.3638476253
 31
0.0
  0
SPLINE
  5
24A
330
1F
100
AcDbEntity
  8
0
  6
Continuous
 62
     7
370
    25
100
AcDbSpline
210
0.0
220
0.0
230
1.0
 70
     8
 71
     3
 72
     9
 73
     5
 74
     0
 42
0.00000001
 43
0.00000001
 40
0.0
 40
0.0
 40
0.0
 40
0.0
 40
0.8506680104315814
 40
1.0
 40
1.0
 40
1.0
 40
1.0
 10
137.6787890613253
 20
134.3638476253269
 30
0.0
 10
137.3522671903211
 20
135.4972418664901
 30
0.0
 10
136.9684254718126
 20
136.8295997631836
 30
0.0
 10
136.7897327046182
 20
138.2008721917339
 30
0.0
 10
136.7630481581716
 20
138.4056470317297
 30
0.0
  0
SPLINE
  5
24B
330
1F
100
AcDbEntity
  8
0
  6
Continuous
 62
     7
370
    25
100
AcDbSpline
210
0.0
220
0.0
230
1.0
 70
     8
 71
     3
 72
     8
 73
     4
 74
     0
 42
0.00000001
 43
0.00000001
 40
0.0
 40
0.0
 40
0.0
 40
0.0
 40
1.0
 40
1.0
 40
1.0
 40
1.0
 10
160.8702010216006
 20
127.5153502341885
 30
0.0
 10
160.8451878956718
 20
127.5153502341885
 30
0.0
 10
160.8311193684889
 20
127.5385978702899
 30
0.0
 10
160.8311193684889
 20
127.5847946786329
 30
0.0
  0
LINE
  5
24C
330
1F
100
AcDbEntity
  8
0
  6
Continuous
 62
     7
370
    25
100
AcDbLine
 10
160.8311193685
 20
134.1096392195
 30
0.0
 11
160.8311193685
 21
127.5847946786
 31
0.0
  0
SPLINE
  5
24D
330
1F
100
AcDbEntity
  8
0
  6
Continuous
 62
     7
370
    25
100
AcDbSpline
210
0.0
220
0.0
230
1.0
 70
     8
 71
     3
 72
     8
 73
     4
 74
     0
 42
0.00000001
 43
0.00000001
 40
0.0
 40
0.0
 40
0.0
 40
0.0
 40
1.0
 40
1.0
 40
1.0
 40
1.0
 10
160.8311193684889
 20
134.1096392195252
 30
0.0
 10
160.8311193684889
 20
134.1879017134007
 30
0.0
 10
160.8451766812931
 20
134.2765483598515
 30
0.0
 10
160.8702010216006
 20
134.3638476253269
 30
0.0
  0
SPLINE
  5
24E
330
1F
100
AcDbEntity
  8
0
  6
Continuous
 62
     7
370
    25
100
AcDbSpline
210
0.0
220
0.0
230
1.0
 70
    24
 71
     3
 72
    10
 73
     6
 74
     0
 42
0.00000001
 43
0.00000001
 40
0.0
 40
0.0
 40
0.0
 40
0.0
 40
0.5
 40
0.5
 40
1.0
 40
1.0
 40
1.0
 40
1.0
 10
160.8702010216006
 20
127.5153502341885
 30
0.0
 10
161.2972760575252
 20
127.5153502341885
 30
0.0
 10
161.6500235772124
 20
127.5153502341885
 30
0.0
 10
162.1394305751295
 20
127.5153502341885
 30
0.0
 10
162.274495041463
 20
127.5153502341885
 30
0.0
 10
162.274495041463
 20
127.5153502341885
 30
0.0
  0
LINE
  5
24F
330
1F
100
AcDbEntity
  8
0
  6
Continuous
 62
     7
370
    25
100
AcDbLine
 10
162.2744950415
 20
143.5153502342
 30
0.0
 11
162.2744950415
 21
127.5153502342
 31
0.0
  0
SPLINE
  5
250
330
1F
100
AcDbEntity
  8
0
  6
Continuous
 62
     7
370
    25
100
AcDbSpline
210
0.0
220
0.0
230
1.0
 70
     8
 71
     3
 72
     8
 73
     4
 74
     0
 42
0.00000001
 43
0.00000001
 40
0.0
 40
0.0
 40
0.0
 40
0.0
 40
1.0
 40
1.0
 40
1.0
 40
1.0
 10
137.6787890613253
 20
134.3638476253269
 30
0.0
 10
137.7038021872542
 20
134.2765874820426
 30
0.0
 10
137.7178707144371
 20
134.1878832587744
 30
0.0
 10
137.7178707144371
 20
134.1096392195252
 30
0.0
  0
LINE
  5
251
330
1F
100
AcDbEntity
  8
0
  6
Continuous
 62
     7
370
    25
100
AcDbLine
 10
137.7178707144
 20
127.5847946786
 30
0.0
 11
137.7178707144
 21
134.1096392195
 31
0.0
  0
SPLINE
  5
252
330
1F
100
AcDbEntity
  8
0
  6
Continuous
 62
     7
370
    25
100
AcDbSpline
210
0.0
220
0.0
230
1.0
 70
     8
 71
     3
 72
     8
 73
     4
 74
     0
 42
0.00000001
 43
0.00000001
 40
0.0
 40
0.0
 40
0.0
 40
0.0
 40
1.0
 40
1.0
 40
1.0
 40
1.0
 10
137.7178707144371
 20
127.5847946786329
 30
0.0
 10
137.7178707144371
 20
127.5385869743183
 30
0.0
 10
137.7038134016329
 20
127.5153502341885
 30
0.0
 10
137.6787890613253
 20
127.5153502341885
 30
0.0
  0
SPLINE
  5
253
330
1F
100
AcDbEntity
  8
0
  6
Continuous
 62
     7
370
    25
100
AcDbSpline
210
0.0
220
0.0
230
1.0
 70
    24
 71
     3
 72
    12
 73
     8
 74
     0
 42
0.00000001
 43
0.00000001
 40
0.0
 40
0.0
 40
0.0
 40
0.0
 40
0.25
 40
0.25
 40
0.5
 40
0.5
 40
1.0
 40
1.0
 40
1.0
 40
1.0
 10
136.274495041463
 20
127.5153502341885
 30
0.0
 10
136.274495041463
 20
127.5153502341885
 30
0.0
 10
136.3072259167084
 20
127.5153502341885
 30
0.0
 10
136.436905229583
 20
127.5153502341885
 30
0.0
 10
136.5329396867325
 20
127.5153502341885
 30
0.0
 10
136.9016548151064
 20
127.5153502341885
 30
0.0
 10
137.2544176461056
 20
127.5153502341885
 30
0.0
 10
137.6787890613253
 20
127.5153502341885
 30
0.0
  0
LINE
  5
254
330
1F
100
AcDbEntity
  8
0
  6
Continuous
 62
     7
370
    25
100
AcDbLine
 10
136.2744950415
 20
127.5153502342
 30
0.0
 11
136.2744950415
 21
138.4327888715
 31
0.0
  0
LINE
  5
255
330
1F
100
AcDbEntity
  8
0
  6
Continuous
 62
     7
370
    25
100
AcDbLine
 10
160.8311193685
 20
134.1096392195
 30
0.0
 11
137.7178707144
 21
134.1096392195
 31
0.0
  0
LINE
  5
256
330
1F
100
AcDbEntity
  8
0
  6
Continuous
 62
     7
370
    25
100
AcDbLine
 10
160.8311193685
 20
159.4459057897
 30
0.0
 11
137.7178707144
 21
159.4459057897
 31
0.0
  0
LINE
  5
257
330
1F
100
AcDbEntity
  8
0
  6
Continuous
 62
     7
370
    25
100
AcDbLine
 10
137.7178707144
 20
127.5847946786
 30
0.0
 11
160.8311193685
 21
127.5847946786
 31
0.0
  0
LINE
  5
258
330
1F
100
AcDbEntity
  8
0
  6
Continuous
 62
     7
370
    25
100
AcDbLine
 10
177.7744950415
 20
127.7653502342
 30
0.0
 11
177.7744950415
 21
159.2653502342
 31
0.0
  0
LINE
  5
259
330
1F
100
AcDbEntity
  8
0
  6
Continuous
 62
     7
370
    25
100
AcDbLine
 10
178.2744950415
 20
158.7653502342
 30
0.0
 11
178.2744950415
 21
128.2653502342
 31
0.0
  0
LINE
  5
25A
330
1F
100
AcDbEntity
  8
0
  6
Continuous
 62
     7
370
    25
100
AcDbLine
 10
137.6787890613
 20
159.5153502342
 30
0.0
 11
160.8702010216
 21
159.5153502342
 31
0.0
  0
LINE
  5
25B
330
1F
100
AcDbEntity
  8
0
  6
Continuous
 62
     7
370
    25
100
AcDbLine
 10
160.8702010216
 20
127.5153502342
 30
0.0
 11
137.6787890613
 21
127.5153502342
 31
0.0
  0
LINE
  5
25C
330
1F
100
AcDbEntity
  8
0
  6
Continuous
 62
     7
370
    25
100
AcDbLine
 10
147.0370110199
 20
142.5400776892
 30
0.0
 11
147.0042154929
 21
142.5588217284
 31
0.0
  0
SPLINE
  5
25D
330
1F
100
AcDbEntity
  8
0
  6
Continuous
 62
     7
370
    25
100
AcDbSpline
210
0.0
220
0.0
230
1.0
 70
     8
 71
     3
 72
    15
 73
    11
 74
     0
 42
0.00000001
 43
0.00000001
 40
0.0
 40
0.0
 40
0.0
 40
0.0
 40
0.1241930067305288
 40
0.2496556654892302
 40
0.374370385315121
 40
0.4998404796364202
 40
0.6240146704162363
 40
0.7475381382242062
 40
0.8745858500551823
 40
1.0
 40
1.0
 40
1.0
 40
1.0
 10
147.8173007415935
 20
142.8125173397743
 30
0.0
 10
147.8017403464838
 20
142.7766701370304
 30
0.0
 10
147.7704604789723
 20
142.7046092578186
 30
0.0
 10
147.6930241194839
 20
142.6147337444757
 30
0.0
 10
147.599670115745
 20
142.5424099666813
 30
0.0
 10
147.492444509724
 20
142.4934825481768
 30
0.0
 10
147.3780585990031
 20
142.467154494722
 30
0.0
 10
147.2603878361178
 20
142.4662954007194
 30
0.0
 10
147.1435041108926
 20
142.487678161349
 30
0.0
 10
147.0723552599978
 20
142.5226866878097
 30
0.0
 10
147.0370110199144
 20
142.5400776891912
 30
0.0
  0
LINE
  5
25E
330
1F
100
AcDbEntity
  8
0
  6
Continuous
 62
     7
370
    25
100
AcDbLine
 10
148.8091547863
 20
145.5860965557
 30
0.0
 11
147.8173007416
 21
142.8125173398
 31
0.0
  0
SPLINE
  5
25F
330
1F
100
AcDbEntity
  8
0
  6
Continuous
 62
     7
370
    25
100
AcDbSpline
210
0.0
220
0.0
230
1.0
 70
     8
 71
     3
 72
    15
 73
    11
 74
     0
 42
0.00000001
 43
0.00000001
 40
0.0
 40
0.0
 40
0.0
 40
0.0
 40
0.1233025178081761
 40
0.2485158700387114
 40
0.3756924668130948
 40
0.499999088042933
 40
0.6243057092728392
 40
0.751482306047304
 40
0.8766757256079954
 40
1.0
 40
1.0
 40
1.0
 40
1.0
 10
149.7398352998147
 20
145.5860965556876
 30
0.0
 10
149.7156843278523
 20
145.6267416916234
 30
0.0
 10
149.6670081133176
 20
145.7086618462113
 30
0.0
 10
149.5516574551125
 20
145.7984808020237
 30
0.0
 10
149.4184978328506
 20
145.8560549501849
 30
0.0
 10
149.2744951894818
 20
145.875213645855
 30
0.0
 10
149.1304916607833
 20
145.8560555429699
 30
0.0
 10
148.9973417878178
 20
145.7984814292313
 30
0.0
 10
148.8819794302834
 20
145.7086758670847
 30
0.0
 10
148.8333076446122
 20
145.6267509355599
 30
0.0
 10
148.8091547862954
 20
145.5860965556877
 30
0.0
  0
LINE
  5
260
330
1F
100
AcDbEntity
  8
0
  6
Continuous
 62
     7
370
    25
100
AcDbLine
 10
150.7314582062
 20
142.8131636853
 30
0.0
 11
149.7398352998
 21
145.5860965557
 31
0.0
  0
SPLINE
  5
261
330
1F
100
AcDbEntity
  8
0
  6
Continuous
 62
     7
370
    25
100
AcDbSpline
210
0.0
220
0.0
230
1.0
 70
     8
 71
     3
 72
    15
 73
    11
 74
     0
 42
0.00000001
 43
0.00000001
 40
0.0
 40
0.0
 40
0.0
 40
0.0
 40
0.1253320172137761
 40
0.2522975129251758
 40
0.3758847553984062
 40
0.500192951141649
 40
0.6255758307380151
 40
0.7502289462456482
 40
0.8757444935777823
 40
0.9999999999999999
 40
0.9999999999999999
 40
0.9999999999999999
 40
0.9999999999999999
 10
151.5041599707285
 20
142.5364678347333
 30
0.0
 10
151.4689090541005
 20
142.5197935262505
 30
0.0
 10
151.3979477882461
 20
142.4862275895213
 30
0.0
 10
151.2819608974577
 20
142.4664459732671
 30
0.0
 10
151.1653645312173
 20
142.4685187536137
 30
0.0
 10
151.0522439246359
 20
142.4955967799643
 30
0.0
 10
150.9463682102964
 20
142.5448095956715
 30
0.0
 10
150.8542591256773
 20
142.6168953595454
 30
0.0
 10
150.7778274618089
 20
142.7061828810448
 30
0.0
 10
150.7468625543096
 20
142.7776235514819
 30
0.0
 10
150.7314582061883
 20
142.8131636853399
 30
0.0
  0
LINE
  5
262
330
1F
100
AcDbEntity
  8
0
  6
Continuous
 62
     7
370
    25
100
AcDbLine
 10
151.5447745932
 20
142.5588217284
 30
0.0
 11
151.5041599707
 21
142.5364678347
 31
0.0
  0
LINE
  5
263
330
1F
100
AcDbEntity
  8
0
  6
Continuous
 62
     7
370
    25
100
AcDbLine
 10
150.9177913967
 20
141.363410625
 30
0.0
 11
151.5447745932
 21
142.5588217284
 31
0.0
  0
SPLINE
  5
264
330
1F
100
AcDbEntity
  8
0
  6
Continuous
 62
     7
370
    25
100
AcDbSpline
210
0.0
220
0.0
230
1.0
 70
     8
 71
     3
 72
    15
 73
    11
 74
     0
 42
0.00000001
 43
0.00000001
 40
0.0
 40
0.0
 40
0.0
 40
0.0
 40
0.124633218643857
 40
0.2519059530189797
 40
0.3765391000744913
 40
0.4994035903146549
 40
0.6264494152300148
 40
0.7526064410610425
 40
0.8746804377363274
 40
1.0
 40
1.0
 40
1.0
 40
1.0
 10
150.8125629079194
 20
141.3452934582359
 30
0.0
 10
150.8165773835876
 20
141.3421882233832
 30
0.0
 10
150.8246913545663
 20
141.3359119901814
 30
0.0
 10
150.8391299464028
 20
141.3302989767015
 30
0.0
 10
150.8542633963359
 20
141.3277626240747
 30
0.0
 10
150.8696259386177
 20
141.3286480276426
 30
0.0
 10
150.8845565174544
 20
141.3327790981582
 30
0.0
 10
150.8980584174837
 20
141.3402697981041
 30
0.0
 10
150.9097440723701
 20
141.3504083800184
 30
0.0
 10
150.9150855967108
 20
141.3590388023612
 30
0.0
 10
150.9177913967126
 20
141.3634106249535
 30
0.0
  0
SPLINE
  5
265
330
1F
100
AcDbEntity
  8
0
  6
Continuous
 62
     7
370
    25
100
AcDbSpline
210
0.0
220
0.0
230
1.0
 70
     8
 71
     3
 72
    11
 73
     7
 74
     0
 42
0.00000001
 43
0.00000001
 40
0.0
 40
0.0
 40
0.0
 40
0.0
 40
0.2506252605986012
 40
0.4999999999996215
 40
0.7493747394010043
 40
1.0
 40
1.0
 40
1.0
 40
1.0
 10
147.7364271781906
 20
141.3452934582358
 30
0.0
 10
147.9661548723639
 20
141.5081477501968
 30
0.0
 10
148.4244640101269
 20
141.8330437554356
 30
0.0
 10
149.274495043063
 20
141.9667757023727
 30
0.0
 10
150.1245260759932
 20
141.8330437554305
 30
0.0
 10
150.5828352137495
 20
141.5081477501951
 30
0.0
 10
150.8125629079194
 20
141.3452934582359
 30
0.0
  0
SPLINE
  5
266
330
1F
100
AcDbEntity
  8
0
  6
Continuous
 62
     7
370
    25
100
AcDbSpline
210
0.0
220
0.0
230
1.0
 70
     8
 71
     3
 72
    15
 73
    11
 74
     0
 42
0.00000001
 43
0.00000001
 40
0.0
 40
0.0
 40
0.0
 40
0.0
 40
0.1253191957979125
 40
0.2473928354984055
 40
0.37344924164897
 40
0.500595004607996
 40
0.6235484391777584
 40
0.7480947836179481
 40
0.8753671458153865
 40
1.0
 40
1.0
 40
1.0
 40
1.0
 10
147.6311986893974
 20
141.3634106249535
 30
0.0
 10
147.6339044857298
 20
141.3590387966696
 30
0.0
 10
147.639246002827
 20
141.3504083630908
 30
0.0
 10
147.6509285754161
 20
141.340272585591
 30
0.0
 10
147.6644295554033
 20
141.3327804697174
 30
0.0
 10
147.6793635842534
 20
141.3286480244252
 30
0.0
 10
147.6947305954425
 20
141.3277600826517
 30
0.0
 10
147.7098633318807
 20
141.3303010249092
 30
0.0
 10
147.7242987616623
 20
141.3359118031764
 30
0.0
 10
147.7324127124916
 20
141.3421881614852
 30
0.0
 10
147.7364271781906
 20
141.3452934582358
 30
0.0
  0
LINE
  5
267
330
1F
100
AcDbEntity
  8
0
  6
Continuous
 62
     7
370
    25
100
AcDbLine
 10
147.0042154929
 20
142.5588217284
 30
0.0
 11
147.6311986894
 21
141.363410625
 31
0.0
  0
SPLINE
  5
268
330
1F
100
AcDbEntity
  8
0
  6
Continuous
 62
     7
370
    25
100
AcDbSpline
210
0.0
220
0.0
230
1.0
 70
     8
 71
     3
 72
    15
 73
    11
 74
     0
 42
0.00000001
 43
0.00000001
 40
0.0
 40
0.0
 40
0.0
 40
0.0
 40
0.1233867499278388
 40
0.2487396502211601
 40
0.3739317114754985
 40
0.4999973617625659
 40
0.6259591330513601
 40
0.7512551380600303
 40
0.8765613478174267
 40
1.0
 40
1.0
 40
1.0
 40
1.0
 10
149.2116121766569
 20
143.5367596923313
 30
0.0
 10
149.2144903778488
 20
143.5427744884143
 30
0.0
 10
149.2202926439604
 20
143.554899925503
 30
0.0
 10
149.2358220486812
 20
143.568291185853
 30
0.0
 10
149.2541766305546
 20
143.5771688974329
 30
0.0
 10
149.2744894470375
 20
143.5799255607294
 30
0.0
 10
149.2948078647526
 20
143.5771708795288
 30
0.0
 10
149.3131607339167
 20
143.5682951812393
 30
0.0
 10
149.3286988383122
 20
143.5549048139856
 30
0.0
 10
149.3344994003435
 20
143.5427777164396
 30
0.0
 10
149.3373779062691
 20
143.5367596923313
 30
0.0
  0
LINE
  5
269
330
1F
100
AcDbEntity
  8
0
  6
Continuous
 62
     7
370
    25
100
AcDbLine
 10
148.9724986509
 20
142.8985056631
 30
0.0
 11
149.2116121767
 21
143.5367596923
 31
0.0
  0
SPLINE
  5
26A
330
1F
100
AcDbEntity
  8
0
  6
Continuous
 62
     7
370
    25
100
AcDbSpline
210
0.0
220
0.0
230
1.0
 70
     8
 71
     3
 72
    15
 73
    11
 74
     0
 42
0.00000001
 43
0.00000001
 40
0.0
 40
0.0
 40
0.0
 40
0.0
 40
0.126158522421064
 40
0.2513121451548799
 40
0.3762846848783793
 40
0.499306278334087
 40
0.6261594278645742
 40
0.7521171342021308
 40
0.875819692269278
 40
1.0
 40
1.0
 40
1.0
 40
1.0
 10
149.0353815157852
 20
142.8134413097087
 30
0.0
 10
149.0301504192965
 20
142.8137636163011
 30
0.0
 10
149.0197298939539
 20
142.8144056621936
 30
0.0
 10
149.0049433434395
 20
142.8198539025688
 30
0.0
 10
148.991752990814
 20
142.8280765051544
 30
0.0
 10
148.9808824159727
 20
142.839333111467
 30
0.0
 10
148.9728748286442
 20
142.8528538568081
 30
0.0
 10
148.9687082016115
 20
142.8679907443849
 30
0.0
 10
148.9680871500999
 20
142.883679875956
 30
0.0
 10
148.9710262624546
 20
142.8935573883147
 30
0.0
 10
148.9724986509374
 20
142.8985056630587
 30
0.0
  0
LINE
  5
26B
330
1F
100
AcDbEntity
  8
0
  6
Continuous
 62
     7
370
    25
100
AcDbLine
 10
149.51360857
 20
142.8134413097
 30
0.0
 11
149.0353815158
 21
142.8134413097
 31
0.0
  0
SPLINE
  5
26C
330
1F
100
AcDbEntity
  8
0
  6
Continuous
 62
     7
370
    25
100
AcDbSpline
210
0.0
220
0.0
230
1.0
 70
     8
 71
     3
 72
    15
 73
    11
 74
     0
 42
0.00000001
 43
0.00000001
 40
0.0
 40
0.0
 40
0.0
 40
0.0
 40
0.1241186784437694
 40
0.2478474916628983
 40
0.3736574149478942
 40
0.5005082335853297
 40
0.6234527658309919
 40
0.7484986612277521
 40
0.8736976492452766
 40
1.0
 40
1.0
 40
1.0
 40
1.0
 10
149.5764914347146
 20
142.8985056632818
 30
0.0
 10
149.5779625073234
 20
142.8935598176237
 30
0.0
 10
149.5809000318018
 20
142.8836836615455
 30
0.0
 10
149.5802832973017
 20
142.8680022659198
 30
0.0
 10
149.5761213357071
 20
142.8528697338395
 30
0.0
 10
149.5681225879087
 20
142.8393548262251
 30
0.0
 10
149.5572564963718
 20
142.8280947650291
 30
0.0
 10
149.5440687785472
 20
142.8198650525956
 30
0.0
 10
149.529274331972
 20
142.8144054822106
 30
0.0
 10
149.5188457410647
 20
142.8137636391536
 30
0.0
 10
149.5136085699503
 20
142.8134413097087
 30
0.0
  0
LINE
  5
26D
330
1F
100
AcDbEntity
  8
0
  6
Continuous
 62
     7
370
    25
100
AcDbLine
 10
149.3373779063
 20
143.5367596923
 30
0.0
 11
149.5764914347
 21
142.8985056633
 31
0.0
  0
CIRCLE
  5
26E
330
1F
100
AcDbEntity
  8
0
  6
Continuous
 62
     7
370
    25
100
AcDbCircle
 10
149.2744950415
 20
143.5153502342
 30
0.0
 40
4.499999999999972
  0
LINE
  5
26F
330
1F
100
AcDbEntity
  8
0
  6
Continuous
 62
     7
370
    25
100
AcDbLine
 10
135.9744950415
 20
142.5029339996
 30
0.0
 11
135.9744950415
 21
144.5277664688
 31
0.0
  0
SPLINE
  5
270
330
1F
100
AcDbEntity
  8
0
  6
Continuous
 62
     7
370
    25
100
AcDbSpline
210
0.0
220
0.0
230
1.0
 70
     8
 71
     3
 72
    11
 73
     7
 74
     0
 42
0.00000001
 43
0.00000001
 40
0.0
 40
0.0
 40
0.0
 40
0.0
 40
0.2561894651307283
 40
0.5096044939206907
 40
0.7692742066553652
 40
1.0
 40
1.0
 40
1.0
 40
1.0
 10
135.974495041463
 20
142.502933999555
 30
0.0
 10
135.8988989091691
 20
142.4434219589067
 30
0.0
 10
135.7485253224945
 20
142.3250423708103
 30
0.0
 10
135.4493125365392
 20
142.1544048286749
 30
0.0
 10
135.1217928016524
 20
142.0027809177742
 30
0.0
 10
134.8856144208386
 20
141.923344882103
 30
0.0
 10
134.774495041463
 20
141.88597108458
 30
0.0
  0
LINE
  5
271
330
1F
100
AcDbEntity
  8
0
  6
Continuous
 62
     7
370
    25
100
AcDbLine
 10
134.7744950415
 20
145.1447293838
 30
0.0
 11
134.7744950415
 21
141.8859710846
 31
0.0
  0
SPLINE
  5
272
330
1F
100
AcDbEntity
  8
0
  6
Continuous
 62
     7
370
    25
100
AcDbSpline
210
0.0
220
0.0
230
1.0
 70
     8
 71
     3
 72
    11
 73
     7
 74
     0
 42
0.00000001
 43
0.00000001
 40
0.0
 40
0.0
 40
0.0
 40
0.0
 40
0.2307374805224079
 40
0.4903955403005857
 40
0.7438105520730638
 40
1.0
 40
1.0
 40
1.0
 40
1.0
 10
134.774495041463
 20
145.1447293837969
 30
0.0
 10
134.8856202752194
 20
145.1073541928839
 30
0.0
 10
135.1217991522949
 20
145.0279192137894
 30
0.0
 10
135.449316793246
 20
144.8762925340257
 30
0.0
 10
135.7485253899085
 20
144.7056582290773
 30
0.0
 10
135.8988989317219
 20
144.587278553466
 30
0.0
 10
135.974495041463
 20
144.527766468822
 30
0.0
  0
LINE
  5
273
330
1F
100
AcDbEntity
  8
0
  6
Continuous
 62
     7
370
    25
100
AcDbLine
 10
99.8925290302
 20
144.3939426863
 30
0.0
 11
134.169266828
 21
145.291510654
 31
0.0
  0
SPLINE
  5
274
330
1F
100
AcDbEntity
  8
0
  6
Continuous
 62
     7
370
    25
100
AcDbSpline
210
0.0
220
0.0
230
1.0
 70
    24
 71
     3
 72
    11
 73
     7
 74
     0
 42
0.00000001
 43
0.00000001
 40
0.0
 40
0.0
 40
0.0
 40
0.0
 40
0.2500000000000027
 40
0.5000000000000003
 40
0.7499999999999988
 40
1.0
 40
1.0
 40
1.0
 40
1.0
 10
99.87421144552785
 20
145.093463023502
 30
0.0
 10
99.87453930678365
 20
145.0809425072794
 30
0.0
 10
99.87519502929528
 20
145.0559014748342
 30
0.0
 10
99.87945399843457
 20
144.8932580052117
 30
0.0
 10
99.88544585409636
 20
144.6644382691572
 30
0.0
 10
99.89016797150737
 20
144.484107880611
 30
0.0
 10
99.89252903021288
 20
144.3939426863379
 30
0.0
  0
LINE
  5
275
330
1F
100
AcDbEntity
  8
0
  6
Continuous
 62
     7
370
    25
100
AcDbLine
 10
134.1509492433
 20
145.9910309911
 30
0.0
 11
99.8742114455
 21
145.0934630235
 31
0.0
  0
SPLINE
  5
276
330
1F
100
AcDbEntity
  8
0
  6
Continuous
 62
     7
370
    25
100
AcDbSpline
210
0.0
220
0.0
230
1.0
 70
    24
 71
     3
 72
    11
 73
     7
 74
     0
 42
0.00000001
 43
0.00000001
 40
0.0
 40
0.0
 40
0.0
 40
0.0
 40
0.2499999999999985
 40
0.4999999999999984
 40
0.7499999999999983
 40
1.0
 40
1.0
 40
1.0
 40
1.0
 10
134.1509492432655
 20
145.9910309911211
 30
0.0
 10
134.1512771045213
 20
145.9785104748985
 30
0.0
 10
134.1519328270329
 20
145.9534694424534
 30
0.0
 10
134.1561917961722
 20
145.7908259728308
 30
0.0
 10
134.162183651834
 20
145.5620062367764
 30
0.0
 10
134.166905769245
 20
145.3816758482301
 30
0.0
 10
134.1692668279505
 20
145.291510653957
 30
0.0
  0
LINE
  5
277
330
1F
100
AcDbEntity
  8
0
  6
Continuous
 62
     7
370
    25
100
AcDbLine
 10
134.169266828
 20
141.7391898144
 30
0.0
 11
99.8925290302
 21
142.636757782
 31
0.0
  0
LINE
  5
278
330
1F
100
AcDbEntity
  8
0
  6
Continuous
 62
     7
370
    25
100
AcDbLine
 10
99.8925290302
 20
142.636757782
 30
0.0
 11
99.8925290302
 21
144.3939426863
 31
0.0
  0
ELLIPSE
  5
279
330
1F
100
AcDbEntity
  8
0
  6
Continuous
 62
     7
370
    25
100
AcDbEllipse
 10
134.1744950415
 20
144.4910989976
 30
0.0
 11
0.9988086229566022
 21
0.0610396441386456
 31
0.0
210
0.0
220
0.0
230
1.0
 40
0.7994627403
 41
0.8784769082856276
 42
1.527206254409847
  0
ELLIPSE
  5
27A
330
1F
100
AcDbEntity
  8
0
  6
Continuous
 62
     7
370
    25
100
AcDbEllipse
 10
134.1744950415
 20
142.5396014708
 30
0.0
 11
0.9988086229566022
 21
-0.06103964413861718
 31
0.0
210
0.0
220
0.0
230
1.0
 40
0.7994627403
 41
4.755979052769728
 42
5.404708398893947
  0
LINE
  5
27B
330
1F
100
AcDbEntity
  8
0
  6
Continuous
 62
     7
370
    25
100
AcDbLine
 10
99.8742114455
 20
141.9372374449
 30
0.0
 11
134.1509492433
 21
141.0396694773
 31
0.0
  0
SPLINE
  5
27C
330
1F
100
AcDbEntity
  8
0
  6
Continuous
 62
     7
370
    25
100
AcDbSpline
210
0.0
220
0.0
230
1.0
 70
    24
 71
     3
 72
    11
 73
     7
 74
     0
 42
0.00000001
 43
0.00000001
 40
0.0
 40
0.0
 40
0.0
 40
0.0
 40
0.2499999999999985
 40
0.4999999999999984
 40
0.7499999999999983
 40
1.0
 40
1.0
 40
1.0
 40
1.0
 10
99.87421144552785
 20
141.937237444875
 30
0.0
 10
99.87453930678366
 20
141.9497579610976
 30
0.0
 10
99.87519502929528
 20
141.9747989935427
 30
0.0
 10
99.87945399843457
 20
142.1374424631653
 30
0.0
 10
99.88544585409636
 20
142.3662621992198
 30
0.0
 10
99.89016797150738
 20
142.546592587766
 30
0.0
 10
99.89252903021288
 20
142.6367577820391
 30
0.0
  0
SPLINE
  5
27D
330
1F
100
AcDbEntity
  8
0
  6
Continuous
 62
     7
370
    25
100
AcDbSpline
210
0.0
220
0.0
230
1.0
 70
    24
 71
     3
 72
    11
 73
     7
 74
     0
 42
0.00000001
 43
0.00000001
 40
0.0
 40
0.0
 40
0.0
 40
0.0
 40
0.2500000000000006
 40
0.4999999999999992
 40
0.7499999999999969
 40
1.0
 40
1.0
 40
1.0
 40
1.0
 10
134.1692668279505
 20
141.73918981442
 30
0.0
 10
134.166905769245
 20
141.6490246201469
 30
0.0
 10
134.162183651834
 20
141.4686942316006
 30
0.0
 10
134.1561917961722
 20
141.2398744955462
 30
0.0
 10
134.1519328270329
 20
141.0772310259236
 30
0.0
 10
134.1512771045213
 20
141.0521899934785
 30
0.0
 10
134.1509492432655
 20
141.0396694772559
 30
0.0
  0
ELLIPSE
  5
27E
330
1F
100
AcDbEntity
  8
0
  6
Continuous
 62
     7
370
    25
100
AcDbEllipse
 10
99.8925290302
 20
144.4148986047
 30
0.0
 11
1.49999997144873
 21
0.02095282558968847
 31
0.0
210
0.0
220
0.0
230
0.9999999999999998
 40
0.0139678873
 41
3.842044658397644
 42
4.712193869245414
  0
ELLIPSE
  5
27F
330
1F
100
AcDbEntity
  8
0
  6
Continuous
 62
     7
370
    25
100
AcDbEllipse
 10
99.8925290302
 20
142.6158018637
 30
0.0
 11
1.49999997144873
 21
-0.02095282558968847
 31
0.0
210
0.0
220
0.0
230
0.9999999999999998
 40
0.0139678873
 41
1.570991437934172
 42
2.4411406487815
  0
SPLINE
  5
280
330
1F
100
AcDbEntity
  8
0
  6
Continuous
 62
     7
370
    25
100
AcDbSpline
210
0.0
220
0.0
230
1.0
 70
     8
 71
     3
 72
     9
 73
     5
 74
     0
 42
0.00000001
 43
0.00000001
 40
0.0
 40
0.0
 40
0.0
 40
0.0
 40
0.5600029565045049
 40
1.0
 40
1.0
 40
1.0
 40
1.0
 10
98.74589131476436
 20
142.6453261475646
 30
0.0
 10
98.73774355541124
 20
142.6453205094983
 30
0.0
 10
98.72319406195149
 20
142.6453104415761
 30
0.0
 10
98.70924941901094
 20
142.6454326181795
 30
0.0
 10
98.7031138173445
 20
142.6454863755238
 30
0.0
  0
ELLIPSE
  5
281
330
1F
100
AcDbEntity
  8
0
  6
Continuous
 62
     7
370
    25
100
AcDbEllipse
 10
99.8925290302
 20
142.5982127017
 30
0.0
 11
1.499999872704137
 21
-0.0430792567095466
 31
0.0
210
0.0
220
0.0
230
1.0
 40
0.0143449667
 41
2.486833182542043
 42
2.678357024934495
  0
LINE
  5
282
330
1F
100
AcDbEntity
  8
0
  6
Continuous
 62
     7
370
    25
100
AcDbLine
 10
98.5508882437
 20
144.3843336087
 30
0.0
 11
98.5508882437
 21
142.6463668597
 31
0.0
  0
ELLIPSE
  5
283
330
1F
100
AcDbEntity
  8
0
  6
Continuous
 62
     7
370
    25
100
AcDbEllipse
 10
99.8925290302
 20
144.4324877667
 30
0.0
 11
1.499999872704137
 21
0.04307925670957501
 31
0.0
210
0.0
220
0.0
230
1.0
 40
0.0143449667
 41
3.604828282244295
 42
3.79635212463562
  0
SPLINE
  5
284
330
1F
100
AcDbEntity
  8
0
  6
Continuous
 62
     7
370
    25
100
AcDbSpline
210
0.0
220
0.0
230
1.0
 70
     8
 71
     3
 72
     9
 73
     5
 74
     0
 42
0.00000001
 43
0.00000001
 40
0.0
 40
0.0
 40
0.0
 40
0.0
 40
0.5599925069634957
 40
0.9999999999999999
 40
0.9999999999999999
 40
0.9999999999999999
 40
0.9999999999999999
 10
98.7031138173445
 20
144.3852140928532
 30
0.0
 10
98.71093662720143
 20
144.3852798380045
 30
0.0
 10
98.72490611743503
 20
144.3853972416316
 30
0.0
 10
98.73947909530553
 20
144.3853813244789
 30
0.0
 10
98.74589131476439
 20
144.3853743208124
 30
0.0
  0
ELLIPSE
  5
285
330
1F
100
AcDbEntity
  8
0
  6
Continuous
 62
     7
370
    25
100
AcDbEllipse
 10
99.8742114455
 20
141.9162815265
 30
0.0
 11
0.7999998117959564
 21
-0.02096310677478641
 31
0.0
210
0.0
220
0.0
230
1.0
 40
0.026176936
 41
1.571482264229188
 42
2.441631475077057
  0
SPLINE
  5
286
330
1F
100
AcDbEntity
  8
0
  6
Continuous
 62
     7
370
    25
100
AcDbSpline
210
0.0
220
0.0
230
1.0
 70
     8
 71
     3
 72
    12
 73
     8
 74
     0
 42
0.00000001
 43
0.00000001
 40
0.0
 40
0.0
 40
0.0
 40
0.0
 40
0.2198609600791264
 40
0.4397396970008128
 40
0.6583291451397731
 40
0.8791239516843589
 40
1.0
 40
1.0
 40
1.0
 40
1.0
 10
99.26267133062197
 20
141.9458058104005
 30
0.0
 10
99.20275626789308
 20
141.9564778050446
 30
0.0
 10
99.08292129800708
 20
141.9778226572161
 30
0.0
 10
98.92618630973257
 20
142.1059410524831
 30
0.0
 10
98.80961798594645
 20
142.2888789885482
 30
0.0
 10
98.75336129415219
 20
142.4804281604353
 30
0.0
 10
98.74784342293589
 20
142.6022338321204
 30
0.0
 10
98.74589131476436
 20
142.6453261475646
 30
0.0
  0
ELLIPSE
  5
287
330
1F
100
AcDbEntity
  8
0
  6
Continuous
 62
     7
370
    25
100
AcDbEllipse
 10
99.8742114455
 20
145.1144189418
 30
0.0
 11
0.7999998117959564
 21
0.02096310677478641
 31
0.0
210
0.0
220
0.0
230
1.0
 40
0.026176936
 41
3.841553832103542
 42
4.7117030429504
  0
SPLINE
  5
288
330
1F
100
AcDbEntity
  8
0
  6
Continuous
 62
     7
370
    25
100
AcDbSpline
210
0.0
220
0.0
230
1.0
 70
     8
 71
     3
 72
    12
 73
     8
 74
     0
 42
0.00000001
 43
0.00000001
 40
0.0
 40
0.0
 40
0.0
 40
0.0
 40
0.2198610998683205
 40
0.4397399767664977
 40
0.6583294271823363
 40
0.8791242261983233
 40
1.0
 40
1.0
 40
1.0
 40
1.0
 10
98.74589131476439
 20
144.3853743208124
 30
0.0
 10
98.75199426465971
 20
144.4640652305316
 30
0.0
 10
98.76420065790884
 20
144.6214534125809
 30
0.0
 10
98.8567245990072
 20
144.8307351610659
 30
0.0
 10
98.99250854642894
 20
144.9893844817302
 30
0.0
 10
99.1369364097923
 20
145.0694845444455
 30
0.0
 10
99.22981342144108
 20
145.0808675817472
 30
0.0
 10
99.262671330622
 20
145.0848946579765
 30
0.0
  0
ELLIPSE
  5
289
330
1F
100
AcDbEntity
  8
0
  6
Continuous
 62
     7
370
    25
100
AcDbEllipse
 10
134.1744950415
 20
144.4910989976
 30
0.0
 11
1.557390436637235
 21
0.09517594847736177
 31
0.0
210
0.0
220
0.0
230
1.0
 40
0.9613560848
 41
0.878476908285601
 42
1.52720625440984
  0
SPLINE
  5
28A
330
1F
100
AcDbEntity
  8
0
  6
Continuous
 62
     7
370
    25
100
AcDbSpline
210
0.0
220
0.0
230
1.0
 70
    24
 71
     3
 72
    10
 73
     6
 74
     0
 42
0.00000001
 43
0.00000001
 40
0.0
 40
0.0
 40
0.0
 40
0.0
 40
0.2808335173386667
 40
0.5616510917414076
 40
1.0
 40
1.0
 40
1.0
 40
1.0
 10
135.098183045098
 20
145.7043533020212
 30
0.0
 10
135.0799749254532
 20
145.6728732992262
 30
0.0
 10
135.0435597198395
 20
145.6099150807578
 30
0.0
 10
134.9337766350392
 20
145.4201111974481
 30
0.0
 10
134.8348146823054
 20
145.2490159602997
 30
0.0
 10
134.774495041463
 20
145.1447293837969
 30
0.0
  0
SPLINE
  5
28B
330
1F
100
AcDbEntity
  8
0
  6
Continuous
 62
     7
370
    25
100
AcDbSpline
210
0.0
220
0.0
230
1.0
 70
     8
 71
     3
 72
    11
 73
     7
 74
     0
 42
0.00000001
 43
0.00000001
 40
0.0
 40
0.0
 40
0.0
 40
0.0
 40
0.2561894651307131
 40
0.5096044939206587
 40
0.769274206644471
 40
1.0
 40
1.0
 40
1.0
 40
1.0
 10
135.974495041463
 20
144.527766468822
 30
0.0
 10
135.9301300508462
 20
144.6412740041432
 30
0.0
 10
135.8418805259115
 20
144.86705983052
 30
0.0
 10
135.632068438987
 20
145.1922621662795
 30
0.0
 10
135.3845605694954
 20
145.4822185242087
 30
0.0
 10
135.1898107387573
 20
145.6332803453871
 30
0.0
 10
135.098183045098
 20
145.7043533020212
 30
0.0
  0
SPLINE
  5
28C
330
1F
100
AcDbEntity
  8
0
  6
Continuous
 62
     7
370
    25
100
AcDbSpline
210
0.0
220
0.0
230
1.0
 70
    24
 71
     3
 72
    10
 73
     6
 74
     0
 42
0.00000001
 43
0.00000001
 40
0.0
 40
0.0
 40
0.0
 40
0.0
 40
0.280833517338673
 40
0.5616510917414113
 40
1.0
 40
1.0
 40
1.0
 40
1.0
 10
134.774495041463
 20
141.88597108458
 30
0.0
 10
134.8128454904254
 20
141.8196670255077
 30
0.0
 10
134.889544211193
 20
141.6870626714486
 30
0.0
 10
135.014698561235
 20
141.4706834205441
 30
0.0
 10
135.0665676275883
 20
141.3810070351938
 30
0.0
 10
135.098183045098
 20
141.3263471663558
 30
0.0
  0
ELLIPSE
  5
28D
330
1F
100
AcDbEntity
  8
0
  6
Continuous
 62
     7
370
    25
100
AcDbEllipse
 10
134.1744950415
 20
142.5396014708
 30
0.0
 11
1.557390436637235
 21
-0.09517594847733335
 31
0.0
210
0.0
220
0.0
230
1.0
 40
0.9613560848
 41
4.755979052769741
 42
5.404708398893984
  0
SPLINE
  5
28E
330
1F
100
AcDbEntity
  8
0
  6
Continuous
 62
     7
370
    25
100
AcDbSpline
210
0.0
220
0.0
230
1.0
 70
     8
 71
     3
 72
    11
 73
     7
 74
     0
 42
0.00000001
 43
0.00000001
 40
0.0
 40
0.0
 40
0.0
 40
0.0
 40
0.2307374805226516
 40
0.4903955403005857
 40
0.7438105520730655
 40
1.0
 40
1.0
 40
1.0
 40
1.0
 10
135.098183045098
 20
141.3263471663558
 30
0.0
 10
135.1898150498575
 20
141.397424184546
 30
0.0
 10
135.3845641923942
 20
141.5484869969653
 30
0.0
 10
135.6320717596321
 20
141.8384430261208
 30
0.0
 10
135.8418804890262
 20
142.1636406866694
 30
0.0
 10
135.9301300385066
 20
142.3894264805635
 30
0.0
 10
135.974495041463
 20
142.502933999555
 30
0.0
  0
LINE
  5
28F
330
1F
100
AcDbEntity
  8
0
  6
Continuous
 62
     7
370
    25
100
AcDbLine
 10
136.2745084967
 20
146.1208069043
 30
0.0
 11
134.1509492433
 21
145.9910309911
 31
0.0
  0
SPLINE
  5
290
330
1F
100
AcDbEntity
  8
0
  6
Continuous
 62
     7
370
    25
100
AcDbSpline
210
0.0
220
0.0
230
1.0
 70
     8
 71
     3
 72
    13
 73
     9
 74
     0
 42
0.00000001
 43
0.00000001
 40
0.0
 40
0.0
 40
0.0
 40
0.0
 40
0.1035746466401555
 40
0.2111076158583393
 40
0.3219769626223816
 40
0.4454462032504118
 40
0.7113049728010379
 40
1.0
 40
1.0
 40
1.0
 40
1.0
 10
138.374495041463
 20
144.6744363538887
 30
0.0
 10
138.3672388767026
 20
144.7727791323375
 30
0.0
 10
138.352449237611
 20
144.9732230649858
 30
0.0
 10
138.2261766280491
 20
145.2561651152158
 30
0.0
 10
138.0296292399183
 20
145.5144233402348
 30
0.0
 10
137.665777566831
 20
145.8175186899898
 30
0.0
 10
137.0681901800957
 20
146.0830483562733
 30
0.0
 10
136.546233696536
 20
146.1078798716881
 30
0.0
 10
136.2745084967426
 20
146.1208069043044
 30
0.0
  0
LINE
  5
291
330
1F
100
AcDbEntity
  8
0
  6
Continuous
 62
     7
370
    25
100
AcDbLine
 10
135.9744950415
 20
144.5277664688
 30
0.0
 11
138.3744950415
 21
144.6744363539
 31
0.0
  0
LINE
  5
292
330
1F
100
AcDbEntity
  8
0
  6
Continuous
 62
     7
370
    25
100
AcDbLine
 10
138.3744950415
 20
142.3562641145
 30
0.0
 11
135.9744950415
 21
142.5029339996
 31
0.0
  0
SPLINE
  5
293
330
1F
100
AcDbEntity
  8
0
  6
Continuous
 62
     7
370
    25
100
AcDbSpline
210
0.0
220
0.0
230
1.0
 70
     8
 71
     3
 72
    13
 73
     9
 74
     0
 42
0.00000001
 43
0.00000001
 40
0.0
 40
0.0
 40
0.0
 40
0.0
 40
0.288694968291485
 40
0.5545536835943152
 40
0.6780091910936104
 40
0.7888922083801199
 40
0.8964194071406489
 40
1.0
 40
1.0
 40
1.0
 40
1.0
 10
136.2745084967426
 20
140.9098935640726
 30
0.0
 10
136.5462336873188
 20
140.9228205695553
 30
0.0
 10
137.0681901531732
 20
140.9476520328494
 30
0.0
 10
137.6657655612765
 20
141.2131766342819
 30
0.0
 10
138.0296197414561
 20
141.5162676308861
 30
0.0
 10
138.2261672330217
 20
141.7745193850068
 30
0.0
 10
138.3524505221279
 20
142.057470751175
 30
0.0
 10
138.367239024099
 20
142.2579154138661
 30
0.0
 10
138.374495041463
 20
142.3562641144883
 30
0.0
  0
LINE
  5
294
330
1F
100
AcDbEntity
  8
0
  6
Continuous
 62
     7
370
    25
100
AcDbLine
 10
134.1509492433
 20
141.0396694773
 30
0.0
 11
136.2745084967
 21
140.9098935641
 31
0.0
  0
SPLINE
  5
295
330
1F
100
AcDbEntity
  8
0
  6
Continuous
 62
     7
370
    25
100
AcDbSpline
210
0.0
220
0.0
230
1.0
 70
     8
 71
     3
 72
    12
 73
     8
 74
     0
 42
0.00000001
 43
0.00000001
 40
0.0
 40
0.0
 40
0.0
 40
0.0
 40
0.2225634137434412
 40
0.446206317369527
 40
0.6680851268156953
 40
0.8917990985568368
 40
1.0
 40
1.0
 40
1.0
 40
1.0
 10
99.2205557475895
 20
145.0839494221045
 30
0.0
 10
99.15885918195461
 20
145.0715963145377
 30
0.0
 10
99.03516680645022
 20
145.0468301836507
 30
0.0
 10
98.87600046465671
 20
144.9142462556529
 30
0.0
 10
98.75991857663978
 20
144.7278888521583
 30
0.0
 10
98.70820352591193
 20
144.539798040805
 30
0.0
 10
98.704365104135
 20
144.4232180079166
 30
0.0
 10
98.7031138173445
 20
144.3852140928532
 30
0.0
  0
SPLINE
  5
296
330
1F
100
AcDbEntity
  8
0
  6
Continuous
 62
     7
370
    25
100
AcDbSpline
210
0.0
220
0.0
230
1.0
 70
     8
 71
     3
 72
    12
 73
     8
 74
     0
 42
0.00000001
 43
0.00000001
 40
0.0
 40
0.0
 40
0.0
 40
0.0
 40
0.2225634137435263
 40
0.4462063173695687
 40
0.6680851268158023
 40
0.8917990985569296
 40
1.0
 40
1.0
 40
1.0
 40
1.0
 10
98.7031138173445
 20
142.6454863755238
 30
0.0
 10
98.70870038344702
 20
142.5669827154812
 30
0.0
 10
98.71990061193658
 20
142.4095946324246
 30
0.0
 10
98.81395138962364
 20
142.2002430947972
 30
0.0
 10
98.95344245302165
 20
142.0414838003271
 30
0.0
 10
99.09866655285803
 20
141.9636349300105
 30
0.0
 10
99.19058972158807
 20
141.9509018891771
 30
0.0
 10
99.22055574758949
 20
141.9467510462725
 30
0.0
  0
ELLIPSE
  5
297
330
1F
100
AcDbEntity
  8
0
  6
Continuous
 62
     7
370
    25
100
AcDbEllipse
 10
99.8549105278
 20
141.8994773724
 30
0.0
 11
0.7999991634988675
 21
-0.04310148564323413
 31
0.0
210
0.0
220
0.0
230
1.0
 40
0.0268411366
 41
2.487867318783687
 42
2.679391161175142
  0
SPLINE
  5
298
330
1F
100
AcDbEntity
  8
0
  6
Continuous
 62
     7
370
    25
100
AcDbSpline
210
0.0
220
0.0
230
1.0
 70
     8
 71
     3
 72
    11
 73
     7
 74
     0
 42
0.00000001
 43
0.00000001
 40
0.0
 40
0.0
 40
0.0
 40
0.0
 40
0.2499999999999989
 40
0.4999999999999977
 40
0.7499999999999992
 40
1.0
 40
1.0
 40
1.0
 40
1.0
 10
99.13936877498604
 20
141.9476315304185
 30
0.0
 10
99.06113366665379
 20
141.9626308355851
 30
0.0
 10
98.90466344998926
 20
141.9926294459182
 30
0.0
 10
98.71133729857277
 20
142.1561491487149
 30
0.0
 10
98.5769608662938
 20
142.3817287627972
 30
0.0
 10
98.55957911790661
 20
142.5581541607123
 30
0.0
 10
98.55088824371302
 20
142.6463668596698
 30
0.0
  0
SPLINE
  5
299
330
1F
100
AcDbEntity
  8
0
  6
Continuous
 62
     7
370
    25
100
AcDbSpline
210
0.0
220
0.0
230
1.0
 70
     8
 71
     3
 72
    11
 73
     7
 74
     0
 42
0.00000001
 43
0.00000001
 40
0.0
 40
0.0
 40
0.0
 40
0.0
 40
0.2499999999999988
 40
0.5000000000000019
 40
0.7499999999999991
 40
1.0
 40
1.0
 40
1.0
 40
1.0
 10
99.13936877498607
 20
145.0830689379585
 30
0.0
 10
99.06113366665379
 20
145.0680696327919
 30
0.0
 10
98.90466344998927
 20
145.0380710224588
 30
0.0
 10
98.71133729857279
 20
144.8745513196621
 30
0.0
 10
98.5769608662938
 20
144.6489717055798
 30
0.0
 10
98.55957911790661
 20
144.4725463076647
 30
0.0
 10
98.55088824371302
 20
144.3843336087072
 30
0.0
  0
ELLIPSE
  5
29A
330
1F
100
AcDbEntity
  8
0
  6
Continuous
 62
     7
370
    25
100
AcDbEllipse
 10
99.8549105278
 20
145.131223096
 30
0.0
 11
0.7999991634988676
 21
0.04310148564320571
 31
0.0
210
0.0
220
0.0
230
0.9999999999999998
 40
0.0268411366
 41
3.60379414600718
 42
3.795317988399146
  0
LINE
  5
29B
330
1F
100
AcDbEntity
  8
0
  6
Continuous
 62
     7
370
    25
100
AcDbLine
 10
138.3744950415
 20
144.6744363539
 30
0.0
 11
138.3744950415
 21
142.3562641145
 31
0.0
  0
LINE
  5
29C
330
1F
100
AcDbEntity
  8
0
  6
Continuous
 62
     7
370
    25
100
AcDbLine
 10
99.0402264194
 20
145.3015908966
 30
0.0
 11
120.6677745882
 21
145.8679281767
 31
0.0
  0
SPLINE
  5
29D
330
1F
100
AcDbEntity
  8
0
  6
Continuous
 62
     7
370
    25
100
AcDbSpline
210
0.0
220
0.0
230
1.0
 70
     8
 71
     3
 72
     9
 73
     5
 74
     0
 42
0.00000001
 43
0.00000001
 40
0.0
 40
0.0
 40
0.0
 40
0.0
 40
0.5600012771711208
 40
0.9999999999999999
 40
0.9999999999999999
 40
0.9999999999999999
 40
0.9999999999999999
 10
120.6677745881818
 20
145.8679281766856
 30
0.0
 10
121.1452047247068
 20
145.8560937643406
 30
0.0
 10
121.9977565955468
 20
145.8349609333498
 30
0.0
 10
122.8546458001902
 20
145.8140002039374
 30
0.0
 10
123.2316759558392
 20
145.8047775097663
 30
0.0
  0
SPLINE
  5
29E
330
1F
100
AcDbEntity
  8
0
  6
Continuous
 62
     7
370
    25
100
AcDbSpline
210
0.0
220
0.0
230
1.0
 70
     8
 71
     3
 72
     9
 73
     5
 74
     0
 42
0.00000001
 43
0.00000001
 40
0.0
 40
0.0
 40
0.0
 40
0.0
 40
0.5599999095970982
 40
1.0
 40
1.0
 40
1.0
 40
1.0
 10
123.2316759558392
 20
145.8047775097663
 30
0.0
 10
123.3258054465017
 20
145.8024800998691
 30
0.0
 10
123.4938938498199
 20
145.7983775815332
 30
0.0
 10
123.6621363695156
 20
145.7942811883401
 30
0.0
 10
123.7361630933914
 20
145.7924787749649
 30
0.0
  0
LINE
  5
29F
330
1F
100
AcDbEntity
  8
0
  6
Continuous
 62
     7
370
    25
100
AcDbLine
 10
123.7361630934
 20
145.792478775
 30
0.0
 11
136.2745084967
 21
146.1208069043
 31
0.0
  0
LINE
  5
2A0
330
1F
100
AcDbEntity
  8
0
  6
Continuous
 62
     7
370
    25
100
AcDbLine
 10
99.2626713306
 20
145.084894658
 30
0.0
 11
99.0402264194
 21
145.3015908966
 31
0.0
  0
LINE
  5
2A1
330
1F
100
AcDbEntity
  8
0
  6
Continuous
 62
     7
370
    25
100
AcDbLine
 10
136.2745084967
 20
140.9098935641
 30
0.0
 11
123.7361630934
 21
141.2382216934
 31
0.0
  0
SPLINE
  5
2A2
330
1F
100
AcDbEntity
  8
0
  6
Continuous
 62
     7
370
    25
100
AcDbSpline
210
0.0
220
0.0
230
1.0
 70
     8
 71
     3
 72
     9
 73
     5
 74
     0
 42
0.00000001
 43
0.00000001
 40
0.0
 40
0.0
 40
0.0
 40
0.0
 40
0.5600000882143262
 40
1.0
 40
1.0
 40
1.0
 40
1.0
 10
123.7361630933914
 20
141.2382216934121
 30
0.0
 10
123.6419506778597
 20
141.235927577271
 30
0.0
 10
123.4737142480546
 20
141.2318309419502
 30
0.0
 10
123.3056320903861
 20
141.2277281754909
 30
0.0
 10
123.2316759558392
 20
141.2259229586107
 30
0.0
  0
SPLINE
  5
2A3
330
1F
100
AcDbEntity
  8
0
  6
Continuous
 62
     7
370
    25
100
AcDbSpline
210
0.0
220
0.0
230
1.0
 70
     8
 71
     3
 72
     9
 73
     5
 74
     0
 42
0.00000001
 43
0.00000001
 40
0.0
 40
0.0
 40
0.0
 40
0.0
 40
0.5599987526606142
 40
1.0
 40
1.0
 40
1.0
 40
1.0
 10
123.2316759558392
 20
141.2259229586107
 30
0.0
 10
122.7519096979521
 20
141.2141813720883
 30
0.0
 10
121.8951823291718
 20
141.1932142065963
 30
0.0
 10
121.0428165806992
 20
141.1720740062241
 30
0.0
 10
120.6677745881818
 20
141.1627722916914
 30
0.0
  0
LINE
  5
2A4
330
1F
100
AcDbEntity
  8
0
  6
Continuous
 62
     7
370
    25
100
AcDbLine
 10
120.6677745882
 20
141.1627722917
 30
0.0
 11
99.0402264194
 21
141.7291095718
 31
0.0
  0
LINE
  5
2A5
330
1F
100
AcDbEntity
  8
0
  6
Continuous
 62
     7
370
    25
100
AcDbLine
 10
99.0402264194
 20
141.7291095718
 30
0.0
 11
99.2626713306
 21
141.9458058104
 31
0.0
  0
LINE
  5
2A6
330
1F
100
AcDbEntity
  8
0
  6
Continuous
 62
     7
370
    25
100
AcDbLine
 10
94.7338989508
 20
141.9476315304
 30
0.0
 11
99.139368775
 21
141.9476315304
 31
0.0
  0
SPLINE
  5
2A7
330
1F
100
AcDbEntity
  8
0
  6
Continuous
 62
     7
370
    25
100
AcDbSpline
210
0.0
220
0.0
230
1.0
 70
     8
 71
     3
 72
    12
 73
     8
 74
     0
 42
0.00000001
 43
0.00000001
 40
0.0
 40
0.0
 40
0.0
 40
0.0
 40
0.139683458618249
 40
0.3831896274038307
 40
0.5513169293013299
 40
0.819472946160705
 40
0.9999999999999999
 40
0.9999999999999999
 40
0.9999999999999999
 40
0.9999999999999999
 10
93.97193810055778
 20
142.6463668596698
 30
0.0
 10
93.98217948130406
 20
142.5966519391913
 30
0.0
 10
94.01027436749237
 20
142.4602704231335
 30
0.0
 10
94.11742472884715
 20
142.2803543139214
 30
0.0
 10
94.29776181626015
 20
142.1020128855365
 30
0.0
 10
94.50621796082915
 20
141.981492660985
 30
0.0
 10
94.66857486153309
 20
141.9573466476782
 30
0.0
 10
94.73389895078147
 20
141.9476315304185
 30
0.0
  0
LINE
  5
2A8
330
1F
100
AcDbEntity
  8
0
  6
Continuous
 62
     7
370
    25
100
AcDbLine
 10
98.5508882437
 20
142.6463668597
 30
0.0
 11
93.9719381006
 21
142.6463668597
 31
0.0
  0
LINE
  5
2A9
330
1F
100
AcDbEntity
  8
0
  6
Continuous
 62
     7
370
    25
100
AcDbLine
 10
93.9719381006
 20
144.3843336087
 30
0.0
 11
98.5508882437
 21
144.3843336087
 31
0.0
  0
SPLINE
  5
2AA
330
1F
100
AcDbEntity
  8
0
  6
Continuous
 62
     7
370
    25
100
AcDbSpline
210
0.0
220
0.0
230
1.0
 70
     8
 71
     3
 72
    13
 73
     9
 74
     0
 42
0.00000001
 43
0.00000001
 40
0.0
 40
0.0
 40
0.0
 40
0.0
 40
0.1143463544469914
 40
0.2890454840074685
 40
0.5294852105593209
 40
0.7014879056604271
 40
0.9335094878266192
 40
1.0
 40
1.0
 40
1.0
 40
1.0
 10
94.73389895078148
 20
145.0830689379585
 30
0.0
 10
94.69269775007253
 20
145.0782343464534
 30
0.0
 10
94.58854907774968
 20
145.0660134335234
 30
0.0
 10
94.40118958336983
 20
144.9933653384823
 30
0.0
 10
94.21916185336104
 20
144.8628530720755
 30
0.0
 10
94.06687827214668
 20
144.6759854729059
 30
0.0
 10
93.9943749952667
 20
144.5146120681493
 30
0.0
 10
93.97602530594799
 20
144.4080657172974
 30
0.0
 10
93.9719381005578
 20
144.3843336087072
 30
0.0
  0
LINE
  5
2AB
330
1F
100
AcDbEntity
  8
0
  6
Continuous
 62
     7
370
    25
100
AcDbLine
 10
99.139368775
 20
145.083068938
 30
0.0
 11
94.7338989508
 21
145.083068938
 31
0.0
  0
ELLIPSE
  5
2AC
330
1F
100
AcDbEntity
  8
0
  6
Continuous
 62
     7
370
    25
100
AcDbEllipse
 10
94.327281446
 20
143.6898887893
 30
0.0
 11
0.008721666502694349
 21
1.000418978703721
 31
0.0
210
0.0
220
0.0
230
0.9999999999999999
 40
0.499714557
 41
0.8079180407726557
 42
1.588240544501515
  0
ELLIPSE
  5
2AD
330
1F
100
AcDbEntity
  8
0
  6
Continuous
 62
     7
370
    25
100
AcDbEllipse
 10
94.327281446
 20
143.3408116791
 30
0.0
 11
-0.008721666502680138
 21
1.000418978703721
 31
0.0
210
0.0
220
0.0
230
1.0
 40
0.499714557
 41
1.553352109088286
 42
2.333674612817154
  0
LINE
  5
2AE
330
1F
100
AcDbEntity
  8
0
  6
Continuous
 62
     7
370
    25
100
AcDbLine
 10
93.827281446
 20
143.6767958285
 30
0.0
 11
93.827281446
 21
143.3539046399
 31
0.0
  0
LINE
  5
2AF
330
1F
100
AcDbEntity
  8
0
  6
Continuous
 62
     7
370
    25
100
AcDbLine
 10
99.0413542767
 20
145.2585197663
 30
0.0
 11
99.0402264194
 21
145.3015908966
 31
0.0
  0
LINE
  5
2B0
330
1F
100
AcDbEntity
  8
0
  6
Continuous
 62
     7
370
    25
100
AcDbLine
 10
99.0413542767
 20
141.7721807021
 30
0.0
 11
99.0402264194
 21
141.7291095718
 31
0.0
  0
ELLIPSE
  5
2B1
330
1F
100
AcDbEntity
  8
0
  6
Continuous
 62
     7
370
    25
100
AcDbEllipse
 10
62.823487842
 20
143.3530225096
 30
0.0
 11
36.18915845259203
 21
1.947628334984216
 31
0.0
210
0.0
220
0.0
230
1.0
 40
0.0007414247
 41
0.0282885576629791
 42
0.4911607830433816
  0
LINE
  5
2B2
330
1F
100
AcDbEntity
  8
0
  6
Continuous
 62
     7
370
    25
100
AcDbLine
 10
98.9981263651
 20
145.3006305333
 30
0.0
 11
99.2205557476
 21
145.0839494221
 31
0.0
  0
LINE
  5
2B3
330
1F
100
AcDbEntity
  8
0
  6
Continuous
 62
     7
370
    25
100
AcDbLine
 10
99.2205557476
 20
141.9467510463
 30
0.0
 11
98.9981263651
 21
141.7300699351
 31
0.0
  0
ELLIPSE
  5
2B4
330
1F
100
AcDbEntity
  8
0
  6
Continuous
 62
     7
370
    25
100
AcDbEllipse
 10
62.823487842
 20
143.6776779588
 30
0.0
 11
36.18915845257634
 21
-1.947628334983335
 31
0.0
210
0.0
220
0.0
230
1.0
 40
0.0007414247
 41
5.792024524150706
 42
6.254896749546843
  0
LINE
  5
2B5
330
1F
100
AcDbEntity
  8
0
  6
Continuous
 62
     7
370
    25
100
AcDbLine
 10
126.8423706194
 20
146.3802986463
 30
0.0
 11
127.4930240855
 21
146.6143937802
 31
0.0
  0
SPLINE
  5
2B6
330
1F
100
AcDbEntity
  8
0
  6
Continuous
 62
     7
370
    25
100
AcDbSpline
210
0.0
220
0.0
230
1.0
 70
     8
 71
     3
 72
    10
 73
     6
 74
     0
 42
0.00000001
 43
0.00000001
 40
0.0
 40
0.0
 40
0.0
 40
0.0
 40
0.2383396858856108
 40
0.5716506333689652
 40
1.0
 40
1.0
 40
1.0
 40
1.0
 10
126.8444707793801
 20
146.3738726762433
 30
0.0
 10
126.6002045242801
 20
146.2992744738163
 30
0.0
 10
126.0143391912796
 20
146.1203529085425
 30
0.0
 10
124.9777843902741
 20
145.8840087962875
 30
0.0
 10
124.1830902946746
 20
145.825425420102
 30
0.0
 10
123.7361630933915
 20
145.7924787749649
 30
0.0
  0
SPLINE
  5
2B7
330
1F
100
AcDbEntity
  8
0
  6
Continuous
 62
     7
370
    25
100
AcDbSpline
210
0.0
220
0.0
230
1.0
 70
     8
 71
     3
 72
    11
 73
     7
 74
     0
 42
0.00000001
 43
0.00000001
 40
0.0
 40
0.0
 40
0.0
 40
0.0
 40
0.2506671725023491
 40
0.5010414677145718
 40
0.7508849997170934
 40
1.0
 40
1.0
 40
1.0
 40
1.0
 10
120.6677745881818
 20
145.8679281766856
 30
0.0
 10
121.1434626007424
 20
145.8948027433408
 30
0.0
 10
122.0942828362296
 20
145.948520476647
 30
0.0
 10
123.4949554534419
 20
146.2339859403009
 30
0.0
 10
124.8585212146936
 20
146.6555140869205
 30
0.0
 10
125.7111887612495
 20
147.0718711646175
 30
0.0
 10
126.136900042563
 20
147.279745740994
 30
0.0
  0
SPLINE
  5
2B8
330
1F
100
AcDbEntity
  8
0
  6
Continuous
 62
     7
370
    25
100
AcDbSpline
210
0.0
220
0.0
230
1.0
 70
     8
 71
     3
 72
     9
 73
     5
 74
     0
 42
0.00000001
 43
0.00000001
 40
0.0
 40
0.0
 40
0.0
 40
0.0
 40
0.5013259021989908
 40
1.0
 40
1.0
 40
1.0
 40
1.0
 10
126.1369000131211
 20
147.2797457943582
 30
0.0
 10
126.3609757139552
 20
147.4047884518283
 30
0.0
 10
126.807941848861
 20
147.6542123433958
 30
0.0
 10
127.2219871285565
 20
147.9559804518171
 30
0.0
 10
127.4284607848574
 20
148.1064643910291
 30
0.0
  0
LINE
  5
2B9
330
1F
100
AcDbEntity
  8
0
  6
Continuous
 62
     7
370
    25
100
AcDbLine
 10
129.4942412449
 20
148.2212308304
 30
0.0
 11
127.42828751
 21
148.1064556229
 31
0.0
  0
SPLINE
  5
2BA
330
1F
100
AcDbEntity
  8
0
  6
Continuous
 62
     7
370
    25
100
AcDbSpline
210
0.0
220
0.0
230
1.0
 70
     8
 71
     3
 72
    14
 73
    10
 74
     0
 42
0.00000001
 43
0.00000001
 40
0.0
 40
0.0
 40
0.0
 40
0.0
 40
0.0829413618596697
 40
0.1664594845668882
 40
0.2437726390188663
 40
0.3161479456895724
 40
0.435372571819233
 40
0.6486290670514194
 40
1.0
 40
1.0
 40
1.0
 40
1.0
 10
129.4942412320167
 20
148.2212308255258
 30
0.0
 10
129.5400405332916
 20
148.2194156359434
 30
0.0
 10
129.6319576167927
 20
148.2157726342432
 30
0.0
 10
129.682502649329
 20
148.1341115017556
 30
0.0
 10
129.6415977528888
 20
148.0008280214708
 30
0.0
 10
129.5059967067843
 20
147.8125015652332
 30
0.0
 10
129.1890884360395
 20
147.5142344855709
 30
0.0
 10
128.5120998258063
 20
147.0562073267855
 30
0.0
 10
127.8839330095929
 20
146.7838717981076
 30
0.0
 10
127.4930211458681
 20
146.6143958144579
 30
0.0
  0
LINE
  5
2BB
330
1F
100
AcDbEntity
  8
0
  6
Continuous
 62
     7
370
    25
100
AcDbLine
 10
127.4282875099
 20
138.9242448455
 30
0.0
 11
129.4942412448
 21
138.809469638
 31
0.0
  0
SPLINE
  5
2BC
330
1F
100
AcDbEntity
  8
0
  6
Continuous
 62
     7
370
    25
100
AcDbSpline
210
0.0
220
0.0
230
1.0
 70
     8
 71
     3
 72
     9
 73
     5
 74
     0
 42
0.00000001
 43
0.00000001
 40
0.0
 40
0.0
 40
0.0
 40
0.0
 40
0.498674098273861
 40
1.0
 40
1.0
 40
1.0
 40
1.0
 10
127.4284605836318
 20
138.9242358955126
 30
0.0
 10
127.2219869425621
 20
139.0747198317916
 30
0.0
 10
126.8079416938025
 20
139.376487934045
 30
0.0
 10
126.3609755918576
 20
139.6259118256673
 30
0.0
 10
126.136899907759
 20
139.7509544830468
 30
0.0
  0
SPLINE
  5
2BD
330
1F
100
AcDbEntity
  8
0
  6
Continuous
 62
     7
370
    25
100
AcDbSpline
210
0.0
220
0.0
230
1.0
 70
     8
 71
     3
 72
    11
 73
     7
 74
     0
 42
0.00000001
 43
0.00000001
 40
0.0
 40
0.0
 40
0.0
 40
0.0
 40
0.249115000282908
 40
0.4989585322854286
 40
0.7493328274976518
 40
1.0
 40
1.0
 40
1.0
 40
1.0
 10
126.136900042563
 20
139.750954727383
 30
0.0
 10
125.7111887612495
 20
139.9588293037595
 30
0.0
 10
124.8585212146936
 20
140.3751863814565
 30
0.0
 10
123.4949554534419
 20
140.7967145280761
 30
0.0
 10
122.0942828362296
 20
141.08217999173
 30
0.0
 10
121.1434626007424
 20
141.1358977250362
 30
0.0
 10
120.6677745881818
 20
141.1627722916914
 30
0.0
  0
SPLINE
  5
2BE
330
1F
100
AcDbEntity
  8
0
  6
Continuous
 62
     7
370
    25
100
AcDbSpline
210
0.0
220
0.0
230
1.0
 70
     8
 71
     3
 72
    10
 73
     6
 74
     0
 42
0.00000001
 43
0.00000001
 40
0.0
 40
0.0
 40
0.0
 40
0.0
 40
0.428349366631063
 40
0.7616603141144168
 40
1.0
 40
1.0
 40
1.0
 40
1.0
 10
123.7361630933916
 20
141.2382216934121
 30
0.0
 10
124.1830902946746
 20
141.205275048275
 30
0.0
 10
124.9777843902742
 20
141.1466916720895
 30
0.0
 10
126.0143391912797
 20
140.9103475598346
 30
0.0
 10
126.6002045242801
 20
140.7314259945608
 30
0.0
 10
126.8444707793801
 20
140.6568277921339
 30
0.0
  0
LINE
  5
2BF
330
1F
100
AcDbEntity
  8
0
  6
Continuous
 62
     7
370
    25
100
AcDbLine
 10
126.8423706193
 20
140.6504018217
 30
0.0
 11
127.4930240854
 21
140.416306688
 31
0.0
  0
SPLINE
  5
2C0
330
1F
100
AcDbEntity
  8
0
  6
Continuous
 62
     7
370
    25
100
AcDbSpline
210
0.0
220
0.0
230
1.0
 70
     8
 71
     3
 72
    15
 73
    11
 74
     0
 42
0.00000001
 43
0.00000001
 40
0.0
 40
0.0
 40
0.0
 40
0.0
 40
0.2091652517822444
 40
0.4176299509274903
 40
0.5931463878153086
 40
0.6923603779431097
 40
0.7731125739307014
 40
0.8543366880968429
 40
0.9261517123972135
 40
0.9999999999999999
 40
0.9999999999999999
 40
0.9999999999999999
 40
0.9999999999999999
 10
127.4930211457775
 20
140.4163046536877
 30
0.0
 10
127.7266053578729
 20
140.3186070211983
 30
0.0
 10
128.192991443533
 20
140.123538972779
 30
0.0
 10
128.8166415907122
 20
139.7742591194265
 30
0.0
 10
129.2764912200128
 20
139.441368932483
 30
0.0
 10
129.5383755907826
 20
139.1797508464471
 30
0.0
 10
129.6588455712978
 20
138.9991568335332
 30
0.0
 10
129.6776387982075
 20
138.877062670223
 30
0.0
 10
129.616600596901
 20
138.8130126809045
 30
0.0
 10
129.5354054783896
 20
138.8106615948666
 30
0.0
 10
129.4942412319818
 20
138.8094696428531
 30
0.0
  0
SPLINE
  5
2C1
330
1F
100
AcDbEntity
  8
0
  6
Continuous
 62
     7
370
    25
100
AcDbSpline
210
0.0
220
0.0
230
1.0
 70
    24
 71
     3
 72
    11
 73
     7
 74
     0
 42
0.00000001
 43
0.00000001
 40
0.0
 40
0.0
 40
0.0
 40
0.0
 40
0.2499999999999989
 40
0.4999999999999994
 40
0.7499999999999989
 40
1.0
 40
1.0
 40
1.0
 40
1.0
 10
136.2614245076819
 20
140.4102361803839
 30
0.0
 10
136.2631109781858
 20
140.474639890579
 30
0.0
 10
136.2664839191937
 20
140.6034473109692
 30
0.0
 10
136.270763816095
 20
140.7668899795795
 30
0.0
 10
136.2738059369087
 20
140.8830638864528
 30
0.0
 10
136.2742743101313
 20
140.9009503381993
 30
0.0
 10
136.2745084967426
 20
140.9098935640726
 30
0.0
  0
LINE
  5
2C2
330
1F
100
AcDbEntity
  8
0
  6
Continuous
 62
     7
370
    25
100
AcDbLine
 10
126.8444707794
 20
140.6568277921
 30
0.0
 11
136.2614245077
 21
140.4102361804
 31
0.0
  0
LINE
  5
2C3
330
1F
100
AcDbEntity
  8
0
  6
Continuous
 62
     7
370
    25
100
AcDbLine
 10
136.2614245077
 20
146.620464288
 30
0.0
 11
126.8444707794
 21
146.3738726762
 31
0.0
  0
SPLINE
  5
2C4
330
1F
100
AcDbEntity
  8
0
  6
Continuous
 62
     7
370
    25
100
AcDbSpline
210
0.0
220
0.0
230
1.0
 70
    24
 71
     3
 72
    11
 73
     7
 74
     0
 42
0.00000001
 43
0.00000001
 40
0.0
 40
0.0
 40
0.0
 40
0.0
 40
0.2500000000000008
 40
0.5000000000000002
 40
0.7500000000000006
 40
1.0
 40
1.0
 40
1.0
 40
1.0
 10
136.2745084967426
 20
146.1208069043044
 30
0.0
 10
136.2742743101313
 20
146.1297501301777
 30
0.0
 10
136.2738059369087
 20
146.1476365819242
 30
0.0
 10
136.270763816095
 20
146.2638104887975
 30
0.0
 10
136.2664839191937
 20
146.4272531574078
 30
0.0
 10
136.2631109781858
 20
146.556060577798
 30
0.0
 10
136.2614245076819
 20
146.6204642879931
 30
0.0
  0
ELLIPSE
  5
2C5
330
1F
100
AcDbEntity
  8
0
  6
Continuous
 62
     7
370
    25
100
AcDbEllipse
 10
136.2744950415
 20
142.4112653214
 30
0.0
 11
2.497021557391577
 21
-0.1525991103465856
 31
2.131628207280301E-14
210
-8.504919643681410E-15
220
5.197564944337115E-16
230
1.0
 40
0.7994627403
 41
4.75597905276978
 42
6.332003616895592
  0
SPLINE
  5
2C6
330
1F
100
AcDbEntity
  8
0
  6
Continuous
 62
     7
370
    25
100
AcDbSpline
210
0.0
220
0.0
230
1.0
 70
    24
 71
     3
 72
    11
 73
     7
 74
     0
 42
0.00000001
 43
0.00000001
 40
0.0
 40
0.0
 40
0.0
 40
0.0
 40
0.2500000000000007
 40
0.5000000000000022
 40
0.7500000000000036
 40
1.0
 40
1.0
 40
1.0
 40
1.0
 10
138.374495041463
 20
142.3562641144883
 30
0.0
 10
138.3997549796671
 20
142.3562641144883
 30
0.0
 10
138.4502748560755
 20
142.3562641144883
 30
0.0
 10
138.5491334652758
 20
142.3562641144883
 30
0.0
 10
138.6585207450993
 20
142.3562641144883
 30
0.0
 10
138.7358369426751
 20
142.3562641144883
 30
0.0
 10
138.774495041463
 20
142.3562641144883
 30
0.0
  0
ELLIPSE
  5
2C7
330
1F
100
AcDbEntity
  8
0
  6
Continuous
 62
     7
370
    25
100
AcDbEllipse
 10
136.2744950415
 20
144.619435147
 30
0.0
 11
2.497021557391577
 21
0.152599110346614
 31
2.131628207280301E-14
210
-8.504919643681414E-15
220
-5.197564944334697E-16
230
0.9999999999999998
 40
0.7994627403
 41
6.234366997463598
 42
7.810391561589407
  0
SPLINE
  5
2C8
330
1F
100
AcDbEntity
  8
0
  6
Continuous
 62
     7
370
    25
100
AcDbSpline
210
0.0
220
0.0
230
1.0
 70
    24
 71
     3
 72
    11
 73
     7
 74
     0
 42
0.00000001
 43
0.00000001
 40
0.0
 40
0.0
 40
0.0
 40
0.0
 40
0.2499999999999994
 40
0.4999999999999963
 40
0.7500000000000001
 40
0.9999999999999999
 40
0.9999999999999999
 40
0.9999999999999999
 40
0.9999999999999999
 10
138.774495041463
 20
144.6744363538887
 30
0.0
 10
138.7358369426751
 20
144.6744363538887
 30
0.0
 10
138.6585207450993
 20
144.6744363538887
 30
0.0
 10
138.5491334652758
 20
144.6744363538887
 30
0.0
 10
138.4502748560755
 20
144.6744363538887
 30
0.0
 10
138.3997549796671
 20
144.6744363538887
 30
0.0
 10
138.374495041463
 20
144.6744363538887
 30
0.0
  0
LINE
  5
2C9
330
1F
100
AcDbEntity
  8
0
  6
Continuous
 62
     7
370
    25
100
AcDbLine
 10
138.911316716
 20
139.78861181
 30
0.0
 11
127.4955874325
 21
140.4228189924
 31
0.0
  0
LINE
  5
2CA
330
1F
100
AcDbEntity
  8
0
  6
Continuous
 62
     7
370
    25
100
AcDbLine
 10
138.8281116865
 20
138.2909212802
 30
0.0
 11
138.911316716
 21
139.78861181
 31
0.0
  0
LINE
  5
2CB
330
1F
100
AcDbEntity
  8
0
  6
Continuous
 62
     7
370
    25
100
AcDbLine
 10
129.494433675
 20
138.8094589475
 30
0.0
 11
138.8281116865
 21
138.2909212802
 31
0.0
  0
LINE
  5
2CC
330
1F
100
AcDbEntity
  8
0
  6
Continuous
 62
     7
370
    25
100
AcDbLine
 10
138.7744950415
 20
142.3562641145
 30
0.0
 11
138.7744950415
 21
144.6744363539
 31
0.0
  0
LINE
  5
2CD
330
1F
100
AcDbEntity
  8
0
  6
Continuous
 62
     7
370
    25
100
AcDbLine
 10
138.8281116865
 20
148.7397791882
 30
0.0
 11
129.494433675
 21
148.2212415209
 31
0.0
  0
LINE
  5
2CE
330
1F
100
AcDbEntity
  8
0
  6
Continuous
 62
     7
370
    25
100
AcDbLine
 10
138.911316716
 20
147.2420886584
 30
0.0
 11
138.8281116865
 21
148.7397791882
 31
0.0
  0
LINE
  5
2CF
330
1F
100
AcDbEntity
  8
0
  6
Continuous
 62
     7
370
    25
100
AcDbLine
 10
127.4955874325
 20
146.607881476
 30
0.0
 11
138.911316716
 21
147.2420886584
 31
0.0
  0
LINE
  5
2D0
330
1F
100
AcDbEntity
  8
0
  6
Continuous
 62
     7
370
    25
100
AcDbLine
 10
139.2744950415
 20
140.1517901355
 30
0.0
 11
138.911316716
 21
139.78861181
 31
0.0
  0
LINE
  5
2D1
330
1F
100
AcDbEntity
  8
0
  6
Continuous
 62
     7
370
    25
100
AcDbLine
 10
138.911316716
 20
147.2420886584
 30
0.0
 11
139.2744950415
 21
146.8789103329
 31
0.0
  0
LINE
  5
2D2
330
1F
100
AcDbEntity
  8
0
  6
Continuous
 62
     7
370
    25
100
AcDbLine
 10
139.2744950415
 20
140.1517901355
 30
0.0
 11
139.2744950415
 21
146.8789103329
 31
0.0
  0
LINE
  5
2D3
330
1F
100
AcDbEntity
  8
0
  6
Continuous
 62
     7
370
    25
100
AcDbLine
 10
139.2744950415
 20
147.6052669839
 30
0.0
 11
138.911316716
 21
147.2420886584
 31
0.0
  0
ARC
  5
2D4
330
1F
100
AcDbEntity
  8
0
  6
Continuous
 62
     7
370
    25
100
AcDbCircle
 10
138.911316716
 20
147.2420886584
 30
0.0
 40
1.500000000000004
100
AcDbArc
 50
75.9883675978
 51
93.1798301199
  0
LINE
  5
2D5
330
1F
100
AcDbEntity
  8
0
  6
Continuous
 62
     7
370
    25
100
AcDbLine
 10
139.2744950415
 20
147.6052669839
 30
0.0
 11
139.2744950415
 21
148.697458544
 31
0.0
  0
LINE
  5
2D6
330
1F
100
AcDbEntity
  8
0
  6
Continuous
 62
     7
370
    25
100
AcDbLine
 10
139.2744950415
 20
146.8789103329
 30
0.0
 11
139.2744950415
 21
147.6052669839
 31
0.0
  0
LINE
  5
2D7
330
1F
100
AcDbEntity
  8
0
  6
Continuous
 62
     7
370
    25
100
AcDbLine
 10
138.911316716
 20
139.78861181
 30
0.0
 11
139.2744950415
 21
139.4254334845
 31
0.0
  0
LINE
  5
2D8
330
1F
100
AcDbEntity
  8
0
  6
Continuous
 62
     7
370
    25
100
AcDbLine
 10
139.2744950415
 20
139.4254334845
 30
0.0
 11
139.2744950415
 21
140.1517901355
 31
0.0
  0
ARC
  5
2D9
330
1F
100
AcDbEntity
  8
0
  6
Continuous
 62
     7
370
    25
100
AcDbCircle
 10
138.911316716
 20
139.78861181
 30
0.0
 40
1.500000000000007
100
AcDbArc
 50
266.8201698801
 51
284.0116324022
  0
LINE
  5
2DA
330
1F
100
AcDbEntity
  8
0
  6
Continuous
 62
     7
370
    25
100
AcDbLine
 10
139.2744950415
 20
138.3332419244
 30
0.0
 11
139.2744950415
 21
139.4254334845
 31
0.0
  0
SPLINE
  5
2DB
330
1F
100
AcDbEntity
  8
0
  6
Continuous
 62
     7
370
    25
100
AcDbSpline
210
0.0
220
0.0
230
1.0
 70
    24
 71
     3
 72
     9
 73
     5
 74
     0
 42
0.00000001
 43
0.00000001
 40
0.0
 40
0.0
 40
0.0
 40
0.0
 40
0.53896659133331
 40
1.0
 40
1.0
 40
1.0
 40
1.0
 10
127.4284615802623
 20
148.1064652934301
 30
0.0
 10
127.3825356384848
 20
148.1039138522202
 30
0.0
 10
127.2973245279708
 20
148.0991799016361
 30
0.0
 10
127.3099057201338
 20
148.0998788567563
 30
0.0
 10
127.3157060700419
 20
148.1002010984178
 30
0.0
  0
SPLINE
  5
2DC
330
1F
100
AcDbEntity
  8
0
  6
Continuous
 62
     7
370
    25
100
AcDbSpline
210
0.0
220
0.0
230
1.0
 70
    24
 71
     3
 72
     9
 73
     5
 74
     0
 42
0.00000001
 43
0.00000001
 40
0.0
 40
0.0
 40
0.0
 40
0.0
 40
0.4490009010282568
 40
1.0
 40
1.0
 40
1.0
 40
1.0
 10
127.3218041412072
 20
138.9301605882277
 30
0.0
 10
127.3134185886155
 20
138.9306264522606
 30
0.0
 10
127.2947425624149
 20
138.9316640092718
 30
0.0
 10
127.3809573242004
 20
138.9268743002837
 30
0.0
 10
127.4284615802623
 20
138.9242351749469
 30
0.0
  0
SPLINE
  5
2DD
330
1F
100
AcDbEntity
  8
0
  6
Continuous
 62
     7
370
    25
100
AcDbSpline
210
0.0
220
0.0
230
1.0
 70
     8
 71
     3
 72
     9
 73
     5
 74
     0
 42
0.00000001
 43
0.00000001
 40
0.0
 40
0.0
 40
0.0
 40
0.0
 40
0.540774756067758
 40
1.0
 40
1.0
 40
1.0
 40
1.0
 10
99.04022641944091
 20
145.3015908966051
 30
0.0
 10
99.03247037739347
 20
145.301620397018
 30
0.0
 10
99.01812791417672
 20
145.3016749491444
 30
0.0
 10
99.00380941036873
 20
145.3010707040095
 30
0.0
 10
98.99723399196479
 20
145.30079321939
 30
0.0
  0
LINE
  5
2DE
330
1F
100
AcDbEntity
  8
0
  6
Continuous
 62
     7
370
    25
100
AcDbLine
 10
99.0402264194
 20
141.7291095718
 30
0.0
 11
98.997233992
 21
141.729907249
 31
0.0
  0
CIRCLE
  5
2DF
330
1F
100
AcDbEntity
  8
0
  6
Continuous
 62
     7
370
    25
100
AcDbCircle
 10
149.2744950415
 20
143.5153502342
 30
0.0
 40
7.558608890731364
  0
CIRCLE
  5
2E0
330
1F
100
AcDbEntity
  8
0
  6
Continuous
 62
     7
370
    25
100
AcDbCircle
 10
149.2744950415
 20
143.5153502342
 30
0.0
 40
5.500000000000028
  0
CIRCLE
  5
2E1
330
1F
100
AcDbEntity
  8
0
  6
Continuous
 62
     7
370
    25
100
AcDbCircle
 10
149.2744950415
 20
143.5153502342
 30
0.0
 40
8.0547478290882
  0
SPLINE
  5
2E2
330
1F
100
AcDbEntity
  8
0
  6
Continuous
 62
     7
370
    25
100
AcDbSpline
210
0.0
220
0.0
230
1.0
 70
     8
 71
     3
 72
    11
 73
     7
 74
     0
 42
0.00000001
 43
0.00000001
 40
0.0
 40
0.0
 40
0.0
 40
0.0
 40
0.2920574028183093
 40
0.5665622171831317
 40
0.8065682389915578
 40
1.0
 40
1.0
 40
1.0
 40
1.0
 10
141.1582894344096
 20
142.0355845283975
 30
0.0
 10
141.1899499707251
 20
141.8679839929739
 30
0.0
 10
141.2513682517857
 20
141.5428556790383
 30
0.0
 10
141.3312806110503
 20
141.1422520131721
 30
0.0
 10
141.3703794247778
 20
140.8844118171669
 30
0.0
 10
141.3549630618482
 20
140.8337663888853
 30
0.0
 10
141.3480831488641
 20
140.8111646804789
 30
0.0
  0
ARC
  5
2E3
330
1F
100
AcDbEntity
  8
0
  6
Continuous
 62
     7
370
    25
100
AcDbCircle
 10
149.2744950415
 20
143.5153502342
 30
0.0
 40
8.249999999999968
100
AcDbArc
 50
169.6671934996
 51
190.3328065004
  0
SPLINE
  5
2E4
330
1F
100
AcDbEntity
  8
0
  6
Continuous
 62
     7
370
    25
100
AcDbSpline
210
0.0
220
0.0
230
1.0
 70
     8
 71
     3
 72
    12
 73
     8
 74
     0
 42
0.00000001
 43
0.00000001
 40
0.0
 40
0.0
 40
0.0
 40
0.0
 40
0.1882084234719069
 40
0.3759134198095928
 40
0.5768476463044282
 40
0.8018243756979399
 40
1.0
 40
1.0
 40
1.0
 40
1.0
 10
141.3480831488674
 20
146.2195357878947
 30
0.0
 10
141.3549547402369
 20
146.1979325933821
 30
0.0
 10
141.3686795425789
 20
146.1547839894129
 30
0.0
 10
141.3428548426208
 20
145.9612441316303
 30
0.0
 10
141.2917750479791
 20
145.6864150735913
 30
0.0
 10
141.2245350463109
 20
145.3506749362219
 30
0.0
 10
141.1794187991907
 20
145.1085232362092
 30
0.0
 10
141.1582894344096
 20
144.9951159399795
 30
0.0
  0
ARC
  5
2E5
330
1F
100
AcDbEntity
  8
0
  6
Continuous
 62
     7
370
    25
100
AcDbCircle
 10
149.2744950415
 20
143.5153502342
 30
0.0
 40
8.986048245082015
100
AcDbArc
 50
200.7364869057
 51
159.2635130943
  0
LINE
  5
2E6
330
1F
100
AcDbEntity
  8
0
  6
Continuous
 62
     7
370
    25
100
AcDbLine
 10
141.3480831489
 20
140.8111646805
 30
0.0
 11
139.6184234972
 21
139.0815050288
 31
0.0
  0
LINE
  5
2E7
330
1F
100
AcDbEntity
  8
0
  6
Continuous
 62
     7
370
    25
100
AcDbLine
 10
139.6184234972
 20
147.9491954396
 30
0.0
 11
141.3480831489
 21
146.2195357879
 31
0.0
  0
ARC
  5
2E8
330
1F
100
AcDbEntity
  8
0
  6
Continuous
 62
     7
370
    25
100
AcDbCircle
 10
138.911316716
 20
147.2420886584
 30
0.0
 40
1.000000000000006
100
AcDbArc
 50
45.0
 51
68.7044833353
  0
ARC
  5
2E9
330
1F
100
AcDbEntity
  8
0
  6
Continuous
 62
     7
370
    25
100
AcDbCircle
 10
138.911316716
 20
139.78861181
 30
0.0
 40
1.000000000000008
100
AcDbArc
 50
291.2955166647
 51
315.0
  0
LINE
  5
2EA
330
1F
100
AcDbEntity
  8
0
  6
Continuous
 62
     7
370
    25
100
AcDbLine
 10
126.1238222967
 20
139.7272509186
 30
0.0
 11
126.1369000426
 21
139.7509547274
 31
0.0
  0
ARC
  5
2EB
330
1F
100
AcDbEntity
  8
0
  6
Continuous
 62
     7
370
    25
100
AcDbCircle
 10
94.2103665844
 20
142.5343566943
 30
0.0
 40
0.2634282047363198
100
AcDbArc
 50
154.8365581902
 51
203.8402151547
  0
ARC
  5
2EC
330
1F
100
AcDbEntity
  8
0
  6
Continuous
 62
     7
370
    25
100
AcDbCircle
 10
94.2102533816
 20
144.4963208556
 30
0.0
 40
0.2633160015119781
100
AcDbArc
 50
156.0282309537
 51
205.1694018196
  0
LINE
  5
2ED
330
1F
100
AcDbEntity
  8
0
  6
Continuous
 62
     7
370
    25
100
AcDbLine
 10
93.827281446
 20
143.6767958285
 30
0.0
 11
93.774495127
 21
143.6767958285
 31
0.0
  0
LINE
  5
2EE
330
1F
100
AcDbEntity
  8
0
  6
Continuous
 62
     7
370
    25
100
AcDbLine
 10
93.827281446
 20
143.3539046399
 30
0.0
 11
93.7744951092
 21
143.3539046399
 31
0.0
  0
LINE
  5
2EF
330
1F
100
AcDbEntity
  8
0
  6
Continuous
 62
     7
370
    25
100
AcDbLine
 10
139.6184234972
 20
139.0815050288
 30
0.0
 11
139.2744950415
 21
139.4254334845
 31
0.0
  0
LINE
  5
2F0
330
1F
100
AcDbEntity
  8
0
  6
Continuous
 62
     7
370
    25
100
AcDbLine
 10
139.2744950415
 20
140.1517901355
 30
0.0
 11
141.1582894344
 21
142.0355845284
 31
0.0
  0
LINE
  5
2F1
330
1F
100
AcDbEntity
  8
0
  6
Continuous
 62
     7
370
    25
100
AcDbLine
 10
141.1582894344
 20
144.99511594
 30
0.0
 11
139.2744950415
 21
146.8789103329
 31
0.0
  0
LINE
  5
2F2
330
1F
100
AcDbEntity
  8
0
  6
Continuous
 62
     7
370
    25
100
AcDbLine
 10
139.6184234972
 20
147.9491954396
 30
0.0
 11
139.2744950415
 21
147.6052669839
 31
0.0
  0
INSERT
  5
2FE
330
1F
100
AcDbEntity
  8
0
  6
Continuous
 62
     7
370
    18
100
AcDbBlockReference
  2
SW_CENTERMARKSYMBOL_1
 10
149.2744950415
 20
143.5153502342
 30
0.0
  0
ENDSEC
  0
SECTION
  2
OBJECTS
  0
DICTIONARY
  5
C
330
0
100
AcDbDictionary
281
     1
  3
ACAD_GROUP
350
D
  3
ACAD_LAYOUT
350
1A
  3
ACAD_MLINESTYLE
350
17
  3
ACAD_PLOTSETTINGS
350
19
  3
ACAD_PLOTSTYLENAME
350
E
  3
ACAD_SCALELIST
350
47
  3
DWGPROPS
350
2FF
  0
DICTIONARY
  5
D
102
{ACAD_REACTORS
330
C
102
}
330
C
100
AcDbDictionary
281
     1
  0
DICTIONARY
  5
1A
102
{ACAD_REACTORS
330
C
102
}
330
C
100
AcDbDictionary
281
     1
  3
Layout1
350
1E
  3
Layout2
350
26
  3
Model
350
22
  0
DICTIONARY
  5
17
102
{ACAD_REACTORS
330
C
102
}
330
C
100
AcDbDictionary
281
     1
  3
Standard
350
18
  0
DICTIONARY
  5
19
102
{ACAD_REACTORS
330
C
102
}
330
C
100
AcDbDictionary
281
     1
  0
ACDBDICTIONARYWDFLT
  5
E
102
{ACAD_REACTORS
330
C
102
}
330
C
100
AcDbDictionary
281
     1
  3
Normal
350
F
100
AcDbDictionaryWithDefault
340
F
  0
DICTIONARY
  5
47
102
{ACAD_REACTORS
330
C
102
}
330
C
100
AcDbDictionary
281
     1
  3
A0
350
48
  3
A1
350
49
  3
A2
350
4A
  3
A3
350
4B
  3
A4
350
4C
  3
A5
350
4D
  3
A6
350
4E
  3
A7
350
4F
  3
A8
350
50
  3
A9
350
51
  3
B0
350
52
  3
B1
350
53
  3
B2
350
54
  3
B3
350
55
  3
B4
350
56
  3
B5
350
57
  3
B6
350
58
  0
XRECORD
  5
2FF
102
{ACAD_REACTORS
330
C
102
}
330
C
100
AcDbXrecord
280
     1
  1
DWGPROPS COOKIE
  2

  3

  4

  6

  7

  8
user28
  9

300
=
301
=
302
=
303
=
304
=
305
=
306
=
307
=
308
=
309
=
 40
0.0
 41
2460297.291934305
 42
2460297.291935382
  1

 90
        0
  0
LAYOUT
  5
1E
102
{ACAD_REACTORS
330
1A
102
}
330
1A
100
AcDbPlotSettings
  1

  2
none_device
  4

  6

 40
0.0
 41
0.0
 42
0.0
 43
0.0
 44
0.0
 45
0.0
 46
0.0
 47
0.0
 48
0.0
 49
0.0
140
0.0
141
0.0
142
1.0
143
1.0
 70
   688
 72
     1
 73
     0
 74
     5
  7

 75
    16
147
1.0
148
0.0
149
0.0
100
AcDbLayout
  1
Layout1
 70
     1
 71
     1
 10
0.0
 20
0.0
 11
420.0
 21
297.0
 12
0.0
 22
0.0
 32
0.0
 14
1.0000000000E+20
 24
1.0000000000E+20
 34
1.0000000000E+20
 15
-1.0000000000E+20
 25
-1.0000000000E+20
 35
-1.0000000000E+20
146
0.0
 13
0.0
 23
0.0
 33
0.0
 16
1.0
 26
0.0
 36
0.0
 17
0.0
 27
1.0
 37
0.0
 76
     0
330
1B
  0
LAYOUT
  5
26
102
{ACAD_REACTORS
330
1A
102
}
330
1A
100
AcDbPlotSettings
  1

  2
none_device
  4

  6

 40
0.0
 41
0.0
 42
0.0
 43
0.0
 44
0.0
 45
0.0
 46
0.0
 47
0.0
 48
0.0
 49
0.0
140
0.0
141
0.0
142
1.0
143
1.0
 70
   688
 72
     1
 73
     0
 74
     5
  7

 75
    16
147
1.0
148
0.0
149
0.0
100
AcDbLayout
  1
Layout2
 70
     1
 71
     2
 10
0.0
 20
0.0
 11
0.0
 21
0.0
 12
0.0
 22
0.0
 32
0.0
 14
0.0
 24
0.0
 34
0.0
 15
0.0
 25
0.0
 35
0.0
146
0.0
 13
0.0
 23
0.0
 33
0.0
 16
1.0
 26
0.0
 36
0.0
 17
0.0
 27
1.0
 37
0.0
 76
     0
330
23
  0
LAYOUT
  5
22
102
{ACAD_REACTORS
330
1A
102
}
330
1A
100
AcDbPlotSettings
  1

  2
none_device
  4
Letter_(8.50_x_11.00_Inches)
  6

 40
6.35
 41
6.35
 42
6.35000508
 43
6.35000508
 44
215.9
 45
279.4
 46
0.0
 47
0.0
 48
0.0
 49
0.0
140
0.0
141
0.0
142
1.0
143
1.0
 70
  1712
 72
     1
 73
     0
 74
     0
  7

 75
     0
147
1.0
148
0.0
149
0.0
100
AcDbLayout
  1
Model
 70
     1
 71
     0
 10
0.0
 20
0.0
 11
431.8
 21
279.4
 12
0.0
 22
0.0
 32
0.0
 14
0.0
 24
0.0
 34
0.0
 15
431.8
 25
279.4
 35
0.0
146
0.0
 13
0.0
 23
0.0
 33
0.0
 16
1.0
 26
0.0
 36
0.0
 17
0.0
 27
1.0
 37
0.0
 76
     0
330
1F
331
29
  0
MLINESTYLE
  5
18
102
{ACAD_REACTORS
330
17
102
}
330
17
100
AcDbMlineStyle
  2
Standard
 70
     0
  3

 62
   256
 51
90.0
 52
90.0
 71
     2
 49
0.5
 62
   256
  6
BYLAYER
 49
-0.5
 62
   256
  6
BYLAYER
  0
ACDBPLACEHOLDER
  5
F
102
{ACAD_REACTORS
330
E
102
}
330
E
  0
SCALE
  5
48
102
{ACAD_REACTORS
330
47
102
}
330
47
100
AcDbScale
 70
     0
300
1:1
140
1.0
141
1.0
290
     1
  0
SCALE
  5
49
102
{ACAD_REACTORS
330
47
102
}
330
47
100
AcDbScale
 70
     0
300
1:2
140
1.0
141
2.0
290
     0
  0
SCALE
  5
4A
102
{ACAD_REACTORS
330
47
102
}
330
47
100
AcDbScale
 70
     0
300
1:4
140
1.0
141
4.0
290
     0
  0
SCALE
  5
4B
102
{ACAD_REACTORS
330
47
102
}
330
47
100
AcDbScale
 70
     0
300
1:5
140
1.0
141
5.0
290
     0
  0
SCALE
  5
4C
102
{ACAD_REACTORS
330
47
102
}
330
47
100
AcDbScale
 70
     0
300
1:8
140
1.0
141
8.0
290
     0
  0
SCALE
  5
4D
102
{ACAD_REACTORS
330
47
102
}
330
47
100
AcDbScale
 70
     0
300
1:10
140
1.0
141
10.0
290
     0
  0
SCALE
  5
4E
102
{ACAD_REACTORS
330
47
102
}
330
47
100
AcDbScale
 70
     0
300
1:16
140
1.0
141
16.0
290
     0
  0
SCALE
  5
4F
102
{ACAD_REACTORS
330
47
102
}
330
47
100
AcDbScale
 70
     0
300
1:20
140
1.0
141
20.0
290
     0
  0
SCALE
  5
50
102
{ACAD_REACTORS
330
47
102
}
330
47
100
AcDbScale
 70
     0
300
1:30
140
1.0
141
30.0
290
     0
  0
SCALE
  5
51
102
{ACAD_REACTORS
330
47
102
}
330
47
100
AcDbScale
 70
     0
300
1:40
140
1.0
141
40.0
290
     0
  0
SCALE
  5
52
102
{ACAD_REACTORS
330
47
102
}
330
47
100
AcDbScale
 70
     0
300
1:50
140
1.0
141
50.0
290
     0
  0
SCALE
  5
53
102
{ACAD_REACTORS
330
47
102
}
330
47
100
AcDbScale
 70
     0
300
1:100
140
1.0
141
100.0
290
     0
  0
SCALE
  5
54
102
{ACAD_REACTORS
330
47
102
}
330
47
100
AcDbScale
 70
     0
300
2:1
140
2.0
141
1.0
290
     0
  0
SCALE
  5
55
102
{ACAD_REACTORS
330
47
102
}
330
47
100
AcDbScale
 70
     0
300
4:1
140
4.0
141
1.0
290
     0
  0
SCALE
  5
56
102
{ACAD_REACTORS
330
47
102
}
330
47
100
AcDbScale
 70
     0
300
8:1
140
8.0
141
1.0
290
     0
  0
SCALE
  5
57
102
{ACAD_REACTORS
330
47
102
}
330
47
100
AcDbScale
 70
     0
300
10:1
140
10.0
141
1.0
290
     0
  0
SCALE
  5
58
102
{ACAD_REACTORS
330
47
102
}
330
47
100
AcDbScale
 70
     0
300
100:1
140
100.0
141
1.0
290
     0
  0
ENDSEC
  0
EOF
