  0
SECTION
  2
HEADER
  9
$ACADVER
  1
AC1015
  9
$ACADMAINTVER
 70
     6
  9
$DWGCODEPAGE
  3
DOS932
  9
$INSBASE
 10
0.0
 20
0.0
 30
0.0
  9
$EXTMIN
 10
0.0
 20
0.0
 30
0.0
  9
$EXTMAX
 10
431.8
 20
279.4
 30
0.0
  9
$LIMMIN
 10
0.0
 20
0.0
  9
$LIMMAX
 10
431.8
 20
279.4
  9
$ORTHOMODE
 70
     0
  9
$REGENMODE
 70
     1
  9
$FILLMODE
 70
     1
  9
$QTEXTMODE
 70
     0
  9
$MIRRTEXT
 70
     1
  9
$LTSCALE
 40
1.0
  9
$ATTMODE
 70
     1
  9
$TEXTSIZE
 40
3.5
  9
$TRACEWID
 40
1.0
  9
$TEXTSTYLE
  7
Standard
  9
$CLAYER
  8
0
  9
$CELTYPE
  6
ByLayer
  9
$CECOLOR
 62
   256
  9
$CELTSCALE
 40
1.0
  9
$DISPSILH
 70
     0
  9
$DIMSCALE
 40
1.0
  9
$DIMASZ
 40
3.556
  9
$DIMEXO
 40
1.0
  9
$DIMDLI
 40
3.75
  9
$DIMRND
 40
0.0
  9
$DIMDLE
 40
0.0
  9
$DIMEXE
 40
1.0
  9
$DIMTP
 40
0.0
  9
$DIMTM
 40
0.0
  9
$DIMTXT
 40
3.5
  9
$DIMCEN
 40
2.5
  9
$DIMTSZ
 40
0.0
  9
$DIMTOL
 70
     0
  9
$DIMLIM
 70
     0
  9
$DIMTIH
 70
     1
  9
$DIMTOH
 70
     1
  9
$DIMSE1
 70
     0
  9
$DIMSE2
 70
     0
  9
$DIMTAD
 70
     1
  9
$DIMZIN
 70
     0
  9
$DIMBLK
  1

  9
$DIMASO
 70
     1
  9
$DIMSHO
 70
     1
  9
$DIMPOST
  1

  9
$DIMAPOST
  1

  9
$DIMALT
 70
     0
  9
$DIMALTD
 70
     3
  9
$DIMALTF
 40
0.0393700787
  9
$DIMLFAC
 40
1.0
  9
$DIMTOFL
 70
     1
  9
$DIMTVP
 40
0.0
  9
$DIMTIX
 70
     0
  9
$DIMSOXD
 70
     0
  9
$DIMSAH
 70
     0
  9
$DIMBLK1
  1

  9
$DIMBLK2
  1

  9
$DIMSTYLE
  2
ISO-25
  9
$DIMCLRD
 70
     0
  9
$DIMCLRE
 70
     0
  9
$DIMCLRT
 70
     0
  9
$DIMTFAC
 40
1.0
  9
$DIMGAP
 40
1.524
  9
$DIMJUST
 70
     0
  9
$DIMSD1
 70
     0
  9
$DIMSD2
 70
     0
  9
$DIMTOLJ
 70
     0
  9
$DIMTZIN
 70
     0
  9
$DIMALTZ
 70
     0
  9
$DIMALTTZ
 70
     0
  9
$DIMUPT
 70
     0
  9
$DIMDEC
 70
     3
  9
$DIMTDEC
 70
     3
  9
$DIMALTU
 70
     2
  9
$DIMALTTD
 70
     3
  9
$DIMTXSTY
  7
Standard
  9
$DIMAUNIT
 70
     0
  9
$DIMADEC
 70
     2
  9
$DIMALTRND
 40
0.0
  9
$DIMAZIN
 70
     0
  9
$DIMDSEP
 70
    44
  9
$DIMATFIT
 70
     3
  9
$DIMFRAC
 70
     0
  9
$DIMLDRBLK
  1

  9
$DIMLUNIT
 70
     2
  9
$DIMLWD
 70
    -2
  9
$DIMLWE
 70
    -2
  9
$DIMTMOVE
 70
     0
  9
$LUNITS
 70
     2
  9
$LUPREC
 70
     3
  9
$SKETCHINC
 40
1.0
  9
$FILLETRAD
 40
0.0
  9
$AUNITS
 70
     0
  9
$AUPREC
 70
     2
  9
$MENU
  1
.
  9
$ELEVATION
 40
0.0
  9
$PELEVATION
 40
0.0
  9
$THICKNESS
 40
0.0
  9
$LIMCHECK
 70
     0
  9
$CHAMFERA
 40
0.0
  9
$CHAMFERB
 40
0.0
  9
$CHAMFERC
 40
0.0
  9
$CHAMFERD
 40
0.0
  9
$SKPOLY
 70
     0
  9
$TDCREATE
 40
2460297.665364398
  9
$TDUCREATE
 40
2460297.290364398
  9
$TDUPDATE
 40
2460297.665365451
  9
$TDUUPDATE
 40
2460297.290365451
  9
$TDINDWG
 40
0.0000000116
  9
$TDUSRTIMER
 40
0.0000000116
  9
$USRTIMER
 70
     1
  9
$ANGBASE
 50
0.0
  9
$ANGDIR
 70
     0
  9
$PDMODE
 70
     0
  9
$PDSIZE
 40
-1.0
  9
$PLINEWID
 40
0.0
  9
$SPLFRAME
 70
     0
  9
$SPLINETYPE
 70
     6
  9
$SPLINESEGS
 70
     8
  9
$HANDSEED
  5
2DC
  9
$SURFTAB1
 70
     6
  9
$SURFTAB2
 70
     6
  9
$SURFTYPE
 70
     6
  9
$SURFU
 70
     6
  9
$SURFV
 70
     6
  9
$UCSBASE
  2

  9
$UCSNAME
  2

  9
$UCSORG
 10
0.0
 20
0.0
 30
0.0
  9
$UCSXDIR
 10
1.0
 20
0.0
 30
0.0
  9
$UCSYDIR
 10
0.0
 20
1.0
 30
0.0
  9
$UCSORTHOREF
  2

  9
$UCSORTHOVIEW
 70
     0
  9
$UCSORGTOP
 10
0.0
 20
0.0
 30
0.0
  9
$UCSORGBOTTOM
 10
0.0
 20
0.0
 30
0.0
  9
$UCSORGLEFT
 10
0.0
 20
0.0
 30
0.0
  9
$UCSORGRIGHT
 10
0.0
 20
0.0
 30
0.0
  9
$UCSORGFRONT
 10
0.0
 20
0.0
 30
0.0
  9
$UCSORGBACK
 10
0.0
 20
0.0
 30
0.0
  9
$PUCSBASE
  2

  9
$PUCSNAME
  2

  9
$PUCSORG
 10
0.0
 20
0.0
 30
0.0
  9
$PUCSXDIR
 10
1.0
 20
0.0
 30
0.0
  9
$PUCSYDIR
 10
0.0
 20
1.0
 30
0.0
  9
$PUCSORTHOREF
  2

  9
$PUCSORTHOVIEW
 70
     0
  9
$PUCSORGTOP
 10
0.0
 20
0.0
 30
0.0
  9
$PUCSORGBOTTOM
 10
0.0
 20
0.0
 30
0.0
  9
$PUCSORGLEFT
 10
0.0
 20
0.0
 30
0.0
  9
$PUCSORGRIGHT
 10
0.0
 20
0.0
 30
0.0
  9
$PUCSORGFRONT
 10
0.0
 20
0.0
 30
0.0
  9
$PUCSORGBACK
 10
0.0
 20
0.0
 30
0.0
  9
$USERI1
 70
     0
  9
$USERI2
 70
     0
  9
$USERI3
 70
     0
  9
$USERI4
 70
     0
  9
$USERI5
 70
     0
  9
$USERR1
 40
0.0
  9
$USERR2
 40
0.0
  9
$USERR3
 40
0.0
  9
$USERR4
 40
0.0
  9
$USERR5
 40
0.0
  9
$WORLDVIEW
 70
     1
  9
$SHADEDGE
 70
     3
  9
$SHADEDIF
 70
    70
  9
$TILEMODE
 70
     1
  9
$MAXACTVP
 70
    64
  9
$PINSBASE
 10
0.0
 20
0.0
 30
0.0
  9
$PLIMCHECK
 70
     0
  9
$PEXTMIN
 10
1.0000000000E+20
 20
1.0000000000E+20
 30
1.0000000000E+20
  9
$PEXTMAX
 10
-1.0000000000E+20
 20
-1.0000000000E+20
 30
-1.0000000000E+20
  9
$PLIMMIN
 10
0.0
 20
0.0
  9
$PLIMMAX
 10
420.0
 20
297.0
  9
$UNITMODE
 70
     0
  9
$VISRETAIN
 70
     1
  9
$PLINEGEN
 70
     0
  9
$PSLTSCALE
 70
     1
  9
$TREEDEPTH
 70
  3020
  9
$CMLSTYLE
  2
Standard
  9
$CMLJUST
 70
     0
  9
$CMLSCALE
 40
20.0
  9
$PROXYGRAPHICS
 70
     1
  9
$MEASUREMENT
 70
     1
  9
$CELWEIGHT
370
    -1
  9
$ENDCAPS
280
     0
  9
$JOINSTYLE
280
     0
  9
$LWDISPLAY
290
     1
  9
$INSUNITS
 70
     4
  9
$HYPERLINKBASE
  1

  9
$STYLESHEET
  1

  9
$XEDIT
290
     1
  9
$CEPSNTYPE
380
     0
  9
$PSTYLEMODE
290
     1
  9
$FINGERPRINTGUID
  2
{2b5b3ca6-313d-4e2b-8e6e-47162dc61202}
  9
$VERSIONGUID
  2
{FAEB1C32-E019-11D5-929B-00C0DF256EC4}
  9
$EXTNAMES
290
     1
  9
$PSVPSCALE
 40
0.0
  9
$OLESTARTUP
290
     0
  0
ENDSEC
  0
SECTION
  2
CLASSES
  0
CLASS
  1
ACDBDICTIONARYWDFLT
  2
AcDbDictionaryWithDefault
  3
ObjectDBX Classes
 90
        0
280
     0
281
     0
  0
CLASS
  1
VISUALSTYLE
  2
AcDbVisualStyle
  3
ObjectDBX Classes
 90
     4095
280
     0
281
     0
  0
CLASS
  1
MATERIAL
  2
AcDbMaterial
  3
ObjectDBX Classes
 90
     1153
280
     0
281
     0
  0
CLASS
  1
SCALE
  2
AcDbScale
  3
ObjectDBX Classes
 90
     1153
280
     0
281
     0
  0
CLASS
  1
TABLESTYLE
  2
AcDbTableStyle
  3
ObjectDBX Classes
 90
     4095
280
     0
281
     0
  0
CLASS
  1
MLEADERSTYLE
  2
AcDbMLeaderStyle
  3
ACDB_MLEADERSTYLE_CLASS
 90
     4095
280
     0
281
     0
  0
CLASS
  1
SUN
  2
AcDbSun
  3
SCENEOE
 90
     1153
280
     0
281
     0
  0
CLASS
  1
ACDBPLACEHOLDER
  2
AcDbPlaceHolder
  3
ObjectDBX Classes
 90
        0
280
     0
281
     0
  0
CLASS
  1
LAYOUT
  2
AcDbLayout
  3
ObjectDBX Classes
 90
        0
280
     0
281
     0
  0
ENDSEC
  0
SECTION
  2
TABLES
  0
TABLE
  2
VPORT
  5
8
330
0
100
AcDbSymbolTable
 70
     1
  0
VPORT
  5
29
330
8
100
AcDbSymbolTableRecord
100
AcDbViewportTableRecord
  2
*Active
 70
     0
 10
0.0
 20
0.0
 11
1.0
 21
1.0
 12
215.9
 22
139.7
 13
0.0
 23
0.0
 14
10.0
 24
10.0
 15
10.0
 25
10.0
 16
0.0
 26
0.0
 36
1.0
 17
0.0
 27
0.0
 37
0.0
 40
279.4
 41
1.5454545455
 42
50.0
 43
0.0
 44
0.0
 50
0.0
 51
0.0
 71
     0
 72
  2000
 73
     1
 74
     3
 75
     0
 76
     0
 77
     0
 78
     0
281
     0
 65
     1
110
0.0
120
0.0
130
0.0
111
1.0
121
0.0
131
0.0
112
0.0
122
1.0
132
0.0
 79
     0
146
0.0
  0
ENDTAB
  0
TABLE
  2
LTYPE
  5
5
330
0
100
AcDbSymbolTable
 70
     6
  0
LTYPE
  5
14
330
5
100
AcDbSymbolTableRecord
100
AcDbLinetypeTableRecord
  2
ByBlock
 70
     0
  3

 72
    65
 73
     0
 40
0.0
  0
LTYPE
  5
15
330
5
100
AcDbSymbolTableRecord
100
AcDbLinetypeTableRecord
  2
ByLayer
 70
     0
  3

 72
    65
 73
     0
 40
0.0
  0
LTYPE
  5
16
330
5
100
AcDbSymbolTableRecord
100
AcDbLinetypeTableRecord
  2
Continuous
 70
     0
  3
Solid line
 72
    65
 73
     0
 40
0.0
  0
LTYPE
  5
5E
330
5
100
AcDbSymbolTableRecord
100
AcDbLinetypeTableRecord
  2
HIDDEN
 70
     0
  3
Hidden __ __ __ __ __ __ __ __ __ __ __ __ __ __
 72
    65
 73
     2
 40
1.905
 49
1.27
 74
     0
 49
-0.635
 74
     0
  0
LTYPE
  5
5F
330
5
100
AcDbSymbolTableRecord
100
AcDbLinetypeTableRecord
  2
PHANTOM
 70
     0
  3
Phantom ______  __  __  ______  __  __  ______
 72
    65
 73
     6
 40
12.7
 49
6.35
 74
     0
 49
-1.27
 74
     0
 49
1.27
 74
     0
 49
-1.27
 74
     0
 49
1.27
 74
     0
 49
-1.27
 74
     0
  0
LTYPE
  5
60
330
5
100
AcDbSymbolTableRecord
100
AcDbLinetypeTableRecord
  2
CENTER
 70
     0
  3
Center ____ _ ____ _ ____ _ ____ _ ____ _ ____
 72
    65
 73
     4
 40
10.16
 49
6.35
 74
     0
 49
-1.27
 74
     0
 49
1.27
 74
     0
 49
-1.27
 74
     0
  0
LTYPE
  5
61
330
5
100
AcDbSymbolTableRecord
100
AcDbLinetypeTableRecord
  2
CENTERX2
 70
     0
  3
Center (2x) ________  __  ________  __  _____
 72
    65
 73
     4
 40
20.32
 49
12.7
 74
     0
 49
-2.54
 74
     0
 49
2.54
 74
     0
 49
-2.54
 74
     0
  0
LTYPE
  5
62
330
5
100
AcDbSymbolTableRecord
100
AcDbLinetypeTableRecord
  2
DOT2
 70
     0
  3
Dot (.5x) ........................................
 72
    65
 73
     2
 40
0.635
 49
0.0
 74
     0
 49
-0.635
 74
     0
  0
ENDTAB
  0
TABLE
  2
LAYER
  5
2
330
0
100
AcDbSymbolTable
 70
     1
  0
LAYER
  5
10
330
2
100
AcDbSymbolTableRecord
100
AcDbLayerTableRecord
  2
0
 70
     0
 62
     7
  6
Continuous
370
    -3
390
F
  0
ENDTAB
  0
TABLE
  2
STYLE
  5
3
330
0
100
AcDbSymbolTable
 70
     2
  0
STYLE
  5
11
330
3
100
AcDbSymbolTableRecord
100
AcDbTextStyleTableRecord
  2
Standard
 70
     0
 40
0.0
 41
1.0
 50
0.0
 71
     0
 42
3.5
  3
txt
  4
bigfont
  0
STYLE
  5
63
330
3
100
AcDbSymbolTableRecord
100
AcDbTextStyleTableRecord
  2
SLDTEXTSTYLE0
 70
     0
 40
0.0
 41
0.7
 50
0.0
 71
     0
 42
3.5
  3
TXT
  4
bigfont
  0
ENDTAB
  0
TABLE
  2
VIEW
  5
6
330
0
100
AcDbSymbolTable
 70
     0
  0
ENDTAB
  0
TABLE
  2
UCS
  5
7
330
0
100
AcDbSymbolTable
 70
     0
  0
ENDTAB
  0
TABLE
  2
APPID
  5
9
330
0
100
AcDbSymbolTable
 70
     1
  0
APPID
  5
12
330
9
100
AcDbSymbolTableRecord
100
AcDbRegAppTableRecord
  2
ACAD
 70
     0
  0
ENDTAB
  0
TABLE
  2
DIMSTYLE
  5
A
330
0
100
AcDbSymbolTable
 70
     1
100
AcDbDimStyleTable
  0
DIMSTYLE
105
27
330
A
100
AcDbSymbolTableRecord
100
AcDbDimStyleTableRecord
  2
ISO-25
 70
     0
 41
2.5
 42
0.625
 43
3.75
 44
1.25
 73
     0
 74
     0
 77
     1
 78
     8
140
2.5
141
2.5
143
0.0393700787
147
0.625
171
     3
172
     1
178
     0
271
     2
272
     2
274
     3
278
    44
283
     0
284
     8
340
11
  0
ENDTAB
  0
TABLE
  2
BLOCK_RECORD
  5
1
330
0
100
AcDbSymbolTable
 70
     3
  0
BLOCK_RECORD
  5
1F
330
1
100
AcDbSymbolTableRecord
100
AcDbBlockTableRecord
  2
*Model_Space
340
22
  0
BLOCK_RECORD
  5
1B
330
1
100
AcDbSymbolTableRecord
100
AcDbBlockTableRecord
  2
*Paper_Space
340
1E
  0
BLOCK_RECORD
  5
23
330
1
100
AcDbSymbolTableRecord
100
AcDbBlockTableRecord
  2
*Paper_Space0
340
26
  0
BLOCK_RECORD
  5
1EF
330
1
100
AcDbSymbolTableRecord
100
AcDbBlockTableRecord
  2
SW_CENTERMARKSYMBOL_0
340
0
102
{BLKREFS
331
1FA
102
}
  0
BLOCK_RECORD
  5
2CF
330
1
100
AcDbSymbolTableRecord
100
AcDbBlockTableRecord
  2
SW_CENTERMARKSYMBOL_1
340
0
102
{BLKREFS
331
2DA
102
}
  0
ENDTAB
  0
ENDSEC
  0
SECTION
  2
BLOCKS
  0
BLOCK
  5
20
330
1F
100
AcDbEntity
  8
0
100
AcDbBlockBegin
  2
*Model_Space
 70
     0
 10
0.0
 20
0.0
 30
0.0
  3
*Model_Space
  1

  0
ENDBLK
  5
21
330
1F
100
AcDbEntity
  8
0
100
AcDbBlockEnd
  0
BLOCK
  5
1C
330
1B
100
AcDbEntity
 67
     1
  8
0
100
AcDbBlockBegin
  2
*Paper_Space
 70
     0
 10
0.0
 20
0.0
 30
0.0
  3
*Paper_Space
  1

  0
ENDBLK
  5
1D
330
1B
100
AcDbEntity
 67
     1
  8
0
100
AcDbBlockEnd
  0
BLOCK
  5
24
330
23
100
AcDbEntity
  8
0
100
AcDbBlockBegin
  2
*Paper_Space0
 70
     0
 10
0.0
 20
0.0
 30
0.0
  3
*Paper_Space0
  1

  0
ENDBLK
  5
25
330
23
100
AcDbEntity
  8
0
100
AcDbBlockEnd
  0
BLOCK
  5
1F0
330
1EF
100
AcDbEntity
  8
0
100
AcDbBlockBegin
  2
SW_CENTERMARKSYMBOL_0
 70
     0
 10
0.0
 20
0.0
 30
0.0
  3
SW_CENTERMARKSYMBOL_0
  1

  0
LINE
  5
1F2
330
1EF
100
AcDbEntity
  8
0
  6
Continuous
 62
     0
370
    18
100
AcDbLine
 10
0.0
 20
0.0
 30
0.0
 11
0.0
 21
2.5
 31
0.0
  0
LINE
  5
1F3
330
1EF
100
AcDbEntity
  8
0
  6
Continuous
 62
     0
370
    18
100
AcDbLine
 10
0.0
 20
0.0
 30
0.0
 11
-2.5
 21
0.0
 31
0.0
  0
LINE
  5
1F4
330
1EF
100
AcDbEntity
  8
0
  6
Continuous
 62
     0
370
    18
100
AcDbLine
 10
0.0
 20
0.0
 30
0.0
 11
0.0
 21
-2.5
 31
0.0
  0
LINE
  5
1F5
330
1EF
100
AcDbEntity
  8
0
  6
Continuous
 62
     0
370
    18
100
AcDbLine
 10
0.0
 20
0.0
 30
0.0
 11
2.5
 21
0.0
 31
0.0
  0
LINE
  5
1F6
330
1EF
100
AcDbEntity
  8
0
  6
Continuous
 62
     0
370
    18
100
AcDbLine
 10
0.0
 20
5.0
 30
0.0
 11
0.0
 21
42.816287573
 31
0.0
  0
LINE
  5
1F7
330
1EF
100
AcDbEntity
  8
0
  6
Continuous
 62
     0
370
    18
100
AcDbLine
 10
-5.0
 20
0.0
 30
0.0
 11
-16.5
 21
0.0
 31
0.0
  0
LINE
  5
1F8
330
1EF
100
AcDbEntity
  8
0
  6
Continuous
 62
     0
370
    18
100
AcDbLine
 10
0.0
 20
-5.0
 30
0.0
 11
0.0
 21
-16.5
 31
0.0
  0
LINE
  5
1F9
330
1EF
100
AcDbEntity
  8
0
  6
Continuous
 62
     0
370
    18
100
AcDbLine
 10
5.0
 20
0.0
 30
0.0
 11
16.5
 21
0.0
 31
0.0
  0
ENDBLK
  5
1F1
330
1EF
100
AcDbEntity
  8
0
100
AcDbBlockEnd
  0
BLOCK
  5
2D0
330
2CF
100
AcDbEntity
  8
0
100
AcDbBlockBegin
  2
SW_CENTERMARKSYMBOL_1
 70
     0
 10
0.0
 20
0.0
 30
0.0
  3
SW_CENTERMARKSYMBOL_1
  1

  0
LINE
  5
2D2
330
2CF
100
AcDbEntity
  8
0
  6
Continuous
 62
     0
370
    18
100
AcDbLine
 10
0.0
 20
0.0
 30
0.0
 11
0.0
 21
2.5
 31
0.0
  0
LINE
  5
2D3
330
2CF
100
AcDbEntity
  8
0
  6
Continuous
 62
     0
370
    18
100
AcDbLine
 10
0.0
 20
0.0
 30
0.0
 11
-2.5
 21
0.0
 31
0.0
  0
LINE
  5
2D4
330
2CF
100
AcDbEntity
  8
0
  6
Continuous
 62
     0
370
    18
100
AcDbLine
 10
0.0
 20
0.0
 30
0.0
 11
0.0
 21
-2.5
 31
0.0
  0
LINE
  5
2D5
330
2CF
100
AcDbEntity
  8
0
  6
Continuous
 62
     0
370
    18
100
AcDbLine
 10
0.0
 20
0.0
 30
0.0
 11
2.5
 21
0.0
 31
0.0
  0
LINE
  5
2D6
330
2CF
100
AcDbEntity
  8
0
  6
Continuous
 62
     0
370
    18
100
AcDbLine
 10
0.0
 20
5.0
 30
0.0
 11
0.0
 21
16.2261516762
 31
0.0
  0
LINE
  5
2D7
330
2CF
100
AcDbEntity
  8
0
  6
Continuous
 62
     0
370
    18
100
AcDbLine
 10
-5.0
 20
0.0
 30
0.0
 11
-56.2423636639
 21
0.0
 31
0.0
  0
LINE
  5
2D8
330
2CF
100
AcDbEntity
  8
0
  6
Continuous
 62
     0
370
    18
100
AcDbLine
 10
0.0
 20
-5.0
 30
0.0
 11
0.0
 21
-15.7599281998
 31
0.0
  0
LINE
  5
2D9
330
2CF
100
AcDbEntity
  8
0
  6
Continuous
 62
     0
370
    18
100
AcDbLine
 10
5.0
 20
0.0
 30
0.0
 11
28.6437713916
 21
0.0
 31
0.0
  0
ENDBLK
  5
2D1
330
2CF
100
AcDbEntity
  8
0
100
AcDbBlockEnd
  0
ENDSEC
  0
SECTION
  2
ENTITIES
  0
MTEXT
  5
64
330
1F
100
AcDbEntity
  8
0
  6
Continuous
 62
     7
370
     0
100
AcDbMText
 10
167.0049820104
 20
115.7363938955
 30
0.0
 40
4.2333333333
 41
0.0
 71
     1
 72
     1
  1
エースボールZERO　BW-0044
  7
SLDTEXTSTYLE0
 73
     1
 44
1.0
  0
LINE
  5
65
330
1F
100
AcDbEntity
  8
0
  6
Continuous
 62
     7
370
    25
100
AcDbLine
 10
133.5363875445
 20
69.6698670757
 30
0.0
 11
130.2863875445
 21
69.6698670757
 31
0.0
  0
LINE
  5
66
330
1F
100
AcDbEntity
  8
0
  6
Continuous
 62
     7
370
    25
100
AcDbLine
 10
130.2863875445
 20
42.6698670757
 30
0.0
 11
133.5363875445
 21
42.6698670757
 31
0.0
  0
LINE
  5
67
330
1F
100
AcDbEntity
  8
0
  6
Continuous
 62
     7
370
    25
100
AcDbLine
 10
130.2863875445
 20
69.6698670757
 30
0.0
 11
130.0363875445
 21
69.4198670757
 31
0.0
  0
LINE
  5
68
330
1F
100
AcDbEntity
  8
0
  6
Continuous
 62
     7
370
    25
100
AcDbLine
 10
130.0363875445
 20
42.9198670757
 30
0.0
 11
130.2863875445
 21
42.6698670757
 31
0.0
  0
LINE
  5
69
330
1F
100
AcDbEntity
  8
0
  6
Continuous
 62
     7
370
    25
100
AcDbLine
 10
117.0363875445
 20
69.1698670757
 30
0.0
 11
116.5363875445
 21
68.6698670757
 31
0.0
  0
LINE
  5
6A
330
1F
100
AcDbEntity
  8
0
  6
Continuous
 62
     7
370
    25
100
AcDbLine
 10
116.5363875445
 20
43.6698670757
 30
0.0
 11
117.0363875445
 21
43.1698670757
 31
0.0
  0
LINE
  5
6B
330
1F
100
AcDbEntity
  8
0
  6
Continuous
 62
     7
370
    25
100
AcDbLine
 10
130.0363875445
 20
69.1698670757
 30
0.0
 11
117.0363875445
 21
69.1698670757
 31
0.0
  0
LINE
  5
6C
330
1F
100
AcDbEntity
  8
0
  6
Continuous
 62
     7
370
    25
100
AcDbLine
 10
117.0363875445
 20
43.1698670757
 30
0.0
 11
130.0363875445
 21
43.1698670757
 31
0.0
  0
LINE
  5
6D
330
1F
100
AcDbEntity
  8
0
  6
Continuous
 62
     7
370
    25
100
AcDbLine
 10
162.0363875445
 20
69.6698670757
 30
0.0
 11
159.5363875445
 21
69.6698670757
 31
0.0
  0
LINE
  5
6E
330
1F
100
AcDbEntity
  8
0
  6
Continuous
 62
     7
370
    25
100
AcDbLine
 10
159.5363875445
 20
42.6698670757
 30
0.0
 11
162.0363875445
 21
42.6698670757
 31
0.0
  0
LINE
  5
6F
330
1F
100
AcDbEntity
  8
0
  6
Continuous
 62
     7
370
    25
100
AcDbLine
 10
173.5363875445
 20
43.1698670757
 30
0.0
 11
174.0363875445
 21
43.6698670757
 31
0.0
  0
LINE
  5
70
330
1F
100
AcDbEntity
  8
0
  6
Continuous
 62
     7
370
    25
100
AcDbLine
 10
174.0363875445
 20
68.6698670757
 30
0.0
 11
173.5363875445
 21
69.1698670757
 31
0.0
  0
LINE
  5
71
330
1F
100
AcDbEntity
  8
0
  6
Continuous
 62
     7
370
    25
100
AcDbLine
 10
173.5363875445
 20
69.1698670757
 30
0.0
 11
162.0363875445
 21
69.1698670757
 31
0.0
  0
LINE
  5
72
330
1F
100
AcDbEntity
  8
0
  6
Continuous
 62
     7
370
    25
100
AcDbLine
 10
162.0363875445
 20
43.1698670757
 30
0.0
 11
173.5363875445
 21
43.1698670757
 31
0.0
  0
ARC
  5
73
330
1F
100
AcDbEntity
  8
0
  6
Continuous
 62
     7
370
    25
100
AcDbCircle
 10
155.2863875445
 20
70.6698670757
 30
0.0
 40
0.5
100
AcDbArc
 50
180.0
 51
270.0
  0
ARC
  5
74
330
1F
100
AcDbEntity
  8
0
  6
Continuous
 62
     7
370
    25
100
AcDbCircle
 10
137.7863875445
 20
70.6698670757
 30
0.0
 40
0.5
100
AcDbArc
 50
270.0
 51
0.0
  0
LINE
  5
75
330
1F
100
AcDbEntity
  8
0
  6
Continuous
 62
     7
370
    25
100
AcDbLine
 10
154.7863875445
 20
70.6698670757
 30
0.0
 11
154.7863875445
 21
75.6698670757
 31
0.0
  0
LINE
  5
76
330
1F
100
AcDbEntity
  8
0
  6
Continuous
 62
     7
370
    25
100
AcDbLine
 10
138.2863875445
 20
75.6698670757
 30
0.0
 11
138.2863875445
 21
70.6698670757
 31
0.0
  0
LINE
  5
77
330
1F
100
AcDbEntity
  8
0
  6
Continuous
 62
     7
370
    25
100
AcDbLine
 10
154.7863875445
 20
75.6698670757
 30
0.0
 11
154.2863875445
 21
76.1698670757
 31
0.0
  0
LINE
  5
78
330
1F
100
AcDbEntity
  8
0
  6
Continuous
 62
     7
370
    25
100
AcDbLine
 10
138.7863875445
 20
76.1698670757
 30
0.0
 11
138.2863875445
 21
75.6698670757
 31
0.0
  0
LINE
  5
79
330
1F
100
AcDbEntity
  8
0
  6
Continuous
 62
     7
370
    25
100
AcDbLine
 10
141.5363875445
 20
76.6698670757
 30
0.0
 11
141.5363875445
 21
76.1698670757
 31
0.0
  0
LINE
  5
7A
330
1F
100
AcDbEntity
  8
0
  6
Continuous
 62
     7
370
    25
100
AcDbLine
 10
151.5363875445
 20
76.1698670757
 30
0.0
 11
151.5363875445
 21
76.6698670757
 31
0.0
  0
ARC
  5
7B
330
1F
100
AcDbEntity
  8
0
  6
Continuous
 62
     7
370
    25
100
AcDbCircle
 10
146.5363875445
 20
74.1698670757
 30
0.0
 40
20.6
100
AcDbArc
 50
90.5795948793
 51
93.3558231766
  0
ARC
  5
7C
330
1F
100
AcDbEntity
  8
0
  6
Continuous
 62
     7
370
    25
100
AcDbCircle
 10
146.5363875445
 20
74.1698670757
 30
0.0
 40
20.6
100
AcDbArc
 50
86.6441768145
 51
89.4070685096
  0
ARC
  5
7D
330
1F
100
AcDbEntity
  8
0
  6
Continuous
 62
     7
370
    25
100
AcDbCircle
 10
154.5301579128
 20
86.6574463804
 30
0.0
 40
1.000000000000005
100
AcDbArc
 50
354.2894068625
 51
7.1250163489
  0
LINE
  5
7E
330
1F
100
AcDbEntity
  8
0
  6
Continuous
 62
     7
370
    25
100
AcDbLine
 10
138.1297596878
 20
80.736145642
 30
0.0
 11
138.3563875445
 21
78.4698670757
 31
0.0
  0
LINE
  5
7F
330
1F
100
AcDbEntity
  8
0
  6
Continuous
 62
     7
370
    25
100
AcDbLine
 10
154.5814123585
 20
77.1201152162
 30
0.0
 11
155.5251951031
 21
86.5579426614
 31
0.0
  0
LINE
  5
80
330
1F
100
AcDbEntity
  8
0
  6
Continuous
 62
     7
370
    25
100
AcDbLine
 10
155.5224357896
 20
86.781481115
 30
0.0
 11
154.5911353736
 21
94.231884443
 31
0.0
  0
LINE
  5
81
330
1F
100
AcDbEntity
  8
0
  6
Continuous
 62
     7
370
    25
100
AcDbLine
 10
138.4816397154
 20
94.231884443
 30
0.0
 11
138.2863875445
 21
92.6698670757
 31
0.0
  0
ARC
  5
82
330
1F
100
AcDbEntity
  8
0
  6
Continuous
 62
     7
370
    25
100
AcDbCircle
 10
138.9777786537
 20
94.1698670757
 30
0.0
 40
0.5000000000000316
100
AcDbArc
 50
90.0
 51
172.8749836511
  0
ARC
  5
83
330
1F
100
AcDbEntity
  8
0
  6
Continuous
 62
     7
370
    25
100
AcDbCircle
 10
154.0949964352
 20
94.1698670757
 30
0.0
 40
0.5000000000000034
100
AcDbArc
 50
7.1250163489
 51
90.0
  0
ARC
  5
84
330
1F
100
AcDbEntity
  8
0
  6
Continuous
 62
     7
370
    25
100
AcDbCircle
 10
154.0838937634
 20
77.1698670757
 30
0.0
 40
0.5000000000000254
100
AcDbArc
 50
270.0
 51
354.2894068625
  0
LINE
  5
85
330
1F
100
AcDbEntity
  8
0
  6
Continuous
 62
     7
370
    25
100
AcDbLine
 10
141.0363875445
 20
76.1698670757
 30
0.0
 11
141.0363875445
 21
76.6698670757
 31
0.0
  0
LINE
  5
86
330
1F
100
AcDbEntity
  8
0
  6
Continuous
 62
     7
370
    25
100
AcDbLine
 10
139.0363875445
 20
76.6731018076
 30
0.0
 11
139.0363875445
 21
76.1698670757
 31
0.0
  0
LINE
  5
87
330
1F
100
AcDbEntity
  8
0
  6
Continuous
 62
     7
370
    25
100
AcDbLine
 10
130.2863875445
 20
48.1184995256
 30
0.0
 11
130.2863875445
 21
42.6698670757
 31
0.0
  0
LINE
  5
88
330
1F
100
AcDbEntity
  8
0
  6
Continuous
 62
     7
370
    25
100
AcDbLine
 10
130.2863875445
 20
69.6698670757
 30
0.0
 11
130.2863875445
 21
48.1184995256
 31
0.0
  0
LINE
  5
89
330
1F
100
AcDbEntity
  8
0
  6
Continuous
 62
     7
370
    25
100
AcDbLine
 10
130.0363875445
 20
48.2675989246
 30
0.0
 11
130.0363875445
 21
69.4198670757
 31
0.0
  0
LINE
  5
8A
330
1F
100
AcDbEntity
  8
0
  6
Continuous
 62
     7
370
    25
100
AcDbLine
 10
130.0363875445
 20
42.9198670757
 30
0.0
 11
130.0363875445
 21
48.2675989246
 31
0.0
  0
LINE
  5
8B
330
1F
100
AcDbEntity
  8
0
  6
Continuous
 62
     7
370
    25
100
AcDbLine
 10
116.5363875445
 20
48.7148971219
 30
0.0
 11
116.5363875445
 21
68.6698670757
 31
0.0
  0
LINE
  5
8C
330
1F
100
AcDbEntity
  8
0
  6
Continuous
 62
     7
370
    25
100
AcDbLine
 10
116.5363875445
 20
43.6698670757
 30
0.0
 11
116.5363875445
 21
48.7148971219
 31
0.0
  0
LINE
  5
8D
330
1F
100
AcDbEntity
  8
0
  6
Continuous
 62
     7
370
    25
100
AcDbLine
 10
117.0363875445
 20
48.4166983237
 30
0.0
 11
117.0363875445
 21
43.1698670757
 31
0.0
  0
LINE
  5
8E
330
1F
100
AcDbEntity
  8
0
  6
Continuous
 62
     7
370
    25
100
AcDbLine
 10
117.0363875445
 20
69.1698670757
 30
0.0
 11
117.0363875445
 21
48.4166983237
 31
0.0
  0
SPLINE
  5
8F
330
1F
100
AcDbEntity
  8
0
  6
Continuous
 62
     7
370
    25
100
AcDbSpline
210
0.0
220
0.0
230
1.0
 70
     8
 71
     3
 72
    10
 73
     6
 74
     0
 42
0.00000001
 43
0.00000001
 40
0.0
 40
0.0
 40
0.0
 40
0.0
 40
0.5
 40
0.5
 40
1.0
 40
1.0
 40
1.0
 40
1.0
 10
159.5363875444808
 20
56.1698670756648
 30
0.0
 10
159.5363875444808
 20
54.67508356356031
 30
0.0
 10
159.3957605825242
 20
53.20334951216091
 30
0.0
 10
158.8905174586639
 20
50.29659435679917
 30
0.0
 10
158.5279536354154
 20
48.86123686429136
 30
0.0
 10
158.0930118715067
 20
47.43774247737831
 30
0.0
  0
LINE
  5
90
330
1F
100
AcDbEntity
  8
0
  6
Continuous
 62
     7
370
    25
100
AcDbLine
 10
158.0930118715
 20
47.4377424774
 30
0.0
 11
134.9797632175
 21
47.4377424774
 31
0.0
  0
SPLINE
  5
91
330
1F
100
AcDbEntity
  8
0
  6
Continuous
 62
     7
370
    25
100
AcDbSpline
210
0.0
220
0.0
230
1.0
 70
     8
 71
     3
 72
    12
 73
     8
 74
     0
 42
0.00000001
 43
0.00000001
 40
0.0
 40
0.0
 40
0.0
 40
0.0
 40
0.5000000000000001
 40
0.5000000000000001
 40
0.75
 40
0.75
 40
1.0
 40
1.0
 40
1.0
 40
1.0
 10
134.9797632174548
 20
47.43774247737831
 30
0.0
 10
134.5474600676684
 20
48.85260110496932
 30
0.0
 10
134.1853812933014
 20
50.28270156900681
 30
0.0
 10
133.805308476529
 20
52.46324041146693
 30
0.0
 10
133.7059609230988
 20
53.19602143228434
 30
0.0
 10
133.5713556370194
 20
54.67549383709991
 30
0.0
 10
133.5363875444808
 20
55.42627989044165
 30
0.0
 10
133.5363875444808
 20
56.1698670756648
 30
0.0
  0
SPLINE
  5
92
330
1F
100
AcDbEntity
  8
0
  6
Continuous
 62
     7
370
    25
100
AcDbSpline
210
0.0
220
0.0
230
1.0
 70
     8
 71
     3
 72
    10
 73
     6
 74
     0
 42
0.00000001
 43
0.00000001
 40
0.0
 40
0.0
 40
0.0
 40
0.0
 40
0.5
 40
0.5
 40
1.0
 40
1.0
 40
1.0
 40
1.0
 10
133.5363875444808
 20
56.1698670756648
 30
0.0
 10
133.5363875444808
 20
57.66331753080604
 30
0.0
 10
133.6767849874737
 20
59.1345341448645
 30
0.0
 10
134.1818715080105
 20
62.04144774774826
 30
0.0
 10
134.5445075299979
 20
63.47746986579247
 30
0.0
 10
134.9797632174548
 20
64.9019916739513
 30
0.0
  0
LINE
  5
93
330
1F
100
AcDbEntity
  8
0
  6
Continuous
 62
     7
370
    25
100
AcDbLine
 10
158.0930118715
 20
64.901991674
 30
0.0
 11
134.9797632175
 21
64.901991674
 31
0.0
  0
SPLINE
  5
94
330
1F
100
AcDbEntity
  8
0
  6
Continuous
 62
     7
370
    25
100
AcDbSpline
210
0.0
220
0.0
230
1.0
 70
     8
 71
     3
 72
    14
 73
    10
 74
     0
 42
0.00000001
 43
0.00000001
 40
0.0
 40
0.0
 40
0.0
 40
0.0
 40
0.5
 40
0.5
 40
0.75
 40
0.75
 40
0.875
 40
0.875
 40
1.0
 40
1.0
 40
1.0
 40
1.0
 10
158.0930118715067
 20
64.90199167395129
 30
0.0
 10
158.525599768152
 20
63.48620111572281
 30
0.0
 10
158.8876924340345
 20
62.05563788429717
 30
0.0
 10
159.2675969746365
 20
59.87558633580127
 30
0.0
 10
159.366861997382
 20
59.14316698529296
 30
0.0
 10
159.4677357511169
 20
58.03447430549863
 30
0.0
 10
159.4933678384181
 20
57.66323520601868
 30
0.0
 10
159.5277262305056
 20
56.91721430498471
 30
0.0
 10
159.5363875444808
 20
56.54230444593687
 30
0.0
 10
159.5363875444808
 20
56.1698670756648
 30
0.0
  0
LINE
  5
95
330
1F
100
AcDbEntity
  8
0
  6
Continuous
 62
     7
370
    25
100
AcDbLine
 10
133.5363875445
 20
56.1698670757
 30
0.0
 11
133.5363875445
 21
70.1698670757
 31
0.0
  0
SPLINE
  5
96
330
1F
100
AcDbEntity
  8
0
  6
Continuous
 62
     7
370
    25
100
AcDbSpline
210
0.0
220
0.0
230
1.0
 70
    24
 71
     3
 72
    12
 73
     8
 74
     0
 42
0.00000001
 43
0.00000001
 40
0.0
 40
0.0
 40
0.0
 40
0.0
 40
0.4999999999999998
 40
0.4999999999999998
 40
0.7499999999999999
 40
0.7499999999999999
 40
1.0
 40
1.0
 40
1.0
 40
1.0
 10
134.9797632174548
 20
70.16986707566481
 30
0.0
 10
134.5474600676684
 20
70.16986707566481
 30
0.0
 10
134.1853812933014
 20
70.16986707566481
 30
0.0
 10
133.805308476529
 20
70.16986707566481
 30
0.0
 10
133.7059609230988
 20
70.16986707566481
 30
0.0
 10
133.5713556370194
 20
70.16986707566481
 30
0.0
 10
133.5363875444808
 20
70.16986707566481
 30
0.0
 10
133.5363875444808
 20
70.16986707566481
 30
0.0
  0
LINE
  5
97
330
1F
100
AcDbEntity
  8
0
  6
Continuous
 62
     7
370
    25
100
AcDbLine
 10
134.9797632175
 20
64.901991674
 30
0.0
 11
134.9797632175
 21
70.1698670757
 31
0.0
  0
LINE
  5
98
330
1F
100
AcDbEntity
  8
0
  6
Continuous
 62
     7
370
    25
100
AcDbLine
 10
145.9773705501
 20
70.1698670757
 30
0.0
 11
134.9797632175
 21
70.1698670757
 31
0.0
  0
LINE
  5
99
330
1F
100
AcDbEntity
  8
0
  6
Continuous
 62
     7
370
    25
100
AcDbLine
 10
147.0954045389
 20
70.1698670757
 30
0.0
 11
145.9773705501
 21
70.1698670757
 31
0.0
  0
LINE
  5
9A
330
1F
100
AcDbEntity
  8
0
  6
Continuous
 62
     7
370
    25
100
AcDbLine
 10
158.0930118715
 20
70.1698670757
 30
0.0
 11
147.0954045389
 21
70.1698670757
 31
0.0
  0
LINE
  5
9B
330
1F
100
AcDbEntity
  8
0
  6
Continuous
 62
     7
370
    25
100
AcDbLine
 10
158.0930118715
 20
70.1698670757
 30
0.0
 11
158.0930118715
 21
64.901991674
 31
0.0
  0
SPLINE
  5
9C
330
1F
100
AcDbEntity
  8
0
  6
Continuous
 62
     7
370
    25
100
AcDbSpline
210
0.0
220
0.0
230
1.0
 70
    24
 71
     3
 72
    10
 73
     6
 74
     0
 42
0.00000001
 43
0.00000001
 40
0.0
 40
0.0
 40
0.0
 40
0.0
 40
0.5
 40
0.5
 40
1.0
 40
1.0
 40
1.0
 40
1.0
 10
159.5363875444808
 20
70.16986707566481
 30
0.0
 10
159.5363875444808
 20
70.16986707566481
 30
0.0
 10
159.3957605825242
 20
70.16986707566481
 30
0.0
 10
158.8905174586639
 20
70.16986707566481
 30
0.0
 10
158.5279536354154
 20
70.16986707566481
 30
0.0
 10
158.0930118715067
 20
70.16986707566481
 30
0.0
  0
LINE
  5
9D
330
1F
100
AcDbEntity
  8
0
  6
Continuous
 62
     7
370
    25
100
AcDbLine
 10
159.5363875445
 20
70.1698670757
 30
0.0
 11
159.5363875445
 21
56.1698670757
 31
0.0
  0
SPLINE
  5
9E
330
1F
100
AcDbEntity
  8
0
  6
Continuous
 62
     7
370
    25
100
AcDbSpline
210
0.0
220
0.0
230
1.0
 70
    24
 71
     3
 72
    10
 73
     6
 74
     0
 42
0.00000001
 43
0.00000001
 40
0.0
 40
0.0
 40
0.0
 40
0.0
 40
0.5
 40
0.5
 40
1.0
 40
1.0
 40
1.0
 40
1.0
 10
133.5363875444808
 20
42.1698670756648
 30
0.0
 10
133.5363875444808
 20
42.1698670756648
 30
0.0
 10
133.6767849874737
 20
42.1698670756648
 30
0.0
 10
134.1818715080105
 20
42.1698670756648
 30
0.0
 10
134.5445075299979
 20
42.1698670756648
 30
0.0
 10
134.9797632174548
 20
42.1698670756648
 30
0.0
  0
LINE
  5
9F
330
1F
100
AcDbEntity
  8
0
  6
Continuous
 62
     7
370
    25
100
AcDbLine
 10
133.5363875445
 20
42.1698670757
 30
0.0
 11
133.5363875445
 21
56.1698670757
 31
0.0
  0
LINE
  5
A0
330
1F
100
AcDbEntity
  8
0
  6
Continuous
 62
     7
370
    25
100
AcDbLine
 10
134.9797632175
 20
42.1698670757
 30
0.0
 11
134.9797632175
 21
47.4377424774
 31
0.0
  0
SPLINE
  5
A1
330
1F
100
AcDbEntity
  8
0
  6
Continuous
 62
     7
370
    25
100
AcDbSpline
210
0.0
220
0.0
230
1.0
 70
    24
 71
     3
 72
    14
 73
    10
 74
     0
 42
0.00000001
 43
0.00000001
 40
0.0
 40
0.0
 40
0.0
 40
0.0
 40
0.4999999999999999
 40
0.4999999999999999
 40
0.7499999999999999
 40
0.7499999999999999
 40
0.875
 40
0.875
 40
1.0
 40
1.0
 40
1.0
 40
1.0
 10
158.0930118715067
 20
42.1698670756648
 30
0.0
 10
158.525599768152
 20
42.1698670756648
 30
0.0
 10
158.8876924340346
 20
42.1698670756648
 30
0.0
 10
159.2675969746365
 20
42.1698670756648
 30
0.0
 10
159.366861997382
 20
42.1698670756648
 30
0.0
 10
159.4677357511169
 20
42.1698670756648
 30
0.0
 10
159.4933678384181
 20
42.1698670756648
 30
0.0
 10
159.5277262305056
 20
42.1698670756648
 30
0.0
 10
159.5363875444808
 20
42.1698670756648
 30
0.0
 10
159.5363875444808
 20
42.1698670756648
 30
0.0
  0
LINE
  5
A2
330
1F
100
AcDbEntity
  8
0
  6
Continuous
 62
     7
370
    25
100
AcDbLine
 10
158.0930118715
 20
47.4377424774
 30
0.0
 11
158.0930118715
 21
42.1698670757
 31
0.0
  0
LINE
  5
A3
330
1F
100
AcDbEntity
  8
0
  6
Continuous
 62
     7
370
    25
100
AcDbLine
 10
159.5363875445
 20
56.1698670757
 30
0.0
 11
159.5363875445
 21
42.1698670757
 31
0.0
  0
LINE
  5
A4
330
1F
100
AcDbEntity
  8
0
  6
Continuous
 62
     7
370
    25
100
AcDbLine
 10
158.0930118715
 20
42.1698670757
 30
0.0
 11
134.9797632175
 21
42.1698670757
 31
0.0
  0
LINE
  5
A5
330
1F
100
AcDbEntity
  8
0
  6
Continuous
 62
     7
370
    25
100
AcDbLine
 10
162.0363875445
 20
69.6698670757
 30
0.0
 11
162.0363875445
 21
42.6698670757
 31
0.0
  0
LINE
  5
A6
330
1F
100
AcDbEntity
  8
0
  6
Continuous
 62
     7
370
    25
100
AcDbLine
 10
174.0363875445
 20
68.6698670757
 30
0.0
 11
174.0363875445
 21
43.6698670757
 31
0.0
  0
LINE
  5
A7
330
1F
100
AcDbEntity
  8
0
  6
Continuous
 62
     7
370
    25
100
AcDbLine
 10
173.5363875445
 20
43.1698670757
 30
0.0
 11
173.5363875445
 21
69.1698670757
 31
0.0
  0
ARC
  5
A8
330
1F
100
AcDbEntity
  8
0
  6
Continuous
 62
     7
370
    25
100
AcDbCircle
 10
149.0439780621
 20
70.5453772797
 30
0.0
 40
1.98442603512704
100
AcDbArc
 50
176.4032790661
 51
190.9077708916
  0
SPLINE
  5
A9
330
1F
100
AcDbEntity
  8
0
  6
Continuous
 62
     7
370
    25
100
AcDbSpline
210
0.0
220
0.0
230
1.0
 70
    24
 71
     3
 72
     8
 73
     4
 74
     0
 42
0.00000001
 43
0.00000001
 40
0.0
 40
0.0
 40
0.0
 40
0.0
 40
1.0
 40
1.0
 40
1.0
 40
1.0
 10
146.0093143783559
 20
70.66986707566481
 30
0.0
 10
146.3606964891058
 20
70.66986707566481
 30
0.0
 10
146.7120785998557
 20
70.66986707566481
 30
0.0
 10
147.0634607106057
 20
70.66986707566481
 30
0.0
  0
ARC
  5
AA
330
1F
100
AcDbEntity
  8
0
  6
Continuous
 62
     7
370
    25
100
AcDbCircle
 10
144.0287970269
 20
70.5453772797
 30
0.0
 40
1.984426035125791
100
AcDbArc
 50
349.0922291084
 51
3.5967209339
  0
LINE
  5
AB
330
1F
100
AcDbEntity
  8
0
  6
Continuous
 62
     7
370
    25
100
AcDbLine
 10
146.5363875445
 20
75.6698670757
 30
0.0
 11
138.2863875445
 21
75.6698670757
 31
0.0
  0
LINE
  5
AC
330
1F
100
AcDbEntity
  8
0
  6
Continuous
 62
     7
370
    25
100
AcDbLine
 10
154.7863875445
 20
75.6698670757
 30
0.0
 11
146.5363875445
 21
75.6698670757
 31
0.0
  0
LINE
  5
AD
330
1F
100
AcDbEntity
  8
0
  6
Continuous
 62
     7
370
    25
100
AcDbLine
 10
146.5363875445
 20
76.1698670757
 30
0.0
 11
154.2863875445
 21
76.1698670757
 31
0.0
  0
LINE
  5
AE
330
1F
100
AcDbEntity
  8
0
  6
Continuous
 62
     7
370
    25
100
AcDbLine
 10
138.7863875445
 20
76.1698670757
 30
0.0
 11
146.5363875445
 21
76.1698670757
 31
0.0
  0
ARC
  5
AF
330
1F
100
AcDbEntity
  8
0
  6
Continuous
 62
     7
370
    25
100
AcDbCircle
 10
145.4694358753
 20
92.3709431265
 30
0.0
 40
2.367678303496214
100
AcDbArc
 50
93.3632881501
 51
99.4868245017
  0
ARC
  5
B0
330
1F
100
AcDbEntity
  8
0
  6
Continuous
 62
     7
370
    25
100
AcDbCircle
 10
147.6033429002
 20
92.3709843771
 30
0.0
 40
2.367636907668053
100
AcDbArc
 50
80.5187694298
 51
86.6367422679
  0
SPLINE
  5
B1
330
1F
100
AcDbEntity
  8
0
  6
Continuous
 62
     7
370
    25
100
AcDbSpline
210
0.0
220
0.0
230
1.0
 70
     8
 71
     3
 72
    15
 73
    11
 74
     0
 42
0.00000001
 43
0.00000001
 40
0.0
 40
0.0
 40
0.0
 40
0.0
 40
0.1233867499278388
 40
0.2487396502211602
 40
0.3739317114754985
 40
0.4999973617625659
 40
0.6259591330513601
 40
0.7512551380600303
 40
0.8765613478174266
 40
1.0
 40
1.0
 40
1.0
 40
1.0
 10
146.4735046796747
 20
94.7697599729693
 30
0.0
 10
146.4763828808666
 20
94.76976063204144
 30
0.0
 10
146.4821851469782
 20
94.76976196068794
 30
0.0
 10
146.497714551699
 20
94.76976591031506
 30
0.0
 10
146.5160691335724
 20
94.76976769266447
 30
0.0
 10
146.5363819500553
 20
94.7697692462424
 30
0.0
 10
146.5567003677704
 20
94.7697676921075
 30
0.0
 10
146.5750532369345
 20
94.76976591522691
 30
0.0
 10
146.5905913413301
 20
94.76976194770877
 30
0.0
 10
146.5963919033613
 20
94.7697606279128
 30
0.0
 10
146.5992704092868
 20
94.7697599729693
 30
0.0
  0
ARC
  5
B2
330
1F
100
AcDbEntity
  8
0
  6
Continuous
 62
     7
370
    25
100
AcDbCircle
 10
146.4743991073
 20
92.2254105601
 30
0.0
 40
2.544349570042709
100
AcDbArc
 50
90.0201414662
 51
95.4127462175
  0
SPLINE
  5
B3
330
1F
100
AcDbEntity
  8
0
  6
Continuous
 62
     7
370
    25
100
AcDbSpline
210
0.0
220
0.0
230
1.0
 70
     8
 71
     3
 72
    15
 73
    11
 74
     0
 42
0.00000001
 43
0.00000001
 40
0.0
 40
0.0
 40
0.0
 40
0.0
 40
0.1261585224210642
 40
0.25131214515488
 40
0.3762846848783793
 40
0.499306278334087
 40
0.6261594278645743
 40
0.7521171342021308
 40
0.875819692269278
 40
1.0
 40
1.0
 40
1.0
 40
1.0
 10
146.297274018803
 20
94.75651684155856
 30
0.0
 10
146.2920429223144
 20
94.75646591580809
 30
0.0
 10
146.2816223969717
 20
94.75636446994973
 30
0.0
 10
146.2668358464573
 20
94.75636028831248
 30
0.0
 10
146.2536454938318
 20
94.7564596271331
 30
0.0
 10
146.2427749189905
 20
94.75668016933616
 30
0.0
 10
146.234767331662
 20
94.75700403673764
 30
0.0
 10
146.2306007046293
 20
94.75742390658512
 30
0.0
 10
146.2299796531177
 20
94.75790262365085
 30
0.0
 10
146.2329187654724
 20
94.75824391289642
 30
0.0
 10
146.2343911539552
 20
94.75841488640603
 30
0.0
  0
ARC
  5
B4
330
1F
100
AcDbEntity
  8
0
  6
Continuous
 62
     7
370
    25
100
AcDbCircle
 10
146.5363875445
 20
74.1698670757
 30
0.0
 40
20.58803836847347
100
AcDbArc
 50
89.3345405821
 51
90.66545941
  0
SPLINE
  5
B5
330
1F
100
AcDbEntity
  8
0
  6
Continuous
 62
     7
370
    25
100
AcDbSpline
210
0.0
220
0.0
230
1.0
 70
     8
 71
     3
 72
    15
 73
    11
 74
     0
 42
0.00000001
 43
0.00000001
 40
0.0
 40
0.0
 40
0.0
 40
0.0
 40
0.1241186784437695
 40
0.2478474916628983
 40
0.3736574149478943
 40
0.5005082335853298
 40
0.623452765830992
 40
0.7484986612277522
 40
0.8736976492452768
 40
1.0
 40
1.0
 40
1.0
 40
1.0
 10
146.8383839377323
 20
94.75841488637272
 30
0.0
 10
146.8398550103412
 20
94.75824400609423
 30
0.0
 10
146.8427925348196
 20
94.75790278228386
 30
0.0
 10
146.8421758003195
 20
94.75742424599636
 30
0.0
 10
146.8380138387249
 20
94.75700445612448
 30
0.0
 10
146.8300150909265
 20
94.75668066827807
 30
0.0
 10
146.8191489993896
 20
94.75645997007237
 30
0.0
 10
146.805961281565
 20
94.7563603781622
 30
0.0
 10
146.7911668349898
 20
94.75636429256082
 30
0.0
 10
146.7807382440825
 20
94.75646584336623
 30
0.0
 10
146.7755010729681
 20
94.75651684152594
 30
0.0
  0
ARC
  5
B6
330
1F
100
AcDbEntity
  8
0
  6
Continuous
 62
     7
370
    25
100
AcDbCircle
 10
146.5983759815
 20
92.2254105079
 30
0.0
 40
2.544349622306127
100
AcDbArc
 50
84.5872538302
 51
89.9798585321
  0
SPLINE
  5
B7
330
1F
100
AcDbEntity
  8
0
  6
Continuous
 62
     7
370
    25
100
AcDbSpline
210
0.0
220
0.0
230
1.0
 70
     8
 71
     3
 72
    13
 73
     9
 74
     0
 42
0.00000001
 43
0.00000001
 40
0.0
 40
0.0
 40
0.0
 40
0.0
 40
0.13746929634541
 40
0.2749820892813127
 40
0.4163021045260214
 40
0.5576318202769773
 40
0.7770084914513207
 40
1.0
 40
1.0
 40
1.0
 40
1.0
 10
127.0121867771247
 20
85.94623967769107
 30
0.0
 10
127.4975146684884
 20
85.85999926826216
 30
0.0
 10
128.4683240135684
 20
85.68749116212004
 30
0.0
 10
129.8890163813781
 20
85.28850908879706
 30
0.0
 10
131.2811127063943
 20
84.78819967732478
 30
0.0
 10
132.8854718906359
 20
84.05937920572205
 30
0.0
 10
134.6763397662683
 20
83.04316025552039
 30
0.0
 10
135.9130031294832
 20
82.05557696921686
 30
0.0
 10
136.5363875444808
 20
81.55775027886092
 30
0.0
  0
ELLIPSE
  5
B8
330
1F
100
AcDbEntity
  8
0
  6
Continuous
 62
     7
370
    25
100
AcDbEllipse
 10
249.0502830169
 20
79.291689794
 30
0.0
 11
171.000000000001
 21
-5.684341886080801E-14
 31
0.0
210
0.0
220
0.0
230
1.0
 40
0.0555555556
 41
2.292395939553289
 42
2.365524293035123
  0
LINE
  5
B9
330
1F
100
AcDbEntity
  8
0
  6
Continuous
 62
     7
370
    25
100
AcDbLine
 10
136.0900041896
 20
86.4238148663
 30
0.0
 11
136.5363875445
 21
86.3863529004
 31
0.0
  0
LINE
  5
BA
330
1F
100
AcDbEntity
  8
0
  6
Continuous
 62
     7
370
    25
100
AcDbLine
 10
136.5363875445
 20
81.5577502789
 30
0.0
 11
136.5363875445
 21
86.3863529004
 31
0.0
  0
SPLINE
  5
BB
330
1F
100
AcDbEntity
  8
0
  6
Continuous
 62
     7
370
    25
100
AcDbSpline
210
0.0
220
0.0
230
1.0
 70
     8
 71
     3
 72
    11
 73
     7
 74
     0
 42
0.00000001
 43
0.00000001
 40
0.0
 40
0.0
 40
0.0
 40
0.0
 40
0.2795638428677824
 40
0.5590315779132456
 40
0.7794196683689406
 40
1.0
 40
1.0
 40
1.0
 40
1.0
 10
124.1000595904033
 20
86.16986707566481
 30
0.0
 10
123.9764862446271
 20
86.2083859276129
 30
0.0
 10
123.7293820348387
 20
86.28541038958573
 30
0.0
 10
123.4756261269154
 20
86.81820828737541
 30
0.0
 10
123.3590076859349
 20
87.44594485424182
 30
0.0
 10
123.3855270719701
 20
87.84692767041044
 30
0.0
 10
123.3987925455807
 20
88.04750648317503
 30
0.0
  0
SPLINE
  5
BC
330
1F
100
AcDbEntity
  8
0
  6
Continuous
 62
     7
370
    25
100
AcDbSpline
210
0.0
220
0.0
230
1.0
 70
     8
 71
     3
 72
     9
 73
     5
 74
     0
 42
0.00000001
 43
0.00000001
 40
0.0
 40
0.0
 40
0.0
 40
0.0
 40
0.4986740982738611
 40
1.0
 40
1.0
 40
1.0
 40
1.0
 10
124.6903530866496
 20
88.07730750860549
 30
0.0
 10
124.4838794455798
 20
88.07877258786213
 30
0.0
 10
124.0698341968203
 20
88.08171053723974
 30
0.0
 10
123.6228680948754
 20
88.05892725830803
 30
0.0
 10
123.3987924107768
 20
88.04750541045333
 30
0.0
  0
SPLINE
  5
BD
330
1F
100
AcDbEntity
  8
0
  6
Continuous
 62
     7
370
    25
100
AcDbSpline
210
0.0
220
0.0
230
1.0
 70
     8
 71
     3
 72
    13
 73
     9
 74
     0
 42
0.00000001
 43
0.00000001
 40
0.0
 40
0.0
 40
0.0
 40
0.0
 40
0.3327087167328945
 40
0.5628656559531298
 40
0.6987124125384708
 40
0.8016200683166476
 40
0.9052998751809803
 40
1.0
 40
1.0
 40
1.0
 40
1.0
 10
126.6811538269203
 20
85.99441411451566
 30
0.0
 10
126.3187629965931
 20
86.08019968943383
 30
0.0
 10
125.7056821178397
 20
86.22532890147183
 30
0.0
 10
125.0561367931773
 20
86.67569559789914
 30
0.0
 10
124.7134397775792
 20
87.07543674650499
 30
0.0
 10
124.5645161664355
 20
87.43132899291658
 30
0.0
 10
124.5523434470088
 20
87.77876283995076
 30
0.0
 10
124.645760040829
 20
87.98084171112987
 30
0.0
 10
124.6903540832801
 20
88.077307589314
 30
0.0
  0
SPLINE
  5
BE
330
1F
100
AcDbEntity
  8
0
  6
Continuous
 62
     7
370
    25
100
AcDbSpline
210
0.0
220
0.0
230
1.0
 70
     8
 71
     3
 72
     9
 73
     5
 74
     0
 42
0.00000001
 43
0.00000001
 40
0.0
 40
0.0
 40
0.0
 40
0.0
 40
0.5551829690770671
 40
1.0
 40
1.0
 40
1.0
 40
1.0
 10
124.1000595904033
 20
86.16986707566481
 30
0.0
 10
124.6300824641245
 20
86.15686805517375
 30
0.0
 10
125.5847638993319
 20
86.13345411559871
 30
0.0
 10
126.3436073404893
 20
86.03722047624701
 30
0.0
 10
126.6811538269203
 20
85.99441411451566
 30
0.0
  0
LINE
  5
BF
330
1F
100
AcDbEntity
  8
0
  6
Continuous
 62
     7
370
    25
100
AcDbLine
 10
136.0900041896
 20
91.6698670757
 30
0.0
 11
136.0900041896
 21
86.4238148663
 31
0.0
  0
LINE
  5
C0
330
1F
100
AcDbEntity
  8
0
  6
Continuous
 62
     7
370
    25
100
AcDbLine
 10
136.5363875445
 20
91.6698670757
 30
0.0
 11
136.0900041896
 21
91.6698670757
 31
0.0
  0
LINE
  5
C1
330
1F
100
AcDbEntity
  8
0
  6
Continuous
 62
     7
370
    25
100
AcDbLine
 10
136.5363875445
 20
86.3863529004
 30
0.0
 11
136.5363875445
 21
91.6698670757
 31
0.0
  0
ARC
  5
C2
330
1F
100
AcDbEntity
  8
0
  6
Continuous
 62
     7
370
    25
100
AcDbCircle
 10
142.9128166031
 20
92.0437132295
 30
0.0
 40
6.833046917558707
100
AcDbArc
 50
170.513808076
 51
183.1363032674
  0
ARC
  5
C3
330
1F
100
AcDbEntity
  8
0
  6
Continuous
 62
     7
370
    25
100
AcDbCircle
 10
136.1688196781
 20
92.3796171272
 30
0.0
 40
0.7902621394876798
100
AcDbArc
 50
62.2819181136
 51
89.6817467964
  0
LINE
  5
C4
330
1F
100
AcDbEntity
  8
0
  6
Continuous
 62
     7
370
    25
100
AcDbLine
 10
136.5363875445
 20
91.6698670757
 30
0.0
 11
136.5363875445
 21
93.0791942228
 31
0.0
  0
LINE
  5
C5
330
1F
100
AcDbEntity
  8
0
  6
Continuous
 62
     7
370
    25
100
AcDbLine
 10
136.173209219
 20
93.1698670757
 30
0.0
 11
124.7574799355
 21
93.1698670757
 31
0.0
  0
LINE
  5
C6
330
1F
100
AcDbEntity
  8
0
  6
Continuous
 62
     7
370
    25
100
AcDbLine
 10
126.7563261781
 20
91.6698670757
 30
0.0
 11
136.0900041896
 21
91.6698670757
 31
0.0
  0
SPLINE
  5
C7
330
1F
100
AcDbEntity
  8
0
  6
Continuous
 62
     7
370
    25
100
AcDbSpline
210
0.0
220
0.0
230
1.0
 70
     8
 71
     3
 72
    15
 73
    11
 74
     0
 42
0.00000001
 43
0.00000001
 40
0.0
 40
0.0
 40
0.0
 40
0.0
 40
0.2070474010410777
 40
0.4175968630246832
 40
0.5931232720441627
 40
0.6923428991082514
 40
0.7730996831079096
 40
0.8543284120985933
 40
0.926147516637204
 40
1.0
 40
1.0
 40
1.0
 40
1.0
 10
124.7549136487953
 20
93.1698523495588
 30
0.0
 10
124.9860028857602
 20
93.16600211071747
 30
0.0
 10
125.4520900713518
 20
93.15823650895697
 30
0.0
 10
126.0766878706588
 20
93.0715865462195
 30
0.0
 10
126.5383670610895
 20
92.9016360366769
 30
0.0
 10
126.8002707600733
 20
92.67227117932839
 30
0.0
 10
126.9207374162045
 20
92.43447771404902
 30
0.0
 10
126.9395314544002
 20
92.17256473677581
 30
0.0
 10
126.8784930624002
 20
91.90702233476041
 30
0.0
 10
126.7972979687854
 20
91.74972471174668
 30
0.0
 10
126.7561337349995
 20
91.66997806894567
 30
0.0
  0
LINE
  5
C8
330
1F
100
AcDbEntity
  8
0
  6
Continuous
 62
     7
370
    25
100
AcDbLine
 10
124.6901800129
 20
88.077407995
 30
0.0
 11
126.7561337478
 21
91.6699780816
 31
0.0
  0
ARC
  5
C9
330
1F
100
AcDbEntity
  8
0
  6
Continuous
 62
     7
370
    25
100
AcDbCircle
 10
124.1000595905
 20
67.0968598284
 30
0.0
 40
19.07300724724769
100
AcDbArc
 50
81.2175477188
 51
82.2224666688
  0
SPLINE
  5
CA
330
1F
100
AcDbEntity
  8
0
  6
Continuous
 62
     7
370
    25
100
AcDbSpline
210
0.0
220
0.0
230
1.0
 70
     8
 71
     3
 72
    11
 73
     7
 74
     0
 42
0.00000001
 43
0.00000001
 40
0.0
 40
0.0
 40
0.0
 40
0.0
 40
0.2491150002829084
 40
0.4989585322854289
 40
0.7493328274976518
 40
1.0
 40
1.0
 40
1.0
 40
1.0
 10
123.3987925455807
 20
88.04750648317503
 30
0.0
 10
122.9730812642673
 20
88.0212533752062
 30
0.0
 10
122.1204137177114
 20
87.96867038259163
 30
0.0
 10
120.7568479564596
 20
87.88434935236512
 30
0.0
 10
119.3561753392474
 20
87.7976160835534
 30
0.0
 10
118.4053551037602
 20
87.7386385181258
 30
0.0
 10
117.9296670911996
 20
87.70913249812662
 30
0.0
  0
SPLINE
  5
CB
330
1F
100
AcDbEntity
  8
0
  6
Continuous
 62
     7
370
    25
100
AcDbSpline
210
0.0
220
0.0
230
1.0
 70
     8
 71
     3
 72
     9
 73
     5
 74
     0
 42
0.00000001
 43
0.00000001
 40
0.0
 40
0.0
 40
0.0
 40
0.0
 40
0.5599987526606143
 40
1.0
 40
1.0
 40
1.0
 40
1.0
 10
120.493568458857
 20
92.68295554981862
 30
0.0
 10
120.0138022009698
 20
91.75511424996931
 30
0.0
 10
119.1570748321896
 20
90.09825109546934
 30
0.0
 10
118.3047090837169
 20
88.43914239555886
 30
0.0
 10
117.9296670911996
 20
87.70913249812662
 30
0.0
  0
SPLINE
  5
CC
330
1F
100
AcDbEntity
  8
0
  6
Continuous
 62
     7
370
    25
100
AcDbSpline
210
0.0
220
0.0
230
1.0
 70
     8
 71
     3
 72
     9
 73
     5
 74
     0
 42
0.00000001
 43
0.00000001
 40
0.0
 40
0.0
 40
0.0
 40
0.0
 40
0.5600000882143262
 40
1.0
 40
1.0
 40
1.0
 40
1.0
 10
120.9980555964091
 20
93.65677860151075
 30
0.0
 10
120.9038431808775
 20
93.47501973067895
 30
0.0
 10
120.7356067510724
 20
93.15045036960731
 30
0.0
 10
120.5675245934039
 20
92.82580116931051
 30
0.0
 10
120.493568458857
 20
92.68295554981862
 30
0.0
  0
SPLINE
  5
CD
330
1F
100
AcDbEntity
  8
0
  6
Continuous
 62
     7
370
    25
100
AcDbSpline
210
0.0
220
0.0
230
1.0
 70
     8
 71
     3
 72
    10
 73
     6
 74
     0
 42
0.00000001
 43
0.00000001
 40
0.0
 40
0.0
 40
0.0
 40
0.0
 40
0.4283493666310625
 40
0.761660314114417
 40
0.9999999999999999
 40
0.9999999999999999
 40
0.9999999999999999
 40
0.9999999999999999
 10
120.9980555964093
 20
93.65677860151095
 30
0.0
 10
121.4449827976924
 20
93.5549823386878
 30
0.0
 10
122.239676893292
 20
93.37397547943326
 30
0.0
 10
123.2762316942975
 20
93.20031309648016
 30
0.0
 10
123.8620970272979
 20
93.17882581858437
 30
0.0
 10
124.1063632823979
 20
93.16986707566471
 30
0.0
  0
LINE
  5
CE
330
1F
100
AcDbEntity
  8
0
  6
Continuous
 62
     7
370
    25
100
AcDbLine
 10
124.1042631223
 20
93.1698670757
 30
0.0
 11
124.7549165884
 21
93.1698670757
 31
0.0
  0
LINE
  5
CF
330
1F
100
AcDbEntity
  8
0
  6
Continuous
 62
     7
370
    25
100
AcDbLine
 10
136.5363875445
 20
93.1698670757
 30
0.0
 11
136.173209219
 21
93.1698670757
 31
0.0
  0
LINE
  5
D0
330
1F
100
AcDbEntity
  8
0
  6
Continuous
 62
     7
370
    25
100
AcDbLine
 10
136.5363875445
 20
93.0791942228
 30
0.0
 11
136.5363875445
 21
93.1698670757
 31
0.0
  0
SPLINE
  5
D1
330
1F
100
AcDbEntity
  8
0
  6
Continuous
 62
     7
370
    25
100
AcDbSpline
210
0.0
220
0.0
230
1.0
 70
    24
 71
     3
 72
    11
 73
     7
 74
     0
 42
0.00000001
 43
0.00000001
 40
0.0
 40
0.0
 40
0.0
 40
0.0
 40
0.2799857774483056
 40
0.5599458358671285
 40
0.7799985659009367
 40
1.0
 40
1.0
 40
1.0
 40
1.0
 10
117.9689190583818
 20
86.16986707566481
 30
0.0
 10
118.5662430454658
 20
86.16986707566481
 30
0.0
 10
119.7608361504423
 20
86.16986707566483
 30
0.0
 10
121.388197905925
 20
86.1698670756648
 30
0.0
 10
122.8439274754231
 20
86.16986707566483
 30
0.0
 10
123.6813814253308
 20
86.16986707566481
 30
0.0
 10
124.1000595904033
 20
86.16986707566481
 30
0.0
  0
SPLINE
  5
D2
330
1F
100
AcDbEntity
  8
0
  6
Continuous
 62
     7
370
    25
100
AcDbSpline
210
0.0
220
0.0
230
1.0
 70
     8
 71
     3
 72
    11
 73
     7
 74
     0
 42
0.00000001
 43
0.00000001
 40
0.0
 40
0.0
 40
0.0
 40
0.0
 40
0.2500000000000001
 40
0.4999999999999997
 40
0.75
 40
1.0
 40
1.0
 40
1.0
 40
1.0
 10
117.9689190583818
 20
86.16986707566481
 30
0.0
 10
117.9636880246217
 20
86.19318860797313
 30
0.0
 10
117.9532259571014
 20
86.23983167258972
 30
0.0
 10
117.9401114692342
 20
86.59781274095641
 30
0.0
 10
117.9310871257402
 20
87.10800567899835
 30
0.0
 10
117.9301404360465
 20
87.50875689175054
 30
0.0
 10
117.9296670911996
 20
87.70913249812662
 30
0.0
  0
SPLINE
  5
D3
330
1F
100
AcDbEntity
  8
0
  6
Continuous
 62
     7
370
    25
100
AcDbSpline
210
0.0
220
0.0
230
1.0
 70
     8
 71
     3
 72
    11
 73
     7
 74
     0
 42
0.00000001
 43
0.00000001
 40
0.0
 40
0.0
 40
0.0
 40
0.0
 40
0.2500000000000006
 40
0.5000000000000007
 40
0.7499999999999996
 40
1.0
 40
1.0
 40
1.0
 40
1.0
 10
133.5233170106997
 20
93.16986707566478
 30
0.0
 10
133.5250034812036
 20
93.17712938531693
 30
0.0
 10
133.5283764222115
 20
93.19165400462121
 30
0.0
 10
133.5326563191128
 20
93.30362620821373
 30
0.0
 10
133.5356984399265
 20
93.4641377862387
 30
0.0
 10
133.5361668131491
 20
93.59256499642014
 30
0.0
 10
133.5364009997604
 20
93.65677860151085
 30
0.0
  0
SPLINE
  5
D4
330
1F
100
AcDbEntity
  8
0
  6
Continuous
 62
     7
370
    25
100
AcDbSpline
210
0.0
220
0.0
230
1.0
 70
     8
 71
     3
 72
    13
 73
     9
 74
     0
 42
0.00000001
 43
0.00000001
 40
0.0
 40
0.0
 40
0.0
 40
0.0
 40
0.2886949682914849
 40
0.5545536835943152
 40
0.6780091910936107
 40
0.7888922083801198
 40
0.896419407140649
 40
1.0
 40
1.0
 40
1.0
 40
1.0
 10
133.5364009997604
 20
93.65677860151085
 30
0.0
 10
133.8081261903366
 20
93.61814844763286
 30
0.0
 10
134.3300826561911
 20
93.5439438494106
 30
0.0
 10
134.9276580642943
 20
93.46088112988201
 30
0.0
 10
135.2915122444738
 20
93.41190019927338
 30
0.0
 10
135.4880597360395
 20
93.38588323950192
 30
0.0
 10
135.6143430251457
 20
93.37052442915767
 30
0.0
 10
135.6291315271168
 20
93.3700834454702
 30
0.0
 10
135.6363875444808
 20
93.3698670756648
 30
0.0
  0
SPLINE
  5
D5
330
1F
100
AcDbEntity
  8
0
  6
Continuous
 62
     7
370
    25
100
AcDbSpline
210
0.0
220
0.0
230
1.0
 70
     8
 71
     3
 72
    11
 73
     7
 74
     0
 42
0.00000001
 43
0.00000001
 40
0.0
 40
0.0
 40
0.0
 40
0.0
 40
0.2500000000000003
 40
0.4999999999999958
 40
0.7499999999999993
 40
0.9999999999999999
 40
0.9999999999999999
 40
0.9999999999999999
 40
0.9999999999999999
 10
135.6363875444808
 20
93.3698670756648
 30
0.0
 10
135.6616474826849
 20
93.34048940583304
 30
0.0
 10
135.7121673590933
 20
93.28173406616948
 30
0.0
 10
135.8110259682936
 20
93.2191439232905
 30
0.0
 10
135.9204132481171
 20
93.17761112165758
 30
0.0
 10
135.9977294456929
 20
93.17244842432906
 30
0.0
 10
136.0363875444808
 20
93.16986707566481
 30
0.0
  0
LINE
  5
D6
330
1F
100
AcDbEntity
  8
0
  6
Continuous
 62
     7
370
    25
100
AcDbLine
 10
133.5364009998
 20
93.6567786015
 30
0.0
 11
120.9980555964
 21
93.6567786015
 31
0.0
  0
LINE
  5
D7
330
1F
100
AcDbEntity
  8
0
  6
Continuous
 62
     7
370
    25
100
AcDbLine
 10
135.6363875445
 20
93.3698670757
 30
0.0
 11
133.2363875445
 21
96.5698670757
 31
0.0
  0
LINE
  5
D8
330
1F
100
AcDbEntity
  8
0
  6
Continuous
 62
     7
370
    25
100
AcDbLine
 10
131.4128417463
 20
96.4881909395
 30
0.0
 11
133.5364009998
 21
93.6567786015
 31
0.0
  0
ELLIPSE
  5
D9
330
1F
100
AcDbEntity
  8
0
  6
Continuous
 62
     7
370
    25
100
AcDbEllipse
 10
131.4363875445
 20
96.4698670757
 30
0.0
 11
1.560063634884926
 21
0.4198716740993262
 31
0.0
210
0.0
220
0.0
230
1.0
 40
0.0147408623
 41
0.9331929812042576
 42
1.581922327328501
  0
SPLINE
  5
DA
330
1F
100
AcDbEntity
  8
0
  6
Continuous
 62
     7
370
    25
100
AcDbSpline
210
0.0
220
0.0
230
1.0
 70
     8
 71
     3
 72
    11
 73
     7
 74
     0
 42
0.00000001
 43
0.00000001
 40
0.0
 40
0.0
 40
0.0
 40
0.0
 40
0.2307374805226519
 40
0.4903955403005864
 40
0.7438105520730666
 40
0.9999999999999999
 40
0.9999999999999999
 40
0.9999999999999999
 40
0.9999999999999999
 10
132.3600755481158
 20
96.73828307081813
 30
0.0
 10
132.4517075528753
 20
96.75699892122256
 30
0.0
 10
132.646456695412
 20
96.79677646213395
 30
0.0
 10
132.8939642626499
 20
96.77945647357534
 30
0.0
 10
133.103772992044
 20
96.70847158124917
 30
0.0
 10
133.1920225415244
 20
96.61623596344548
 30
0.0
 10
133.2363875444808
 20
96.56986707566482
 30
0.0
  0
LINE
  5
DB
330
1F
100
AcDbEntity
  8
0
  6
Continuous
 62
     7
370
    25
100
AcDbLine
 10
117.9296670912
 20
87.7091324981
 30
0.0
 11
96.3021189225
 21
87.7091324981
 31
0.0
  0
LINE
  5
DC
330
1F
100
AcDbEntity
  8
0
  6
Continuous
 62
     7
370
    25
100
AcDbLine
 10
96.3021189225
 20
87.7091324981
 30
0.0
 11
96.5245638336
 21
96.2039609346
 31
0.0
  0
ARC
  5
DD
330
1F
100
AcDbEntity
  8
0
  6
Continuous
 62
     7
370
    25
100
AcDbCircle
 10
97.1361039485
 20
95.6881909395
 30
0.0
 40
0.8000000000000114
100
AcDbArc
 50
90.0
 51
139.8558773282
  0
LINE
  5
DE
330
1F
100
AcDbEntity
  8
0
  6
Continuous
 62
     7
370
    25
100
AcDbLine
 10
97.1361039485
 20
96.4881909395
 30
0.0
 11
131.4128417463
 21
96.4881909395
 31
0.0
  0
SPLINE
  5
DF
330
1F
100
AcDbEntity
  8
0
  6
Continuous
 62
     7
370
    25
100
AcDbSpline
210
0.0
220
0.0
230
1.0
 70
     8
 71
     3
 72
    11
 73
     7
 74
     0
 42
0.00000001
 43
0.00000001
 40
0.0
 40
0.0
 40
0.0
 40
0.0
 40
0.249999999999998
 40
0.4999999999999973
 40
0.7500000000000001
 40
1.0
 40
1.0
 40
1.0
 40
1.0
 10
97.13610394854564
 20
96.48819093948033
 30
0.0
 10
97.13643180980144
 20
96.57808998660734
 30
0.0
 10
97.13708753231306
 20
96.75788808086136
 30
0.0
 10
97.14134650145232
 20
96.98260429009633
 30
0.0
 10
97.14733835711414
 20
97.1393653751258
 30
0.0
 10
97.15206047452517
 20
97.15969984215181
 30
0.0
 10
97.15442153323066
 20
97.16986707566481
 30
0.0
  0
LINE
  5
E0
330
1F
100
AcDbEntity
  8
0
  6
Continuous
 62
     7
370
    25
100
AcDbLine
 10
131.431159331
 20
97.1698670757
 30
0.0
 11
97.1544215332
 21
97.1698670757
 31
0.0
  0
SPLINE
  5
E1
330
1F
100
AcDbEntity
  8
0
  6
Continuous
 62
     7
370
    25
100
AcDbSpline
210
0.0
220
0.0
230
1.0
 70
     8
 71
     3
 72
    11
 73
     7
 74
     0
 42
0.00000001
 43
0.00000001
 40
0.0
 40
0.0
 40
0.0
 40
0.0
 40
0.2500000000000001
 40
0.4999999999999993
 40
0.7500000000000028
 40
1.0
 40
1.0
 40
1.0
 40
1.0
 10
131.4311593309683
 20
97.1698670756648
 30
0.0
 10
131.4287982722628
 20
97.15969984215181
 30
0.0
 10
131.4240761548518
 20
97.13936537512579
 30
0.0
 10
131.41808429919
 20
96.9826042900963
 30
0.0
 10
131.4138253300507
 20
96.75788808086135
 30
0.0
 10
131.4131696075391
 20
96.57808998660731
 30
0.0
 10
131.4128417462833
 20
96.48819093948032
 30
0.0
  0
LINE
  5
E2
330
1F
100
AcDbEntity
  8
0
  6
Continuous
 62
     7
370
    25
100
AcDbLine
 10
132.0363875445
 20
97.1698670757
 30
0.0
 11
131.431159331
 21
97.1698670757
 31
0.0
  0
SPLINE
  5
E3
330
1F
100
AcDbEntity
  8
0
  6
Continuous
 62
     7
370
    25
100
AcDbSpline
210
0.0
220
0.0
230
1.0
 70
     8
 71
     3
 72
    10
 73
     6
 74
     0
 42
0.00000001
 43
0.00000001
 40
0.0
 40
0.0
 40
0.0
 40
0.0
 40
0.2808335173386727
 40
0.561651091741416
 40
1.0
 40
1.0
 40
1.0
 40
1.0
 10
132.0363875444808
 20
97.1698670756648
 30
0.0
 10
132.0747379934432
 20
97.16229246739688
 30
0.0
 10
132.1514367142107
 20
97.14714368087202
 30
0.0
 10
132.2765910642527
 20
97.01351274781236
 30
0.0
 10
132.328460130606
 20
96.8425120334541
 30
0.0
 10
132.3600755481158
 20
96.73828307081811
 30
0.0
  0
LINE
  5
E4
330
1F
100
AcDbEntity
  8
0
  6
Continuous
 62
     7
370
    25
100
AcDbLine
 10
96.3021189225
 20
87.7091324981
 30
0.0
 11
96.259126495
 21
87.6462454133
 31
0.0
  0
ELLIPSE
  5
E5
330
1F
100
AcDbEntity
  8
0
  6
Continuous
 62
     7
370
    25
100
AcDbEllipse
 10
92.0363875445
 20
87.6698670757
 30
0.0
 11
0.5000325503427234
 21
1.499994860147737
 31
0.0
210
0.0
220
0.0
230
1.0
 40
0.0078530307
 41
2.363888000157057
 42
3.144210503888254
  0
SPLINE
  5
E6
330
1F
100
AcDbEntity
  8
0
  6
Continuous
 62
     7
370
    25
100
AcDbSpline
210
0.0
220
0.0
230
1.0
 70
     8
 71
     3
 72
    12
 73
     8
 74
     0
 42
0.00000001
 43
0.00000001
 40
0.0
 40
0.0
 40
0.0
 40
0.0
 40
0.071520202616614
 40
0.1260836237049448
 40
0.3855387013103015
 40
0.8475626424815556
 40
1.0
 40
1.0
 40
1.0
 40
1.0
 10
92.01095893148018
 20
86.99817502531401
 30
0.0
 10
91.9965047967013
 20
86.99506637744919
 30
0.0
 10
91.97102346941527
 20
86.98958611350585
 30
0.0
 10
91.90455174176905
 20
86.94999756808548
 30
0.0
 10
91.79984735463609
 20
86.84356343510315
 30
0.0
 10
91.71301879578967
 20
86.71305641939495
 30
0.0
 10
91.68002222907985
 20
86.6255467054316
 30
0.0
 10
91.67183634422892
 20
86.60383703944905
 30
0.0
  0
ELLIPSE
  5
E7
330
1F
100
AcDbEntity
  8
0
  6
Continuous
 62
     7
370
    25
100
AcDbEllipse
 10
60.1122507039
 20
87.6698670757
 30
0.0
 11
36.17607470647088
 21
0.04043410480177556
 31
0.0
210
0.0
220
0.0
230
1.0
 40
0.0414488012
 41
5.791928562280354
 42
6.243021298617577
  0
ELLIPSE
  5
E8
330
1F
100
AcDbEntity
  8
0
  6
Continuous
 62
     7
370
    25
100
AcDbEllipse
 10
96.3413708896
 20
87.6698670757
 30
0.0
 11
0.03725061189166468
 21
1.499998630535856
 31
0.0
210
0.0
220
0.0
230
1.0
 40
0.0544129722
 41
1.585352277991072
 42
1.587896030767899
  0
LINE
  5
E9
330
1F
100
AcDbEntity
  8
0
  6
Continuous
 62
     7
370
    25
100
AcDbLine
 10
91.5363875445
 20
86.1698670757
 30
0.0
 11
117.9689190584
 21
86.1698670757
 31
0.0
  0
SPLINE
  5
EA
330
1F
100
AcDbEntity
  8
0
  6
Continuous
 62
     7
370
    25
100
AcDbSpline
210
0.0
220
0.0
230
1.0
 70
     8
 71
     3
 72
    11
 73
     7
 74
     0
 42
0.00000001
 43
0.00000001
 40
0.0
 40
0.0
 40
0.0
 40
0.0
 40
0.2561894651307308
 40
0.5096044939206931
 40
0.7692742066553655
 40
1.0
 40
1.0
 40
1.0
 40
1.0
 10
133.2363875444808
 20
96.5698670756648
 30
0.0
 10
133.1607914121869
 20
96.65787744065322
 30
0.0
 10
133.0104178255122
 20
96.83294505120784
 30
0.0
 10
132.711205039557
 20
97.0231326209094
 30
0.0
 10
132.3836853046702
 20
97.14713142163511
 30
0.0
 10
132.1475069238564
 20
97.16259270751426
 30
0.0
 10
132.0363875444808
 20
97.1698670756648
 30
0.0
  0
ARC
  5
EB
330
1F
100
AcDbEntity
  8
0
  6
Continuous
 62
     7
370
    25
100
AcDbCircle
 10
100.7351257666
 20
87.6748711236
 30
0.0
 40
8.75037168219557
100
AcDbArc
 50
182.878079786
 51
184.4353064954
  0
ELLIPSE
  5
EC
330
1F
100
AcDbEntity
  8
0
  6
Continuous
 62
     7
370
    25
100
AcDbEllipse
 10
60.085380345
 20
87.6833022551
 30
0.0
 11
36.18915847374971
 21
0.02692057091444156
 31
0.0
210
0.0
220
0.0
230
1.0
 40
0.0276225703
 41
5.791964074121238
 42
6.254836299513471
  0
SPLINE
  5
ED
330
1F
100
AcDbEntity
  8
0
  6
Continuous
 62
     7
370
    25
100
AcDbSpline
210
0.0
220
0.0
230
1.0
 70
     8
 71
     3
 72
     9
 73
     5
 74
     0
 42
0.00000001
 43
0.00000001
 40
0.0
 40
0.0
 40
0.0
 40
0.0
 40
0.8673350121728702
 40
1.0
 40
1.0
 40
1.0
 40
1.0
 10
96.26001886815638
 20
87.68187707152737
 30
0.0
 10
96.25978148252649
 20
87.67267864815219
 30
0.0
 10
96.2595077870956
 20
87.66207326125313
 30
0.0
 10
96.25925190058699
 20
87.65146763665172
 30
0.0
 10
96.25921795340643
 20
87.65006064159307
 30
0.0
  0
LINE
  5
EE
330
1F
100
AcDbEntity
  8
0
  6
Continuous
 62
     7
370
    25
100
AcDbLine
 10
96.5093186095
 20
96.1626773103
 30
0.0
 11
96.4824482506
 21
96.1761124897
 31
0.0
  0
LINE
  5
EF
330
1F
100
AcDbEntity
  8
0
  6
Continuous
 62
     7
370
    25
100
AcDbLine
 10
96.5093186095
 20
96.1626773103
 30
0.0
 11
96.2873906033
 21
87.6875886796
 31
0.0
  0
LINE
  5
F0
330
1F
100
AcDbEntity
  8
0
  6
Continuous
 62
     7
370
    25
100
AcDbLine
 10
96.4824482506
 20
96.1761124897
 30
0.0
 11
96.2600188682
 21
87.6818770715
 31
0.0
  0
ARC
  5
F1
330
1F
100
AcDbEntity
  8
0
  6
Continuous
 62
     7
370
    25
100
AcDbCircle
 10
97.1168030308
 20
95.6886763269
 30
0.0
 40
0.8000000000000038
100
AcDbArc
 50
142.4614409777
 51
153.4349488229
  0
LINE
  5
F2
330
1F
100
AcDbEntity
  8
0
  6
Continuous
 62
     7
370
    25
100
AcDbLine
 10
91.9957914538
 20
87.2355075549
 30
0.0
 11
96.401261278
 21
96.0464472033
 31
0.0
  0
SPLINE
  5
F3
330
1F
100
AcDbEntity
  8
0
  6
Continuous
 62
     7
370
    25
100
AcDbSpline
210
0.0
220
0.0
230
1.0
 70
     8
 71
     3
 72
    12
 73
     8
 74
     0
 42
0.00000001
 43
0.00000001
 40
0.0
 40
0.0
 40
0.0
 40
0.0
 40
0.139683458618249
 40
0.3831896274038307
 40
0.5513169293013304
 40
0.8194729461607057
 40
1.0
 40
1.0
 40
1.0
 40
1.0
 10
91.23383060357556
 20
87.18278718260427
 30
0.0
 10
91.24407198432185
 20
87.19609955626522
 30
0.0
 10
91.27216687051015
 20
87.23261900927318
 30
0.0
 10
91.37931723186496
 20
87.27029106986457
 30
0.0
 10
91.55965431927791
 20
87.29465839062607
 30
0.0
 10
91.76811046384688
 20
87.29354135586212
 30
0.0
 10
91.93046736455085
 20
87.25215806748454
 30
0.0
 10
91.99579145379924
 20
87.23550755486914
 30
0.0
  0
LWPOLYLINE
  5
F4
330
1F
100
AcDbEntity
  8
0
  6
Continuous
 62
     7
370
    25
100
AcDbPolyline
 90
        9
 70
   128
 43
0.0
 10
91.2338306036
 20
87.1827871826
 10
91.2109801138
 20
87.106456705
 10
91.2138852398
 20
87.0220567057
 10
91.2423868048
 20
86.9342116052
 10
91.2949231593
 20
86.8477345869
 10
91.3686157465
 20
86.7673638745
 10
91.4594268233
 20
86.6975031171
 10
91.5623806955
 20
86.6419801052
 10
91.6718363442
 20
86.6038370394
  0
SPLINE
  5
F5
330
1F
100
AcDbEntity
  8
0
  6
Continuous
 62
     7
370
    25
100
AcDbSpline
210
0.0
220
0.0
230
1.0
 70
    24
 71
     3
 72
    11
 73
     7
 74
     0
 42
0.00000001
 43
0.00000001
 40
0.0
 40
0.0
 40
0.0
 40
0.0
 40
0.249999999999999
 40
0.4999999999999981
 40
0.7499999999999997
 40
1.0
 40
1.0
 40
1.0
 40
1.0
 10
96.40126127800382
 20
96.04644720327825
 30
0.0
 10
96.32302616967155
 20
96.08556475744439
 30
0.0
 10
96.16655595300702
 20
96.16379986577664
 30
0.0
 10
95.97322980159056
 20
96.26046294148487
 30
0.0
 10
95.83885336931155
 20
96.32765115762439
 30
0.0
 10
95.82147162092437
 20
96.33634203181796
 30
0.0
 10
95.8127807467308
 20
96.34068746891477
 30
0.0
  0
LINE
  5
F6
330
1F
100
AcDbEntity
  8
0
  6
Continuous
 62
     7
370
    25
100
AcDbLine
 10
95.8127807467
 20
96.3406874689
 30
0.0
 11
91.2338306036
 21
87.1827871826
 31
0.0
  0
LINE
  5
F7
330
1F
100
AcDbEntity
  8
0
  6
Continuous
 62
     7
370
    25
100
AcDbLine
 10
96.3899963896
 20
96.3145795696
 30
0.0
 11
96.0077838178
 21
96.6369358165
 31
0.0
  0
SPLINE
  5
F8
330
1F
100
AcDbEntity
  8
0
  6
Continuous
 62
     7
370
    25
100
AcDbSpline
210
0.0
220
0.0
230
1.0
 70
     8
 71
     3
 72
    12
 73
     8
 74
     0
 42
0.00000001
 43
0.00000001
 40
0.0
 40
0.0
 40
0.0
 40
0.0
 40
0.2198609600791294
 40
0.4397396970008149
 40
0.6583291451397768
 40
0.8791239516843601
 40
1.0
 40
1.0
 40
1.0
 40
1.0
 10
96.52456383363975
 20
96.20396093459532
 30
0.0
 10
96.46464877091087
 20
96.25444915072319
 30
0.0
 10
96.34481380102487
 20
96.35542966520015
 30
0.0
 10
96.18807881275035
 20
96.4870926581502
 30
0.0
 10
96.07151048896422
 20
96.58465398092325
 30
0.0
 10
96.01525379716998
 20
96.63131337239997
 30
0.0
 10
96.00973592595365
 20
96.63546651940132
 30
0.0
 10
96.00778381778213
 20
96.6369358165054
 30
0.0
  0
SPLINE
  5
F9
330
1F
100
AcDbEntity
  8
0
  6
Continuous
 62
     7
370
    25
100
AcDbSpline
210
0.0
220
0.0
230
1.0
 70
     8
 71
     3
 72
    12
 73
     8
 74
     0
 42
0.00000001
 43
0.00000001
 40
0.0
 40
0.0
 40
0.0
 40
0.0
 40
0.0006864401058021
 40
0.2840613788817197
 40
0.5703177902163793
 40
0.8469872112136484
 40
1.0
 40
1.0
 40
1.0
 40
1.0
 10
96.48729206895024
 20
96.23328462209295
 30
0.0
 10
96.48725135119312
 20
96.23331891672986
 30
0.0
 10
96.47040160403184
 20
96.24751066014177
 30
0.0
 10
96.44117266791861
 20
96.27204293998903
 30
0.0
 10
96.4079266222199
 20
96.29987252473643
 30
0.0
 10
96.39224439911001
 20
96.31287338770908
 30
0.0
 10
96.390664171304
 20
96.31406620059516
 30
0.0
 10
96.39010144131889
 20
96.31449096946399
 30
0.0
  0
SPLINE
  5
FA
330
1F
100
AcDbEntity
  8
0
  6
Continuous
 62
     7
370
    25
100
AcDbSpline
210
0.0
220
0.0
230
1.0
 70
     8
 71
     3
 72
    12
 73
     8
 74
     0
 42
0.00000001
 43
0.00000001
 40
0.0
 40
0.0
 40
0.0
 40
0.0
 40
0.2225634137435272
 40
0.4462063173695678
 40
0.6680851268158017
 40
0.8917990985569293
 40
1.0
 40
1.0
 40
1.0
 40
1.0
 10
95.96500632036228
 20
96.5838098809854
 30
0.0
 10
95.97059288646479
 20
96.5783828083717
 30
0.0
 10
95.98179311495433
 20
96.56750234044424
 30
0.0
 10
96.07584389264143
 20
96.49220890942394
 30
0.0
 10
96.21533495603943
 20
96.38273036467065
 30
0.0
 10
96.36055905587584
 20
96.27001572412412
 30
0.0
 10
96.45248222460586
 20
96.19919826667993
 30
0.0
 10
96.48244825060726
 20
96.17611248971593
 30
0.0
  0
LINE
  5
FB
330
1F
100
AcDbEntity
  8
0
  6
Continuous
 62
     7
370
    25
100
AcDbLine
 10
96.361478058
 20
96.2791622792
 30
0.0
 11
95.9650063204
 21
96.583809881
 31
0.0
  0
ARC
  5
FC
330
1F
100
AcDbEntity
  8
0
  6
Continuous
 62
     7
370
    25
100
AcDbCircle
 10
97.1544215332
 20
95.6698670757
 30
0.0
 40
1.500000000000012
100
AcDbArc
 50
90.0
 51
139.8558773282
  0
ARC
  5
FD
330
1F
100
AcDbEntity
  8
0
  6
Continuous
 62
     7
370
    25
100
AcDbCircle
 10
97.1544215332
 20
95.6698670757
 30
0.0
 40
1.500000000000014
100
AcDbArc
 50
142.4614409777
 51
153.4349488229
  0
LINE
  5
FE
330
1F
100
AcDbEntity
  8
0
  6
Continuous
 62
     7
370
    25
100
AcDbLine
 10
91.089173949
 20
86.8934738734
 30
0.0
 11
91.2338306036
 21
87.1827871826
 31
0.0
  0
ARC
  5
FF
330
1F
100
AcDbEntity
  8
0
  6
Continuous
 62
     7
370
    25
100
AcDbCircle
 10
91.5363875445
 20
86.6698670757
 30
0.0
 40
0.5
100
AcDbArc
 50
153.4349488229
 51
270.0
  0
SPLINE
  5
100
330
1F
100
AcDbEntity
  8
0
  6
Continuous
 62
     7
370
    25
100
AcDbSpline
210
0.0
220
0.0
230
1.0
 70
     8
 71
     3
 72
     9
 73
     5
 74
     0
 42
0.00000001
 43
0.00000001
 40
0.0
 40
0.0
 40
0.0
 40
0.0
 40
0.5600029565045499
 40
1.0
 40
1.0
 40
1.0
 40
1.0
 10
96.00778381778214
 20
96.6369358165054
 30
0.0
 10
95.99963605842902
 20
96.62714935434543
 30
0.0
 10
95.98508656496927
 20
96.60967362132246
 30
0.0
 10
95.9711419220287
 20
96.59171265365667
 30
0.0
 10
95.96500632036228
 20
96.5838098809854
 30
0.0
  0
LINE
  5
101
330
1F
100
AcDbEntity
  8
0
  6
Continuous
 62
     7
370
    25
100
AcDbLine
 10
138.1303266894
 20
86.5579426614
 30
0.0
 11
138.1324668046
 21
86.781481115
 31
0.0
  0
SPLINE
  5
102
330
1F
100
AcDbEntity
  8
0
  6
Continuous
 62
     7
370
    25
100
AcDbSpline
210
0.0
220
0.0
230
1.0
 70
     8
 71
     3
 72
    10
 73
     6
 74
     0
 42
0.00000001
 43
0.00000001
 40
0.0
 40
0.0
 40
0.0
 40
0.0
 40
0.353646623708164
 40
0.7182931081305524
 40
1.0
 40
1.0
 40
1.0
 40
1.0
 10
138.28161465327
 20
84.61167401495057
 30
0.0
 10
138.2441076189607
 20
84.16813636483201
 30
0.0
 10
138.1679269277151
 20
83.26726522421143
 30
0.0
 10
138.2063633303283
 20
81.88925592940016
 30
0.0
 10
138.2693454496613
 20
80.97122189809531
 30
0.0
 10
138.2967955995815
 20
80.57110561020188
 30
0.0
  0
LINE
  5
103
330
1F
100
AcDbEntity
  8
0
  6
Continuous
 62
     7
370
    25
100
AcDbLine
 10
138.1303266894
 20
86.5579426614
 30
0.0
 11
138.2816146533
 21
84.611674015
 31
0.0
  0
LINE
  5
104
330
1F
100
AcDbEntity
  8
0
  6
Continuous
 62
     7
370
    25
100
AcDbLine
 10
138.3563875445
 20
78.4698670757
 30
0.0
 11
138.4177423373
 21
78.4698670757
 31
0.0
  0
LWPOLYLINE
  5
105
330
1F
100
AcDbEntity
  8
0
  6
Continuous
 62
     7
370
    25
100
AcDbPolyline
 90
        3
 70
   128
 43
0.0
 10
138.5537548798
 20
77.1201152162
 10
138.5124561076
 20
77.5299163607
 10
138.4177423373
 20
78.4698670757
  0
SPLINE
  5
106
330
1F
100
AcDbEntity
  8
0
  6
Continuous
 62
     7
370
    25
100
AcDbSpline
210
0.0
220
0.0
230
1.0
 70
     8
 71
     3
 72
    11
 73
     7
 74
     0
 42
0.00000001
 43
0.00000001
 40
0.0
 40
0.0
 40
0.0
 40
0.0
 40
0.292057402818308
 40
0.5665622171831297
 40
0.8065682389915584
 40
1.0
 40
1.0
 40
1.0
 40
1.0
 10
138.4201819374274
 20
92.66986707566483
 30
0.0
 10
138.4518424737429
 20
92.65303527961613
 30
0.0
 10
138.5132607548035
 20
92.62038327491945
 30
0.0
 10
138.5931731140681
 20
92.36499138787848
 30
0.0
 10
138.6322719277956
 20
92.02926847130381
 30
0.0
 10
138.616855564866
 20
91.78076677648274
 30
0.0
 10
138.6099756518819
 20
91.6698670756527
 30
0.0
  0
LINE
  5
107
330
1F
100
AcDbEntity
  8
0
  6
Continuous
 62
     7
370
    25
100
AcDbLine
 10
138.6099756519
 20
91.6698670757
 30
0.0
 11
138.1324668046
 21
86.781481115
 31
0.0
  0
LINE
  5
108
330
1F
100
AcDbEntity
  8
0
  6
Continuous
 62
     7
370
    25
100
AcDbLine
 10
138.9777786537
 20
94.6698670757
 30
0.0
 11
154.0949964352
 21
94.6698670757
 31
0.0
  0
LINE
  5
109
330
1F
100
AcDbEntity
  8
0
  6
Continuous
 62
     7
370
    25
100
AcDbLine
 10
154.0838937634
 20
76.6698670757
 30
0.0
 11
139.0554216894
 21
76.6698670757
 31
0.0
  0
SPLINE
  5
10A
330
1F
100
AcDbEntity
  8
0
  6
Continuous
 62
     7
370
    25
100
AcDbSpline
210
0.0
220
0.0
230
1.0
 70
     8
 71
     3
 72
    12
 73
     8
 74
     0
 42
0.00000001
 43
0.00000001
 40
0.0
 40
0.0
 40
0.0
 40
0.0
 40
0.2316347876629371
 40
0.4633066480819601
 40
0.6939442291381566
 40
0.922740652522644
 40
1.0
 40
1.0
 40
1.0
 40
1.0
 10
139.0554216893924
 20
76.66986707566481
 30
0.0
 10
138.9983683717437
 20
76.67545654069508
 30
0.0
 10
138.8842526051592
 20
76.68663636534004
 30
0.0
 10
138.7323992746811
 20
76.77395943129571
 30
0.0
 10
138.6182318917972
 20
76.90226960507776
 30
0.0
 10
138.5664775594299
 20
77.02694903177557
 30
0.0
 10
138.5563192084429
 20
77.10133704052888
 30
0.0
 10
138.5537548798354
 20
77.1201152161543
 30
0.0
  0
SPLINE
  5
10B
330
1F
100
AcDbEntity
  8
0
  6
Continuous
 62
     7
370
    25
100
AcDbSpline
210
0.0
220
0.0
230
1.0
 70
     8
 71
     3
 72
     9
 73
     5
 74
     0
 42
0.00000001
 43
0.00000001
 40
0.0
 40
0.0
 40
0.0
 40
0.0
 40
0.7210175706402112
 40
1.0
 40
1.0
 40
1.0
 40
1.0
 10
136.8803160001782
 20
86.36766721189969
 30
0.0
 10
136.811382781182
 20
86.43091802480899
 30
0.0
 10
136.7157773177325
 20
86.51864239587131
 30
0.0
 10
136.5755175540847
 20
86.56345158221527
 30
0.0
 10
136.5363875444808
 20
86.57595255787915
 30
0.0
  0
ARC
  5
10C
330
1F
100
AcDbEntity
  8
0
  6
Continuous
 62
     7
370
    25
100
AcDbCircle
 10
129.8141612056
 20
79.291689794
 30
0.0
 40
10.00000000000004
100
AcDbArc
 50
32.1405798582
 51
45.0397956095
  0
SPLINE
  5
10D
330
1F
100
AcDbEntity
  8
0
  6
Continuous
 62
     7
370
    25
100
AcDbSpline
210
0.0
220
0.0
230
1.0
 70
     8
 71
     3
 72
     9
 73
     5
 74
     0
 42
0.00000001
 43
0.00000001
 40
0.0
 40
0.0
 40
0.0
 40
0.0
 40
0.4474581094010266
 40
0.9999999999999999
 40
0.9999999999999999
 40
0.9999999999999999
 40
0.9999999999999999
 10
136.5363875444808
 20
82.2021788948419
 30
0.0
 10
136.8100381461591
 20
81.97424595147498
 30
0.0
 10
137.4216051195338
 20
81.46485090738467
 30
0.0
 10
137.9853196868168
 20
80.8891850895445
 30
0.0
 10
138.2967955995815
 20
80.57110561020188
 30
0.0
  0
LINE
  5
10E
330
1F
100
AcDbEntity
  8
0
  6
Continuous
 62
     7
370
    25
100
AcDbLine
 10
136.8803160002
 20
91.6698670757
 30
0.0
 11
136.8803160002
 21
86.3676672119
 31
0.0
  0
LINE
  5
10F
330
1F
100
AcDbEntity
  8
0
  6
Continuous
 62
     7
370
    25
100
AcDbLine
 10
138.6099756519
 20
91.6698670757
 30
0.0
 11
136.8803160002
 21
91.6698670757
 31
0.0
  0
LINE
  5
110
330
1F
100
AcDbEntity
  8
0
  6
Continuous
 62
     7
370
    25
100
AcDbLine
 10
136.5363875445
 20
92.6698670757
 30
0.0
 11
138.4201819374
 21
92.6698670757
 31
0.0
  0
ARC
  5
111
330
1F
100
AcDbEntity
  8
0
  6
Continuous
 62
     7
370
    25
100
AcDbCircle
 10
98.9238468701
 20
99.3792122968
 30
0.0
 40
4.021945305514869
100
AcDbArc
 50
230.4243196696
 51
233.1058614851
  0
LINE
  5
112
330
1F
100
AcDbEntity
  8
0
  6
Continuous
 62
     7
370
    25
100
AcDbLine
 10
147.0634607106
 20
70.6698670757
 30
0.0
 11
154.7863875445
 21
70.6698670757
 31
0.0
  0
LINE
  5
113
330
1F
100
AcDbEntity
  8
0
  6
Continuous
 62
     7
370
    25
100
AcDbLine
 10
138.2863875445
 20
70.6698670757
 30
0.0
 11
146.0093143784
 21
70.6698670757
 31
0.0
  0
LINE
  5
114
330
1F
100
AcDbEntity
  8
0
  6
Continuous
 62
     7
370
    25
100
AcDbLine
 10
146.4735046797
 20
94.7578094111
 30
0.0
 11
146.4735046797
 21
94.769759973
 31
0.0
  0
LINE
  5
115
330
1F
100
AcDbEntity
  8
0
  6
Continuous
 62
     7
370
    25
100
AcDbLine
 10
146.5992704093
 20
94.7578094111
 30
0.0
 11
146.5992704093
 21
94.769759973
 31
0.0
  0
LINE
  5
116
330
1F
100
AcDbEntity
  8
0
  6
Continuous
 62
     7
370
    25
100
AcDbLine
 10
138.1324668046
 20
86.781481115
 30
0.0
 11
155.5224357896
 21
86.781481115
 31
0.0
  0
LINE
  5
117
330
1F
100
AcDbEntity
  8
0
  6
Continuous
 62
     7
370
    25
100
AcDbLine
 10
155.5251951031
 20
86.5579426614
 30
0.0
 11
138.1303266894
 21
86.5579426614
 31
0.0
  0
LINE
  5
118
330
1F
100
AcDbEntity
  8
0
  6
Continuous
 62
     7
370
    25
100
AcDbLine
 10
138.5537548798
 20
77.1201152162
 30
0.0
 11
154.5814123585
 21
77.1201152162
 31
0.0
  0
LINE
  5
119
330
1F
100
AcDbEntity
  8
0
  6
Continuous
 62
     7
370
    25
100
AcDbLine
 10
154.5911353736
 20
94.231884443
 30
0.0
 11
138.4816397154
 21
94.231884443
 31
0.0
  0
LINE
  5
11A
330
1F
100
AcDbEntity
  8
0
  6
Continuous
 62
     7
370
    25
100
AcDbLine
 10
136.5363875445
 20
91.6698670757
 30
0.0
 11
136.8803160002
 21
91.6698670757
 31
0.0
  0
ARC
  5
11B
330
1F
100
AcDbEntity
  8
0
  6
Continuous
 62
     7
370
    25
100
AcDbCircle
 10
135.7744422813
 20
91.7245316587
 30
0.0
 40
1.10722396053292
100
AcDbArc
 50
357.1701084939
 51
46.5155082001
  0
LINE
  5
11C
330
1F
100
AcDbEntity
  8
0
  6
Continuous
 62
     7
370
    25
100
AcDbLine
 10
96.2873906033
 20
87.6875886796
 30
0.0
 11
96.5093180397
 21
96.1626555509
 31
0.0
  0
LINE
  5
11D
330
1F
100
AcDbEntity
  8
0
  6
CENTERX2
 62
     7
370
    18
100
AcDbLine
 10
115.1415277403
 20
56.1698670757
 30
0.0
 11
175.5363875445
 21
56.1698670757
 31
0.0
  0
LINE
  5
11E
330
1F
100
AcDbEntity
  8
0
  6
CENTERX2
 62
     7
370
    18
100
AcDbLine
 10
146.5363875445
 20
40.3654145634
 30
0.0
 11
146.5363875445
 21
96.4565520342
 31
0.0
  0
LINE
  5
11F
330
1F
100
AcDbEntity
  8
0
  6
Continuous
 62
     7
370
    25
100
AcDbLine
 10
226.2413827282
 20
75.6698670757
 30
0.0
 11
225.7413827282
 21
76.1698670757
 31
0.0
  0
LINE
  5
120
330
1F
100
AcDbEntity
  8
0
  6
Continuous
 62
     7
370
    25
100
AcDbLine
 10
210.2413827282
 20
76.1698670757
 30
0.0
 11
209.7413827282
 21
75.6698670757
 31
0.0
  0
LINE
  5
121
330
1F
100
AcDbEntity
  8
0
  6
Continuous
 62
     7
370
    25
100
AcDbLine
 10
226.2413827282
 20
70.6698670757
 30
0.0
 11
226.2413827282
 21
75.6698670757
 31
0.0
  0
LINE
  5
122
330
1F
100
AcDbEntity
  8
0
  6
Continuous
 62
     7
370
    25
100
AcDbLine
 10
209.7413827282
 20
75.6698670757
 30
0.0
 11
209.7413827282
 21
70.6698670757
 31
0.0
  0
LINE
  5
123
330
1F
100
AcDbEntity
  8
0
  6
Continuous
 62
     7
370
    25
100
AcDbLine
 10
212.9913827282
 20
78.4698670757
 30
0.0
 11
212.9913827282
 21
76.1698670757
 31
0.0
  0
LINE
  5
124
330
1F
100
AcDbEntity
  8
0
  6
Continuous
 62
     7
370
    25
100
AcDbLine
 10
222.9913827282
 20
76.1698670757
 30
0.0
 11
222.9913827282
 21
76.6698670757
 31
0.0
  0
SPLINE
  5
125
330
1F
100
AcDbEntity
  8
0
  6
Continuous
 62
     7
370
    25
100
AcDbSpline
210
0.0
220
0.0
230
1.0
 70
     8
 71
     3
 72
    14
 73
    10
 74
     0
 42
0.00000001
 43
0.00000001
 40
0.0
 40
0.0
 40
0.0
 40
0.0
 40
0.1274204566292556
 40
0.3740716300450743
 40
0.5675830645796334
 40
0.7291483445084025
 40
0.8653606996380311
 40
0.9765533406376281
 40
0.9999999999999999
 40
0.9999999999999999
 40
0.9999999999999999
 40
0.9999999999999999
 10
209.7339722093273
 20
70.67082541845295
 30
0.0
 10
209.7344380251653
 20
70.63865326632094
 30
0.0
 10
209.735805533134
 20
70.54420462197893
 30
0.0
 10
209.6701390505929
 20
70.41056886522927
 30
0.0
 10
209.5689074986551
 20
70.29767466303058
 30
0.0
 10
209.4632716761612
 20
70.23098015936739
 30
0.0
 10
209.3660631438667
 20
70.19756702619927
 30
0.0
 10
209.2984066624992
 20
70.18526872690514
 30
0.0
 10
209.2649837677336
 20
70.18542971233649
 30
0.0
 10
209.2591633629457
 20
70.18545774702295
 30
0.0
  0
SPLINE
  5
126
330
1F
100
AcDbEntity
  8
0
  6
Continuous
 62
     7
370
    25
100
AcDbSpline
210
0.0
220
0.0
230
1.0
 70
     8
 71
     3
 72
    13
 73
     9
 74
     0
 42
0.00000001
 43
0.00000001
 40
0.0
 40
0.0
 40
0.0
 40
0.0
 40
0.1020045040861158
 40
0.2622768642457037
 40
0.4845747774888639
 40
0.7143780589591986
 40
0.9550829259883995
 40
1.0
 40
1.0
 40
1.0
 40
1.0
 10
226.7249566606887
 20
70.18601676233004
 30
0.0
 10
226.6994762016008
 20
70.1874147764098
 30
0.0
 10
226.6339601249431
 20
70.19100938972906
 30
0.0
 10
226.5173568358408
 20
70.22981755119893
 30
0.0
 10
226.3867168428526
 20
70.31628658138128
 30
0.0
 10
226.2857832030651
 20
70.45864315492383
 30
0.0
 10
226.2371932932532
 20
70.5857296914718
 30
0.0
 10
226.2443687024702
 20
70.65706419784443
 30
0.0
 10
226.2454971115333
 20
70.66828230416584
 30
0.0
  0
SPLINE
  5
127
330
1F
100
AcDbEntity
  8
0
  6
Continuous
 62
     7
370
    25
100
AcDbSpline
210
0.0
220
0.0
230
1.0
 70
     8
 71
     3
 72
     9
 73
     5
 74
     0
 42
0.00000001
 43
0.00000001
 40
0.0
 40
0.0
 40
0.0
 40
0.0
 40
0.4993165458323646
 40
1.0
 40
1.0
 40
1.0
 40
1.0
 10
219.0006755230771
 20
97.15743450441653
 30
0.0
 10
218.9775449054299
 20
97.16078554006415
 30
0.0
 10
218.9312203487127
 20
97.16749678501608
 30
0.0
 10
218.8846609555845
 20
97.16316961571042
 30
0.0
 10
218.861349437809
 20
97.1610030736357
 30
0.0
  0
SPLINE
  5
128
330
1F
100
AcDbEntity
  8
0
  6
Continuous
 62
     7
370
    25
100
AcDbSpline
210
0.0
220
0.0
230
1.0
 70
     8
 71
     3
 72
     9
 73
     5
 74
     0
 42
0.00000001
 43
0.00000001
 40
0.0
 40
0.0
 40
0.0
 40
0.0
 40
0.5006834545219033
 40
1.0
 40
1.0
 40
1.0
 40
1.0
 10
217.1214159659289
 20
97.16100307356328
 30
0.0
 10
217.0981044512779
 20
97.16316961422858
 30
0.0
 10
217.0515450644229
 20
97.16749678071614
 30
0.0
 10
217.0052205141663
 20
97.16078553436147
 30
0.0
 10
216.9820898997614
 20
97.1574344980158
 30
0.0
  0
LINE
  5
129
330
1F
100
AcDbEntity
  8
0
  6
Continuous
 62
     7
370
    25
100
AcDbLine
 10
215.5155282099
 20
96.5019174652
 30
0.0
 11
215.3847508552
 21
93.648655975
 31
0.0
  0
LINE
  5
12A
330
1F
100
AcDbEntity
  8
0
  6
Continuous
 62
     7
370
    25
100
AcDbLine
 10
220.5980146011
 20
93.648655975
 30
0.0
 11
220.4672372465
 21
96.5019174652
 31
0.0
  0
LINE
  5
12B
330
1F
100
AcDbEntity
  8
0
  6
Continuous
 62
     7
370
    25
100
AcDbLine
 10
216.038408748
 20
97.1470183562
 30
0.0
 11
215.989977805
 21
97.1258138421
 31
0.0
  0
SPLINE
  5
12C
330
1F
100
AcDbEntity
  8
0
  6
Continuous
 62
     7
370
    25
100
AcDbSpline
210
0.0
220
0.0
230
1.0
 70
     8
 71
     3
 72
     9
 73
     5
 74
     0
 42
0.00000001
 43
0.00000001
 40
0.0
 40
0.0
 40
0.0
 40
0.0
 40
0.0503631419175693
 40
0.9999999999999999
 40
0.9999999999999999
 40
0.9999999999999999
 40
0.9999999999999999
 10
215.5718905339466
 20
96.74042563360561
 30
0.0
 10
215.5699944533525
 20
96.73725557624161
 30
0.0
 10
215.5323462741101
 20
96.6743115810239
 30
0.0
 10
215.5258058310949
 20
96.59916398233001
 30
0.0
 10
215.5195947853394
 20
96.52780105281393
 30
0.0
  0
SPLINE
  5
12D
330
1F
100
AcDbEntity
  8
0
  6
Continuous
 62
     7
370
    25
100
AcDbSpline
210
0.0
220
0.0
230
1.0
 70
     8
 71
     3
 72
    11
 73
     7
 74
     0
 42
0.00000001
 43
0.00000001
 40
0.0
 40
0.0
 40
0.0
 40
0.0
 40
0.2436788845968566
 40
0.4915884466681921
 40
0.7437897073051963
 40
1.0
 40
1.0
 40
1.0
 40
1.0
 10
220.4631706710162
 20
96.52780105281394
 30
0.0
 10
220.4518667141877
 20
96.59692040471077
 30
0.0
 10
220.4290625447262
 20
96.73635913732763
 30
0.0
 10
220.3158977458218
 20
96.92101302986755
 30
0.0
 10
220.1536141530115
 20
97.07164153567679
 30
0.0
 10
220.014474913093
 20
97.12176101183961
 30
0.0
 10
219.9443567083606
 20
97.14701835615688
 30
0.0
  0
SPLINE
  5
12E
330
1F
100
AcDbEntity
  8
0
  6
Continuous
 62
     7
370
    25
100
AcDbSpline
210
0.0
220
0.0
230
1.0
 70
     8
 71
     3
 72
    10
 73
     6
 74
     0
 42
0.00000001
 43
0.00000001
 40
0.0
 40
0.0
 40
0.0
 40
0.0
 40
0.2663464296502963
 40
0.5214744039517436
 40
1.0
 40
1.0
 40
1.0
 40
1.0
 10
220.9461499250927
 20
93.19311285373111
 30
0.0
 10
220.9009684611761
 20
93.21209891947063
 30
0.0
 10
220.8125085670583
 20
93.24927136187168
 30
0.0
 10
220.6659242276588
 20
93.37883847998759
 30
0.0
 10
220.6119001108817
 20
93.50931787143047
 30
0.0
 10
220.5766628766795
 20
93.59442306424299
 30
0.0
  0
SPLINE
  5
12F
330
1F
100
AcDbEntity
  8
0
  6
Continuous
 62
     7
370
    25
100
AcDbSpline
210
0.0
220
0.0
230
1.0
 70
     8
 71
     3
 72
    10
 73
     6
 74
     0
 42
0.00000001
 43
0.00000001
 40
0.0
 40
0.0
 40
0.0
 40
0.0
 40
0.4785255960482551
 40
0.7336535703497066
 40
1.0
 40
1.0
 40
1.0
 40
1.0
 10
215.406102579676
 20
93.59442306424297
 30
0.0
 10
215.3708653454738
 20
93.50931787143044
 30
0.0
 10
215.3168412286967
 20
93.37883847998756
 30
0.0
 10
215.1702568892972
 20
93.24927136187166
 30
0.0
 10
215.0817969951794
 20
93.2120989194706
 30
0.0
 10
215.0366155312628
 20
93.1931128537311
 30
0.0
  0
ARC
  5
130
330
1F
100
AcDbEntity
  8
0
  6
Continuous
 62
     7
370
    25
100
AcDbCircle
 10
214.264644304
 20
91.6698670757
 30
0.0
 40
1.5
100
AcDbArc
 50
90.0
 51
180.0
  0
LINE
  5
131
330
1F
100
AcDbEntity
  8
0
  6
Continuous
 62
     7
370
    25
100
AcDbLine
 10
212.764644304
 20
91.6698670757
 30
0.0
 11
212.764644304
 21
86.4169124435
 31
0.0
  0
ARC
  5
132
330
1F
100
AcDbEntity
  8
0
  6
Continuous
 62
     7
370
    25
100
AcDbCircle
 10
221.7181211524
 20
91.6698670757
 30
0.0
 40
1.5
100
AcDbArc
 50
0.0
 51
90.0
  0
LINE
  5
133
330
1F
100
AcDbEntity
  8
0
  6
Continuous
 62
     7
370
    25
100
AcDbLine
 10
223.2181211524
 20
86.4169124435
 30
0.0
 11
223.2181211524
 21
91.6698670757
 31
0.0
  0
LINE
  5
134
330
1F
100
AcDbEntity
  8
0
  6
Continuous
 62
     7
370
    25
100
AcDbLine
 10
209.0025751696
 20
86.5579426614
 30
0.0
 11
209.8113827282
 21
78.4698670757
 31
0.0
  0
LINE
  5
135
330
1F
100
AcDbEntity
  8
0
  6
Continuous
 62
     7
370
    25
100
AcDbLine
 10
226.0364075422
 20
77.1201152162
 30
0.0
 11
226.9801902868
 21
86.5579426614
 31
0.0
  0
ARC
  5
136
330
1F
100
AcDbEntity
  8
0
  6
Continuous
 62
     7
370
    25
100
AcDbCircle
 10
225.9851530965
 20
86.6574463804
 30
0.0
 40
1.000000000000024
100
AcDbArc
 50
354.2894068625
 51
7.1250163489
  0
ARC
  5
137
330
1F
100
AcDbEntity
  8
0
  6
Continuous
 62
     7
370
    25
100
AcDbCircle
 10
209.9976123598
 20
86.6574463804
 30
0.0
 40
1.000000000000033
100
AcDbArc
 50
172.8749836511
 51
185.7105931375
  0
LINE
  5
138
330
1F
100
AcDbEntity
  8
0
  6
Continuous
 62
     7
370
    25
100
AcDbLine
 10
226.9774309733
 20
86.781481115
 30
0.0
 11
226.0461305573
 21
94.231884443
 31
0.0
  0
LINE
  5
139
330
1F
100
AcDbEntity
  8
0
  6
Continuous
 62
     7
370
    25
100
AcDbLine
 10
209.9366348991
 20
94.231884443
 30
0.0
 11
209.0053344831
 21
86.781481115
 31
0.0
  0
ARC
  5
13A
330
1F
100
AcDbEntity
  8
0
  6
Continuous
 62
     7
370
    25
100
AcDbCircle
 10
210.4327738374
 20
94.1698670757
 30
0.0
 40
0.5
100
AcDbArc
 50
90.0
 51
172.8749836511
  0
ARC
  5
13B
330
1F
100
AcDbEntity
  8
0
  6
Continuous
 62
     7
370
    25
100
AcDbCircle
 10
225.5499916189
 20
94.1698670757
 30
0.0
 40
0.5000000000000034
100
AcDbArc
 50
7.1250163489
 51
90.0
  0
ARC
  5
13C
330
1F
100
AcDbEntity
  8
0
  6
Continuous
 62
     7
370
    25
100
AcDbCircle
 10
225.5388889471
 20
77.1698670757
 30
0.0
 40
0.5
100
AcDbArc
 50
270.0
 51
354.2894068625
  0
LINE
  5
13D
330
1F
100
AcDbEntity
  8
0
  6
Continuous
 62
     7
370
    25
100
AcDbLine
 10
218.9913827282
 20
76.1698670757
 30
0.0
 11
218.9913827282
 21
76.6410759221
 31
0.0
  0
LINE
  5
13E
330
1F
100
AcDbEntity
  8
0
  6
Continuous
 62
     7
370
    25
100
AcDbLine
 10
216.9913827282
 20
77.9698670757
 30
0.0
 11
216.9913827282
 21
76.1698670757
 31
0.0
  0
ARC
  5
13F
330
1F
100
AcDbEntity
  8
0
  6
Continuous
 62
     7
370
    25
100
AcDbCircle
 10
217.1913827282
 20
77.9698670757
 30
0.0
 40
0.2000000000000171
100
AcDbArc
 50
90.0
 51
180.0
  0
ARC
  5
140
330
1F
100
AcDbEntity
  8
0
  6
Continuous
 62
     7
370
    25
100
AcDbCircle
 10
218.7913827282
 20
77.9698670757
 30
0.0
 40
0.2000000000000028
100
AcDbArc
 50
0.0
 51
90.0
  0
CIRCLE
  5
141
330
1F
100
AcDbEntity
  8
0
  6
Continuous
 62
     7
370
    25
100
AcDbCircle
 10
217.9913827282
 20
56.1698670757
 30
0.0
 40
12.50000000000002
  0
CIRCLE
  5
142
330
1F
100
AcDbEntity
  8
0
  6
Continuous
 62
     7
370
    25
100
AcDbCircle
 10
217.9913827282
 20
56.1698670757
 30
0.0
 40
13.00000000000002
  0
CIRCLE
  5
143
330
1F
100
AcDbEntity
  8
0
  6
Continuous
 62
     7
370
    25
100
AcDbCircle
 10
217.9913827282
 20
56.1698670757
 30
0.0
 40
10.50000000000004
  0
CIRCLE
  5
144
330
1F
100
AcDbEntity
  8
0
  6
Continuous
 62
     7
370
    25
100
AcDbCircle
 10
217.9913827282
 20
56.1698670757
 30
0.0
 40
9.500000000000016
  0
CIRCLE
  5
145
330
1F
100
AcDbEntity
  8
0
  6
Continuous
 62
     7
370
    25
100
AcDbCircle
 10
217.9913827282
 20
56.1698670757
 30
0.0
 40
13.25000000000004
  0
CIRCLE
  5
146
330
1F
100
AcDbEntity
  8
0
  6
Continuous
 62
     7
370
    25
100
AcDbCircle
 10
217.9913827282
 20
56.1698670757
 30
0.0
 40
13.50000000000001
  0
CIRCLE
  5
147
330
1F
100
AcDbEntity
  8
0
  6
Continuous
 62
     7
370
    25
100
AcDbCircle
 10
217.9913827282
 20
56.1698670757
 30
0.0
 40
4.99999999999999
  0
ARC
  5
148
330
1F
100
AcDbEntity
  8
0
  6
Continuous
 62
     7
370
    25
100
AcDbCircle
 10
217.9913827282
 20
56.1698670757
 30
0.0
 40
16.5
100
AcDbArc
 50
121.9527464003
 51
148.0472535997
  0
SPLINE
  5
149
330
1F
100
AcDbEntity
  8
0
  6
Continuous
 62
     7
370
    25
100
AcDbSpline
210
0.0
220
0.0
230
1.0
 70
    24
 71
     3
 72
    10
 73
     6
 74
     0
 42
0.00000001
 43
0.00000001
 40
0.0
 40
0.0
 40
0.0
 40
0.0
 40
0.5
 40
0.5
 40
1.0
 40
1.0
 40
1.0
 40
1.0
 10
217.9913827281777
 20
70.16986707566481
 30
0.0
 10
216.4979322730365
 20
70.16986707566481
 30
0.0
 10
215.0267156589781
 20
70.16986707566481
 30
0.0
 10
212.1198020560943
 20
70.16986707566481
 30
0.0
 10
210.6837799380501
 20
70.16986707566481
 30
0.0
 10
209.2592581298913
 20
70.16986707566481
 30
0.0
  0
ARC
  5
14A
330
1F
100
AcDbEntity
  8
0
  6
Continuous
 62
     7
370
    25
100
AcDbCircle
 10
217.9913827282
 20
56.1698670757
 30
0.0
 40
14.00000000000001
100
AcDbArc
 50
90.0
 51
180.0
  0
SPLINE
  5
14B
330
1F
100
AcDbEntity
  8
0
  6
Continuous
 62
     7
370
    25
100
AcDbSpline
210
0.0
220
0.0
230
1.0
 70
    24
 71
     3
 72
    12
 73
     8
 74
     0
 42
0.00000001
 43
0.00000001
 40
0.0
 40
0.0
 40
0.0
 40
0.0
 40
0.5
 40
0.5
 40
0.75
 40
0.75
 40
1.0
 40
1.0
 40
1.0
 40
1.0
 10
203.9913827281778
 20
64.9019916739513
 30
0.0
 10
203.9913827281778
 20
63.48713304636028
 30
0.0
 10
203.9913827281778
 20
62.05703258232278
 30
0.0
 10
203.9913827281778
 20
59.87649373986267
 30
0.0
 10
203.9913827281778
 20
59.14371271904527
 30
0.0
 10
203.9913827281778
 20
57.66424031422969
 30
0.0
 10
203.9913827281778
 20
56.91345426088795
 30
0.0
 10
203.9913827281778
 20
56.1698670756648
 30
0.0
  0
ARC
  5
14C
330
1F
100
AcDbEntity
  8
0
  6
Continuous
 62
     7
370
    25
100
AcDbCircle
 10
217.9913827282
 20
56.1698670757
 30
0.0
 40
16.49999999999999
100
AcDbArc
 50
211.9527464003
 51
238.0472535997
  0
ARC
  5
14D
330
1F
100
AcDbEntity
  8
0
  6
Continuous
 62
     7
370
    25
100
AcDbCircle
 10
217.9913827282
 20
56.1698670757
 30
0.0
 40
14.00000000000001
100
AcDbArc
 50
180.0
 51
270.0
  0
SPLINE
  5
14E
330
1F
100
AcDbEntity
  8
0
  6
Continuous
 62
     7
370
    25
100
AcDbSpline
210
0.0
220
0.0
230
1.0
 70
    24
 71
     3
 72
    12
 73
     8
 74
     0
 42
0.00000001
 43
0.00000001
 40
0.0
 40
0.0
 40
0.0
 40
0.0
 40
0.5
 40
0.5
 40
0.75
 40
0.75
 40
1.0
 40
1.0
 40
1.0
 40
1.0
 10
209.2592581298913
 20
42.1698670756648
 30
0.0
 10
210.6741167574823
 20
42.1698670756648
 30
0.0
 10
212.1042172215198
 20
42.1698670756648
 30
0.0
 10
214.2847560639799
 20
42.1698670756648
 30
0.0
 10
215.0175370847973
 20
42.1698670756648
 30
0.0
 10
216.4970094896129
 20
42.1698670756648
 30
0.0
 10
217.2477955429546
 20
42.1698670756648
 30
0.0
 10
217.9913827281777
 20
42.1698670756648
 30
0.0
  0
SPLINE
  5
14F
330
1F
100
AcDbEntity
  8
0
  6
Continuous
 62
     7
370
    25
100
AcDbSpline
210
0.0
220
0.0
230
1.0
 70
    24
 71
     3
 72
    10
 73
     6
 74
     0
 42
0.00000001
 43
0.00000001
 40
0.0
 40
0.0
 40
0.0
 40
0.0
 40
0.5
 40
0.5
 40
1.0
 40
1.0
 40
1.0
 40
1.0
 10
203.9913827281778
 20
56.1698670756648
 30
0.0
 10
203.9913827281778
 20
54.67641662052356
 30
0.0
 10
203.9913827281778
 20
53.2052000064651
 30
0.0
 10
203.9913827281778
 20
50.29828640358134
 30
0.0
 10
203.9913827281778
 20
48.86226428553713
 30
0.0
 10
203.9913827281778
 20
47.43774247737831
 30
0.0
  0
ARC
  5
150
330
1F
100
AcDbEntity
  8
0
  6
Continuous
 62
     7
370
    25
100
AcDbCircle
 10
217.9913827282
 20
56.1698670757
 30
0.0
 40
14.00000000000003
100
AcDbArc
 50
0.0
 51
90.0
  0
ARC
  5
151
330
1F
100
AcDbEntity
  8
0
  6
Continuous
 62
     7
370
    25
100
AcDbCircle
 10
217.9913827282
 20
56.1698670757
 30
0.0
 40
14.00000000000003
100
AcDbArc
 50
270.0
 51
0.0
  0
ARC
  5
152
330
1F
100
AcDbEntity
  8
0
  6
Continuous
 62
     7
370
    25
100
AcDbCircle
 10
217.9913827282
 20
56.1698670757
 30
0.0
 40
16.50000000000003
100
AcDbArc
 50
31.9527464003
 51
58.0472535997
  0
SPLINE
  5
153
330
1F
100
AcDbEntity
  8
0
  6
Continuous
 62
     7
370
    25
100
AcDbSpline
210
0.0
220
0.0
230
1.0
 70
    24
 71
     3
 72
    10
 73
     6
 74
     0
 42
0.00000001
 43
0.00000001
 40
0.0
 40
0.0
 40
0.0
 40
0.0
 40
0.5
 40
0.5
 40
1.0
 40
1.0
 40
1.0
 40
1.0
 10
231.9913827281778
 20
56.1698670756648
 30
0.0
 10
231.9913827281778
 20
57.66331753080604
 30
0.0
 10
231.9913827281778
 20
59.1345341448645
 30
0.0
 10
231.9913827281778
 20
62.04144774774826
 30
0.0
 10
231.9913827281778
 20
63.47746986579247
 30
0.0
 10
231.9913827281778
 20
64.9019916739513
 30
0.0
  0
SPLINE
  5
154
330
1F
100
AcDbEntity
  8
0
  6
Continuous
 62
     7
370
    25
100
AcDbSpline
210
0.0
220
0.0
230
1.0
 70
    24
 71
     3
 72
    12
 73
     8
 74
     0
 42
0.00000001
 43
0.00000001
 40
0.0
 40
0.0
 40
0.0
 40
0.0
 40
0.4999999999999998
 40
0.4999999999999998
 40
0.7499999999999999
 40
0.7499999999999999
 40
1.0
 40
1.0
 40
1.0
 40
1.0
 10
226.7235073264643
 20
70.16986707566481
 30
0.0
 10
225.3086486988732
 20
70.16986707566481
 30
0.0
 10
223.8785482348357
 20
70.16986707566481
 30
0.0
 10
221.6980093923756
 20
70.16986707566481
 30
0.0
 10
220.9652283715582
 20
70.16986707566481
 30
0.0
 10
219.4857559667427
 20
70.16986707566481
 30
0.0
 10
218.7349699134009
 20
70.16986707566481
 30
0.0
 10
217.9913827281777
 20
70.16986707566481
 30
0.0
  0
SPLINE
  5
155
330
1F
100
AcDbEntity
  8
0
  6
Continuous
 62
     7
370
    25
100
AcDbSpline
210
0.0
220
0.0
230
1.0
 70
    24
 71
     3
 72
    12
 73
     8
 74
     0
 42
0.00000001
 43
0.00000001
 40
0.0
 40
0.0
 40
0.0
 40
0.0
 40
0.5000000000000001
 40
0.5000000000000001
 40
0.75
 40
0.75
 40
1.0
 40
1.0
 40
1.0
 40
1.0
 10
231.9913827281778
 20
47.43774247737831
 30
0.0
 10
231.9913827281778
 20
48.85260110496932
 30
0.0
 10
231.9913827281778
 20
50.28270156900681
 30
0.0
 10
231.9913827281778
 20
52.46324041146693
 30
0.0
 10
231.9913827281778
 20
53.19602143228434
 30
0.0
 10
231.9913827281778
 20
54.67549383709991
 30
0.0
 10
231.9913827281778
 20
55.42627989044165
 30
0.0
 10
231.9913827281778
 20
56.1698670756648
 30
0.0
  0
ARC
  5
156
330
1F
100
AcDbEntity
  8
0
  6
Continuous
 62
     7
370
    25
100
AcDbCircle
 10
217.9913827282
 20
56.1698670757
 30
0.0
 40
16.50000000000003
100
AcDbArc
 50
301.9527464003
 51
328.0472535997
  0
SPLINE
  5
157
330
1F
100
AcDbEntity
  8
0
  6
Continuous
 62
     7
370
    25
100
AcDbSpline
210
0.0
220
0.0
230
1.0
 70
    24
 71
     3
 72
    10
 73
     6
 74
     0
 42
0.00000001
 43
0.00000001
 40
0.0
 40
0.0
 40
0.0
 40
0.0
 40
0.5
 40
0.5
 40
1.0
 40
1.0
 40
1.0
 40
1.0
 10
217.9913827281777
 20
42.1698670756648
 30
0.0
 10
219.484833183319
 20
42.1698670756648
 30
0.0
 10
220.9560497973775
 20
42.1698670756648
 30
0.0
 10
223.8629634002612
 20
42.1698670756648
 30
0.0
 10
225.2989855183054
 20
42.1698670756648
 30
0.0
 10
226.7235073264643
 20
42.1698670756648
 30
0.0
  0
ARC
  5
158
330
1F
100
AcDbEntity
  8
0
  6
Continuous
 62
     7
370
    25
100
AcDbCircle
 10
209.2587468814
 20
70.6693568716
 30
0.0
 40
0.4994900575603195
100
AcDbArc
 50
270.0586445851
 51
0.0585247798
  0
LINE
  5
159
330
1F
100
AcDbEntity
  8
0
  6
Continuous
 62
     7
370
    25
100
AcDbLine
 10
209.7582366784
 20
70.6698670757
 30
0.0
 11
226.224528778
 21
70.6698670757
 31
0.0
  0
ARC
  5
15A
330
1F
100
AcDbEntity
  8
0
  6
Continuous
 62
     7
370
    25
100
AcDbCircle
 10
226.724018575
 20
70.6693568716
 30
0.0
 40
0.4994900575603053
100
AcDbArc
 50
179.9414752202
 51
269.9413554149
  0
LINE
  5
15B
330
1F
100
AcDbEntity
  8
0
  6
Continuous
 62
     7
370
    25
100
AcDbLine
 10
210.2413827282
 20
76.1698670757
 30
0.0
 11
225.7413827282
 21
76.1698670757
 31
0.0
  0
LINE
  5
15C
330
1F
100
AcDbEntity
  8
0
  6
Continuous
 62
     7
370
    25
100
AcDbLine
 10
226.2413827282
 20
75.6698670757
 30
0.0
 11
209.7413827282
 21
75.6698670757
 31
0.0
  0
ELLIPSE
  5
15D
330
1F
100
AcDbEntity
  8
0
  6
Continuous
 62
     7
370
    25
100
AcDbEllipse
 10
217.8168441731
 20
87.8934738734
 30
0.0
 11
0.7234244958980298
 21
-0.7001325129304804
 31
0.0
210
0.0
220
0.0
230
1.0
 40
0.9869902583
 41
4.707649545362591
 42
5.487972049091407
  0
LINE
  5
15E
330
1F
100
AcDbEntity
  8
0
  6
Continuous
 62
     7
370
    25
100
AcDbLine
 10
217.8299371338
 20
86.8934738734
 30
0.0
 11
217.8299371338
 21
86.1698670757
 31
0.0
  0
ELLIPSE
  5
15F
330
1F
100
AcDbEntity
  8
0
  6
Continuous
 62
     7
370
    25
100
AcDbEllipse
 10
217.8168441731
 20
87.6698670757
 30
0.0
 11
1.074619436156752
 21
-1.056020081253664
 31
0.0
210
0.0
220
0.0
230
1.0
 40
0.9913091236
 41
4.713099434383467
 42
5.4934219381123
  0
LWPOLYLINE
  5
160
330
1F
100
AcDbEntity
  8
0
  6
Continuous
 62
     7
370
    25
100
AcDbPolyline
 90
        9
 70
   128
 43
0.0
 10
217.1223993537
 20
87.1827871826
 10
217.0366704716
 20
87.106456705
 10
216.9556388217
 20
87.0220567057
 10
216.8837442668
 20
86.9342116052
 10
216.8249260326
 20
86.8477345869
 10
216.7824068709
 20
86.7673638745
 10
216.7585164792
 20
86.6975031171
 10
216.7545638531
 20
86.6419801052
 10
216.7707655636
 20
86.6038370394
  0
LINE
  5
161
330
1F
100
AcDbEntity
  8
0
  6
Continuous
 62
     7
370
    25
100
AcDbLine
 10
217.8299371338
 20
86.8934738734
 30
0.0
 11
218.1528283225
 21
86.8934738734
 31
0.0
  0
LINE
  5
162
330
1F
100
AcDbEntity
  8
0
  6
Continuous
 62
     7
370
    25
100
AcDbLine
 10
218.1528283225
 20
86.8934738734
 30
0.0
 11
218.1528283225
 21
86.1698670757
 31
0.0
  0
LINE
  5
163
330
1F
100
AcDbEntity
  8
0
  6
Continuous
 62
     7
370
    25
100
AcDbLine
 10
218.1528283225
 20
86.1698670757
 30
0.0
 11
217.8299371338
 21
86.1698670757
 31
0.0
  0
ELLIPSE
  5
164
330
1F
100
AcDbEntity
  8
0
  6
Continuous
 62
     7
370
    25
100
AcDbEllipse
 10
218.1659212833
 20
87.8934738734
 30
0.0
 11
0.7234244958980014
 21
0.7001325129304519
 31
0.0
210
0.0
220
0.0
230
1.0
 40
0.9869902583
 41
3.936805911677991
 42
4.717128415406817
  0
LWPOLYLINE
  5
165
330
1F
100
AcDbEntity
  8
0
  6
Continuous
 62
     7
370
    25
100
AcDbPolyline
 90
        9
 70
   128
 43
0.0
 10
218.8603661027
 20
87.1827871826
 10
218.9460949848
 20
87.106456705
 10
219.0271266347
 20
87.0220567057
 10
219.0990211896
 20
86.9342116052
 10
219.1578394237
 20
86.8477345869
 10
219.2003585855
 20
86.7673638745
 10
219.2242489772
 20
86.6975031171
 10
219.2282016033
 20
86.6419801052
 10
219.2119998927
 20
86.6038370394
  0
ELLIPSE
  5
166
330
1F
100
AcDbEntity
  8
0
  6
Continuous
 62
     7
370
    25
100
AcDbEllipse
 10
218.1659212833
 20
87.6698670757
 30
0.0
 11
1.07461943615678
 21
1.056020081253635
 31
0.0
210
0.0
220
0.0
230
1.0
 40
0.9913091236
 41
3.931356022657127
 42
4.711678526385967
  0
LINE
  5
167
330
1F
100
AcDbEntity
  8
0
  6
Continuous
 62
     7
370
    25
100
AcDbLine
 10
217.1223993537
 20
87.1827871826
 30
0.0
 11
217.1223993537
 21
96.3406874689
 31
0.0
  0
LINE
  5
168
330
1F
100
AcDbEntity
  8
0
  6
Continuous
 62
     7
370
    25
100
AcDbLine
 10
217.1223993537
 20
96.3406874689
 30
0.0
 11
218.8603661027
 21
96.3406874689
 31
0.0
  0
LINE
  5
169
330
1F
100
AcDbEntity
  8
0
  6
Continuous
 62
     7
370
    25
100
AcDbLine
 10
218.8603661027
 20
96.3406874689
 30
0.0
 11
218.8603661027
 21
87.1827871826
 31
0.0
  0
SPLINE
  5
16A
330
1F
100
AcDbEntity
  8
0
  6
Continuous
 62
     7
370
    25
100
AcDbSpline
210
0.0
220
0.0
230
1.0
 70
     8
 71
     3
 72
    11
 73
     7
 74
     0
 42
0.00000001
 43
0.00000001
 40
0.0
 40
0.0
 40
0.0
 40
0.0
 40
0.249999999999999
 40
0.4999999999999981
 40
0.7499999999999997
 40
1.0
 40
1.0
 40
1.0
 40
1.0
 10
219.5591014319478
 20
96.04644720327825
 30
0.0
 10
219.5441021267812
 20
96.08556475744439
 30
0.0
 10
219.5141035164481
 20
96.16379986577664
 30
0.0
 10
219.3505838136514
 20
96.26046294148487
 30
0.0
 10
219.125004199569
 20
96.32765115762439
 30
0.0
 10
218.948578801654
 20
96.33634203181796
 30
0.0
 10
218.8603661026965
 20
96.34068746891477
 30
0.0
  0
LINE
  5
16B
330
1F
100
AcDbEntity
  8
0
  6
Continuous
 62
     7
370
    25
100
AcDbLine
 10
219.5591014319
 20
87.2355075549
 30
0.0
 11
219.5591014319
 21
96.0464472033
 31
0.0
  0
SPLINE
  5
16C
330
1F
100
AcDbEntity
  8
0
  6
Continuous
 62
     7
370
    25
100
AcDbSpline
210
0.0
220
0.0
230
1.0
 70
     8
 71
     3
 72
    12
 73
     8
 74
     0
 42
0.00000001
 43
0.00000001
 40
0.0
 40
0.0
 40
0.0
 40
0.0
 40
0.139683458618249
 40
0.3831896274038307
 40
0.5513169293013304
 40
0.8194729461607057
 40
1.0
 40
1.0
 40
1.0
 40
1.0
 10
218.8603661026965
 20
87.18278718260427
 30
0.0
 10
218.9100810231749
 20
87.19609955626522
 30
0.0
 10
219.0464625392327
 20
87.23261900927318
 30
0.0
 10
219.2263786484449
 20
87.27029106986457
 30
0.0
 10
219.4047200768298
 20
87.29465839062607
 30
0.0
 10
219.5252403013812
 20
87.29354135586212
 30
0.0
 10
219.5493863146881
 20
87.25215806748454
 30
0.0
 10
219.5591014319478
 20
87.23550755486914
 30
0.0
  0
ARC
  5
16D
330
1F
100
AcDbEntity
  8
0
  6
Continuous
 62
     7
370
    25
100
AcDbCircle
 10
219.0608472513
 20
87.2206545692
 30
0.0
 40
0.4984755156844886
100
AcDbArc
 50
333.4921832491
 51
1.7074848132
  0
SPLINE
  5
16E
330
1F
100
AcDbEntity
  8
0
  6
Continuous
 62
     7
370
    25
100
AcDbSpline
210
0.0
220
0.0
230
1.0
 70
     8
 71
     3
 72
    12
 73
     8
 74
     0
 42
0.00000001
 43
0.00000001
 40
0.0
 40
0.0
 40
0.0
 40
0.0
 40
0.071520202616614
 40
0.1260836237049448
 40
0.3855387013103015
 40
0.8475626424815556
 40
1.0
 40
1.0
 40
1.0
 40
1.0
 10
219.5069197703867
 20
86.99817502531401
 30
0.0
 10
219.5049837246815
 20
86.99506637744919
 30
0.0
 10
219.5015706518819
 20
86.98958611350585
 30
0.0
 10
219.4793882013767
 20
86.94999756808548
 30
0.0
 10
219.4163747266103
 20
86.84356343510315
 30
0.0
 10
219.3193284011384
 20
86.71305641939495
 30
0.0
 10
219.2333337079202
 20
86.6255467054316
 30
0.0
 10
219.2119998927186
 20
86.60383703944905
 30
0.0
  0
SPLINE
  5
16F
330
1F
100
AcDbEntity
  8
0
  6
Continuous
 62
     7
370
    25
100
AcDbSpline
210
0.0
220
0.0
230
1.0
 70
     8
 71
     3
 72
    11
 73
     7
 74
     0
 42
0.00000001
 43
0.00000001
 40
0.0
 40
0.0
 40
0.0
 40
0.0
 40
0.249999999999999
 40
0.4999999999999999
 40
0.7499999999999989
 40
1.0
 40
1.0
 40
1.0
 40
1.0
 10
216.4236640244078
 20
96.04644720327823
 30
0.0
 10
216.4386633295743
 20
96.08556475744436
 30
0.0
 10
216.4686619399075
 20
96.16379986577662
 30
0.0
 10
216.6321816427041
 20
96.26046294148486
 30
0.0
 10
216.8577612567865
 20
96.32765115762435
 30
0.0
 10
217.0341866547016
 20
96.33634203181796
 30
0.0
 10
217.1223993536591
 20
96.34068746891477
 30
0.0
  0
SPLINE
  5
170
330
1F
100
AcDbEntity
  8
0
  6
Continuous
 62
     7
370
    25
100
AcDbSpline
210
0.0
220
0.0
230
1.0
 70
     8
 71
     3
 72
    13
 73
     9
 74
     0
 42
0.00000001
 43
0.00000001
 40
0.0
 40
0.0
 40
0.0
 40
0.0
 40
0.1143463544469913
 40
0.2890454840074683
 40
0.5294852105593205
 40
0.7014879056604271
 40
0.9335094878266192
 40
1.0
 40
1.0
 40
1.0
 40
1.0
 10
216.4236640244078
 20
87.23550755486914
 30
0.0
 10
216.4284986159128
 20
87.2468943866271
 30
0.0
 10
216.4407195288429
 20
87.27567809654698
 30
0.0
 10
216.5133676238839
 20
87.29592827399586
 30
0.0
 10
216.6438798902907
 20
87.28807094725025
 30
0.0
 10
216.8307474894604
 20
87.25554353092228
 30
0.0
 10
216.9921208942169
 20
87.2184221759704
 30
0.0
 10
217.0986672450689
 20
87.18927861285142
 30
0.0
 10
217.1223993536591
 20
87.18278718260427
 30
0.0
  0
LINE
  5
171
330
1F
100
AcDbEntity
  8
0
  6
Continuous
 62
     7
370
    25
100
AcDbLine
 10
216.4236640244
 20
96.0464472033
 30
0.0
 11
216.4236640244
 21
87.2355075549
 31
0.0
  0
SPLINE
  5
172
330
1F
100
AcDbEntity
  8
0
  6
Continuous
 62
     7
370
    25
100
AcDbSpline
210
0.0
220
0.0
230
1.0
 70
     8
 71
     3
 72
    11
 73
     7
 74
     0
 42
0.00000001
 43
0.00000001
 40
0.0
 40
0.0
 40
0.0
 40
0.0
 40
0.3325271082490199
 40
0.7778992719027312
 40
0.9254453528959208
 40
1.0
 40
1.0
 40
1.0
 40
1.0
 10
216.770765563637
 20
86.60383703944905
 30
0.0
 10
216.7255347404907
 20
86.65177358757722
 30
0.0
 10
216.6197237448751
 20
86.76391423705029
 30
0.0
 10
216.5319637703975
 20
86.89927445506746
 30
0.0
 10
216.4843508784597
 20
86.98427508884599
 30
0.0
 10
216.4779831885315
 20
86.99468172991209
 30
0.0
 10
216.4758456859689
 20
86.99817502531401
 30
0.0
  0
ARC
  5
173
330
1F
100
AcDbEntity
  8
0
  6
Continuous
 62
     7
370
    25
100
AcDbCircle
 10
216.9219182051
 20
87.2206545692
 30
0.0
 40
0.4984755156839355
100
AcDbArc
 50
178.2925151868
 51
206.5078167509
  0
LINE
  5
174
330
1F
100
AcDbEntity
  8
0
  6
Continuous
 62
     7
370
    25
100
AcDbLine
 10
217.1377769367
 20
86.1698670757
 30
0.0
 11
217.8299371338
 21
86.1698670757
 31
0.0
  0
SPLINE
  5
175
330
1F
100
AcDbEntity
  8
0
  6
Continuous
 62
     7
370
    25
100
AcDbSpline
210
0.0
220
0.0
230
1.0
 70
     8
 71
     3
 72
    11
 73
     7
 74
     0
 42
0.00000001
 43
0.00000001
 40
0.0
 40
0.0
 40
0.0
 40
0.0
 40
0.2499999999999999
 40
0.5000000000000002
 40
0.7500000000000002
 40
1.0
 40
1.0
 40
1.0
 40
1.0
 10
215.6388047856807
 20
87.70913249812662
 30
0.0
 10
215.6568810960987
 20
87.50875689175054
 30
0.0
 10
215.6930337169348
 20
87.10800567899835
 30
0.0
 10
216.0376594911353
 20
86.59781274095641
 30
0.0
 10
216.5384815772554
 20
86.23983167258972
 30
0.0
 10
216.9380118169162
 20
86.19318860797313
 30
0.0
 10
217.1377769367466
 20
86.16986707566481
 30
0.0
  0
LINE
  5
176
330
1F
100
AcDbEntity
  8
0
  6
Continuous
 62
     7
370
    25
100
AcDbLine
 10
216.2051420658
 20
87.7091324981
 30
0.0
 11
215.6388047857
 21
87.7091324981
 31
0.0
  0
SPLINE
  5
177
330
1F
100
AcDbEntity
  8
0
  6
Continuous
 62
     7
370
    25
100
AcDbSpline
210
0.0
220
0.0
230
1.0
 70
     8
 71
     3
 72
     9
 73
     5
 74
     0
 42
0.00000001
 43
0.00000001
 40
0.0
 40
0.0
 40
0.0
 40
0.0
 40
0.540774756067758
 40
1.0
 40
1.0
 40
1.0
 40
1.0
 10
216.2051420657611
 20
87.70913249812665
 30
0.0
 10
216.2051125653483
 20
87.69779854432595
 30
0.0
 10
216.2050580132219
 20
87.67683981118701
 30
0.0
 10
216.2056622583568
 20
87.65587361831906
 30
0.0
 10
216.2059397429763
 20
87.64624541328493
 30
0.0
  0
ELLIPSE
  5
178
330
1F
100
AcDbEntity
  8
0
  6
Continuous
 62
     7
370
    25
100
AcDbEllipse
 10
217.7041142168
 20
87.6698670757
 30
0.0
 11
-0.3999861399325653
 21
1.445826639360092
 31
0.0
210
0.0
220
0.0
230
1.0
 40
0.9987379186
 41
1.314426961368821
 42
1.316970714136577
  0
ELLIPSE
  5
179
330
1F
100
AcDbEntity
  8
0
  6
Continuous
 62
     7
370
    25
100
AcDbEllipse
 10
218.6528071165
 20
87.6698670757
 30
0.0
 11
2.447559743736946
 21
-0.02501587584977472
 31
0.0
210
0.0
220
0.0
230
1.0
 40
0.6127700831
 41
3.171475350442034
 42
3.622568086779184
  0
LINE
  5
17A
330
1F
100
AcDbEntity
  8
0
  6
Continuous
 62
     7
370
    25
100
AcDbLine
 10
219.7776233906
 20
87.7091324981
 30
0.0
 11
219.7768257134
 21
87.6462454133
 31
0.0
  0
LINE
  5
17B
330
1F
100
AcDbEntity
  8
0
  6
Continuous
 62
     7
370
    25
100
AcDbLine
 10
220.3439606707
 20
87.7091324981
 30
0.0
 11
219.7776233906
 21
87.7091324981
 31
0.0
  0
SPLINE
  5
17C
330
1F
100
AcDbEntity
  8
0
  6
Continuous
 62
     7
370
    25
100
AcDbSpline
210
0.0
220
0.0
230
1.0
 70
     8
 71
     3
 72
    11
 73
     7
 74
     0
 42
0.00000001
 43
0.00000001
 40
0.0
 40
0.0
 40
0.0
 40
0.0
 40
0.2500000000000001
 40
0.4999999999999997
 40
0.75
 40
1.0
 40
1.0
 40
1.0
 40
1.0
 10
218.844988519609
 20
86.16986707566481
 30
0.0
 10
219.0447536394393
 20
86.19318860797313
 30
0.0
 10
219.4442838791001
 20
86.23983167258972
 30
0.0
 10
219.9451059652203
 20
86.59781274095641
 30
0.0
 10
220.2897317394208
 20
87.10800567899835
 30
0.0
 10
220.3258843602569
 20
87.50875689175054
 30
0.0
 10
220.3439606706749
 20
87.70913249812662
 30
0.0
  0
LINE
  5
17D
330
1F
100
AcDbEntity
  8
0
  6
Continuous
 62
     7
370
    25
100
AcDbLine
 10
218.1528283225
 20
86.1698670757
 30
0.0
 11
218.8449885196
 21
86.1698670757
 31
0.0
  0
ELLIPSE
  5
17E
330
1F
100
AcDbEntity
  8
0
  6
Continuous
 62
     7
370
    25
100
AcDbEllipse
 10
217.3299583398
 20
87.6698670757
 30
0.0
 11
2.447559743736974
 21
0.0250158758497605
 31
0.0
210
0.0
220
0.0
230
0.9999999999999999
 40
0.6127700831
 41
5.802209873990233
 42
6.253302610327382
  0
ELLIPSE
  5
17F
330
1F
100
AcDbEntity
  8
0
  6
Continuous
 62
     7
370
    25
100
AcDbEllipse
 10
218.2786512395
 20
87.6698670757
 30
0.0
 11
0.3999861399325937
 21
1.445826639360078
 31
0.0
210
0.0
220
0.0
230
1.0
 40
0.9987379186
 41
4.966214593033953
 42
4.968758345810783
  0
ELLIPSE
  5
180
330
1F
100
AcDbEntity
  8
0
  6
Continuous
 62
     7
370
    25
100
AcDbEllipse
 10
216.3755098664
 20
95.6886763269
 30
0.0
 11
0.02159772760037981
 21
0.7999991561933228
 31
0.0
210
0.0
220
0.0
230
1.0
 40
0.0537988877
 41
5.177489007048614
 42
5.36901284944044
  0
ELLIPSE
  5
181
330
1F
100
AcDbEntity
  8
0
  6
Continuous
 62
     7
370
    25
100
AcDbEllipse
 10
218.1537104528
 20
87.6833022551
 30
0.0
 11
1.947791790405546
 21
-0.01776981143129319
 31
0.0
210
0.0
220
0.0
230
1.0
 40
0.513320833
 41
3.160788584408923
 42
3.623660809788547
  0
LINE
  5
182
330
1F
100
AcDbEntity
  8
0
  6
Continuous
 62
     7
370
    25
100
AcDbLine
 10
216.2061024291
 20
87.6818770715
 30
0.0
 11
216.4227835403
 21
96.1761124897
 31
0.0
  0
ELLIPSE
  5
183
330
1F
100
AcDbEntity
  8
0
  6
Continuous
 62
     7
370
    25
100
AcDbEllipse
 10
219.60725559
 20
95.6886763269
 30
0.0
 11
-0.02159772760037981
 21
0.7999991561933228
 31
0.0
210
0.0
220
0.0
230
1.0
 40
0.0537988877
 41
0.9141724577395826
 42
1.105696300130977
  0
LINE
  5
184
330
1F
100
AcDbEntity
  8
0
  6
Continuous
 62
     7
370
    25
100
AcDbLine
 10
219.5599819161
 20
96.1761124897
 30
0.0
 11
219.7766630273
 21
87.6818770715
 31
0.0
  0
ELLIPSE
  5
185
330
1F
100
AcDbEntity
  8
0
  6
Continuous
 62
     7
370
    25
100
AcDbEllipse
 10
217.8290550036
 20
87.6833022551
 30
0.0
 11
1.947791790405546
 21
0.01776981143127898
 31
0.0
210
0.0
220
0.0
230
0.9999999999999999
 40
0.513320833
 41
5.801117150980895
 42
6.263989376373016
  0
LINE
  5
186
330
1F
100
AcDbEntity
  8
0
  6
Continuous
 62
     7
370
    25
100
AcDbLine
 10
216.2058820939
 20
87.6500606416
 30
0.0
 11
216.2061024291
 21
87.6818770715
 31
0.0
  0
SPLINE
  5
187
330
1F
100
AcDbEntity
  8
0
  6
Continuous
 62
     7
370
    25
100
AcDbSpline
210
0.0
220
0.0
230
1.0
 70
     8
 71
     3
 72
     9
 73
     5
 74
     0
 42
0.00000001
 43
0.00000001
 40
0.0
 40
0.0
 40
0.0
 40
0.0
 40
0.8673350121728702
 40
1.0
 40
1.0
 40
1.0
 40
1.0
 10
219.7766630273032
 20
87.68187707152737
 30
0.0
 10
219.7768337594904
 20
87.67267864815219
 30
0.0
 10
219.777030606366
 20
87.66207326125313
 30
0.0
 10
219.7769006086008
 20
87.65146763665172
 30
0.0
 10
219.7768833624488
 20
87.65006064159307
 30
0.0
  0
ELLIPSE
  5
188
330
1F
100
AcDbEntity
  8
0
  6
Continuous
 62
     7
370
    25
100
AcDbEllipse
 10
217.0918343577
 20
95.6698670757
 30
0.0
 11
0.0209600052571659
 21
1.499999971448759
 31
0.0
210
0.0
220
0.0
230
1.0
 40
0.013963099
 41
5.413231207420234
 42
6.283380418268021
  0
LINE
  5
189
330
1F
100
AcDbEntity
  8
0
  6
Continuous
 62
     7
370
    25
100
AcDbLine
 10
218.8699751803
 20
97.1698670757
 30
0.0
 11
217.112790276
 21
97.1698670757
 31
0.0
  0
ELLIPSE
  5
18A
330
1F
100
AcDbEntity
  8
0
  6
Continuous
 62
     7
370
    25
100
AcDbEllipse
 10
218.8909310987
 20
95.6698670757
 30
0.0
 11
-0.0209600052571659
 21
1.499999971448744
 31
0.0
210
0.0
220
0.0
230
1.0
 40
0.013963099
 41
6.282990196092133
 42
7.153139406940043
  0
SPLINE
  5
18B
330
1F
100
AcDbEntity
  8
0
  6
Continuous
 62
     7
370
    25
100
AcDbSpline
210
0.0
220
0.0
230
1.0
 70
     8
 71
     3
 72
     9
 73
     5
 74
     0
 42
0.00000001
 43
0.00000001
 40
0.0
 40
0.0
 40
0.0
 40
0.0
 40
0.5600029565045499
 40
1.0
 40
1.0
 40
1.0
 40
1.0
 10
218.8614068148017
 20
96.6369358165054
 30
0.0
 10
218.8614124528679
 20
96.62714935434543
 30
0.0
 10
218.8614225207902
 20
96.60967362132246
 30
0.0
 10
218.8613003441867
 20
96.59171265365667
 30
0.0
 10
218.8612465868424
 20
96.5838098809854
 30
0.0
  0
ELLIPSE
  5
18C
330
1F
100
AcDbEntity
  8
0
  6
Continuous
 62
     7
370
    25
100
AcDbEllipse
 10
218.9085202607
 20
95.6698670757
 30
0.0
 11
-0.02155295842283067
 21
1.499999872388898
 31
0.0
210
0.0
220
0.0
230
1.0
 40
0.0287076702
 41
0.9152123852433449
 42
1.106736227634793
  0
ELLIPSE
  5
18D
330
1F
100
AcDbEntity
  8
0
  6
Continuous
 62
     7
370
    25
100
AcDbEllipse
 10
217.0742451956
 20
95.6698670757
 30
0.0
 11
0.02155295842283067
 21
1.499999872388898
 31
0.0
210
0.0
220
0.0
230
1.0
 40
0.0287076702
 41
5.176449079544893
 42
5.36797292193642
  0
SPLINE
  5
18E
330
1F
100
AcDbEntity
  8
0
  6
Continuous
 62
     7
370
    25
100
AcDbSpline
210
0.0
220
0.0
230
1.0
 70
     8
 71
     3
 72
     9
 73
     5
 74
     0
 42
0.00000001
 43
0.00000001
 40
0.0
 40
0.0
 40
0.0
 40
0.0
 40
0.5599925069633377
 40
1.0
 40
1.0
 40
1.0
 40
1.0
 10
217.1215188695131
 20
96.5838098809854
 30
0.0
 10
217.1214531243617
 20
96.59385747528826
 30
0.0
 10
217.1213357207347
 20
96.61179984804849
 30
0.0
 10
217.1213516378874
 20
96.62925529086976
 30
0.0
 10
217.1213586415538
 20
96.63693581650541
 30
0.0
  0
SPLINE
  5
18F
330
1F
100
AcDbEntity
  8
0
  6
Continuous
 62
     7
370
    25
100
AcDbSpline
210
0.0
220
0.0
230
1.0
 70
     8
 71
     3
 72
    12
 73
     8
 74
     0
 42
0.00000001
 43
0.00000001
 40
0.0
 40
0.0
 40
0.0
 40
0.0
 40
0.2225634137434379
 40
0.4462063173695244
 40
0.6680851268156931
 40
0.8917990985568365
 40
1.0
 40
1.0
 40
1.0
 40
1.0
 10
216.4227835402618
 20
96.17611248971593
 30
0.0
 10
216.4351366478285
 20
96.22369843302224
 30
0.0
 10
216.4599027787156
 20
96.3191011237167
 30
0.0
 10
216.5924867067134
 20
96.44331985628966
 30
0.0
 10
216.778844110208
 20
96.5352096573941
 30
0.0
 10
216.9669349215612
 20
96.57766523640424
 30
0.0
 10
217.0835149544496
 20
96.58229924191937
 30
0.0
 10
217.1215188695131
 20
96.5838098809854
 30
0.0
  0
SPLINE
  5
190
330
1F
100
AcDbEntity
  8
0
  6
Continuous
 62
     7
370
    25
100
AcDbSpline
210
0.0
220
0.0
230
1.0
 70
     8
 71
     3
 72
    12
 73
     8
 74
     0
 42
0.00000001
 43
0.00000001
 40
0.0
 40
0.0
 40
0.0
 40
0.0
 40
0.2225634137435272
 40
0.4462063173695678
 40
0.6680851268158017
 40
0.8917990985569293
 40
1.0
 40
1.0
 40
1.0
 40
1.0
 10
218.8612465868424
 20
96.5838098809854
 30
0.0
 10
218.939750246885
 20
96.5783828083717
 30
0.0
 10
219.0971383299417
 20
96.56750234044424
 30
0.0
 10
219.3064898675691
 20
96.49220890942394
 30
0.0
 10
219.4652491620391
 20
96.38273036467065
 30
0.0
 10
219.5430980323558
 20
96.27001572412412
 30
0.0
 10
219.5558310731892
 20
96.19919826667993
 30
0.0
 10
219.5599819160938
 20
96.17611248971593
 30
0.0
  0
SPLINE
  5
191
330
1F
100
AcDbEntity
  8
0
  6
Continuous
 62
     7
370
    25
100
AcDbSpline
210
0.0
220
0.0
230
1.0
 70
     8
 71
     3
 72
    12
 73
     8
 74
     0
 42
0.00000001
 43
0.00000001
 40
0.0
 40
0.0
 40
0.0
 40
0.0
 40
0.2198609600791294
 40
0.4397396970008149
 40
0.6583291451397768
 40
0.8791239516843601
 40
1.0
 40
1.0
 40
1.0
 40
1.0
 10
219.5609271519658
 20
96.20396093459532
 30
0.0
 10
219.5502551573217
 20
96.25444915072319
 30
0.0
 10
219.5289103051501
 20
96.35542966520015
 30
0.0
 10
219.4007919098831
 20
96.4870926581502
 30
0.0
 10
219.2178539738181
 20
96.58465398092325
 30
0.0
 10
219.0263048019309
 20
96.63131337239997
 30
0.0
 10
218.9044991302459
 20
96.63546651940132
 30
0.0
 10
218.8614068148017
 20
96.6369358165054
 30
0.0
  0
SPLINE
  5
192
330
1F
100
AcDbEntity
  8
0
  6
Continuous
 62
     7
370
    25
100
AcDbSpline
210
0.0
220
0.0
230
1.0
 70
     8
 71
     3
 72
    12
 73
     8
 74
     0
 42
0.00000001
 43
0.00000001
 40
0.0
 40
0.0
 40
0.0
 40
0.0
 40
0.2198610998683204
 40
0.4397399767664988
 40
0.6583294271823333
 40
0.8791242261983157
 40
1.0
 40
1.0
 40
1.0
 40
1.0
 10
217.1213586415538
 20
96.63693581650541
 30
0.0
 10
217.0426677318347
 20
96.63211202315578
 30
0.0
 10
216.8852795497854
 20
96.62246404642524
 30
0.0
 10
216.6759978013004
 20
96.54528990876345
 30
0.0
 10
216.517348480636
 20
96.43142239955131
 30
0.0
 10
216.4372484179208
 20
96.30994183004768
 30
0.0
 10
216.4258653806191
 20
96.2316565868032
 30
0.0
 10
216.4218383043897
 20
96.20396093459532
 30
0.0
  0
LINE
  5
193
330
1F
100
AcDbEntity
  8
0
  6
Continuous
 62
     7
370
    25
100
AcDbLine
 10
218.9974648378
 20
97.1449326974
 30
0.0
 11
218.8699751803
 21
97.1698670757
 31
0.0
  0
ELLIPSE
  5
194
330
1F
100
AcDbEntity
  8
0
  6
Continuous
 62
     7
370
    25
100
AcDbEllipse
 10
219.5904514358
 20
95.6881909395
 30
0.0
 11
-0.02097028290364733
 21
0.7999998117962832
 31
0.0
210
0.0
220
0.0
230
0.9999999999999999
 40
0.0261679535
 41
6.282499370390492
 42
7.152648581237361
  0
ELLIPSE
  5
195
330
1F
100
AcDbEntity
  8
0
  6
Continuous
 62
     7
370
    25
100
AcDbEllipse
 10
216.3923140205
 20
95.6881909395
 30
0.0
 11
0.02097028290367575
 21
0.7999998117962832
 31
0.0
210
0.0
220
0.0
230
1.0
 40
0.0261679535
 41
5.413722033121719
 42
6.283871243969204
  0
SPLINE
  5
196
330
1F
100
AcDbEntity
  8
0
  6
Continuous
 62
     7
370
    25
100
AcDbSpline
210
0.0
220
0.0
230
1.0
 70
     8
 71
     3
 72
    11
 73
     7
 74
     0
 42
0.00000001
 43
0.00000001
 40
0.0
 40
0.0
 40
0.0
 40
0.0
 40
0.2499999999999963
 40
0.4999999999999995
 40
0.7500000000000014
 40
1.0
 40
1.0
 40
1.0
 40
1.0
 10
216.4132699388643
 20
96.48819093948033
 30
0.0
 10
216.4257904550869
 20
96.57808998660732
 30
0.0
 10
216.450831487532
 20
96.75788808086135
 30
0.0
 10
216.6134749571546
 20
96.98260429009632
 30
0.0
 10
216.8422946932091
 20
97.1393653751258
 30
0.0
 10
217.0226250817553
 20
97.15969984215181
 30
0.0
 10
217.1127902760284
 20
97.16986707566481
 30
0.0
  0
LINE
  5
197
330
1F
100
AcDbEntity
  8
0
  6
Continuous
 62
     7
370
    25
100
AcDbLine
 10
219.7759688689
 20
87.7090891581
 30
0.0
 11
219.7776233906
 21
87.7091324981
 31
0.0
  0
LINE
  5
198
330
1F
100
AcDbEntity
  8
0
  6
Continuous
 62
     7
370
    25
100
AcDbLine
 10
216.2067965875
 20
87.7090891581
 30
0.0
 11
216.2051420658
 21
87.7091324981
 31
0.0
  0
SPLINE
  5
199
330
1F
100
AcDbEntity
  8
0
  6
Continuous
 62
     7
370
    25
100
AcDbSpline
210
0.0
220
0.0
230
1.0
 70
     8
 71
     3
 72
     9
 73
     5
 74
     0
 42
0.00000001
 43
0.00000001
 40
0.0
 40
0.0
 40
0.0
 40
0.0
 40
0.5600012771711201
 40
0.9999999999999999
 40
0.9999999999999999
 40
0.9999999999999999
 40
0.9999999999999999
 10
215.6388047856807
 20
87.70913249812662
 30
0.0
 10
215.6506391980257
 20
88.6381821375548
 30
0.0
 10
215.6717720290164
 20
90.29719556716933
 30
0.0
 10
215.6927327584289
 20
91.95397480233592
 30
0.0
 10
215.7019554525999
 20
92.68295554981863
 30
0.0
  0
SPLINE
  5
19A
330
1F
100
AcDbEntity
  8
0
  6
Continuous
 62
     7
370
    25
100
AcDbSpline
210
0.0
220
0.0
230
1.0
 70
     8
 71
     3
 72
     9
 73
     5
 74
     0
 42
0.00000001
 43
0.00000001
 40
0.0
 40
0.0
 40
0.0
 40
0.0
 40
0.5599999095970982
 40
1.0
 40
1.0
 40
1.0
 40
1.0
 10
215.7019554525999
 20
92.68295554981862
 30
0.0
 10
215.7042528624972
 20
92.86475726456743
 30
0.0
 10
215.7083553808331
 20
93.18940323617055
 30
0.0
 10
215.7124517740261
 20
93.51396944172505
 30
0.0
 10
215.7142541874014
 20
93.65677860151075
 30
0.0
  0
LINE
  5
19B
330
1F
100
AcDbEntity
  8
0
  6
Continuous
 62
     7
370
    25
100
AcDbLine
 10
215.7142541874
 20
93.6567786015
 30
0.0
 11
215.3859260581
 21
93.6567786015
 31
0.0
  0
LINE
  5
19C
330
1F
100
AcDbEntity
  8
0
  6
Continuous
 62
     7
370
    25
100
AcDbLine
 10
215.3859260581
 20
93.6567786015
 30
0.0
 11
215.5157019712
 21
96.4881909395
 31
0.0
  0
LINE
  5
19D
330
1F
100
AcDbEntity
  8
0
  6
Continuous
 62
     7
370
    25
100
AcDbLine
 10
215.5157019712
 20
96.4881909395
 30
0.0
 11
216.4132699389
 21
96.4881909395
 31
0.0
  0
LINE
  5
19E
330
1F
100
AcDbEntity
  8
0
  6
Continuous
 62
     7
370
    25
100
AcDbLine
 10
216.4218383044
 20
96.2039609346
 30
0.0
 11
216.2051420658
 21
87.7091324981
 31
0.0
  0
LINE
  5
19F
330
1F
100
AcDbEntity
  8
0
  6
Continuous
 62
     7
370
    25
100
AcDbLine
 10
220.5968393983
 20
93.6567786015
 30
0.0
 11
220.268511269
 21
93.6567786015
 31
0.0
  0
SPLINE
  5
1A0
330
1F
100
AcDbEntity
  8
0
  6
Continuous
 62
     7
370
    25
100
AcDbSpline
210
0.0
220
0.0
230
1.0
 70
     8
 71
     3
 72
     9
 73
     5
 74
     0
 42
0.00000001
 43
0.00000001
 40
0.0
 40
0.0
 40
0.0
 40
0.0
 40
0.5600000882143262
 40
1.0
 40
1.0
 40
1.0
 40
1.0
 10
220.2685112689541
 20
93.65677860151075
 30
0.0
 10
220.2708053850952
 20
93.47501973067895
 30
0.0
 10
220.2749020204161
 20
93.15045036960731
 30
0.0
 10
220.2790047868754
 20
92.82580116931051
 30
0.0
 10
220.2808100037556
 20
92.68295554981862
 30
0.0
  0
SPLINE
  5
1A1
330
1F
100
AcDbEntity
  8
0
  6
Continuous
 62
     7
370
    25
100
AcDbSpline
210
0.0
220
0.0
230
1.0
 70
     8
 71
     3
 72
     9
 73
     5
 74
     0
 42
0.00000001
 43
0.00000001
 40
0.0
 40
0.0
 40
0.0
 40
0.0
 40
0.5599987526606143
 40
1.0
 40
1.0
 40
1.0
 40
1.0
 10
220.2808100037556
 20
92.68295554981862
 30
0.0
 10
220.292551590278
 20
91.75511424996931
 30
0.0
 10
220.31351875577
 20
90.09825109546934
 30
0.0
 10
220.3346589561421
 20
88.43914239555886
 30
0.0
 10
220.3439606706749
 20
87.70913249812662
 30
0.0
  0
LINE
  5
1A2
330
1F
100
AcDbEntity
  8
0
  6
Continuous
 62
     7
370
    25
100
AcDbLine
 10
219.7776233906
 20
87.7091324981
 30
0.0
 11
219.560927152
 21
96.2039609346
 31
0.0
  0
LINE
  5
1A3
330
1F
100
AcDbEntity
  8
0
  6
Continuous
 62
     7
370
    25
100
AcDbLine
 10
219.5694955175
 20
96.4881909395
 30
0.0
 11
220.4670634851
 21
96.4881909395
 31
0.0
  0
LINE
  5
1A4
330
1F
100
AcDbEntity
  8
0
  6
Continuous
 62
     7
370
    25
100
AcDbLine
 10
220.4670634851
 20
96.4881909395
 30
0.0
 11
220.5968393983
 21
93.6567786015
 31
0.0
  0
LINE
  5
1A5
330
1F
100
AcDbEntity
  8
0
  6
Continuous
 62
     7
370
    25
100
AcDbLine
 10
217.112790276
 20
97.1698670757
 30
0.0
 11
216.2152223084
 21
97.1698670757
 31
0.0
  0
SPLINE
  5
1A6
330
1F
100
AcDbEntity
  8
0
  6
Continuous
 62
     7
370
    25
100
AcDbSpline
210
0.0
220
0.0
230
1.0
 70
     8
 71
     3
 72
    11
 73
     7
 74
     0
 42
0.00000001
 43
0.00000001
 40
0.0
 40
0.0
 40
0.0
 40
0.0
 40
0.2500000000000036
 40
0.5000000000000022
 40
0.750000000000001
 40
1.0
 40
1.0
 40
1.0
 40
1.0
 10
215.5157019712451
 20
96.48819093948032
 30
0.0
 10
215.5282224874677
 20
96.57808998660732
 30
0.0
 10
215.5532635199129
 20
96.75788808086135
 30
0.0
 10
215.7159069895354
 20
96.9826042900963
 30
0.0
 10
215.9447267255899
 20
97.1393653751258
 30
0.0
 10
216.1250571141361
 20
97.15969984215181
 30
0.0
 10
216.2152223084092
 20
97.1698670756648
 30
0.0
  0
LINE
  5
1A7
330
1F
100
AcDbEntity
  8
0
  6
Continuous
 62
     7
370
    25
100
AcDbLine
 10
219.7675431479
 20
97.1698670757
 30
0.0
 11
218.8699751803
 21
97.1698670757
 31
0.0
  0
SPLINE
  5
1A8
330
1F
100
AcDbEntity
  8
0
  6
Continuous
 62
     7
370
    25
100
AcDbSpline
210
0.0
220
0.0
230
1.0
 70
     8
 71
     3
 72
    11
 73
     7
 74
     0
 42
0.00000001
 43
0.00000001
 40
0.0
 40
0.0
 40
0.0
 40
0.0
 40
0.2500000000000001
 40
0.4999999999999993
 40
0.7500000000000028
 40
1.0
 40
1.0
 40
1.0
 40
1.0
 10
219.7675431479463
 20
97.1698670756648
 30
0.0
 10
219.8577083422194
 20
97.15969984215181
 30
0.0
 10
220.0380387307656
 20
97.13936537512579
 30
0.0
 10
220.2668584668201
 20
96.9826042900963
 30
0.0
 10
220.4295019364427
 20
96.75788808086135
 30
0.0
 10
220.4545429688878
 20
96.57808998660731
 30
0.0
 10
220.4670634851104
 20
96.48819093948032
 30
0.0
  0
LINE
  5
1A9
330
1F
100
AcDbEntity
  8
0
  6
Continuous
 62
     7
370
    25
100
AcDbLine
 10
215.126434316
 20
93.1698670757
 30
0.0
 11
214.8923391822
 21
93.1698670757
 31
0.0
  0
SPLINE
  5
1AA
330
1F
100
AcDbEntity
  8
0
  6
Continuous
 62
     7
370
    25
100
AcDbSpline
210
0.0
220
0.0
230
1.0
 70
     8
 71
     3
 72
    10
 73
     6
 74
     0
 42
0.00000001
 43
0.00000001
 40
0.0
 40
0.0
 40
0.0
 40
0.0
 40
0.2383396858856105
 40
0.5716506333689656
 40
1.0
 40
1.0
 40
1.0
 40
1.0
 10
215.132860286123
 20
93.16986707566471
 30
0.0
 10
215.2074584885499
 20
93.17882581858434
 30
0.0
 10
215.3863800538238
 20
93.2003130964801
 30
0.0
 10
215.6227241660788
 20
93.37397547943318
 30
0.0
 10
215.6813075422642
 20
93.55498233868776
 30
0.0
 10
215.7142541874014
 20
93.65677860151094
 30
0.0
  0
SPLINE
  5
1AB
330
1F
100
AcDbEntity
  8
0
  6
Continuous
 62
     7
370
    25
100
AcDbSpline
210
0.0
220
0.0
230
1.0
 70
     8
 71
     3
 72
    11
 73
     7
 74
     0
 42
0.00000001
 43
0.00000001
 40
0.0
 40
0.0
 40
0.0
 40
0.0
 40
0.250667172502349
 40
0.5010414677145716
 40
0.7508849997170931
 40
1.0
 40
1.0
 40
1.0
 40
1.0
 10
215.6388047856807
 20
87.70913249812662
 30
0.0
 10
215.6119302190255
 20
87.73863851812581
 30
0.0
 10
215.5582124857193
 20
87.7976160835534
 30
0.0
 10
215.2727470220654
 20
87.8843493523651
 30
0.0
 10
214.8512188754457
 20
87.96867038259164
 30
0.0
 10
214.4348617977488
 20
88.0212533752062
 30
0.0
 10
214.2269872213723
 20
88.04750648317503
 30
0.0
  0
SPLINE
  5
1AC
330
1F
100
AcDbEntity
  8
0
  6
Continuous
 62
     7
370
    25
100
AcDbSpline
210
0.0
220
0.0
230
1.0
 70
     8
 71
     3
 72
     9
 73
     5
 74
     0
 42
0.00000001
 43
0.00000001
 40
0.0
 40
0.0
 40
0.0
 40
0.0
 40
0.501325902198991
 40
1.0
 40
1.0
 40
1.0
 40
1.0
 10
214.2269871680081
 20
88.0475062488878
 30
0.0
 10
214.101944510538
 20
88.05892809600041
 30
0.0
 10
213.8525206189704
 20
88.08171137343037
 30
0.0
 10
213.5507525105492
 20
88.07877341952288
 30
0.0
 10
213.4002685713371
 20
88.07730833800868
 30
0.0
  0
LINE
  5
1AD
330
1F
100
AcDbEntity
  8
0
  6
Continuous
 62
     7
370
    25
100
AcDbLine
 10
213.285502132
 20
91.6699780816
 30
0.0
 11
213.4002773395
 21
88.077407995
 31
0.0
  0
SPLINE
  5
1AE
330
1F
100
AcDbEntity
  8
0
  6
Continuous
 62
     7
370
    25
100
AcDbSpline
210
0.0
220
0.0
230
1.0
 70
     8
 71
     3
 72
    14
 73
    10
 74
     0
 42
0.00000001
 43
0.00000001
 40
0.0
 40
0.0
 40
0.0
 40
0.0
 40
0.0829413618596713
 40
0.1664594845668897
 40
0.2437726390188676
 40
0.3161479456895738
 40
0.4353725718192332
 40
0.6486290670514198
 40
0.9999999999999999
 40
0.9999999999999999
 40
0.9999999999999999
 40
0.9999999999999999
 10
213.2855021368404
 20
91.6699780689255
 30
0.0
 10
213.2873173264228
 20
91.75984197651537
 30
0.0
 10
213.2909603281231
 20
91.94019469080871
 30
0.0
 10
213.3726214606106
 20
92.2280794015946
 30
0.0
 10
213.5059049408955
 20
92.47960542902135
 30
0.0
 10
213.6942313971331
 20
92.71355475892237
 30
0.0
 10
213.9924984767954
 20
92.95436572943036
 30
0.0
 10
214.4505256355807
 20
93.14630733266972
 30
0.0
 10
214.7228611642586
 20
93.16082063629261
 30
0.0
 10
214.8923371479084
 20
93.16985234955985
 30
0.0
  0
LINE
  5
1AF
330
1F
100
AcDbEntity
  8
0
  6
Continuous
 62
     7
370
    25
100
AcDbLine
 10
222.5824881168
 20
88.077407995
 30
0.0
 11
222.6972633243
 21
91.6699780816
 31
0.0
  0
SPLINE
  5
1B0
330
1F
100
AcDbEntity
  8
0
  6
Continuous
 62
     7
370
    25
100
AcDbSpline
210
0.0
220
0.0
230
1.0
 70
     8
 71
     3
 72
     9
 73
     5
 74
     0
 42
0.00000001
 43
0.00000001
 40
0.0
 40
0.0
 40
0.0
 40
0.0
 40
0.4986740982738611
 40
1.0
 40
1.0
 40
1.0
 40
1.0
 10
222.5824970668537
 20
88.07730750860549
 30
0.0
 10
222.4320131305747
 20
88.07877258786213
 30
0.0
 10
222.1302450283213
 20
88.08171053723974
 30
0.0
 10
221.880821136699
 20
88.05892725830803
 30
0.0
 10
221.7557784793194
 20
88.04750541045333
 30
0.0
  0
SPLINE
  5
1B1
330
1F
100
AcDbEntity
  8
0
  6
Continuous
 62
     7
370
    25
100
AcDbSpline
210
0.0
220
0.0
230
1.0
 70
     8
 71
     3
 72
    11
 73
     7
 74
     0
 42
0.00000001
 43
0.00000001
 40
0.0
 40
0.0
 40
0.0
 40
0.0
 40
0.2491150002829084
 40
0.4989585322854289
 40
0.7493328274976518
 40
1.0
 40
1.0
 40
1.0
 40
1.0
 10
221.7557782349833
 20
88.04750648317503
 30
0.0
 10
221.5479036586068
 20
88.0212533752062
 30
0.0
 10
221.1315465809098
 20
87.96867038259163
 30
0.0
 10
220.7100184342901
 20
87.88434935236512
 30
0.0
 10
220.4245529706362
 20
87.7976160835534
 30
0.0
 10
220.37083523733
 20
87.7386385181258
 30
0.0
 10
220.3439606706749
 20
87.70913249812662
 30
0.0
  0
SPLINE
  5
1B2
330
1F
100
AcDbEntity
  8
0
  6
Continuous
 62
     7
370
    25
100
AcDbSpline
210
0.0
220
0.0
230
1.0
 70
     8
 71
     3
 72
    10
 73
     6
 74
     0
 42
0.00000001
 43
0.00000001
 40
0.0
 40
0.0
 40
0.0
 40
0.0
 40
0.4283493666310625
 40
0.761660314114417
 40
0.9999999999999999
 40
0.9999999999999999
 40
0.9999999999999999
 40
0.9999999999999999
 10
220.2685112689541
 20
93.65677860151095
 30
0.0
 10
220.3014579140913
 20
93.5549823386878
 30
0.0
 10
220.3600412902767
 20
93.37397547943326
 30
0.0
 10
220.5963854025317
 20
93.20031309648016
 30
0.0
 10
220.7753069678054
 20
93.17882581858437
 30
0.0
 10
220.8499051702323
 20
93.16986707566471
 30
0.0
  0
LINE
  5
1B3
330
1F
100
AcDbEntity
  8
0
  6
Continuous
 62
     7
370
    25
100
AcDbLine
 10
220.8563311406
 20
93.1698670757
 30
0.0
 11
221.0904262744
 21
93.1698670757
 31
0.0
  0
SPLINE
  5
1B4
330
1F
100
AcDbEntity
  8
0
  6
Continuous
 62
     7
370
    25
100
AcDbSpline
210
0.0
220
0.0
230
1.0
 70
     8
 71
     3
 72
    15
 73
    11
 74
     0
 42
0.00000001
 43
0.00000001
 40
0.0
 40
0.0
 40
0.0
 40
0.0
 40
0.2091652517822444
 40
0.4176299509274903
 40
0.5931463878153087
 40
0.6923603779431098
 40
0.7731125739307014
 40
0.8543366880968429
 40
0.9261517123972135
 40
0.9999999999999999
 40
0.9999999999999999
 40
0.9999999999999999
 40
0.9999999999999999
 10
221.0904283086786
 20
93.16985234955881
 30
0.0
 10
221.188125941168
 20
93.16676085906032
 30
0.0
 10
221.3831939895873
 20
93.1605882323254
 30
0.0
 10
221.7324738429398
 20
93.07031477251519
 30
0.0
 10
222.0653640298832
 20
92.90170832041179
 30
0.0
 10
222.3269821159192
 20
92.67225961235881
 30
0.0
 10
222.507576128833
 20
92.43448056910249
 30
0.0
 10
222.6296702921433
 20
92.17256407226398
 30
0.0
 10
222.6937202814618
 20
91.90702249752601
 30
0.0
 10
222.6960713674997
 20
91.74972476650443
 30
0.0
 10
222.6972633195132
 20
91.66997806894567
 30
0.0
  0
SPLINE
  5
1B5
330
1F
100
AcDbEntity
  8
0
  6
Continuous
 62
     7
370
    25
100
AcDbSpline
210
0.0
220
0.0
230
1.0
 70
     8
 71
     3
 72
    11
 73
     7
 74
     0
 42
0.00000001
 43
0.00000001
 40
0.0
 40
0.0
 40
0.0
 40
0.0
 40
0.2795638428304258
 40
0.5590315778757576
 40
0.7794196683313496
 40
1.0
 40
1.0
 40
1.0
 40
1.0
 10
214.2269872213723
 20
88.04750648317503
 30
0.0
 10
214.2032380452453
 20
87.79024087299419
 30
0.0
 10
214.1557478574261
 20
87.27579809478486
 30
0.0
 10
214.4914349388443
 20
86.63328389554572
 30
0.0
 10
214.9701498281077
 20
86.24161059435178
 30
0.0
 10
215.322035398777
 20
86.19378853127382
 30
0.0
 10
215.4980548867796
 20
86.16986707566483
 30
0.0
  0
SPLINE
  5
1B6
330
1F
100
AcDbEntity
  8
0
  6
Continuous
 62
     7
370
    25
100
AcDbSpline
210
0.0
220
0.0
230
1.0
 70
    24
 71
     3
 72
    11
 73
     7
 74
     0
 42
0.00000001
 43
0.00000001
 40
0.0
 40
0.0
 40
0.0
 40
0.0
 40
0.279931759629906
 40
0.5599103390525026
 40
0.7799480709991914
 40
1.0
 40
1.0
 40
1.0
 40
1.0
 10
215.4980548867796
 20
86.16986707566481
 30
0.0
 10
215.7656228442192
 20
86.16986707566481
 30
0.0
 10
216.3008035109917
 20
86.1698670756648
 30
0.0
 10
216.7746703046542
 20
86.16986707566483
 30
0.0
 10
217.0599200622029
 20
86.16986707566481
 30
0.0
 10
217.1118240871001
 20
86.16986707566481
 30
0.0
 10
217.1377769367466
 20
86.16986707566481
 30
0.0
  0
SPLINE
  5
1B7
330
1F
100
AcDbEntity
  8
0
  6
Continuous
 62
     7
370
    25
100
AcDbSpline
210
0.0
220
0.0
230
1.0
 70
     8
 71
     3
 72
    11
 73
     7
 74
     0
 42
0.00000001
 43
0.00000001
 40
0.0
 40
0.0
 40
0.0
 40
0.0
 40
0.2795638428677824
 40
0.5590315779132456
 40
0.7794196683689406
 40
1.0
 40
1.0
 40
1.0
 40
1.0
 10
220.4847105695759
 20
86.16986707566481
 30
0.0
 10
220.7086909851421
 20
86.2083859276129
 30
0.0
 10
221.1565748167966
 20
86.28541038958573
 30
0.0
 10
221.616515051902
 20
86.81820828737541
 30
0.0
 10
221.8278894928014
 20
87.44594485424182
 30
0.0
 10
221.779822305922
 20
87.84692767041044
 30
0.0
 10
221.7557782349833
 20
88.04750648317503
 30
0.0
  0
SPLINE
  5
1B8
330
1F
100
AcDbEntity
  8
0
  6
Continuous
 62
     7
370
    25
100
AcDbSpline
210
0.0
220
0.0
230
1.0
 70
    24
 71
     3
 72
    11
 73
     7
 74
     0
 42
0.00000001
 43
0.00000001
 40
0.0
 40
0.0
 40
0.0
 40
0.0
 40
0.2799857774483056
 40
0.5599458358671285
 40
0.7799985659009367
 40
1.0
 40
1.0
 40
1.0
 40
1.0
 10
218.844988519609
 20
86.16986707566481
 30
0.0
 10
218.8827422392168
 20
86.16986707566481
 30
0.0
 10
218.9582462104384
 20
86.16986707566483
 30
0.0
 10
219.3397993607473
 20
86.1698670756648
 30
0.0
 10
219.8432300425604
 20
86.16986707566483
 30
0.0
 10
220.2709003446977
 20
86.16986707566481
 30
0.0
 10
220.4847105695759
 20
86.16986707566481
 30
0.0
  0
SPLINE
  5
1B9
330
1F
100
AcDbEntity
  8
0
  6
Continuous
 62
     7
370
    25
100
AcDbSpline
210
0.0
220
0.0
230
1.0
 70
     8
 71
     3
 72
    11
 73
     7
 74
     0
 42
0.00000001
 43
0.00000001
 40
0.0
 40
0.0
 40
0.0
 40
0.0
 40
0.2500000000000006
 40
0.5000000000000007
 40
0.7499999999999996
 40
1.0
 40
1.0
 40
1.0
 40
1.0
 10
221.0964967819823
 20
93.16986707566478
 30
0.0
 10
221.0320930717872
 20
93.17712938531693
 30
0.0
 10
220.9032856513971
 20
93.19165400462121
 30
0.0
 10
220.7398429827867
 20
93.30362620821373
 30
0.0
 10
220.6236690759135
 20
93.4641377862387
 30
0.0
 10
220.6057826241669
 20
93.59256499642014
 30
0.0
 10
220.5968393982937
 20
93.65677860151085
 30
0.0
  0
SPLINE
  5
1BA
330
1F
100
AcDbEntity
  8
0
  6
Continuous
 62
     7
370
    25
100
AcDbSpline
210
0.0
220
0.0
230
1.0
 70
     8
 71
     3
 72
    11
 73
     7
 74
     0
 42
0.00000001
 43
0.00000001
 40
0.0
 40
0.0
 40
0.0
 40
0.0
 40
0.2499999999999931
 40
0.5000000000000009
 40
0.7499999999999974
 40
1.0
 40
1.0
 40
1.0
 40
1.0
 10
215.3859260580618
 20
93.65677860151085
 30
0.0
 10
215.3769828321886
 20
93.59256499642014
 30
0.0
 10
215.359096380442
 20
93.4641377862387
 30
0.0
 10
215.2429224735688
 20
93.30362620821371
 30
0.0
 10
215.0794798049585
 20
93.19165400462121
 30
0.0
 10
214.9506723845683
 20
93.17712938531693
 30
0.0
 10
214.8862686743732
 20
93.16986707566478
 30
0.0
  0
SPLINE
  5
1BB
330
1F
100
AcDbEntity
  8
0
  6
Continuous
 62
     7
370
    25
100
AcDbSpline
210
0.0
220
0.0
230
1.0
 70
     8
 71
     3
 72
     9
 73
     5
 74
     0
 42
0.00000001
 43
0.00000001
 40
0.0
 40
0.0
 40
0.0
 40
0.0
 40
0.5642319118445199
 40
0.9999999999999999
 40
0.9999999999999999
 40
0.9999999999999999
 40
0.9999999999999999
 10
213.2896676831784
 20
85.99441411451566
 30
0.0
 10
213.7650992944518
 20
86.04799608324298
 30
0.0
 10
214.6077166673672
 20
86.14296052535006
 30
0.0
 10
215.2278295022724
 20
86.16170070389053
 30
0.0
 10
215.4980548867796
 20
86.16986707566481
 30
0.0
  0
SPLINE
  5
1BC
330
1F
100
AcDbEntity
  8
0
  6
Continuous
 62
     7
370
    25
100
AcDbSpline
210
0.0
220
0.0
230
1.0
 70
     8
 71
     3
 72
    13
 73
     9
 74
     0
 42
0.00000001
 43
0.00000001
 40
0.0
 40
0.0
 40
0.0
 40
0.0
 40
0.0926677825201017
 40
0.1856533156297216
 40
0.2733112842947875
 40
0.4135488925758312
 40
0.6528449691515643
 40
0.9999999999999999
 40
0.9999999999999999
 40
0.9999999999999999
 40
0.9999999999999999
 10
213.4002676689362
 20
88.077307589314
 30
0.0
 10
213.4027023363873
 20
87.98307287219522
 30
0.0
 10
213.407580019574
 20
87.79428031447175
 30
0.0
 10
213.4075055324279
 20
87.4810699102509
 30
0.0
 10
213.4011184753716
 20
87.13933577545781
 30
0.0
 10
213.3832038292748
 20
86.72248161855445
 30
0.0
 10
213.3461420885083
 20
86.23925297289155
 30
0.0
 10
213.3106673029546
 20
86.08545576253829
 30
0.0
 10
213.2896676831784
 20
85.99441411451568
 30
0.0
  0
SPLINE
  5
1BD
330
1F
100
AcDbEntity
  8
0
  6
Continuous
 62
     7
370
    25
100
AcDbSpline
210
0.0
220
0.0
230
1.0
 70
     8
 71
     3
 72
     9
 73
     5
 74
     0
 42
0.00000001
 43
0.00000001
 40
0.0
 40
0.0
 40
0.0
 40
0.0
 40
0.5551829690770671
 40
1.0
 40
1.0
 40
1.0
 40
1.0
 10
220.4847105695759
 20
86.16986707566481
 30
0.0
 10
220.8349650283239
 20
86.15686805517375
 30
0.0
 10
221.4658461580718
 20
86.13345411559871
 30
0.0
 10
222.3152627892707
 20
86.03722047624701
 30
0.0
 10
222.6930977731771
 20
85.99441411451566
 30
0.0
  0
SPLINE
  5
1BE
330
1F
100
AcDbEntity
  8
0
  6
Continuous
 62
     7
370
    25
100
AcDbSpline
210
0.0
220
0.0
230
1.0
 70
     8
 71
     3
 72
    13
 73
     9
 74
     0
 42
0.00000001
 43
0.00000001
 40
0.0
 40
0.0
 40
0.0
 40
0.0
 40
0.3327087167328945
 40
0.5628656559531298
 40
0.6987124125384708
 40
0.8016200683166476
 40
0.9052998751809803
 40
1.0
 40
1.0
 40
1.0
 40
1.0
 10
222.6930977731771
 20
85.99441411451566
 30
0.0
 10
222.6729649492701
 20
86.08019968943383
 30
0.0
 10
222.6389049004505
 20
86.22532890147183
 30
0.0
 10
222.6028190490803
 20
86.67569559789914
 30
0.0
 10
222.5837803259915
 20
87.07543674650499
 30
0.0
 10
222.5755067920391
 20
87.43132899291658
 30
0.0
 10
222.5748305298487
 20
87.77876283995076
 30
0.0
 10
222.5800203406165
 20
87.98084171112987
 30
0.0
 10
222.5824977874194
 20
88.077307589314
 30
0.0
  0
SPLINE
  5
1BF
330
1F
100
AcDbEntity
  8
0
  6
Continuous
 62
     7
370
    25
100
AcDbSpline
210
0.0
220
0.0
230
1.0
 70
     8
 71
     3
 72
    13
 73
     9
 74
     0
 42
0.00000001
 43
0.00000001
 40
0.0
 40
0.0
 40
0.0
 40
0.0
 40
0.1400312919410836
 40
0.2800978778503043
 40
0.4240602241121908
 40
0.5680316995452359
 40
0.7822812815056388
 40
0.9999999999999999
 40
0.9999999999999999
 40
0.9999999999999999
 40
0.9999999999999999
 10
215.7171601966729
 20
81.55775027459336
 30
0.0
 10
215.6283145763636
 20
81.87587589473397
 30
0.0
 10
215.4506009427895
 20
82.51220731648998
 30
0.0
 10
215.0963849237912
 20
83.3453154079134
 30
0.0
 10
214.7052089979781
 20
84.08761218261628
 30
0.0
 10
214.2304362347105
 20
84.82607055441244
 30
0.0
 10
213.6900860511894
 20
85.5092251790947
 30
0.0
 10
213.4116254317658
 20
85.79979033543431
 30
0.0
 10
213.2712769637226
 20
85.94623967769105
 30
0.0
  0
ELLIPSE
  5
1C0
330
1F
100
AcDbEntity
  8
0
  6
Continuous
 62
     7
370
    25
100
AcDbEllipse
 10
213.4330618074
 20
67.0968598284
 30
0.0
 11
0.0
 21
19.07300724724768
 31
0.0
210
0.0
220
0.0
230
1.0
 40
0.0555555556
 41
0.1357435643136113
 42
0.1532827087060914
  0
ELLIPSE
  5
1C1
330
1F
100
AcDbEntity
  8
0
  6
Continuous
 62
     7
370
    25
100
AcDbEllipse
 10
222.5497036489
 20
67.0968598284
 30
0.0
 11
0.0
 21
19.07300724724768
 31
0.0
210
0.0
220
0.0
230
1.0
 40
0.0555555556
 41
6.129902598473734
 42
6.147441742866274
  0
SPLINE
  5
1C2
330
1F
100
AcDbEntity
  8
0
  6
Continuous
 62
     7
370
    25
100
AcDbSpline
210
0.0
220
0.0
230
1.0
 70
     8
 71
     3
 72
    13
 73
     9
 74
     0
 42
0.00000001
 43
0.00000001
 40
0.0
 40
0.0
 40
0.0
 40
0.0
 40
0.13746929634541
 40
0.2749820892813127
 40
0.4163021045260214
 40
0.5576318202769773
 40
0.7770084914513207
 40
1.0
 40
1.0
 40
1.0
 40
1.0
 10
222.711488492633
 20
85.94623967769107
 30
0.0
 10
222.6282100130171
 20
85.85999926826216
 30
0.0
 10
222.4616267036837
 20
85.68749116212004
 30
0.0
 10
222.1159265304549
 20
85.28850908879706
 30
0.0
 10
221.7323622157635
 20
84.78819967732478
 30
0.0
 10
221.257104500165
 20
84.05937920572205
 30
0.0
 10
220.7110017322463
 20
83.04316025552039
 30
0.0
 10
220.4148773504534
 20
82.05557696921686
 30
0.0
 10
220.2656052607308
 20
81.55775027886092
 30
0.0
  0
LINE
  5
1C3
330
1F
100
AcDbEntity
  8
0
  6
Continuous
 62
     7
370
    25
100
AcDbLine
 10
215.7171601967
 20
81.5577502746
 30
0.0
 11
220.2656052607
 21
81.5577502789
 31
0.0
  0
LINE
  5
1C4
330
1F
100
AcDbEntity
  8
0
  6
Continuous
 62
     7
370
    25
100
AcDbLine
 10
212.7669537741
 20
91.6698670757
 30
0.0
 11
213.2854914414
 21
91.6698670757
 31
0.0
  0
ARC
  5
1C5
330
1F
100
AcDbEntity
  8
0
  6
Continuous
 62
     7
370
    25
100
AcDbCircle
 10
206.4913827282
 20
79.291689794
 30
0.0
 40
9.500000000000023
100
AcDbArc
 50
44.4654416734
 51
48.6553876907
  0
LINE
  5
1C6
330
1F
100
AcDbEntity
  8
0
  6
Continuous
 62
     7
370
    25
100
AcDbLine
 10
212.7669537741
 20
86.4238148663
 30
0.0
 11
212.7669537741
 21
91.6698670757
 31
0.0
  0
LINE
  5
1C7
330
1F
100
AcDbEntity
  8
0
  6
Continuous
 62
     7
370
    25
100
AcDbLine
 10
223.2158116822
 20
91.6698670757
 30
0.0
 11
223.2158116822
 21
86.4238148663
 31
0.0
  0
ARC
  5
1C8
330
1F
100
AcDbEntity
  8
0
  6
Continuous
 62
     7
370
    25
100
AcDbCircle
 10
229.4913827282
 20
79.291689794
 30
0.0
 40
9.500000000000032
100
AcDbArc
 50
131.3446123093
 51
135.5345583266
  0
LINE
  5
1C9
330
1F
100
AcDbEntity
  8
0
  6
Continuous
 62
     7
370
    25
100
AcDbLine
 10
222.6972740149
 20
91.6698670757
 30
0.0
 11
223.2158116822
 21
91.6698670757
 31
0.0
  0
ARC
  5
1CA
330
1F
100
AcDbEntity
  8
0
  6
Continuous
 62
     7
370
    25
100
AcDbCircle
 10
221.716965527
 20
91.6710209218
 30
0.0
 40
1.498846599345463
100
AcDbArc
 50
359.9558924033
 51
89.9558243884
  0
LINE
  5
1CB
330
1F
100
AcDbEntity
  8
0
  6
Continuous
 62
     7
370
    25
100
AcDbLine
 10
221.7181211524
 20
93.1698670757
 30
0.0
 11
221.08391397
 21
93.1698670757
 31
0.0
  0
ARC
  5
1CC
330
1F
100
AcDbEntity
  8
0
  6
Continuous
 62
     7
370
    25
100
AcDbCircle
 10
214.2657999294
 20
91.6710209218
 30
0.0
 40
1.498846599345509
100
AcDbArc
 50
90.0441756116
 51
180.0441075967
  0
LINE
  5
1CD
330
1F
100
AcDbEntity
  8
0
  6
Continuous
 62
     7
370
    25
100
AcDbLine
 10
214.8988514864
 20
93.1698670757
 30
0.0
 11
214.264644304
 21
93.1698670757
 31
0.0
  0
LINE
  5
1CE
330
1F
100
AcDbEntity
  8
0
  6
Continuous
 62
     7
370
    25
100
AcDbLine
 10
215.4310543669
 20
93.6000923346
 30
0.0
 11
215.3933968434
 21
93.647394449
 31
0.0
  0
LINE
  5
1CF
330
1F
100
AcDbEntity
  8
0
  6
Continuous
 62
     7
370
    25
100
AcDbLine
 10
220.5893686129
 20
93.647394449
 30
0.0
 11
220.5517110895
 21
93.6000923346
 31
0.0
  0
ELLIPSE
  5
1D0
330
1F
100
AcDbEntity
  8
0
  6
Continuous
 62
     7
370
    25
100
AcDbEllipse
 10
218.9671314915
 20
96.4698670757
 30
0.0
 11
1.500207016110437
 21
0.02894030982646712
 31
0.0
210
0.0
220
0.0
230
1.0
 40
0.2796306798
 41
6.257897524076023
 42
6.352563510564418
  0
LINE
  5
1D1
330
1F
100
AcDbEntity
  8
0
  6
Continuous
 62
     7
370
    25
100
AcDbLine
 10
212.7747514156
 20
86.4169124435
 30
0.0
 11
212.7669537741
 21
86.4238148663
 31
0.0
  0
LINE
  5
1D2
330
1F
100
AcDbEntity
  8
0
  6
Continuous
 62
     7
370
    25
100
AcDbLine
 10
223.2158116822
 20
86.4238148663
 30
0.0
 11
223.2080140407
 21
86.4169124435
 31
0.0
  0
SPLINE
  5
1D3
330
1F
100
AcDbEntity
  8
0
  6
Continuous
 62
     7
370
    25
100
AcDbSpline
210
0.0
220
0.0
230
1.0
 70
     8
 71
     3
 72
     9
 73
     5
 74
     0
 42
0.00000001
 43
0.00000001
 40
0.0
 40
0.0
 40
0.0
 40
0.0
 40
0.0576289627817983
 40
1.0
 40
1.0
 40
1.0
 40
1.0
 10
219.7538962787056
 20
81.55775027838082
 30
0.0
 10
219.7490402066098
 20
81.54024700536245
 30
0.0
 10
219.6647757697477
 20
81.23652345780116
 30
0.0
 10
219.6178176465765
 20
80.89394326336402
 30
0.0
 10
219.5735656713378
 20
80.57110561020188
 30
0.0
  0
SPLINE
  5
1D4
330
1F
100
AcDbEntity
  8
0
  6
Continuous
 62
     7
370
    25
100
AcDbSpline
210
0.0
220
0.0
230
1.0
 70
     8
 71
     3
 72
    10
 73
     6
 74
     0
 42
0.00000001
 43
0.00000001
 40
0.0
 40
0.0
 40
0.0
 40
0.0
 40
0.274691850153182
 40
0.5573359346812419
 40
1.0
 40
1.0
 40
1.0
 40
1.0
 10
219.5735656713378
 20
80.57110561020188
 30
0.0
 10
219.2889449129835
 20
80.62432965336498
 30
0.0
 10
218.71146372343
 20
80.7323185573943
 30
0.0
 10
217.6324457802633
 20
80.77410463063285
 30
0.0
 10
216.8728127358305
 20
80.64804269010233
 30
0.0
 10
216.4091997850177
 20
80.57110561020188
 30
0.0
  0
LINE
  5
1D5
330
1F
100
AcDbEntity
  8
0
  6
Continuous
 62
     7
370
    25
100
AcDbLine
 10
216.409199785
 20
80.5711056102
 30
0.0
 11
216.1939649992
 21
81.557750275
 31
0.0
  0
LINE
  5
1D6
330
1F
100
AcDbEntity
  8
0
  6
Continuous
 62
     7
370
    25
100
AcDbLine
 10
209.8113827282
 20
78.4698670757
 30
0.0
 11
218.9913827282
 21
78.4698670757
 31
0.0
  0
LWPOLYLINE
  5
1D7
330
1F
100
AcDbEntity
  8
0
  6
Continuous
 62
     7
370
    25
100
AcDbPolyline
 90
        3
 70
   128
 43
0.0
 10
209.872737521
 20
78.4698670757
 10
209.9662211972
 20
77.5421228863
 10
210.0087500635
 20
77.1201152162
  0
LINE
  5
1D8
330
1F
100
AcDbEntity
  8
0
  6
Continuous
 62
     7
370
    25
100
AcDbLine
 10
218.9913827282
 20
77.1201152162
 30
0.0
 11
218.9913827282
 21
78.4698670757
 31
0.0
  0
LINE
  5
1D9
330
1F
100
AcDbEntity
  8
0
  6
Continuous
 62
     7
370
    25
100
AcDbLine
 10
210.4327738374
 20
94.6698670757
 30
0.0
 11
215.4315573911
 21
94.6698670757
 31
0.0
  0
LINE
  5
1DA
330
1F
100
AcDbEntity
  8
0
  6
Continuous
 62
     7
370
    25
100
AcDbLine
 10
220.5512080652
 20
94.6698670757
 30
0.0
 11
225.54999157
 21
94.6698670757
 31
0.0
  0
SPLINE
  5
1DB
330
1F
100
AcDbEntity
  8
0
  6
Continuous
 62
     7
370
    25
100
AcDbSpline
210
0.0
220
0.0
230
1.0
 70
     8
 71
     3
 72
    12
 73
     8
 74
     0
 42
0.00000001
 43
0.00000001
 40
0.0
 40
0.0
 40
0.0
 40
0.0
 40
0.227154313992964
 40
0.4542742953684
 40
0.6823371405829711
 40
0.9121899191033219
 40
1.0
 40
1.0
 40
1.0
 40
1.0
 10
210.0087500635324
 20
77.1201152161543
 30
0.0
 10
210.0198540087307
 20
77.06499540925994
 30
0.0
 10
210.042060220852
 20
76.95476412640367
 30
0.0
 10
210.1425564323905
 20
76.81491006681523
 30
0.0
 10
210.280018707221
 20
76.7146616777297
 30
0.0
 10
210.4109922905771
 20
76.67373298715493
 30
0.0
 10
210.4888852743919
 20
76.67070428566561
 30
0.0
 10
210.5104168730894
 20
76.6698670756648
 30
0.0
  0
LINE
  5
1DC
330
1F
100
AcDbEntity
  8
0
  6
Continuous
 62
     7
370
    25
100
AcDbLine
 10
225.5388889471
 20
76.6698670757
 30
0.0
 11
218.9913827282
 21
76.6698670757
 31
0.0
  0
SPLINE
  5
1DD
330
1F
100
AcDbEntity
  8
0
  6
Continuous
 62
     7
370
    25
100
AcDbSpline
210
0.0
220
0.0
230
1.0
 70
    24
 71
     3
 72
    12
 73
     8
 74
     0
 42
0.00000001
 43
0.00000001
 40
0.0
 40
0.0
 40
0.0
 40
0.0
 40
0.2316347876629371
 40
0.4633066480819601
 40
0.6939442291381566
 40
0.922740652522644
 40
1.0
 40
1.0
 40
1.0
 40
1.0
 10
218.9913827281777
 20
76.66986707566481
 30
0.0
 10
218.9913827281777
 20
76.67545654069508
 30
0.0
 10
218.9913827281777
 20
76.68663636534004
 30
0.0
 10
218.9913827281777
 20
76.77395943129571
 30
0.0
 10
218.9913827281777
 20
76.90226960507776
 30
0.0
 10
218.9913827281777
 20
77.02694903177557
 30
0.0
 10
218.9913827281777
 20
77.10133704052888
 30
0.0
 10
218.9913827281777
 20
77.1201152161543
 30
0.0
  0
SPLINE
  5
1DE
330
1F
100
AcDbEntity
  8
0
  6
Continuous
 62
     7
370
    25
100
AcDbSpline
210
0.0
220
0.0
230
1.0
 70
     8
 71
     3
 72
    11
 73
     7
 74
     0
 42
0.00000001
 43
0.00000001
 40
0.0
 40
0.0
 40
0.0
 40
0.0
 40
0.2981995125517631
 40
0.5964325929955625
 40
0.8933636912282922
 40
1.0
 40
1.0
 40
1.0
 40
1.0
 10
212.0753029450781
 20
76.6698670756648
 30
0.0
 10
212.1913254366865
 20
76.68106384127042
 30
0.0
 10
212.423383480389
 20
76.70345863288554
 30
0.0
 10
212.7252873305572
 20
76.88280755902964
 30
0.0
 10
212.925234458977
 20
77.08095425259893
 30
0.0
 10
212.9775572560358
 20
77.22857067445047
 30
0.0
 10
212.9913827281778
 20
77.26757598079365
 30
0.0
  0
LINE
  5
1DF
330
1F
100
AcDbEntity
  8
0
  6
Continuous
 62
     7
370
    25
100
AcDbLine
 10
212.9913827282
 20
76.6698670757
 30
0.0
 11
212.0753029451
 21
76.6698670757
 31
0.0
  0
LINE
  5
1E0
330
1F
100
AcDbEntity
  8
0
  6
Continuous
 62
     7
370
    25
100
AcDbLine
 10
210.5104168731
 20
76.6698670757
 30
0.0
 11
212.0753029451
 21
76.6698670757
 31
0.0
  0
LINE
  5
1E1
330
1F
100
AcDbEntity
  8
0
  6
Continuous
 62
     7
370
    25
100
AcDbLine
 10
217.1913827282
 20
78.1698670757
 30
0.0
 11
218.7913827282
 21
78.1698670757
 31
0.0
  0
SPLINE
  5
1E2
330
1F
100
AcDbEntity
  8
0
  6
Continuous
 62
     7
370
    25
100
AcDbSpline
210
0.0
220
0.0
230
1.0
 70
     8
 71
     3
 72
    11
 73
     7
 74
     0
 42
0.00000001
 43
0.00000001
 40
0.0
 40
0.0
 40
0.0
 40
0.0
 40
0.284393128892028
 40
0.5687862577840576
 40
0.8531793866760911
 40
0.9999999999999999
 40
0.9999999999999999
 40
0.9999999999999999
 40
0.9999999999999999
 10
219.5694955174912
 20
96.48819093948033
 30
0.0
 10
219.5570289938758
 20
96.57825356032876
 30
0.0
 10
219.532095946645
 20
96.75837880202565
 30
0.0
 10
219.3686425879148
 20
96.98064140543926
 30
0.0
 10
219.1793006494086
 20
97.11994553857637
 30
0.0
 10
219.0436510984298
 20
97.13858596391583
 30
0.0
 10
218.9974648378309
 20
97.14493269736383
 30
0.0
  0
LINE
  5
1E3
330
1F
100
AcDbEntity
  8
0
  6
Continuous
 62
     7
370
    25
100
AcDbLine
 10
215.3933968434
 20
93.647394449
 30
0.0
 11
215.3859260581
 21
93.6567786015
 31
0.0
  0
ELLIPSE
  5
1E4
330
1F
100
AcDbEntity
  8
0
  6
Continuous
 62
     7
370
    25
100
AcDbEllipse
 10
217.0156339648
 20
96.4698670757
 30
0.0
 11
1.500207016110408
 21
-0.02894030982646712
 31
0.0
210
0.0
220
0.0
230
1.0
 40
0.2796306798
 41
3.072248304391437
 42
3.166880436693457
  0
LINE
  5
1E5
330
1F
100
AcDbEntity
  8
0
  6
Continuous
 62
     7
370
    25
100
AcDbLine
 10
212.7669537741
 20
91.6698670757
 30
0.0
 11
212.764644304
 21
91.6698670757
 31
0.0
  0
LINE
  5
1E6
330
1F
100
AcDbEntity
  8
0
  6
Continuous
 62
     7
370
    25
100
AcDbLine
 10
223.2181211524
 20
91.6698670757
 30
0.0
 11
223.2158116822
 21
91.6698670757
 31
0.0
  0
LINE
  5
1E7
330
1F
100
AcDbEntity
  8
0
  6
Continuous
 62
     7
370
    25
100
AcDbLine
 10
212.764644304
 20
86.5579426614
 30
0.0
 11
209.0025751696
 21
86.5579426614
 31
0.0
  0
LINE
  5
1E8
330
1F
100
AcDbEntity
  8
0
  6
Continuous
 62
     7
370
    25
100
AcDbLine
 10
226.9801902868
 20
86.5579426614
 30
0.0
 11
223.2181211524
 21
86.5579426614
 31
0.0
  0
LINE
  5
1E9
330
1F
100
AcDbEntity
  8
0
  6
Continuous
 62
     7
370
    25
100
AcDbLine
 10
218.9913827282
 20
77.1201152162
 30
0.0
 11
226.0364075422
 21
77.1201152162
 31
0.0
  0
LINE
  5
1EA
330
1F
100
AcDbEntity
  8
0
  6
Continuous
 62
     7
370
    25
100
AcDbLine
 10
223.2181211524
 20
86.781481115
 30
0.0
 11
226.9774309733
 21
86.781481115
 31
0.0
  0
LINE
  5
1EB
330
1F
100
AcDbEntity
  8
0
  6
Continuous
 62
     7
370
    25
100
AcDbLine
 10
209.0053344831
 20
86.781481115
 30
0.0
 11
212.764644304
 21
86.781481115
 31
0.0
  0
LINE
  5
1EC
330
1F
100
AcDbEntity
  8
0
  6
Continuous
 62
     7
370
    25
100
AcDbLine
 10
226.0461305573
 20
94.231884443
 30
0.0
 11
220.5712827097
 21
94.231884443
 31
0.0
  0
LINE
  5
1ED
330
1F
100
AcDbEntity
  8
0
  6
Continuous
 62
     7
370
    25
100
AcDbLine
 10
215.4114827466
 20
94.231884443
 30
0.0
 11
209.9366348991
 21
94.231884443
 31
0.0
  0
LINE
  5
1EE
330
1F
100
AcDbEntity
  8
0
  6
Continuous
 62
     7
370
    25
100
AcDbLine
 10
218.9913827282
 20
77.9698670757
 30
0.0
 11
216.9913827282
 21
77.9698670757
 31
0.0
  0
INSERT
  5
1FA
330
1F
100
AcDbEntity
  8
0
  6
Continuous
 62
     7
370
    18
100
AcDbBlockReference
  2
SW_CENTERMARKSYMBOL_0
 10
217.9913827282
 20
56.1698670757
 30
0.0
  0
LINE
  5
1FB
330
1F
100
AcDbEntity
  8
0
  6
Continuous
 62
     7
370
    25
100
AcDbLine
 10
130.2863875445
 20
154.6082365924
 30
0.0
 11
130.0363875445
 21
154.3582365924
 31
0.0
  0
LINE
  5
1FC
330
1F
100
AcDbEntity
  8
0
  6
Continuous
 62
     7
370
    25
100
AcDbLine
 10
130.0363875445
 20
127.8582365924
 30
0.0
 11
130.2863875445
 21
127.6082365924
 31
0.0
  0
LINE
  5
1FD
330
1F
100
AcDbEntity
  8
0
  6
Continuous
 62
     7
370
    25
100
AcDbLine
 10
133.5363875445
 20
154.6082365924
 30
0.0
 11
130.2863875445
 21
154.6082365924
 31
0.0
  0
LINE
  5
1FE
330
1F
100
AcDbEntity
  8
0
  6
Continuous
 62
     7
370
    25
100
AcDbLine
 10
130.2863875445
 20
127.6082365924
 30
0.0
 11
133.5363875445
 21
127.6082365924
 31
0.0
  0
LINE
  5
1FF
330
1F
100
AcDbEntity
  8
0
  6
Continuous
 62
     7
370
    25
100
AcDbLine
 10
130.0363875445
 20
154.1082365924
 30
0.0
 11
117.0363875445
 21
154.1082365924
 31
0.0
  0
LINE
  5
200
330
1F
100
AcDbEntity
  8
0
  6
Continuous
 62
     7
370
    25
100
AcDbLine
 10
117.0363875445
 20
128.1082365924
 30
0.0
 11
130.0363875445
 21
128.1082365924
 31
0.0
  0
LINE
  5
201
330
1F
100
AcDbEntity
  8
0
  6
Continuous
 62
     7
370
    25
100
AcDbLine
 10
117.0363875445
 20
154.1082365924
 30
0.0
 11
116.5363875445
 21
153.6082365924
 31
0.0
  0
LINE
  5
202
330
1F
100
AcDbEntity
  8
0
  6
Continuous
 62
     7
370
    25
100
AcDbLine
 10
116.5363875445
 20
128.6082365924
 30
0.0
 11
117.0363875445
 21
128.1082365924
 31
0.0
  0
LINE
  5
203
330
1F
100
AcDbEntity
  8
0
  6
Continuous
 62
     7
370
    25
100
AcDbLine
 10
162.0363875445
 20
154.6082365924
 30
0.0
 11
159.5363875445
 21
154.6082365924
 31
0.0
  0
LINE
  5
204
330
1F
100
AcDbEntity
  8
0
  6
Continuous
 62
     7
370
    25
100
AcDbLine
 10
159.5363875445
 20
127.6082365924
 30
0.0
 11
162.0363875445
 21
127.6082365924
 31
0.0
  0
LINE
  5
205
330
1F
100
AcDbEntity
  8
0
  6
Continuous
 62
     7
370
    25
100
AcDbLine
 10
173.5363875445
 20
154.1082365924
 30
0.0
 11
162.0363875445
 21
154.1082365924
 31
0.0
  0
LINE
  5
206
330
1F
100
AcDbEntity
  8
0
  6
Continuous
 62
     7
370
    25
100
AcDbLine
 10
162.0363875445
 20
128.1082365924
 30
0.0
 11
173.5363875445
 21
128.1082365924
 31
0.0
  0
LINE
  5
207
330
1F
100
AcDbEntity
  8
0
  6
Continuous
 62
     7
370
    25
100
AcDbLine
 10
173.5363875445
 20
128.1082365924
 30
0.0
 11
174.0363875445
 21
128.6082365924
 31
0.0
  0
LINE
  5
208
330
1F
100
AcDbEntity
  8
0
  6
Continuous
 62
     7
370
    25
100
AcDbLine
 10
174.0363875445
 20
153.6082365924
 30
0.0
 11
173.5363875445
 21
154.1082365924
 31
0.0
  0
LINE
  5
209
330
1F
100
AcDbEntity
  8
0
  6
Continuous
 62
     7
370
    25
100
AcDbLine
 10
95.9925621524
 20
140.23820751
 30
0.0
 11
96.0099811427
 21
140.23820751
 31
0.0
  0
LINE
  5
20A
330
1F
100
AcDbEntity
  8
0
  6
Continuous
 62
     7
370
    25
100
AcDbLine
 10
124.5707352219
 20
145.7033949518
 30
0.0
 11
123.378495165
 21
144.9094217135
 31
0.0
  0
LINE
  5
20B
330
1F
100
AcDbEntity
  8
0
  6
Continuous
 62
     7
370
    25
100
AcDbLine
 10
123.3784951058
 20
137.3070513639
 30
0.0
 11
124.5751143778
 21
136.5101618413
 31
0.0
  0
SPLINE
  5
20C
330
1F
100
AcDbEntity
  8
0
  6
Continuous
 62
     7
370
    25
100
AcDbSpline
210
0.0
220
0.0
230
1.0
 70
     8
 71
     3
 72
    11
 73
     7
 74
     0
 42
0.00000001
 43
0.00000001
 40
0.0
 40
0.0
 40
0.0
 40
0.0
 40
0.2485427336868733
 40
0.4982459407376392
 40
0.748834762140144
 40
1.0
 40
1.0
 40
1.0
 40
1.0
 10
123.378415323029
 20
144.9095664295683
 30
0.0
 10
122.9571351799729
 20
144.6958011961131
 30
0.0
 10
122.112607890531
 20
144.267272635813
 30
0.0
 10
120.7560023232969
 20
143.8285786741997
 30
0.0
 10
119.3579052171705
 20
143.5276497297056
 30
0.0
 10
118.4065493181897
 20
143.4663690455929
 30
0.0
 10
117.9303249085493
 20
143.4356935038265
 30
0.0
  0
SPLINE
  5
20D
330
1F
100
AcDbEntity
  8
0
  6
Continuous
 62
     7
370
    25
100
AcDbSpline
210
0.0
220
0.0
230
1.0
 70
     8
 71
     3
 72
    10
 73
     6
 74
     0
 42
0.00000001
 43
0.00000001
 40
0.0
 40
0.0
 40
0.0
 40
0.0
 40
0.0711023749285984
 40
0.5366329433438188
 40
1.0
 40
1.0
 40
1.0
 40
1.0
 10
120.5389002356857
 20
138.4083306352169
 30
0.0
 10
120.6098746280391
 20
138.3941042816143
 30
0.0
 10
121.1455416449128
 20
138.2867333250955
 30
0.0
 10
122.1108168601966
 20
137.9402436254147
 30
0.0
 10
122.9565390975862
 20
137.5176909870561
 30
0.0
 10
123.378415323029
 20
137.3069067552594
 30
0.0
  0
LINE
  5
20E
330
1F
100
AcDbEntity
  8
0
  6
Continuous
 62
     7
370
    25
100
AcDbLine
 10
117.9296536359
 20
143.4613283713
 30
0.0
 11
96.2752626061
 21
142.8942881862
 31
0.0
  0
LINE
  5
20F
330
1F
100
AcDbEntity
  8
0
  6
Continuous
 62
     7
370
    25
100
AcDbLine
 10
96.2752661247
 20
139.3221849065
 30
0.0
 11
117.9296536359
 21
138.7551448135
 31
0.0
  0
SPLINE
  5
210
330
1F
100
AcDbEntity
  8
0
  6
Continuous
 62
     7
370
    25
100
AcDbSpline
210
0.0
220
0.0
230
1.0
 70
     8
 71
     3
 72
    12
 73
     8
 74
     0
 42
0.00000001
 43
0.00000001
 40
0.0
 40
0.0
 40
0.0
 40
0.0
 40
0.1139774775637122
 40
0.3341116380163749
 40
0.5985282756892611
 40
0.8523925792252544
 40
1.0
 40
1.0
 40
1.0
 40
1.0
 10
91.23685088076101
 20
140.0232960754714
 30
0.0
 10
91.2521298411187
 20
139.9903765679922
 30
0.0
 10
91.29691832548784
 20
139.8938768840048
 30
0.0
 10
91.42991433689616
 20
139.7584547727416
 30
0.0
 10
91.61932635141126
 20
139.6356081211175
 30
0.0
 10
91.81693200248509
 20
139.5576288657498
 30
0.0
 10
91.94861950145295
 20
139.5485549940148
 30
0.0
 10
91.99703649048074
 20
139.5452188417476
 30
0.0
  0
SPLINE
  5
211
330
1F
100
AcDbEntity
  8
0
  6
Continuous
 62
     7
370
    25
100
AcDbSpline
210
0.0
220
0.0
230
1.0
 70
     8
 71
     3
 72
    12
 73
     8
 74
     0
 42
0.00000001
 43
0.00000001
 40
0.0
 40
0.0
 40
0.0
 40
0.0
 40
0.0693075790488932
 40
0.2377254384913052
 40
0.4635565194705342
 40
0.7653509989718424
 40
1.0
 40
1.0
 40
1.0
 40
1.0
 10
91.99685688845294
 20
142.671786796405
 30
0.0
 10
91.97417310484926
 20
142.6716909050066
 30
0.0
 10
91.89636758231009
 20
142.6713619968978
 30
0.0
 10
91.75048916514332
 20
142.6312249277744
 30
0.0
 10
91.55341366377431
 20
142.5468212811212
 30
0.0
 10
91.35947300294265
 20
142.4063845906416
 30
0.0
 10
91.27263457075739
 20
142.260013482031
 30
0.0
 10
91.23465004470253
 20
142.1959884063959
 30
0.0
  0
SPLINE
  5
212
330
1F
100
AcDbEntity
  8
0
  6
Continuous
 62
     7
370
    25
100
AcDbSpline
210
0.0
220
0.0
230
1.0
 70
     8
 71
     3
 72
    10
 73
     6
 74
     0
 42
0.00000001
 43
0.00000001
 40
0.0
 40
0.0
 40
0.0
 40
0.0
 40
0.2268973339753514
 40
0.6313443648666789
 40
1.0
 40
1.0
 40
1.0
 40
1.0
 10
91.23177456352794
 20
142.196666531214
 30
0.0
 10
91.20495238688459
 20
142.1357958427489
 30
0.0
 10
91.13031938093185
 20
141.966422472535
 30
0.0
 10
91.05357389507718
 20
141.6539173686712
 30
0.0
 10
91.04193674433184
 20
141.3937456289739
 30
0.0
 10
91.03638754448076
 20
141.2696821867469
 30
0.0
  0
SPLINE
  5
213
330
1F
100
AcDbEntity
  8
0
  6
Continuous
 62
     7
370
    25
100
AcDbSpline
210
0.0
220
0.0
230
1.0
 70
     8
 71
     3
 72
    10
 73
     6
 74
     0
 42
0.00000001
 43
0.00000001
 40
0.0
 40
0.0
 40
0.0
 40
0.0
 40
0.2023040402533469
 40
0.5893566888456827
 40
1.0
 40
1.0
 40
1.0
 40
1.0
 10
91.03638754448076
 20
140.9467909980807
 30
0.0
 10
91.03813797912724
 20
140.878854867792
 30
0.0
 10
91.04323738478412
 20
140.6809418021417
 30
0.0
 10
91.09572030692232
 20
140.3523191434453
 30
0.0
 10
91.18553773933904
 20
140.1328080540587
 30
0.0
 10
91.23177456352794
 20
140.0198066536136
 30
0.0
  0
LINE
  5
214
330
1F
100
AcDbEntity
  8
0
  6
Continuous
 62
     7
370
    25
100
AcDbLine
 10
91.0363875445
 20
141.2696821867
 30
0.0
 11
91.0363875445
 21
140.9467909981
 31
0.0
  0
ARC
  5
215
330
1F
100
AcDbEntity
  8
0
  6
Continuous
 62
     7
370
    25
100
AcDbCircle
 10
146.5363875445
 20
141.1082365924
 30
0.0
 40
8.993770368365603
100
AcDbArc
 50
200.7374323967
 51
90.0
  0
ARC
  5
216
330
1F
100
AcDbEntity
  8
0
  6
Continuous
 62
     7
370
    25
100
AcDbCircle
 10
146.5363875445
 20
141.1082365924
 30
0.0
 40
8.993770368365603
100
AcDbArc
 50
90.0
 51
159.2565456152
  0
LINE
  5
217
330
1F
100
AcDbEntity
  8
0
  6
Continuous
 62
     7
370
    25
100
AcDbLine
 10
130.0363875445
 20
127.8582365924
 30
0.0
 11
130.0363875445
 21
136.2201196742
 31
0.0
  0
LINE
  5
218
330
1F
100
AcDbEntity
  8
0
  6
Continuous
 62
     7
370
    25
100
AcDbLine
 10
130.0363875445
 20
145.9963535106
 30
0.0
 11
130.0363875445
 21
154.3582365924
 31
0.0
  0
LINE
  5
219
330
1F
100
AcDbEntity
  8
0
  6
Continuous
 62
     7
370
    25
100
AcDbLine
 10
130.2863875445
 20
154.6082365924
 30
0.0
 11
130.2863875445
 21
146.0102423995
 31
0.0
  0
LINE
  5
21A
330
1F
100
AcDbEntity
  8
0
  6
Continuous
 62
     7
370
    25
100
AcDbLine
 10
130.2863875445
 20
136.2062307853
 30
0.0
 11
130.2863875445
 21
127.6082365924
 31
0.0
  0
LINE
  5
21B
330
1F
100
AcDbEntity
  8
0
  6
Continuous
 62
     7
370
    25
100
AcDbLine
 10
117.0363875445
 20
154.1082365924
 30
0.0
 11
117.0363875445
 21
143.4379373755
 31
0.0
  0
LINE
  5
21C
330
1F
100
AcDbEntity
  8
0
  6
Continuous
 62
     7
370
    25
100
AcDbLine
 10
117.0363875445
 20
138.7785358093
 30
0.0
 11
117.0363875445
 21
128.1082365924
 31
0.0
  0
LINE
  5
21D
330
1F
100
AcDbEntity
  8
0
  6
Continuous
 62
     7
370
    25
100
AcDbLine
 10
116.5363875445
 20
128.6082365924
 30
0.0
 11
116.5363875445
 21
138.7916287701
 31
0.0
  0
LINE
  5
21E
330
1F
100
AcDbEntity
  8
0
  6
Continuous
 62
     7
370
    25
100
AcDbLine
 10
116.5363875445
 20
143.4248444147
 30
0.0
 11
116.5363875445
 21
153.6082365924
 31
0.0
  0
LINE
  5
21F
330
1F
100
AcDbEntity
  8
0
  6
Continuous
 62
     7
370
    25
100
AcDbLine
 10
158.0930118715
 20
149.8403611907
 30
0.0
 11
148.6899672247
 21
149.8403611907
 31
0.0
  0
LINE
  5
220
330
1F
100
AcDbEntity
  8
0
  6
Continuous
 62
     7
370
    25
100
AcDbLine
 10
144.3828078643
 20
149.8403611907
 30
0.0
 11
134.9797632175
 21
149.8403611907
 31
0.0
  0
LINE
  5
221
330
1F
100
AcDbEntity
  8
0
  6
Continuous
 62
     7
370
    25
100
AcDbLine
 10
134.9797632175
 20
149.8403611907
 30
0.0
 11
134.9797632175
 21
155.1082365924
 31
0.0
  0
LINE
  5
222
330
1F
100
AcDbEntity
  8
0
  6
Continuous
 62
     7
370
    25
100
AcDbLine
 10
158.0930118715
 20
155.1082365924
 30
0.0
 11
134.9797632175
 21
155.1082365924
 31
0.0
  0
LINE
  5
223
330
1F
100
AcDbEntity
  8
0
  6
Continuous
 62
     7
370
    25
100
AcDbLine
 10
158.0930118715
 20
155.1082365924
 30
0.0
 11
158.0930118715
 21
149.8403611907
 31
0.0
  0
SPLINE
  5
224
330
1F
100
AcDbEntity
  8
0
  6
Continuous
 62
     7
370
    25
100
AcDbSpline
210
0.0
220
0.0
230
1.0
 70
     8
 71
     3
 72
    14
 73
    10
 74
     0
 42
0.00000001
 43
0.00000001
 40
0.0
 40
0.0
 40
0.0
 40
0.0
 40
0.5
 40
0.5
 40
0.75
 40
0.75
 40
0.875
 40
0.875
 40
1.0
 40
1.0
 40
1.0
 40
1.0
 10
158.0930118715067
 20
149.8403611907003
 30
0.0
 10
158.525599768152
 20
148.4245706324718
 30
0.0
 10
158.8876924340345
 20
146.9940074010462
 30
0.0
 10
159.2675969746365
 20
144.8139558525503
 30
0.0
 10
159.366861997382
 20
144.081536502042
 30
0.0
 10
159.4677357511169
 20
142.9728438222477
 30
0.0
 10
159.4933678384181
 20
142.6016047227677
 30
0.0
 10
159.5277262305056
 20
141.8555838217337
 30
0.0
 10
159.5363875444808
 20
141.4806739626859
 30
0.0
 10
159.5363875444808
 20
141.1082365924138
 30
0.0
  0
SPLINE
  5
225
330
1F
100
AcDbEntity
  8
0
  6
Continuous
 62
     7
370
    25
100
AcDbSpline
210
0.0
220
0.0
230
1.0
 70
    24
 71
     3
 72
    10
 73
     6
 74
     0
 42
0.00000001
 43
0.00000001
 40
0.0
 40
0.0
 40
0.0
 40
0.0
 40
0.5
 40
0.5
 40
1.0
 40
1.0
 40
1.0
 40
1.0
 10
159.5363875444808
 20
155.1082365924138
 30
0.0
 10
159.5363875444808
 20
155.1082365924138
 30
0.0
 10
159.3957605825242
 20
155.1082365924138
 30
0.0
 10
158.8905174586639
 20
155.1082365924138
 30
0.0
 10
158.5279536354154
 20
155.1082365924138
 30
0.0
 10
158.0930118715067
 20
155.1082365924138
 30
0.0
  0
LINE
  5
226
330
1F
100
AcDbEntity
  8
0
  6
Continuous
 62
     7
370
    25
100
AcDbLine
 10
159.5363875445
 20
155.1082365924
 30
0.0
 11
159.5363875445
 21
141.1082365924
 31
0.0
  0
SPLINE
  5
227
330
1F
100
AcDbEntity
  8
0
  6
Continuous
 62
     7
370
    25
100
AcDbSpline
210
0.0
220
0.0
230
1.0
 70
     8
 71
     3
 72
     9
 73
     5
 74
     0
 42
0.00000001
 43
0.00000001
 40
0.0
 40
0.0
 40
0.0
 40
0.0
 40
0.3977321558965718
 40
1.0
 40
1.0
 40
1.0
 40
1.0
 10
134.0767159924552
 20
146.2208162021651
 30
0.0
 10
134.1721384412394
 20
146.706582617899
 30
0.0
 10
134.4120547954229
 20
147.9279231822264
 30
0.0
 10
134.7663703514151
 20
149.1215051513784
 30
0.0
 10
134.9797632174548
 20
149.8403611907003
 30
0.0
  0
SPLINE
  5
228
330
1F
100
AcDbEntity
  8
0
  6
Continuous
 62
     7
370
    25
100
AcDbSpline
210
0.0
220
0.0
230
1.0
 70
    24
 71
     3
 72
    12
 73
     8
 74
     0
 42
0.00000001
 43
0.00000001
 40
0.0
 40
0.0
 40
0.0
 40
0.0
 40
0.5
 40
0.5
 40
0.75
 40
0.75
 40
1.0
 40
1.0
 40
1.0
 40
1.0
 10
134.9797632174548
 20
155.1082365924138
 30
0.0
 10
134.5474600676684
 20
155.1082365924138
 30
0.0
 10
134.1853812933014
 20
155.1082365924138
 30
0.0
 10
133.805308476529
 20
155.1082365924138
 30
0.0
 10
133.7059609230988
 20
155.1082365924138
 30
0.0
 10
133.5713556370194
 20
155.1082365924138
 30
0.0
 10
133.5363875444808
 20
155.1082365924138
 30
0.0
 10
133.5363875444808
 20
155.1082365924138
 30
0.0
  0
LINE
  5
229
330
1F
100
AcDbEntity
  8
0
  6
Continuous
 62
     7
370
    25
100
AcDbLine
 10
133.5363875445
 20
146.1907979551
 30
0.0
 11
133.5363875445
 21
155.1082365924
 31
0.0
  0
SPLINE
  5
22A
330
1F
100
AcDbEntity
  8
0
  6
Continuous
 62
     7
370
    25
100
AcDbSpline
210
0.0
220
0.0
230
1.0
 70
     8
 71
     3
 72
    10
 73
     6
 74
     0
 42
0.00000001
 43
0.00000001
 40
0.0
 40
0.0
 40
0.0
 40
0.0
 40
0.5
 40
0.5
 40
1.0
 40
1.0
 40
1.0
 40
1.0
 10
159.5363875444808
 20
141.1082365924138
 30
0.0
 10
159.5363875444808
 20
139.6134530803093
 30
0.0
 10
159.3957605825242
 20
138.1417190289099
 30
0.0
 10
158.8905174586639
 20
135.2349638735482
 30
0.0
 10
158.5279536354154
 20
133.7996063810404
 30
0.0
 10
158.0930118715067
 20
132.3761119941273
 30
0.0
  0
LINE
  5
22B
330
1F
100
AcDbEntity
  8
0
  6
Continuous
 62
     7
370
    25
100
AcDbLine
 10
158.0930118715
 20
132.3761119941
 30
0.0
 11
148.6899672247
 21
132.3761119941
 31
0.0
  0
LINE
  5
22C
330
1F
100
AcDbEntity
  8
0
  6
Continuous
 62
     7
370
    25
100
AcDbLine
 10
144.3828078643
 20
132.3761119941
 30
0.0
 11
134.9797632175
 21
132.3761119941
 31
0.0
  0
SPLINE
  5
22D
330
1F
100
AcDbEntity
  8
0
  6
Continuous
 62
     7
370
    25
100
AcDbSpline
210
0.0
220
0.0
230
1.0
 70
     8
 71
     3
 72
     9
 73
     5
 74
     0
 42
0.00000001
 43
0.00000001
 40
0.0
 40
0.0
 40
0.0
 40
0.0
 40
0.5280974695372358
 40
0.9999999999999999
 40
0.9999999999999999
 40
0.9999999999999999
 40
0.9999999999999999
 10
134.9797632174548
 20
132.3761119941273
 30
0.0
 10
134.7933027425767
 20
133.0070387344373
 30
0.0
 10
134.4402230827907
 20
134.2017551962731
 30
0.0
 10
134.1847214992828
 20
135.4209934807922
 30
0.0
 10
134.0641496554882
 20
135.9963551124939
 30
0.0
  0
LINE
  5
22E
330
1F
100
AcDbEntity
  8
0
  6
Continuous
 62
     7
370
    25
100
AcDbLine
 10
134.9797632175
 20
127.1082365924
 30
0.0
 11
134.9797632175
 21
132.3761119941
 31
0.0
  0
SPLINE
  5
22F
330
1F
100
AcDbEntity
  8
0
  6
Continuous
 62
     7
370
    25
100
AcDbSpline
210
0.0
220
0.0
230
1.0
 70
    24
 71
     3
 72
    10
 73
     6
 74
     0
 42
0.00000001
 43
0.00000001
 40
0.0
 40
0.0
 40
0.0
 40
0.0
 40
0.5
 40
0.5
 40
1.0
 40
1.0
 40
1.0
 40
1.0
 10
133.5363875444808
 20
127.1082365924138
 30
0.0
 10
133.5363875444808
 20
127.1082365924138
 30
0.0
 10
133.6767849874737
 20
127.1082365924138
 30
0.0
 10
134.1818715080105
 20
127.1082365924138
 30
0.0
 10
134.5445075299979
 20
127.1082365924138
 30
0.0
 10
134.9797632174548
 20
127.1082365924138
 30
0.0
  0
LINE
  5
230
330
1F
100
AcDbEntity
  8
0
  6
Continuous
 62
     7
370
    25
100
AcDbLine
 10
133.5363875445
 20
127.1082365924
 30
0.0
 11
133.5363875445
 21
136.0256752298
 31
0.0
  0
SPLINE
  5
231
330
1F
100
AcDbEntity
  8
0
  6
Continuous
 62
     7
370
    25
100
AcDbSpline
210
0.0
220
0.0
230
1.0
 70
    24
 71
     3
 72
    14
 73
    10
 74
     0
 42
0.00000001
 43
0.00000001
 40
0.0
 40
0.0
 40
0.0
 40
0.0
 40
0.5
 40
0.5
 40
0.75
 40
0.75
 40
0.875
 40
0.875
 40
1.0
 40
1.0
 40
1.0
 40
1.0
 10
158.0930118715067
 20
127.1082365924138
 30
0.0
 10
158.525599768152
 20
127.1082365924138
 30
0.0
 10
158.8876924340345
 20
127.1082365924138
 30
0.0
 10
159.2675969746365
 20
127.1082365924138
 30
0.0
 10
159.366861997382
 20
127.1082365924138
 30
0.0
 10
159.4677357511169
 20
127.1082365924138
 30
0.0
 10
159.4933678384181
 20
127.1082365924138
 30
0.0
 10
159.5277262305056
 20
127.1082365924138
 30
0.0
 10
159.5363875444808
 20
127.1082365924138
 30
0.0
 10
159.5363875444808
 20
127.1082365924138
 30
0.0
  0
LINE
  5
232
330
1F
100
AcDbEntity
  8
0
  6
Continuous
 62
     7
370
    25
100
AcDbLine
 10
158.0930118715
 20
132.3761119941
 30
0.0
 11
158.0930118715
 21
127.1082365924
 31
0.0
  0
LINE
  5
233
330
1F
100
AcDbEntity
  8
0
  6
Continuous
 62
     7
370
    25
100
AcDbLine
 10
159.5363875445
 20
141.1082365924
 30
0.0
 11
159.5363875445
 21
127.1082365924
 31
0.0
  0
LINE
  5
234
330
1F
100
AcDbEntity
  8
0
  6
Continuous
 62
     7
370
    25
100
AcDbLine
 10
158.0930118715
 20
127.1082365924
 30
0.0
 11
134.9797632175
 21
127.1082365924
 31
0.0
  0
LINE
  5
235
330
1F
100
AcDbEntity
  8
0
  6
Continuous
 62
     7
370
    25
100
AcDbLine
 10
162.0363875445
 20
154.6082365924
 30
0.0
 11
162.0363875445
 21
127.6082365924
 31
0.0
  0
LINE
  5
236
330
1F
100
AcDbEntity
  8
0
  6
Continuous
 62
     7
370
    25
100
AcDbLine
 10
173.5363875445
 20
128.1082365924
 30
0.0
 11
173.5363875445
 21
154.1082365924
 31
0.0
  0
LINE
  5
237
330
1F
100
AcDbEntity
  8
0
  6
Continuous
 62
     7
370
    25
100
AcDbLine
 10
174.0363875445
 20
153.6082365924
 30
0.0
 11
174.0363875445
 21
128.6082365924
 31
0.0
  0
LINE
  5
238
330
1F
100
AcDbEntity
  8
0
  6
Continuous
 62
     7
370
    25
100
AcDbLine
 10
144.2989035229
 20
140.1329640474
 30
0.0
 11
144.2661079959
 21
140.1517080867
 31
0.0
  0
SPLINE
  5
239
330
1F
100
AcDbEntity
  8
0
  6
Continuous
 62
     7
370
    25
100
AcDbSpline
210
0.0
220
0.0
230
1.0
 70
     8
 71
     3
 72
    15
 73
    11
 74
     0
 42
0.00000001
 43
0.00000001
 40
0.0
 40
0.0
 40
0.0
 40
0.0
 40
0.1241930067305288
 40
0.2496556654892302
 40
0.3743703853151211
 40
0.4998404796364203
 40
0.6240146704162364
 40
0.7475381382242062
 40
0.8745858500551823
 40
1.0
 40
1.0
 40
1.0
 40
1.0
 10
145.0791932446113
 20
140.4054036979996
 30
0.0
 10
145.0636328495016
 20
140.3695564952557
 30
0.0
 10
145.0323529819901
 20
140.2974956160439
 30
0.0
 10
144.9549166225017
 20
140.207620102701
 30
0.0
 10
144.8615626187628
 20
140.1352963249066
 30
0.0
 10
144.7543370127418
 20
140.0863689064021
 30
0.0
 10
144.6399511020209
 20
140.0600408529473
 30
0.0
 10
144.5222803391356
 20
140.0591817589447
 30
0.0
 10
144.4053966139104
 20
140.0805645195743
 30
0.0
 10
144.3342477630156
 20
140.1155730460351
 30
0.0
 10
144.2989035229322
 20
140.1329640474165
 30
0.0
  0
LINE
  5
23A
330
1F
100
AcDbEntity
  8
0
  6
Continuous
 62
     7
370
    25
100
AcDbLine
 10
146.0710472893
 20
143.1789829139
 30
0.0
 11
145.0791932446
 21
140.405403698
 31
0.0
  0
SPLINE
  5
23B
330
1F
100
AcDbEntity
  8
0
  6
Continuous
 62
     7
370
    25
100
AcDbSpline
210
0.0
220
0.0
230
1.0
 70
     8
 71
     3
 72
    15
 73
    11
 74
     0
 42
0.00000001
 43
0.00000001
 40
0.0
 40
0.0
 40
0.0
 40
0.0
 40
0.123302517808176
 40
0.2485158700387113
 40
0.3756924668130946
 40
0.4999990880429329
 40
0.6243057092728391
 40
0.7514823060473039
 40
0.8766757256079954
 40
1.0
 40
1.0
 40
1.0
 40
1.0
 10
147.0017278028324
 20
143.178982913913
 30
0.0
 10
146.9775768308701
 20
143.2196280498487
 30
0.0
 10
146.9289006163353
 20
143.3015482044366
 30
0.0
 10
146.8135499581302
 20
143.391367160249
 30
0.0
 10
146.6803903358684
 20
143.4489413084102
 30
0.0
 10
146.5363876924996
 20
143.4681000040803
 30
0.0
 10
146.3923841638011
 20
143.4489419011952
 30
0.0
 10
146.2592342908356
 20
143.3913677874567
 30
0.0
 10
146.1438719333012
 20
143.30156222531
 30
0.0
 10
146.09520014763
 20
143.2196372937852
 30
0.0
 10
146.0710472893131
 20
143.1789829139131
 30
0.0
  0
LINE
  5
23C
330
1F
100
AcDbEntity
  8
0
  6
Continuous
 62
     7
370
    25
100
AcDbLine
 10
147.9933507092
 20
140.4060500436
 30
0.0
 11
147.0017278028
 21
143.1789829139
 31
0.0
  0
SPLINE
  5
23D
330
1F
100
AcDbEntity
  8
0
  6
Continuous
 62
     7
370
    25
100
AcDbSpline
210
0.0
220
0.0
230
1.0
 70
     8
 71
     3
 72
    15
 73
    11
 74
     0
 42
0.00000001
 43
0.00000001
 40
0.0
 40
0.0
 40
0.0
 40
0.0
 40
0.1253320172137761
 40
0.2522975129251758
 40
0.3758847553984064
 40
0.5001929511416492
 40
0.6255758307380153
 40
0.7502289462456483
 40
0.8757444935777824
 40
1.0
 40
1.0
 40
1.0
 40
1.0
 10
148.7660524737463
 20
140.1293541929587
 30
0.0
 10
148.7308015571183
 20
140.1126798844759
 30
0.0
 10
148.6598402912639
 20
140.0791139477466
 30
0.0
 10
148.5438534004755
 20
140.0593323314924
 30
0.0
 10
148.4272570342351
 20
140.0614051118391
 30
0.0
 10
148.3141364276537
 20
140.0884831381896
 30
0.0
 10
148.2082607133142
 20
140.1376959538968
 30
0.0
 10
148.1161516286951
 20
140.2097817177707
 30
0.0
 10
148.0397199648267
 20
140.2990692392701
 30
0.0
 10
148.0087550573274
 20
140.3705099097072
 30
0.0
 10
147.9933507092061
 20
140.4060500435652
 30
0.0
  0
LINE
  5
23E
330
1F
100
AcDbEntity
  8
0
  6
Continuous
 62
     7
370
    25
100
AcDbLine
 10
148.8066670962
 20
140.1517080867
 30
0.0
 11
148.7660524737
 21
140.129354193
 31
0.0
  0
LINE
  5
23F
330
1F
100
AcDbEntity
  8
0
  6
Continuous
 62
     7
370
    25
100
AcDbLine
 10
148.1796838997
 20
138.9562969832
 30
0.0
 11
148.8066670962
 21
140.1517080867
 31
0.0
  0
SPLINE
  5
240
330
1F
100
AcDbEntity
  8
0
  6
Continuous
 62
     7
370
    25
100
AcDbSpline
210
0.0
220
0.0
230
1.0
 70
     8
 71
     3
 72
    15
 73
    11
 74
     0
 42
0.00000001
 43
0.00000001
 40
0.0
 40
0.0
 40
0.0
 40
0.0
 40
0.124633218643857
 40
0.2519059530189797
 40
0.3765391000744913
 40
0.4994035903146549
 40
0.6264494152300148
 40
0.7526064410610425
 40
0.8746804377363274
 40
1.0
 40
1.0
 40
1.0
 40
1.0
 10
148.0744554109372
 20
138.9381798164612
 30
0.0
 10
148.0784698866054
 20
138.9350745816085
 30
0.0
 10
148.0865838575841
 20
138.9287983484067
 30
0.0
 10
148.1010224494206
 20
138.9231853349268
 30
0.0
 10
148.1161558993537
 20
138.9206489823001
 30
0.0
 10
148.1315184416355
 20
138.9215343858679
 30
0.0
 10
148.1464490204721
 20
138.9256654563835
 30
0.0
 10
148.1599509205015
 20
138.9331561563295
 30
0.0
 10
148.1716365753879
 20
138.9432947382438
 30
0.0
 10
148.1769780997286
 20
138.9519251605865
 30
0.0
 10
148.1796838997304
 20
138.9562969831788
 30
0.0
  0
SPLINE
  5
241
330
1F
100
AcDbEntity
  8
0
  6
Continuous
 62
     7
370
    25
100
AcDbSpline
210
0.0
220
0.0
230
1.0
 70
     8
 71
     3
 72
    11
 73
     7
 74
     0
 42
0.00000001
 43
0.00000001
 40
0.0
 40
0.0
 40
0.0
 40
0.0
 40
0.2506252605986012
 40
0.4999999999996215
 40
0.7493747394010043
 40
1.0
 40
1.0
 40
1.0
 40
1.0
 10
144.9983196812084
 20
138.9381798164611
 30
0.0
 10
145.2280473753817
 20
139.1010341084221
 30
0.0
 10
145.6863565131447
 20
139.425930113661
 30
0.0
 10
146.5363875460808
 20
139.5596620605981
 30
0.0
 10
147.386418579011
 20
139.4259301136558
 30
0.0
 10
147.8447277167673
 20
139.1010341084204
 30
0.0
 10
148.0744554109372
 20
138.9381798164612
 30
0.0
  0
SPLINE
  5
242
330
1F
100
AcDbEntity
  8
0
  6
Continuous
 62
     7
370
    25
100
AcDbSpline
210
0.0
220
0.0
230
1.0
 70
     8
 71
     3
 72
    15
 73
    11
 74
     0
 42
0.00000001
 43
0.00000001
 40
0.0
 40
0.0
 40
0.0
 40
0.0
 40
0.1253191957979125
 40
0.2473928354984055
 40
0.37344924164897
 40
0.500595004607996
 40
0.6235484391777584
 40
0.7480947836179481
 40
0.8753671458153865
 40
1.0
 40
1.0
 40
1.0
 40
1.0
 10
144.8930911924152
 20
138.9562969831788
 30
0.0
 10
144.8957969887476
 20
138.9519251548949
 30
0.0
 10
144.9011385058448
 20
138.9432947213161
 30
0.0
 10
144.9128210784338
 20
138.9331589438163
 30
0.0
 10
144.9263220584211
 20
138.9256668279427
 30
0.0
 10
144.9412560872712
 20
138.9215343826505
 30
0.0
 10
144.9566230984602
 20
138.920646440877
 30
0.0
 10
144.9717558348984
 20
138.9231873831345
 30
0.0
 10
144.9861912646801
 20
138.9287981614017
 30
0.0
 10
144.9943052155093
 20
138.9350745197105
 30
0.0
 10
144.9983196812084
 20
138.9381798164611
 30
0.0
  0
LINE
  5
243
330
1F
100
AcDbEntity
  8
0
  6
Continuous
 62
     7
370
    25
100
AcDbLine
 10
144.2661079959
 20
140.1517080867
 30
0.0
 11
144.8930911924
 21
138.9562969832
 31
0.0
  0
SPLINE
  5
244
330
1F
100
AcDbEntity
  8
0
  6
Continuous
 62
     7
370
    25
100
AcDbSpline
210
0.0
220
0.0
230
1.0
 70
     8
 71
     3
 72
    15
 73
    11
 74
     0
 42
0.00000001
 43
0.00000001
 40
0.0
 40
0.0
 40
0.0
 40
0.0
 40
0.1233867499278388
 40
0.2487396502211602
 40
0.3739317114754985
 40
0.4999973617625659
 40
0.6259591330513601
 40
0.7512551380600303
 40
0.8765613478174266
 40
1.0
 40
1.0
 40
1.0
 40
1.0
 10
146.4735046796747
 20
141.1296460505566
 30
0.0
 10
146.4763828808666
 20
141.1356608466396
 30
0.0
 10
146.4821851469782
 20
141.1477862837283
 30
0.0
 10
146.497714551699
 20
141.1611775440783
 30
0.0
 10
146.5160691335724
 20
141.1700552556583
 30
0.0
 10
146.5363819500553
 20
141.1728119189547
 30
0.0
 10
146.5567003677704
 20
141.1700572377542
 30
0.0
 10
146.5750532369345
 20
141.1611815394647
 30
0.0
 10
146.5905913413301
 20
141.147791172211
 30
0.0
 10
146.5963919033613
 20
141.1356640746649
 30
0.0
 10
146.5992704092868
 20
141.1296460505566
 30
0.0
  0
LINE
  5
245
330
1F
100
AcDbEntity
  8
0
  6
Continuous
 62
     7
370
    25
100
AcDbLine
 10
146.234391154
 20
140.4913920213
 30
0.0
 11
146.4735046797
 21
141.1296460506
 31
0.0
  0
SPLINE
  5
246
330
1F
100
AcDbEntity
  8
0
  6
Continuous
 62
     7
370
    25
100
AcDbSpline
210
0.0
220
0.0
230
1.0
 70
     8
 71
     3
 72
    15
 73
    11
 74
     0
 42
0.00000001
 43
0.00000001
 40
0.0
 40
0.0
 40
0.0
 40
0.0
 40
0.1261585224210642
 40
0.25131214515488
 40
0.3762846848783793
 40
0.499306278334087
 40
0.6261594278645743
 40
0.7521171342021308
 40
0.875819692269278
 40
1.0
 40
1.0
 40
1.0
 40
1.0
 10
146.297274018803
 20
140.4063276679341
 30
0.0
 10
146.2920429223144
 20
140.4066499745264
 30
0.0
 10
146.2816223969717
 20
140.4072920204189
 30
0.0
 10
146.2668358464573
 20
140.4127402607941
 30
0.0
 10
146.2536454938318
 20
140.4209628633797
 30
0.0
 10
146.2427749189905
 20
140.4322194696923
 30
0.0
 10
146.234767331662
 20
140.4457402150334
 30
0.0
 10
146.2306007046293
 20
140.4608771026102
 30
0.0
 10
146.2299796531177
 20
140.4765662341813
 30
0.0
 10
146.2329187654724
 20
140.48644374654
 30
0.0
 10
146.2343911539552
 20
140.491392021284
 30
0.0
  0
LINE
  5
247
330
1F
100
AcDbEntity
  8
0
  6
Continuous
 62
     7
370
    25
100
AcDbLine
 10
146.775501073
 20
140.4063276679
 30
0.0
 11
146.2972740188
 21
140.4063276679
 31
0.0
  0
SPLINE
  5
248
330
1F
100
AcDbEntity
  8
0
  6
Continuous
 62
     7
370
    25
100
AcDbSpline
210
0.0
220
0.0
230
1.0
 70
     8
 71
     3
 72
    15
 73
    11
 74
     0
 42
0.00000001
 43
0.00000001
 40
0.0
 40
0.0
 40
0.0
 40
0.0
 40
0.1241186784437695
 40
0.2478474916628983
 40
0.3736574149478943
 40
0.5005082335853298
 40
0.623452765830992
 40
0.7484986612277522
 40
0.8736976492452768
 40
1.0
 40
1.0
 40
1.0
 40
1.0
 10
146.8383839377323
 20
140.4913920215071
 30
0.0
 10
146.8398550103412
 20
140.486446175849
 30
0.0
 10
146.8427925348196
 20
140.4765700197708
 30
0.0
 10
146.8421758003195
 20
140.4608886241452
 30
0.0
 10
146.8380138387249
 20
140.4457560920649
 30
0.0
 10
146.8300150909265
 20
140.4322411844504
 30
0.0
 10
146.8191489993896
 20
140.4209811232544
 30
0.0
 10
146.805961281565
 20
140.412751410821
 30
0.0
 10
146.7911668349898
 20
140.4072918404359
 30
0.0
 10
146.7807382440825
 20
140.406649997379
 30
0.0
 10
146.7755010729681
 20
140.4063276679341
 30
0.0
  0
LINE
  5
249
330
1F
100
AcDbEntity
  8
0
  6
Continuous
 62
     7
370
    25
100
AcDbLine
 10
146.5992704093
 20
141.1296460506
 30
0.0
 11
146.8383839377
 21
140.4913920215
 31
0.0
  0
CIRCLE
  5
24A
330
1F
100
AcDbEntity
  8
0
  6
Continuous
 62
     7
370
    25
100
AcDbCircle
 10
146.5363875445
 20
141.1082365924
 30
0.0
 40
4.5
  0
LINE
  5
24B
330
1F
100
AcDbEntity
  8
0
  6
Continuous
 62
     7
370
    25
100
AcDbLine
 10
97.1544215332
 20
141.9868290446
 30
0.0
 11
131.431159331
 21
142.8843970122
 31
0.0
  0
SPLINE
  5
24C
330
1F
100
AcDbEntity
  8
0
  6
Continuous
 62
     7
370
    25
100
AcDbSpline
210
0.0
220
0.0
230
1.0
 70
    24
 71
     3
 72
    11
 73
     7
 74
     0
 42
0.00000001
 43
0.00000001
 40
0.0
 40
0.0
 40
0.0
 40
0.0
 40
0.2499999999999963
 40
0.4999999999999995
 40
0.7500000000000014
 40
1.0
 40
1.0
 40
1.0
 40
1.0
 10
97.13610394854564
 20
142.6863493817273
 30
0.0
 10
97.13643180980144
 20
142.6738288655047
 30
0.0
 10
97.13708753231306
 20
142.6487878330596
 30
0.0
 10
97.14134650145232
 20
142.486144363437
 30
0.0
 10
97.14733835711415
 20
142.2573246273825
 30
0.0
 10
97.15206047452516
 20
142.0769942388363
 30
0.0
 10
97.15442153323066
 20
141.9868290445632
 30
0.0
  0
LINE
  5
24D
330
1F
100
AcDbEntity
  8
0
  6
Continuous
 62
     7
370
    25
100
AcDbLine
 10
131.4128417463
 20
143.5839173493
 30
0.0
 11
97.1361039485
 21
142.6863493817
 31
0.0
  0
SPLINE
  5
24E
330
1F
100
AcDbEntity
  8
0
  6
Continuous
 62
     7
370
    25
100
AcDbSpline
210
0.0
220
0.0
230
1.0
 70
    24
 71
     3
 72
    11
 73
     7
 74
     0
 42
0.00000001
 43
0.00000001
 40
0.0
 40
0.0
 40
0.0
 40
0.0
 40
0.2500000000000036
 40
0.5000000000000022
 40
0.750000000000001
 40
1.0
 40
1.0
 40
1.0
 40
1.0
 10
131.4128417462833
 20
143.5839173493465
 30
0.0
 10
131.4131696075391
 20
143.5713968331239
 30
0.0
 10
131.4138253300507
 20
143.5463558006787
 30
0.0
 10
131.41808429919
 20
143.3837123310562
 30
0.0
 10
131.4240761548518
 20
143.1548925950017
 30
0.0
 10
131.4287982722628
 20
142.9745622064555
 30
0.0
 10
131.4311593309683
 20
142.8843970121823
 30
0.0
  0
LINE
  5
24F
330
1F
100
AcDbEntity
  8
0
  6
Continuous
 62
     7
370
    25
100
AcDbLine
 10
131.431159331
 20
139.3320761726
 30
0.0
 11
97.1544215332
 21
140.2296441403
 31
0.0
  0
LINE
  5
250
330
1F
100
AcDbEntity
  8
0
  6
Continuous
 62
     7
370
    25
100
AcDbLine
 10
97.1544215332
 20
140.2296441403
 30
0.0
 11
97.1544215332
 21
141.9868290446
 31
0.0
  0
ELLIPSE
  5
251
330
1F
100
AcDbEntity
  8
0
  6
Continuous
 62
     7
370
    25
100
AcDbEllipse
 10
131.4363875445
 20
142.0839853558
 30
0.0
 11
0.9988086229566022
 21
0.0610396441386456
 31
0.0
210
0.0
220
0.0
230
1.0
 40
0.7994627403
 41
0.8784769082856451
 42
1.52720625440982
  0
LINE
  5
252
330
1F
100
AcDbEntity
  8
0
  6
Continuous
 62
     7
370
    25
100
AcDbLine
 10
132.0363875445
 20
142.737615742
 30
0.0
 11
132.0363875445
 21
139.4788574428
 31
0.0
  0
ELLIPSE
  5
253
330
1F
100
AcDbEntity
  8
0
  6
Continuous
 62
     7
370
    25
100
AcDbEllipse
 10
131.4363875445
 20
140.132487829
 30
0.0
 11
0.9988086229566022
 21
-0.06103964413861718
 31
0.0
210
0.0
220
0.0
230
1.0
 40
0.7994627403
 41
4.755979052769757
 42
5.404708398893947
  0
LINE
  5
254
330
1F
100
AcDbEntity
  8
0
  6
Continuous
 62
     7
370
    25
100
AcDbLine
 10
97.1361039485
 20
139.5301238031
 30
0.0
 11
131.4128417463
 21
138.6325558355
 31
0.0
  0
SPLINE
  5
255
330
1F
100
AcDbEntity
  8
0
  6
Continuous
 62
     7
370
    25
100
AcDbSpline
210
0.0
220
0.0
230
1.0
 70
    24
 71
     3
 72
    11
 73
     7
 74
     0
 42
0.00000001
 43
0.00000001
 40
0.0
 40
0.0
 40
0.0
 40
0.0
 40
0.249999999999998
 40
0.4999999999999973
 40
0.7500000000000001
 40
1.0
 40
1.0
 40
1.0
 40
1.0
 10
97.13610394854564
 20
139.5301238031003
 30
0.0
 10
97.13643180980144
 20
139.5426443193229
 30
0.0
 10
97.13708753231306
 20
139.5676853517681
 30
0.0
 10
97.14134650145232
 20
139.7303288213906
 30
0.0
 10
97.14733835711414
 20
139.9591485574451
 30
0.0
 10
97.15206047452517
 20
140.1394789459913
 30
0.0
 10
97.15442153323066
 20
140.2296441402644
 30
0.0
  0
SPLINE
  5
256
330
1F
100
AcDbEntity
  8
0
  6
Continuous
 62
     7
370
    25
100
AcDbSpline
210
0.0
220
0.0
230
1.0
 70
    24
 71
     3
 72
    11
 73
     7
 74
     0
 42
0.00000001
 43
0.00000001
 40
0.0
 40
0.0
 40
0.0
 40
0.0
 40
0.2500000000000001
 40
0.4999999999999993
 40
0.7500000000000028
 40
1.0
 40
1.0
 40
1.0
 40
1.0
 10
131.4311593309683
 20
139.3320761726453
 30
0.0
 10
131.4287982722628
 20
139.2419109783722
 30
0.0
 10
131.4240761548518
 20
139.061580589826
 30
0.0
 10
131.41808429919
 20
138.8327608537715
 30
0.0
 10
131.4138253300507
 20
138.6701173841489
 30
0.0
 10
131.4131696075391
 20
138.6450763517038
 30
0.0
 10
131.4128417462833
 20
138.6325558354812
 30
0.0
  0
LINE
  5
257
330
1F
100
AcDbEntity
  8
0
  6
Continuous
 62
     7
370
    25
100
AcDbLine
 10
133.2363875445
 20
140.0958203578
 30
0.0
 11
133.2363875445
 21
142.120652827
 31
0.0
  0
SPLINE
  5
258
330
1F
100
AcDbEntity
  8
0
  6
Continuous
 62
     7
370
    25
100
AcDbSpline
210
0.0
220
0.0
230
1.0
 70
     8
 71
     3
 72
    11
 73
     7
 74
     0
 42
0.00000001
 43
0.00000001
 40
0.0
 40
0.0
 40
0.0
 40
0.0
 40
0.2561894651307308
 40
0.5096044939206931
 40
0.7692742066553655
 40
1.0
 40
1.0
 40
1.0
 40
1.0
 10
133.2363875444808
 20
140.0958203577804
 30
0.0
 10
133.1607914121869
 20
140.036308317132
 30
0.0
 10
133.0104178255122
 20
139.9179287290356
 30
0.0
 10
132.711205039557
 20
139.7472911869002
 30
0.0
 10
132.3836853046702
 20
139.5956672759995
 30
0.0
 10
132.1475069238564
 20
139.5162312403283
 30
0.0
 10
132.0363875444808
 20
139.4788574428053
 30
0.0
  0
SPLINE
  5
259
330
1F
100
AcDbEntity
  8
0
  6
Continuous
 62
     7
370
    25
100
AcDbSpline
210
0.0
220
0.0
230
1.0
 70
     8
 71
     3
 72
    11
 73
     7
 74
     0
 42
0.00000001
 43
0.00000001
 40
0.0
 40
0.0
 40
0.0
 40
0.0
 40
0.2307374805224084
 40
0.4903955403005853
 40
0.743810552073066
 40
1.0
 40
1.0
 40
1.0
 40
1.0
 10
132.0363875444808
 20
142.7376157420223
 30
0.0
 10
132.1475127782372
 20
142.7002405511093
 30
0.0
 10
132.3836916553127
 20
142.6208055720147
 30
0.0
 10
132.7112092962638
 20
142.469178892251
 30
0.0
 10
133.0104178929263
 20
142.2985445873026
 30
0.0
 10
133.1607914347397
 20
142.1801649116913
 30
0.0
 10
133.2363875444808
 20
142.1206528270473
 30
0.0
  0
ELLIPSE
  5
25A
330
1F
100
AcDbEntity
  8
0
  6
Continuous
 62
     7
370
    25
100
AcDbEllipse
 10
97.1544215332
 20
142.0077849629
 30
0.0
 11
1.49999997144873
 21
0.02095282558968847
 31
0.0
210
0.0
220
0.0
230
0.9999999999999998
 40
0.0139678873
 41
3.842044658396976
 42
4.712193869245414
  0
ELLIPSE
  5
25B
330
1F
100
AcDbEntity
  8
0
  6
Continuous
 62
     7
370
    25
100
AcDbEllipse
 10
97.1544215332
 20
140.2086882219
 30
0.0
 11
1.49999997144873
 21
-0.02095282558966005
 31
0.0
210
0.0
220
0.0
230
1.0
 40
0.0139678873
 41
1.570991437934171
 42
2.441140648780724
  0
SPLINE
  5
25C
330
1F
100
AcDbEntity
  8
0
  6
Continuous
 62
     7
370
    25
100
AcDbSpline
210
0.0
220
0.0
230
1.0
 70
     8
 71
     3
 72
     9
 73
     5
 74
     0
 42
0.00000001
 43
0.00000001
 40
0.0
 40
0.0
 40
0.0
 40
0.0
 40
0.5600029565045499
 40
1.0
 40
1.0
 40
1.0
 40
1.0
 10
96.00778381778214
 20
140.2382125057899
 30
0.0
 10
95.99963605842902
 20
140.2382068677236
 30
0.0
 10
95.98508656496927
 20
140.2381967998014
 30
0.0
 10
95.9711419220287
 20
140.2383189764049
 30
0.0
 10
95.96500632036228
 20
140.2383727337491
 30
0.0
  0
ELLIPSE
  5
25D
330
1F
100
AcDbEntity
  8
0
  6
Continuous
 62
     7
370
    25
100
AcDbEllipse
 10
97.1544215332
 20
140.1910990599
 30
0.0
 11
1.499999872704151
 21
-0.04307925670957503
 31
0.0
210
0.0
220
0.0
230
1.0
 40
0.0143449667
 41
2.486833182543494
 42
2.678357024934869
  0
LINE
  5
25E
330
1F
100
AcDbEntity
  8
0
  6
Continuous
 62
     7
370
    25
100
AcDbLine
 10
95.8127807467
 20
141.9772199669
 30
0.0
 11
95.8127807467
 21
140.2392532179
 31
0.0
  0
ELLIPSE
  5
25F
330
1F
100
AcDbEntity
  8
0
  6
Continuous
 62
     7
370
    25
100
AcDbEllipse
 10
97.1544215332
 20
142.0253741249
 30
0.0
 11
1.499999872704151
 21
0.04307925670957503
 31
0.0
210
0.0
220
0.0
230
1.0
 40
0.0143449667
 41
3.604828282245489
 42
3.796352124636696
  0
SPLINE
  5
260
330
1F
100
AcDbEntity
  8
0
  6
Continuous
 62
     7
370
    25
100
AcDbSpline
210
0.0
220
0.0
230
1.0
 70
     8
 71
     3
 72
     9
 73
     5
 74
     0
 42
0.00000001
 43
0.00000001
 40
0.0
 40
0.0
 40
0.0
 40
0.0
 40
0.5599925069633377
 40
1.0
 40
1.0
 40
1.0
 40
1.0
 10
95.96500632036228
 20
141.9781004510785
 30
0.0
 10
95.97282913021921
 20
141.9781661962299
 30
0.0
 10
95.98679862045282
 20
141.9782835998569
 30
0.0
 10
96.0013715983233
 20
141.9782676827042
 30
0.0
 10
96.00778381778217
 20
141.9782606790378
 30
0.0
  0
ELLIPSE
  5
261
330
1F
100
AcDbEntity
  8
0
  6
Continuous
 62
     7
370
    25
100
AcDbEllipse
 10
97.1361039485
 20
139.5091678848
 30
0.0
 11
0.7999998117959422
 21
-0.02096310677481484
 31
0.0
210
0.0
220
0.0
230
0.9999999999999999
 40
0.026176936
 41
1.571482264229189
 42
2.441631475078941
  0
SPLINE
  5
262
330
1F
100
AcDbEntity
  8
0
  6
Continuous
 62
     7
370
    25
100
AcDbSpline
210
0.0
220
0.0
230
1.0
 70
     8
 71
     3
 72
    12
 73
     8
 74
     0
 42
0.00000001
 43
0.00000001
 40
0.0
 40
0.0
 40
0.0
 40
0.0
 40
0.2198609600791294
 40
0.4397396970008149
 40
0.6583291451397768
 40
0.8791239516843601
 40
1.0
 40
1.0
 40
1.0
 40
1.0
 10
96.52456383363975
 20
139.5386921686258
 30
0.0
 10
96.46464877091087
 20
139.5493641632699
 30
0.0
 10
96.34481380102487
 20
139.5707090154415
 30
0.0
 10
96.18807881275035
 20
139.6988274107085
 30
0.0
 10
96.07151048896422
 20
139.8817653467735
 30
0.0
 10
96.01525379716998
 20
140.0733145186607
 30
0.0
 10
96.00973592595365
 20
140.1951201903457
 30
0.0
 10
96.00778381778213
 20
140.2382125057898
 30
0.0
  0
ELLIPSE
  5
263
330
1F
100
AcDbEntity
  8
0
  6
Continuous
 62
     7
370
    25
100
AcDbEllipse
 10
97.1361039485
 20
142.7073053001
 30
0.0
 11
0.7999998117959422
 21
0.02096310677475799
 31
0.0
210
0.0
220
0.0
230
1.0
 40
0.026176936
 41
3.841553832103628
 42
4.7117030429504
  0
SPLINE
  5
264
330
1F
100
AcDbEntity
  8
0
  6
Continuous
 62
     7
370
    25
100
AcDbSpline
210
0.0
220
0.0
230
1.0
 70
     8
 71
     3
 72
    12
 73
     8
 74
     0
 42
0.00000001
 43
0.00000001
 40
0.0
 40
0.0
 40
0.0
 40
0.0
 40
0.2198610998683204
 40
0.4397399767664988
 40
0.6583294271823333
 40
0.8791242261983157
 40
1.0
 40
1.0
 40
1.0
 40
1.0
 10
96.00778381778217
 20
141.9782606790378
 30
0.0
 10
96.01388676767749
 20
142.0569515887569
 30
0.0
 10
96.0260931609266
 20
142.2143397708062
 30
0.0
 10
96.11861710202498
 20
142.4236215192912
 30
0.0
 10
96.25440104944668
 20
142.5822708399556
 30
0.0
 10
96.39882891281009
 20
142.6623709026708
 30
0.0
 10
96.49170592445886
 20
142.6737539399725
 30
0.0
 10
96.52456383363977
 20
142.6777810162019
 30
0.0
  0
SPLINE
  5
265
330
1F
100
AcDbEntity
  8
0
  6
Continuous
 62
     7
370
    25
100
AcDbSpline
210
0.0
220
0.0
230
1.0
 70
     8
 71
     3
 72
    11
 73
     7
 74
     0
 42
0.00000001
 43
0.00000001
 40
0.0
 40
0.0
 40
0.0
 40
0.0
 40
0.2561894651307118
 40
0.5096044939206583
 40
0.7692742066444708
 40
1.0
 40
1.0
 40
1.0
 40
1.0
 10
133.2363875444808
 20
142.1206528270473
 30
0.0
 10
133.192022553864
 20
142.2341603623685
 30
0.0
 10
133.1037730289293
 20
142.4599461887453
 30
0.0
 10
132.8939609420048
 20
142.7851485245048
 30
0.0
 10
132.6464530725132
 20
143.075104882434
 30
0.0
 10
132.451703241775
 20
143.2261667036124
 30
0.0
 10
132.3600755481158
 20
143.2972396602465
 30
0.0
  0
SPLINE
  5
266
330
1F
100
AcDbEntity
  8
0
  6
Continuous
 62
     7
370
    25
100
AcDbSpline
210
0.0
220
0.0
230
1.0
 70
    24
 71
     3
 72
    10
 73
     6
 74
     0
 42
0.00000001
 43
0.00000001
 40
0.0
 40
0.0
 40
0.0
 40
0.0
 40
0.2808335173386657
 40
0.5616510917414113
 40
1.0
 40
1.0
 40
1.0
 40
1.0
 10
132.3600755481158
 20
143.2972396602465
 30
0.0
 10
132.3418674284709
 20
143.2657596574515
 30
0.0
 10
132.3054522228573
 20
143.2028014389832
 30
0.0
 10
132.195669138057
 20
143.0129975556734
 30
0.0
 10
132.0967071853231
 20
142.841902318525
 30
0.0
 10
132.0363875444808
 20
142.7376157420223
 30
0.0
  0
ELLIPSE
  5
267
330
1F
100
AcDbEntity
  8
0
  6
Continuous
 62
     7
370
    25
100
AcDbEllipse
 10
131.4363875445
 20
142.0839853558
 30
0.0
 11
1.557390436637235
 21
0.09517594847736177
 31
0.0
210
0.0
220
0.0
230
1.0
 40
0.9613560848
 41
0.878476908285601
 42
1.52720625440984
  0
SPLINE
  5
268
330
1F
100
AcDbEntity
  8
0
  6
Continuous
 62
     7
370
    25
100
AcDbSpline
210
0.0
220
0.0
230
1.0
 70
     8
 71
     3
 72
    11
 73
     7
 74
     0
 42
0.00000001
 43
0.00000001
 40
0.0
 40
0.0
 40
0.0
 40
0.0
 40
0.2307374805226519
 40
0.4903955403005864
 40
0.7438105520730666
 40
0.9999999999999999
 40
0.9999999999999999
 40
0.9999999999999999
 40
0.9999999999999999
 10
132.3600755481158
 20
138.9192335245812
 30
0.0
 10
132.4517075528753
 20
138.9903105427713
 30
0.0
 10
132.646456695412
 20
139.1413733551906
 30
0.0
 10
132.8939642626499
 20
139.4313293843461
 30
0.0
 10
133.103772992044
 20
139.7565270448948
 30
0.0
 10
133.1920225415244
 20
139.9823128387889
 30
0.0
 10
133.2363875444808
 20
140.0958203577804
 30
0.0
  0
SPLINE
  5
269
330
1F
100
AcDbEntity
  8
0
  6
Continuous
 62
     7
370
    25
100
AcDbSpline
210
0.0
220
0.0
230
1.0
 70
    24
 71
     3
 72
    10
 73
     6
 74
     0
 42
0.00000001
 43
0.00000001
 40
0.0
 40
0.0
 40
0.0
 40
0.0
 40
0.2808335173386727
 40
0.561651091741416
 40
1.0
 40
1.0
 40
1.0
 40
1.0
 10
132.0363875444808
 20
139.4788574428053
 30
0.0
 10
132.0747379934432
 20
139.412553383733
 30
0.0
 10
132.1514367142107
 20
139.2799490296739
 30
0.0
 10
132.2765910642527
 20
139.0635697787695
 30
0.0
 10
132.328460130606
 20
138.9738933934191
 30
0.0
 10
132.3600755481158
 20
138.9192335245811
 30
0.0
  0
ELLIPSE
  5
26A
330
1F
100
AcDbEntity
  8
0
  6
Continuous
 62
     7
370
    25
100
AcDbEllipse
 10
131.4363875445
 20
140.132487829
 30
0.0
 11
1.557390436637235
 21
-0.09517594847733335
 31
0.0
210
0.0
220
0.0
230
1.0
 40
0.9613560848
 41
4.755979052769741
 42
5.404708398893998
  0
LINE
  5
26B
330
1F
100
AcDbEntity
  8
0
  6
Continuous
 62
     7
370
    25
100
AcDbLine
 10
133.5364009998
 20
143.7136932625
 30
0.0
 11
131.4128417463
 21
143.5839173493
 31
0.0
  0
SPLINE
  5
26C
330
1F
100
AcDbEntity
  8
0
  6
Continuous
 62
     7
370
    25
100
AcDbSpline
210
0.0
220
0.0
230
1.0
 70
     8
 71
     3
 72
    13
 73
     9
 74
     0
 42
0.00000001
 43
0.00000001
 40
0.0
 40
0.0
 40
0.0
 40
0.0
 40
0.1035746466401555
 40
0.2111076158583394
 40
0.3219769626223818
 40
0.4454462032504118
 40
0.711304972801038
 40
1.0
 40
1.0
 40
1.0
 40
1.0
 10
135.6363875444808
 20
142.267322712114
 30
0.0
 10
135.6291313797203
 20
142.3656654905628
 30
0.0
 10
135.6143417406288
 20
142.5661094232111
 30
0.0
 10
135.4880691310669
 20
142.8490514734411
 30
0.0
 10
135.2915217429361
 20
143.1073096984601
 30
0.0
 10
134.9276700698488
 20
143.4104050482151
 30
0.0
 10
134.3300826831135
 20
143.6759347144986
 30
0.0
 10
133.8081261995538
 20
143.7007662299134
 30
0.0
 10
133.5364009997604
 20
143.7136932625297
 30
0.0
  0
LINE
  5
26D
330
1F
100
AcDbEntity
  8
0
  6
Continuous
 62
     7
370
    25
100
AcDbLine
 10
133.2363875445
 20
142.120652827
 30
0.0
 11
135.6363875445
 21
142.2673227121
 31
0.0
  0
LINE
  5
26E
330
1F
100
AcDbEntity
  8
0
  6
Continuous
 62
     7
370
    25
100
AcDbLine
 10
135.6363875445
 20
139.9491504727
 30
0.0
 11
133.2363875445
 21
140.0958203578
 31
0.0
  0
SPLINE
  5
26F
330
1F
100
AcDbEntity
  8
0
  6
Continuous
 62
     7
370
    25
100
AcDbSpline
210
0.0
220
0.0
230
1.0
 70
     8
 71
     3
 72
    13
 73
     9
 74
     0
 42
0.00000001
 43
0.00000001
 40
0.0
 40
0.0
 40
0.0
 40
0.0
 40
0.2886949682914849
 40
0.5545536835943152
 40
0.6780091910936107
 40
0.7888922083801198
 40
0.896419407140649
 40
1.0
 40
1.0
 40
1.0
 40
1.0
 10
133.5364009997604
 20
138.5027799222979
 30
0.0
 10
133.8081261903366
 20
138.5157069277807
 30
0.0
 10
134.3300826561911
 20
138.5405383910747
 30
0.0
 10
134.9276580642943
 20
138.8060629925072
 30
0.0
 10
135.2915122444738
 20
139.1091539891115
 30
0.0
 10
135.4880597360395
 20
139.3674057432321
 30
0.0
 10
135.6143430251457
 20
139.6503571094003
 30
0.0
 10
135.6291315271168
 20
139.8508017720914
 30
0.0
 10
135.6363875444808
 20
139.9491504727137
 30
0.0
  0
LINE
  5
270
330
1F
100
AcDbEntity
  8
0
  6
Continuous
 62
     7
370
    25
100
AcDbLine
 10
131.4128417463
 20
138.6325558355
 30
0.0
 11
133.5364009998
 21
138.5027799223
 31
0.0
  0
SPLINE
  5
271
330
1F
100
AcDbEntity
  8
0
  6
Continuous
 62
     7
370
    25
100
AcDbSpline
210
0.0
220
0.0
230
1.0
 70
     8
 71
     3
 72
    12
 73
     8
 74
     0
 42
0.00000001
 43
0.00000001
 40
0.0
 40
0.0
 40
0.0
 40
0.0
 40
0.2225634137434379
 40
0.4462063173695244
 40
0.6680851268156931
 40
0.8917990985568365
 40
1.0
 40
1.0
 40
1.0
 40
1.0
 10
96.48244825060728
 20
142.6768357803298
 30
0.0
 10
96.42075168497239
 20
142.6644826727631
 30
0.0
 10
96.297059309468
 20
142.6397165418761
 30
0.0
 10
96.13789296767447
 20
142.5071326138782
 30
0.0
 10
96.0218110796576
 20
142.3207752103836
 30
0.0
 10
95.97009602892966
 20
142.1326843990304
 30
0.0
 10
95.96625760715277
 20
142.0161043661419
 30
0.0
 10
95.96500632036228
 20
141.9781004510785
 30
0.0
  0
SPLINE
  5
272
330
1F
100
AcDbEntity
  8
0
  6
Continuous
 62
     7
370
    25
100
AcDbSpline
210
0.0
220
0.0
230
1.0
 70
     8
 71
     3
 72
    12
 73
     8
 74
     0
 42
0.00000001
 43
0.00000001
 40
0.0
 40
0.0
 40
0.0
 40
0.0
 40
0.2225634137435272
 40
0.4462063173695678
 40
0.6680851268158017
 40
0.8917990985569293
 40
1.0
 40
1.0
 40
1.0
 40
1.0
 10
95.96500632036228
 20
140.2383727337491
 30
0.0
 10
95.97059288646479
 20
140.1598690737066
 30
0.0
 10
95.98179311495433
 20
140.0024809906499
 30
0.0
 10
96.07584389264143
 20
139.7931294530225
 30
0.0
 10
96.21533495603943
 20
139.6343701585524
 30
0.0
 10
96.36055905587584
 20
139.5565212882358
 30
0.0
 10
96.45248222460586
 20
139.5437882474024
 30
0.0
 10
96.48244825060726
 20
139.5396374044978
 30
0.0
  0
ELLIPSE
  5
273
330
1F
100
AcDbEntity
  8
0
  6
Continuous
 62
     7
370
    25
100
AcDbEllipse
 10
97.1168030308
 20
139.4923637306
 30
0.0
 11
0.7999991634988818
 21
-0.04310148564323413
 31
0.0
210
0.0
220
0.0
230
1.0
 40
0.0268411366
 41
2.487867318781978
 42
2.679391161174582
  0
SPLINE
  5
274
330
1F
100
AcDbEntity
  8
0
  6
Continuous
 62
     7
370
    25
100
AcDbSpline
210
0.0
220
0.0
230
1.0
 70
     8
 71
     3
 72
    11
 73
     7
 74
     0
 42
0.00000001
 43
0.00000001
 40
0.0
 40
0.0
 40
0.0
 40
0.0
 40
0.249999999999999
 40
0.4999999999999981
 40
0.7499999999999997
 40
1.0
 40
1.0
 40
1.0
 40
1.0
 10
96.40126127800382
 20
139.5405178886438
 30
0.0
 10
96.32302616967155
 20
139.5555171938104
 30
0.0
 10
96.16655595300702
 20
139.5855158041435
 30
0.0
 10
95.97322980159056
 20
139.7490355069402
 30
0.0
 10
95.83885336931155
 20
139.9746151210225
 30
0.0
 10
95.82147162092437
 20
140.1510405189376
 30
0.0
 10
95.8127807467308
 20
140.2392532178951
 30
0.0
  0
SPLINE
  5
275
330
1F
100
AcDbEntity
  8
0
  6
Continuous
 62
     7
370
    25
100
AcDbSpline
210
0.0
220
0.0
230
1.0
 70
     8
 71
     3
 72
    11
 73
     7
 74
     0
 42
0.00000001
 43
0.00000001
 40
0.0
 40
0.0
 40
0.0
 40
0.0
 40
0.249999999999999
 40
0.4999999999999999
 40
0.7499999999999989
 40
1.0
 40
1.0
 40
1.0
 40
1.0
 10
96.40126127800384
 20
142.6759552961838
 30
0.0
 10
96.32302616967159
 20
142.6609559910173
 30
0.0
 10
96.16655595300706
 20
142.6309573806841
 30
0.0
 10
95.97322980159058
 20
142.4674376778874
 30
0.0
 10
95.83885336931158
 20
142.2418580638051
 30
0.0
 10
95.82147162092437
 20
142.06543266589
 30
0.0
 10
95.8127807467308
 20
141.9772199669325
 30
0.0
  0
ELLIPSE
  5
276
330
1F
100
AcDbEntity
  8
0
  6
Continuous
 62
     7
370
    25
100
AcDbEllipse
 10
97.1168030308
 20
142.7241094542
 30
0.0
 11
0.7999991634988818
 21
0.04310148564320571
 31
0.0
210
0.0
220
0.0
230
0.9999999999999999
 40
0.0268411366
 41
3.603794146007214
 42
3.795317988398133
  0
LINE
  5
277
330
1F
100
AcDbEntity
  8
0
  6
Continuous
 62
     7
370
    25
100
AcDbLine
 10
135.6363875445
 20
142.2673227121
 30
0.0
 11
135.6363875445
 21
139.9491504727
 31
0.0
  0
LINE
  5
278
330
1F
100
AcDbEntity
  8
0
  6
Continuous
 62
     7
370
    25
100
AcDbLine
 10
96.3021189225
 20
142.8944772548
 30
0.0
 11
117.9296670912
 21
143.4608145349
 31
0.0
  0
SPLINE
  5
279
330
1F
100
AcDbEntity
  8
0
  6
Continuous
 62
     7
370
    25
100
AcDbSpline
210
0.0
220
0.0
230
1.0
 70
     8
 71
     3
 72
     9
 73
     5
 74
     0
 42
0.00000001
 43
0.00000001
 40
0.0
 40
0.0
 40
0.0
 40
0.0
 40
0.5600012771711201
 40
0.9999999999999999
 40
0.9999999999999999
 40
0.9999999999999999
 40
0.9999999999999999
 10
117.9296670911996
 20
143.460814534911
 30
0.0
 10
118.4070972277246
 20
143.4489801225659
 30
0.0
 10
119.2596490985646
 20
143.4278472915751
 30
0.0
 10
120.116538303208
 20
143.4068865621627
 30
0.0
 10
120.493568458857
 20
143.3976638679916
 30
0.0
  0
SPLINE
  5
27A
330
1F
100
AcDbEntity
  8
0
  6
Continuous
 62
     7
370
    25
100
AcDbSpline
210
0.0
220
0.0
230
1.0
 70
     8
 71
     3
 72
     9
 73
     5
 74
     0
 42
0.00000001
 43
0.00000001
 40
0.0
 40
0.0
 40
0.0
 40
0.0
 40
0.5599999095970982
 40
1.0
 40
1.0
 40
1.0
 40
1.0
 10
120.493568458857
 20
143.3976638679916
 30
0.0
 10
120.5876979495195
 20
143.3953664580944
 30
0.0
 10
120.7557863528377
 20
143.3912639397585
 30
0.0
 10
120.9240288725334
 20
143.3871675465655
 30
0.0
 10
120.9980555964091
 20
143.3853651331902
 30
0.0
  0
LINE
  5
27B
330
1F
100
AcDbEntity
  8
0
  6
Continuous
 62
     7
370
    25
100
AcDbLine
 10
120.9980555964
 20
143.3853651332
 30
0.0
 11
133.5364009998
 21
143.7136932625
 31
0.0
  0
LINE
  5
27C
330
1F
100
AcDbEntity
  8
0
  6
Continuous
 62
     7
370
    25
100
AcDbLine
 10
96.5245638336
 20
142.6777810162
 30
0.0
 11
96.3021189225
 21
142.8944772548
 31
0.0
  0
LINE
  5
27D
330
1F
100
AcDbEntity
  8
0
  6
Continuous
 62
     7
370
    25
100
AcDbLine
 10
133.5364009998
 20
138.5027799223
 30
0.0
 11
120.9980555964
 21
138.8311080516
 31
0.0
  0
SPLINE
  5
27E
330
1F
100
AcDbEntity
  8
0
  6
Continuous
 62
     7
370
    25
100
AcDbSpline
210
0.0
220
0.0
230
1.0
 70
     8
 71
     3
 72
     9
 73
     5
 74
     0
 42
0.00000001
 43
0.00000001
 40
0.0
 40
0.0
 40
0.0
 40
0.0
 40
0.5600000882143262
 40
1.0
 40
1.0
 40
1.0
 40
1.0
 10
120.9980555964091
 20
138.8311080516374
 30
0.0
 10
120.9038431808775
 20
138.8288139354964
 30
0.0
 10
120.7356067510724
 20
138.8247173001755
 30
0.0
 10
120.5675245934039
 20
138.8206145337162
 30
0.0
 10
120.493568458857
 20
138.818809316836
 30
0.0
  0
SPLINE
  5
27F
330
1F
100
AcDbEntity
  8
0
  6
Continuous
 62
     7
370
    25
100
AcDbSpline
210
0.0
220
0.0
230
1.0
 70
     8
 71
     3
 72
     9
 73
     5
 74
     0
 42
0.00000001
 43
0.00000001
 40
0.0
 40
0.0
 40
0.0
 40
0.0
 40
0.5599987526606143
 40
1.0
 40
1.0
 40
1.0
 40
1.0
 10
120.493568458857
 20
138.818809316836
 30
0.0
 10
120.0138022009698
 20
138.8070677303136
 30
0.0
 10
119.1570748321896
 20
138.7861005648216
 30
0.0
 10
118.3047090837169
 20
138.7649603644494
 30
0.0
 10
117.9296670911996
 20
138.7556586499167
 30
0.0
  0
LINE
  5
280
330
1F
100
AcDbEntity
  8
0
  6
Continuous
 62
     7
370
    25
100
AcDbLine
 10
117.9296670912
 20
138.7556586499
 30
0.0
 11
96.3021189225
 21
139.32199593
 31
0.0
  0
LINE
  5
281
330
1F
100
AcDbEntity
  8
0
  6
Continuous
 62
     7
370
    25
100
AcDbLine
 10
96.3021189225
 20
139.32199593
 30
0.0
 11
96.5245638336
 21
139.5386921686
 31
0.0
  0
LINE
  5
282
330
1F
100
AcDbEntity
  8
0
  6
Continuous
 62
     7
370
    25
100
AcDbLine
 10
91.2338306036
 20
141.9772199669
 30
0.0
 11
95.8127807467
 21
141.9772199669
 31
0.0
  0
SPLINE
  5
283
330
1F
100
AcDbEntity
  8
0
  6
Continuous
 62
     7
370
    25
100
AcDbSpline
210
0.0
220
0.0
230
1.0
 70
     8
 71
     3
 72
    13
 73
     9
 74
     0
 42
0.00000001
 43
0.00000001
 40
0.0
 40
0.0
 40
0.0
 40
0.0
 40
0.1143463544469913
 40
0.2890454840074683
 40
0.5294852105593205
 40
0.7014879056604271
 40
0.9335094878266192
 40
1.0
 40
1.0
 40
1.0
 40
1.0
 10
91.99579145379924
 20
142.6759552961838
 30
0.0
 10
91.95459025309027
 20
142.6711207046787
 30
0.0
 10
91.85044158076745
 20
142.6588997917487
 30
0.0
 10
91.6630820863876
 20
142.5862516967076
 30
0.0
 10
91.48105435637882
 20
142.4557394303008
 30
0.0
 10
91.32877077516446
 20
142.2688718311312
 30
0.0
 10
91.25626749828444
 20
142.1074984263746
 30
0.0
 10
91.23791780896576
 20
142.0009520755227
 30
0.0
 10
91.23383060357556
 20
141.9772199669325
 30
0.0
  0
LINE
  5
284
330
1F
100
AcDbEntity
  8
0
  6
Continuous
 62
     7
370
    25
100
AcDbLine
 10
96.401261278
 20
142.6759552962
 30
0.0
 11
91.9957914538
 21
142.6759552962
 31
0.0
  0
LINE
  5
285
330
1F
100
AcDbEntity
  8
0
  6
Continuous
 62
     7
370
    25
100
AcDbLine
 10
91.9957914538
 20
139.5405178886
 30
0.0
 11
96.401261278
 21
139.5405178886
 31
0.0
  0
SPLINE
  5
286
330
1F
100
AcDbEntity
  8
0
  6
Continuous
 62
     7
370
    25
100
AcDbSpline
210
0.0
220
0.0
230
1.0
 70
     8
 71
     3
 72
    12
 73
     8
 74
     0
 42
0.00000001
 43
0.00000001
 40
0.0
 40
0.0
 40
0.0
 40
0.0
 40
0.139683458618249
 40
0.3831896274038307
 40
0.5513169293013304
 40
0.8194729461607057
 40
1.0
 40
1.0
 40
1.0
 40
1.0
 10
91.23383060357556
 20
140.2392532178951
 30
0.0
 10
91.24407198432185
 20
140.1895382974166
 30
0.0
 10
91.27216687051015
 20
140.0531567813588
 30
0.0
 10
91.37931723186496
 20
139.8732406721467
 30
0.0
 10
91.55965431927791
 20
139.6948992437618
 30
0.0
 10
91.76811046384688
 20
139.5743790192103
 30
0.0
 10
91.93046736455085
 20
139.5502330059035
 30
0.0
 10
91.99579145379924
 20
139.5405178886438
 30
0.0
  0
LINE
  5
287
330
1F
100
AcDbEntity
  8
0
  6
Continuous
 62
     7
370
    25
100
AcDbLine
 10
95.8127807467
 20
140.2392532179
 30
0.0
 11
91.2338306036
 21
140.2392532179
 31
0.0
  0
ELLIPSE
  5
288
330
1F
100
AcDbEntity
  8
0
  6
Continuous
 62
     7
370
    25
100
AcDbEllipse
 10
91.589173949
 20
141.2827751475
 30
0.0
 11
0.008721666502694349
 21
1.000418978703749
 31
0.0
210
0.0
220
0.0
230
0.9999999999999999
 40
0.499714557
 41
0.8079180407726699
 42
1.588240544501515
  0
ELLIPSE
  5
289
330
1F
100
AcDbEntity
  8
0
  6
Continuous
 62
     7
370
    25
100
AcDbEllipse
 10
91.589173949
 20
140.9336980373
 30
0.0
 11
-0.008721666502665927
 21
1.000418978703749
 31
0.0
210
0.0
220
0.0
230
1.0
 40
0.499714557
 41
1.553352109088264
 42
2.333674612817138
  0
LINE
  5
28A
330
1F
100
AcDbEntity
  8
0
  6
Continuous
 62
     7
370
    25
100
AcDbLine
 10
91.089173949
 20
141.2696821867
 30
0.0
 11
91.089173949
 21
140.9467909981
 31
0.0
  0
LINE
  5
28B
330
1F
100
AcDbEntity
  8
0
  6
Continuous
 62
     7
370
    25
100
AcDbLine
 10
96.3032467797
 20
142.8514061245
 30
0.0
 11
96.3021189225
 21
142.8944772548
 31
0.0
  0
LINE
  5
28C
330
1F
100
AcDbEntity
  8
0
  6
Continuous
 62
     7
370
    25
100
AcDbLine
 10
96.3032467797
 20
139.3650670603
 30
0.0
 11
96.3021189225
 21
139.32199593
 31
0.0
  0
ELLIPSE
  5
28D
330
1F
100
AcDbEntity
  8
0
  6
Continuous
 62
     7
370
    25
100
AcDbEllipse
 10
60.085380345
 20
140.9459088678
 30
0.0
 11
36.1891584525919
 21
1.947628334984216
 31
0.0
210
0.0
220
0.0
230
1.0
 40
0.0007414247
 41
0.028288557663739
 42
0.4911607830431761
  0
LINE
  5
28E
330
1F
100
AcDbEntity
  8
0
  6
Continuous
 62
     7
370
    25
100
AcDbLine
 10
96.2600188682
 20
142.8935168915
 30
0.0
 11
96.4824482506
 21
142.6768357803
 31
0.0
  0
LINE
  5
28F
330
1F
100
AcDbEntity
  8
0
  6
Continuous
 62
     7
370
    25
100
AcDbLine
 10
96.4824482506
 20
139.5396374045
 30
0.0
 11
96.2600188682
 21
139.3229562933
 31
0.0
  0
ELLIPSE
  5
290
330
1F
100
AcDbEntity
  8
0
  6
Continuous
 62
     7
370
    25
100
AcDbEllipse
 10
60.085380345
 20
141.270564317
 30
0.0
 11
36.18915845257651
 21
-1.947628334983364
 31
0.0
210
0.0
220
0.0
230
1.0
 40
0.0007414247
 41
5.792024524150264
 42
6.25489674954801
  0
LINE
  5
291
330
1F
100
AcDbEntity
  8
0
  6
Continuous
 62
     7
370
    25
100
AcDbLine
 10
124.1042631224
 20
143.9731850046
 30
0.0
 11
124.7549165885
 21
144.2072801384
 31
0.0
  0
SPLINE
  5
292
330
1F
100
AcDbEntity
  8
0
  6
Continuous
 62
     7
370
    25
100
AcDbSpline
210
0.0
220
0.0
230
1.0
 70
     8
 71
     3
 72
    10
 73
     6
 74
     0
 42
0.00000001
 43
0.00000001
 40
0.0
 40
0.0
 40
0.0
 40
0.0
 40
0.2383396858856105
 40
0.5716506333689656
 40
1.0
 40
1.0
 40
1.0
 40
1.0
 10
124.1063632823979
 20
143.9667590344686
 30
0.0
 10
123.8620970272979
 20
143.8921608320416
 30
0.0
 10
123.2762316942974
 20
143.7132392667678
 30
0.0
 10
122.2396768932919
 20
143.4768951545128
 30
0.0
 10
121.4449827976923
 20
143.4183117783273
 30
0.0
 10
120.9980555964093
 20
143.3853651331902
 30
0.0
  0
SPLINE
  5
293
330
1F
100
AcDbEntity
  8
0
  6
Continuous
 62
     7
370
    25
100
AcDbSpline
210
0.0
220
0.0
230
1.0
 70
     8
 71
     3
 72
    11
 73
     7
 74
     0
 42
0.00000001
 43
0.00000001
 40
0.0
 40
0.0
 40
0.0
 40
0.0
 40
0.250667172502349
 40
0.5010414677145716
 40
0.7508849997170931
 40
1.0
 40
1.0
 40
1.0
 40
1.0
 10
117.9296670911996
 20
143.460814534911
 30
0.0
 10
118.4053551037602
 20
143.4876891015661
 30
0.0
 10
119.3561753392474
 20
143.5414068348723
 30
0.0
 10
120.7568479564596
 20
143.8268722985262
 30
0.0
 10
122.1204137177114
 20
144.2484004451459
 30
0.0
 10
122.9730812642673
 20
144.6647575228428
 30
0.0
 10
123.3987925455807
 20
144.8726320992193
 30
0.0
  0
SPLINE
  5
294
330
1F
100
AcDbEntity
  8
0
  6
Continuous
 62
     7
370
    25
100
AcDbSpline
210
0.0
220
0.0
230
1.0
 70
     8
 71
     3
 72
     9
 73
     5
 74
     0
 42
0.00000001
 43
0.00000001
 40
0.0
 40
0.0
 40
0.0
 40
0.0
 40
0.501325902198991
 40
1.0
 40
1.0
 40
1.0
 40
1.0
 10
123.3987925161389
 20
144.8726321525835
 30
0.0
 10
123.622868216973
 20
144.9976748100536
 30
0.0
 10
124.0698343518788
 20
145.2470987016212
 30
0.0
 10
124.4838796315743
 20
145.5488668100424
 30
0.0
 10
124.6903532878752
 20
145.6993507492545
 30
0.0
  0
LINE
  5
295
330
1F
100
AcDbEntity
  8
0
  6
Continuous
 62
     7
370
    25
100
AcDbLine
 10
126.7561337479
 20
145.8141171886
 30
0.0
 11
124.690180013
 21
145.6993419811
 31
0.0
  0
SPLINE
  5
296
330
1F
100
AcDbEntity
  8
0
  6
Continuous
 62
     7
370
    25
100
AcDbSpline
210
0.0
220
0.0
230
1.0
 70
     8
 71
     3
 72
    14
 73
    10
 74
     0
 42
0.00000001
 43
0.00000001
 40
0.0
 40
0.0
 40
0.0
 40
0.0
 40
0.0829413618596713
 40
0.1664594845668897
 40
0.2437726390188676
 40
0.3161479456895738
 40
0.4353725718192332
 40
0.6486290670514198
 40
0.9999999999999999
 40
0.9999999999999999
 40
0.9999999999999999
 40
0.9999999999999999
 10
126.7561337350345
 20
145.8141171837511
 30
0.0
 10
126.8019330363094
 20
145.8123019941688
 30
0.0
 10
126.8938501198105
 20
145.8086589924685
 30
0.0
 10
126.9443951523468
 20
145.7269978599809
 30
0.0
 10
126.9034902559065
 20
145.5937143796961
 30
0.0
 10
126.7678892098021
 20
145.4053879234585
 30
0.0
 10
126.4509809390573
 20
145.1071208437962
 30
0.0
 10
125.7739923288241
 20
144.6490936850108
 30
0.0
 10
125.1458255126107
 20
144.376758156333
 30
0.0
 10
124.7549136488859
 20
144.2072821726832
 30
0.0
  0
LINE
  5
297
330
1F
100
AcDbEntity
  8
0
  6
Continuous
 62
     7
370
    25
100
AcDbLine
 10
124.6901800129
 20
136.5171312037
 30
0.0
 11
126.7561337478
 21
136.4023559963
 31
0.0
  0
SPLINE
  5
298
330
1F
100
AcDbEntity
  8
0
  6
Continuous
 62
     7
370
    25
100
AcDbSpline
210
0.0
220
0.0
230
1.0
 70
     8
 71
     3
 72
     9
 73
     5
 74
     0
 42
0.00000001
 43
0.00000001
 40
0.0
 40
0.0
 40
0.0
 40
0.0
 40
0.4986740982738611
 40
1.0
 40
1.0
 40
1.0
 40
1.0
 10
124.6903530866496
 20
136.5171222537379
 30
0.0
 10
124.4838794455798
 20
136.6676061900169
 30
0.0
 10
124.0698341968203
 20
136.9693742922703
 30
0.0
 10
123.6228680948754
 20
137.2187981838926
 30
0.0
 10
123.3987924107768
 20
137.3438408412721
 30
0.0
  0
SPLINE
  5
299
330
1F
100
AcDbEntity
  8
0
  6
Continuous
 62
     7
370
    25
100
AcDbSpline
210
0.0
220
0.0
230
1.0
 70
     8
 71
     3
 72
    11
 73
     7
 74
     0
 42
0.00000001
 43
0.00000001
 40
0.0
 40
0.0
 40
0.0
 40
0.0
 40
0.2491150002829084
 40
0.4989585322854289
 40
0.7493328274976518
 40
1.0
 40
1.0
 40
1.0
 40
1.0
 10
123.3987925455807
 20
137.3438410856083
 30
0.0
 10
122.9730812642673
 20
137.5517156619848
 30
0.0
 10
122.1204137177114
 20
137.9680727396818
 30
0.0
 10
120.7568479564596
 20
138.3896008863015
 30
0.0
 10
119.3561753392474
 20
138.6750663499554
 30
0.0
 10
118.4053551037602
 20
138.7287840832615
 30
0.0
 10
117.9296670911996
 20
138.7556586499167
 30
0.0
  0
SPLINE
  5
29A
330
1F
100
AcDbEntity
  8
0
  6
Continuous
 62
     7
370
    25
100
AcDbSpline
210
0.0
220
0.0
230
1.0
 70
     8
 71
     3
 72
    10
 73
     6
 74
     0
 42
0.00000001
 43
0.00000001
 40
0.0
 40
0.0
 40
0.0
 40
0.0
 40
0.4283493666310625
 40
0.761660314114417
 40
0.9999999999999999
 40
0.9999999999999999
 40
0.9999999999999999
 40
0.9999999999999999
 10
120.9980555964093
 20
138.8311080516374
 30
0.0
 10
121.4449827976924
 20
138.7981614065003
 30
0.0
 10
122.239676893292
 20
138.7395780303149
 30
0.0
 10
123.2762316942975
 20
138.5032339180599
 30
0.0
 10
123.8620970272979
 20
138.3243123527861
 30
0.0
 10
124.1063632823979
 20
138.2497141503592
 30
0.0
  0
LINE
  5
29B
330
1F
100
AcDbEntity
  8
0
  6
Continuous
 62
     7
370
    25
100
AcDbLine
 10
124.1042631223
 20
138.24328818
 30
0.0
 11
124.7549165884
 21
138.0091930462
 31
0.0
  0
SPLINE
  5
29C
330
1F
100
AcDbEntity
  8
0
  6
Continuous
 62
     7
370
    25
100
AcDbSpline
210
0.0
220
0.0
230
1.0
 70
     8
 71
     3
 72
    15
 73
    11
 74
     0
 42
0.00000001
 43
0.00000001
 40
0.0
 40
0.0
 40
0.0
 40
0.0
 40
0.2091652517822444
 40
0.4176299509274903
 40
0.5931463878153087
 40
0.6923603779431098
 40
0.7731125739307014
 40
0.8543366880968429
 40
0.9261517123972135
 40
0.9999999999999999
 40
0.9999999999999999
 40
0.9999999999999999
 40
0.9999999999999999
 10
124.7549136487953
 20
138.009191011913
 30
0.0
 10
124.9884978608907
 20
137.9114933794236
 30
0.0
 10
125.4548839465508
 20
137.7164253310043
 30
0.0
 10
126.0785340937299
 20
137.3671454776518
 30
0.0
 10
126.5383837230306
 20
137.0342552907083
 30
0.0
 10
126.8002680938004
 20
136.7726372046724
 30
0.0
 10
126.9207380743156
 20
136.5920431917586
 30
0.0
 10
126.9395313012253
 20
136.4699490284483
 30
0.0
 10
126.8784930999188
 20
136.4058990391298
 30
0.0
 10
126.7972979814074
 20
136.4035479530919
 30
0.0
 10
126.7561337349995
 20
136.4023560010784
 30
0.0
  0
SPLINE
  5
29D
330
1F
100
AcDbEntity
  8
0
  6
Continuous
 62
     7
370
    25
100
AcDbSpline
210
0.0
220
0.0
230
1.0
 70
    24
 71
     3
 72
    11
 73
     7
 74
     0
 42
0.00000001
 43
0.00000001
 40
0.0
 40
0.0
 40
0.0
 40
0.0
 40
0.2500000000000006
 40
0.5000000000000007
 40
0.7499999999999996
 40
1.0
 40
1.0
 40
1.0
 40
1.0
 10
133.5233170106997
 20
138.0031225386093
 30
0.0
 10
133.5250034812036
 20
138.0675262488043
 30
0.0
 10
133.5283764222115
 20
138.1963336691945
 30
0.0
 10
133.5326563191128
 20
138.3597763378048
 30
0.0
 10
133.5356984399265
 20
138.4759502446781
 30
0.0
 10
133.5361668131491
 20
138.4938366964246
 30
0.0
 10
133.5364009997604
 20
138.5027799222979
 30
0.0
  0
LINE
  5
29E
330
1F
100
AcDbEntity
  8
0
  6
Continuous
 62
     7
370
    25
100
AcDbLine
 10
124.1063632824
 20
138.2497141504
 30
0.0
 11
133.5233170107
 21
138.0031225386
 31
0.0
  0
LINE
  5
29F
330
1F
100
AcDbEntity
  8
0
  6
Continuous
 62
     7
370
    25
100
AcDbLine
 10
133.5233170107
 20
144.2133506462
 30
0.0
 11
124.1063632824
 21
143.9667590345
 31
0.0
  0
SPLINE
  5
2A0
330
1F
100
AcDbEntity
  8
0
  6
Continuous
 62
     7
370
    25
100
AcDbSpline
210
0.0
220
0.0
230
1.0
 70
    24
 71
     3
 72
    11
 73
     7
 74
     0
 42
0.00000001
 43
0.00000001
 40
0.0
 40
0.0
 40
0.0
 40
0.0
 40
0.2499999999999931
 40
0.5000000000000009
 40
0.7499999999999974
 40
1.0
 40
1.0
 40
1.0
 40
1.0
 10
133.5364009997604
 20
143.7136932625297
 30
0.0
 10
133.5361668131491
 20
143.722636488403
 30
0.0
 10
133.5356984399265
 20
143.7405229401495
 30
0.0
 10
133.5326563191127
 20
143.8566968470228
 30
0.0
 10
133.5283764222115
 20
144.0201395156331
 30
0.0
 10
133.5250034812036
 20
144.1489469360233
 30
0.0
 10
133.5233170106997
 20
144.2133506462184
 30
0.0
  0
ELLIPSE
  5
2A1
330
1F
100
AcDbEntity
  8
0
  6
Continuous
 62
     7
370
    25
100
AcDbEllipse
 10
133.5363875445
 20
140.0041516796
 30
0.0
 11
2.497021557391577
 21
-0.152599110346614
 31
1.776356839400251E-14
210
-7.087433036401173E-15
220
4.331304120279980E-16
230
0.9999999999999998
 40
0.7994627403
 41
4.755979052769776
 42
6.332003616895606
  0
SPLINE
  5
2A2
330
1F
100
AcDbEntity
  8
0
  6
Continuous
 62
     7
370
    25
100
AcDbSpline
210
0.0
220
0.0
230
1.0
 70
    24
 71
     3
 72
    11
 73
     7
 74
     0
 42
0.00000001
 43
0.00000001
 40
0.0
 40
0.0
 40
0.0
 40
0.0
 40
0.2500000000000003
 40
0.4999999999999958
 40
0.7499999999999993
 40
0.9999999999999999
 40
0.9999999999999999
 40
0.9999999999999999
 40
0.9999999999999999
 10
135.6363875444808
 20
139.9491504727137
 30
0.0
 10
135.6616474826849
 20
139.9491504727137
 30
0.0
 10
135.7121673590933
 20
139.9491504727137
 30
0.0
 10
135.8110259682936
 20
139.9491504727137
 30
0.0
 10
135.9204132481171
 20
139.9491504727137
 30
0.0
 10
135.9977294456929
 20
139.9491504727137
 30
0.0
 10
136.0363875444808
 20
139.9491504727137
 30
0.0
  0
ELLIPSE
  5
2A3
330
1F
100
AcDbEntity
  8
0
  6
Continuous
 62
     7
370
    25
100
AcDbEllipse
 10
133.5363875445
 20
142.2123215052
 30
0.0
 11
2.497021557391577
 21
0.1525991103465856
 31
1.776356839400251E-14
210
-7.087433036401180E-15
220
-4.331304120279985E-16
230
1.0
 40
0.7994627403
 41
6.234366997463597
 42
7.810391561589416
  0
SPLINE
  5
2A4
330
1F
100
AcDbEntity
  8
0
  6
Continuous
 62
     7
370
    25
100
AcDbSpline
210
0.0
220
0.0
230
1.0
 70
    24
 71
     3
 72
    11
 73
     7
 74
     0
 42
0.00000001
 43
0.00000001
 40
0.0
 40
0.0
 40
0.0
 40
0.0
 40
0.2500000000000035
 40
0.5000000000000026
 40
0.7500000000000004
 40
1.0
 40
1.0
 40
1.0
 40
1.0
 10
136.0363875444808
 20
142.267322712114
 30
0.0
 10
135.9977294456929
 20
142.267322712114
 30
0.0
 10
135.9204132481171
 20
142.267322712114
 30
0.0
 10
135.8110259682936
 20
142.267322712114
 30
0.0
 10
135.7121673590932
 20
142.267322712114
 30
0.0
 10
135.6616474826849
 20
142.267322712114
 30
0.0
 10
135.6363875444808
 20
142.267322712114
 30
0.0
  0
LINE
  5
2A5
330
1F
100
AcDbEntity
  8
0
  6
Continuous
 62
     7
370
    25
100
AcDbLine
 10
136.173209219
 20
137.3814981682
 30
0.0
 11
124.7574799355
 21
138.0157053506
 31
0.0
  0
LINE
  5
2A6
330
1F
100
AcDbEntity
  8
0
  6
Continuous
 62
     7
370
    25
100
AcDbLine
 10
136.0900041896
 20
135.8838076384
 30
0.0
 11
136.173209219
 21
137.3814981682
 31
0.0
  0
LINE
  5
2A7
330
1F
100
AcDbEntity
  8
0
  6
Continuous
 62
     7
370
    25
100
AcDbLine
 10
126.7563261781
 20
136.4023453057
 30
0.0
 11
136.0900041896
 21
135.8838076384
 31
0.0
  0
LINE
  5
2A8
330
1F
100
AcDbEntity
  8
0
  6
Continuous
 62
     7
370
    25
100
AcDbLine
 10
136.0363875445
 20
139.9491504727
 30
0.0
 11
136.0363875445
 21
142.2673227121
 31
0.0
  0
LINE
  5
2A9
330
1F
100
AcDbEntity
  8
0
  6
Continuous
 62
     7
370
    25
100
AcDbLine
 10
136.0900041896
 20
146.3326655464
 30
0.0
 11
126.7563261781
 21
145.8141278791
 31
0.0
  0
LINE
  5
2AA
330
1F
100
AcDbEntity
  8
0
  6
Continuous
 62
     7
370
    25
100
AcDbLine
 10
136.173209219
 20
144.8349750166
 30
0.0
 11
136.0900041896
 21
146.3326655464
 31
0.0
  0
LINE
  5
2AB
330
1F
100
AcDbEntity
  8
0
  6
Continuous
 62
     7
370
    25
100
AcDbLine
 10
124.7574799355
 20
144.2007678342
 30
0.0
 11
136.173209219
 21
144.8349750166
 31
0.0
  0
LINE
  5
2AC
330
1F
100
AcDbEntity
  8
0
  6
Continuous
 62
     7
370
    25
100
AcDbLine
 10
136.5363875445
 20
137.7446764937
 30
0.0
 11
136.173209219
 21
137.3814981682
 31
0.0
  0
LINE
  5
2AD
330
1F
100
AcDbEntity
  8
0
  6
Continuous
 62
     7
370
    25
100
AcDbLine
 10
136.173209219
 20
144.8349750166
 30
0.0
 11
136.5363875445
 21
144.4717966912
 31
0.0
  0
LINE
  5
2AE
330
1F
100
AcDbEntity
  8
0
  6
Continuous
 62
     7
370
    25
100
AcDbLine
 10
136.5363875445
 20
137.7446764937
 30
0.0
 11
136.5363875445
 21
144.4717966912
 31
0.0
  0
LINE
  5
2AF
330
1F
100
AcDbEntity
  8
0
  6
Continuous
 62
     7
370
    25
100
AcDbLine
 10
136.5363875445
 20
145.1981533421
 30
0.0
 11
136.173209219
 21
144.8349750166
 31
0.0
  0
LINE
  5
2B0
330
1F
100
AcDbEntity
  8
0
  6
Continuous
 62
     7
370
    25
100
AcDbLine
 10
136.5363875445
 20
144.4717966912
 30
0.0
 11
136.5363875445
 21
145.1981533421
 31
0.0
  0
ARC
  5
2B1
330
1F
100
AcDbEntity
  8
0
  6
Continuous
 62
     7
370
    25
100
AcDbCircle
 10
136.173209219
 20
144.8349750166
 30
0.0
 40
1.500000000000011
100
AcDbArc
 50
75.9883675978
 51
93.1798301199
  0
LINE
  5
2B2
330
1F
100
AcDbEntity
  8
0
  6
Continuous
 62
     7
370
    25
100
AcDbLine
 10
136.5363875445
 20
145.1981533421
 30
0.0
 11
136.5363875445
 21
146.2903449022
 31
0.0
  0
LINE
  5
2B3
330
1F
100
AcDbEntity
  8
0
  6
Continuous
 62
     7
370
    25
100
AcDbLine
 10
136.173209219
 20
137.3814981682
 30
0.0
 11
136.5363875445
 21
137.0183198427
 31
0.0
  0
LINE
  5
2B4
330
1F
100
AcDbEntity
  8
0
  6
Continuous
 62
     7
370
    25
100
AcDbLine
 10
136.5363875445
 20
137.0183198427
 30
0.0
 11
136.5363875445
 21
137.7446764937
 31
0.0
  0
ARC
  5
2B5
330
1F
100
AcDbEntity
  8
0
  6
Continuous
 62
     7
370
    25
100
AcDbCircle
 10
136.173209219
 20
137.3814981682
 30
0.0
 40
1.500000000000006
100
AcDbArc
 50
266.8201698801
 51
284.0116324022
  0
LINE
  5
2B6
330
1F
100
AcDbEntity
  8
0
  6
Continuous
 62
     7
370
    25
100
AcDbLine
 10
136.5363875445
 20
135.9261282826
 30
0.0
 11
136.5363875445
 21
137.0183198427
 31
0.0
  0
SPLINE
  5
2B7
330
1F
100
AcDbEntity
  8
0
  6
Continuous
 62
     7
370
    25
100
AcDbSpline
210
0.0
220
0.0
230
1.0
 70
    24
 71
     3
 72
     9
 73
     5
 74
     0
 42
0.00000001
 43
0.00000001
 40
0.0
 40
0.0
 40
0.0
 40
0.0
 40
0.5389665913333166
 40
1.0
 40
1.0
 40
1.0
 40
1.0
 10
124.6903540832801
 20
145.6993516516554
 30
0.0
 10
124.6444281415026
 20
145.6968002104456
 30
0.0
 10
124.5592170309885
 20
145.6920662598614
 30
0.0
 10
124.5717982231516
 20
145.6927652149816
 30
0.0
 10
124.5775985730597
 20
145.6930874566432
 30
0.0
  0
SPLINE
  5
2B8
330
1F
100
AcDbEntity
  8
0
  6
Continuous
 62
     7
370
    25
100
AcDbSpline
210
0.0
220
0.0
230
1.0
 70
    24
 71
     3
 72
     9
 73
     5
 74
     0
 42
0.00000001
 43
0.00000001
 40
0.0
 40
0.0
 40
0.0
 40
0.0
 40
0.4490009010282567
 40
1.0
 40
1.0
 40
1.0
 40
1.0
 10
124.583696644225
 20
136.5230469464531
 30
0.0
 10
124.5753110916333
 20
136.523512810486
 30
0.0
 10
124.5566350654327
 20
136.5245503674971
 30
0.0
 10
124.6428498272182
 20
136.519760658509
 30
0.0
 10
124.6903540832801
 20
136.5171215331722
 30
0.0
  0
SPLINE
  5
2B9
330
1F
100
AcDbEntity
  8
0
  6
Continuous
 62
     7
370
    25
100
AcDbSpline
210
0.0
220
0.0
230
1.0
 70
     8
 71
     3
 72
     9
 73
     5
 74
     0
 42
0.00000001
 43
0.00000001
 40
0.0
 40
0.0
 40
0.0
 40
0.0
 40
0.540774756067758
 40
1.0
 40
1.0
 40
1.0
 40
1.0
 10
96.30211892245869
 20
142.8944772548305
 30
0.0
 10
96.29436288041121
 20
142.8945067552433
 30
0.0
 10
96.28002041719446
 20
142.8945613073697
 30
0.0
 10
96.26570191338651
 20
142.8939570622348
 30
0.0
 10
96.25912649498255
 20
142.8936795776153
 30
0.0
  0
LINE
  5
2BA
330
1F
100
AcDbEntity
  8
0
  6
Continuous
 62
     7
370
    25
100
AcDbLine
 10
96.3021189225
 20
139.32199593
 30
0.0
 11
96.259126495
 21
139.3227936072
 31
0.0
  0
CIRCLE
  5
2BB
330
1F
100
AcDbEntity
  8
0
  6
Continuous
 62
     7
370
    25
100
AcDbCircle
 10
146.5363875445
 20
141.1082365924
 30
0.0
 40
7.558608890731364
  0
CIRCLE
  5
2BC
330
1F
100
AcDbEntity
  8
0
  6
Continuous
 62
     7
370
    25
100
AcDbCircle
 10
146.5363875445
 20
141.1082365924
 30
0.0
 40
5.5
  0
CIRCLE
  5
2BD
330
1F
100
AcDbEntity
  8
0
  6
Continuous
 62
     7
370
    25
100
AcDbCircle
 10
146.5363875445
 20
141.1082365924
 30
0.0
 40
8.054747829088171
  0
SPLINE
  5
2BE
330
1F
100
AcDbEntity
  8
0
  6
Continuous
 62
     7
370
    25
100
AcDbSpline
210
0.0
220
0.0
230
1.0
 70
     8
 71
     3
 72
    11
 73
     7
 74
     0
 42
0.00000001
 43
0.00000001
 40
0.0
 40
0.0
 40
0.0
 40
0.0
 40
0.292057402818308
 40
0.5665622171831297
 40
0.8065682389915584
 40
1.0
 40
1.0
 40
1.0
 40
1.0
 10
138.4201819374274
 20
139.6284708866228
 30
0.0
 10
138.4518424737429
 20
139.4608703511992
 30
0.0
 10
138.5132607548035
 20
139.1357420372636
 30
0.0
 10
138.5931731140681
 20
138.7351383713974
 30
0.0
 10
138.6322719277956
 20
138.4772981753922
 30
0.0
 10
138.616855564866
 20
138.4266527471106
 30
0.0
 10
138.6099756518819
 20
138.4040510387042
 30
0.0
  0
ARC
  5
2BF
330
1F
100
AcDbEntity
  8
0
  6
Continuous
 62
     7
370
    25
100
AcDbCircle
 10
146.5363875445
 20
141.1082365924
 30
0.0
 40
8.249999999999996
100
AcDbArc
 50
169.6671934996
 51
190.3328065004
  0
SPLINE
  5
2C0
330
1F
100
AcDbEntity
  8
0
  6
Continuous
 62
     7
370
    25
100
AcDbSpline
210
0.0
220
0.0
230
1.0
 70
     8
 71
     3
 72
    12
 73
     8
 74
     0
 42
0.00000001
 43
0.00000001
 40
0.0
 40
0.0
 40
0.0
 40
0.0
 40
0.1882084234719034
 40
0.375913419809593
 40
0.5768476463044263
 40
0.8018243756979397
 40
1.0
 40
1.0
 40
1.0
 40
1.0
 10
138.6099756518852
 20
143.81242214612
 30
0.0
 10
138.6168472432547
 20
143.7908189516074
 30
0.0
 10
138.6305720455967
 20
143.7476703476382
 30
0.0
 10
138.6047473456386
 20
143.5541304898557
 30
0.0
 10
138.5536675509969
 20
143.2793014318166
 30
0.0
 10
138.4864275493287
 20
142.9435612944472
 30
0.0
 10
138.4413113022085
 20
142.7014095944345
 30
0.0
 10
138.4201819374274
 20
142.5880022982048
 30
0.0
  0
ARC
  5
2C1
330
1F
100
AcDbEntity
  8
0
  6
Continuous
 62
     7
370
    25
100
AcDbCircle
 10
146.5363875445
 20
141.1082365924
 30
0.0
 40
8.986048245082024
100
AcDbArc
 50
200.7364869057
 51
159.2635130943
  0
LINE
  5
2C2
330
1F
100
AcDbEntity
  8
0
  6
Continuous
 62
     7
370
    25
100
AcDbLine
 10
138.6099756519
 20
138.4040510387
 30
0.0
 11
136.8803160002
 21
136.674391387
 31
0.0
  0
LINE
  5
2C3
330
1F
100
AcDbEntity
  8
0
  6
Continuous
 62
     7
370
    25
100
AcDbLine
 10
136.8803160002
 20
145.5420817978
 30
0.0
 11
138.6099756519
 21
143.8124221461
 31
0.0
  0
ARC
  5
2C4
330
1F
100
AcDbEntity
  8
0
  6
Continuous
 62
     7
370
    25
100
AcDbCircle
 10
136.173209219
 20
144.8349750166
 30
0.0
 40
1.000000000000016
100
AcDbArc
 50
45.0
 51
68.7044833353
  0
ARC
  5
2C5
330
1F
100
AcDbEntity
  8
0
  6
Continuous
 62
     7
370
    25
100
AcDbCircle
 10
136.173209219
 20
137.3814981682
 30
0.0
 40
0.9999999999999897
100
AcDbArc
 50
291.2955166647
 51
315.0
  0
LINE
  5
2C6
330
1F
100
AcDbEntity
  8
0
  6
Continuous
 62
     7
370
    25
100
AcDbLine
 10
123.3857156223
 20
137.3201387678
 30
0.0
 11
123.3987925456
 21
137.3438410856
 31
0.0
  0
ARC
  5
2C7
330
1F
100
AcDbEntity
  8
0
  6
Continuous
 62
     7
370
    25
100
AcDbCircle
 10
91.4722628981
 20
140.1272422811
 30
0.0
 40
0.2634319818304568
100
AcDbArc
 50
154.836758746
 51
203.8357950839
  0
ARC
  5
2C8
330
1F
100
AcDbEntity
  8
0
  6
Continuous
 62
     7
370
    25
100
AcDbCircle
 10
91.4720734821
 20
142.0891925535
 30
0.0
 40
0.2632442389232847
100
AcDbArc
 50
155.9438368058
 51
205.1732159885
  0
LINE
  5
2C9
330
1F
100
AcDbEntity
  8
0
  6
Continuous
 62
     7
370
    25
100
AcDbLine
 10
91.089173949
 20
141.2696821867
 30
0.0
 11
91.0363876318
 21
141.2696821867
 31
0.0
  0
LINE
  5
2CA
330
1F
100
AcDbEntity
  8
0
  6
Continuous
 62
     7
370
    25
100
AcDbLine
 10
91.089173949
 20
140.9467909981
 30
0.0
 11
91.036387612
 21
140.9467909981
 31
0.0
  0
LINE
  5
2CB
330
1F
100
AcDbEntity
  8
0
  6
Continuous
 62
     7
370
    25
100
AcDbLine
 10
136.8803160002
 20
136.674391387
 30
0.0
 11
136.5363875445
 21
137.0183198427
 31
0.0
  0
LINE
  5
2CC
330
1F
100
AcDbEntity
  8
0
  6
Continuous
 62
     7
370
    25
100
AcDbLine
 10
136.5363875445
 20
137.7446764937
 30
0.0
 11
138.4201819374
 21
139.6284708866
 31
0.0
  0
LINE
  5
2CD
330
1F
100
AcDbEntity
  8
0
  6
Continuous
 62
     7
370
    25
100
AcDbLine
 10
138.4201819374
 20
142.5880022982
 30
0.0
 11
136.5363875445
 21
144.4717966912
 31
0.0
  0
LINE
  5
2CE
330
1F
100
AcDbEntity
  8
0
  6
Continuous
 62
     7
370
    25
100
AcDbLine
 10
136.8803160002
 20
145.5420817978
 30
0.0
 11
136.5363875445
 21
145.1981533421
 31
0.0
  0
INSERT
  5
2DA
330
1F
100
AcDbEntity
  8
0
  6
Continuous
 62
     7
370
    18
100
AcDbBlockReference
  2
SW_CENTERMARKSYMBOL_1
 10
146.5363875445
 20
141.1082365924
 30
0.0
  0
ENDSEC
  0
SECTION
  2
OBJECTS
  0
DICTIONARY
  5
C
330
0
100
AcDbDictionary
281
     1
  3
ACAD_GROUP
350
D
  3
ACAD_LAYOUT
350
1A
  3
ACAD_MLINESTYLE
350
17
  3
ACAD_PLOTSETTINGS
350
19
  3
ACAD_PLOTSTYLENAME
350
E
  3
ACAD_SCALELIST
350
47
  3
DWGPROPS
350
2DB
  0
DICTIONARY
  5
D
102
{ACAD_REACTORS
330
C
102
}
330
C
100
AcDbDictionary
281
     1
  0
DICTIONARY
  5
1A
102
{ACAD_REACTORS
330
C
102
}
330
C
100
AcDbDictionary
281
     1
  3
Layout1
350
1E
  3
Layout2
350
26
  3
Model
350
22
  0
DICTIONARY
  5
17
102
{ACAD_REACTORS
330
C
102
}
330
C
100
AcDbDictionary
281
     1
  3
Standard
350
18
  0
DICTIONARY
  5
19
102
{ACAD_REACTORS
330
C
102
}
330
C
100
AcDbDictionary
281
     1
  0
ACDBDICTIONARYWDFLT
  5
E
102
{ACAD_REACTORS
330
C
102
}
330
C
100
AcDbDictionary
281
     1
  3
Normal
350
F
100
AcDbDictionaryWithDefault
340
F
  0
DICTIONARY
  5
47
102
{ACAD_REACTORS
330
C
102
}
330
C
100
AcDbDictionary
281
     1
  3
A0
350
48
  3
A1
350
49
  3
A2
350
4A
  3
A3
350
4B
  3
A4
350
4C
  3
A5
350
4D
  3
A6
350
4E
  3
A7
350
4F
  3
A8
350
50
  3
A9
350
51
  3
B0
350
52
  3
B1
350
53
  3
B2
350
54
  3
B3
350
55
  3
B4
350
56
  3
B5
350
57
  3
B6
350
58
  0
XRECORD
  5
2DB
102
{ACAD_REACTORS
330
C
102
}
330
C
100
AcDbXrecord
280
     1
  1
DWGPROPS COOKIE
  2

  3

  4

  6

  7

  8
user28
  9

300
=
301
=
302
=
303
=
304
=
305
=
306
=
307
=
308
=
309
=
 40
0.0
 41
2460297.290364398
 42
2460297.290365451
  1

 90
        0
  0
LAYOUT
  5
1E
102
{ACAD_REACTORS
330
1A
102
}
330
1A
100
AcDbPlotSettings
  1

  2
none_device
  4

  6

 40
0.0
 41
0.0
 42
0.0
 43
0.0
 44
0.0
 45
0.0
 46
0.0
 47
0.0
 48
0.0
 49
0.0
140
0.0
141
0.0
142
1.0
143
1.0
 70
   688
 72
     1
 73
     0
 74
     5
  7

 75
    16
147
1.0
148
0.0
149
0.0
100
AcDbLayout
  1
Layout1
 70
     1
 71
     1
 10
0.0
 20
0.0
 11
420.0
 21
297.0
 12
0.0
 22
0.0
 32
0.0
 14
1.0000000000E+20
 24
1.0000000000E+20
 34
1.0000000000E+20
 15
-1.0000000000E+20
 25
-1.0000000000E+20
 35
-1.0000000000E+20
146
0.0
 13
0.0
 23
0.0
 33
0.0
 16
1.0
 26
0.0
 36
0.0
 17
0.0
 27
1.0
 37
0.0
 76
     0
330
1B
  0
LAYOUT
  5
26
102
{ACAD_REACTORS
330
1A
102
}
330
1A
100
AcDbPlotSettings
  1

  2
none_device
  4

  6

 40
0.0
 41
0.0
 42
0.0
 43
0.0
 44
0.0
 45
0.0
 46
0.0
 47
0.0
 48
0.0
 49
0.0
140
0.0
141
0.0
142
1.0
143
1.0
 70
   688
 72
     1
 73
     0
 74
     5
  7

 75
    16
147
1.0
148
0.0
149
0.0
100
AcDbLayout
  1
Layout2
 70
     1
 71
     2
 10
0.0
 20
0.0
 11
0.0
 21
0.0
 12
0.0
 22
0.0
 32
0.0
 14
0.0
 24
0.0
 34
0.0
 15
0.0
 25
0.0
 35
0.0
146
0.0
 13
0.0
 23
0.0
 33
0.0
 16
1.0
 26
0.0
 36
0.0
 17
0.0
 27
1.0
 37
0.0
 76
     0
330
23
  0
LAYOUT
  5
22
102
{ACAD_REACTORS
330
1A
102
}
330
1A
100
AcDbPlotSettings
  1

  2
none_device
  4
Letter_(8.50_x_11.00_Inches)
  6

 40
6.35
 41
6.35
 42
6.35000508
 43
6.35000508
 44
215.9
 45
279.4
 46
0.0
 47
0.0
 48
0.0
 49
0.0
140
0.0
141
0.0
142
1.0
143
1.0
 70
  1712
 72
     1
 73
     0
 74
     0
  7

 75
     0
147
1.0
148
0.0
149
0.0
100
AcDbLayout
  1
Model
 70
     1
 71
     0
 10
0.0
 20
0.0
 11
431.8
 21
279.4
 12
0.0
 22
0.0
 32
0.0
 14
0.0
 24
0.0
 34
0.0
 15
431.8
 25
279.4
 35
0.0
146
0.0
 13
0.0
 23
0.0
 33
0.0
 16
1.0
 26
0.0
 36
0.0
 17
0.0
 27
1.0
 37
0.0
 76
     0
330
1F
331
29
  0
MLINESTYLE
  5
18
102
{ACAD_REACTORS
330
17
102
}
330
17
100
AcDbMlineStyle
  2
Standard
 70
     0
  3

 62
   256
 51
90.0
 52
90.0
 71
     2
 49
0.5
 62
   256
  6
BYLAYER
 49
-0.5
 62
   256
  6
BYLAYER
  0
ACDBPLACEHOLDER
  5
F
102
{ACAD_REACTORS
330
E
102
}
330
E
  0
SCALE
  5
48
102
{ACAD_REACTORS
330
47
102
}
330
47
100
AcDbScale
 70
     0
300
1:1
140
1.0
141
1.0
290
     1
  0
SCALE
  5
49
102
{ACAD_REACTORS
330
47
102
}
330
47
100
AcDbScale
 70
     0
300
1:2
140
1.0
141
2.0
290
     0
  0
SCALE
  5
4A
102
{ACAD_REACTORS
330
47
102
}
330
47
100
AcDbScale
 70
     0
300
1:4
140
1.0
141
4.0
290
     0
  0
SCALE
  5
4B
102
{ACAD_REACTORS
330
47
102
}
330
47
100
AcDbScale
 70
     0
300
1:5
140
1.0
141
5.0
290
     0
  0
SCALE
  5
4C
102
{ACAD_REACTORS
330
47
102
}
330
47
100
AcDbScale
 70
     0
300
1:8
140
1.0
141
8.0
290
     0
  0
SCALE
  5
4D
102
{ACAD_REACTORS
330
47
102
}
330
47
100
AcDbScale
 70
     0
300
1:10
140
1.0
141
10.0
290
     0
  0
SCALE
  5
4E
102
{ACAD_REACTORS
330
47
102
}
330
47
100
AcDbScale
 70
     0
300
1:16
140
1.0
141
16.0
290
     0
  0
SCALE
  5
4F
102
{ACAD_REACTORS
330
47
102
}
330
47
100
AcDbScale
 70
     0
300
1:20
140
1.0
141
20.0
290
     0
  0
SCALE
  5
50
102
{ACAD_REACTORS
330
47
102
}
330
47
100
AcDbScale
 70
     0
300
1:30
140
1.0
141
30.0
290
     0
  0
SCALE
  5
51
102
{ACAD_REACTORS
330
47
102
}
330
47
100
AcDbScale
 70
     0
300
1:40
140
1.0
141
40.0
290
     0
  0
SCALE
  5
52
102
{ACAD_REACTORS
330
47
102
}
330
47
100
AcDbScale
 70
     0
300
1:50
140
1.0
141
50.0
290
     0
  0
SCALE
  5
53
102
{ACAD_REACTORS
330
47
102
}
330
47
100
AcDbScale
 70
     0
300
1:100
140
1.0
141
100.0
290
     0
  0
SCALE
  5
54
102
{ACAD_REACTORS
330
47
102
}
330
47
100
AcDbScale
 70
     0
300
2:1
140
2.0
141
1.0
290
     0
  0
SCALE
  5
55
102
{ACAD_REACTORS
330
47
102
}
330
47
100
AcDbScale
 70
     0
300
4:1
140
4.0
141
1.0
290
     0
  0
SCALE
  5
56
102
{ACAD_REACTORS
330
47
102
}
330
47
100
AcDbScale
 70
     0
300
8:1
140
8.0
141
1.0
290
     0
  0
SCALE
  5
57
102
{ACAD_REACTORS
330
47
102
}
330
47
100
AcDbScale
 70
     0
300
10:1
140
10.0
141
1.0
290
     0
  0
SCALE
  5
58
102
{ACAD_REACTORS
330
47
102
}
330
47
100
AcDbScale
 70
     0
300
100:1
140
100.0
141
1.0
290
     0
  0
ENDSEC
  0
EOF
