  0
SECTION
  2
HEADER
  9
$ACADVER
  1
AC1015
  9
$ACADMAINTVER
 70
     6
  9
$DWGCODEPAGE
  3
DOS932
  9
$INSBASE
 10
0.0
 20
0.0
 30
0.0
  9
$EXTMIN
 10
0.0
 20
0.0
 30
0.0
  9
$EXTMAX
 10
431.8
 20
279.4
 30
0.0
  9
$LIMMIN
 10
0.0
 20
0.0
  9
$LIMMAX
 10
431.8
 20
279.4
  9
$ORTHOMODE
 70
     0
  9
$REGENMODE
 70
     1
  9
$FILLMODE
 70
     1
  9
$QTEXTMODE
 70
     0
  9
$MIRRTEXT
 70
     1
  9
$LTSCALE
 40
1.0
  9
$ATTMODE
 70
     1
  9
$TEXTSIZE
 40
3.5
  9
$TRACEWID
 40
1.0
  9
$TEXTSTYLE
  7
Standard
  9
$CLAYER
  8
0
  9
$CELTYPE
  6
ByLayer
  9
$CECOLOR
 62
   256
  9
$CELTSCALE
 40
1.0
  9
$DISPSILH
 70
     0
  9
$DIMSCALE
 40
1.0
  9
$DIMASZ
 40
3.556
  9
$DIMEXO
 40
1.0
  9
$DIMDLI
 40
3.75
  9
$DIMRND
 40
0.0
  9
$DIMDLE
 40
0.0
  9
$DIMEXE
 40
1.0
  9
$DIMTP
 40
0.0
  9
$DIMTM
 40
0.0
  9
$DIMTXT
 40
3.5
  9
$DIMCEN
 40
2.5
  9
$DIMTSZ
 40
0.0
  9
$DIMTOL
 70
     0
  9
$DIMLIM
 70
     0
  9
$DIMTIH
 70
     1
  9
$DIMTOH
 70
     1
  9
$DIMSE1
 70
     0
  9
$DIMSE2
 70
     0
  9
$DIMTAD
 70
     1
  9
$DIMZIN
 70
     0
  9
$DIMBLK
  1

  9
$DIMASO
 70
     1
  9
$DIMSHO
 70
     1
  9
$DIMPOST
  1

  9
$DIMAPOST
  1

  9
$DIMALT
 70
     0
  9
$DIMALTD
 70
     3
  9
$DIMALTF
 40
0.0393700787
  9
$DIMLFAC
 40
1.0
  9
$DIMTOFL
 70
     1
  9
$DIMTVP
 40
0.0
  9
$DIMTIX
 70
     0
  9
$DIMSOXD
 70
     0
  9
$DIMSAH
 70
     0
  9
$DIMBLK1
  1

  9
$DIMBLK2
  1

  9
$DIMSTYLE
  2
ISO-25
  9
$DIMCLRD
 70
     0
  9
$DIMCLRE
 70
     0
  9
$DIMCLRT
 70
     0
  9
$DIMTFAC
 40
1.0
  9
$DIMGAP
 40
1.524
  9
$DIMJUST
 70
     0
  9
$DIMSD1
 70
     0
  9
$DIMSD2
 70
     0
  9
$DIMTOLJ
 70
     0
  9
$DIMTZIN
 70
     0
  9
$DIMALTZ
 70
     0
  9
$DIMALTTZ
 70
     0
  9
$DIMUPT
 70
     0
  9
$DIMDEC
 70
     3
  9
$DIMTDEC
 70
     3
  9
$DIMALTU
 70
     2
  9
$DIMALTTD
 70
     3
  9
$DIMTXSTY
  7
Standard
  9
$DIMAUNIT
 70
     0
  9
$DIMADEC
 70
     2
  9
$DIMALTRND
 40
0.0
  9
$DIMAZIN
 70
     0
  9
$DIMDSEP
 70
    44
  9
$DIMATFIT
 70
     3
  9
$DIMFRAC
 70
     0
  9
$DIMLDRBLK
  1

  9
$DIMLUNIT
 70
     2
  9
$DIMLWD
 70
    -2
  9
$DIMLWE
 70
    -2
  9
$DIMTMOVE
 70
     0
  9
$LUNITS
 70
     2
  9
$LUPREC
 70
     3
  9
$SKETCHINC
 40
1.0
  9
$FILLETRAD
 40
0.0
  9
$AUNITS
 70
     0
  9
$AUPREC
 70
     2
  9
$MENU
  1
.
  9
$ELEVATION
 40
0.0
  9
$PELEVATION
 40
0.0
  9
$THICKNESS
 40
0.0
  9
$LIMCHECK
 70
     0
  9
$CHAMFERA
 40
0.0
  9
$CHAMFERB
 40
0.0
  9
$CHAMFERC
 40
0.0
  9
$CHAMFERD
 40
0.0
  9
$SKPOLY
 70
     0
  9
$TDCREATE
 40
2460297.671540521
  9
$TDUCREATE
 40
2460297.296540521
  9
$TDUPDATE
 40
2460297.671541435
  9
$TDUUPDATE
 40
2460297.296541435
  9
$TDINDWG
 40
0.0000000116
  9
$TDUSRTIMER
 40
0.0000000116
  9
$USRTIMER
 70
     1
  9
$ANGBASE
 50
0.0
  9
$ANGDIR
 70
     0
  9
$PDMODE
 70
     0
  9
$PDSIZE
 40
-1.0
  9
$PLINEWID
 40
0.0
  9
$SPLFRAME
 70
     0
  9
$SPLINETYPE
 70
     6
  9
$SPLINESEGS
 70
     8
  9
$HANDSEED
  5
2E9
  9
$SURFTAB1
 70
     6
  9
$SURFTAB2
 70
     6
  9
$SURFTYPE
 70
     6
  9
$SURFU
 70
     6
  9
$SURFV
 70
     6
  9
$UCSBASE
  2

  9
$UCSNAME
  2

  9
$UCSORG
 10
0.0
 20
0.0
 30
0.0
  9
$UCSXDIR
 10
1.0
 20
0.0
 30
0.0
  9
$UCSYDIR
 10
0.0
 20
1.0
 30
0.0
  9
$UCSORTHOREF
  2

  9
$UCSORTHOVIEW
 70
     0
  9
$UCSORGTOP
 10
0.0
 20
0.0
 30
0.0
  9
$UCSORGBOTTOM
 10
0.0
 20
0.0
 30
0.0
  9
$UCSORGLEFT
 10
0.0
 20
0.0
 30
0.0
  9
$UCSORGRIGHT
 10
0.0
 20
0.0
 30
0.0
  9
$UCSORGFRONT
 10
0.0
 20
0.0
 30
0.0
  9
$UCSORGBACK
 10
0.0
 20
0.0
 30
0.0
  9
$PUCSBASE
  2

  9
$PUCSNAME
  2

  9
$PUCSORG
 10
0.0
 20
0.0
 30
0.0
  9
$PUCSXDIR
 10
1.0
 20
0.0
 30
0.0
  9
$PUCSYDIR
 10
0.0
 20
1.0
 30
0.0
  9
$PUCSORTHOREF
  2

  9
$PUCSORTHOVIEW
 70
     0
  9
$PUCSORGTOP
 10
0.0
 20
0.0
 30
0.0
  9
$PUCSORGBOTTOM
 10
0.0
 20
0.0
 30
0.0
  9
$PUCSORGLEFT
 10
0.0
 20
0.0
 30
0.0
  9
$PUCSORGRIGHT
 10
0.0
 20
0.0
 30
0.0
  9
$PUCSORGFRONT
 10
0.0
 20
0.0
 30
0.0
  9
$PUCSORGBACK
 10
0.0
 20
0.0
 30
0.0
  9
$USERI1
 70
     0
  9
$USERI2
 70
     0
  9
$USERI3
 70
     0
  9
$USERI4
 70
     0
  9
$USERI5
 70
     0
  9
$USERR1
 40
0.0
  9
$USERR2
 40
0.0
  9
$USERR3
 40
0.0
  9
$USERR4
 40
0.0
  9
$USERR5
 40
0.0
  9
$WORLDVIEW
 70
     1
  9
$SHADEDGE
 70
     3
  9
$SHADEDIF
 70
    70
  9
$TILEMODE
 70
     1
  9
$MAXACTVP
 70
    64
  9
$PINSBASE
 10
0.0
 20
0.0
 30
0.0
  9
$PLIMCHECK
 70
     0
  9
$PEXTMIN
 10
1.0000000000E+20
 20
1.0000000000E+20
 30
1.0000000000E+20
  9
$PEXTMAX
 10
-1.0000000000E+20
 20
-1.0000000000E+20
 30
-1.0000000000E+20
  9
$PLIMMIN
 10
0.0
 20
0.0
  9
$PLIMMAX
 10
420.0
 20
297.0
  9
$UNITMODE
 70
     0
  9
$VISRETAIN
 70
     1
  9
$PLINEGEN
 70
     0
  9
$PSLTSCALE
 70
     1
  9
$TREEDEPTH
 70
  3020
  9
$CMLSTYLE
  2
Standard
  9
$CMLJUST
 70
     0
  9
$CMLSCALE
 40
20.0
  9
$PROXYGRAPHICS
 70
     1
  9
$MEASUREMENT
 70
     1
  9
$CELWEIGHT
370
    -1
  9
$ENDCAPS
280
     0
  9
$JOINSTYLE
280
     0
  9
$LWDISPLAY
290
     1
  9
$INSUNITS
 70
     4
  9
$HYPERLINKBASE
  1

  9
$STYLESHEET
  1

  9
$XEDIT
290
     1
  9
$CEPSNTYPE
380
     0
  9
$PSTYLEMODE
290
     1
  9
$FINGERPRINTGUID
  2
{31dfcf66-7050-4530-a4b1-63c31962d087}
  9
$VERSIONGUID
  2
{FAEB1C32-E019-11D5-929B-00C0DF256EC4}
  9
$EXTNAMES
290
     1
  9
$PSVPSCALE
 40
0.0
  9
$OLESTARTUP
290
     0
  0
ENDSEC
  0
SECTION
  2
CLASSES
  0
CLASS
  1
ACDBDICTIONARYWDFLT
  2
AcDbDictionaryWithDefault
  3
ObjectDBX Classes
 90
        0
280
     0
281
     0
  0
CLASS
  1
VISUALSTYLE
  2
AcDbVisualStyle
  3
ObjectDBX Classes
 90
     4095
280
     0
281
     0
  0
CLASS
  1
MATERIAL
  2
AcDbMaterial
  3
ObjectDBX Classes
 90
     1153
280
     0
281
     0
  0
CLASS
  1
SCALE
  2
AcDbScale
  3
ObjectDBX Classes
 90
     1153
280
     0
281
     0
  0
CLASS
  1
TABLESTYLE
  2
AcDbTableStyle
  3
ObjectDBX Classes
 90
     4095
280
     0
281
     0
  0
CLASS
  1
MLEADERSTYLE
  2
AcDbMLeaderStyle
  3
ACDB_MLEADERSTYLE_CLASS
 90
     4095
280
     0
281
     0
  0
CLASS
  1
SUN
  2
AcDbSun
  3
SCENEOE
 90
     1153
280
     0
281
     0
  0
CLASS
  1
ACDBPLACEHOLDER
  2
AcDbPlaceHolder
  3
ObjectDBX Classes
 90
        0
280
     0
281
     0
  0
CLASS
  1
LAYOUT
  2
AcDbLayout
  3
ObjectDBX Classes
 90
        0
280
     0
281
     0
  0
ENDSEC
  0
SECTION
  2
TABLES
  0
TABLE
  2
VPORT
  5
8
330
0
100
AcDbSymbolTable
 70
     1
  0
VPORT
  5
29
330
8
100
AcDbSymbolTableRecord
100
AcDbViewportTableRecord
  2
*Active
 70
     0
 10
0.0
 20
0.0
 11
1.0
 21
1.0
 12
215.9
 22
139.7
 13
0.0
 23
0.0
 14
10.0
 24
10.0
 15
10.0
 25
10.0
 16
0.0
 26
0.0
 36
1.0
 17
0.0
 27
0.0
 37
0.0
 40
279.4
 41
1.5454545455
 42
50.0
 43
0.0
 44
0.0
 50
0.0
 51
0.0
 71
     0
 72
  2000
 73
     1
 74
     3
 75
     0
 76
     0
 77
     0
 78
     0
281
     0
 65
     1
110
0.0
120
0.0
130
0.0
111
1.0
121
0.0
131
0.0
112
0.0
122
1.0
132
0.0
 79
     0
146
0.0
  0
ENDTAB
  0
TABLE
  2
LTYPE
  5
5
330
0
100
AcDbSymbolTable
 70
     6
  0
LTYPE
  5
14
330
5
100
AcDbSymbolTableRecord
100
AcDbLinetypeTableRecord
  2
ByBlock
 70
     0
  3

 72
    65
 73
     0
 40
0.0
  0
LTYPE
  5
15
330
5
100
AcDbSymbolTableRecord
100
AcDbLinetypeTableRecord
  2
ByLayer
 70
     0
  3

 72
    65
 73
     0
 40
0.0
  0
LTYPE
  5
16
330
5
100
AcDbSymbolTableRecord
100
AcDbLinetypeTableRecord
  2
Continuous
 70
     0
  3
Solid line
 72
    65
 73
     0
 40
0.0
  0
LTYPE
  5
5E
330
5
100
AcDbSymbolTableRecord
100
AcDbLinetypeTableRecord
  2
HIDDEN
 70
     0
  3
Hidden __ __ __ __ __ __ __ __ __ __ __ __ __ __
 72
    65
 73
     2
 40
1.905
 49
1.27
 74
     0
 49
-0.635
 74
     0
  0
LTYPE
  5
5F
330
5
100
AcDbSymbolTableRecord
100
AcDbLinetypeTableRecord
  2
PHANTOM
 70
     0
  3
Phantom ______  __  __  ______  __  __  ______
 72
    65
 73
     6
 40
12.7
 49
6.35
 74
     0
 49
-1.27
 74
     0
 49
1.27
 74
     0
 49
-1.27
 74
     0
 49
1.27
 74
     0
 49
-1.27
 74
     0
  0
LTYPE
  5
60
330
5
100
AcDbSymbolTableRecord
100
AcDbLinetypeTableRecord
  2
CENTER
 70
     0
  3
Center ____ _ ____ _ ____ _ ____ _ ____ _ ____
 72
    65
 73
     4
 40
10.16
 49
6.35
 74
     0
 49
-1.27
 74
     0
 49
1.27
 74
     0
 49
-1.27
 74
     0
  0
LTYPE
  5
61
330
5
100
AcDbSymbolTableRecord
100
AcDbLinetypeTableRecord
  2
CENTERX2
 70
     0
  3
Center (2x) ________  __  ________  __  _____
 72
    65
 73
     4
 40
20.32
 49
12.7
 74
     0
 49
-2.54
 74
     0
 49
2.54
 74
     0
 49
-2.54
 74
     0
  0
LTYPE
  5
62
330
5
100
AcDbSymbolTableRecord
100
AcDbLinetypeTableRecord
  2
DOT2
 70
     0
  3
Dot (.5x) ........................................
 72
    65
 73
     2
 40
0.635
 49
0.0
 74
     0
 49
-0.635
 74
     0
  0
ENDTAB
  0
TABLE
  2
LAYER
  5
2
330
0
100
AcDbSymbolTable
 70
     1
  0
LAYER
  5
10
330
2
100
AcDbSymbolTableRecord
100
AcDbLayerTableRecord
  2
0
 70
     0
 62
     7
  6
Continuous
370
    -3
390
F
  0
ENDTAB
  0
TABLE
  2
STYLE
  5
3
330
0
100
AcDbSymbolTable
 70
     2
  0
STYLE
  5
11
330
3
100
AcDbSymbolTableRecord
100
AcDbTextStyleTableRecord
  2
Standard
 70
     0
 40
0.0
 41
1.0
 50
0.0
 71
     0
 42
3.5
  3
txt
  4
bigfont
  0
STYLE
  5
63
330
3
100
AcDbSymbolTableRecord
100
AcDbTextStyleTableRecord
  2
SLDTEXTSTYLE0
 70
     0
 40
0.0
 41
0.7
 50
0.0
 71
     0
 42
3.5
  3
TXT
  4
bigfont
  0
ENDTAB
  0
TABLE
  2
VIEW
  5
6
330
0
100
AcDbSymbolTable
 70
     0
  0
ENDTAB
  0
TABLE
  2
UCS
  5
7
330
0
100
AcDbSymbolTable
 70
     0
  0
ENDTAB
  0
TABLE
  2
APPID
  5
9
330
0
100
AcDbSymbolTable
 70
     1
  0
APPID
  5
12
330
9
100
AcDbSymbolTableRecord
100
AcDbRegAppTableRecord
  2
ACAD
 70
     0
  0
ENDTAB
  0
TABLE
  2
DIMSTYLE
  5
A
330
0
100
AcDbSymbolTable
 70
     1
100
AcDbDimStyleTable
  0
DIMSTYLE
105
27
330
A
100
AcDbSymbolTableRecord
100
AcDbDimStyleTableRecord
  2
ISO-25
 70
     0
 41
2.5
 42
0.625
 43
3.75
 44
1.25
 73
     0
 74
     0
 77
     1
 78
     8
140
2.5
141
2.5
143
0.0393700787
147
0.625
171
     3
172
     1
178
     0
271
     2
272
     2
274
     3
278
    44
283
     0
284
     8
340
11
  0
ENDTAB
  0
TABLE
  2
BLOCK_RECORD
  5
1
330
0
100
AcDbSymbolTable
 70
     3
  0
BLOCK_RECORD
  5
1F
330
1
100
AcDbSymbolTableRecord
100
AcDbBlockTableRecord
  2
*Model_Space
340
22
  0
BLOCK_RECORD
  5
1B
330
1
100
AcDbSymbolTableRecord
100
AcDbBlockTableRecord
  2
*Paper_Space
340
1E
  0
BLOCK_RECORD
  5
23
330
1
100
AcDbSymbolTableRecord
100
AcDbBlockTableRecord
  2
*Paper_Space0
340
26
  0
BLOCK_RECORD
  5
1F7
330
1
100
AcDbSymbolTableRecord
100
AcDbBlockTableRecord
  2
SW_CENTERMARKSYMBOL_0
340
0
102
{BLKREFS
331
202
102
}
  0
BLOCK_RECORD
  5
2DA
330
1
100
AcDbSymbolTableRecord
100
AcDbBlockTableRecord
  2
SW_CENTERMARKSYMBOL_1
340
0
102
{BLKREFS
331
2E5
102
}
  0
ENDTAB
  0
ENDSEC
  0
SECTION
  2
BLOCKS
  0
BLOCK
  5
20
330
1F
100
AcDbEntity
  8
0
100
AcDbBlockBegin
  2
*Model_Space
 70
     0
 10
0.0
 20
0.0
 30
0.0
  3
*Model_Space
  1

  0
ENDBLK
  5
21
330
1F
100
AcDbEntity
  8
0
100
AcDbBlockEnd
  0
BLOCK
  5
1C
330
1B
100
AcDbEntity
 67
     1
  8
0
100
AcDbBlockBegin
  2
*Paper_Space
 70
     0
 10
0.0
 20
0.0
 30
0.0
  3
*Paper_Space
  1

  0
ENDBLK
  5
1D
330
1B
100
AcDbEntity
 67
     1
  8
0
100
AcDbBlockEnd
  0
BLOCK
  5
24
330
23
100
AcDbEntity
  8
0
100
AcDbBlockBegin
  2
*Paper_Space0
 70
     0
 10
0.0
 20
0.0
 30
0.0
  3
*Paper_Space0
  1

  0
ENDBLK
  5
25
330
23
100
AcDbEntity
  8
0
100
AcDbBlockEnd
  0
BLOCK
  5
1F8
330
1F7
100
AcDbEntity
  8
0
100
AcDbBlockBegin
  2
SW_CENTERMARKSYMBOL_0
 70
     0
 10
0.0
 20
0.0
 30
0.0
  3
SW_CENTERMARKSYMBOL_0
  1

  0
LINE
  5
1FA
330
1F7
100
AcDbEntity
  8
0
  6
Continuous
 62
     0
370
    18
100
AcDbLine
 10
0.0
 20
0.0
 30
0.0
 11
0.0
 21
2.5
 31
0.0
  0
LINE
  5
1FB
330
1F7
100
AcDbEntity
  8
0
  6
Continuous
 62
     0
370
    18
100
AcDbLine
 10
0.0
 20
0.0
 30
0.0
 11
-2.5
 21
0.0
 31
0.0
  0
LINE
  5
1FC
330
1F7
100
AcDbEntity
  8
0
  6
Continuous
 62
     0
370
    18
100
AcDbLine
 10
0.0
 20
0.0
 30
0.0
 11
0.0
 21
-2.5
 31
0.0
  0
LINE
  5
1FD
330
1F7
100
AcDbEntity
  8
0
  6
Continuous
 62
     0
370
    18
100
AcDbLine
 10
0.0
 20
0.0
 30
0.0
 11
2.5
 21
0.0
 31
0.0
  0
LINE
  5
1FE
330
1F7
100
AcDbEntity
  8
0
  6
Continuous
 62
     0
370
    18
100
AcDbLine
 10
0.0
 20
5.0
 30
0.0
 11
0.0
 21
40.9217936546
 31
0.0
  0
LINE
  5
1FF
330
1F7
100
AcDbEntity
  8
0
  6
Continuous
 62
     0
370
    18
100
AcDbLine
 10
-5.0
 20
0.0
 30
0.0
 11
-16.5
 21
0.0
 31
0.0
  0
LINE
  5
200
330
1F7
100
AcDbEntity
  8
0
  6
Continuous
 62
     0
370
    18
100
AcDbLine
 10
0.0
 20
-5.0
 30
0.0
 11
0.0
 21
-16.5
 31
0.0
  0
LINE
  5
201
330
1F7
100
AcDbEntity
  8
0
  6
Continuous
 62
     0
370
    18
100
AcDbLine
 10
5.0
 20
0.0
 30
0.0
 11
16.5
 21
0.0
 31
0.0
  0
ENDBLK
  5
1F9
330
1F7
100
AcDbEntity
  8
0
100
AcDbBlockEnd
  0
BLOCK
  5
2DB
330
2DA
100
AcDbEntity
  8
0
100
AcDbBlockBegin
  2
SW_CENTERMARKSYMBOL_1
 70
     0
 10
0.0
 20
0.0
 30
0.0
  3
SW_CENTERMARKSYMBOL_1
  1

  0
LINE
  5
2DD
330
2DA
100
AcDbEntity
  8
0
  6
Continuous
 62
     0
370
    18
100
AcDbLine
 10
0.0
 20
0.0
 30
0.0
 11
0.0
 21
2.5
 31
0.0
  0
LINE
  5
2DE
330
2DA
100
AcDbEntity
  8
0
  6
Continuous
 62
     0
370
    18
100
AcDbLine
 10
0.0
 20
0.0
 30
0.0
 11
-2.5
 21
0.0
 31
0.0
  0
LINE
  5
2DF
330
2DA
100
AcDbEntity
  8
0
  6
Continuous
 62
     0
370
    18
100
AcDbLine
 10
0.0
 20
0.0
 30
0.0
 11
0.0
 21
-2.5
 31
0.0
  0
LINE
  5
2E0
330
2DA
100
AcDbEntity
  8
0
  6
Continuous
 62
     0
370
    18
100
AcDbLine
 10
0.0
 20
0.0
 30
0.0
 11
2.5
 21
0.0
 31
0.0
  0
LINE
  5
2E1
330
2DA
100
AcDbEntity
  8
0
  6
Continuous
 62
     0
370
    18
100
AcDbLine
 10
0.0
 20
5.0
 30
0.0
 11
0.0
 21
16.2713848587
 31
0.0
  0
LINE
  5
2E2
330
2DA
100
AcDbEntity
  8
0
  6
Continuous
 62
     0
370
    18
100
AcDbLine
 10
-5.0
 20
0.0
 30
0.0
 11
-57.1525361794
 21
0.0
 31
0.0
  0
LINE
  5
2E3
330
2DA
100
AcDbEntity
  8
0
  6
Continuous
 62
     0
370
    18
100
AcDbLine
 10
0.0
 20
-5.0
 30
0.0
 11
0.0
 21
-16.2642590808
 31
0.0
  0
LINE
  5
2E4
330
2DA
100
AcDbEntity
  8
0
  6
Continuous
 62
     0
370
    18
100
AcDbLine
 10
5.0
 20
0.0
 30
0.0
 11
28.5199236263
 21
0.0
 31
0.0
  0
ENDBLK
  5
2DC
330
2DA
100
AcDbEntity
  8
0
100
AcDbBlockEnd
  0
ENDSEC
  0
SECTION
  2
ENTITIES
  0
MTEXT
  5
64
330
1F
100
AcDbEntity
  8
0
  6
Continuous
 62
     7
370
     0
100
AcDbMText
 10
167.0049820104
 20
115.7363938955
 30
0.0
 40
4.2333333333
 41
0.0
 71
     1
 72
     1
  1
エースボールZERO　BM-0044
  7
SLDTEXTSTYLE0
 73
     1
 44
1.0
  0
LINE
  5
65
330
1F
100
AcDbEntity
  8
0
  6
Continuous
 62
     7
370
    25
100
AcDbLine
 10
140.3657675783
 20
75.0917034544
 30
0.0
 11
137.1157675783
 21
75.0917034544
 31
0.0
  0
LINE
  5
66
330
1F
100
AcDbEntity
  8
0
  6
Continuous
 62
     7
370
    25
100
AcDbLine
 10
137.1157675783
 20
48.0917034544
 30
0.0
 11
140.3657675783
 21
48.0917034544
 31
0.0
  0
LINE
  5
67
330
1F
100
AcDbEntity
  8
0
  6
Continuous
 62
     7
370
    25
100
AcDbLine
 10
137.1157675783
 20
75.0917034544
 30
0.0
 11
136.8657675783
 21
74.8417034544
 31
0.0
  0
LINE
  5
68
330
1F
100
AcDbEntity
  8
0
  6
Continuous
 62
     7
370
    25
100
AcDbLine
 10
136.8657675783
 20
48.3417034544
 30
0.0
 11
137.1157675783
 21
48.0917034544
 31
0.0
  0
LINE
  5
69
330
1F
100
AcDbEntity
  8
0
  6
Continuous
 62
     7
370
    25
100
AcDbLine
 10
123.8657675783
 20
74.5917034544
 30
0.0
 11
123.3657675783
 21
74.0917034544
 31
0.0
  0
LINE
  5
6A
330
1F
100
AcDbEntity
  8
0
  6
Continuous
 62
     7
370
    25
100
AcDbLine
 10
123.3657675783
 20
49.0917034544
 30
0.0
 11
123.8657675783
 21
48.5917034544
 31
0.0
  0
LINE
  5
6B
330
1F
100
AcDbEntity
  8
0
  6
Continuous
 62
     7
370
    25
100
AcDbLine
 10
136.8657675783
 20
74.5917034544
 30
0.0
 11
123.8657675783
 21
74.5917034544
 31
0.0
  0
LINE
  5
6C
330
1F
100
AcDbEntity
  8
0
  6
Continuous
 62
     7
370
    25
100
AcDbLine
 10
123.8657675783
 20
48.5917034544
 30
0.0
 11
136.8657675783
 21
48.5917034544
 31
0.0
  0
LINE
  5
6D
330
1F
100
AcDbEntity
  8
0
  6
Continuous
 62
     7
370
    25
100
AcDbLine
 10
166.3657675783
 20
49.3417034544
 30
0.0
 11
166.6157675783
 21
49.5917034544
 31
0.0
  0
LINE
  5
6E
330
1F
100
AcDbEntity
  8
0
  6
Continuous
 62
     7
370
    25
100
AcDbLine
 10
166.6157675783
 20
73.5917034544
 30
0.0
 11
166.3657675783
 21
73.8417034544
 31
0.0
  0
LINE
  5
6F
330
1F
100
AcDbEntity
  8
0
  6
Continuous
 62
     7
370
    25
100
AcDbLine
 10
168.3657675783
 20
73.5917034544
 30
0.0
 11
166.6157675783
 21
73.5917034544
 31
0.0
  0
LINE
  5
70
330
1F
100
AcDbEntity
  8
0
  6
Continuous
 62
     7
370
    25
100
AcDbLine
 10
166.6157675783
 20
49.5917034544
 30
0.0
 11
168.3657675783
 21
49.5917034544
 31
0.0
  0
LINE
  5
71
330
1F
100
AcDbEntity
  8
0
  6
Continuous
 62
     7
370
    25
100
AcDbLine
 10
168.3657675783
 20
50.9942034544
 30
0.0
 11
177.6693763054
 21
51.2849412271
 31
0.0
  0
LINE
  5
72
330
1F
100
AcDbEntity
  8
0
  6
Continuous
 62
     7
370
    25
100
AcDbLine
 10
177.6693763054
 20
71.8984656817
 30
0.0
 11
168.3657675783
 21
72.1892034544
 31
0.0
  0
LINE
  5
73
330
1F
100
AcDbEntity
  8
0
  6
Continuous
 62
     7
370
    25
100
AcDbLine
 10
177.6693763054
 20
51.2849412271
 30
0.0
 11
180.3657675783
 21
52.8417034544
 31
0.0
  0
LINE
  5
74
330
1F
100
AcDbEntity
  8
0
  6
Continuous
 62
     7
370
    25
100
AcDbLine
 10
180.3657675783
 20
70.3417034544
 30
0.0
 11
177.6693763054
 21
71.8984656817
 31
0.0
  0
ARC
  5
75
330
1F
100
AcDbEntity
  8
0
  6
Continuous
 62
     7
370
    25
100
AcDbCircle
 10
162.1157675783
 20
76.0917034544
 30
0.0
 40
0.5
100
AcDbArc
 50
180.0
 51
270.0
  0
ARC
  5
76
330
1F
100
AcDbEntity
  8
0
  6
Continuous
 62
     7
370
    25
100
AcDbCircle
 10
144.6157675783
 20
76.0917034544
 30
0.0
 40
0.5
100
AcDbArc
 50
270.0
 51
0.0
  0
LINE
  5
77
330
1F
100
AcDbEntity
  8
0
  6
Continuous
 62
     7
370
    25
100
AcDbLine
 10
161.6157675783
 20
79.7917034544
 30
0.0
 11
161.1157675783
 21
80.2917034544
 31
0.0
  0
LINE
  5
78
330
1F
100
AcDbEntity
  8
0
  6
Continuous
 62
     7
370
    25
100
AcDbLine
 10
145.6157675783
 20
80.2917034544
 30
0.0
 11
145.1157675783
 21
79.7917034544
 31
0.0
  0
LINE
  5
79
330
1F
100
AcDbEntity
  8
0
  6
Continuous
 62
     7
370
    25
100
AcDbLine
 10
161.6157675783
 20
76.0917034544
 30
0.0
 11
161.6157675783
 21
79.7917034544
 31
0.0
  0
LINE
  5
7A
330
1F
100
AcDbEntity
  8
0
  6
Continuous
 62
     7
370
    25
100
AcDbLine
 10
145.1157675783
 20
79.7917034544
 30
0.0
 11
145.1157675783
 21
76.0917034544
 31
0.0
  0
LINE
  5
7B
330
1F
100
AcDbEntity
  8
0
  6
Continuous
 62
     7
370
    25
100
AcDbLine
 10
148.3657675783
 20
80.7917034544
 30
0.0
 11
148.3657675783
 21
80.2917034544
 31
0.0
  0
LINE
  5
7C
330
1F
100
AcDbEntity
  8
0
  6
Continuous
 62
     7
370
    25
100
AcDbLine
 10
158.3657675783
 20
80.2917034544
 30
0.0
 11
158.3657675783
 21
80.7917034544
 31
0.0
  0
ARC
  5
7D
330
1F
100
AcDbEntity
  8
0
  6
Continuous
 62
     7
370
    25
100
AcDbCircle
 10
153.3657675783
 20
78.2917034544
 30
0.0
 40
20.60000000000001
100
AcDbArc
 50
90.5612547719
 51
93.3558231766
  0
ARC
  5
7E
330
1F
100
AcDbEntity
  8
0
  6
Continuous
 62
     7
370
    25
100
AcDbCircle
 10
153.3657675783
 20
78.2917034544
 30
0.0
 40
20.60000000000002
100
AcDbArc
 50
86.6441768145
 51
89.4249938056
  0
ARC
  5
7F
330
1F
100
AcDbEntity
  8
0
  6
Continuous
 62
     7
370
    25
100
AcDbCircle
 10
161.3595379467
 20
90.7792827592
 30
0.0
 40
1.000000000000003
100
AcDbArc
 50
354.2894068625
 51
7.1250163489
  0
LINE
  5
80
330
1F
100
AcDbEntity
  8
0
  6
Continuous
 62
     7
370
    25
100
AcDbLine
 10
144.9591397217
 20
84.8579820207
 30
0.0
 11
145.1857675783
 21
82.5917034544
 31
0.0
  0
LINE
  5
81
330
1F
100
AcDbEntity
  8
0
  6
Continuous
 62
     7
370
    25
100
AcDbLine
 10
161.4107923924
 20
81.2419515949
 30
0.0
 11
162.3545751369
 21
90.6797790401
 31
0.0
  0
LINE
  5
82
330
1F
100
AcDbEntity
  8
0
  6
Continuous
 62
     7
370
    25
100
AcDbLine
 10
162.3518158234
 20
90.9033174937
 30
0.0
 11
161.4205154074
 21
98.3537208217
 31
0.0
  0
LINE
  5
83
330
1F
100
AcDbEntity
  8
0
  6
Continuous
 62
     7
370
    25
100
AcDbLine
 10
145.3110197492
 20
98.3537208217
 30
0.0
 11
145.1157675783
 21
96.7917034544
 31
0.0
  0
ARC
  5
84
330
1F
100
AcDbEntity
  8
0
  6
Continuous
 62
     7
370
    25
100
AcDbCircle
 10
145.8071586876
 20
98.2917034544
 30
0.0
 40
0.5000000000000299
100
AcDbArc
 50
90.0
 51
172.8749836511
  0
ARC
  5
85
330
1F
100
AcDbEntity
  8
0
  6
Continuous
 62
     7
370
    25
100
AcDbCircle
 10
160.924376469
 20
98.2917034544
 30
0.0
 40
0.5000000000000034
100
AcDbArc
 50
7.1250163489
 51
90.0
  0
ARC
  5
86
330
1F
100
AcDbEntity
  8
0
  6
Continuous
 62
     7
370
    25
100
AcDbCircle
 10
160.9132737973
 20
81.2917034544
 30
0.0
 40
0.5
100
AcDbArc
 50
270.0
 51
354.2894068625
  0
LINE
  5
87
330
1F
100
AcDbEntity
  8
0
  6
Continuous
 62
     7
370
    25
100
AcDbLine
 10
147.8657675783
 20
80.2917034544
 30
0.0
 11
147.8657675783
 21
80.7917034544
 31
0.0
  0
LINE
  5
88
330
1F
100
AcDbEntity
  8
0
  6
Continuous
 62
     7
370
    25
100
AcDbLine
 10
145.8657675783
 20
80.7949381864
 30
0.0
 11
145.8657675783
 21
80.2917034544
 31
0.0
  0
LINE
  5
89
330
1F
100
AcDbEntity
  8
0
  6
Continuous
 62
     7
370
    25
100
AcDbLine
 10
137.1157675783
 20
49.8234597825
 30
0.0
 11
137.1157675783
 21
48.0917034544
 31
0.0
  0
LINE
  5
8A
330
1F
100
AcDbEntity
  8
0
  6
Continuous
 62
     7
370
    25
100
AcDbLine
 10
137.1157675783
 20
75.0917034544
 30
0.0
 11
137.1157675783
 21
49.8234597825
 31
0.0
  0
LINE
  5
8B
330
1F
100
AcDbEntity
  8
0
  6
Continuous
 62
     7
370
    25
100
AcDbLine
 10
136.8657675783
 20
50.0413902209
 30
0.0
 11
136.8657675783
 21
74.8417034544
 31
0.0
  0
LINE
  5
8C
330
1F
100
AcDbEntity
  8
0
  6
Continuous
 62
     7
370
    25
100
AcDbLine
 10
136.8657675783
 20
48.3417034544
 30
0.0
 11
136.8657675783
 21
50.0413902209
 31
0.0
  0
LINE
  5
8D
330
1F
100
AcDbEntity
  8
0
  6
Continuous
 62
     7
370
    25
100
AcDbLine
 10
123.3657675783
 20
50.695181536
 30
0.0
 11
123.3657675783
 21
74.0917034544
 31
0.0
  0
LINE
  5
8E
330
1F
100
AcDbEntity
  8
0
  6
Continuous
 62
     7
370
    25
100
AcDbLine
 10
123.3657675783
 20
49.0917034544
 30
0.0
 11
123.3657675783
 21
50.695181536
 31
0.0
  0
LINE
  5
8F
330
1F
100
AcDbEntity
  8
0
  6
Continuous
 62
     7
370
    25
100
AcDbLine
 10
123.8657675783
 20
50.2593206593
 30
0.0
 11
123.8657675783
 21
48.5917034544
 31
0.0
  0
LINE
  5
90
330
1F
100
AcDbEntity
  8
0
  6
Continuous
 62
     7
370
    25
100
AcDbLine
 10
123.8657675783
 20
74.5917034544
 30
0.0
 11
123.8657675783
 21
50.2593206593
 31
0.0
  0
SPLINE
  5
91
330
1F
100
AcDbEntity
  8
0
  6
Continuous
 62
     7
370
    25
100
AcDbSpline
210
0.0
220
0.0
230
1.0
 70
     8
 71
     3
 72
    12
 73
     8
 74
     0
 42
0.00000001
 43
0.00000001
 40
0.0
 40
0.0
 40
0.0
 40
0.0
 40
0.2500000000000001
 40
0.2500000000000001
 40
0.5000000000000001
 40
0.5000000000000001
 40
1.0
 40
1.0
 40
1.0
 40
1.0
 10
164.922391905336
 20
52.85957885610166
 30
0.0
 10
165.1388470046636
 20
53.56800155651724
 30
0.0
 10
165.3384871571768
 20
54.28312424478518
 30
0.0
 10
165.6941949047095
 20
55.73068515707309
 30
0.0
 10
165.8485661486091
 20
56.45667786808359
 30
0.0
 10
166.2274583372641
 20
58.6425903559775
 30
0.0
 10
166.36576757831
 20
60.11063197705666
 30
0.0
 10
166.36576757831
 20
61.59170345438817
 30
0.0
  0
LINE
  5
92
330
1F
100
AcDbEntity
  8
0
  6
Continuous
 62
     7
370
    25
100
AcDbLine
 10
164.9223919053
 20
52.8595788561
 30
0.0
 11
141.8091432513
 21
52.8595788561
 31
0.0
  0
SPLINE
  5
93
330
1F
100
AcDbEntity
  8
0
  6
Continuous
 62
     7
370
    25
100
AcDbSpline
210
0.0
220
0.0
230
1.0
 70
     8
 71
     3
 72
    10
 73
     6
 74
     0
 42
0.00000001
 43
0.00000001
 40
0.0
 40
0.0
 40
0.0
 40
0.0
 40
0.5000000000000001
 40
0.5000000000000001
 40
1.0
 40
1.0
 40
1.0
 40
1.0
 10
141.809143251284
 20
52.85957885610167
 30
0.0
 10
141.3759514031607
 20
54.27734605030831
 30
0.0
 10
141.0092487136885
 20
55.72831623524427
 30
0.0
 10
140.5042948345878
 20
58.64115884452863
 30
0.0
 10
140.36576757831
 20
60.10930454569851
 30
0.0
 10
140.36576757831
 20
61.59170345438817
 30
0.0
  0
SPLINE
  5
94
330
1F
100
AcDbEntity
  8
0
  6
Continuous
 62
     7
370
    25
100
AcDbSpline
210
0.0
220
0.0
230
1.0
 70
     8
 71
     3
 72
    14
 73
    10
 74
     0
 42
0.00000001
 43
0.00000001
 40
0.0
 40
0.0
 40
0.0
 40
0.0
 40
0.1249999999999999
 40
0.1249999999999999
 40
0.2499999999999999
 40
0.2499999999999999
 40
0.5000000000000001
 40
0.5000000000000001
 40
1.0
 40
1.0
 40
1.0
 40
1.0
 10
140.36576757831
 20
61.59170345438817
 30
0.0
 10
140.36576757831
 20
61.96285070444714
 30
0.0
 10
140.3743021579887
 20
62.33487608591882
 30
0.0
 10
140.4085207696902
 20
63.0806913731131
 30
0.0
 10
140.4342791531127
 20
63.45477224413558
 30
0.0
 10
140.5355780906845
 20
64.56813001245902
 30
0.0
 10
140.6352725996871
 20
65.30237699940733
 30
0.0
 10
141.0160424830386
 20
67.48482068594967
 30
0.0
 10
141.3780438343323
 20
68.9129090489038
 30
0.0
 10
141.809143251284
 20
70.32382805267466
 30
0.0
  0
LINE
  5
95
330
1F
100
AcDbEntity
  8
0
  6
Continuous
 62
     7
370
    25
100
AcDbLine
 10
164.9223919053
 20
70.3238280527
 30
0.0
 11
141.8091432513
 21
70.3238280527
 31
0.0
  0
SPLINE
  5
96
330
1F
100
AcDbEntity
  8
0
  6
Continuous
 62
     7
370
    25
100
AcDbSpline
210
0.0
220
0.0
230
1.0
 70
     8
 71
     3
 72
    14
 73
    10
 74
     0
 42
0.00000001
 43
0.00000001
 40
0.0
 40
0.0
 40
0.0
 40
0.0
 40
0.125
 40
0.125
 40
0.2499999999999999
 40
0.2499999999999999
 40
0.4999999999999999
 40
0.4999999999999999
 40
1.0
 40
1.0
 40
1.0
 40
1.0
 10
166.36576757831
 20
61.59170345438817
 30
0.0
 10
166.36576757831
 20
61.96245294741956
 30
0.0
 10
166.3572513044957
 20
62.3340047427611
 30
0.0
 10
166.3231264904709
 20
63.07871856405843
 30
0.0
 10
166.2974148168902
 20
63.45276411480588
 30
0.0
 10
166.1960804152197
 20
64.56729787537137
 30
0.0
 10
166.096315665601
 20
65.30207760900333
 30
0.0
 10
165.7153688567664
 20
67.48552034064728
 30
0.0
 10
165.3533148418024
 20
68.91348664112671
 30
0.0
 10
164.9223919053359
 20
70.32382805267466
 30
0.0
  0
LINE
  5
97
330
1F
100
AcDbEntity
  8
0
  6
Continuous
 62
     7
370
    25
100
AcDbLine
 10
140.3657675783
 20
61.5917034544
 30
0.0
 11
140.3657675783
 21
75.5917034544
 31
0.0
  0
SPLINE
  5
98
330
1F
100
AcDbEntity
  8
0
  6
Continuous
 62
     7
370
    25
100
AcDbSpline
210
0.0
220
0.0
230
1.0
 70
    24
 71
     3
 72
    14
 73
    10
 74
     0
 42
0.00000001
 43
0.00000001
 40
0.0
 40
0.0
 40
0.0
 40
0.0
 40
0.125
 40
0.125
 40
0.25
 40
0.25
 40
0.5
 40
0.5
 40
1.0
 40
1.0
 40
1.0
 40
1.0
 10
140.36576757831
 20
75.59170345438818
 30
0.0
 10
140.36576757831
 20
75.59170345438818
 30
0.0
 10
140.3743021579885
 20
75.59170345438818
 30
0.0
 10
140.4085207696893
 20
75.59170345438818
 30
0.0
 10
140.4342791531115
 20
75.59170345438818
 30
0.0
 10
140.5355780906835
 20
75.59170345438818
 30
0.0
 10
140.6352725996866
 20
75.59170345438818
 30
0.0
 10
141.0160424830395
 20
75.59170345438817
 30
0.0
 10
141.3780438343335
 20
75.59170345438817
 30
0.0
 10
141.809143251284
 20
75.59170345438818
 30
0.0
  0
LINE
  5
99
330
1F
100
AcDbEntity
  8
0
  6
Continuous
 62
     7
370
    25
100
AcDbLine
 10
141.8091432513
 20
70.3238280527
 30
0.0
 11
141.8091432513
 21
75.5917034544
 31
0.0
  0
LINE
  5
9A
330
1F
100
AcDbEntity
  8
0
  6
Continuous
 62
     7
370
    25
100
AcDbLine
 10
152.8067505839
 20
75.5917034544
 30
0.0
 11
141.8091432513
 21
75.5917034544
 31
0.0
  0
LINE
  5
9B
330
1F
100
AcDbEntity
  8
0
  6
Continuous
 62
     7
370
    25
100
AcDbLine
 10
153.9247845727
 20
75.5917034544
 30
0.0
 11
152.8067505839
 21
75.5917034544
 31
0.0
  0
LINE
  5
9C
330
1F
100
AcDbEntity
  8
0
  6
Continuous
 62
     7
370
    25
100
AcDbLine
 10
164.9223919053
 20
75.5917034544
 30
0.0
 11
153.9247845727
 21
75.5917034544
 31
0.0
  0
LINE
  5
9D
330
1F
100
AcDbEntity
  8
0
  6
Continuous
 62
     7
370
    25
100
AcDbLine
 10
164.9223919053
 20
75.5917034544
 30
0.0
 11
164.9223919053
 21
70.3238280527
 31
0.0
  0
SPLINE
  5
9E
330
1F
100
AcDbEntity
  8
0
  6
Continuous
 62
     7
370
    25
100
AcDbSpline
210
0.0
220
0.0
230
1.0
 70
    24
 71
     3
 72
    14
 73
    10
 74
     0
 42
0.00000001
 43
0.00000001
 40
0.0
 40
0.0
 40
0.0
 40
0.0
 40
0.125
 40
0.125
 40
0.2500000000000001
 40
0.2500000000000001
 40
0.5
 40
0.5
 40
1.0
 40
1.0
 40
1.0
 40
1.0
 10
166.36576757831
 20
75.59170345438818
 30
0.0
 10
166.36576757831
 20
75.59170345438818
 30
0.0
 10
166.3572513044957
 20
75.59170345438818
 30
0.0
 10
166.3231264904709
 20
75.59170345438818
 30
0.0
 10
166.2974148168902
 20
75.59170345438818
 30
0.0
 10
166.1960804152197
 20
75.59170345438818
 30
0.0
 10
166.096315665601
 20
75.59170345438818
 30
0.0
 10
165.7153688567664
 20
75.59170345438818
 30
0.0
 10
165.3533148418024
 20
75.59170345438817
 30
0.0
 10
164.9223919053359
 20
75.59170345438818
 30
0.0
  0
LINE
  5
9F
330
1F
100
AcDbEntity
  8
0
  6
Continuous
 62
     7
370
    25
100
AcDbLine
 10
166.3657675783
 20
75.5917034544
 30
0.0
 11
166.3657675783
 21
61.5917034544
 31
0.0
  0
SPLINE
  5
A0
330
1F
100
AcDbEntity
  8
0
  6
Continuous
 62
     7
370
    25
100
AcDbSpline
210
0.0
220
0.0
230
1.0
 70
    24
 71
     3
 72
    14
 73
    10
 74
     0
 42
0.00000001
 43
0.00000001
 40
0.0
 40
0.0
 40
0.0
 40
0.0
 40
0.125
 40
0.125
 40
0.25
 40
0.25
 40
0.5
 40
0.5
 40
1.0
 40
1.0
 40
1.0
 40
1.0
 10
140.36576757831
 20
47.59170345438817
 30
0.0
 10
140.36576757831
 20
47.59170345438817
 30
0.0
 10
140.3743021579887
 20
47.59170345438817
 30
0.0
 10
140.4085207696902
 20
47.59170345438817
 30
0.0
 10
140.4342791531127
 20
47.59170345438817
 30
0.0
 10
140.5355780906845
 20
47.59170345438817
 30
0.0
 10
140.635272599687
 20
47.59170345438817
 30
0.0
 10
141.0160424830386
 20
47.59170345438817
 30
0.0
 10
141.3780438343323
 20
47.59170345438817
 30
0.0
 10
141.809143251284
 20
47.59170345438817
 30
0.0
  0
LINE
  5
A1
330
1F
100
AcDbEntity
  8
0
  6
Continuous
 62
     7
370
    25
100
AcDbLine
 10
141.8091432513
 20
47.5917034544
 30
0.0
 11
141.8091432513
 21
52.8595788561
 31
0.0
  0
LINE
  5
A2
330
1F
100
AcDbEntity
  8
0
  6
Continuous
 62
     7
370
    25
100
AcDbLine
 10
140.3657675783
 20
47.5917034544
 30
0.0
 11
140.3657675783
 21
61.5917034544
 31
0.0
  0
SPLINE
  5
A3
330
1F
100
AcDbEntity
  8
0
  6
Continuous
 62
     7
370
    25
100
AcDbSpline
210
0.0
220
0.0
230
1.0
 70
    24
 71
     3
 72
    14
 73
    10
 74
     0
 42
0.00000001
 43
0.00000001
 40
0.0
 40
0.0
 40
0.0
 40
0.0
 40
0.125
 40
0.125
 40
0.25
 40
0.25
 40
0.5
 40
0.5
 40
1.0
 40
1.0
 40
1.0
 40
1.0
 10
166.36576757831
 20
47.59170345438817
 30
0.0
 10
166.36576757831
 20
47.59170345438817
 30
0.0
 10
166.3572513044957
 20
47.59170345438817
 30
0.0
 10
166.3231264904709
 20
47.59170345438817
 30
0.0
 10
166.2974148168902
 20
47.59170345438817
 30
0.0
 10
166.1960804152197
 20
47.59170345438817
 30
0.0
 10
166.096315665601
 20
47.59170345438817
 30
0.0
 10
165.7153688567664
 20
47.59170345438817
 30
0.0
 10
165.3533148418024
 20
47.59170345438817
 30
0.0
 10
164.9223919053359
 20
47.59170345438817
 30
0.0
  0
LINE
  5
A4
330
1F
100
AcDbEntity
  8
0
  6
Continuous
 62
     7
370
    25
100
AcDbLine
 10
164.9223919053
 20
52.8595788561
 30
0.0
 11
164.9223919053
 21
47.5917034544
 31
0.0
  0
LINE
  5
A5
330
1F
100
AcDbEntity
  8
0
  6
Continuous
 62
     7
370
    25
100
AcDbLine
 10
166.3657675783
 20
61.5917034544
 30
0.0
 11
166.3657675783
 21
47.5917034544
 31
0.0
  0
LINE
  5
A6
330
1F
100
AcDbEntity
  8
0
  6
Continuous
 62
     7
370
    25
100
AcDbLine
 10
164.9223919053
 20
47.5917034544
 30
0.0
 11
141.8091432513
 21
47.5917034544
 31
0.0
  0
LINE
  5
A7
330
1F
100
AcDbEntity
  8
0
  6
Continuous
 62
     7
370
    25
100
AcDbLine
 10
166.6157675783
 20
73.5917034544
 30
0.0
 11
166.6157675783
 21
49.5917034544
 31
0.0
  0
LINE
  5
A8
330
1F
100
AcDbEntity
  8
0
  6
Continuous
 62
     7
370
    25
100
AcDbLine
 10
168.3657675783
 20
73.5917034544
 30
0.0
 11
168.3657675783
 21
49.5917034544
 31
0.0
  0
LINE
  5
A9
330
1F
100
AcDbEntity
  8
0
  6
Continuous
 62
     7
370
    25
100
AcDbLine
 10
177.6693763054
 20
61.5917034544
 30
0.0
 11
177.6693763054
 21
71.8984656817
 31
0.0
  0
LINE
  5
AA
330
1F
100
AcDbEntity
  8
0
  6
Continuous
 62
     7
370
    25
100
AcDbLine
 10
177.6693763054
 20
51.2849412271
 30
0.0
 11
177.6693763054
 21
61.5917034544
 31
0.0
  0
LINE
  5
AB
330
1F
100
AcDbEntity
  8
0
  6
Continuous
 62
     7
370
    25
100
AcDbLine
 10
180.3657675783
 20
70.3417034544
 30
0.0
 11
180.3657675783
 21
52.8417034544
 31
0.0
  0
SPLINE
  5
AC
330
1F
100
AcDbEntity
  8
0
  6
Continuous
 62
     7
370
    25
100
AcDbSpline
210
0.0
220
0.0
230
1.0
 70
    24
 71
     3
 72
     8
 73
     4
 74
     0
 42
0.00000001
 43
0.00000001
 40
0.0
 40
0.0
 40
0.0
 40
0.0
 40
1.0
 40
1.0
 40
1.0
 40
1.0
 10
152.8386944121851
 20
76.09170345438818
 30
0.0
 10
153.190076522935
 20
76.09170345438818
 30
0.0
 10
153.541458633685
 20
76.09170345438817
 30
0.0
 10
153.8928407444349
 20
76.09170345438817
 30
0.0
  0
ARC
  5
AD
330
1F
100
AcDbEntity
  8
0
  6
Continuous
 62
     7
370
    25
100
AcDbCircle
 10
155.8733580959
 20
75.9672136585
 30
0.0
 40
1.984426035127012
100
AcDbArc
 50
176.4032790661
 51
190.9077708916
  0
ARC
  5
AE
330
1F
100
AcDbEntity
  8
0
  6
Continuous
 62
     7
370
    25
100
AcDbCircle
 10
150.8581770607
 20
75.9672136585
 30
0.0
 40
1.984426035125681
100
AcDbArc
 50
349.0922291084
 51
3.5967209339
  0
LINE
  5
AF
330
1F
100
AcDbEntity
  8
0
  6
Continuous
 62
     7
370
    25
100
AcDbLine
 10
153.3657675783
 20
80.2917034544
 30
0.0
 11
161.1157675783
 21
80.2917034544
 31
0.0
  0
LINE
  5
B0
330
1F
100
AcDbEntity
  8
0
  6
Continuous
 62
     7
370
    25
100
AcDbLine
 10
145.6157675783
 20
80.2917034544
 30
0.0
 11
153.3657675783
 21
80.2917034544
 31
0.0
  0
LINE
  5
B1
330
1F
100
AcDbEntity
  8
0
  6
Continuous
 62
     7
370
    25
100
AcDbLine
 10
153.3657675783
 20
79.7917034544
 30
0.0
 11
145.1157675783
 21
79.7917034544
 31
0.0
  0
LINE
  5
B2
330
1F
100
AcDbEntity
  8
0
  6
Continuous
 62
     7
370
    25
100
AcDbLine
 10
161.6157675783
 20
79.7917034544
 30
0.0
 11
153.3657675783
 21
79.7917034544
 31
0.0
  0
ARC
  5
B3
330
1F
100
AcDbEntity
  8
0
  6
Continuous
 62
     7
370
    25
100
AcDbCircle
 10
152.2988159091
 20
96.4927795052
 30
0.0
 40
2.367678303497724
100
AcDbArc
 50
93.3632881501
 51
99.4868245017
  0
ARC
  5
B4
330
1F
100
AcDbEntity
  8
0
  6
Continuous
 62
     7
370
    25
100
AcDbCircle
 10
154.4327229341
 20
96.4928207559
 30
0.0
 40
2.367636907562265
100
AcDbArc
 50
80.5187694297
 51
86.6367422681
  0
SPLINE
  5
B5
330
1F
100
AcDbEntity
  8
0
  6
Continuous
 62
     7
370
    25
100
AcDbSpline
210
0.0
220
0.0
230
1.0
 70
     8
 71
     3
 72
    15
 73
    11
 74
     0
 42
0.00000001
 43
0.00000001
 40
0.0
 40
0.0
 40
0.0
 40
0.0
 40
0.1233867499278388
 40
0.2487396502211602
 40
0.3739317114754985
 40
0.4999973617625659
 40
0.6259591330513601
 40
0.7512551380600303
 40
0.8765613478174267
 40
1.0
 40
1.0
 40
1.0
 40
1.0
 10
153.3028847135039
 20
98.89159635169264
 30
0.0
 10
153.3057629146958
 20
98.8915970107648
 30
0.0
 10
153.3115651808074
 20
98.8915983394113
 30
0.0
 10
153.3270945855282
 20
98.89160228903845
 30
0.0
 10
153.3454491674016
 20
98.89160407138783
 30
0.0
 10
153.3657619838845
 20
98.89160562496579
 30
0.0
 10
153.3860804015996
 20
98.89160407083084
 30
0.0
 10
153.4044332707637
 20
98.89160229395029
 30
0.0
 10
153.4199713751593
 20
98.89159832643213
 30
0.0
 10
153.4257719371905
 20
98.89159700663618
 30
0.0
 10
153.4286504431161
 20
98.89159635169266
 30
0.0
  0
ARC
  5
B6
330
1F
100
AcDbEntity
  8
0
  6
Continuous
 62
     7
370
    25
100
AcDbCircle
 10
153.3037791412
 20
96.3472469389
 30
0.0
 40
2.544349570050338
100
AcDbArc
 50
90.0201414662
 51
95.4127462174
  0
SPLINE
  5
B7
330
1F
100
AcDbEntity
  8
0
  6
Continuous
 62
     7
370
    25
100
AcDbSpline
210
0.0
220
0.0
230
1.0
 70
     8
 71
     3
 72
    15
 73
    11
 74
     0
 42
0.00000001
 43
0.00000001
 40
0.0
 40
0.0
 40
0.0
 40
0.0
 40
0.1261585224210646
 40
0.2513121451548803
 40
0.3762846848783793
 40
0.4993062783340885
 40
0.6261594278645746
 40
0.7521171342021311
 40
0.87581969226928
 40
1.0
 40
1.0
 40
1.0
 40
1.0
 10
153.1266540526322
 20
98.87835322028194
 30
0.0
 10
153.1214229561436
 20
98.87830229453145
 30
0.0
 10
153.1110024308009
 20
98.8782008486731
 30
0.0
 10
153.0962158802865
 20
98.87819666703585
 30
0.0
 10
153.083025527661
 20
98.87829600585646
 30
0.0
 10
153.0721549528197
 20
98.87851654805954
 30
0.0
 10
153.0641473654912
 20
98.87884041546103
 30
0.0
 10
153.0599807384585
 20
98.87926028530846
 30
0.0
 10
153.0593596869469
 20
98.87973900237424
 30
0.0
 10
153.0622987993016
 20
98.88008029161978
 30
0.0
 10
153.0637711877844
 20
98.88025126512939
 30
0.0
  0
ARC
  5
B8
330
1F
100
AcDbEntity
  8
0
  6
Continuous
 62
     7
370
    25
100
AcDbCircle
 10
153.3657675783
 20
78.2917034544
 30
0.0
 40
20.58803836847347
100
AcDbArc
 50
89.3345405821
 51
90.66545941
  0
SPLINE
  5
B9
330
1F
100
AcDbEntity
  8
0
  6
Continuous
 62
     7
370
    25
100
AcDbSpline
210
0.0
220
0.0
230
1.0
 70
     8
 71
     3
 72
    15
 73
    11
 74
     0
 42
0.00000001
 43
0.00000001
 40
0.0
 40
0.0
 40
0.0
 40
0.0
 40
0.1241186784437694
 40
0.2478474916628982
 40
0.3736574149478941
 40
0.5005082335853295
 40
0.6234527658309924
 40
0.7484986612277525
 40
0.873697649245277
 40
1.0
 40
1.0
 40
1.0
 40
1.0
 10
153.6677639715616
 20
98.88025126509609
 30
0.0
 10
153.6692350441704
 20
98.8800803848176
 30
0.0
 10
153.6721725686488
 20
98.87973916100722
 30
0.0
 10
153.6715558341487
 20
98.87926062471975
 30
0.0
 10
153.6673938725541
 20
98.87884083484784
 30
0.0
 10
153.6593951247557
 20
98.87851704700142
 30
0.0
 10
153.6485290332189
 20
98.87829634879571
 30
0.0
 10
153.6353413153942
 20
98.87819675688556
 30
0.0
 10
153.620546868819
 20
98.87820067128418
 30
0.0
 10
153.6101182779117
 20
98.8783022220896
 30
0.0
 10
153.6048811067973
 20
98.8783532202493
 30
0.0
  0
ARC
  5
BA
330
1F
100
AcDbEntity
  8
0
  6
Continuous
 62
     7
370
    25
100
AcDbCircle
 10
153.4277560154
 20
96.3472468866
 30
0.0
 40
2.544349622299604
100
AcDbArc
 50
84.5872538302
 51
89.9798585321
  0
SPLINE
  5
BB
330
1F
100
AcDbEntity
  8
0
  6
Continuous
 62
     7
370
    25
100
AcDbSpline
210
0.0
220
0.0
230
1.0
 70
     8
 71
     3
 72
    13
 73
     9
 74
     0
 42
0.00000001
 43
0.00000001
 40
0.0
 40
0.0
 40
0.0
 40
0.0
 40
0.1374692963454099
 40
0.2749820892813126
 40
0.4163021045260215
 40
0.5576318202769773
 40
0.7770084914513207
 40
1.0
 40
1.0
 40
1.0
 40
1.0
 10
133.8415668109539
 20
90.06807605641443
 30
0.0
 10
134.3268947023176
 20
89.98183564698552
 30
0.0
 10
135.2977040473976
 20
89.80932754084341
 30
0.0
 10
136.7183964152073
 20
89.41034546752041
 30
0.0
 10
138.1104927402235
 20
88.91003605604814
 30
0.0
 10
139.7148519244651
 20
88.18121558444541
 30
0.0
 10
141.5057198000975
 20
87.16499663424375
 30
0.0
 10
142.7423831633124
 20
86.17741334794022
 30
0.0
 10
143.36576757831
 20
85.6795866575843
 30
0.0
  0
ELLIPSE
  5
BC
330
1F
100
AcDbEntity
  8
0
  6
Continuous
 62
     7
370
    25
100
AcDbEllipse
 10
255.8796630508
 20
83.4135261727
 30
0.0
 11
171.0000000000011
 21
1.421085471520200E-14
 31
0.0
210
0.0
220
0.0
230
1.0
 40
0.0555555556
 41
2.292395939553285
 42
2.365524293035123
  0
LINE
  5
BD
330
1F
100
AcDbEntity
  8
0
  6
Continuous
 62
     7
370
    25
100
AcDbLine
 10
142.9193842234
 20
90.545651245
 30
0.0
 11
143.3657675783
 21
90.5081892792
 31
0.0
  0
LINE
  5
BE
330
1F
100
AcDbEntity
  8
0
  6
Continuous
 62
     7
370
    25
100
AcDbLine
 10
143.3657675783
 20
85.6795866576
 30
0.0
 11
143.3657675783
 21
90.5081892792
 31
0.0
  0
SPLINE
  5
BF
330
1F
100
AcDbEntity
  8
0
  6
Continuous
 62
     7
370
    25
100
AcDbSpline
210
0.0
220
0.0
230
1.0
 70
     8
 71
     3
 72
    11
 73
     7
 74
     0
 42
0.00000001
 43
0.00000001
 40
0.0
 40
0.0
 40
0.0
 40
0.0
 40
0.2795638428677818
 40
0.5590315779132449
 40
0.7794196683689383
 40
0.9999999999999999
 40
0.9999999999999999
 40
0.9999999999999999
 40
0.9999999999999999
 10
130.9294396242325
 20
90.29170345438817
 30
0.0
 10
130.8058662784563
 20
90.33022230633625
 30
0.0
 10
130.5587620686679
 20
90.4072467683091
 30
0.0
 10
130.3050061607446
 20
90.94004466609879
 30
0.0
 10
130.1883877197642
 20
91.56778123296516
 30
0.0
 10
130.2149071057994
 20
91.9687640491338
 30
0.0
 10
130.2281725794099
 20
92.1693428618984
 30
0.0
  0
SPLINE
  5
C0
330
1F
100
AcDbEntity
  8
0
  6
Continuous
 62
     7
370
    25
100
AcDbSpline
210
0.0
220
0.0
230
1.0
 70
     8
 71
     3
 72
     9
 73
     5
 74
     0
 42
0.00000001
 43
0.00000001
 40
0.0
 40
0.0
 40
0.0
 40
0.0
 40
0.4986740982738612
 40
1.0
 40
1.0
 40
1.0
 40
1.0
 10
131.5197331204788
 20
92.19914388732884
 30
0.0
 10
131.3132594794091
 20
92.20060896658549
 30
0.0
 10
130.8992142306495
 20
92.20354691596309
 30
0.0
 10
130.4522481287046
 20
92.18076363703139
 30
0.0
 10
130.228172444606
 20
92.16934178917668
 30
0.0
  0
SPLINE
  5
C1
330
1F
100
AcDbEntity
  8
0
  6
Continuous
 62
     7
370
    25
100
AcDbSpline
210
0.0
220
0.0
230
1.0
 70
     8
 71
     3
 72
    13
 73
     9
 74
     0
 42
0.00000001
 43
0.00000001
 40
0.0
 40
0.0
 40
0.0
 40
0.0
 40
0.3327087167328941
 40
0.5628656559531299
 40
0.69871241253847
 40
0.8016200683166478
 40
0.9052998751809794
 40
1.0
 40
1.0
 40
1.0
 40
1.0
 10
133.5105338607495
 20
90.11625049323904
 30
0.0
 10
133.1481430304223
 20
90.20203606815718
 30
0.0
 10
132.5350621516689
 20
90.3471652801952
 30
0.0
 10
131.8855168270065
 20
90.79753197662247
 30
0.0
 10
131.5428198114085
 20
91.19727312522836
 30
0.0
 10
131.3938962002647
 20
91.5531653716399
 30
0.0
 10
131.381723480838
 20
91.90059921867413
 30
0.0
 10
131.4751400746582
 20
92.10267808985321
 30
0.0
 10
131.5197341171093
 20
92.19914396803738
 30
0.0
  0
SPLINE
  5
C2
330
1F
100
AcDbEntity
  8
0
  6
Continuous
 62
     7
370
    25
100
AcDbSpline
210
0.0
220
0.0
230
1.0
 70
     8
 71
     3
 72
     9
 73
     5
 74
     0
 42
0.00000001
 43
0.00000001
 40
0.0
 40
0.0
 40
0.0
 40
0.0
 40
0.5551829690770671
 40
0.9999999999999999
 40
0.9999999999999999
 40
0.9999999999999999
 40
0.9999999999999999
 10
130.9294396242325
 20
90.29170345438817
 30
0.0
 10
131.4594624979537
 20
90.2787044338971
 30
0.0
 10
132.4141439331611
 20
90.25529049432207
 30
0.0
 10
133.1729873743185
 20
90.15905685497036
 30
0.0
 10
133.5105338607495
 20
90.11625049323904
 30
0.0
  0
LINE
  5
C3
330
1F
100
AcDbEntity
  8
0
  6
Continuous
 62
     7
370
    25
100
AcDbLine
 10
142.9193842234
 20
95.7917034544
 30
0.0
 11
142.9193842234
 21
90.545651245
 31
0.0
  0
LINE
  5
C4
330
1F
100
AcDbEntity
  8
0
  6
Continuous
 62
     7
370
    25
100
AcDbLine
 10
143.3657675783
 20
95.7917034544
 30
0.0
 11
142.9193842234
 21
95.7917034544
 31
0.0
  0
LINE
  5
C5
330
1F
100
AcDbEntity
  8
0
  6
Continuous
 62
     7
370
    25
100
AcDbLine
 10
143.3657675783
 20
90.5081892792
 30
0.0
 11
143.3657675783
 21
95.7917034544
 31
0.0
  0
ARC
  5
C6
330
1F
100
AcDbEntity
  8
0
  6
Continuous
 62
     7
370
    25
100
AcDbCircle
 10
149.742196637
 20
96.1655496082
 30
0.0
 40
6.833046917558509
100
AcDbArc
 50
170.513808076
 51
183.1363032674
  0
ARC
  5
C7
330
1F
100
AcDbEntity
  8
0
  6
Continuous
 62
     7
370
    25
100
AcDbCircle
 10
142.998199712
 20
96.5014535059
 30
0.0
 40
0.7902621394874664
100
AcDbArc
 50
62.2819181136
 51
89.6817467964
  0
LINE
  5
C8
330
1F
100
AcDbEntity
  8
0
  6
Continuous
 62
     7
370
    25
100
AcDbLine
 10
143.3657675783
 20
95.7917034544
 30
0.0
 11
143.3657675783
 21
97.2010306016
 31
0.0
  0
LINE
  5
C9
330
1F
100
AcDbEntity
  8
0
  6
Continuous
 62
     7
370
    25
100
AcDbLine
 10
143.0025892528
 20
97.2917034544
 30
0.0
 11
131.5868599693
 21
97.2917034544
 31
0.0
  0
LINE
  5
CA
330
1F
100
AcDbEntity
  8
0
  6
Continuous
 62
     7
370
    25
100
AcDbLine
 10
133.5857062119
 20
95.7917034544
 30
0.0
 11
142.9193842234
 21
95.7917034544
 31
0.0
  0
SPLINE
  5
CB
330
1F
100
AcDbEntity
  8
0
  6
Continuous
 62
     7
370
    25
100
AcDbSpline
210
0.0
220
0.0
230
1.0
 70
     8
 71
     3
 72
    15
 73
    11
 74
     0
 42
0.00000001
 43
0.00000001
 40
0.0
 40
0.0
 40
0.0
 40
0.0
 40
0.2070474010410777
 40
0.4175968630246832
 40
0.5931232720441627
 40
0.6923428991082514
 40
0.7730996831079096
 40
0.8543284120985933
 40
0.926147516637204
 40
1.0
 40
1.0
 40
1.0
 40
1.0
 10
131.5842936826245
 20
97.29168872828215
 30
0.0
 10
131.8153829195894
 20
97.28783848944083
 30
0.0
 10
132.281470105181
 20
97.28007288768035
 30
0.0
 10
132.906067904488
 20
97.19342292494288
 30
0.0
 10
133.3677470949187
 20
97.02347241540026
 30
0.0
 10
133.6296507939025
 20
96.79410755805173
 30
0.0
 10
133.7501174500337
 20
96.55631409277238
 30
0.0
 10
133.7689114882294
 20
96.29440111549917
 30
0.0
 10
133.7078730962293
 20
96.02885871348377
 30
0.0
 10
133.6266780026146
 20
95.87156109047004
 30
0.0
 10
133.5855137688287
 20
95.79181444766901
 30
0.0
  0
LINE
  5
CC
330
1F
100
AcDbEntity
  8
0
  6
Continuous
 62
     7
370
    25
100
AcDbLine
 10
131.5195600468
 20
92.1992443737
 30
0.0
 11
133.5855137817
 21
95.7918144603
 31
0.0
  0
ARC
  5
CD
330
1F
100
AcDbEntity
  8
0
  6
Continuous
 62
     7
370
    25
100
AcDbCircle
 10
130.9294396243
 20
71.2186962071
 30
0.0
 40
19.07300724724771
100
AcDbArc
 50
81.2175477188
 51
82.2224666688
  0
SPLINE
  5
CE
330
1F
100
AcDbEntity
  8
0
  6
Continuous
 62
     7
370
    25
100
AcDbSpline
210
0.0
220
0.0
230
1.0
 70
     8
 71
     3
 72
    11
 73
     7
 74
     0
 42
0.00000001
 43
0.00000001
 40
0.0
 40
0.0
 40
0.0
 40
0.0
 40
0.2491150002829083
 40
0.4989585322854289
 40
0.749332827497652
 40
1.0
 40
1.0
 40
1.0
 40
1.0
 10
130.2281725794099
 20
92.16934286189839
 30
0.0
 10
129.8024612980965
 20
92.14308975392956
 30
0.0
 10
128.9497937515407
 20
92.09050676131498
 30
0.0
 10
127.5862279902888
 20
92.00618573108846
 30
0.0
 10
126.1855553730766
 20
91.91945246227677
 30
0.0
 10
125.2347351375894
 20
91.86047489684915
 30
0.0
 10
124.7590471250288
 20
91.83096887684998
 30
0.0
  0
SPLINE
  5
CF
330
1F
100
AcDbEntity
  8
0
  6
Continuous
 62
     7
370
    25
100
AcDbSpline
210
0.0
220
0.0
230
1.0
 70
     8
 71
     3
 72
     9
 73
     5
 74
     0
 42
0.00000001
 43
0.00000001
 40
0.0
 40
0.0
 40
0.0
 40
0.0
 40
0.5599987526606134
 40
1.0
 40
1.0
 40
1.0
 40
1.0
 10
127.3229484926862
 20
96.80479192854196
 30
0.0
 10
126.843182234799
 20
95.87695062869267
 30
0.0
 10
125.9864548660188
 20
94.2200874741927
 30
0.0
 10
125.1340891175461
 20
92.5609787742822
 30
0.0
 10
124.7590471250288
 20
91.83096887684998
 30
0.0
  0
SPLINE
  5
D0
330
1F
100
AcDbEntity
  8
0
  6
Continuous
 62
     7
370
    25
100
AcDbSpline
210
0.0
220
0.0
230
1.0
 70
     8
 71
     3
 72
     9
 73
     5
 74
     0
 42
0.00000001
 43
0.00000001
 40
0.0
 40
0.0
 40
0.0
 40
0.0
 40
0.5600000882143287
 40
1.0
 40
1.0
 40
1.0
 40
1.0
 10
127.8274356302384
 20
97.7786149802341
 30
0.0
 10
127.7332232147067
 20
97.59685610940231
 30
0.0
 10
127.5649867849016
 20
97.27228674833067
 30
0.0
 10
127.3969046272331
 20
96.94763754803385
 30
0.0
 10
127.3229484926862
 20
96.80479192854196
 30
0.0
  0
SPLINE
  5
D1
330
1F
100
AcDbEntity
  8
0
  6
Continuous
 62
     7
370
    25
100
AcDbSpline
210
0.0
220
0.0
230
1.0
 70
     8
 71
     3
 72
    10
 73
     6
 74
     0
 42
0.00000001
 43
0.00000001
 40
0.0
 40
0.0
 40
0.0
 40
0.0
 40
0.4283493666310625
 40
0.761660314114417
 40
0.9999999999999999
 40
0.9999999999999999
 40
0.9999999999999999
 40
0.9999999999999999
 10
127.8274356302385
 20
97.77861498023431
 30
0.0
 10
128.2743628315216
 20
97.67681871741115
 30
0.0
 10
129.0690569271212
 20
97.4958118581566
 30
0.0
 10
130.1056117281267
 20
97.32214947520353
 30
0.0
 10
130.6914770611271
 20
97.30066219730773
 30
0.0
 10
130.9357433162271
 20
97.29170345438806
 30
0.0
  0
LINE
  5
D2
330
1F
100
AcDbEntity
  8
0
  6
Continuous
 62
     7
370
    25
100
AcDbLine
 10
130.9336431562
 20
97.2917034544
 30
0.0
 11
131.5842966223
 21
97.2917034544
 31
0.0
  0
LINE
  5
D3
330
1F
100
AcDbEntity
  8
0
  6
Continuous
 62
     7
370
    25
100
AcDbLine
 10
143.3657675783
 20
97.2917034544
 30
0.0
 11
143.0025892528
 21
97.2917034544
 31
0.0
  0
LINE
  5
D4
330
1F
100
AcDbEntity
  8
0
  6
Continuous
 62
     7
370
    25
100
AcDbLine
 10
143.3657675783
 20
97.2010306016
 30
0.0
 11
143.3657675783
 21
97.2917034544
 31
0.0
  0
SPLINE
  5
D5
330
1F
100
AcDbEntity
  8
0
  6
Continuous
 62
     7
370
    25
100
AcDbSpline
210
0.0
220
0.0
230
1.0
 70
    24
 71
     3
 72
    11
 73
     7
 74
     0
 42
0.00000001
 43
0.00000001
 40
0.0
 40
0.0
 40
0.0
 40
0.0
 40
0.2799857774483056
 40
0.5599458358671284
 40
0.7799985659009365
 40
0.9999999999999999
 40
0.9999999999999999
 40
0.9999999999999999
 40
0.9999999999999999
 10
124.798299092211
 20
90.29170345438817
 30
0.0
 10
125.395623079295
 20
90.29170345438817
 30
0.0
 10
126.5902161842715
 20
90.29170345438817
 30
0.0
 10
128.2175779397542
 20
90.29170345438817
 30
0.0
 10
129.6733075092523
 20
90.29170345438817
 30
0.0
 10
130.5107614591601
 20
90.29170345438817
 30
0.0
 10
130.9294396242325
 20
90.29170345438817
 30
0.0
  0
SPLINE
  5
D6
330
1F
100
AcDbEntity
  8
0
  6
Continuous
 62
     7
370
    25
100
AcDbSpline
210
0.0
220
0.0
230
1.0
 70
     8
 71
     3
 72
    11
 73
     7
 74
     0
 42
0.00000001
 43
0.00000001
 40
0.0
 40
0.0
 40
0.0
 40
0.0
 40
0.2499999999999999
 40
0.4999999999999996
 40
0.75
 40
1.0
 40
1.0
 40
1.0
 40
1.0
 10
124.7982990922111
 20
90.29170345438817
 30
0.0
 10
124.7930680584509
 20
90.31502498669647
 30
0.0
 10
124.7826059909307
 20
90.36166805131307
 30
0.0
 10
124.7694915030634
 20
90.71964911967977
 30
0.0
 10
124.7604671595695
 20
91.22984205772173
 30
0.0
 10
124.7595204698757
 20
91.63059327047391
 30
0.0
 10
124.7590471250288
 20
91.83096887684998
 30
0.0
  0
SPLINE
  5
D7
330
1F
100
AcDbEntity
  8
0
  6
Continuous
 62
     7
370
    25
100
AcDbSpline
210
0.0
220
0.0
230
1.0
 70
     8
 71
     3
 72
    11
 73
     7
 74
     0
 42
0.00000001
 43
0.00000001
 40
0.0
 40
0.0
 40
0.0
 40
0.0
 40
0.2500000000000018
 40
0.4999999999999982
 40
0.7499999999999983
 40
1.0
 40
1.0
 40
1.0
 40
1.0
 10
140.3526970445289
 20
97.29170345438814
 30
0.0
 10
140.3543835150328
 20
97.29896576404029
 30
0.0
 10
140.3577564560407
 20
97.31349038334459
 30
0.0
 10
140.3620363529419
 20
97.42546258693709
 30
0.0
 10
140.3650784737557
 20
97.58597416496204
 30
0.0
 10
140.3655468469783
 20
97.7144013751435
 30
0.0
 10
140.3657810335896
 20
97.77861498023421
 30
0.0
  0
SPLINE
  5
D8
330
1F
100
AcDbEntity
  8
0
  6
Continuous
 62
     7
370
    25
100
AcDbSpline
210
0.0
220
0.0
230
1.0
 70
     8
 71
     3
 72
    13
 73
     9
 74
     0
 42
0.00000001
 43
0.00000001
 40
0.0
 40
0.0
 40
0.0
 40
0.0
 40
0.2886949682914849
 40
0.5545536835943153
 40
0.6780091910936107
 40
0.7888922083801198
 40
0.896419407140649
 40
1.0
 40
1.0
 40
1.0
 40
1.0
 10
140.3657810335896
 20
97.77861498023421
 30
0.0
 10
140.6375062241658
 20
97.73998482635623
 30
0.0
 10
141.1594626900203
 20
97.66578022813397
 30
0.0
 10
141.7570380981235
 20
97.58271750860538
 30
0.0
 10
142.120892278303
 20
97.53373657799675
 30
0.0
 10
142.3174397698687
 20
97.5077196182253
 30
0.0
 10
142.4437230589749
 20
97.49236080788103
 30
0.0
 10
142.458511560946
 20
97.49191982419356
 30
0.0
 10
142.46576757831
 20
97.49170345438817
 30
0.0
  0
SPLINE
  5
D9
330
1F
100
AcDbEntity
  8
0
  6
Continuous
 62
     7
370
    25
100
AcDbSpline
210
0.0
220
0.0
230
1.0
 70
     8
 71
     3
 72
    11
 73
     7
 74
     0
 42
0.00000001
 43
0.00000001
 40
0.0
 40
0.0
 40
0.0
 40
0.0
 40
0.2500000000000022
 40
0.4999999999999972
 40
0.75
 40
1.0
 40
1.0
 40
1.0
 40
1.0
 10
142.46576757831
 20
97.49170345438817
 30
0.0
 10
142.4910275165141
 20
97.4623257845564
 30
0.0
 10
142.5415473929224
 20
97.40357044489285
 30
0.0
 10
142.6404060021228
 20
97.34098030201388
 30
0.0
 10
142.7497932819463
 20
97.29944750038096
 30
0.0
 10
142.8271094795221
 20
97.29428480305243
 30
0.0
 10
142.86576757831
 20
97.29170345438817
 30
0.0
  0
LINE
  5
DA
330
1F
100
AcDbEntity
  8
0
  6
Continuous
 62
     7
370
    25
100
AcDbLine
 10
140.3657810336
 20
97.7786149802
 30
0.0
 11
127.8274356302
 21
97.7786149802
 31
0.0
  0
LINE
  5
DB
330
1F
100
AcDbEntity
  8
0
  6
Continuous
 62
     7
370
    25
100
AcDbLine
 10
142.4657675783
 20
97.4917034544
 30
0.0
 11
140.0657675783
 21
100.6917034544
 31
0.0
  0
LINE
  5
DC
330
1F
100
AcDbEntity
  8
0
  6
Continuous
 62
     7
370
    25
100
AcDbLine
 10
138.2422217801
 20
100.6100273182
 30
0.0
 11
140.3657810336
 21
97.7786149802
 31
0.0
  0
ELLIPSE
  5
DD
330
1F
100
AcDbEntity
  8
0
  6
Continuous
 62
     7
370
    25
100
AcDbEllipse
 10
138.2657675783
 20
100.5917034544
 30
0.0
 11
1.56006363488487
 21
0.4198716740993121
 31
0.0
210
0.0
220
0.0
230
0.9999999999999999
 40
0.0147408623
 41
0.933192981204764
 42
1.581922327328501
  0
SPLINE
  5
DE
330
1F
100
AcDbEntity
  8
0
  6
Continuous
 62
     7
370
    25
100
AcDbSpline
210
0.0
220
0.0
230
1.0
 70
     8
 71
     3
 72
    11
 73
     7
 74
     0
 42
0.00000001
 43
0.00000001
 40
0.0
 40
0.0
 40
0.0
 40
0.0
 40
0.2307374805226512
 40
0.4903955403005855
 40
0.7438105520730653
 40
1.0
 40
1.0
 40
1.0
 40
1.0
 10
139.189455581945
 20
100.8601194495415
 30
0.0
 10
139.2810875867045
 20
100.8788352999459
 30
0.0
 10
139.4758367292412
 20
100.9186128408573
 30
0.0
 10
139.7233442964791
 20
100.9012928522987
 30
0.0
 10
139.9331530258732
 20
100.8303079599725
 30
0.0
 10
140.0214025753536
 20
100.7380723421688
 30
0.0
 10
140.06576757831
 20
100.6917034543882
 30
0.0
  0
LINE
  5
DF
330
1F
100
AcDbEntity
  8
0
  6
Continuous
 62
     7
370
    25
100
AcDbLine
 10
124.759047125
 20
91.8309688768
 30
0.0
 11
103.1314989563
 21
91.8309688768
 31
0.0
  0
LINE
  5
E0
330
1F
100
AcDbEntity
  8
0
  6
Continuous
 62
     7
370
    25
100
AcDbLine
 10
103.1314989563
 20
91.8309688768
 30
0.0
 11
103.3539438675
 21
100.3257973133
 31
0.0
  0
ARC
  5
E1
330
1F
100
AcDbEntity
  8
0
  6
Continuous
 62
     7
370
    25
100
AcDbCircle
 10
103.9654839824
 20
99.8100273182
 30
0.0
 40
0.8000000000000114
100
AcDbArc
 50
90.0
 51
139.8558773282
  0
LINE
  5
E2
330
1F
100
AcDbEntity
  8
0
  6
Continuous
 62
     7
370
    25
100
AcDbLine
 10
103.9654839824
 20
100.6100273182
 30
0.0
 11
138.2422217801
 21
100.6100273182
 31
0.0
  0
SPLINE
  5
E3
330
1F
100
AcDbEntity
  8
0
  6
Continuous
 62
     7
370
    25
100
AcDbSpline
210
0.0
220
0.0
230
1.0
 70
     8
 71
     3
 72
    11
 73
     7
 74
     0
 42
0.00000001
 43
0.00000001
 40
0.0
 40
0.0
 40
0.0
 40
0.0
 40
0.2499999999999975
 40
0.5000000000000017
 40
0.7500000000000006
 40
1.0
 40
1.0
 40
1.0
 40
1.0
 10
103.9654839823748
 20
100.6100273182037
 30
0.0
 10
103.9658118436307
 20
100.6999263653307
 30
0.0
 10
103.9664675661423
 20
100.8797244595847
 30
0.0
 10
103.9707265352815
 20
101.1044406688197
 30
0.0
 10
103.9767183909434
 20
101.2612017538492
 30
0.0
 10
103.9814405083544
 20
101.2815362208752
 30
0.0
 10
103.9838015670599
 20
101.2917034543882
 30
0.0
  0
LINE
  5
E4
330
1F
100
AcDbEntity
  8
0
  6
Continuous
 62
     7
370
    25
100
AcDbLine
 10
138.2605393648
 20
101.2917034544
 30
0.0
 11
103.9838015671
 21
101.2917034544
 31
0.0
  0
SPLINE
  5
E5
330
1F
100
AcDbEntity
  8
0
  6
Continuous
 62
     7
370
    25
100
AcDbSpline
210
0.0
220
0.0
230
1.0
 70
     8
 71
     3
 72
    11
 73
     7
 74
     0
 42
0.00000001
 43
0.00000001
 40
0.0
 40
0.0
 40
0.0
 40
0.0
 40
0.2500000000000002
 40
0.5000000000000036
 40
0.7500000000000022
 40
1.0
 40
1.0
 40
1.0
 40
1.0
 10
138.2605393647976
 20
101.2917034543882
 30
0.0
 10
138.258178306092
 20
101.2815362208752
 30
0.0
 10
138.253456188681
 20
101.2612017538492
 30
0.0
 10
138.2474643330192
 20
101.1044406688197
 30
0.0
 10
138.2432053638799
 20
100.8797244595847
 30
0.0
 10
138.2425496413683
 20
100.6999263653307
 30
0.0
 10
138.2422217801125
 20
100.6100273182037
 30
0.0
  0
LINE
  5
E6
330
1F
100
AcDbEntity
  8
0
  6
Continuous
 62
     7
370
    25
100
AcDbLine
 10
138.8657675783
 20
101.2917034544
 30
0.0
 11
138.2605393648
 21
101.2917034544
 31
0.0
  0
SPLINE
  5
E7
330
1F
100
AcDbEntity
  8
0
  6
Continuous
 62
     7
370
    25
100
AcDbSpline
210
0.0
220
0.0
230
1.0
 70
     8
 71
     3
 72
    10
 73
     6
 74
     0
 42
0.00000001
 43
0.00000001
 40
0.0
 40
0.0
 40
0.0
 40
0.0
 40
0.2808335173386727
 40
0.561651091741416
 40
1.0
 40
1.0
 40
1.0
 40
1.0
 10
138.86576757831
 20
101.2917034543882
 30
0.0
 10
138.9041180272724
 20
101.2841288461203
 30
0.0
 10
138.98081674804
 20
101.2689800595954
 30
0.0
 10
139.105971098082
 20
101.1353491265357
 30
0.0
 10
139.1578401644352
 20
100.9643484121775
 30
0.0
 10
139.189455581945
 20
100.8601194495415
 30
0.0
  0
LINE
  5
E8
330
1F
100
AcDbEntity
  8
0
  6
Continuous
 62
     7
370
    25
100
AcDbLine
 10
103.1314989563
 20
91.8309688768
 30
0.0
 11
103.0885065288
 21
91.768081792
 31
0.0
  0
ELLIPSE
  5
E9
330
1F
100
AcDbEntity
  8
0
  6
Continuous
 62
     7
370
    25
100
AcDbEllipse
 10
98.8657675783
 20
91.7917034544
 30
0.0
 11
0.5000325503426524
 21
1.499994860147524
 31
0.0
210
0.0
220
0.0
230
1.0
 40
0.0078530307
 41
2.363888000157128
 42
3.144210503888254
  0
SPLINE
  5
EA
330
1F
100
AcDbEntity
  8
0
  6
Continuous
 62
     7
370
    25
100
AcDbSpline
210
0.0
220
0.0
230
1.0
 70
     8
 71
     3
 72
    12
 73
     8
 74
     0
 42
0.00000001
 43
0.00000001
 40
0.0
 40
0.0
 40
0.0
 40
0.0
 40
0.0715202026166143
 40
0.1260836237049453
 40
0.3855387013103031
 40
0.8475626424815589
 40
1.0
 40
1.0
 40
1.0
 40
1.0
 10
98.84033896530939
 20
91.12001140403736
 30
0.0
 10
98.82588483053054
 20
91.11690275617252
 30
0.0
 10
98.80040350324448
 20
91.1114224922292
 30
0.0
 10
98.7339317755982
 20
91.07183394680885
 30
0.0
 10
98.62922738846532
 20
90.96539981382647
 30
0.0
 10
98.54239882961892
 20
90.83489279811829
 30
0.0
 10
98.50940226290905
 20
90.74738308415495
 30
0.0
 10
98.50121637805813
 20
90.72567341817239
 30
0.0
  0
ELLIPSE
  5
EB
330
1F
100
AcDbEntity
  8
0
  6
Continuous
 62
     7
370
    25
100
AcDbEllipse
 10
66.9416307377
 20
91.7917034544
 30
0.0
 11
36.17607470647087
 21
0.04043410480180398
 31
0.0
210
0.0
220
0.0
230
1.0
 40
0.0414488012
 41
5.79192856228035
 42
6.243021298617555
  0
ELLIPSE
  5
EC
330
1F
100
AcDbEntity
  8
0
  6
Continuous
 62
     7
370
    25
100
AcDbEllipse
 10
103.1707509235
 20
91.7917034544
 30
0.0
 11
0.03725061189166468
 21
1.499998630535856
 31
0.0
210
0.0
220
0.0
230
1.0
 40
0.0544129722
 41
1.585352277991082
 42
1.587896030767899
  0
LINE
  5
ED
330
1F
100
AcDbEntity
  8
0
  6
Continuous
 62
     7
370
    25
100
AcDbLine
 10
98.3657675783
 20
90.2917034544
 30
0.0
 11
124.7982990922
 21
90.2917034544
 31
0.0
  0
SPLINE
  5
EE
330
1F
100
AcDbEntity
  8
0
  6
Continuous
 62
     7
370
    25
100
AcDbSpline
210
0.0
220
0.0
230
1.0
 70
     8
 71
     3
 72
    11
 73
     7
 74
     0
 42
0.00000001
 43
0.00000001
 40
0.0
 40
0.0
 40
0.0
 40
0.0
 40
0.256189465130731
 40
0.5096044939206912
 40
0.7692742066553654
 40
1.0
 40
1.0
 40
1.0
 40
1.0
 10
140.06576757831
 20
100.6917034543882
 30
0.0
 10
139.9901714460161
 20
100.7797138193766
 30
0.0
 10
139.8397978593414
 20
100.9547814299312
 30
0.0
 10
139.5405850733862
 20
101.1449689996328
 30
0.0
 10
139.2130653384994
 20
101.2689678003585
 30
0.0
 10
138.9768869576856
 20
101.2844290862376
 30
0.0
 10
138.86576757831
 20
101.2917034543882
 30
0.0
  0
LINE
  5
EF
330
1F
100
AcDbEntity
  8
0
  6
Continuous
 62
     7
370
    25
100
AcDbLine
 10
103.3386986433
 20
100.284513689
 30
0.0
 11
103.3118282844
 21
100.2979488684
 31
0.0
  0
LINE
  5
F0
330
1F
100
AcDbEntity
  8
0
  6
Continuous
 62
     7
370
    25
100
AcDbLine
 10
103.3386986433
 20
100.284513689
 30
0.0
 11
103.1167706371
 21
91.8094250583
 31
0.0
  0
SPLINE
  5
F1
330
1F
100
AcDbEntity
  8
0
  6
Continuous
 62
     7
370
    25
100
AcDbSpline
210
0.0
220
0.0
230
1.0
 70
     8
 71
     3
 72
     9
 73
     5
 74
     0
 42
0.00000001
 43
0.00000001
 40
0.0
 40
0.0
 40
0.0
 40
0.0
 40
0.8673350121727758
 40
1.0
 40
1.0
 40
1.0
 40
1.0
 10
103.0893989019856
 20
91.80371345025074
 30
0.0
 10
103.0891615163557
 20
91.79451502687553
 30
0.0
 10
103.0888878209249
 20
91.78390963997644
 30
0.0
 10
103.0886319344162
 20
91.77330401537506
 30
0.0
 10
103.0885979872356
 20
91.7718970203164
 30
0.0
  0
LINE
  5
F2
330
1F
100
AcDbEntity
  8
0
  6
Continuous
 62
     7
370
    25
100
AcDbLine
 10
103.3118282844
 20
100.2979488684
 30
0.0
 11
103.089398902
 21
91.8037134503
 31
0.0
  0
ARC
  5
F3
330
1F
100
AcDbEntity
  8
0
  6
Continuous
 62
     7
370
    25
100
AcDbCircle
 10
107.5645058006
 20
91.7967075023
 30
0.0
 40
8.750371682317954
100
AcDbArc
 50
182.878079786
 51
184.4353064954
  0
ELLIPSE
  5
F4
330
1F
100
AcDbEntity
  8
0
  6
Continuous
 62
     7
370
    25
100
AcDbEllipse
 10
66.9147603788
 20
91.8051386338
 30
0.0
 11
36.18915847374971
 21
0.02692057091445577
 31
0.0
210
0.0
220
0.0
230
1.0
 40
0.0276225703
 41
5.791964074121232
 42
6.25483629951347
  0
ARC
  5
F5
330
1F
100
AcDbEntity
  8
0
  6
Continuous
 62
     7
370
    25
100
AcDbCircle
 10
103.9461830646
 20
99.8105127056
 30
0.0
 40
0.8000000000000165
100
AcDbArc
 50
142.4614409777
 51
153.4349488229
  0
LINE
  5
F6
330
1F
100
AcDbEntity
  8
0
  6
Continuous
 62
     7
370
    25
100
AcDbLine
 10
98.8251714876
 20
91.3573439336
 30
0.0
 11
103.2306413118
 21
100.168283582
 31
0.0
  0
SPLINE
  5
F7
330
1F
100
AcDbEntity
  8
0
  6
Continuous
 62
     7
370
    25
100
AcDbSpline
210
0.0
220
0.0
230
1.0
 70
    24
 71
     3
 72
    11
 73
     7
 74
     0
 42
0.00000001
 43
0.00000001
 40
0.0
 40
0.0
 40
0.0
 40
0.0
 40
0.2500000000000016
 40
0.4999999999999979
 40
0.7499999999999992
 40
0.9999999999999999
 40
0.9999999999999999
 40
0.9999999999999999
 40
0.9999999999999999
 10
103.230641311833
 20
100.1682835820016
 30
0.0
 10
103.1524062035007
 20
100.2074011361677
 30
0.0
 10
102.9959359868362
 20
100.2856362445
 30
0.0
 10
102.8026098354198
 20
100.3822993202082
 30
0.0
 10
102.6682334031408
 20
100.4494875363477
 30
0.0
 10
102.6508516547536
 20
100.4581784105413
 30
0.0
 10
102.64216078056
 20
100.4625238476381
 30
0.0
  0
SPLINE
  5
F8
330
1F
100
AcDbEntity
  8
0
  6
Continuous
 62
     7
370
    25
100
AcDbSpline
210
0.0
220
0.0
230
1.0
 70
     8
 71
     3
 72
    12
 73
     8
 74
     0
 42
0.00000001
 43
0.00000001
 40
0.0
 40
0.0
 40
0.0
 40
0.0
 40
0.1396834586182491
 40
0.3831896274038308
 40
0.5513169293013305
 40
0.8194729461607058
 40
1.0
 40
1.0
 40
1.0
 40
1.0
 10
98.06321063740475
 20
91.30462356132763
 30
0.0
 10
98.07345201815104
 20
91.31793593498857
 30
0.0
 10
98.10154690433936
 20
91.35445538799654
 30
0.0
 10
98.20869726569414
 20
91.3921274485879
 30
0.0
 10
98.38903435310712
 20
91.41649476934943
 30
0.0
 10
98.59749049767613
 20
91.41537773458543
 30
0.0
 10
98.75984739838006
 20
91.37399444620789
 30
0.0
 10
98.82517148762845
 20
91.35734393359247
 30
0.0
  0
LINE
  5
F9
330
1F
100
AcDbEntity
  8
0
  6
Continuous
 62
     7
370
    25
100
AcDbLine
 10
102.6421607806
 20
100.4625238476
 30
0.0
 11
98.0632106374
 21
91.3046235613
 31
0.0
  0
LWPOLYLINE
  5
FA
330
1F
100
AcDbEntity
  8
0
  6
Continuous
 62
     7
370
    25
100
AcDbPolyline
 90
        9
 70
   128
 43
0.0
 10
98.0632106374
 20
91.3046235613
 10
98.0403601476
 20
91.2282930837
 10
98.0432652736
 20
91.1438930844
 10
98.0717668386
 20
91.0560479839
 10
98.1243031931
 20
90.9695709656
 10
98.1979957803
 20
90.8892002533
 10
98.2888068571
 20
90.8193394959
 10
98.3917607294
 20
90.7638164839
 10
98.5012163781
 20
90.7256734182
  0
LINE
  5
FB
330
1F
100
AcDbEntity
  8
0
  6
Continuous
 62
     7
370
    25
100
AcDbLine
 10
103.2193764234
 20
100.4364159483
 30
0.0
 11
102.8371638516
 21
100.7587721952
 31
0.0
  0
SPLINE
  5
FC
330
1F
100
AcDbEntity
  8
0
  6
Continuous
 62
     7
370
    25
100
AcDbSpline
210
0.0
220
0.0
230
1.0
 70
     8
 71
     3
 72
    12
 73
     8
 74
     0
 42
0.00000001
 43
0.00000001
 40
0.0
 40
0.0
 40
0.0
 40
0.0
 40
0.2198609600791261
 40
0.4397396970008124
 40
0.658329145139775
 40
0.8791239516843592
 40
1.0
 40
1.0
 40
1.0
 40
1.0
 10
103.353943867469
 20
100.3257973133187
 30
0.0
 10
103.2940288047401
 20
100.3762855294465
 30
0.0
 10
103.1741938348541
 20
100.4772660439235
 30
0.0
 10
103.0174588465796
 20
100.6089290368735
 30
0.0
 10
102.9008905227934
 20
100.7064903596466
 30
0.0
 10
102.8446338309991
 20
100.7531497511233
 30
0.0
 10
102.8391159597829
 20
100.7573028981247
 30
0.0
 10
102.8371638516114
 20
100.7587721952287
 30
0.0
  0
SPLINE
  5
FD
330
1F
100
AcDbEntity
  8
0
  6
Continuous
 62
     7
370
    25
100
AcDbSpline
210
0.0
220
0.0
230
1.0
 70
     8
 71
     3
 72
    12
 73
     8
 74
     0
 42
0.00000001
 43
0.00000001
 40
0.0
 40
0.0
 40
0.0
 40
0.0
 40
0.0006864401057837
 40
0.2840613788817063
 40
0.5703177902163716
 40
0.8469872112136456
 40
1.0
 40
1.0
 40
1.0
 40
1.0
 10
103.3166721027794
 20
100.3551210008163
 30
0.0
 10
103.3166313850223
 20
100.3551552954532
 30
0.0
 10
103.2997816378608
 20
100.3693470388638
 30
0.0
 10
103.2705527017479
 20
100.393879318713
 30
0.0
 10
103.2373066560491
 20
100.4217089034596
 30
0.0
 10
103.2216244329392
 20
100.4347097664325
 30
0.0
 10
103.2200442051332
 20
100.4359025793185
 30
0.0
 10
103.2194814751481
 20
100.4363273481873
 30
0.0
  0
SPLINE
  5
FE
330
1F
100
AcDbEntity
  8
0
  6
Continuous
 62
     7
370
    25
100
AcDbSpline
210
0.0
220
0.0
230
1.0
 70
     8
 71
     3
 72
    12
 73
     8
 74
     0
 42
0.00000001
 43
0.00000001
 40
0.0
 40
0.0
 40
0.0
 40
0.0
 40
0.222563413743527
 40
0.446206317369568
 40
0.6680851268158053
 40
0.8917990985569333
 40
1.0
 40
1.0
 40
1.0
 40
1.0
 10
102.7943863541915
 20
100.7056462597088
 30
0.0
 10
102.799972920294
 20
100.700219187095
 30
0.0
 10
102.8111731487835
 20
100.6893387191676
 30
0.0
 10
102.9052239264706
 20
100.6140452881473
 30
0.0
 10
103.0447149898686
 20
100.504566743394
 30
0.0
 10
103.189939089705
 20
100.3918521028475
 30
0.0
 10
103.2818622584351
 20
100.3210346454033
 30
0.0
 10
103.3118282844365
 20
100.2979488684393
 30
0.0
  0
LINE
  5
FF
330
1F
100
AcDbEntity
  8
0
  6
Continuous
 62
     7
370
    25
100
AcDbLine
 10
103.1908580918
 20
100.4009986579
 30
0.0
 11
102.7943863542
 21
100.7056462597
 31
0.0
  0
ARC
  5
100
330
1F
100
AcDbEntity
  8
0
  6
Continuous
 62
     7
370
    25
100
AcDbCircle
 10
103.9838015671
 20
99.7917034544
 30
0.0
 40
1.500000000000014
100
AcDbArc
 50
90.0
 51
139.8558773282
  0
ARC
  5
101
330
1F
100
AcDbEntity
  8
0
  6
Continuous
 62
     7
370
    25
100
AcDbCircle
 10
103.9838015671
 20
99.7917034544
 30
0.0
 40
1.50000000000002
100
AcDbArc
 50
142.4614409777
 51
153.4349488229
  0
LINE
  5
102
330
1F
100
AcDbEntity
  8
0
  6
Continuous
 62
     7
370
    25
100
AcDbLine
 10
97.9185539828
 20
91.0153102521
 30
0.0
 11
98.0632106374
 21
91.3046235613
 31
0.0
  0
ARC
  5
103
330
1F
100
AcDbEntity
  8
0
  6
Continuous
 62
     7
370
    25
100
AcDbCircle
 10
98.3657675783
 20
90.7917034544
 30
0.0
 40
0.5
100
AcDbArc
 50
153.4349488229
 51
270.0
  0
SPLINE
  5
104
330
1F
100
AcDbEntity
  8
0
  6
Continuous
 62
     7
370
    25
100
AcDbSpline
210
0.0
220
0.0
230
1.0
 70
     8
 71
     3
 72
     9
 73
     5
 74
     0
 42
0.00000001
 43
0.00000001
 40
0.0
 40
0.0
 40
0.0
 40
0.0
 40
0.5600029565045049
 40
1.0
 40
1.0
 40
1.0
 40
1.0
 10
102.8371638516114
 20
100.7587721952287
 30
0.0
 10
102.8290160922582
 20
100.7489857330688
 30
0.0
 10
102.8144665987985
 20
100.7315100000458
 30
0.0
 10
102.8005219558579
 20
100.71354903238
 30
0.0
 10
102.7943863541915
 20
100.7056462597088
 30
0.0
  0
LINE
  5
105
330
1F
100
AcDbEntity
  8
0
  6
Continuous
 62
     7
370
    25
100
AcDbLine
 10
144.9597067233
 20
90.6797790401
 30
0.0
 11
144.9618468385
 21
90.9033174937
 31
0.0
  0
SPLINE
  5
106
330
1F
100
AcDbEntity
  8
0
  6
Continuous
 62
     7
370
    25
100
AcDbSpline
210
0.0
220
0.0
230
1.0
 70
     8
 71
     3
 72
    10
 73
     6
 74
     0
 42
0.00000001
 43
0.00000001
 40
0.0
 40
0.0
 40
0.0
 40
0.0
 40
0.3536466237081639
 40
0.7182931081305522
 40
1.0
 40
1.0
 40
1.0
 40
1.0
 10
145.1109946870992
 20
88.73351039367392
 30
0.0
 10
145.0734876527899
 20
88.28997274355537
 30
0.0
 10
144.9973069615444
 20
87.38910160293482
 30
0.0
 10
145.0357433641576
 20
86.01109230812354
 30
0.0
 10
145.0987254834905
 20
85.09305827681867
 30
0.0
 10
145.1261756334107
 20
84.69294198892524
 30
0.0
  0
LINE
  5
107
330
1F
100
AcDbEntity
  8
0
  6
Continuous
 62
     7
370
    25
100
AcDbLine
 10
144.9597067233
 20
90.6797790401
 30
0.0
 11
145.1109946871
 21
88.7335103937
 31
0.0
  0
LINE
  5
108
330
1F
100
AcDbEntity
  8
0
  6
Continuous
 62
     7
370
    25
100
AcDbLine
 10
145.1857675783
 20
82.5917034544
 30
0.0
 11
145.2471223711
 21
82.5917034544
 31
0.0
  0
LWPOLYLINE
  5
109
330
1F
100
AcDbEntity
  8
0
  6
Continuous
 62
     7
370
    25
100
AcDbPolyline
 90
        3
 70
   128
 43
0.0
 10
145.3831349137
 20
81.2419515949
 10
145.3418361414
 20
81.6517527395
 10
145.2471223711
 20
82.5917034544
  0
SPLINE
  5
10A
330
1F
100
AcDbEntity
  8
0
  6
Continuous
 62
     7
370
    25
100
AcDbSpline
210
0.0
220
0.0
230
1.0
 70
     8
 71
     3
 72
    11
 73
     7
 74
     0
 42
0.00000001
 43
0.00000001
 40
0.0
 40
0.0
 40
0.0
 40
0.0
 40
0.2920574028183101
 40
0.5665622171831312
 40
0.806568238991561
 40
0.9999999999999999
 40
0.9999999999999999
 40
0.9999999999999999
 40
0.9999999999999999
 10
145.2495619712566
 20
96.7917034543882
 30
0.0
 10
145.2812225075721
 20
96.7748716583395
 30
0.0
 10
145.3426407886327
 20
96.7422196536428
 30
0.0
 10
145.4225531478973
 20
96.48682776660183
 30
0.0
 10
145.4616519616248
 20
96.15110485002718
 30
0.0
 10
145.4462355986952
 20
95.9026031552061
 30
0.0
 10
145.4393556857111
 20
95.79170345437609
 30
0.0
  0
LINE
  5
10B
330
1F
100
AcDbEntity
  8
0
  6
Continuous
 62
     7
370
    25
100
AcDbLine
 10
145.4393556857
 20
95.7917034544
 30
0.0
 11
144.9618468385
 21
90.9033174937
 31
0.0
  0
LINE
  5
10C
330
1F
100
AcDbEntity
  8
0
  6
Continuous
 62
     7
370
    25
100
AcDbLine
 10
145.8071586876
 20
98.7917034544
 30
0.0
 11
160.924376469
 21
98.7917034544
 31
0.0
  0
LINE
  5
10D
330
1F
100
AcDbEntity
  8
0
  6
Continuous
 62
     7
370
    25
100
AcDbLine
 10
160.9132737973
 20
80.7917034544
 30
0.0
 11
145.8848017232
 21
80.7917034544
 31
0.0
  0
SPLINE
  5
10E
330
1F
100
AcDbEntity
  8
0
  6
Continuous
 62
     7
370
    25
100
AcDbSpline
210
0.0
220
0.0
230
1.0
 70
     8
 71
     3
 72
    12
 73
     8
 74
     0
 42
0.00000001
 43
0.00000001
 40
0.0
 40
0.0
 40
0.0
 40
0.0
 40
0.2316347876629371
 40
0.4633066480819601
 40
0.6939442291381566
 40
0.922740652522644
 40
1.0
 40
1.0
 40
1.0
 40
1.0
 10
145.8848017232216
 20
80.79170345438817
 30
0.0
 10
145.8277484055729
 20
80.79729291941845
 30
0.0
 10
145.7136326389884
 20
80.8084727440634
 30
0.0
 10
145.5617793085103
 20
80.89579581001907
 30
0.0
 10
145.4476119256264
 20
81.02410598380112
 30
0.0
 10
145.3958575932591
 20
81.14878541049896
 30
0.0
 10
145.3856992422721
 20
81.22317341925223
 30
0.0
 10
145.3831349136646
 20
81.24195159487766
 30
0.0
  0
SPLINE
  5
10F
330
1F
100
AcDbEntity
  8
0
  6
Continuous
 62
     7
370
    25
100
AcDbSpline
210
0.0
220
0.0
230
1.0
 70
     8
 71
     3
 72
     9
 73
     5
 74
     0
 42
0.00000001
 43
0.00000001
 40
0.0
 40
0.0
 40
0.0
 40
0.0
 40
0.4474581094010265
 40
1.0
 40
1.0
 40
1.0
 40
1.0
 10
143.36576757831
 20
86.32401527356525
 30
0.0
 10
143.6394181799883
 20
86.09608233019836
 30
0.0
 10
144.250985153363
 20
85.58668728610805
 30
0.0
 10
144.814699720646
 20
85.01102146826786
 30
0.0
 10
145.1261756334107
 20
84.69294198892524
 30
0.0
  0
SPLINE
  5
110
330
1F
100
AcDbEntity
  8
0
  6
Continuous
 62
     7
370
    25
100
AcDbSpline
210
0.0
220
0.0
230
1.0
 70
     8
 71
     3
 72
     9
 73
     5
 74
     0
 42
0.00000001
 43
0.00000001
 40
0.0
 40
0.0
 40
0.0
 40
0.0
 40
0.7210175706402078
 40
0.9999999999999999
 40
0.9999999999999999
 40
0.9999999999999999
 40
0.9999999999999999
 10
143.7096960340074
 20
90.48950359062304
 30
0.0
 10
143.6407628150112
 20
90.55275440353236
 30
0.0
 10
143.5451573515618
 20
90.64047877459468
 30
0.0
 10
143.4048975879139
 20
90.68528796093864
 30
0.0
 10
143.36576757831
 20
90.6977889366025
 30
0.0
  0
ARC
  5
111
330
1F
100
AcDbEntity
  8
0
  6
Continuous
 62
     7
370
    25
100
AcDbCircle
 10
136.6435412394
 20
83.4135261727
 30
0.0
 40
10.00000000000001
100
AcDbArc
 50
32.1405798582
 51
45.0397956095
  0
LINE
  5
112
330
1F
100
AcDbEntity
  8
0
  6
Continuous
 62
     7
370
    25
100
AcDbLine
 10
143.709696034
 20
95.7917034544
 30
0.0
 11
143.709696034
 21
90.4895035906
 31
0.0
  0
LINE
  5
113
330
1F
100
AcDbEntity
  8
0
  6
Continuous
 62
     7
370
    25
100
AcDbLine
 10
145.4393556857
 20
95.7917034544
 30
0.0
 11
143.709696034
 21
95.7917034544
 31
0.0
  0
LINE
  5
114
330
1F
100
AcDbEntity
  8
0
  6
Continuous
 62
     7
370
    25
100
AcDbLine
 10
143.3657675783
 20
96.7917034544
 30
0.0
 11
145.2495619713
 21
96.7917034544
 31
0.0
  0
ARC
  5
115
330
1F
100
AcDbEntity
  8
0
  6
Continuous
 62
     7
370
    25
100
AcDbCircle
 10
105.7532269039
 20
103.5010486755
 30
0.0
 40
4.021945305545465
100
AcDbArc
 50
230.4243196696
 51
233.1058614851
  0
LINE
  5
116
330
1F
100
AcDbEntity
  8
0
  6
Continuous
 62
     7
370
    25
100
AcDbLine
 10
153.8928407444
 20
76.0917034544
 30
0.0
 11
161.6157675783
 21
76.0917034544
 31
0.0
  0
LINE
  5
117
330
1F
100
AcDbEntity
  8
0
  6
Continuous
 62
     7
370
    25
100
AcDbLine
 10
145.1157675783
 20
76.0917034544
 30
0.0
 11
152.8386944122
 21
76.0917034544
 31
0.0
  0
LINE
  5
118
330
1F
100
AcDbEntity
  8
0
  6
Continuous
 62
     7
370
    25
100
AcDbLine
 10
153.3028847135
 20
98.8796457898
 30
0.0
 11
153.3028847135
 21
98.8915963517
 31
0.0
  0
LINE
  5
119
330
1F
100
AcDbEntity
  8
0
  6
Continuous
 62
     7
370
    25
100
AcDbLine
 10
153.4286504431
 20
98.8796457898
 30
0.0
 11
153.4286504431
 21
98.8915963517
 31
0.0
  0
LINE
  5
11A
330
1F
100
AcDbEntity
  8
0
  6
Continuous
 62
     7
370
    25
100
AcDbLine
 10
144.9618468385
 20
90.9033174937
 30
0.0
 11
162.3518158234
 21
90.9033174938
 31
0.0
  0
LINE
  5
11B
330
1F
100
AcDbEntity
  8
0
  6
Continuous
 62
     7
370
    25
100
AcDbLine
 10
162.3545751369
 20
90.6797790401
 30
0.0
 11
144.9597067233
 21
90.6797790401
 31
0.0
  0
LINE
  5
11C
330
1F
100
AcDbEntity
  8
0
  6
Continuous
 62
     7
370
    25
100
AcDbLine
 10
145.3831349137
 20
81.2419515949
 30
0.0
 11
161.4107923924
 21
81.2419515949
 31
0.0
  0
LINE
  5
11D
330
1F
100
AcDbEntity
  8
0
  6
Continuous
 62
     7
370
    25
100
AcDbLine
 10
161.4205154074
 20
98.3537208217
 30
0.0
 11
145.3110197492
 21
98.3537208217
 31
0.0
  0
LINE
  5
11E
330
1F
100
AcDbEntity
  8
0
  6
Continuous
 62
     7
370
    25
100
AcDbLine
 10
143.3657675783
 20
95.7917034544
 30
0.0
 11
143.709696034
 21
95.7917034544
 31
0.0
  0
ARC
  5
11F
330
1F
100
AcDbEntity
  8
0
  6
Continuous
 62
     7
370
    25
100
AcDbCircle
 10
142.6038223151
 20
95.8463680375
 30
0.0
 40
1.107223960533115
100
AcDbArc
 50
357.1701084939
 51
46.5155082001
  0
LINE
  5
120
330
1F
100
AcDbEntity
  8
0
  6
Continuous
 62
     7
370
    25
100
AcDbLine
 10
103.1167706371
 20
91.8094250583
 30
0.0
 11
103.3386980735
 21
100.2844919295
 31
0.0
  0
LINE
  5
121
330
1F
100
AcDbEntity
  8
0
  6
Continuous
 62
     7
370
    25
100
AcDbLine
 10
103.3532418426
 20
100.2989880651
 30
0.0
 11
103.3386986433
 21
100.284513689
 31
0.0
  0
LINE
  5
122
330
1F
100
AcDbEntity
  8
0
  6
Continuous
 62
     7
370
    18
100
AcDbLine
 10
168.8657675783
 20
51.9168284544
 30
0.0
 11
179.3302434596
 21
52.2438433257
 31
0.0
  0
LINE
  5
123
330
1F
100
AcDbEntity
  8
0
  6
Continuous
 62
     7
370
    18
100
AcDbLine
 10
179.3302434596
 20
70.9395635831
 30
0.0
 11
168.8657675783
 21
71.2665784544
 31
0.0
  0
LINE
  5
124
330
1F
100
AcDbEntity
  8
0
  6
CENTERX2
 62
     7
370
    18
100
AcDbLine
 10
181.8743597085
 20
61.5917034544
 30
0.0
 11
121.7395331404
 21
61.5917034544
 31
0.0
  0
LINE
  5
125
330
1F
100
AcDbEntity
  8
0
  6
CENTERX2
 62
     7
370
    18
100
AcDbLine
 10
153.3657675783
 20
45.5991767145
 30
0.0
 11
153.3657675783
 21
100.7679140015
 31
0.0
  0
LINE
  5
126
330
1F
100
AcDbEntity
  8
0
  6
Continuous
 62
     7
370
    25
100
AcDbLine
 10
226.9602494812
 20
79.7917034544
 30
0.0
 11
226.4602494812
 21
80.2917034544
 31
0.0
  0
LINE
  5
127
330
1F
100
AcDbEntity
  8
0
  6
Continuous
 62
     7
370
    25
100
AcDbLine
 10
210.9602494812
 20
80.2917034544
 30
0.0
 11
210.4602494812
 21
79.7917034544
 31
0.0
  0
LINE
  5
128
330
1F
100
AcDbEntity
  8
0
  6
Continuous
 62
     7
370
    25
100
AcDbLine
 10
226.9602494812
 20
76.0917034544
 30
0.0
 11
226.9602494812
 21
79.7917034544
 31
0.0
  0
LINE
  5
129
330
1F
100
AcDbEntity
  8
0
  6
Continuous
 62
     7
370
    25
100
AcDbLine
 10
210.4602494812
 20
79.7917034544
 30
0.0
 11
210.4602494812
 21
76.0917034544
 31
0.0
  0
LINE
  5
12A
330
1F
100
AcDbEntity
  8
0
  6
Continuous
 62
     7
370
    25
100
AcDbLine
 10
213.7102494812
 20
82.5917034544
 30
0.0
 11
213.7102494812
 21
80.2917034544
 31
0.0
  0
LINE
  5
12B
330
1F
100
AcDbEntity
  8
0
  6
Continuous
 62
     7
370
    25
100
AcDbLine
 10
223.7102494812
 20
80.2917034544
 30
0.0
 11
223.7102494812
 21
80.7917034544
 31
0.0
  0
SPLINE
  5
12C
330
1F
100
AcDbEntity
  8
0
  6
Continuous
 62
     7
370
    25
100
AcDbSpline
210
0.0
220
0.0
230
1.0
 70
     8
 71
     3
 72
    14
 73
    10
 74
     0
 42
0.00000001
 43
0.00000001
 40
0.0
 40
0.0
 40
0.0
 40
0.0
 40
0.175543943116415
 40
0.4104674648056816
 40
0.5973009595264575
 40
0.7542856888314479
 40
0.8862136399687266
 40
0.9929730196771607
 40
1.0
 40
1.0
 40
1.0
 40
1.0
 10
210.4545673386845
 20
76.09417899651905
 30
0.0
 10
210.4526183176821
 20
76.04974929292364
 30
0.0
 10
210.4480609988963
 20
75.9458610728397
 30
0.0
 10
210.3730805295043
 20
75.80944123021983
 30
0.0
 10
210.269985443199
 20
75.70572819168883
 30
0.0
 10
210.1651994409697
 20
75.64515350988714
 30
0.0
 10
210.0700899899038
 20
75.61619541947097
 30
0.0
 10
210.0082210541531
 20
75.60626850858945
 30
0.0
 10
209.9800721719477
 20
75.60676319426857
 30
0.0
 10
209.9783338120835
 20
75.60679374403333
 30
0.0
  0
SPLINE
  5
12D
330
1F
100
AcDbEntity
  8
0
  6
Continuous
 62
     7
370
    25
100
AcDbSpline
210
0.0
220
0.0
230
1.0
 70
     8
 71
     3
 72
    12
 73
     8
 74
     0
 42
0.00000001
 43
0.00000001
 40
0.0
 40
0.0
 40
0.0
 40
0.0
 40
0.1357732677242562
 40
0.3732289823129796
 40
0.602969084337031
 40
0.8406434722130648
 40
1.0
 40
1.0
 40
1.0
 40
1.0
 10
227.4440900552584
 20
75.61101284057776
 30
0.0
 10
227.4100253904776
 20
75.61233023923913
 30
0.0
 10
227.3163845701448
 20
75.61595165433747
 30
0.0
 10
227.1742401641561
 20
75.68361109406007
 30
0.0
 10
227.0467819831787
 20
75.80763999616707
 30
0.0
 10
226.9695478828342
 20
75.9525488803047
 30
0.0
 10
226.9688903721156
 20
76.05313642525986
 30
0.0
 10
226.968626466659
 20
76.0935093062379
 30
0.0
  0
SPLINE
  5
12E
330
1F
100
AcDbEntity
  8
0
  6
Continuous
 62
     7
370
    25
100
AcDbSpline
210
0.0
220
0.0
230
1.0
 70
     8
 71
     3
 72
     9
 73
     5
 74
     0
 42
0.00000001
 43
0.00000001
 40
0.0
 40
0.0
 40
0.0
 40
0.0
 40
0.4993165458323517
 40
0.9999999999999999
 40
0.9999999999999999
 40
0.9999999999999999
 40
0.9999999999999999
 10
219.7195422760939
 20
101.2792708831399
 30
0.0
 10
219.6964116584467
 20
101.2826219187875
 30
0.0
 10
219.6500871017296
 20
101.2893331637394
 30
0.0
 10
219.6035277086013
 20
101.2850059944338
 30
0.0
 10
219.5802161908258
 20
101.2828394523591
 30
0.0
  0
SPLINE
  5
12F
330
1F
100
AcDbEntity
  8
0
  6
Continuous
 62
     7
370
    25
100
AcDbSpline
210
0.0
220
0.0
230
1.0
 70
     8
 71
     3
 72
     9
 73
     5
 74
     0
 42
0.00000001
 43
0.00000001
 40
0.0
 40
0.0
 40
0.0
 40
0.0
 40
0.5006834545219511
 40
1.0
 40
1.0
 40
1.0
 40
1.0
 10
217.8402827189458
 20
101.2828394522866
 30
0.0
 10
217.8169712042948
 20
101.2850059929519
 30
0.0
 10
217.7704118174397
 20
101.2893331594395
 30
0.0
 10
217.7240872671831
 20
101.2826219130848
 30
0.0
 10
217.7009566527782
 20
101.2792708767392
 30
0.0
  0
LINE
  5
130
330
1F
100
AcDbEntity
  8
0
  6
Continuous
 62
     7
370
    25
100
AcDbLine
 10
216.2343949629
 20
100.6237538439
 30
0.0
 11
216.1036176083
 21
97.7704923538
 31
0.0
  0
LINE
  5
131
330
1F
100
AcDbEntity
  8
0
  6
Continuous
 62
     7
370
    25
100
AcDbLine
 10
221.3168813541
 20
97.7704923538
 30
0.0
 11
221.1861039995
 21
100.6237538439
 31
0.0
  0
LINE
  5
132
330
1F
100
AcDbEntity
  8
0
  6
Continuous
 62
     7
370
    25
100
AcDbLine
 10
216.757275501
 20
101.2688547349
 30
0.0
 11
216.708844558
 21
101.2476502208
 31
0.0
  0
SPLINE
  5
133
330
1F
100
AcDbEntity
  8
0
  6
Continuous
 62
     7
370
    25
100
AcDbSpline
210
0.0
220
0.0
230
1.0
 70
     8
 71
     3
 72
     9
 73
     5
 74
     0
 42
0.00000001
 43
0.00000001
 40
0.0
 40
0.0
 40
0.0
 40
0.0
 40
0.0503631419175673
 40
0.9999999999999999
 40
0.9999999999999999
 40
0.9999999999999999
 40
0.9999999999999999
 10
216.2907572869634
 20
100.862262012329
 30
0.0
 10
216.2888612063693
 20
100.859091954965
 30
0.0
 10
216.251213027127
 20
100.7961479597473
 30
0.0
 10
216.2446725841117
 20
100.7210003610534
 30
0.0
 10
216.2384615383562
 20
100.6496374315373
 30
0.0
  0
SPLINE
  5
134
330
1F
100
AcDbEntity
  8
0
  6
Continuous
 62
     7
370
    25
100
AcDbSpline
210
0.0
220
0.0
230
1.0
 70
     8
 71
     3
 72
    11
 73
     7
 74
     0
 42
0.00000001
 43
0.00000001
 40
0.0
 40
0.0
 40
0.0
 40
0.0
 40
0.2436788845968627
 40
0.4915884466681965
 40
0.7437897073052004
 40
1.0
 40
1.0
 40
1.0
 40
1.0
 10
221.182037424033
 20
100.6496374315373
 30
0.0
 10
221.1707334672045
 20
100.7187567834341
 30
0.0
 10
221.1479292977431
 20
100.858195516051
 30
0.0
 10
221.0347644988386
 20
101.042849408591
 30
0.0
 10
220.8724809060283
 20
101.1934779144001
 30
0.0
 10
220.7333416661098
 20
101.243597390563
 30
0.0
 10
220.6632234613774
 20
101.2688547348803
 30
0.0
  0
SPLINE
  5
135
330
1F
100
AcDbEntity
  8
0
  6
Continuous
 62
     7
370
    25
100
AcDbSpline
210
0.0
220
0.0
230
1.0
 70
     8
 71
     3
 72
    10
 73
     6
 74
     0
 42
0.00000001
 43
0.00000001
 40
0.0
 40
0.0
 40
0.0
 40
0.0
 40
0.2663464296502968
 40
0.5214744039517492
 40
1.0
 40
1.0
 40
1.0
 40
1.0
 10
221.6650166781095
 20
97.31494923245445
 30
0.0
 10
221.619835214193
 20
97.33393529819398
 30
0.0
 10
221.5313753200751
 20
97.37110774059504
 30
0.0
 10
221.3847909806756
 20
97.50067485871095
 30
0.0
 10
221.3307668638986
 20
97.63115425015381
 30
0.0
 10
221.2955296296964
 20
97.71625944296636
 30
0.0
  0
SPLINE
  5
136
330
1F
100
AcDbEntity
  8
0
  6
Continuous
 62
     7
370
    25
100
AcDbSpline
210
0.0
220
0.0
230
1.0
 70
     8
 71
     3
 72
    10
 73
     6
 74
     0
 42
0.00000001
 43
0.00000001
 40
0.0
 40
0.0
 40
0.0
 40
0.0
 40
0.4785255960482602
 40
0.7336535703497064
 40
0.9999999999999999
 40
0.9999999999999999
 40
0.9999999999999999
 40
0.9999999999999999
 10
216.1249693326928
 20
97.71625944296633
 30
0.0
 10
216.0897320984906
 20
97.63115425015381
 30
0.0
 10
216.0357079817136
 20
97.50067485871095
 30
0.0
 10
215.889123642314
 20
97.37110774059501
 30
0.0
 10
215.8006637481962
 20
97.33393529819398
 30
0.0
 10
215.7554822842796
 20
97.31494923245445
 30
0.0
  0
ARC
  5
137
330
1F
100
AcDbEntity
  8
0
  6
Continuous
 62
     7
370
    25
100
AcDbCircle
 10
214.983511057
 20
95.7917034544
 30
0.0
 40
1.5
100
AcDbArc
 50
90.0
 51
180.0
  0
LINE
  5
138
330
1F
100
AcDbEntity
  8
0
  6
Continuous
 62
     7
370
    25
100
AcDbLine
 10
213.483511057
 20
95.7917034544
 30
0.0
 11
213.483511057
 21
90.5387488222
 31
0.0
  0
ARC
  5
139
330
1F
100
AcDbEntity
  8
0
  6
Continuous
 62
     7
370
    25
100
AcDbCircle
 10
222.4369879054
 20
95.7917034544
 30
0.0
 40
1.5
100
AcDbArc
 50
0.0
 51
90.0
  0
LINE
  5
13A
330
1F
100
AcDbEntity
  8
0
  6
Continuous
 62
     7
370
    25
100
AcDbLine
 10
223.9369879054
 20
90.5387488222
 30
0.0
 11
223.9369879054
 21
95.7917034544
 31
0.0
  0
LINE
  5
13B
330
1F
100
AcDbEntity
  8
0
  6
Continuous
 62
     7
370
    25
100
AcDbLine
 10
209.7214419226
 20
90.6797790401
 30
0.0
 11
210.5302494812
 21
82.5917034544
 31
0.0
  0
LINE
  5
13C
330
1F
100
AcDbEntity
  8
0
  6
Continuous
 62
     7
370
    25
100
AcDbLine
 10
226.7552742952
 20
81.2419515949
 30
0.0
 11
227.6990570398
 21
90.6797790401
 31
0.0
  0
ARC
  5
13D
330
1F
100
AcDbEntity
  8
0
  6
Continuous
 62
     7
370
    25
100
AcDbCircle
 10
226.7040198496
 20
90.7792827592
 30
0.0
 40
0.9999999999999971
100
AcDbArc
 50
354.2894068625
 51
7.1250163489
  0
ARC
  5
13E
330
1F
100
AcDbEntity
  8
0
  6
Continuous
 62
     7
370
    25
100
AcDbCircle
 10
210.7164791128
 20
90.7792827592
 30
0.0
 40
1.000000000000003
100
AcDbArc
 50
172.8749836511
 51
185.7105931375
  0
LINE
  5
13F
330
1F
100
AcDbEntity
  8
0
  6
Continuous
 62
     7
370
    25
100
AcDbLine
 10
227.6962977263
 20
90.9033174937
 30
0.0
 11
226.7649973103
 21
98.3537208217
 31
0.0
  0
LINE
  5
140
330
1F
100
AcDbEntity
  8
0
  6
Continuous
 62
     7
370
    25
100
AcDbLine
 10
210.6555016521
 20
98.3537208217
 30
0.0
 11
209.7242012361
 21
90.9033174937
 31
0.0
  0
ARC
  5
141
330
1F
100
AcDbEntity
  8
0
  6
Continuous
 62
     7
370
    25
100
AcDbCircle
 10
211.1516405905
 20
98.2917034544
 30
0.0
 40
0.5000000000000316
100
AcDbArc
 50
90.0
 51
172.8749836511
  0
ARC
  5
142
330
1F
100
AcDbEntity
  8
0
  6
Continuous
 62
     7
370
    25
100
AcDbCircle
 10
226.2688583719
 20
98.2917034544
 30
0.0
 40
0.5000000000000316
100
AcDbArc
 50
7.1250163489
 51
90.0
  0
ARC
  5
143
330
1F
100
AcDbEntity
  8
0
  6
Continuous
 62
     7
370
    25
100
AcDbCircle
 10
226.2577557001
 20
81.2917034544
 30
0.0
 40
0.5
100
AcDbArc
 50
270.0
 51
354.2894068625
  0
LINE
  5
144
330
1F
100
AcDbEntity
  8
0
  6
Continuous
 62
     7
370
    25
100
AcDbLine
 10
219.7102494812
 20
80.2917034544
 30
0.0
 11
219.7102494812
 21
80.7629123008
 31
0.0
  0
LINE
  5
145
330
1F
100
AcDbEntity
  8
0
  6
Continuous
 62
     7
370
    25
100
AcDbLine
 10
217.7102494812
 20
82.0917034544
 30
0.0
 11
217.7102494812
 21
80.2917034544
 31
0.0
  0
ARC
  5
146
330
1F
100
AcDbEntity
  8
0
  6
Continuous
 62
     7
370
    25
100
AcDbCircle
 10
217.9102494812
 20
82.0917034544
 30
0.0
 40
0.2000000000000171
100
AcDbArc
 50
90.0
 51
180.0
  0
ARC
  5
147
330
1F
100
AcDbEntity
  8
0
  6
Continuous
 62
     7
370
    25
100
AcDbCircle
 10
219.5102494812
 20
82.0917034544
 30
0.0
 40
0.2000000000000171
100
AcDbArc
 50
0.0
 51
90.0
  0
CIRCLE
  5
148
330
1F
100
AcDbEntity
  8
0
  6
Continuous
 62
     7
370
    25
100
AcDbCircle
 10
218.7102494812
 20
61.5917034544
 30
0.0
 40
12.5
  0
CIRCLE
  5
149
330
1F
100
AcDbEntity
  8
0
  6
Continuous
 62
     7
370
    25
100
AcDbCircle
 10
218.7102494812
 20
61.5917034544
 30
0.0
 40
13.00000000000001
  0
CIRCLE
  5
14A
330
1F
100
AcDbEntity
  8
0
  6
Continuous
 62
     7
370
    25
100
AcDbCircle
 10
218.7102494812
 20
61.5917034544
 30
0.0
 40
10.50000000000001
  0
CIRCLE
  5
14B
330
1F
100
AcDbEntity
  8
0
  6
Continuous
 62
     7
370
    25
100
AcDbCircle
 10
218.7102494812
 20
61.5917034544
 30
0.0
 40
9.499999999999995
  0
CIRCLE
  5
14C
330
1F
100
AcDbEntity
  8
0
  6
Continuous
 62
     7
370
    25
100
AcDbCircle
 10
218.7102494812
 20
61.5917034544
 30
0.0
 40
13.25
  0
CIRCLE
  5
14D
330
1F
100
AcDbEntity
  8
0
  6
Continuous
 62
     7
370
    25
100
AcDbCircle
 10
218.7102494812
 20
61.5917034544
 30
0.0
 40
13.50000000000001
  0
CIRCLE
  5
14E
330
1F
100
AcDbEntity
  8
0
  6
Continuous
 62
     7
370
    25
100
AcDbCircle
 10
218.7102494812
 20
61.5917034544
 30
0.0
 40
4.999999999999991
  0
ARC
  5
14F
330
1F
100
AcDbEntity
  8
0
  6
Continuous
 62
     7
370
    25
100
AcDbCircle
 10
218.7102494812
 20
61.5917034544
 30
0.0
 40
16.5
100
AcDbArc
 50
121.9527464003
 51
148.0472535997
  0
SPLINE
  5
150
330
1F
100
AcDbEntity
  8
0
  6
Continuous
 62
     7
370
    25
100
AcDbSpline
210
0.0
220
0.0
230
1.0
 70
    24
 71
     3
 72
    10
 73
     6
 74
     0
 42
0.00000001
 43
0.00000001
 40
0.0
 40
0.0
 40
0.0
 40
0.0
 40
0.5
 40
0.5
 40
1.0
 40
1.0
 40
1.0
 40
1.0
 10
209.9781248829081
 20
75.59170345438818
 30
0.0
 10
211.3958920771196
 20
75.59170345438818
 30
0.0
 10
212.8468622620601
 20
75.59170345438818
 30
0.0
 10
215.7597048713441
 20
75.59170345438818
 30
0.0
 10
217.2278505725112
 20
75.59170345438818
 30
0.0
 10
218.7102494811946
 20
75.59170345438818
 30
0.0
  0
ARC
  5
151
330
1F
100
AcDbEntity
  8
0
  6
Continuous
 62
     7
370
    25
100
AcDbCircle
 10
218.7102494812
 20
61.5917034544
 30
0.0
 40
14.00000000000001
100
AcDbArc
 50
90.0
 51
180.0
  0
SPLINE
  5
152
330
1F
100
AcDbEntity
  8
0
  6
Continuous
 62
     7
370
    25
100
AcDbSpline
210
0.0
220
0.0
230
1.0
 70
    24
 71
     3
 72
    14
 73
    10
 74
     0
 42
0.00000001
 43
0.00000001
 40
0.0
 40
0.0
 40
0.0
 40
0.0
 40
0.125
 40
0.125
 40
0.25
 40
0.25
 40
0.5
 40
0.5
 40
1.0
 40
1.0
 40
1.0
 40
1.0
 10
204.7102494811946
 20
61.59170345438817
 30
0.0
 10
204.7102494811946
 20
61.96285070444715
 30
0.0
 10
204.7102494811946
 20
62.33487608591883
 30
0.0
 10
204.7102494811946
 20
63.0806913731131
 30
0.0
 10
204.7102494811946
 20
63.45477224413559
 30
0.0
 10
204.7102494811946
 20
64.56813001245904
 30
0.0
 10
204.7102494811946
 20
65.30237699940733
 30
0.0
 10
204.7102494811946
 20
67.48482068594967
 30
0.0
 10
204.7102494811946
 20
68.9129090489038
 30
0.0
 10
204.7102494811946
 20
70.32382805267467
 30
0.0
  0
ARC
  5
153
330
1F
100
AcDbEntity
  8
0
  6
Continuous
 62
     7
370
    25
100
AcDbCircle
 10
218.7102494812
 20
61.5917034544
 30
0.0
 40
16.49999999999999
100
AcDbArc
 50
211.9527464003
 51
238.0472535997
  0
SPLINE
  5
154
330
1F
100
AcDbEntity
  8
0
  6
Continuous
 62
     7
370
    25
100
AcDbSpline
210
0.0
220
0.0
230
1.0
 70
    24
 71
     3
 72
    10
 73
     6
 74
     0
 42
0.00000001
 43
0.00000001
 40
0.0
 40
0.0
 40
0.0
 40
0.0
 40
0.5
 40
0.5
 40
1.0
 40
1.0
 40
1.0
 40
1.0
 10
204.7102494811946
 20
52.85957885610167
 30
0.0
 10
204.7102494811946
 20
54.27734605030831
 30
0.0
 10
204.7102494811946
 20
55.72831623524427
 30
0.0
 10
204.7102494811946
 20
58.64115884452863
 30
0.0
 10
204.7102494811946
 20
60.10930454569851
 30
0.0
 10
204.7102494811946
 20
61.59170345438817
 30
0.0
  0
ARC
  5
155
330
1F
100
AcDbEntity
  8
0
  6
Continuous
 62
     7
370
    25
100
AcDbCircle
 10
218.7102494812
 20
61.5917034544
 30
0.0
 40
14.00000000000001
100
AcDbArc
 50
180.0
 51
270.0
  0
SPLINE
  5
156
330
1F
100
AcDbEntity
  8
0
  6
Continuous
 62
     7
370
    25
100
AcDbSpline
210
0.0
220
0.0
230
1.0
 70
    24
 71
     3
 72
    10
 73
     6
 74
     0
 42
0.00000001
 43
0.00000001
 40
0.0
 40
0.0
 40
0.0
 40
0.0
 40
0.5000000000000001
 40
0.5000000000000001
 40
1.0
 40
1.0
 40
1.0
 40
1.0
 10
209.9781248829081
 20
47.59170345438817
 30
0.0
 10
211.3958920771147
 20
47.59170345438817
 30
0.0
 10
212.8468622620507
 20
47.59170345438817
 30
0.0
 10
215.759704871335
 20
47.59170345438817
 30
0.0
 10
217.2278505725049
 20
47.59170345438817
 30
0.0
 10
218.7102494811946
 20
47.59170345438817
 30
0.0
  0
ARC
  5
157
330
1F
100
AcDbEntity
  8
0
  6
Continuous
 62
     7
370
    25
100
AcDbCircle
 10
218.7102494812
 20
61.5917034544
 30
0.0
 40
14.00000000000001
100
AcDbArc
 50
0.0
 51
90.0
  0
ARC
  5
158
330
1F
100
AcDbEntity
  8
0
  6
Continuous
 62
     7
370
    25
100
AcDbCircle
 10
218.7102494812
 20
61.5917034544
 30
0.0
 40
14.00000000000001
100
AcDbArc
 50
270.0
 51
0.0
  0
ARC
  5
159
330
1F
100
AcDbEntity
  8
0
  6
Continuous
 62
     7
370
    25
100
AcDbCircle
 10
218.7102494812
 20
61.5917034544
 30
0.0
 40
16.50000000000001
100
AcDbArc
 50
31.9527464003
 51
58.0472535997
  0
SPLINE
  5
15A
330
1F
100
AcDbEntity
  8
0
  6
Continuous
 62
     7
370
    25
100
AcDbSpline
210
0.0
220
0.0
230
1.0
 70
    24
 71
     3
 72
    14
 73
    10
 74
     0
 42
0.00000001
 43
0.00000001
 40
0.0
 40
0.0
 40
0.0
 40
0.0
 40
0.1249999999999999
 40
0.1249999999999999
 40
0.2499999999999999
 40
0.2499999999999999
 40
0.5000000000000001
 40
0.5000000000000001
 40
1.0
 40
1.0
 40
1.0
 40
1.0
 10
232.7102494811946
 20
61.59170345438817
 30
0.0
 10
232.7102494811946
 20
61.96285070444714
 30
0.0
 10
232.7102494811946
 20
62.33487608591882
 30
0.0
 10
232.7102494811946
 20
63.0806913731131
 30
0.0
 10
232.7102494811946
 20
63.45477224413558
 30
0.0
 10
232.7102494811946
 20
64.56813001245902
 30
0.0
 10
232.7102494811946
 20
65.30237699940733
 30
0.0
 10
232.7102494811946
 20
67.48482068594967
 30
0.0
 10
232.7102494811946
 20
68.9129090489038
 30
0.0
 10
232.7102494811946
 20
70.32382805267466
 30
0.0
  0
SPLINE
  5
15B
330
1F
100
AcDbEntity
  8
0
  6
Continuous
 62
     7
370
    25
100
AcDbSpline
210
0.0
220
0.0
230
1.0
 70
    24
 71
     3
 72
    14
 73
    10
 74
     0
 42
0.00000001
 43
0.00000001
 40
0.0
 40
0.0
 40
0.0
 40
0.0
 40
0.125
 40
0.125
 40
0.25
 40
0.25
 40
0.5
 40
0.5
 40
1.0
 40
1.0
 40
1.0
 40
1.0
 10
218.7102494811946
 20
75.59170345438818
 30
0.0
 10
219.0813967312497
 20
75.59170345438818
 30
0.0
 10
219.4534221127172
 20
75.59170345438818
 30
0.0
 10
220.1992373999028
 20
75.59170345438818
 30
0.0
 10
220.5733182709272
 20
75.59170345438818
 30
0.0
 10
221.6866760392592
 20
75.59170345438818
 30
0.0
 10
222.4209230262113
 20
75.59170345438818
 30
0.0
 10
224.603366712761
 20
75.59170345438817
 30
0.0
 10
226.0314550757143
 20
75.59170345438817
 30
0.0
 10
227.4423740794811
 20
75.59170345438818
 30
0.0
  0
SPLINE
  5
15C
330
1F
100
AcDbEntity
  8
0
  6
Continuous
 62
     7
370
    25
100
AcDbSpline
210
0.0
220
0.0
230
1.0
 70
    24
 71
     3
 72
    10
 73
     6
 74
     0
 42
0.00000001
 43
0.00000001
 40
0.0
 40
0.0
 40
0.0
 40
0.0
 40
0.5000000000000001
 40
0.5000000000000001
 40
1.0
 40
1.0
 40
1.0
 40
1.0
 10
232.7102494811946
 20
52.85957885610167
 30
0.0
 10
232.7102494811946
 20
54.27734605030831
 30
0.0
 10
232.7102494811946
 20
55.72831623524427
 30
0.0
 10
232.7102494811946
 20
58.64115884452863
 30
0.0
 10
232.7102494811946
 20
60.10930454569851
 30
0.0
 10
232.7102494811946
 20
61.59170345438817
 30
0.0
  0
ARC
  5
15D
330
1F
100
AcDbEntity
  8
0
  6
Continuous
 62
     7
370
    25
100
AcDbCircle
 10
218.7102494812
 20
61.5917034544
 30
0.0
 40
16.50000000000001
100
AcDbArc
 50
301.9527464003
 51
328.0472535997
  0
SPLINE
  5
15E
330
1F
100
AcDbEntity
  8
0
  6
Continuous
 62
     7
370
    25
100
AcDbSpline
210
0.0
220
0.0
230
1.0
 70
    24
 71
     3
 72
    14
 73
    10
 74
     0
 42
0.00000001
 43
0.00000001
 40
0.0
 40
0.0
 40
0.0
 40
0.0
 40
0.125
 40
0.125
 40
0.25
 40
0.25
 40
0.5
 40
0.5
 40
1.0
 40
1.0
 40
1.0
 40
1.0
 10
218.7102494811946
 20
47.59170345438817
 30
0.0
 10
219.0813967312536
 20
47.59170345438817
 30
0.0
 10
219.4534221127253
 20
47.59170345438817
 30
0.0
 10
220.1992373999195
 20
47.59170345438817
 30
0.0
 10
220.573318270942
 20
47.59170345438817
 30
0.0
 10
221.6866760392654
 20
47.59170345438817
 30
0.0
 10
222.4209230262138
 20
47.59170345438817
 30
0.0
 10
224.6033667127561
 20
47.59170345438817
 30
0.0
 10
226.0314550757102
 20
47.59170345438817
 30
0.0
 10
227.4423740794811
 20
47.59170345438817
 30
0.0
  0
ARC
  5
15F
330
1F
100
AcDbEntity
  8
0
  6
Continuous
 62
     7
370
    25
100
AcDbCircle
 10
209.9776136344
 20
76.0911932503
 30
0.0
 40
0.4994900575603813
100
AcDbArc
 50
270.0586445851
 51
0.0585247798
  0
LINE
  5
160
330
1F
100
AcDbEntity
  8
0
  6
Continuous
 62
     7
370
    25
100
AcDbLine
 10
210.4771034314
 20
76.0917034544
 30
0.0
 11
226.943395531
 21
76.0917034544
 31
0.0
  0
ARC
  5
161
330
1F
100
AcDbEntity
  8
0
  6
Continuous
 62
     7
370
    25
100
AcDbCircle
 10
227.442885328
 20
76.0911932503
 30
0.0
 40
0.4994900575603529
100
AcDbArc
 50
179.9414752202
 51
269.9413554149
  0
LINE
  5
162
330
1F
100
AcDbEntity
  8
0
  6
Continuous
 62
     7
370
    25
100
AcDbLine
 10
210.9602494812
 20
80.2917034544
 30
0.0
 11
226.4602494812
 21
80.2917034544
 31
0.0
  0
LINE
  5
163
330
1F
100
AcDbEntity
  8
0
  6
Continuous
 62
     7
370
    25
100
AcDbLine
 10
226.9602494812
 20
79.7917034544
 30
0.0
 11
210.4602494812
 21
79.7917034544
 31
0.0
  0
ELLIPSE
  5
164
330
1F
100
AcDbEntity
  8
0
  6
Continuous
 62
     7
370
    25
100
AcDbEllipse
 10
218.5357109261
 20
92.0153102521
 30
0.0
 11
0.7234244958979731
 21
-0.7001325129304662
 31
0.0
210
0.0
220
0.0
230
1.0
 40
0.9869902583
 41
4.707649545362599
 42
5.487972049091451
  0
LINE
  5
165
330
1F
100
AcDbEntity
  8
0
  6
Continuous
 62
     7
370
    25
100
AcDbLine
 10
218.5488038869
 20
91.0153102521
 30
0.0
 11
218.5488038869
 21
90.2917034544
 31
0.0
  0
ELLIPSE
  5
166
330
1F
100
AcDbEntity
  8
0
  6
Continuous
 62
     7
370
    25
100
AcDbEllipse
 10
218.5357109261
 20
91.7917034544
 30
0.0
 11
1.074619436156723
 21
-1.056020081253692
 31
0.0
210
0.0
220
0.0
230
1.0
 40
0.9913091236
 41
4.71309943438348
 42
5.493421938112324
  0
LWPOLYLINE
  5
167
330
1F
100
AcDbEntity
  8
0
  6
Continuous
 62
     7
370
    25
100
AcDbPolyline
 90
        9
 70
   128
 43
0.0
 10
217.8412661067
 20
91.3046235613
 10
217.7555372246
 20
91.2282930837
 10
217.6745055747
 20
91.1438930844
 10
217.6026110198
 20
91.0560479839
 10
217.5437927856
 20
90.9695709656
 10
217.5012736239
 20
90.8892002533
 10
217.4773832322
 20
90.8193394959
 10
217.4734306061
 20
90.7638164839
 10
217.4896323167
 20
90.7256734182
  0
LINE
  5
168
330
1F
100
AcDbEntity
  8
0
  6
Continuous
 62
     7
370
    25
100
AcDbLine
 10
218.5488038869
 20
91.0153102521
 30
0.0
 11
218.8716950755
 21
91.0153102521
 31
0.0
  0
LINE
  5
169
330
1F
100
AcDbEntity
  8
0
  6
Continuous
 62
     7
370
    25
100
AcDbLine
 10
218.8716950755
 20
91.0153102521
 30
0.0
 11
218.8716950755
 21
90.2917034544
 31
0.0
  0
LINE
  5
16A
330
1F
100
AcDbEntity
  8
0
  6
Continuous
 62
     7
370
    25
100
AcDbLine
 10
218.8716950755
 20
90.2917034544
 30
0.0
 11
218.5488038869
 21
90.2917034544
 31
0.0
  0
ELLIPSE
  5
16B
330
1F
100
AcDbEntity
  8
0
  6
Continuous
 62
     7
370
    25
100
AcDbEllipse
 10
218.8847880363
 20
92.0153102521
 30
0.0
 11
0.7234244958980298
 21
0.7001325129304662
 31
0.0
210
0.0
220
0.0
230
1.0
 40
0.9869902583
 41
3.936805911678015
 42
4.717128415406846
  0
LWPOLYLINE
  5
16C
330
1F
100
AcDbEntity
  8
0
  6
Continuous
 62
     7
370
    25
100
AcDbPolyline
 90
        9
 70
   128
 43
0.0
 10
219.5792328557
 20
91.3046235613
 10
219.6649617378
 20
91.2282930837
 10
219.7459933877
 20
91.1438930844
 10
219.8178879426
 20
91.0560479839
 10
219.8767061768
 20
90.9695709656
 10
219.9192253385
 20
90.8892002533
 10
219.9431157302
 20
90.8193394959
 10
219.9470683563
 20
90.7638164839
 10
219.9308666457
 20
90.7256734182
  0
ELLIPSE
  5
16D
330
1F
100
AcDbEntity
  8
0
  6
Continuous
 62
     7
370
    25
100
AcDbEllipse
 10
218.8847880363
 20
91.7917034544
 30
0.0
 11
1.074619436156752
 21
1.056020081253678
 31
0.0
210
0.0
220
0.0
230
0.9999999999999999
 40
0.9913091236
 41
3.931356022657106
 42
4.711678526385946
  0
LINE
  5
16E
330
1F
100
AcDbEntity
  8
0
  6
Continuous
 62
     7
370
    25
100
AcDbLine
 10
217.8412661067
 20
91.3046235613
 30
0.0
 11
217.8412661067
 21
100.4625238476
 31
0.0
  0
LINE
  5
16F
330
1F
100
AcDbEntity
  8
0
  6
Continuous
 62
     7
370
    25
100
AcDbLine
 10
217.8412661067
 20
100.4625238476
 30
0.0
 11
219.5792328557
 21
100.4625238476
 31
0.0
  0
LINE
  5
170
330
1F
100
AcDbEntity
  8
0
  6
Continuous
 62
     7
370
    25
100
AcDbLine
 10
219.5792328557
 20
100.4625238476
 30
0.0
 11
219.5792328557
 21
91.3046235613
 31
0.0
  0
SPLINE
  5
171
330
1F
100
AcDbEntity
  8
0
  6
Continuous
 62
     7
370
    25
100
AcDbSpline
210
0.0
220
0.0
230
1.0
 70
     8
 71
     3
 72
    11
 73
     7
 74
     0
 42
0.00000001
 43
0.00000001
 40
0.0
 40
0.0
 40
0.0
 40
0.0
 40
0.2500000000000016
 40
0.4999999999999979
 40
0.7499999999999992
 40
0.9999999999999999
 40
0.9999999999999999
 40
0.9999999999999999
 40
0.9999999999999999
 10
220.2779681849646
 20
100.1682835820016
 30
0.0
 10
220.262968879798
 20
100.2074011361677
 30
0.0
 10
220.2329702694649
 20
100.2856362445
 30
0.0
 10
220.0694505666682
 20
100.3822993202082
 30
0.0
 10
219.8438709525858
 20
100.4494875363477
 30
0.0
 10
219.6674455546708
 20
100.4581784105413
 30
0.0
 10
219.5792328557133
 20
100.4625238476381
 30
0.0
  0
LINE
  5
172
330
1F
100
AcDbEntity
  8
0
  6
Continuous
 62
     7
370
    25
100
AcDbLine
 10
220.277968185
 20
91.3573439336
 30
0.0
 11
220.277968185
 21
100.168283582
 31
0.0
  0
SPLINE
  5
173
330
1F
100
AcDbEntity
  8
0
  6
Continuous
 62
     7
370
    25
100
AcDbSpline
210
0.0
220
0.0
230
1.0
 70
     8
 71
     3
 72
    12
 73
     8
 74
     0
 42
0.00000001
 43
0.00000001
 40
0.0
 40
0.0
 40
0.0
 40
0.0
 40
0.1396834586182491
 40
0.3831896274038308
 40
0.5513169293013305
 40
0.8194729461607058
 40
1.0
 40
1.0
 40
1.0
 40
1.0
 10
219.5792328557133
 20
91.30462356132763
 30
0.0
 10
219.6289477761918
 20
91.31793593498857
 30
0.0
 10
219.7653292922496
 20
91.35445538799654
 30
0.0
 10
219.9452454014617
 20
91.3921274485879
 30
0.0
 10
220.1235868298466
 20
91.41649476934943
 30
0.0
 10
220.244107054398
 20
91.41537773458543
 30
0.0
 10
220.268253067705
 20
91.37399444620789
 30
0.0
 10
220.2779681849646
 20
91.35734393359247
 30
0.0
  0
ARC
  5
174
330
1F
100
AcDbEntity
  8
0
  6
Continuous
 62
     7
370
    25
100
AcDbCircle
 10
219.7797140043
 20
91.3424909479
 30
0.0
 40
0.4984755156831663
100
AcDbArc
 50
333.492183249
 51
1.7074848132
  0
SPLINE
  5
175
330
1F
100
AcDbEntity
  8
0
  6
Continuous
 62
     7
370
    25
100
AcDbSpline
210
0.0
220
0.0
230
1.0
 70
     8
 71
     3
 72
    12
 73
     8
 74
     0
 42
0.00000001
 43
0.00000001
 40
0.0
 40
0.0
 40
0.0
 40
0.0
 40
0.0715202026166143
 40
0.1260836237049453
 40
0.3855387013103031
 40
0.8475626424815589
 40
1.0
 40
1.0
 40
1.0
 40
1.0
 10
220.2257865234035
 20
91.12001140403736
 30
0.0
 10
220.2238504776983
 20
91.11690275617252
 30
0.0
 10
220.2204374048988
 20
91.1114224922292
 30
0.0
 10
220.1982549543935
 20
91.07183394680885
 30
0.0
 10
220.1352414796272
 20
90.96539981382647
 30
0.0
 10
220.0381951541552
 20
90.83489279811829
 30
0.0
 10
219.952200460937
 20
90.74738308415495
 30
0.0
 10
219.9308666457354
 20
90.72567341817239
 30
0.0
  0
SPLINE
  5
176
330
1F
100
AcDbEntity
  8
0
  6
Continuous
 62
     7
370
    25
100
AcDbSpline
210
0.0
220
0.0
230
1.0
 70
     8
 71
     3
 72
    11
 73
     7
 74
     0
 42
0.00000001
 43
0.00000001
 40
0.0
 40
0.0
 40
0.0
 40
0.0
 40
0.2500000000000012
 40
0.5000000000000016
 40
0.7499999999999999
 40
1.0
 40
1.0
 40
1.0
 40
1.0
 10
217.1425307774246
 20
100.1682835820016
 30
0.0
 10
217.1575300825911
 20
100.2074011361677
 30
0.0
 10
217.1875286929243
 20
100.2856362445
 30
0.0
 10
217.3510483957209
 20
100.3822993202082
 30
0.0
 10
217.5766280098033
 20
100.4494875363477
 30
0.0
 10
217.7530534077184
 20
100.4581784105413
 30
0.0
 10
217.8412661066759
 20
100.4625238476381
 30
0.0
  0
SPLINE
  5
177
330
1F
100
AcDbEntity
  8
0
  6
Continuous
 62
     7
370
    25
100
AcDbSpline
210
0.0
220
0.0
230
1.0
 70
     8
 71
     3
 72
    13
 73
     9
 74
     0
 42
0.00000001
 43
0.00000001
 40
0.0
 40
0.0
 40
0.0
 40
0.0
 40
0.1143463544469907
 40
0.2890454840074678
 40
0.5294852105593203
 40
0.7014879056604271
 40
0.9335094878266192
 40
1.0
 40
1.0
 40
1.0
 40
1.0
 10
217.1425307774246
 20
91.35734393359249
 30
0.0
 10
217.1473653689297
 20
91.36873076535046
 30
0.0
 10
217.1595862818597
 20
91.39751447527031
 30
0.0
 10
217.2322343769007
 20
91.41776465271921
 30
0.0
 10
217.3627466433076
 20
91.40990732597358
 30
0.0
 10
217.5496142424772
 20
91.37737990964561
 30
0.0
 10
217.7109876472338
 20
91.34025855469375
 30
0.0
 10
217.8175339980857
 20
91.31111499157478
 30
0.0
 10
217.8412661066759
 20
91.30462356132763
 30
0.0
  0
LINE
  5
178
330
1F
100
AcDbEntity
  8
0
  6
Continuous
 62
     7
370
    25
100
AcDbLine
 10
217.1425307774
 20
100.168283582
 30
0.0
 11
217.1425307774
 21
91.3573439336
 31
0.0
  0
SPLINE
  5
179
330
1F
100
AcDbEntity
  8
0
  6
Continuous
 62
     7
370
    25
100
AcDbSpline
210
0.0
220
0.0
230
1.0
 70
     8
 71
     3
 72
    11
 73
     7
 74
     0
 42
0.00000001
 43
0.00000001
 40
0.0
 40
0.0
 40
0.0
 40
0.0
 40
0.3325271082490173
 40
0.7778992719027303
 40
0.9254453528959203
 40
1.0
 40
1.0
 40
1.0
 40
1.0
 10
217.4896323166538
 20
90.72567341817239
 30
0.0
 10
217.4444014935075
 20
90.77360996630057
 30
0.0
 10
217.3385904978919
 20
90.88575061577363
 30
0.0
 10
217.2508305234144
 20
91.02111083379083
 30
0.0
 10
217.2032176314766
 20
91.1061114675693
 30
0.0
 10
217.1968499415483
 20
91.11651810863545
 30
0.0
 10
217.1947124389857
 20
91.12001140403736
 30
0.0
  0
ARC
  5
17A
330
1F
100
AcDbEntity
  8
0
  6
Continuous
 62
     7
370
    25
100
AcDbCircle
 10
217.6407849581
 20
91.3424909479
 30
0.0
 40
0.4984755156838401
100
AcDbArc
 50
178.2925151868
 51
206.5078167509
  0
LINE
  5
17B
330
1F
100
AcDbEntity
  8
0
  6
Continuous
 62
     7
370
    25
100
AcDbLine
 10
217.8566436898
 20
90.2917034544
 30
0.0
 11
218.5488038869
 21
90.2917034544
 31
0.0
  0
SPLINE
  5
17C
330
1F
100
AcDbEntity
  8
0
  6
Continuous
 62
     7
370
    25
100
AcDbSpline
210
0.0
220
0.0
230
1.0
 70
     8
 71
     3
 72
    11
 73
     7
 74
     0
 42
0.00000001
 43
0.00000001
 40
0.0
 40
0.0
 40
0.0
 40
0.0
 40
0.25
 40
0.5000000000000004
 40
0.7500000000000006
 40
1.0
 40
1.0
 40
1.0
 40
1.0
 10
216.3576715386975
 20
91.83096887684998
 30
0.0
 10
216.3757478491155
 20
91.6305932704739
 30
0.0
 10
216.4119004699516
 20
91.22984205772173
 30
0.0
 10
216.7565262441521
 20
90.71964911967977
 30
0.0
 10
217.2573483302722
 20
90.36166805131309
 30
0.0
 10
217.656878569933
 20
90.31502498669647
 30
0.0
 10
217.8566436897634
 20
90.29170345438817
 30
0.0
  0
LINE
  5
17D
330
1F
100
AcDbEntity
  8
0
  6
Continuous
 62
     7
370
    25
100
AcDbLine
 10
216.9240088188
 20
91.8309688768
 30
0.0
 11
216.3576715387
 21
91.8309688768
 31
0.0
  0
SPLINE
  5
17E
330
1F
100
AcDbEntity
  8
0
  6
Continuous
 62
     7
370
    25
100
AcDbSpline
210
0.0
220
0.0
230
1.0
 70
     8
 71
     3
 72
     9
 73
     5
 74
     0
 42
0.00000001
 43
0.00000001
 40
0.0
 40
0.0
 40
0.0
 40
0.0
 40
0.5407747560677784
 40
1.0
 40
1.0
 40
1.0
 40
1.0
 10
216.9240088187779
 20
91.83096887685
 30
0.0
 10
216.9239793183651
 20
91.81963492304929
 30
0.0
 10
216.9239247662387
 20
91.79867618991037
 30
0.0
 10
216.9245290113736
 20
91.7777099970424
 30
0.0
 10
216.9248064959931
 20
91.76808179200827
 30
0.0
  0
ELLIPSE
  5
17F
330
1F
100
AcDbEntity
  8
0
  6
Continuous
 62
     7
370
    25
100
AcDbEllipse
 10
218.4229809698
 20
91.7917034544
 30
0.0
 11
-0.3999861399325368
 21
1.445826639360092
 31
0.0
210
0.0
220
0.0
230
0.9999999999999998
 40
0.9987379186
 41
1.314426961368851
 42
1.316970714136598
  0
ELLIPSE
  5
180
330
1F
100
AcDbEntity
  8
0
  6
Continuous
 62
     7
370
    25
100
AcDbEllipse
 10
219.3716738695
 20
91.7917034544
 30
0.0
 11
2.447559743736974
 21
-0.02501587584980314
 31
0.0
210
0.0
220
0.0
230
1.0
 40
0.6127700831
 41
3.171475350442053
 42
3.622568086779201
  0
LINE
  5
181
330
1F
100
AcDbEntity
  8
0
  6
Continuous
 62
     7
370
    25
100
AcDbLine
 10
220.4964901436
 20
91.8309688768
 30
0.0
 11
220.4956924664
 21
91.768081792
 31
0.0
  0
LINE
  5
182
330
1F
100
AcDbEntity
  8
0
  6
Continuous
 62
     7
370
    25
100
AcDbLine
 10
221.0628274237
 20
91.8309688768
 30
0.0
 11
220.4964901436
 21
91.8309688768
 31
0.0
  0
SPLINE
  5
183
330
1F
100
AcDbEntity
  8
0
  6
Continuous
 62
     7
370
    25
100
AcDbSpline
210
0.0
220
0.0
230
1.0
 70
     8
 71
     3
 72
    11
 73
     7
 74
     0
 42
0.00000001
 43
0.00000001
 40
0.0
 40
0.0
 40
0.0
 40
0.0
 40
0.2499999999999999
 40
0.4999999999999996
 40
0.75
 40
1.0
 40
1.0
 40
1.0
 40
1.0
 10
219.5638552726258
 20
90.29170345438817
 30
0.0
 10
219.7636203924562
 20
90.31502498669647
 30
0.0
 10
220.163150632117
 20
90.36166805131307
 30
0.0
 10
220.6639727182371
 20
90.71964911967977
 30
0.0
 10
221.0085984924376
 20
91.22984205772173
 30
0.0
 10
221.0447511132737
 20
91.63059327047391
 30
0.0
 10
221.0628274236917
 20
91.83096887684998
 30
0.0
  0
LINE
  5
184
330
1F
100
AcDbEntity
  8
0
  6
Continuous
 62
     7
370
    25
100
AcDbLine
 10
218.8716950755
 20
90.2917034544
 30
0.0
 11
219.5638552726
 21
90.2917034544
 31
0.0
  0
ELLIPSE
  5
185
330
1F
100
AcDbEntity
  8
0
  6
Continuous
 62
     7
370
    25
100
AcDbEllipse
 10
218.0488250928
 20
91.7917034544
 30
0.0
 11
2.447559743736946
 21
0.02501587584980314
 31
0.0
210
0.0
220
0.0
230
1.0
 40
0.6127700831
 41
5.802209873990222
 42
6.253302610327353
  0
ELLIPSE
  5
186
330
1F
100
AcDbEntity
  8
0
  6
Continuous
 62
     7
370
    25
100
AcDbEllipse
 10
218.9975179925
 20
91.7917034544
 30
0.0
 11
0.3999861399325368
 21
1.445826639360092
 31
0.0
210
0.0
220
0.0
230
0.9999999999999998
 40
0.9987379186
 41
4.966214593033911
 42
4.968758345810731
  0
ELLIPSE
  5
187
330
1F
100
AcDbEntity
  8
0
  6
Continuous
 62
     7
370
    25
100
AcDbEllipse
 10
217.0943766194
 20
99.8105127056
 30
0.0
 11
0.02159772760037982
 21
0.7999991561933372
 31
0.0
210
0.0
220
0.0
230
1.0
 40
0.0537988877
 41
5.177489007048634
 42
5.36901284944049
  0
ELLIPSE
  5
188
330
1F
100
AcDbEntity
  8
0
  6
Continuous
 62
     7
370
    25
100
AcDbEllipse
 10
218.8725772058
 20
91.8051386338
 30
0.0
 11
1.947791790405574
 21
-0.0177698114313074
 31
0.0
210
0.0
220
0.0
230
1.0
 40
0.513320833
 41
3.160788584408909
 42
3.623660809788553
  0
LINE
  5
189
330
1F
100
AcDbEntity
  8
0
  6
Continuous
 62
     7
370
    25
100
AcDbLine
 10
216.9249691821
 20
91.8037134502
 30
0.0
 11
217.1416502933
 21
100.2979488684
 31
0.0
  0
ELLIPSE
  5
18A
330
1F
100
AcDbEntity
  8
0
  6
Continuous
 62
     7
370
    25
100
AcDbEllipse
 10
220.326122343
 20
99.8105127056
 30
0.0
 11
-0.02159772760037982
 21
0.7999991561933372
 31
0.0
210
0.0
220
0.0
230
1.0
 40
0.0537988877
 41
0.9141724577395947
 42
1.105696300131281
  0
LINE
  5
18B
330
1F
100
AcDbEntity
  8
0
  6
Continuous
 62
     7
370
    25
100
AcDbLine
 10
220.2788486691
 20
100.2979488684
 30
0.0
 11
220.4955297803
 21
91.8037134503
 31
0.0
  0
ELLIPSE
  5
18C
330
1F
100
AcDbEntity
  8
0
  6
Continuous
 62
     7
370
    25
100
AcDbEllipse
 10
218.5479217566
 20
91.8051386338
 30
0.0
 11
1.947791790405546
 21
0.01776981143129319
 31
0.0
210
0.0
220
0.0
230
1.0
 40
0.513320833
 41
5.80111715098087
 42
6.263989376373029
  0
LINE
  5
18D
330
1F
100
AcDbEntity
  8
0
  6
Continuous
 62
     7
370
    25
100
AcDbLine
 10
216.9247488469
 20
91.7718970203
 30
0.0
 11
216.9249691821
 21
91.8037134502
 31
0.0
  0
SPLINE
  5
18E
330
1F
100
AcDbEntity
  8
0
  6
Continuous
 62
     7
370
    25
100
AcDbSpline
210
0.0
220
0.0
230
1.0
 70
     8
 71
     3
 72
     9
 73
     5
 74
     0
 42
0.00000001
 43
0.00000001
 40
0.0
 40
0.0
 40
0.0
 40
0.0
 40
0.8673350121727758
 40
1.0
 40
1.0
 40
1.0
 40
1.0
 10
220.49552978032
 20
91.80371345025074
 30
0.0
 10
220.4957005125072
 20
91.79451502687553
 30
0.0
 10
220.4958973593828
 20
91.78390963997644
 30
0.0
 10
220.4957673616176
 20
91.77330401537506
 30
0.0
 10
220.4957501154656
 20
91.7718970203164
 30
0.0
  0
ELLIPSE
  5
18F
330
1F
100
AcDbEntity
  8
0
  6
Continuous
 62
     7
370
    25
100
AcDbEllipse
 10
217.8107011107
 20
99.7917034544
 30
0.0
 11
0.02096000525713749
 21
1.499999971448745
 31
0.0
210
0.0
220
0.0
230
1.0
 40
0.013963099
 41
5.413231207418114
 42
6.283380418265287
  0
LINE
  5
190
330
1F
100
AcDbEntity
  8
0
  6
Continuous
 62
     7
370
    25
100
AcDbLine
 10
219.5888419333
 20
101.2917034544
 30
0.0
 11
217.831657029
 21
101.2917034544
 31
0.0
  0
ELLIPSE
  5
191
330
1F
100
AcDbEntity
  8
0
  6
Continuous
 62
     7
370
    25
100
AcDbEllipse
 10
219.6097978517
 20
99.7917034544
 30
0.0
 11
-0.0209600052571659
 21
1.499999971448744
 31
0.0
210
0.0
220
0.0
230
1.0
 40
0.013963099
 41
6.28299019609347
 42
7.153139406940247
  0
SPLINE
  5
192
330
1F
100
AcDbEntity
  8
0
  6
Continuous
 62
     7
370
    25
100
AcDbSpline
210
0.0
220
0.0
230
1.0
 70
     8
 71
     3
 72
     9
 73
     5
 74
     0
 42
0.00000001
 43
0.00000001
 40
0.0
 40
0.0
 40
0.0
 40
0.0
 40
0.5600029565045049
 40
1.0
 40
1.0
 40
1.0
 40
1.0
 10
219.5802735678185
 20
100.7587721952287
 30
0.0
 10
219.5802792058848
 20
100.7489857330688
 30
0.0
 10
219.580289273807
 20
100.7315100000458
 30
0.0
 10
219.5801670972036
 20
100.71354903238
 30
0.0
 10
219.5801133398593
 20
100.7056462597088
 30
0.0
  0
ELLIPSE
  5
193
330
1F
100
AcDbEntity
  8
0
  6
Continuous
 62
     7
370
    25
100
AcDbEllipse
 10
219.6273870137
 20
99.7917034544
 30
0.0
 11
-0.02155295842283067
 21
1.499999872388898
 31
0.0
210
0.0
220
0.0
230
1.0
 40
0.0287076702
 41
0.9152123852429305
 42
1.106736227634802
  0
ELLIPSE
  5
194
330
1F
100
AcDbEntity
  8
0
  6
Continuous
 62
     7
370
    25
100
AcDbEllipse
 10
217.7931119487
 20
99.7917034544
 30
0.0
 11
0.02155295842285909
 21
1.499999872388898
 31
0.0
210
0.0
220
0.0
230
0.9999999999999998
 40
0.0287076702
 41
5.176449079544719
 42
5.367972921936673
  0
SPLINE
  5
195
330
1F
100
AcDbEntity
  8
0
  6
Continuous
 62
     7
370
    25
100
AcDbSpline
210
0.0
220
0.0
230
1.0
 70
     8
 71
     3
 72
     9
 73
     5
 74
     0
 42
0.00000001
 43
0.00000001
 40
0.0
 40
0.0
 40
0.0
 40
0.0
 40
0.5599925069634167
 40
1.0
 40
1.0
 40
1.0
 40
1.0
 10
217.8403856225299
 20
100.7056462597087
 30
0.0
 10
217.8403198773785
 20
100.7156938540116
 30
0.0
 10
217.8402024737516
 20
100.7336362267718
 30
0.0
 10
217.8402183909042
 20
100.7510916695931
 30
0.0
 10
217.8402253945707
 20
100.7587721952287
 30
0.0
  0
SPLINE
  5
196
330
1F
100
AcDbEntity
  8
0
  6
Continuous
 62
     7
370
    25
100
AcDbSpline
210
0.0
220
0.0
230
1.0
 70
     8
 71
     3
 72
    12
 73
     8
 74
     0
 42
0.00000001
 43
0.00000001
 40
0.0
 40
0.0
 40
0.0
 40
0.0
 40
0.2225634137434379
 40
0.4462063173695245
 40
0.6680851268156933
 40
0.8917990985568367
 40
1.0
 40
1.0
 40
1.0
 40
1.0
 10
217.1416502932786
 20
100.2979488684393
 30
0.0
 10
217.1540034008453
 20
100.3455348117456
 30
0.0
 10
217.1787695317323
 20
100.44093750244
 30
0.0
 10
217.3113534597302
 20
100.565156235013
 30
0.0
 10
217.4977108632248
 20
100.6570460361175
 30
0.0
 10
217.6858016745781
 20
100.6995016151276
 30
0.0
 10
217.8023817074664
 20
100.7041356206427
 30
0.0
 10
217.8403856225299
 20
100.7056462597087
 30
0.0
  0
SPLINE
  5
197
330
1F
100
AcDbEntity
  8
0
  6
Continuous
 62
     7
370
    25
100
AcDbSpline
210
0.0
220
0.0
230
1.0
 70
     8
 71
     3
 72
    12
 73
     8
 74
     0
 42
0.00000001
 43
0.00000001
 40
0.0
 40
0.0
 40
0.0
 40
0.0
 40
0.222563413743527
 40
0.446206317369568
 40
0.6680851268158053
 40
0.8917990985569333
 40
1.0
 40
1.0
 40
1.0
 40
1.0
 10
219.5801133398593
 20
100.7056462597088
 30
0.0
 10
219.6586169999019
 20
100.700219187095
 30
0.0
 10
219.8160050829585
 20
100.6893387191676
 30
0.0
 10
220.0253566205859
 20
100.6140452881473
 30
0.0
 10
220.184115915056
 20
100.504566743394
 30
0.0
 10
220.2619647853726
 20
100.3918521028475
 30
0.0
 10
220.274697826206
 20
100.3210346454033
 30
0.0
 10
220.2788486691106
 20
100.2979488684393
 30
0.0
  0
SPLINE
  5
198
330
1F
100
AcDbEntity
  8
0
  6
Continuous
 62
     7
370
    25
100
AcDbSpline
210
0.0
220
0.0
230
1.0
 70
     8
 71
     3
 72
    12
 73
     8
 74
     0
 42
0.00000001
 43
0.00000001
 40
0.0
 40
0.0
 40
0.0
 40
0.0
 40
0.2198609600791261
 40
0.4397396970008124
 40
0.658329145139775
 40
0.8791239516843592
 40
1.0
 40
1.0
 40
1.0
 40
1.0
 10
220.2797939049827
 20
100.3257973133187
 30
0.0
 10
220.2691219103385
 20
100.3762855294465
 30
0.0
 10
220.2477770581669
 20
100.4772660439235
 30
0.0
 10
220.1196586629
 20
100.6089290368735
 30
0.0
 10
219.9367207268349
 20
100.7064903596466
 30
0.0
 10
219.7451715549477
 20
100.7531497511233
 30
0.0
 10
219.6233658832627
 20
100.7573028981247
 30
0.0
 10
219.5802735678185
 20
100.7587721952287
 30
0.0
  0
SPLINE
  5
199
330
1F
100
AcDbEntity
  8
0
  6
Continuous
 62
     7
370
    25
100
AcDbSpline
210
0.0
220
0.0
230
1.0
 70
     8
 71
     3
 72
    12
 73
     8
 74
     0
 42
0.00000001
 43
0.00000001
 40
0.0
 40
0.0
 40
0.0
 40
0.0
 40
0.2198610998683208
 40
0.4397399767664977
 40
0.6583294271823328
 40
0.8791242261983195
 40
1.0
 40
1.0
 40
1.0
 40
1.0
 10
217.8402253945707
 20
100.7587721952287
 30
0.0
 10
217.7615344848515
 20
100.7539484018791
 30
0.0
 10
217.6041463028022
 20
100.7443004251486
 30
0.0
 10
217.3948645543172
 20
100.6671262874868
 30
0.0
 10
217.2362152336529
 20
100.5532587782747
 30
0.0
 10
217.1561151709376
 20
100.431778208771
 30
0.0
 10
217.1447321336359
 20
100.3534929655266
 30
0.0
 10
217.1407050574065
 20
100.3257973133187
 30
0.0
  0
LINE
  5
19A
330
1F
100
AcDbEntity
  8
0
  6
Continuous
 62
     7
370
    25
100
AcDbLine
 10
219.7163315908
 20
101.2667690761
 30
0.0
 11
219.5888419333
 21
101.2917034544
 31
0.0
  0
ELLIPSE
  5
19B
330
1F
100
AcDbEntity
  8
0
  6
Continuous
 62
     7
370
    25
100
AcDbEllipse
 10
220.3093181888
 20
99.8100273182
 30
0.0
 11
-0.02097028290364733
 21
0.7999998117962974
 31
0.0
210
0.0
220
0.0
230
0.9999999999999999
 40
0.0261679535
 41
6.282499370390492
 42
7.152648581237392
  0
ELLIPSE
  5
19C
330
1F
100
AcDbEntity
  8
0
  6
Continuous
 62
     7
370
    25
100
AcDbEllipse
 10
217.1111807736
 20
99.8100273182
 30
0.0
 11
0.02097028290361891
 21
0.7999998117962973
 31
0.0
210
0.0
220
0.0
230
1.0
 40
0.0261679535
 41
5.413722033121442
 42
6.283871243967846
  0
SPLINE
  5
19D
330
1F
100
AcDbEntity
  8
0
  6
Continuous
 62
     7
370
    25
100
AcDbSpline
210
0.0
220
0.0
230
1.0
 70
     8
 71
     3
 72
    11
 73
     7
 74
     0
 42
0.00000001
 43
0.00000001
 40
0.0
 40
0.0
 40
0.0
 40
0.0
 40
0.2500000000000021
 40
0.4999999999999994
 40
0.7500000000000007
 40
0.9999999999999999
 40
0.9999999999999999
 40
0.9999999999999999
 40
0.9999999999999999
 10
217.1321366918811
 20
100.6100273182037
 30
0.0
 10
217.1446572081037
 20
100.6999263653307
 30
0.0
 10
217.1696982405489
 20
100.8797244595847
 30
0.0
 10
217.3323417101714
 20
101.1044406688197
 30
0.0
 10
217.5611614462259
 20
101.2612017538492
 30
0.0
 10
217.7414918347721
 20
101.2815362208752
 30
0.0
 10
217.8316570290452
 20
101.2917034543882
 30
0.0
  0
LINE
  5
19E
330
1F
100
AcDbEntity
  8
0
  6
Continuous
 62
     7
370
    25
100
AcDbLine
 10
220.4948356219
 20
91.8309255368
 30
0.0
 11
220.4964901436
 21
91.8309688768
 31
0.0
  0
LINE
  5
19F
330
1F
100
AcDbEntity
  8
0
  6
Continuous
 62
     7
370
    25
100
AcDbLine
 10
216.9256633405
 20
91.8309255368
 30
0.0
 11
216.9240088188
 21
91.8309688768
 31
0.0
  0
SPLINE
  5
1A0
330
1F
100
AcDbEntity
  8
0
  6
Continuous
 62
     7
370
    25
100
AcDbSpline
210
0.0
220
0.0
230
1.0
 70
     8
 71
     3
 72
     9
 73
     5
 74
     0
 42
0.00000001
 43
0.00000001
 40
0.0
 40
0.0
 40
0.0
 40
0.0
 40
0.5600012771711212
 40
1.0
 40
1.0
 40
1.0
 40
1.0
 10
216.3576715386975
 20
91.83096887684998
 30
0.0
 10
216.3695059510425
 20
92.76001851627817
 30
0.0
 10
216.3906387820333
 20
94.41903194589268
 30
0.0
 10
216.4115995114457
 20
96.07581118105927
 30
0.0
 10
216.4208222056168
 20
96.80479192854196
 30
0.0
  0
SPLINE
  5
1A1
330
1F
100
AcDbEntity
  8
0
  6
Continuous
 62
     7
370
    25
100
AcDbSpline
210
0.0
220
0.0
230
1.0
 70
     8
 71
     3
 72
     9
 73
     5
 74
     0
 42
0.00000001
 43
0.00000001
 40
0.0
 40
0.0
 40
0.0
 40
0.0
 40
0.5599999095971008
 40
1.0
 40
1.0
 40
1.0
 40
1.0
 10
216.4208222056168
 20
96.80479192854196
 30
0.0
 10
216.423119615514
 20
96.98659364329077
 30
0.0
 10
216.4272221338499
 20
97.3112396148939
 30
0.0
 10
216.4313185270429
 20
97.6358058204484
 30
0.0
 10
216.4331209404182
 20
97.7786149802341
 30
0.0
  0
LINE
  5
1A2
330
1F
100
AcDbEntity
  8
0
  6
Continuous
 62
     7
370
    25
100
AcDbLine
 10
216.4331209404
 20
97.7786149802
 30
0.0
 11
216.1047928111
 21
97.7786149802
 31
0.0
  0
LINE
  5
1A3
330
1F
100
AcDbEntity
  8
0
  6
Continuous
 62
     7
370
    25
100
AcDbLine
 10
216.1047928111
 20
97.7786149802
 30
0.0
 11
216.2345687243
 21
100.6100273182
 31
0.0
  0
LINE
  5
1A4
330
1F
100
AcDbEntity
  8
0
  6
Continuous
 62
     7
370
    25
100
AcDbLine
 10
216.2345687243
 20
100.6100273182
 30
0.0
 11
217.1321366919
 21
100.6100273182
 31
0.0
  0
LINE
  5
1A5
330
1F
100
AcDbEntity
  8
0
  6
Continuous
 62
     7
370
    25
100
AcDbLine
 10
217.1407050574
 20
100.3257973133
 30
0.0
 11
216.9240088188
 21
91.8309688768
 31
0.0
  0
LINE
  5
1A6
330
1F
100
AcDbEntity
  8
0
  6
Continuous
 62
     7
370
    25
100
AcDbLine
 10
221.3157061513
 20
97.7786149802
 30
0.0
 11
220.987378022
 21
97.7786149802
 31
0.0
  0
SPLINE
  5
1A7
330
1F
100
AcDbEntity
  8
0
  6
Continuous
 62
     7
370
    25
100
AcDbSpline
210
0.0
220
0.0
230
1.0
 70
     8
 71
     3
 72
     9
 73
     5
 74
     0
 42
0.00000001
 43
0.00000001
 40
0.0
 40
0.0
 40
0.0
 40
0.0
 40
0.5600000882143287
 40
1.0
 40
1.0
 40
1.0
 40
1.0
 10
220.987378021971
 20
97.7786149802341
 30
0.0
 10
220.989672138112
 20
97.59685610940231
 30
0.0
 10
220.9937687734329
 20
97.27228674833067
 30
0.0
 10
220.9978715398922
 20
96.94763754803385
 30
0.0
 10
220.9996767567724
 20
96.80479192854196
 30
0.0
  0
SPLINE
  5
1A8
330
1F
100
AcDbEntity
  8
0
  6
Continuous
 62
     7
370
    25
100
AcDbSpline
210
0.0
220
0.0
230
1.0
 70
     8
 71
     3
 72
     9
 73
     5
 74
     0
 42
0.00000001
 43
0.00000001
 40
0.0
 40
0.0
 40
0.0
 40
0.0
 40
0.5599987526606134
 40
1.0
 40
1.0
 40
1.0
 40
1.0
 10
220.9996767567724
 20
96.80479192854196
 30
0.0
 10
221.0114183432948
 20
95.87695062869267
 30
0.0
 10
221.0323855087868
 20
94.2200874741927
 30
0.0
 10
221.0535257091589
 20
92.5609787742822
 30
0.0
 10
221.0628274236917
 20
91.83096887684998
 30
0.0
  0
LINE
  5
1A9
330
1F
100
AcDbEntity
  8
0
  6
Continuous
 62
     7
370
    25
100
AcDbLine
 10
220.4964901436
 20
91.8309688768
 30
0.0
 11
220.279793905
 21
100.3257973133
 31
0.0
  0
LINE
  5
1AA
330
1F
100
AcDbEntity
  8
0
  6
Continuous
 62
     7
370
    25
100
AcDbLine
 10
220.2883622705
 20
100.6100273182
 30
0.0
 11
221.1859302381
 21
100.6100273182
 31
0.0
  0
LINE
  5
1AB
330
1F
100
AcDbEntity
  8
0
  6
Continuous
 62
     7
370
    25
100
AcDbLine
 10
221.1859302381
 20
100.6100273182
 30
0.0
 11
221.3157061513
 21
97.7786149802
 31
0.0
  0
LINE
  5
1AC
330
1F
100
AcDbEntity
  8
0
  6
Continuous
 62
     7
370
    25
100
AcDbLine
 10
217.831657029
 20
101.2917034544
 30
0.0
 11
216.9340890614
 21
101.2917034544
 31
0.0
  0
SPLINE
  5
1AD
330
1F
100
AcDbEntity
  8
0
  6
Continuous
 62
     7
370
    25
100
AcDbSpline
210
0.0
220
0.0
230
1.0
 70
     8
 71
     3
 72
    11
 73
     7
 74
     0
 42
0.00000001
 43
0.00000001
 40
0.0
 40
0.0
 40
0.0
 40
0.0
 40
0.2499999999999979
 40
0.4999999999999971
 40
0.75
 40
1.0
 40
1.0
 40
1.0
 40
1.0
 10
216.234568724262
 20
100.6100273182037
 30
0.0
 10
216.2470892404845
 20
100.6999263653307
 30
0.0
 10
216.2721302729297
 20
100.8797244595847
 30
0.0
 10
216.4347737425523
 20
101.1044406688197
 30
0.0
 10
216.6635934786067
 20
101.2612017538492
 30
0.0
 10
216.843923867153
 20
101.2815362208752
 30
0.0
 10
216.9340890614261
 20
101.2917034543882
 30
0.0
  0
LINE
  5
1AE
330
1F
100
AcDbEntity
  8
0
  6
Continuous
 62
     7
370
    25
100
AcDbLine
 10
220.486409901
 20
101.2917034544
 30
0.0
 11
219.5888419333
 21
101.2917034544
 31
0.0
  0
SPLINE
  5
1AF
330
1F
100
AcDbEntity
  8
0
  6
Continuous
 62
     7
370
    25
100
AcDbSpline
210
0.0
220
0.0
230
1.0
 70
     8
 71
     3
 72
    11
 73
     7
 74
     0
 42
0.00000001
 43
0.00000001
 40
0.0
 40
0.0
 40
0.0
 40
0.0
 40
0.2500000000000002
 40
0.5000000000000036
 40
0.7500000000000022
 40
1.0
 40
1.0
 40
1.0
 40
1.0
 10
220.4864099009631
 20
101.2917034543882
 30
0.0
 10
220.5765750952362
 20
101.2815362208752
 30
0.0
 10
220.7569054837825
 20
101.2612017538492
 30
0.0
 10
220.9857252198369
 20
101.1044406688197
 30
0.0
 10
221.1483686894595
 20
100.8797244595847
 30
0.0
 10
221.1734097219046
 20
100.6999263653307
 30
0.0
 10
221.1859302381272
 20
100.6100273182037
 30
0.0
  0
LINE
  5
1B0
330
1F
100
AcDbEntity
  8
0
  6
Continuous
 62
     7
370
    25
100
AcDbLine
 10
215.845301069
 20
97.2917034544
 30
0.0
 11
215.6112059352
 21
97.2917034544
 31
0.0
  0
SPLINE
  5
1B1
330
1F
100
AcDbEntity
  8
0
  6
Continuous
 62
     7
370
    25
100
AcDbSpline
210
0.0
220
0.0
230
1.0
 70
     8
 71
     3
 72
    10
 73
     6
 74
     0
 42
0.00000001
 43
0.00000001
 40
0.0
 40
0.0
 40
0.0
 40
0.0
 40
0.2383396858856105
 40
0.5716506333689656
 40
1.0
 40
1.0
 40
1.0
 40
1.0
 10
215.8517270391399
 20
97.29170345438806
 30
0.0
 10
215.9263252415667
 20
97.3006621973077
 30
0.0
 10
216.1052468068406
 20
97.32214947520346
 30
0.0
 10
216.3415909190956
 20
97.49581185815656
 30
0.0
 10
216.4001742952811
 20
97.67681871741112
 30
0.0
 10
216.4331209404182
 20
97.7786149802343
 30
0.0
  0
SPLINE
  5
1B2
330
1F
100
AcDbEntity
  8
0
  6
Continuous
 62
     7
370
    25
100
AcDbSpline
210
0.0
220
0.0
230
1.0
 70
     8
 71
     3
 72
    11
 73
     7
 74
     0
 42
0.00000001
 43
0.00000001
 40
0.0
 40
0.0
 40
0.0
 40
0.0
 40
0.250667172502349
 40
0.5010414677145716
 40
0.7508849997170931
 40
1.0
 40
1.0
 40
1.0
 40
1.0
 10
216.3576715386975
 20
91.83096887684998
 30
0.0
 10
216.3307969720423
 20
91.86047489684915
 30
0.0
 10
216.2770792387361
 20
91.91945246227675
 30
0.0
 10
215.9916137750822
 20
92.00618573108846
 30
0.0
 10
215.5700856284626
 20
92.09050676131498
 30
0.0
 10
215.1537285507655
 20
92.14308975392956
 30
0.0
 10
214.9458539743891
 20
92.16934286189839
 30
0.0
  0
SPLINE
  5
1B3
330
1F
100
AcDbEntity
  8
0
  6
Continuous
 62
     7
370
    25
100
AcDbSpline
210
0.0
220
0.0
230
1.0
 70
     8
 71
     3
 72
     9
 73
     5
 74
     0
 42
0.00000001
 43
0.00000001
 40
0.0
 40
0.0
 40
0.0
 40
0.0
 40
0.501325902198991
 40
1.0
 40
1.0
 40
1.0
 40
1.0
 10
214.9458539210249
 20
92.16934262761116
 30
0.0
 10
214.8208112635548
 20
92.18076447472377
 30
0.0
 10
214.5713873719872
 20
92.20354775215372
 30
0.0
 10
214.269619263566
 20
92.20060979824623
 30
0.0
 10
214.1191353243539
 20
92.19914471673205
 30
0.0
  0
LINE
  5
1B4
330
1F
100
AcDbEntity
  8
0
  6
Continuous
 62
     7
370
    25
100
AcDbLine
 10
214.004368885
 20
95.7918144603
 30
0.0
 11
214.1191440925
 21
92.1992443737
 31
0.0
  0
SPLINE
  5
1B5
330
1F
100
AcDbEntity
  8
0
  6
Continuous
 62
     7
370
    25
100
AcDbSpline
210
0.0
220
0.0
230
1.0
 70
     8
 71
     3
 72
    14
 73
    10
 74
     0
 42
0.00000001
 43
0.00000001
 40
0.0
 40
0.0
 40
0.0
 40
0.0
 40
0.0829413618596697
 40
0.1664594845668882
 40
0.2437726390188662
 40
0.3161479456895724
 40
0.4353725718192331
 40
0.6486290670514194
 40
0.9999999999999999
 40
0.9999999999999999
 40
0.9999999999999999
 40
0.9999999999999999
 10
214.0043688898572
 20
95.79181444764886
 30
0.0
 10
214.0061840794396
 20
95.88167835523873
 30
0.0
 10
214.0098270811399
 20
96.06203106953207
 30
0.0
 10
214.0914882136275
 20
96.34991578031797
 30
0.0
 10
214.2247716939123
 20
96.60144180774472
 30
0.0
 10
214.4130981501499
 20
96.83539113764574
 30
0.0
 10
214.7113652298122
 20
97.07620210815371
 30
0.0
 10
215.1693923885975
 20
97.26814371139308
 30
0.0
 10
215.4417279172754
 20
97.28265701501599
 30
0.0
 10
215.6112039009252
 20
97.2916887282832
 30
0.0
  0
LINE
  5
1B6
330
1F
100
AcDbEntity
  8
0
  6
Continuous
 62
     7
370
    25
100
AcDbLine
 10
223.3013548699
 20
92.1992443737
 30
0.0
 11
223.4161300774
 21
95.7918144603
 31
0.0
  0
SPLINE
  5
1B7
330
1F
100
AcDbEntity
  8
0
  6
Continuous
 62
     7
370
    25
100
AcDbSpline
210
0.0
220
0.0
230
1.0
 70
     8
 71
     3
 72
     9
 73
     5
 74
     0
 42
0.00000001
 43
0.00000001
 40
0.0
 40
0.0
 40
0.0
 40
0.0
 40
0.4986740982738612
 40
1.0
 40
1.0
 40
1.0
 40
1.0
 10
223.3013638198705
 20
92.19914388732884
 30
0.0
 10
223.1508798835915
 20
92.20060896658549
 30
0.0
 10
222.8491117813381
 20
92.20354691596309
 30
0.0
 10
222.5996878897159
 20
92.18076363703139
 30
0.0
 10
222.4746452323363
 20
92.16934178917668
 30
0.0
  0
SPLINE
  5
1B8
330
1F
100
AcDbEntity
  8
0
  6
Continuous
 62
     7
370
    25
100
AcDbSpline
210
0.0
220
0.0
230
1.0
 70
     8
 71
     3
 72
    11
 73
     7
 74
     0
 42
0.00000001
 43
0.00000001
 40
0.0
 40
0.0
 40
0.0
 40
0.0
 40
0.2491150002829083
 40
0.4989585322854289
 40
0.749332827497652
 40
1.0
 40
1.0
 40
1.0
 40
1.0
 10
222.4746449880001
 20
92.16934286189839
 30
0.0
 10
222.2667704116236
 20
92.14308975392956
 30
0.0
 10
221.8504133339266
 20
92.09050676131498
 30
0.0
 10
221.428885187307
 20
92.00618573108846
 30
0.0
 10
221.1434197236531
 20
91.91945246227677
 30
0.0
 10
221.0897019903469
 20
91.86047489684915
 30
0.0
 10
221.0628274236917
 20
91.83096887684998
 30
0.0
  0
SPLINE
  5
1B9
330
1F
100
AcDbEntity
  8
0
  6
Continuous
 62
     7
370
    25
100
AcDbSpline
210
0.0
220
0.0
230
1.0
 70
     8
 71
     3
 72
    10
 73
     6
 74
     0
 42
0.00000001
 43
0.00000001
 40
0.0
 40
0.0
 40
0.0
 40
0.0
 40
0.4283493666310625
 40
0.761660314114417
 40
0.9999999999999999
 40
0.9999999999999999
 40
0.9999999999999999
 40
0.9999999999999999
 10
220.987378021971
 20
97.77861498023431
 30
0.0
 10
221.0203246671081
 20
97.67681871741115
 30
0.0
 10
221.0789080432936
 20
97.4958118581566
 30
0.0
 10
221.3152521555485
 20
97.32214947520353
 30
0.0
 10
221.4941737208223
 20
97.30066219730773
 30
0.0
 10
221.5687719232492
 20
97.29170345438806
 30
0.0
  0
LINE
  5
1BA
330
1F
100
AcDbEntity
  8
0
  6
Continuous
 62
     7
370
    25
100
AcDbLine
 10
221.5751978936
 20
97.2917034544
 30
0.0
 11
221.8092930274
 21
97.2917034544
 31
0.0
  0
SPLINE
  5
1BB
330
1F
100
AcDbEntity
  8
0
  6
Continuous
 62
     7
370
    25
100
AcDbSpline
210
0.0
220
0.0
230
1.0
 70
     8
 71
     3
 72
    15
 73
    11
 74
     0
 42
0.00000001
 43
0.00000001
 40
0.0
 40
0.0
 40
0.0
 40
0.0
 40
0.2091652517822444
 40
0.4176299509274903
 40
0.5931463878153087
 40
0.6923603779431098
 40
0.7731125739307014
 40
0.8543366880968429
 40
0.9261517123972135
 40
0.9999999999999999
 40
0.9999999999999999
 40
0.9999999999999999
 40
0.9999999999999999
 10
221.8092950616954
 20
97.29168872828217
 30
0.0
 10
221.9069926941848
 20
97.28859723778369
 30
0.0
 10
222.1020607426041
 20
97.28242461104874
 30
0.0
 10
222.4513405959566
 20
97.19215115123855
 30
0.0
 10
222.7842307829
 20
97.02354469913513
 30
0.0
 10
223.045848868936
 20
96.79409599108219
 30
0.0
 10
223.2264428818498
 20
96.55631694782583
 30
0.0
 10
223.3485370451601
 20
96.29440045098734
 30
0.0
 10
223.4125870344786
 20
96.02885887624936
 30
0.0
 10
223.4149381205166
 20
95.8715611452278
 30
0.0
 10
223.41613007253
 20
95.79181444766901
 30
0.0
  0
SPLINE
  5
1BC
330
1F
100
AcDbEntity
  8
0
  6
Continuous
 62
     7
370
    25
100
AcDbSpline
210
0.0
220
0.0
230
1.0
 70
     8
 71
     3
 72
    11
 73
     7
 74
     0
 42
0.00000001
 43
0.00000001
 40
0.0
 40
0.0
 40
0.0
 40
0.0
 40
0.2795638428304259
 40
0.5590315778757567
 40
0.7794196683313493
 40
1.0
 40
1.0
 40
1.0
 40
1.0
 10
214.9458539743891
 20
92.16934286189839
 30
0.0
 10
214.9221047982622
 20
91.91207725171756
 30
0.0
 10
214.8746146104429
 20
91.39763447350822
 30
0.0
 10
215.2103016918611
 20
90.75512027426907
 30
0.0
 10
215.6890165811245
 20
90.36344697307514
 30
0.0
 10
216.0409021517938
 20
90.31562490999717
 30
0.0
 10
216.2169216397965
 20
90.29170345438817
 30
0.0
  0
SPLINE
  5
1BD
330
1F
100
AcDbEntity
  8
0
  6
Continuous
 62
     7
370
    25
100
AcDbSpline
210
0.0
220
0.0
230
1.0
 70
    24
 71
     3
 72
    11
 73
     7
 74
     0
 42
0.00000001
 43
0.00000001
 40
0.0
 40
0.0
 40
0.0
 40
0.0
 40
0.2799317596299059
 40
0.5599103390525026
 40
0.7799480709991914
 40
1.0
 40
1.0
 40
1.0
 40
1.0
 10
216.2169216397965
 20
90.29170345438817
 30
0.0
 10
216.484489597236
 20
90.29170345438817
 30
0.0
 10
217.0196702640086
 20
90.29170345438817
 30
0.0
 10
217.493537057671
 20
90.29170345438817
 30
0.0
 10
217.7787868152197
 20
90.29170345438817
 30
0.0
 10
217.8306908401169
 20
90.29170345438817
 30
0.0
 10
217.8566436897634
 20
90.29170345438817
 30
0.0
  0
SPLINE
  5
1BE
330
1F
100
AcDbEntity
  8
0
  6
Continuous
 62
     7
370
    25
100
AcDbSpline
210
0.0
220
0.0
230
1.0
 70
     8
 71
     3
 72
    11
 73
     7
 74
     0
 42
0.00000001
 43
0.00000001
 40
0.0
 40
0.0
 40
0.0
 40
0.0
 40
0.2795638428677818
 40
0.5590315779132449
 40
0.7794196683689383
 40
0.9999999999999999
 40
0.9999999999999999
 40
0.9999999999999999
 40
0.9999999999999999
 10
221.2035773225927
 20
90.29170345438817
 30
0.0
 10
221.427557738159
 20
90.33022230633625
 30
0.0
 10
221.8754415698134
 20
90.4072467683091
 30
0.0
 10
222.3353818049189
 20
90.94004466609879
 30
0.0
 10
222.5467562458182
 20
91.56778123296516
 30
0.0
 10
222.4986890589389
 20
91.9687640491338
 30
0.0
 10
222.4746449880001
 20
92.1693428618984
 30
0.0
  0
SPLINE
  5
1BF
330
1F
100
AcDbEntity
  8
0
  6
Continuous
 62
     7
370
    25
100
AcDbSpline
210
0.0
220
0.0
230
1.0
 70
    24
 71
     3
 72
    11
 73
     7
 74
     0
 42
0.00000001
 43
0.00000001
 40
0.0
 40
0.0
 40
0.0
 40
0.0
 40
0.2799857774483056
 40
0.5599458358671284
 40
0.7799985659009365
 40
0.9999999999999999
 40
0.9999999999999999
 40
0.9999999999999999
 40
0.9999999999999999
 10
219.5638552726257
 20
90.29170345438817
 30
0.0
 10
219.6016089922336
 20
90.29170345438817
 30
0.0
 10
219.6771129634553
 20
90.29170345438817
 30
0.0
 10
220.0586661137641
 20
90.29170345438817
 30
0.0
 10
220.5620967955772
 20
90.29170345438817
 30
0.0
 10
220.9897670977145
 20
90.29170345438817
 30
0.0
 10
221.2035773225927
 20
90.29170345438817
 30
0.0
  0
SPLINE
  5
1C0
330
1F
100
AcDbEntity
  8
0
  6
Continuous
 62
     7
370
    25
100
AcDbSpline
210
0.0
220
0.0
230
1.0
 70
     8
 71
     3
 72
    11
 73
     7
 74
     0
 42
0.00000001
 43
0.00000001
 40
0.0
 40
0.0
 40
0.0
 40
0.0
 40
0.2500000000000018
 40
0.4999999999999982
 40
0.7499999999999983
 40
1.0
 40
1.0
 40
1.0
 40
1.0
 10
221.8153635349991
 20
97.29170345438814
 30
0.0
 10
221.7509598248041
 20
97.29896576404029
 30
0.0
 10
221.6221524044139
 20
97.31349038334459
 30
0.0
 10
221.4587097358036
 20
97.42546258693709
 30
0.0
 10
221.3425358289303
 20
97.58597416496204
 30
0.0
 10
221.3246493771838
 20
97.7144013751435
 30
0.0
 10
221.3157061513105
 20
97.77861498023421
 30
0.0
  0
SPLINE
  5
1C1
330
1F
100
AcDbEntity
  8
0
  6
Continuous
 62
     7
370
    25
100
AcDbSpline
210
0.0
220
0.0
230
1.0
 70
     8
 71
     3
 72
    11
 73
     7
 74
     0
 42
0.00000001
 43
0.00000001
 40
0.0
 40
0.0
 40
0.0
 40
0.0
 40
0.2500000000000007
 40
0.4999999999999999
 40
0.7500000000000002
 40
1.0
 40
1.0
 40
1.0
 40
1.0
 10
216.1047928110787
 20
97.77861498023421
 30
0.0
 10
216.0958495852054
 20
97.7144013751435
 30
0.0
 10
216.0779631334589
 20
97.58597416496205
 30
0.0
 10
215.9617892265856
 20
97.42546258693707
 30
0.0
 10
215.7983465579753
 20
97.31349038334459
 30
0.0
 10
215.6695391375851
 20
97.29896576404029
 30
0.0
 10
215.60513542739
 20
97.29170345438814
 30
0.0
  0
SPLINE
  5
1C2
330
1F
100
AcDbEntity
  8
0
  6
Continuous
 62
     7
370
    25
100
AcDbSpline
210
0.0
220
0.0
230
1.0
 70
     8
 71
     3
 72
     9
 73
     5
 74
     0
 42
0.00000001
 43
0.00000001
 40
0.0
 40
0.0
 40
0.0
 40
0.0
 40
0.5642319118445198
 40
0.9999999999999999
 40
0.9999999999999999
 40
0.9999999999999999
 40
0.9999999999999999
 10
214.0085344361952
 20
90.11625049323904
 30
0.0
 10
214.4839660474687
 20
90.16983246196635
 30
0.0
 10
215.3265834203841
 20
90.2647969040734
 30
0.0
 10
215.9466962552892
 20
90.28353708261389
 30
0.0
 10
216.2169216397965
 20
90.29170345438817
 30
0.0
  0
SPLINE
  5
1C3
330
1F
100
AcDbEntity
  8
0
  6
Continuous
 62
     7
370
    25
100
AcDbSpline
210
0.0
220
0.0
230
1.0
 70
     8
 71
     3
 72
    13
 73
     9
 74
     0
 42
0.00000001
 43
0.00000001
 40
0.0
 40
0.0
 40
0.0
 40
0.0
 40
0.0926677825201017
 40
0.1856533156297215
 40
0.2733112842947874
 40
0.413548892575832
 40
0.6528449691515644
 40
1.0
 40
1.0
 40
1.0
 40
1.0
 10
214.119134421953
 20
92.19914396803738
 30
0.0
 10
214.1215690894041
 20
92.10490925091858
 30
0.0
 10
214.1264467725908
 20
91.91611669319511
 30
0.0
 10
214.1263722854448
 20
91.60290628897424
 30
0.0
 10
214.1199852283885
 20
91.26117215418117
 30
0.0
 10
214.1020705822916
 20
90.84431799727778
 30
0.0
 10
214.0650088415251
 20
90.36108935161491
 30
0.0
 10
214.0295340559714
 20
90.20729214126166
 30
0.0
 10
214.0085344361952
 20
90.11625049323904
 30
0.0
  0
SPLINE
  5
1C4
330
1F
100
AcDbEntity
  8
0
  6
Continuous
 62
     7
370
    25
100
AcDbSpline
210
0.0
220
0.0
230
1.0
 70
     8
 71
     3
 72
     9
 73
     5
 74
     0
 42
0.00000001
 43
0.00000001
 40
0.0
 40
0.0
 40
0.0
 40
0.0
 40
0.5551829690770671
 40
0.9999999999999999
 40
0.9999999999999999
 40
0.9999999999999999
 40
0.9999999999999999
 10
221.2035773225927
 20
90.29170345438817
 30
0.0
 10
221.5538317813408
 20
90.2787044338971
 30
0.0
 10
222.1847129110886
 20
90.25529049432207
 30
0.0
 10
223.0341295422875
 20
90.15905685497036
 30
0.0
 10
223.411964526194
 20
90.11625049323904
 30
0.0
  0
SPLINE
  5
1C5
330
1F
100
AcDbEntity
  8
0
  6
Continuous
 62
     7
370
    25
100
AcDbSpline
210
0.0
220
0.0
230
1.0
 70
     8
 71
     3
 72
    13
 73
     9
 74
     0
 42
0.00000001
 43
0.00000001
 40
0.0
 40
0.0
 40
0.0
 40
0.0
 40
0.3327087167328941
 40
0.5628656559531299
 40
0.69871241253847
 40
0.8016200683166478
 40
0.9052998751809794
 40
1.0
 40
1.0
 40
1.0
 40
1.0
 10
223.411964526194
 20
90.11625049323904
 30
0.0
 10
223.3918317022869
 20
90.20203606815718
 30
0.0
 10
223.3577716534673
 20
90.3471652801952
 30
0.0
 10
223.3216858020971
 20
90.79753197662247
 30
0.0
 10
223.3026470790084
 20
91.19727312522836
 30
0.0
 10
223.2943735450559
 20
91.5531653716399
 30
0.0
 10
223.2936972828655
 20
91.90059921867413
 30
0.0
 10
223.2988870936333
 20
92.10267808985321
 30
0.0
 10
223.3013645404362
 20
92.19914396803738
 30
0.0
  0
SPLINE
  5
1C6
330
1F
100
AcDbEntity
  8
0
  6
Continuous
 62
     7
370
    25
100
AcDbSpline
210
0.0
220
0.0
230
1.0
 70
     8
 71
     3
 72
    13
 73
     9
 74
     0
 42
0.00000001
 43
0.00000001
 40
0.0
 40
0.0
 40
0.0
 40
0.0
 40
0.1400312919410834
 40
0.280097877850304
 40
0.4240602241121907
 40
0.5680316995452359
 40
0.7822812815056388
 40
0.9999999999999999
 40
0.9999999999999999
 40
0.9999999999999999
 40
0.9999999999999999
 10
216.4360269496897
 20
85.67958665331672
 30
0.0
 10
216.3471813293805
 20
85.99771227345734
 30
0.0
 10
216.1694676958064
 20
86.63404369521332
 30
0.0
 10
215.815251676808
 20
87.46715178663678
 30
0.0
 10
215.4240757509949
 20
88.20944856133966
 30
0.0
 10
214.9493029877273
 20
88.9479069331358
 30
0.0
 10
214.4089528042062
 20
89.63106155781807
 30
0.0
 10
214.1304921847826
 20
89.92162671415765
 30
0.0
 10
213.9901437167394
 20
90.06807605641443
 30
0.0
  0
ELLIPSE
  5
1C7
330
1F
100
AcDbEntity
  8
0
  6
Continuous
 62
     7
370
    25
100
AcDbEllipse
 10
214.1519285604
 20
71.2186962071
 30
0.0
 11
0.0
 21
19.0730072472477
 31
0.0
210
0.0
220
0.0
230
1.0
 40
0.0555555556
 41
0.1357435643135846
 42
0.1532827087060648
  0
ELLIPSE
  5
1C8
330
1F
100
AcDbEntity
  8
0
  6
Continuous
 62
     7
370
    25
100
AcDbEllipse
 10
223.2685704019
 20
71.2186962071
 30
0.0
 11
0.0
 21
19.0730072472477
 31
0.0
210
0.0
220
0.0
230
1.0
 40
0.0555555556
 41
6.129902598473765
 42
6.147441742866273
  0
SPLINE
  5
1C9
330
1F
100
AcDbEntity
  8
0
  6
Continuous
 62
     7
370
    25
100
AcDbSpline
210
0.0
220
0.0
230
1.0
 70
     8
 71
     3
 72
    13
 73
     9
 74
     0
 42
0.00000001
 43
0.00000001
 40
0.0
 40
0.0
 40
0.0
 40
0.0
 40
0.1374692963454099
 40
0.2749820892813126
 40
0.4163021045260215
 40
0.5576318202769773
 40
0.7770084914513207
 40
1.0
 40
1.0
 40
1.0
 40
1.0
 10
223.4303552456498
 20
90.06807605641443
 30
0.0
 10
223.3470767660339
 20
89.98183564698552
 30
0.0
 10
223.1804934567005
 20
89.80932754084341
 30
0.0
 10
222.8347932834717
 20
89.41034546752041
 30
0.0
 10
222.4512289687803
 20
88.91003605604814
 30
0.0
 10
221.9759712531818
 20
88.18121558444541
 30
0.0
 10
221.4298684852631
 20
87.16499663424375
 30
0.0
 10
221.1337441034703
 20
86.17741334794022
 30
0.0
 10
220.9844720137476
 20
85.6795866575843
 30
0.0
  0
LINE
  5
1CA
330
1F
100
AcDbEntity
  8
0
  6
Continuous
 62
     7
370
    25
100
AcDbLine
 10
216.4360269497
 20
85.6795866533
 30
0.0
 11
220.9844720137
 21
85.6795866576
 31
0.0
  0
LINE
  5
1CB
330
1F
100
AcDbEntity
  8
0
  6
Continuous
 62
     7
370
    25
100
AcDbLine
 10
213.4858205272
 20
95.7917034544
 30
0.0
 11
214.0043581945
 21
95.7917034544
 31
0.0
  0
ARC
  5
1CC
330
1F
100
AcDbEntity
  8
0
  6
Continuous
 62
     7
370
    25
100
AcDbCircle
 10
207.2102494812
 20
83.4135261727
 30
0.0
 40
9.499999999999984
100
AcDbArc
 50
44.4654416734
 51
48.6553876907
  0
LINE
  5
1CD
330
1F
100
AcDbEntity
  8
0
  6
Continuous
 62
     7
370
    25
100
AcDbLine
 10
213.4858205272
 20
90.545651245
 30
0.0
 11
213.4858205272
 21
95.7917034544
 31
0.0
  0
LINE
  5
1CE
330
1F
100
AcDbEntity
  8
0
  6
Continuous
 62
     7
370
    25
100
AcDbLine
 10
223.9346784352
 20
95.7917034544
 30
0.0
 11
223.9346784352
 21
90.545651245
 31
0.0
  0
ARC
  5
1CF
330
1F
100
AcDbEntity
  8
0
  6
Continuous
 62
     7
370
    25
100
AcDbCircle
 10
230.2102494812
 20
83.4135261727
 30
0.0
 40
9.499999999999984
100
AcDbArc
 50
131.3446123093
 51
135.5345583266
  0
LINE
  5
1D0
330
1F
100
AcDbEntity
  8
0
  6
Continuous
 62
     7
370
    25
100
AcDbLine
 10
223.4161407679
 20
95.7917034544
 30
0.0
 11
223.9346784352
 21
95.7917034544
 31
0.0
  0
ARC
  5
1D1
330
1F
100
AcDbEntity
  8
0
  6
Continuous
 62
     7
370
    25
100
AcDbCircle
 10
222.43583228
 20
95.7928573005
 30
0.0
 40
1.498846599345437
100
AcDbArc
 50
359.9558924033
 51
89.9558243884
  0
LINE
  5
1D2
330
1F
100
AcDbEntity
  8
0
  6
Continuous
 62
     7
370
    25
100
AcDbLine
 10
222.4369879054
 20
97.2917034544
 30
0.0
 11
221.802780723
 21
97.2917034544
 31
0.0
  0
ARC
  5
1D3
330
1F
100
AcDbEntity
  8
0
  6
Continuous
 62
     7
370
    25
100
AcDbCircle
 10
214.9846666824
 20
95.7928573005
 30
0.0
 40
1.498846599345492
100
AcDbArc
 50
90.0441756116
 51
180.0441075967
  0
LINE
  5
1D4
330
1F
100
AcDbEntity
  8
0
  6
Continuous
 62
     7
370
    25
100
AcDbLine
 10
215.6177182394
 20
97.2917034544
 30
0.0
 11
214.983511057
 21
97.2917034544
 31
0.0
  0
LINE
  5
1D5
330
1F
100
AcDbEntity
  8
0
  6
Continuous
 62
     7
370
    25
100
AcDbLine
 10
216.1499930115
 20
97.7218384093
 30
0.0
 11
216.1122635964
 21
97.7692308277
 31
0.0
  0
LINE
  5
1D6
330
1F
100
AcDbEntity
  8
0
  6
Continuous
 62
     7
370
    25
100
AcDbLine
 10
221.3082353659
 20
97.7692308277
 30
0.0
 11
221.2705059508
 21
97.7218384093
 31
0.0
  0
ELLIPSE
  5
1D7
330
1F
100
AcDbEntity
  8
0
  6
Continuous
 62
     7
370
    25
100
AcDbEllipse
 10
219.6859982446
 20
100.5917034544
 30
0.0
 11
1.500207016110408
 21
0.02894030982646712
 31
0.0
210
0.0
220
0.0
230
1.0
 40
0.2796306798
 41
6.257897524076024
 42
6.352572625618897
  0
LINE
  5
1D8
330
1F
100
AcDbEntity
  8
0
  6
Continuous
 62
     7
370
    25
100
AcDbLine
 10
213.4936181687
 20
90.5387488222
 30
0.0
 11
213.4858205272
 21
90.545651245
 31
0.0
  0
LINE
  5
1D9
330
1F
100
AcDbEntity
  8
0
  6
Continuous
 62
     7
370
    25
100
AcDbLine
 10
223.9346784352
 20
90.545651245
 30
0.0
 11
223.9268807937
 21
90.5387488222
 31
0.0
  0
SPLINE
  5
1DA
330
1F
100
AcDbEntity
  8
0
  6
Continuous
 62
     7
370
    25
100
AcDbSpline
210
0.0
220
0.0
230
1.0
 70
     8
 71
     3
 72
     9
 73
     5
 74
     0
 42
0.00000001
 43
0.00000001
 40
0.0
 40
0.0
 40
0.0
 40
0.0
 40
0.0576289627817949
 40
1.0
 40
1.0
 40
1.0
 40
1.0
 10
220.4727630317224
 20
85.67958665710418
 30
0.0
 10
220.4679069596267
 20
85.66208338408582
 30
0.0
 10
220.3836425227645
 20
85.35835983652454
 30
0.0
 10
220.3366843995933
 20
85.01577964208738
 30
0.0
 10
220.2924324243546
 20
84.69294198892524
 30
0.0
  0
SPLINE
  5
1DB
330
1F
100
AcDbEntity
  8
0
  6
Continuous
 62
     7
370
    25
100
AcDbSpline
210
0.0
220
0.0
230
1.0
 70
     8
 71
     3
 72
    10
 73
     6
 74
     0
 42
0.00000001
 43
0.00000001
 40
0.0
 40
0.0
 40
0.0
 40
0.0
 40
0.274691850153182
 40
0.5573359346812419
 40
1.0
 40
1.0
 40
1.0
 40
1.0
 10
220.2924324243546
 20
84.69294198892524
 30
0.0
 10
220.0078116660003
 20
84.74616603208834
 30
0.0
 10
219.4303304764468
 20
84.85415493611767
 30
0.0
 10
218.3513125332801
 20
84.8959410093562
 30
0.0
 10
217.5916794888473
 20
84.76987906882569
 30
0.0
 10
217.1280665380345
 20
84.69294198892524
 30
0.0
  0
LINE
  5
1DC
330
1F
100
AcDbEntity
  8
0
  6
Continuous
 62
     7
370
    25
100
AcDbLine
 10
217.128066538
 20
84.6929419889
 30
0.0
 11
216.9128317523
 21
85.6795866538
 31
0.0
  0
LINE
  5
1DD
330
1F
100
AcDbEntity
  8
0
  6
Continuous
 62
     7
370
    25
100
AcDbLine
 10
210.5302494812
 20
82.5917034544
 30
0.0
 11
219.7102494812
 21
82.5917034544
 31
0.0
  0
LWPOLYLINE
  5
1DE
330
1F
100
AcDbEntity
  8
0
  6
Continuous
 62
     7
370
    25
100
AcDbPolyline
 90
        3
 70
   128
 43
0.0
 10
210.591604274
 20
82.5917034544
 10
210.6850879502
 20
81.663959265
 10
210.7276168165
 20
81.2419515949
  0
LINE
  5
1DF
330
1F
100
AcDbEntity
  8
0
  6
Continuous
 62
     7
370
    25
100
AcDbLine
 10
219.7102494812
 20
81.2419515949
 30
0.0
 11
219.7102494812
 21
82.5917034544
 31
0.0
  0
LINE
  5
1E0
330
1F
100
AcDbEntity
  8
0
  6
Continuous
 62
     7
370
    25
100
AcDbLine
 10
211.1516405905
 20
98.7917034544
 30
0.0
 11
216.1504241441
 21
98.7917034544
 31
0.0
  0
LINE
  5
1E1
330
1F
100
AcDbEntity
  8
0
  6
Continuous
 62
     7
370
    25
100
AcDbLine
 10
221.2700748183
 20
98.7917034544
 30
0.0
 11
226.2688583575
 21
98.7917034544
 31
0.0
  0
SPLINE
  5
1E2
330
1F
100
AcDbEntity
  8
0
  6
Continuous
 62
     7
370
    25
100
AcDbSpline
210
0.0
220
0.0
230
1.0
 70
     8
 71
     3
 72
    12
 73
     8
 74
     0
 42
0.00000001
 43
0.00000001
 40
0.0
 40
0.0
 40
0.0
 40
0.0
 40
0.2271543139929676
 40
0.4542742953683988
 40
0.6823371405829727
 40
0.9121899191033226
 40
1.0
 40
1.0
 40
1.0
 40
1.0
 10
210.7276168165492
 20
81.24195159487768
 30
0.0
 10
210.7387207617475
 20
81.18683178798331
 30
0.0
 10
210.7609269738688
 20
81.07660050512702
 30
0.0
 10
210.8614231854073
 20
80.9367464455386
 30
0.0
 10
210.9988854602378
 20
80.83649805645304
 30
0.0
 10
211.129859043594
 20
80.79556936587831
 30
0.0
 10
211.2077520274088
 20
80.79254066438898
 30
0.0
 10
211.2292836261063
 20
80.79170345438817
 30
0.0
  0
LINE
  5
1E3
330
1F
100
AcDbEntity
  8
0
  6
Continuous
 62
     7
370
    25
100
AcDbLine
 10
226.2577557001
 20
80.7917034544
 30
0.0
 11
219.7102494812
 21
80.7917034544
 31
0.0
  0
SPLINE
  5
1E4
330
1F
100
AcDbEntity
  8
0
  6
Continuous
 62
     7
370
    25
100
AcDbSpline
210
0.0
220
0.0
230
1.0
 70
    24
 71
     3
 72
    12
 73
     8
 74
     0
 42
0.00000001
 43
0.00000001
 40
0.0
 40
0.0
 40
0.0
 40
0.0
 40
0.2316347876629371
 40
0.4633066480819601
 40
0.6939442291381566
 40
0.922740652522644
 40
1.0
 40
1.0
 40
1.0
 40
1.0
 10
219.7102494811946
 20
80.79170345438817
 30
0.0
 10
219.7102494811946
 20
80.79729291941845
 30
0.0
 10
219.7102494811946
 20
80.8084727440634
 30
0.0
 10
219.7102494811946
 20
80.89579581001907
 30
0.0
 10
219.7102494811946
 20
81.02410598380112
 30
0.0
 10
219.7102494811946
 20
81.14878541049896
 30
0.0
 10
219.7102494811946
 20
81.22317341925223
 30
0.0
 10
219.7102494811946
 20
81.24195159487766
 30
0.0
  0
SPLINE
  5
1E5
330
1F
100
AcDbEntity
  8
0
  6
Continuous
 62
     7
370
    25
100
AcDbSpline
210
0.0
220
0.0
230
1.0
 70
     8
 71
     3
 72
    11
 73
     7
 74
     0
 42
0.00000001
 43
0.00000001
 40
0.0
 40
0.0
 40
0.0
 40
0.0
 40
0.2981995125517627
 40
0.5964325929955623
 40
0.893363691228292
 40
1.0
 40
1.0
 40
1.0
 40
1.0
 10
212.794169698095
 20
80.79170345438817
 30
0.0
 10
212.9101921897033
 20
80.8029002199938
 30
0.0
 10
213.1422502334058
 20
80.8252950116089
 30
0.0
 10
213.444154083574
 20
81.00464393775302
 30
0.0
 10
213.6441012119939
 20
81.20279063132232
 30
0.0
 10
213.6964240090526
 20
81.35040705317383
 30
0.0
 10
213.7102494811946
 20
81.38941235951701
 30
0.0
  0
LINE
  5
1E6
330
1F
100
AcDbEntity
  8
0
  6
Continuous
 62
     7
370
    25
100
AcDbLine
 10
213.7102494812
 20
80.7917034544
 30
0.0
 11
212.7941696981
 21
80.7917034544
 31
0.0
  0
LINE
  5
1E7
330
1F
100
AcDbEntity
  8
0
  6
Continuous
 62
     7
370
    25
100
AcDbLine
 10
211.2292836261
 20
80.7917034544
 30
0.0
 11
212.7941696981
 21
80.7917034544
 31
0.0
  0
LINE
  5
1E8
330
1F
100
AcDbEntity
  8
0
  6
Continuous
 62
     7
370
    25
100
AcDbLine
 10
219.4872256555
 20
82.2917034544
 30
0.0
 11
219.5102494812
 21
82.2917034544
 31
0.0
  0
LINE
  5
1E9
330
1F
100
AcDbEntity
  8
0
  6
Continuous
 62
     7
370
    25
100
AcDbLine
 10
217.9102494812
 20
82.2917034544
 30
0.0
 11
219.4872256555
 21
82.2917034544
 31
0.0
  0
SPLINE
  5
1EA
330
1F
100
AcDbEntity
  8
0
  6
Continuous
 62
     7
370
    25
100
AcDbSpline
210
0.0
220
0.0
230
1.0
 70
     8
 71
     3
 72
    11
 73
     7
 74
     0
 42
0.00000001
 43
0.00000001
 40
0.0
 40
0.0
 40
0.0
 40
0.0
 40
0.284393128892025
 40
0.5687862577840577
 40
0.8531793866760842
 40
1.0
 40
1.0
 40
1.0
 40
1.0
 10
220.2883622705081
 20
100.6100273182037
 30
0.0
 10
220.2758957468927
 20
100.7000899390521
 30
0.0
 10
220.2509626996618
 20
100.880215180749
 30
0.0
 10
220.0875093409317
 20
101.1024777841626
 30
0.0
 10
219.8981674024254
 20
101.2417819172997
 30
0.0
 10
219.7625178514467
 20
101.2604223426392
 30
0.0
 10
219.7163315908477
 20
101.2667690760872
 30
0.0
  0
LINE
  5
1EB
330
1F
100
AcDbEntity
  8
0
  6
Continuous
 62
     7
370
    25
100
AcDbLine
 10
216.1122635964
 20
97.7692308277
 30
0.0
 11
216.1047928111
 21
97.7786149802
 31
0.0
  0
ELLIPSE
  5
1EC
330
1F
100
AcDbEntity
  8
0
  6
Continuous
 62
     7
370
    25
100
AcDbEllipse
 10
217.7345007178
 20
100.5917034544
 30
0.0
 11
1.500207016110437
 21
-0.02894030982645291
 31
0.0
210
0.0
220
0.0
230
1.0
 40
0.2796306798
 41
3.072246798639898
 42
3.166880436693421
  0
LINE
  5
1ED
330
1F
100
AcDbEntity
  8
0
  6
Continuous
 62
     7
370
    25
100
AcDbLine
 10
213.4858205272
 20
95.7917034544
 30
0.0
 11
213.483511057
 21
95.7917034544
 31
0.0
  0
LINE
  5
1EE
330
1F
100
AcDbEntity
  8
0
  6
Continuous
 62
     7
370
    25
100
AcDbLine
 10
223.9369879054
 20
95.7917034544
 30
0.0
 11
223.9346784352
 21
95.7917034544
 31
0.0
  0
LINE
  5
1EF
330
1F
100
AcDbEntity
  8
0
  6
Continuous
 62
     7
370
    25
100
AcDbLine
 10
213.483511057
 20
90.6797790401
 30
0.0
 11
209.7214419226
 21
90.6797790401
 31
0.0
  0
LINE
  5
1F0
330
1F
100
AcDbEntity
  8
0
  6
Continuous
 62
     7
370
    25
100
AcDbLine
 10
227.6990570398
 20
90.6797790401
 30
0.0
 11
223.9369879054
 21
90.6797790401
 31
0.0
  0
LINE
  5
1F1
330
1F
100
AcDbEntity
  8
0
  6
Continuous
 62
     7
370
    25
100
AcDbLine
 10
219.7102494812
 20
81.2419515949
 30
0.0
 11
226.7552742952
 21
81.2419515949
 31
0.0
  0
LINE
  5
1F2
330
1F
100
AcDbEntity
  8
0
  6
Continuous
 62
     7
370
    25
100
AcDbLine
 10
223.9369879054
 20
90.9033174938
 30
0.0
 11
227.6962977263
 21
90.9033174938
 31
0.0
  0
LINE
  5
1F3
330
1F
100
AcDbEntity
  8
0
  6
Continuous
 62
     7
370
    25
100
AcDbLine
 10
209.7242012361
 20
90.9033174938
 30
0.0
 11
213.483511057
 21
90.9033174938
 31
0.0
  0
LINE
  5
1F4
330
1F
100
AcDbEntity
  8
0
  6
Continuous
 62
     7
370
    25
100
AcDbLine
 10
226.7649973103
 20
98.3537208217
 30
0.0
 11
221.2901494628
 21
98.3537208217
 31
0.0
  0
LINE
  5
1F5
330
1F
100
AcDbEntity
  8
0
  6
Continuous
 62
     7
370
    25
100
AcDbLine
 10
216.1303494996
 20
98.3537208217
 30
0.0
 11
210.6555016521
 21
98.3537208217
 31
0.0
  0
LINE
  5
1F6
330
1F
100
AcDbEntity
  8
0
  6
Continuous
 62
     7
370
    25
100
AcDbLine
 10
219.7102494812
 20
82.0917034544
 30
0.0
 11
217.7102494812
 21
82.0917034544
 31
0.0
  0
INSERT
  5
202
330
1F
100
AcDbEntity
  8
0
  6
Continuous
 62
     7
370
    18
100
AcDbBlockReference
  2
SW_CENTERMARKSYMBOL_0
 10
218.7102494812
 20
61.5917034544
 30
0.0
  0
LINE
  5
203
330
1F
100
AcDbEntity
  8
0
  6
Continuous
 62
     7
370
    25
100
AcDbLine
 10
140.3657675783
 20
153.4416453126
 30
0.0
 11
137.1157675783
 21
153.4416453126
 31
0.0
  0
LINE
  5
204
330
1F
100
AcDbEntity
  8
0
  6
Continuous
 62
     7
370
    25
100
AcDbLine
 10
137.1157675783
 20
126.4416453126
 30
0.0
 11
140.3657675783
 21
126.4416453126
 31
0.0
  0
LINE
  5
205
330
1F
100
AcDbEntity
  8
0
  6
Continuous
 62
     7
370
    25
100
AcDbLine
 10
137.1157675783
 20
153.4416453126
 30
0.0
 11
136.8657675783
 21
153.1916453126
 31
0.0
  0
LINE
  5
206
330
1F
100
AcDbEntity
  8
0
  6
Continuous
 62
     7
370
    25
100
AcDbLine
 10
136.8657675783
 20
126.6916453126
 30
0.0
 11
137.1157675783
 21
126.4416453126
 31
0.0
  0
LINE
  5
207
330
1F
100
AcDbEntity
  8
0
  6
Continuous
 62
     7
370
    25
100
AcDbLine
 10
123.8657675783
 20
152.9416453126
 30
0.0
 11
123.3657675783
 21
152.4416453126
 31
0.0
  0
LINE
  5
208
330
1F
100
AcDbEntity
  8
0
  6
Continuous
 62
     7
370
    25
100
AcDbLine
 10
123.3657675783
 20
127.4416453126
 30
0.0
 11
123.8657675783
 21
126.9416453126
 31
0.0
  0
LINE
  5
209
330
1F
100
AcDbEntity
  8
0
  6
Continuous
 62
     7
370
    25
100
AcDbLine
 10
136.8657675783
 20
152.9416453126
 30
0.0
 11
123.8657675783
 21
152.9416453126
 31
0.0
  0
LINE
  5
20A
330
1F
100
AcDbEntity
  8
0
  6
Continuous
 62
     7
370
    25
100
AcDbLine
 10
123.8657675783
 20
126.9416453126
 30
0.0
 11
136.8657675783
 21
126.9416453126
 31
0.0
  0
LINE
  5
20B
330
1F
100
AcDbEntity
  8
0
  6
Continuous
 62
     7
370
    25
100
AcDbLine
 10
166.3657675783
 20
127.6916453126
 30
0.0
 11
166.6157675783
 21
127.9416453126
 31
0.0
  0
LINE
  5
20C
330
1F
100
AcDbEntity
  8
0
  6
Continuous
 62
     7
370
    25
100
AcDbLine
 10
166.6157675783
 20
151.9416453126
 30
0.0
 11
166.3657675783
 21
152.1916453126
 31
0.0
  0
LINE
  5
20D
330
1F
100
AcDbEntity
  8
0
  6
Continuous
 62
     7
370
    25
100
AcDbLine
 10
168.3657675783
 20
151.9416453126
 30
0.0
 11
166.6157675783
 21
151.9416453126
 31
0.0
  0
LINE
  5
20E
330
1F
100
AcDbEntity
  8
0
  6
Continuous
 62
     7
370
    25
100
AcDbLine
 10
166.6157675783
 20
127.9416453126
 30
0.0
 11
168.3657675783
 21
127.9416453126
 31
0.0
  0
LINE
  5
20F
330
1F
100
AcDbEntity
  8
0
  6
Continuous
 62
     7
370
    25
100
AcDbLine
 10
168.3657675783
 20
129.3441453126
 30
0.0
 11
177.6693763054
 21
129.6348830854
 31
0.0
  0
LINE
  5
210
330
1F
100
AcDbEntity
  8
0
  6
Continuous
 62
     7
370
    25
100
AcDbLine
 10
177.6693763054
 20
150.2484075399
 30
0.0
 11
168.3657675783
 21
150.5391453126
 31
0.0
  0
LINE
  5
211
330
1F
100
AcDbEntity
  8
0
  6
Continuous
 62
     7
370
    25
100
AcDbLine
 10
177.6693763054
 20
129.6348830854
 30
0.0
 11
180.3657675783
 21
131.1916453126
 31
0.0
  0
LINE
  5
212
330
1F
100
AcDbEntity
  8
0
  6
Continuous
 62
     7
370
    25
100
AcDbLine
 10
180.3657675783
 20
148.6916453126
 30
0.0
 11
177.6693763054
 21
150.2484075399
 31
0.0
  0
LINE
  5
213
330
1F
100
AcDbEntity
  8
0
  6
Continuous
 62
     7
370
    25
100
AcDbLine
 10
102.8219421862
 20
139.0716162302
 30
0.0
 11
102.8393611766
 21
139.0716162302
 31
0.0
  0
LINE
  5
214
330
1F
100
AcDbEntity
  8
0
  6
Continuous
 62
     7
370
    25
100
AcDbLine
 10
131.4001152557
 20
144.5368036721
 30
0.0
 11
130.2078751989
 21
143.7428304337
 31
0.0
  0
LINE
  5
215
330
1F
100
AcDbEntity
  8
0
  6
Continuous
 62
     7
370
    25
100
AcDbLine
 10
130.2078751396
 20
136.1404600841
 30
0.0
 11
131.4044944116
 21
135.3435705615
 31
0.0
  0
SPLINE
  5
216
330
1F
100
AcDbEntity
  8
0
  6
Continuous
 62
     7
370
    25
100
AcDbSpline
210
0.0
220
0.0
230
1.0
 70
     8
 71
     3
 72
    11
 73
     7
 74
     0
 42
0.00000001
 43
0.00000001
 40
0.0
 40
0.0
 40
0.0
 40
0.0
 40
0.2485427336868742
 40
0.498245940737641
 40
0.748834762140145
 40
1.0
 40
1.0
 40
1.0
 40
1.0
 10
130.2077953568582
 20
143.7429751497923
 30
0.0
 10
129.7865152138021
 20
143.5292099163371
 30
0.0
 10
128.9419879243602
 20
143.1006813560371
 30
0.0
 10
127.5853823571261
 20
142.6619873944237
 30
0.0
 10
126.1872852509997
 20
142.3610584499296
 30
0.0
 10
125.2359293520189
 20
142.2997777658169
 30
0.0
 10
124.7597049423785
 20
142.2691022240505
 30
0.0
  0
SPLINE
  5
217
330
1F
100
AcDbEntity
  8
0
  6
Continuous
 62
     7
370
    25
100
AcDbSpline
210
0.0
220
0.0
230
1.0
 70
     8
 71
     3
 72
    10
 73
     6
 74
     0
 42
0.00000001
 43
0.00000001
 40
0.0
 40
0.0
 40
0.0
 40
0.0
 40
0.0711023749285984
 40
0.5366329433438187
 40
1.0
 40
1.0
 40
1.0
 40
1.0
 10
127.3682802695149
 20
137.241739355441
 30
0.0
 10
127.4392546618683
 20
137.2275130018383
 30
0.0
 10
127.974921678742
 20
137.1201420453196
 30
0.0
 10
128.9401968940259
 20
136.7736523456387
 30
0.0
 10
129.7859191314155
 20
136.3510997072802
 30
0.0
 10
130.2077953568582
 20
136.1403154754834
 30
0.0
  0
LINE
  5
218
330
1F
100
AcDbEntity
  8
0
  6
Continuous
 62
     7
370
    25
100
AcDbLine
 10
124.7590336697
 20
142.2947370915
 30
0.0
 11
103.10464264
 21
141.7276969064
 31
0.0
  0
LINE
  5
219
330
1F
100
AcDbEntity
  8
0
  6
Continuous
 62
     7
370
    25
100
AcDbLine
 10
103.1046461585
 20
138.1555936267
 30
0.0
 11
124.7590336697
 21
137.5885535337
 31
0.0
  0
SPLINE
  5
21A
330
1F
100
AcDbEntity
  8
0
  6
Continuous
 62
     7
370
    25
100
AcDbSpline
210
0.0
220
0.0
230
1.0
 70
     8
 71
     3
 72
    12
 73
     8
 74
     0
 42
0.00000001
 43
0.00000001
 40
0.0
 40
0.0
 40
0.0
 40
0.0
 40
0.1125972685633525
 40
0.3324886888860961
 40
0.5946492022727797
 40
0.849348379718043
 40
1.0
 40
1.0
 40
1.0
 40
1.0
 10
98.06625604238026
 20
138.8567310658659
 30
0.0
 10
98.08129637853268
 20
138.8241821350807
 30
0.0
 10
98.12570901581543
 20
138.7280683353455
 30
0.0
 10
98.25769438503903
 20
138.5933346334631
 30
0.0
 10
98.4463594814598
 20
138.4701675204332
 30
0.0
 10
98.6440773391056
 20
138.3916464498898
 30
0.0
 10
98.77699240860078
 20
138.3819886982658
 30
0.0
 10
98.82639127667164
 20
138.3783993234857
 30
0.0
  0
SPLINE
  5
21B
330
1F
100
AcDbEntity
  8
0
  6
Continuous
 62
     7
370
    25
100
AcDbSpline
210
0.0
220
0.0
230
1.0
 70
     8
 71
     3
 72
    12
 73
     8
 74
     0
 42
0.00000001
 43
0.00000001
 40
0.0
 40
0.0
 40
0.0
 40
0.0
 40
0.0693170528071788
 40
0.2377579335426908
 40
0.4636198837155037
 40
0.7636298717940483
 40
1.0
 40
1.0
 40
1.0
 40
1.0
 10
98.82623692228215
 20
141.5051955166291
 30
0.0
 10
98.80355301264221
 20
141.5050996958624
 30
0.0
 10
98.72574705779778
 20
141.5047710300209
 30
0.0
 10
98.57987647193644
 20
141.4646295721714
 30
0.0
 10
98.38326874435718
 20
141.3804747996622
 30
0.0
 10
98.18952064216695
 20
141.2400984824342
 30
0.0
 10
98.10212766086293
 20
141.0941811417526
 30
0.0
 10
98.06361562514797
 20
141.0298787944485
 30
0.0
  0
SPLINE
  5
21C
330
1F
100
AcDbEntity
  8
0
  6
Continuous
 62
     7
370
    25
100
AcDbSpline
210
0.0
220
0.0
230
1.0
 70
     8
 71
     3
 72
    10
 73
     6
 74
     0
 42
0.00000001
 43
0.00000001
 40
0.0
 40
0.0
 40
0.0
 40
0.0
 40
0.2251966212013933
 40
0.6266430674472306
 40
1.0
 40
1.0
 40
1.0
 40
1.0
 10
98.06115459735715
 20
141.0300752514381
 30
0.0
 10
98.03452040519014
 20
140.9696746308444
 30
0.0
 10
97.96040680708425
 20
140.8016009272398
 30
0.0
 10
97.88324987061294
 20
140.4895095363413
 30
0.0
 10
97.87145244214277
 20
140.2287458984531
 30
0.0
 10
97.86576757830997
 20
140.1030909069709
 30
0.0
  0
SPLINE
  5
21D
330
1F
100
AcDbEntity
  8
0
  6
Continuous
 62
     7
370
    25
100
AcDbSpline
210
0.0
220
0.0
230
1.0
 70
     8
 71
     3
 72
    10
 73
     6
 74
     0
 42
0.00000001
 43
0.00000001
 40
0.0
 40
0.0
 40
0.0
 40
0.0
 40
0.2007652150022615
 40
0.5846758230457466
 40
1.0
 40
1.0
 40
1.0
 40
1.0
 10
97.86576757830997
 20
139.7801997183048
 30
0.0
 10
97.86749214042035
 20
139.7127816568881
 30
0.0
 10
97.8725144734538
 20
139.5164443055869
 30
0.0
 10
97.9245580348881
 20
139.1876641961369
 30
0.0
 10
98.01444475727573
 20
138.967581729203
 30
0.0
 10
98.06115459735715
 20
138.8532153738377
 30
0.0
  0
LINE
  5
21E
330
1F
100
AcDbEntity
  8
0
  6
Continuous
 62
     7
370
    25
100
AcDbLine
 10
97.8657675783
 20
140.103090907
 30
0.0
 11
97.8657675783
 21
139.7801997183
 31
0.0
  0
ARC
  5
21F
330
1F
100
AcDbEntity
  8
0
  6
Continuous
 62
     7
370
    25
100
AcDbCircle
 10
153.3657675783
 20
139.9416453126
 30
0.0
 40
8.993770368365603
100
AcDbArc
 50
200.7378913098
 51
90.0
  0
ARC
  5
220
330
1F
100
AcDbEntity
  8
0
  6
Continuous
 62
     7
370
    25
100
AcDbCircle
 10
153.3657675783
 20
139.9416453126
 30
0.0
 40
8.993770368365603
100
AcDbArc
 50
90.0
 51
159.2560605669
  0
LINE
  5
221
330
1F
100
AcDbEntity
  8
0
  6
Continuous
 62
     7
370
    25
100
AcDbLine
 10
137.1157675783
 20
153.4416453126
 30
0.0
 11
137.1157675783
 21
144.8436511197
 31
0.0
  0
LINE
  5
222
330
1F
100
AcDbEntity
  8
0
  6
Continuous
 62
     7
370
    25
100
AcDbLine
 10
137.1157675783
 20
135.0396395056
 30
0.0
 11
137.1157675783
 21
126.4416453126
 31
0.0
  0
LINE
  5
223
330
1F
100
AcDbEntity
  8
0
  6
Continuous
 62
     7
370
    25
100
AcDbLine
 10
136.8657675783
 20
126.6916453126
 30
0.0
 11
136.8657675783
 21
135.0535283944
 31
0.0
  0
LINE
  5
224
330
1F
100
AcDbEntity
  8
0
  6
Continuous
 62
     7
370
    25
100
AcDbLine
 10
136.8657675783
 20
144.8297622308
 30
0.0
 11
136.8657675783
 21
153.1916453126
 31
0.0
  0
LINE
  5
225
330
1F
100
AcDbEntity
  8
0
  6
Continuous
 62
     7
370
    25
100
AcDbLine
 10
123.3657675783
 20
127.4416453126
 30
0.0
 11
123.3657675783
 21
137.6250374903
 31
0.0
  0
LINE
  5
226
330
1F
100
AcDbEntity
  8
0
  6
Continuous
 62
     7
370
    25
100
AcDbLine
 10
123.3657675783
 20
142.2582531349
 30
0.0
 11
123.3657675783
 21
152.4416453126
 31
0.0
  0
LINE
  5
227
330
1F
100
AcDbEntity
  8
0
  6
Continuous
 62
     7
370
    25
100
AcDbLine
 10
123.8657675783
 20
152.9416453126
 30
0.0
 11
123.8657675783
 21
142.2713460957
 31
0.0
  0
LINE
  5
228
330
1F
100
AcDbEntity
  8
0
  6
Continuous
 62
     7
370
    25
100
AcDbLine
 10
123.8657675783
 20
137.6119445296
 30
0.0
 11
123.8657675783
 21
126.9416453126
 31
0.0
  0
LINE
  5
229
330
1F
100
AcDbEntity
  8
0
  6
Continuous
 62
     7
370
    25
100
AcDbLine
 10
164.9223919053
 20
148.6737699109
 30
0.0
 11
155.5193472585
 21
148.6737699109
 31
0.0
  0
LINE
  5
22A
330
1F
100
AcDbEntity
  8
0
  6
Continuous
 62
     7
370
    25
100
AcDbLine
 10
151.2121878981
 20
148.6737699109
 30
0.0
 11
141.8091432513
 21
148.6737699109
 31
0.0
  0
LINE
  5
22B
330
1F
100
AcDbEntity
  8
0
  6
Continuous
 62
     7
370
    25
100
AcDbLine
 10
141.8091432513
 20
148.6737699109
 30
0.0
 11
141.8091432513
 21
153.9416453126
 31
0.0
  0
LINE
  5
22C
330
1F
100
AcDbEntity
  8
0
  6
Continuous
 62
     7
370
    25
100
AcDbLine
 10
164.9223919053
 20
153.9416453126
 30
0.0
 11
141.8091432513
 21
153.9416453126
 31
0.0
  0
LINE
  5
22D
330
1F
100
AcDbEntity
  8
0
  6
Continuous
 62
     7
370
    25
100
AcDbLine
 10
164.9223919053
 20
153.9416453126
 30
0.0
 11
164.9223919053
 21
148.6737699109
 31
0.0
  0
SPLINE
  5
22E
330
1F
100
AcDbEntity
  8
0
  6
Continuous
 62
     7
370
    25
100
AcDbSpline
210
0.0
220
0.0
230
1.0
 70
     8
 71
     3
 72
     9
 73
     5
 74
     0
 42
0.00000001
 43
0.00000001
 40
0.0
 40
0.0
 40
0.0
 40
0.0
 40
0.4727309367057914
 40
1.0
 40
1.0
 40
1.0
 40
1.0
 10
140.9380990864375
 20
145.0560028701754
 30
0.0
 10
141.0412661338991
 20
145.6342104030431
 30
0.0
 10
141.2595024274249
 20
146.8573322424915
 30
0.0
 10
141.6193871635654
 20
148.0466692834153
 30
0.0
 10
141.809143251284
 20
148.6737699109243
 30
0.0
  0
LINE
  5
22F
330
1F
100
AcDbEntity
  8
0
  6
Continuous
 62
     7
370
    25
100
AcDbLine
 10
140.3657675783
 20
145.0242066753
 30
0.0
 11
140.3657675783
 21
153.9416453126
 31
0.0
  0
SPLINE
  5
230
330
1F
100
AcDbEntity
  8
0
  6
Continuous
 62
     7
370
    25
100
AcDbSpline
210
0.0
220
0.0
230
1.0
 70
    24
 71
     3
 72
    14
 73
    10
 74
     0
 42
0.00000001
 43
0.00000001
 40
0.0
 40
0.0
 40
0.0
 40
0.0
 40
0.125
 40
0.125
 40
0.25
 40
0.25
 40
0.5
 40
0.5
 40
1.0
 40
1.0
 40
1.0
 40
1.0
 10
140.36576757831
 20
153.9416453126379
 30
0.0
 10
140.36576757831
 20
153.9416453126379
 30
0.0
 10
140.3743021579887
 20
153.9416453126379
 30
0.0
 10
140.4085207696902
 20
153.9416453126379
 30
0.0
 10
140.4342791531127
 20
153.9416453126379
 30
0.0
 10
140.5355780906845
 20
153.9416453126379
 30
0.0
 10
140.635272599687
 20
153.9416453126379
 30
0.0
 10
141.0160424830386
 20
153.9416453126379
 30
0.0
 10
141.3780438343323
 20
153.9416453126379
 30
0.0
 10
141.809143251284
 20
153.9416453126379
 30
0.0
  0
LINE
  5
231
330
1F
100
AcDbEntity
  8
0
  6
Continuous
 62
     7
370
    25
100
AcDbLine
 10
166.3657675783
 20
153.9416453126
 30
0.0
 11
166.3657675783
 21
139.9416453126
 31
0.0
  0
SPLINE
  5
232
330
1F
100
AcDbEntity
  8
0
  6
Continuous
 62
     7
370
    25
100
AcDbSpline
210
0.0
220
0.0
230
1.0
 70
     8
 71
     3
 72
    12
 73
     8
 74
     0
 42
0.00000001
 43
0.00000001
 40
0.0
 40
0.0
 40
0.0
 40
0.0
 40
0.2500000000000001
 40
0.2500000000000001
 40
0.5000000000000001
 40
0.5000000000000001
 40
1.0
 40
1.0
 40
1.0
 40
1.0
 10
164.922391905336
 20
148.6737699109244
 30
0.0
 10
165.1388470046636
 20
147.9653472105088
 30
0.0
 10
165.3384871571768
 20
147.2502245222408
 30
0.0
 10
165.6941949047095
 20
145.802663609953
 30
0.0
 10
165.8485661486091
 20
145.0766708989424
 30
0.0
 10
166.2274583372641
 20
142.8907584110485
 30
0.0
 10
166.36576757831
 20
141.4227167899694
 30
0.0
 10
166.36576757831
 20
139.9416453126379
 30
0.0
  0
SPLINE
  5
233
330
1F
100
AcDbEntity
  8
0
  6
Continuous
 62
     7
370
    25
100
AcDbSpline
210
0.0
220
0.0
230
1.0
 70
    24
 71
     3
 72
    14
 73
    10
 74
     0
 42
0.00000001
 43
0.00000001
 40
0.0
 40
0.0
 40
0.0
 40
0.0
 40
0.125
 40
0.125
 40
0.2499999999999999
 40
0.2499999999999999
 40
0.5
 40
0.5
 40
1.0
 40
1.0
 40
1.0
 40
1.0
 10
166.36576757831
 20
153.9416453126379
 30
0.0
 10
166.36576757831
 20
153.9416453126379
 30
0.0
 10
166.3572513044957
 20
153.9416453126379
 30
0.0
 10
166.3231264904709
 20
153.9416453126379
 30
0.0
 10
166.2974148168902
 20
153.9416453126379
 30
0.0
 10
166.1960804152197
 20
153.9416453126379
 30
0.0
 10
166.096315665601
 20
153.9416453126379
 30
0.0
 10
165.7153688567664
 20
153.9416453126379
 30
0.0
 10
165.3533148418024
 20
153.9416453126379
 30
0.0
 10
164.9223919053359
 20
153.9416453126379
 30
0.0
  0
LINE
  5
234
330
1F
100
AcDbEntity
  8
0
  6
Continuous
 62
     7
370
    25
100
AcDbLine
 10
151.2121878981
 20
131.2095207144
 30
0.0
 11
141.8091432513
 21
131.2095207144
 31
0.0
  0
SPLINE
  5
235
330
1F
100
AcDbEntity
  8
0
  6
Continuous
 62
     7
370
    25
100
AcDbSpline
210
0.0
220
0.0
230
1.0
 70
     8
 71
     3
 72
     9
 73
     5
 74
     0
 42
0.00000001
 43
0.00000001
 40
0.0
 40
0.0
 40
0.0
 40
0.0
 40
0.9743961984802653
 40
1.0
 40
1.0
 40
1.0
 40
1.0
 10
141.809143251284
 20
131.2095207143514
 30
0.0
 10
141.4601628781549
 20
132.3746848081367
 30
0.0
 10
141.1020124936671
 20
133.5704654316681
 30
0.0
 10
140.8958708682061
 20
134.798485020155
 30
0.0
 10
140.8905928589429
 20
134.829926989961
 30
0.0
  0
SPLINE
  5
236
330
1F
100
AcDbEntity
  8
0
  6
Continuous
 62
     7
370
    25
100
AcDbSpline
210
0.0
220
0.0
230
1.0
 70
     8
 71
     3
 72
    14
 73
    10
 74
     0
 42
0.00000001
 43
0.00000001
 40
0.0
 40
0.0
 40
0.0
 40
0.0
 40
0.125
 40
0.125
 40
0.2500000000000001
 40
0.2500000000000001
 40
0.5
 40
0.5
 40
1.0
 40
1.0
 40
1.0
 40
1.0
 10
166.36576757831
 20
139.9416453126379
 30
0.0
 10
166.36576757831
 20
139.5708958196065
 30
0.0
 10
166.3572513044957
 20
139.1993440242649
 30
0.0
 10
166.3231264904709
 20
138.4546302029676
 30
0.0
 10
166.2974148168902
 20
138.0805846522202
 30
0.0
 10
166.1960804152197
 20
136.9660508916547
 30
0.0
 10
166.096315665601
 20
136.2312711580227
 30
0.0
 10
165.7153688567664
 20
134.0478284263787
 30
0.0
 10
165.3533148418024
 20
132.6198621258993
 30
0.0
 10
164.9223919053359
 20
131.2095207143514
 30
0.0
  0
LINE
  5
237
330
1F
100
AcDbEntity
  8
0
  6
Continuous
 62
     7
370
    25
100
AcDbLine
 10
164.9223919053
 20
131.2095207144
 30
0.0
 11
155.5193472585
 21
131.2095207144
 31
0.0
  0
SPLINE
  5
238
330
1F
100
AcDbEntity
  8
0
  6
Continuous
 62
     7
370
    25
100
AcDbSpline
210
0.0
220
0.0
230
1.0
 70
    24
 71
     3
 72
    14
 73
    10
 74
     0
 42
0.00000001
 43
0.00000001
 40
0.0
 40
0.0
 40
0.0
 40
0.0
 40
0.125
 40
0.125
 40
0.2499999999999999
 40
0.2499999999999999
 40
0.4999999999999999
 40
0.4999999999999999
 40
1.0
 40
1.0
 40
1.0
 40
1.0
 10
166.36576757831
 20
125.9416453126379
 30
0.0
 10
166.36576757831
 20
125.9416453126379
 30
0.0
 10
166.3572513044957
 20
125.9416453126379
 30
0.0
 10
166.3231264904709
 20
125.9416453126379
 30
0.0
 10
166.2974148168902
 20
125.9416453126379
 30
0.0
 10
166.1960804152197
 20
125.9416453126379
 30
0.0
 10
166.096315665601
 20
125.9416453126379
 30
0.0
 10
165.7153688567664
 20
125.9416453126379
 30
0.0
 10
165.3533148418024
 20
125.9416453126379
 30
0.0
 10
164.9223919053359
 20
125.9416453126379
 30
0.0
  0
LINE
  5
239
330
1F
100
AcDbEntity
  8
0
  6
Continuous
 62
     7
370
    25
100
AcDbLine
 10
164.9223919053
 20
131.2095207144
 30
0.0
 11
164.9223919053
 21
125.9416453126
 31
0.0
  0
LINE
  5
23A
330
1F
100
AcDbEntity
  8
0
  6
Continuous
 62
     7
370
    25
100
AcDbLine
 10
166.3657675783
 20
139.9416453126
 30
0.0
 11
166.3657675783
 21
125.9416453126
 31
0.0
  0
LINE
  5
23B
330
1F
100
AcDbEntity
  8
0
  6
Continuous
 62
     7
370
    25
100
AcDbLine
 10
141.8091432513
 20
125.9416453126
 30
0.0
 11
141.8091432513
 21
131.2095207144
 31
0.0
  0
SPLINE
  5
23C
330
1F
100
AcDbEntity
  8
0
  6
Continuous
 62
     7
370
    25
100
AcDbSpline
210
0.0
220
0.0
230
1.0
 70
    24
 71
     3
 72
    14
 73
    10
 74
     0
 42
0.00000001
 43
0.00000001
 40
0.0
 40
0.0
 40
0.0
 40
0.0
 40
0.1249999999999999
 40
0.1249999999999999
 40
0.2499999999999999
 40
0.2499999999999999
 40
0.5000000000000001
 40
0.5000000000000001
 40
1.0
 40
1.0
 40
1.0
 40
1.0
 10
140.36576757831
 20
125.9416453126379
 30
0.0
 10
140.36576757831
 20
125.9416453126379
 30
0.0
 10
140.3743021579887
 20
125.9416453126379
 30
0.0
 10
140.4085207696902
 20
125.9416453126379
 30
0.0
 10
140.4342791531127
 20
125.9416453126379
 30
0.0
 10
140.5355780906845
 20
125.9416453126379
 30
0.0
 10
140.6352725996871
 20
125.9416453126379
 30
0.0
 10
141.0160424830386
 20
125.9416453126379
 30
0.0
 10
141.3780438343323
 20
125.9416453126378
 30
0.0
 10
141.809143251284
 20
125.9416453126379
 30
0.0
  0
LINE
  5
23D
330
1F
100
AcDbEntity
  8
0
  6
Continuous
 62
     7
370
    25
100
AcDbLine
 10
140.3657675783
 20
125.9416453126
 30
0.0
 11
140.3657675783
 21
134.85908395
 31
0.0
  0
LINE
  5
23E
330
1F
100
AcDbEntity
  8
0
  6
Continuous
 62
     7
370
    25
100
AcDbLine
 10
164.9223919053
 20
125.9416453126
 30
0.0
 11
141.8091432513
 21
125.9416453126
 31
0.0
  0
LINE
  5
23F
330
1F
100
AcDbEntity
  8
0
  6
Continuous
 62
     7
370
    25
100
AcDbLine
 10
166.6157675783
 20
151.9416453126
 30
0.0
 11
166.6157675783
 21
127.9416453126
 31
0.0
  0
LINE
  5
240
330
1F
100
AcDbEntity
  8
0
  6
Continuous
 62
     7
370
    25
100
AcDbLine
 10
168.3657675783
 20
151.9416453126
 30
0.0
 11
168.3657675783
 21
127.9416453126
 31
0.0
  0
LINE
  5
241
330
1F
100
AcDbEntity
  8
0
  6
Continuous
 62
     7
370
    25
100
AcDbLine
 10
177.6693763054
 20
129.6348830854
 30
0.0
 11
177.6693763054
 21
150.2484075399
 31
0.0
  0
LINE
  5
242
330
1F
100
AcDbEntity
  8
0
  6
Continuous
 62
     7
370
    25
100
AcDbLine
 10
180.3657675783
 20
148.6916453126
 30
0.0
 11
180.3657675783
 21
131.1916453126
 31
0.0
  0
LINE
  5
243
330
1F
100
AcDbEntity
  8
0
  6
Continuous
 62
     7
370
    25
100
AcDbLine
 10
151.1282835568
 20
138.9663727676
 30
0.0
 11
151.0954880298
 21
138.9851168069
 31
0.0
  0
SPLINE
  5
244
330
1F
100
AcDbEntity
  8
0
  6
Continuous
 62
     7
370
    25
100
AcDbSpline
210
0.0
220
0.0
230
1.0
 70
     8
 71
     3
 72
    15
 73
    11
 74
     0
 42
0.00000001
 43
0.00000001
 40
0.0
 40
0.0
 40
0.0
 40
0.0
 40
0.1241930067305288
 40
0.2496556654892296
 40
0.3743703853151211
 40
0.4998404796364203
 40
0.6240146704162363
 40
0.7475381382242062
 40
0.8745858500551816
 40
1.0
 40
1.0
 40
1.0
 40
1.0
 10
151.9085732784405
 20
139.2388124182237
 30
0.0
 10
151.8930128833308
 20
139.2029652154797
 30
0.0
 10
151.8617330158193
 20
139.1309043362679
 30
0.0
 10
151.7842966563309
 20
139.0410288229251
 30
0.0
 10
151.690942652592
 20
138.9687050451307
 30
0.0
 10
151.583717046571
 20
138.9197776266261
 30
0.0
 10
151.4693311358501
 20
138.8934495731714
 30
0.0
 10
151.3516603729648
 20
138.8925904791688
 30
0.0
 10
151.2347766477396
 20
138.9139732397984
 30
0.0
 10
151.1636277968448
 20
138.9489817662592
 30
0.0
 10
151.1282835567614
 20
138.9663727676405
 30
0.0
  0
LINE
  5
245
330
1F
100
AcDbEntity
  8
0
  6
Continuous
 62
     7
370
    25
100
AcDbLine
 10
152.9004273231
 20
142.0123916341
 30
0.0
 11
151.9085732784
 21
139.2388124182
 31
0.0
  0
SPLINE
  5
246
330
1F
100
AcDbEntity
  8
0
  6
Continuous
 62
     7
370
    25
100
AcDbSpline
210
0.0
220
0.0
230
1.0
 70
     8
 71
     3
 72
    15
 73
    11
 74
     0
 42
0.00000001
 43
0.00000001
 40
0.0
 40
0.0
 40
0.0
 40
0.0
 40
0.1233025178081761
 40
0.2485158700387114
 40
0.3756924668130947
 40
0.4999990880429331
 40
0.6243057092728396
 40
0.7514823060473044
 40
0.8766757256079959
 40
1.0
 40
1.0
 40
1.0
 40
1.0
 10
153.8311078366617
 20
142.012391634137
 30
0.0
 10
153.8069568646993
 20
142.0530367700728
 30
0.0
 10
153.7582806501646
 20
142.1349569246606
 30
0.0
 10
153.6429299919594
 20
142.2247758804731
 30
0.0
 10
153.5097703696976
 20
142.2823500286342
 30
0.0
 10
153.3657677263288
 20
142.3015087243043
 30
0.0
 10
153.2217641976303
 20
142.2823506214193
 30
0.0
 10
153.0886143246648
 20
142.2247765076807
 30
0.0
 10
152.9732519671304
 20
142.134970945534
 30
0.0
 10
152.9245801814592
 20
142.0530460140093
 30
0.0
 10
152.9004273231423
 20
142.0123916341371
 30
0.0
  0
LINE
  5
247
330
1F
100
AcDbEntity
  8
0
  6
Continuous
 62
     7
370
    25
100
AcDbLine
 10
154.822730743
 20
139.2394587638
 30
0.0
 11
153.8311078367
 21
142.0123916341
 31
0.0
  0
SPLINE
  5
248
330
1F
100
AcDbEntity
  8
0
  6
Continuous
 62
     7
370
    25
100
AcDbSpline
210
0.0
220
0.0
230
1.0
 70
     8
 71
     3
 72
    15
 73
    11
 74
     0
 42
0.00000001
 43
0.00000001
 40
0.0
 40
0.0
 40
0.0
 40
0.0
 40
0.1253320172137755
 40
0.2522975129251765
 40
0.3758847553984062
 40
0.5001929511416483
 40
0.6255758307380151
 40
0.7502289462456482
 40
0.8757444935777828
 40
1.0
 40
1.0
 40
1.0
 40
1.0
 10
155.5954325075755
 20
138.9627629131827
 30
0.0
 10
155.5601815909475
 20
138.9460886046999
 30
0.0
 10
155.4892203250931
 20
138.9125226679706
 30
0.0
 10
155.3732334343047
 20
138.8927410517165
 30
0.0
 10
155.2566370680644
 20
138.8948138320631
 30
0.0
 10
155.1435164614829
 20
138.9218918584137
 30
0.0
 10
155.0376407471434
 20
138.9711046741209
 30
0.0
 10
154.9455316625243
 20
139.0431904379947
 30
0.0
 10
154.8690999986559
 20
139.1324779594942
 30
0.0
 10
154.8381350911566
 20
139.2039186299312
 30
0.0
 10
154.8227307430354
 20
139.2394587637893
 30
0.0
  0
LINE
  5
249
330
1F
100
AcDbEntity
  8
0
  6
Continuous
 62
     7
370
    25
100
AcDbLine
 10
155.63604713
 20
138.9851168069
 30
0.0
 11
155.5954325076
 21
138.9627629132
 31
0.0
  0
LINE
  5
24A
330
1F
100
AcDbEntity
  8
0
  6
Continuous
 62
     7
370
    25
100
AcDbLine
 10
155.0090639336
 20
137.7897057034
 30
0.0
 11
155.63604713
 21
138.9851168069
 31
0.0
  0
SPLINE
  5
24B
330
1F
100
AcDbEntity
  8
0
  6
Continuous
 62
     7
370
    25
100
AcDbSpline
210
0.0
220
0.0
230
1.0
 70
     8
 71
     3
 72
    15
 73
    11
 74
     0
 42
0.00000001
 43
0.00000001
 40
0.0
 40
0.0
 40
0.0
 40
0.0
 40
0.1246332186438571
 40
0.2519059530189798
 40
0.3765391000744966
 40
0.4994035903146521
 40
0.6264494152300174
 40
0.7526064410610431
 40
0.8746804377363274
 40
1.0
 40
1.0
 40
1.0
 40
1.0
 10
154.9038354447664
 20
137.7715885366852
 30
0.0
 10
154.9078499204346
 20
137.7684833018326
 30
0.0
 10
154.9159638914133
 20
137.7622070686308
 30
0.0
 10
154.9304024832498
 20
137.7565940551509
 30
0.0
 10
154.9455359331829
 20
137.7540577025241
 30
0.0
 10
154.9608984754647
 20
137.754943106092
 30
0.0
 10
154.9758290543014
 20
137.7590741766076
 30
0.0
 10
154.9893309543307
 20
137.7665648765535
 30
0.0
 10
155.0010166092171
 20
137.7767034584678
 30
0.0
 10
155.0063581335579
 20
137.7853338808106
 30
0.0
 10
155.0090639335596
 20
137.7897057034029
 30
0.0
  0
SPLINE
  5
24C
330
1F
100
AcDbEntity
  8
0
  6
Continuous
 62
     7
370
    25
100
AcDbSpline
210
0.0
220
0.0
230
1.0
 70
     8
 71
     3
 72
    11
 73
     7
 74
     0
 42
0.00000001
 43
0.00000001
 40
0.0
 40
0.0
 40
0.0
 40
0.0
 40
0.2506252605986011
 40
0.4999999999996215
 40
0.7493747394010043
 40
1.0
 40
1.0
 40
1.0
 40
1.0
 10
151.8276997150376
 20
137.7715885366852
 30
0.0
 10
152.0574274092109
 20
137.9344428286462
 30
0.0
 10
152.5157365469739
 20
138.259338833885
 30
0.0
 10
153.36576757991
 20
138.3930707808221
 30
0.0
 10
154.2157986128402
 20
138.2593388338798
 30
0.0
 10
154.6741077505965
 20
137.9344428286445
 30
0.0
 10
154.9038354447665
 20
137.7715885366852
 30
0.0
  0
SPLINE
  5
24D
330
1F
100
AcDbEntity
  8
0
  6
Continuous
 62
     7
370
    25
100
AcDbSpline
210
0.0
220
0.0
230
1.0
 70
     8
 71
     3
 72
    15
 73
    11
 74
     0
 42
0.00000001
 43
0.00000001
 40
0.0
 40
0.0
 40
0.0
 40
0.0
 40
0.125319195797913
 40
0.2473928354984057
 40
0.3734492416489697
 40
0.5005950046079961
 40
0.6235484391777629
 40
0.7480947836179478
 40
0.875367145815393
 40
1.0
 40
1.0
 40
1.0
 40
1.0
 10
151.7224712262444
 20
137.7897057034029
 30
0.0
 10
151.7251770225768
 20
137.7853338751189
 30
0.0
 10
151.730518539674
 20
137.7767034415401
 30
0.0
 10
151.742201112263
 20
137.7665676640404
 30
0.0
 10
151.7557020922503
 20
137.7590755481667
 30
0.0
 10
151.7706361211004
 20
137.7549431028746
 30
0.0
 10
151.7860031322894
 20
137.754055161101
 30
0.0
 10
151.8011358687276
 20
137.7565961033586
 30
0.0
 10
151.8155712985093
 20
137.7622068816258
 30
0.0
 10
151.8236852493386
 20
137.7684832399345
 30
0.0
 10
151.8276997150375
 20
137.7715885366852
 30
0.0
  0
LINE
  5
24E
330
1F
100
AcDbEntity
  8
0
  6
Continuous
 62
     7
370
    25
100
AcDbLine
 10
151.0954880298
 20
138.9851168069
 30
0.0
 11
151.7224712262
 21
137.7897057034
 31
0.0
  0
SPLINE
  5
24F
330
1F
100
AcDbEntity
  8
0
  6
Continuous
 62
     7
370
    25
100
AcDbSpline
210
0.0
220
0.0
230
1.0
 70
     8
 71
     3
 72
    15
 73
    11
 74
     0
 42
0.00000001
 43
0.00000001
 40
0.0
 40
0.0
 40
0.0
 40
0.0
 40
0.1233867499278388
 40
0.2487396502211602
 40
0.3739317114754985
 40
0.4999973617625659
 40
0.6259591330513601
 40
0.7512551380600303
 40
0.8765613478174267
 40
1.0
 40
1.0
 40
1.0
 40
1.0
 10
153.3028847135039
 20
139.9630547707807
 30
0.0
 10
153.3057629146958
 20
139.9690695668637
 30
0.0
 10
153.3115651808074
 20
139.9811950039523
 30
0.0
 10
153.3270945855282
 20
139.9945862643024
 30
0.0
 10
153.3454491674016
 20
140.0034639758823
 30
0.0
 10
153.3657619838845
 20
140.0062206391788
 30
0.0
 10
153.3860804015996
 20
140.0034659579782
 30
0.0
 10
153.4044332707637
 20
139.9945902596887
 30
0.0
 10
153.4199713751593
 20
139.981199892435
 30
0.0
 10
153.4257719371905
 20
139.969072794889
 30
0.0
 10
153.4286504431161
 20
139.9630547707807
 30
0.0
  0
LINE
  5
250
330
1F
100
AcDbEntity
  8
0
  6
Continuous
 62
     7
370
    25
100
AcDbLine
 10
153.0637711878
 20
139.3248007415
 30
0.0
 11
153.3028847135
 21
139.9630547708
 31
0.0
  0
SPLINE
  5
251
330
1F
100
AcDbEntity
  8
0
  6
Continuous
 62
     7
370
    25
100
AcDbSpline
210
0.0
220
0.0
230
1.0
 70
     8
 71
     3
 72
    15
 73
    11
 74
     0
 42
0.00000001
 43
0.00000001
 40
0.0
 40
0.0
 40
0.0
 40
0.0
 40
0.1261585224210646
 40
0.2513121451548803
 40
0.3762846848783793
 40
0.4993062783340885
 40
0.6261594278645746
 40
0.7521171342021311
 40
0.87581969226928
 40
1.0
 40
1.0
 40
1.0
 40
1.0
 10
153.1266540526322
 20
139.2397363881581
 30
0.0
 10
153.1214229561436
 20
139.2400586947505
 30
0.0
 10
153.1110024308009
 20
139.2407007406429
 30
0.0
 10
153.0962158802865
 20
139.2461489810181
 30
0.0
 10
153.083025527661
 20
139.2543715836038
 30
0.0
 10
153.0721549528197
 20
139.2656281899163
 30
0.0
 10
153.0641473654912
 20
139.2791489352575
 30
0.0
 10
153.0599807384585
 20
139.2942858228343
 30
0.0
 10
153.0593596869469
 20
139.3099749544054
 30
0.0
 10
153.0622987993016
 20
139.319852466764
 30
0.0
 10
153.0637711877844
 20
139.3248007415081
 30
0.0
  0
LINE
  5
252
330
1F
100
AcDbEntity
  8
0
  6
Continuous
 62
     7
370
    25
100
AcDbLine
 10
153.6048811068
 20
139.2397363882
 30
0.0
 11
153.1266540526
 21
139.2397363882
 31
0.0
  0
SPLINE
  5
253
330
1F
100
AcDbEntity
  8
0
  6
Continuous
 62
     7
370
    25
100
AcDbSpline
210
0.0
220
0.0
230
1.0
 70
     8
 71
     3
 72
    15
 73
    11
 74
     0
 42
0.00000001
 43
0.00000001
 40
0.0
 40
0.0
 40
0.0
 40
0.0
 40
0.1241186784437694
 40
0.2478474916628982
 40
0.3736574149478941
 40
0.5005082335853295
 40
0.6234527658309924
 40
0.7484986612277525
 40
0.873697649245277
 40
1.0
 40
1.0
 40
1.0
 40
1.0
 10
153.6677639715616
 20
139.3248007417312
 30
0.0
 10
153.6692350441704
 20
139.3198548960731
 30
0.0
 10
153.6721725686488
 20
139.3099787399949
 30
0.0
 10
153.6715558341487
 20
139.2942973443692
 30
0.0
 10
153.6673938725541
 20
139.2791648122889
 30
0.0
 10
153.6593951247557
 20
139.2656499046745
 30
0.0
 10
153.6485290332189
 20
139.2543898434785
 30
0.0
 10
153.6353413153942
 20
139.246160131045
 30
0.0
 10
153.620546868819
 20
139.24070056066
 30
0.0
 10
153.6101182779117
 20
139.240058717603
 30
0.0
 10
153.6048811067973
 20
139.2397363881581
 30
0.0
  0
LINE
  5
254
330
1F
100
AcDbEntity
  8
0
  6
Continuous
 62
     7
370
    25
100
AcDbLine
 10
153.4286504431
 20
139.9630547708
 30
0.0
 11
153.6677639716
 21
139.3248007417
 31
0.0
  0
CIRCLE
  5
255
330
1F
100
AcDbEntity
  8
0
  6
Continuous
 62
     7
370
    25
100
AcDbCircle
 10
153.3657675783
 20
139.9416453126
 30
0.0
 40
4.5
  0
LINE
  5
256
330
1F
100
AcDbEntity
  8
0
  6
Continuous
 62
     7
370
    25
100
AcDbLine
 10
138.2605393648
 20
138.1654848929
 30
0.0
 11
103.9838015671
 21
139.0630528605
 31
0.0
  0
LINE
  5
257
330
1F
100
AcDbEntity
  8
0
  6
Continuous
 62
     7
370
    25
100
AcDbLine
 10
103.9838015671
 20
139.0630528605
 30
0.0
 11
103.9838015671
 21
140.8202377648
 31
0.0
  0
LINE
  5
258
330
1F
100
AcDbEntity
  8
0
  6
Continuous
 62
     7
370
    25
100
AcDbLine
 10
103.9838015671
 20
140.8202377648
 30
0.0
 11
138.2605393648
 21
141.7178057324
 31
0.0
  0
ELLIPSE
  5
259
330
1F
100
AcDbEntity
  8
0
  6
Continuous
 62
     7
370
    25
100
AcDbEllipse
 10
138.2657675783
 20
140.917394076
 30
0.0
 11
0.9988086229566022
 21
0.0610396441386456
 31
0.0
210
0.0
220
0.0
230
1.0
 40
0.7994627403
 41
0.8784769082856276
 42
1.527206254409818
  0
LINE
  5
25A
330
1F
100
AcDbEntity
  8
0
  6
Continuous
 62
     7
370
    25
100
AcDbLine
 10
138.8657675783
 20
141.5710244622
 30
0.0
 11
138.8657675783
 21
138.312266163
 31
0.0
  0
ELLIPSE
  5
25B
330
1F
100
AcDbEntity
  8
0
  6
Continuous
 62
     7
370
    25
100
AcDbEllipse
 10
138.2657675783
 20
138.9658965493
 30
0.0
 11
0.9988086229566022
 21
-0.06103964413861718
 31
0.0
210
0.0
220
0.0
230
1.0
 40
0.7994627403
 41
4.755979052769755
 42
5.404708398893951
  0
LINE
  5
25C
330
1F
100
AcDbEntity
  8
0
  6
Continuous
 62
     7
370
    25
100
AcDbLine
 10
140.0657675783
 20
138.929229078
 30
0.0
 11
140.0657675783
 21
140.9540615473
 31
0.0
  0
SPLINE
  5
25D
330
1F
100
AcDbEntity
  8
0
  6
Continuous
 62
     7
370
    25
100
AcDbSpline
210
0.0
220
0.0
230
1.0
 70
     8
 71
     3
 72
    11
 73
     7
 74
     0
 42
0.00000001
 43
0.00000001
 40
0.0
 40
0.0
 40
0.0
 40
0.0
 40
0.256189465130731
 40
0.5096044939206912
 40
0.7692742066553654
 40
1.0
 40
1.0
 40
1.0
 40
1.0
 10
140.06576757831
 20
138.9292290780044
 30
0.0
 10
139.9901714460161
 20
138.869717037356
 30
0.0
 10
139.8397978593414
 20
138.7513374492597
 30
0.0
 10
139.5405850733862
 20
138.5806999071243
 30
0.0
 10
139.2130653384994
 20
138.4290759962236
 30
0.0
 10
138.9768869576856
 20
138.3496399605524
 30
0.0
 10
138.86576757831
 20
138.3122661630294
 30
0.0
  0
SPLINE
  5
25E
330
1F
100
AcDbEntity
  8
0
  6
Continuous
 62
     7
370
    25
100
AcDbSpline
210
0.0
220
0.0
230
1.0
 70
     8
 71
     3
 72
    11
 73
     7
 74
     0
 42
0.00000001
 43
0.00000001
 40
0.0
 40
0.0
 40
0.0
 40
0.0
 40
0.230737480522408
 40
0.4903955403005858
 40
0.7438105520730638
 40
1.0
 40
1.0
 40
1.0
 40
1.0
 10
138.86576757831
 20
141.5710244622463
 30
0.0
 10
138.9768928120664
 20
141.5336492713333
 30
0.0
 10
139.2130716891419
 20
141.4542142922388
 30
0.0
 10
139.540589330093
 20
141.302587612475
 30
0.0
 10
139.8397979267555
 20
141.1319533075267
 30
0.0
 10
139.9901714685689
 20
141.0135736319154
 30
0.0
 10
140.06576757831
 20
140.9540615472713
 30
0.0
  0
SPLINE
  5
25F
330
1F
100
AcDbEntity
  8
0
  6
Continuous
 62
     7
370
    25
100
AcDbSpline
210
0.0
220
0.0
230
1.0
 70
    24
 71
     3
 72
    11
 73
     7
 74
     0
 42
0.00000001
 43
0.00000001
 40
0.0
 40
0.0
 40
0.0
 40
0.0
 40
0.2500000000000021
 40
0.4999999999999994
 40
0.7500000000000007
 40
0.9999999999999999
 40
0.9999999999999999
 40
0.9999999999999999
 40
0.9999999999999999
 10
103.9654839823748
 20
141.5197581019513
 30
0.0
 10
103.9658118436306
 20
141.5072375857287
 30
0.0
 10
103.9664675661423
 20
141.4821965532836
 30
0.0
 10
103.9707265352815
 20
141.319553083661
 30
0.0
 10
103.9767183909434
 20
141.0907333476066
 30
0.0
 10
103.9814405083544
 20
140.9104029590603
 30
0.0
 10
103.9838015670599
 20
140.8202377647872
 30
0.0
  0
LINE
  5
260
330
1F
100
AcDbEntity
  8
0
  6
Continuous
 62
     7
370
    25
100
AcDbLine
 10
138.2422217801
 20
142.4173260696
 30
0.0
 11
103.9654839824
 21
141.519758102
 31
0.0
  0
SPLINE
  5
261
330
1F
100
AcDbEntity
  8
0
  6
Continuous
 62
     7
370
    25
100
AcDbSpline
210
0.0
220
0.0
230
1.0
 70
    24
 71
     3
 72
    11
 73
     7
 74
     0
 42
0.00000001
 43
0.00000001
 40
0.0
 40
0.0
 40
0.0
 40
0.0
 40
0.2499999999999979
 40
0.4999999999999971
 40
0.75
 40
1.0
 40
1.0
 40
1.0
 40
1.0
 10
138.2422217801125
 20
142.4173260695705
 30
0.0
 10
138.2425496413683
 20
142.4048055533479
 30
0.0
 10
138.2432053638799
 20
142.3797645209028
 30
0.0
 10
138.2474643330192
 20
142.2171210512802
 30
0.0
 10
138.253456188681
 20
141.9883013152258
 30
0.0
 10
138.258178306092
 20
141.8079709266795
 30
0.0
 10
138.2605393647975
 20
141.7178057324064
 30
0.0
  0
LINE
  5
262
330
1F
100
AcDbEntity
  8
0
  6
Continuous
 62
     7
370
    25
100
AcDbLine
 10
103.9654839824
 20
138.3635325233
 30
0.0
 11
138.2422217801
 21
137.4659645557
 31
0.0
  0
SPLINE
  5
263
330
1F
100
AcDbEntity
  8
0
  6
Continuous
 62
     7
370
    25
100
AcDbSpline
210
0.0
220
0.0
230
1.0
 70
    24
 71
     3
 72
    11
 73
     7
 74
     0
 42
0.00000001
 43
0.00000001
 40
0.0
 40
0.0
 40
0.0
 40
0.0
 40
0.2499999999999975
 40
0.5000000000000017
 40
0.7500000000000006
 40
1.0
 40
1.0
 40
1.0
 40
1.0
 10
103.9654839823748
 20
138.3635325233244
 30
0.0
 10
103.9658118436307
 20
138.376053039547
 30
0.0
 10
103.9664675661423
 20
138.4010940719921
 30
0.0
 10
103.9707265352815
 20
138.5637375416147
 30
0.0
 10
103.9767183909434
 20
138.7925572776692
 30
0.0
 10
103.9814405083544
 20
138.9728876662154
 30
0.0
 10
103.9838015670599
 20
139.0630528604885
 30
0.0
  0
SPLINE
  5
264
330
1F
100
AcDbEntity
  8
0
  6
Continuous
 62
     7
370
    25
100
AcDbSpline
210
0.0
220
0.0
230
1.0
 70
    24
 71
     3
 72
    11
 73
     7
 74
     0
 42
0.00000001
 43
0.00000001
 40
0.0
 40
0.0
 40
0.0
 40
0.0
 40
0.2500000000000002
 40
0.5000000000000036
 40
0.7500000000000022
 40
1.0
 40
1.0
 40
1.0
 40
1.0
 10
138.2605393647976
 20
138.1654848928694
 30
0.0
 10
138.258178306092
 20
138.0753196985962
 30
0.0
 10
138.253456188681
 20
137.89498931005
 30
0.0
 10
138.2474643330192
 20
137.6661695739955
 30
0.0
 10
138.2432053638799
 20
137.503526104373
 30
0.0
 10
138.2425496413683
 20
137.4784850719278
 30
0.0
 10
138.2422217801125
 20
137.4659645557053
 30
0.0
  0
ELLIPSE
  5
265
330
1F
100
AcDbEntity
  8
0
  6
Continuous
 62
     7
370
    25
100
AcDbEllipse
 10
103.9838015671
 20
140.8411936831
 30
0.0
 11
1.49999997144873
 21
0.02095282558966005
 31
0.0
210
0.0
220
0.0
230
1.0
 40
0.0139678873
 41
3.842044658398443
 42
4.712193869245415
  0
ELLIPSE
  5
266
330
1F
100
AcDbEntity
  8
0
  6
Continuous
 62
     7
370
    25
100
AcDbEllipse
 10
103.9838015671
 20
139.0420969422
 30
0.0
 11
1.49999997144873
 21
-0.02095282558966005
 31
0.0
210
0.0
220
0.0
230
1.0
 40
0.0139678873
 41
1.570991437934172
 42
2.441140648780347
  0
SPLINE
  5
267
330
1F
100
AcDbEntity
  8
0
  6
Continuous
 62
     7
370
    25
100
AcDbSpline
210
0.0
220
0.0
230
1.0
 70
     8
 71
     3
 72
     9
 73
     5
 74
     0
 42
0.00000001
 43
0.00000001
 40
0.0
 40
0.0
 40
0.0
 40
0.0
 40
0.5600029565045049
 40
1.0
 40
1.0
 40
1.0
 40
1.0
 10
102.8371638516114
 20
139.0716212260139
 30
0.0
 10
102.8290160922582
 20
139.0716155879477
 30
0.0
 10
102.8144665987985
 20
139.0716055200255
 30
0.0
 10
102.8005219558579
 20
139.0717276966289
 30
0.0
 10
102.7943863541915
 20
139.0717814539732
 30
0.0
  0
ELLIPSE
  5
268
330
1F
100
AcDbEntity
  8
0
  6
Continuous
 62
     7
370
    25
100
AcDbEllipse
 10
103.9838015671
 20
139.0245077801
 30
0.0
 11
1.499999872704137
 21
-0.0430792567095466
 31
0.0
210
0.0
220
0.0
230
1.0
 40
0.0143449667
 41
2.486833182542661
 42
2.678357024933858
  0
LINE
  5
269
330
1F
100
AcDbEntity
  8
0
  6
Continuous
 62
     7
370
    25
100
AcDbLine
 10
102.6421607806
 20
140.8106286872
 30
0.0
 11
102.6421607806
 21
139.0726619381
 31
0.0
  0
ELLIPSE
  5
26A
330
1F
100
AcDbEntity
  8
0
  6
Continuous
 62
     7
370
    25
100
AcDbEllipse
 10
103.9838015671
 20
140.8587828452
 30
0.0
 11
1.499999872704137
 21
0.04307925670957501
 31
0.0
210
0.0
220
0.0
230
1.0
 40
0.0143449667
 41
3.604828282245435
 42
3.796352124635639
  0
SPLINE
  5
26B
330
1F
100
AcDbEntity
  8
0
  6
Continuous
 62
     7
370
    25
100
AcDbSpline
210
0.0
220
0.0
230
1.0
 70
     8
 71
     3
 72
     9
 73
     5
 74
     0
 42
0.00000001
 43
0.00000001
 40
0.0
 40
0.0
 40
0.0
 40
0.0
 40
0.5599925069634167
 40
1.0
 40
1.0
 40
1.0
 40
1.0
 10
102.7943863541915
 20
140.8115091713026
 30
0.0
 10
102.8022091640484
 20
140.8115749164539
 30
0.0
 10
102.816178654282
 20
140.8116923200809
 30
0.0
 10
102.8307516321525
 20
140.8116764029282
 30
0.0
 10
102.8371638516114
 20
140.8116693992618
 30
0.0
  0
ELLIPSE
  5
26C
330
1F
100
AcDbEntity
  8
0
  6
Continuous
 62
     7
370
    25
100
AcDbEllipse
 10
103.9654839824
 20
138.342576605
 30
0.0
 11
0.7999998117959281
 21
-0.02096310677478641
 31
0.0
210
0.0
220
0.0
230
1.0
 40
0.026176936
 41
1.571482264229188
 42
2.441631475078174
  0
SPLINE
  5
26D
330
1F
100
AcDbEntity
  8
0
  6
Continuous
 62
     7
370
    25
100
AcDbSpline
210
0.0
220
0.0
230
1.0
 70
     8
 71
     3
 72
    12
 73
     8
 74
     0
 42
0.00000001
 43
0.00000001
 40
0.0
 40
0.0
 40
0.0
 40
0.0
 40
0.2198609600791261
 40
0.4397396970008124
 40
0.658329145139775
 40
0.8791239516843592
 40
1.0
 40
1.0
 40
1.0
 40
1.0
 10
103.353943867469
 20
138.3721008888498
 30
0.0
 10
103.2940288047401
 20
138.3827728834939
 30
0.0
 10
103.1741938348541
 20
138.4041177356655
 30
0.0
 10
103.0174588465796
 20
138.5322361309325
 30
0.0
 10
102.9008905227934
 20
138.7151740669976
 30
0.0
 10
102.8446338309991
 20
138.9067232388847
 30
0.0
 10
102.8391159597829
 20
139.0285289105697
 30
0.0
 10
102.8371638516114
 20
139.0716212260139
 30
0.0
  0
ELLIPSE
  5
26E
330
1F
100
AcDbEntity
  8
0
  6
Continuous
 62
     7
370
    25
100
AcDbEllipse
 10
103.9654839824
 20
141.5407140203
 30
0.0
 11
0.7999998117959281
 21
0.02096310677478641
 31
0.0
210
0.0
220
0.0
230
1.0
 40
0.026176936
 41
3.841553832102796
 42
4.711703042950399
  0
SPLINE
  5
26F
330
1F
100
AcDbEntity
  8
0
  6
Continuous
 62
     7
370
    25
100
AcDbSpline
210
0.0
220
0.0
230
1.0
 70
     8
 71
     3
 72
    12
 73
     8
 74
     0
 42
0.00000001
 43
0.00000001
 40
0.0
 40
0.0
 40
0.0
 40
0.0
 40
0.2198610998683208
 40
0.4397399767664977
 40
0.6583294271823328
 40
0.8791242261983195
 40
1.0
 40
1.0
 40
1.0
 40
1.0
 10
102.8371638516114
 20
140.8116693992618
 30
0.0
 10
102.8432668015067
 20
140.890360308981
 30
0.0
 10
102.8554731947558
 20
141.0477484910302
 30
0.0
 10
102.9479971358542
 20
141.2570302395152
 30
0.0
 10
103.0837810832759
 20
141.4156795601796
 30
0.0
 10
103.2282089466393
 20
141.4957796228949
 30
0.0
 10
103.3210859582881
 20
141.5071626601966
 30
0.0
 10
103.353943867469
 20
141.5111897364259
 30
0.0
  0
SPLINE
  5
270
330
1F
100
AcDbEntity
  8
0
  6
Continuous
 62
     7
370
    25
100
AcDbSpline
210
0.0
220
0.0
230
1.0
 70
     8
 71
     3
 72
    11
 73
     7
 74
     0
 42
0.00000001
 43
0.00000001
 40
0.0
 40
0.0
 40
0.0
 40
0.0
 40
0.2561894651307129
 40
0.5096044939206583
 40
0.7692742066444705
 40
1.0
 40
1.0
 40
1.0
 40
1.0
 10
140.06576757831
 20
140.9540615472713
 30
0.0
 10
140.0214025876932
 20
141.0675690825926
 30
0.0
 10
139.9331530627585
 20
141.2933549089693
 30
0.0
 10
139.723340975834
 20
141.6185572447289
 30
0.0
 10
139.4758331063424
 20
141.9085136026581
 30
0.0
 10
139.2810832756043
 20
142.0595754238365
 30
0.0
 10
139.189455581945
 20
142.1306483804705
 30
0.0
  0
SPLINE
  5
271
330
1F
100
AcDbEntity
  8
0
  6
Continuous
 62
     7
370
    25
100
AcDbSpline
210
0.0
220
0.0
230
1.0
 70
    24
 71
     3
 72
    10
 73
     6
 74
     0
 42
0.00000001
 43
0.00000001
 40
0.0
 40
0.0
 40
0.0
 40
0.0
 40
0.2808335173386657
 40
0.5616510917414113
 40
1.0
 40
1.0
 40
1.0
 40
1.0
 10
139.189455581945
 20
142.1306483804705
 30
0.0
 10
139.1712474623002
 20
142.0991683776755
 30
0.0
 10
139.1348322566865
 20
142.0362101592072
 30
0.0
 10
139.0250491718862
 20
141.8464062758974
 30
0.0
 10
138.9260872191524
 20
141.675311038749
 30
0.0
 10
138.86576757831
 20
141.5710244622463
 30
0.0
  0
ELLIPSE
  5
272
330
1F
100
AcDbEntity
  8
0
  6
Continuous
 62
     7
370
    25
100
AcDbEllipse
 10
138.2657675783
 20
140.917394076
 30
0.0
 11
1.557390436637235
 21
0.09517594847736177
 31
0.0
210
0.0
220
0.0
230
1.0
 40
0.9613560848
 41
0.8784769082856102
 42
1.527206254409841
  0
SPLINE
  5
273
330
1F
100
AcDbEntity
  8
0
  6
Continuous
 62
     7
370
    25
100
AcDbSpline
210
0.0
220
0.0
230
1.0
 70
     8
 71
     3
 72
    11
 73
     7
 74
     0
 42
0.00000001
 43
0.00000001
 40
0.0
 40
0.0
 40
0.0
 40
0.0
 40
0.2307374805226512
 40
0.4903955403005855
 40
0.7438105520730653
 40
1.0
 40
1.0
 40
1.0
 40
1.0
 10
139.189455581945
 20
137.7526422448052
 30
0.0
 10
139.2810875867045
 20
137.8237192629953
 30
0.0
 10
139.4758367292412
 20
137.9747820754147
 30
0.0
 10
139.7233442964791
 20
138.2647381045702
 30
0.0
 10
139.9331530258732
 20
138.5899357651188
 30
0.0
 10
140.0214025753536
 20
138.8157215590129
 30
0.0
 10
140.06576757831
 20
138.9292290780044
 30
0.0
  0
SPLINE
  5
274
330
1F
100
AcDbEntity
  8
0
  6
Continuous
 62
     7
370
    25
100
AcDbSpline
210
0.0
220
0.0
230
1.0
 70
    24
 71
     3
 72
    10
 73
     6
 74
     0
 42
0.00000001
 43
0.00000001
 40
0.0
 40
0.0
 40
0.0
 40
0.0
 40
0.2808335173386727
 40
0.561651091741416
 40
1.0
 40
1.0
 40
1.0
 40
1.0
 10
138.86576757831
 20
138.3122661630294
 30
0.0
 10
138.9041180272724
 20
138.2459621039571
 30
0.0
 10
138.98081674804
 20
138.1133577498979
 30
0.0
 10
139.105971098082
 20
137.8969784989935
 30
0.0
 10
139.1578401644352
 20
137.8073021136431
 30
0.0
 10
139.189455581945
 20
137.7526422448052
 30
0.0
  0
ELLIPSE
  5
275
330
1F
100
AcDbEntity
  8
0
  6
Continuous
 62
     7
370
    25
100
AcDbEllipse
 10
138.2657675783
 20
138.9658965493
 30
0.0
 11
1.557390436637235
 21
-0.09517594847730494
 31
0.0
210
0.0
220
0.0
230
1.0
 40
0.9613560848
 41
4.755979052769723
 42
5.404708398893966
  0
LINE
  5
276
330
1F
100
AcDbEntity
  8
0
  6
Continuous
 62
     7
370
    25
100
AcDbLine
 10
140.3657810336
 20
142.5471019828
 30
0.0
 11
138.2422217801
 21
142.4173260696
 31
0.0
  0
SPLINE
  5
277
330
1F
100
AcDbEntity
  8
0
  6
Continuous
 62
     7
370
    25
100
AcDbSpline
210
0.0
220
0.0
230
1.0
 70
     8
 71
     3
 72
    13
 73
     9
 74
     0
 42
0.00000001
 43
0.00000001
 40
0.0
 40
0.0
 40
0.0
 40
0.0
 40
0.1035746466401555
 40
0.2111076158583393
 40
0.3219769626223817
 40
0.4454462032504115
 40
0.711304972801038
 40
1.0
 40
1.0
 40
1.0
 40
1.0
 10
142.46576757831
 20
141.1007314323381
 30
0.0
 10
142.4585114135496
 20
141.1990742107869
 30
0.0
 10
142.443721774458
 20
141.3995181434352
 30
0.0
 10
142.3174491648961
 20
141.6824601936652
 30
0.0
 10
142.1209017767653
 20
141.9407184186841
 30
0.0
 10
141.757050103678
 20
142.2438137684392
 30
0.0
 10
141.1594627169427
 20
142.5093434347227
 30
0.0
 10
140.637506233383
 20
142.5341749501375
 30
0.0
 10
140.3657810335896
 20
142.5471019827538
 30
0.0
  0
LINE
  5
278
330
1F
100
AcDbEntity
  8
0
  6
Continuous
 62
     7
370
    25
100
AcDbLine
 10
140.0657675783
 20
140.9540615473
 30
0.0
 11
142.4657675783
 21
141.1007314323
 31
0.0
  0
LINE
  5
279
330
1F
100
AcDbEntity
  8
0
  6
Continuous
 62
     7
370
    25
100
AcDbLine
 10
142.4657675783
 20
138.7825591929
 30
0.0
 11
140.0657675783
 21
138.929229078
 31
0.0
  0
SPLINE
  5
27A
330
1F
100
AcDbEntity
  8
0
  6
Continuous
 62
     7
370
    25
100
AcDbSpline
210
0.0
220
0.0
230
1.0
 70
     8
 71
     3
 72
    13
 73
     9
 74
     0
 42
0.00000001
 43
0.00000001
 40
0.0
 40
0.0
 40
0.0
 40
0.0
 40
0.2886949682914849
 40
0.5545536835943153
 40
0.6780091910936107
 40
0.7888922083801198
 40
0.896419407140649
 40
1.0
 40
1.0
 40
1.0
 40
1.0
 10
140.3657810335896
 20
137.336188642522
 30
0.0
 10
140.6375062241658
 20
137.3491156480047
 30
0.0
 10
141.1594626900203
 20
137.3739471112987
 30
0.0
 10
141.7570380981235
 20
137.6394717127313
 30
0.0
 10
142.120892278303
 20
137.9425627093355
 30
0.0
 10
142.3174397698687
 20
138.2008144634561
 30
0.0
 10
142.4437230589749
 20
138.4837658296244
 30
0.0
 10
142.458511560946
 20
138.6842104923155
 30
0.0
 10
142.46576757831
 20
138.7825591929377
 30
0.0
  0
LINE
  5
27B
330
1F
100
AcDbEntity
  8
0
  6
Continuous
 62
     7
370
    25
100
AcDbLine
 10
138.2422217801
 20
137.4659645557
 30
0.0
 11
140.3657810336
 21
137.3361886425
 31
0.0
  0
SPLINE
  5
27C
330
1F
100
AcDbEntity
  8
0
  6
Continuous
 62
     7
370
    25
100
AcDbSpline
210
0.0
220
0.0
230
1.0
 70
     8
 71
     3
 72
    12
 73
     8
 74
     0
 42
0.00000001
 43
0.00000001
 40
0.0
 40
0.0
 40
0.0
 40
0.0
 40
0.2225634137434379
 40
0.4462063173695245
 40
0.6680851268156933
 40
0.8917990985568367
 40
1.0
 40
1.0
 40
1.0
 40
1.0
 10
103.3118282844365
 20
141.5102445005539
 30
0.0
 10
103.2501317188016
 20
141.4978913929871
 30
0.0
 10
103.1264393432972
 20
141.4731252621001
 30
0.0
 10
102.9672730015037
 20
141.3405413341023
 30
0.0
 10
102.8511911134868
 20
141.1541839306076
 30
0.0
 10
102.7994760627589
 20
140.9660931192544
 30
0.0
 10
102.795637640982
 20
140.849513086366
 30
0.0
 10
102.7943863541915
 20
140.8115091713026
 30
0.0
  0
SPLINE
  5
27D
330
1F
100
AcDbEntity
  8
0
  6
Continuous
 62
     7
370
    25
100
AcDbSpline
210
0.0
220
0.0
230
1.0
 70
     8
 71
     3
 72
    12
 73
     8
 74
     0
 42
0.00000001
 43
0.00000001
 40
0.0
 40
0.0
 40
0.0
 40
0.0
 40
0.222563413743527
 40
0.446206317369568
 40
0.6680851268158053
 40
0.8917990985569333
 40
1.0
 40
1.0
 40
1.0
 40
1.0
 10
102.7943863541915
 20
139.0717814539732
 30
0.0
 10
102.799972920294
 20
138.9932777939306
 30
0.0
 10
102.8111731487835
 20
138.835889710874
 30
0.0
 10
102.9052239264706
 20
138.6265381732466
 30
0.0
 10
103.0447149898686
 20
138.4677788787765
 30
0.0
 10
103.189939089705
 20
138.3899300084599
 30
0.0
 10
103.2818622584351
 20
138.3771969676264
 30
0.0
 10
103.3118282844365
 20
138.3730461247219
 30
0.0
  0
SPLINE
  5
27E
330
1F
100
AcDbEntity
  8
0
  6
Continuous
 62
     7
370
    25
100
AcDbSpline
210
0.0
220
0.0
230
1.0
 70
     8
 71
     3
 72
    11
 73
     7
 74
     0
 42
0.00000001
 43
0.00000001
 40
0.0
 40
0.0
 40
0.0
 40
0.0
 40
0.2500000000000012
 40
0.5000000000000016
 40
0.7499999999999999
 40
1.0
 40
1.0
 40
1.0
 40
1.0
 10
103.230641311833
 20
141.5093640164079
 30
0.0
 10
103.1524062035008
 20
141.4943647112413
 30
0.0
 10
102.9959359868362
 20
141.4643661009082
 30
0.0
 10
102.8026098354198
 20
141.3008463981115
 30
0.0
 10
102.6682334031408
 20
141.0752667840291
 30
0.0
 10
102.6508516547536
 20
140.8988413861141
 30
0.0
 10
102.64216078056
 20
140.8106286871565
 30
0.0
  0
ELLIPSE
  5
27F
330
1F
100
AcDbEntity
  8
0
  6
Continuous
 62
     7
370
    25
100
AcDbEllipse
 10
103.9461830646
 20
141.5575181744
 30
0.0
 11
0.7999991634988818
 21
0.04310148564320571
 31
0.0
210
0.0
220
0.0
230
0.9999999999999999
 40
0.0268411366
 41
3.603794146006008
 42
3.795317988398192
  0
ELLIPSE
  5
280
330
1F
100
AcDbEntity
  8
0
  6
Continuous
 62
     7
370
    25
100
AcDbEllipse
 10
103.9461830646
 20
138.3257724509
 30
0.0
 11
0.7999991634988818
 21
-0.04310148564323413
 31
0.0
210
0.0
220
0.0
230
1.0
 40
0.0268411366
 41
2.487867318783658
 42
2.679391161175148
  0
SPLINE
  5
281
330
1F
100
AcDbEntity
  8
0
  6
Continuous
 62
     7
370
    25
100
AcDbSpline
210
0.0
220
0.0
230
1.0
 70
     8
 71
     3
 72
    11
 73
     7
 74
     0
 42
0.00000001
 43
0.00000001
 40
0.0
 40
0.0
 40
0.0
 40
0.0
 40
0.2500000000000016
 40
0.4999999999999979
 40
0.7499999999999992
 40
0.9999999999999999
 40
0.9999999999999999
 40
0.9999999999999999
 40
0.9999999999999999
 10
103.230641311833
 20
138.3739266088679
 30
0.0
 10
103.1524062035007
 20
138.3889259140344
 30
0.0
 10
102.9959359868362
 20
138.4189245243676
 30
0.0
 10
102.8026098354198
 20
138.5824442271642
 30
0.0
 10
102.6682334031408
 20
138.8080238412466
 30
0.0
 10
102.6508516547536
 20
138.9844492391616
 30
0.0
 10
102.64216078056
 20
139.0726619381192
 30
0.0
  0
LINE
  5
282
330
1F
100
AcDbEntity
  8
0
  6
Continuous
 62
     7
370
    25
100
AcDbLine
 10
142.4657675783
 20
141.1007314323
 30
0.0
 11
142.4657675783
 21
138.7825591929
 31
0.0
  0
LINE
  5
283
330
1F
100
AcDbEntity
  8
0
  6
Continuous
 62
     7
370
    25
100
AcDbLine
 10
103.1314989563
 20
141.7278859751
 30
0.0
 11
124.759047125
 21
142.2942232551
 31
0.0
  0
SPLINE
  5
284
330
1F
100
AcDbEntity
  8
0
  6
Continuous
 62
     7
370
    25
100
AcDbSpline
210
0.0
220
0.0
230
1.0
 70
     8
 71
     3
 72
     9
 73
     5
 74
     0
 42
0.00000001
 43
0.00000001
 40
0.0
 40
0.0
 40
0.0
 40
0.0
 40
0.5600012771711212
 40
1.0
 40
1.0
 40
1.0
 40
1.0
 10
124.7590471250288
 20
142.294223255135
 30
0.0
 10
125.2364772615538
 20
142.2823888427899
 30
0.0
 10
126.0890291323938
 20
142.2612560117992
 30
0.0
 10
126.9459183370372
 20
142.2402952823867
 30
0.0
 10
127.3229484926862
 20
142.2310725882157
 30
0.0
  0
SPLINE
  5
285
330
1F
100
AcDbEntity
  8
0
  6
Continuous
 62
     7
370
    25
100
AcDbSpline
210
0.0
220
0.0
230
1.0
 70
     8
 71
     3
 72
     9
 73
     5
 74
     0
 42
0.00000001
 43
0.00000001
 40
0.0
 40
0.0
 40
0.0
 40
0.0
 40
0.5599999095971008
 40
1.0
 40
1.0
 40
1.0
 40
1.0
 10
127.3229484926862
 20
142.2310725882157
 30
0.0
 10
127.4170779833487
 20
142.2287751783184
 30
0.0
 10
127.5851663866669
 20
142.2246726599825
 30
0.0
 10
127.7534089063626
 20
142.2205762667895
 30
0.0
 10
127.8274356302384
 20
142.2187738534143
 30
0.0
  0
LINE
  5
286
330
1F
100
AcDbEntity
  8
0
  6
Continuous
 62
     7
370
    25
100
AcDbLine
 10
127.8274356302
 20
142.2187738534
 30
0.0
 11
140.3657810336
 21
142.5471019828
 31
0.0
  0
LINE
  5
287
330
1F
100
AcDbEntity
  8
0
  6
Continuous
 62
     7
370
    25
100
AcDbLine
 10
103.3539438675
 20
141.5111897364
 30
0.0
 11
103.1314989563
 21
141.7278859751
 31
0.0
  0
LINE
  5
288
330
1F
100
AcDbEntity
  8
0
  6
Continuous
 62
     7
370
    25
100
AcDbLine
 10
140.3657810336
 20
137.3361886425
 30
0.0
 11
127.8274356302
 21
137.6645167719
 31
0.0
  0
SPLINE
  5
289
330
1F
100
AcDbEntity
  8
0
  6
Continuous
 62
     7
370
    25
100
AcDbSpline
210
0.0
220
0.0
230
1.0
 70
     8
 71
     3
 72
     9
 73
     5
 74
     0
 42
0.00000001
 43
0.00000001
 40
0.0
 40
0.0
 40
0.0
 40
0.0
 40
0.5600000882143287
 40
1.0
 40
1.0
 40
1.0
 40
1.0
 10
127.8274356302384
 20
137.6645167718615
 30
0.0
 10
127.7332232147067
 20
137.6622226557204
 30
0.0
 10
127.5649867849016
 20
137.6581260203995
 30
0.0
 10
127.3969046272331
 20
137.6540232539402
 30
0.0
 10
127.3229484926862
 20
137.65221803706
 30
0.0
  0
SPLINE
  5
28A
330
1F
100
AcDbEntity
  8
0
  6
Continuous
 62
     7
370
    25
100
AcDbSpline
210
0.0
220
0.0
230
1.0
 70
     8
 71
     3
 72
     9
 73
     5
 74
     0
 42
0.00000001
 43
0.00000001
 40
0.0
 40
0.0
 40
0.0
 40
0.0
 40
0.5599987526606134
 40
1.0
 40
1.0
 40
1.0
 40
1.0
 10
127.3229484926862
 20
137.65221803706
 30
0.0
 10
126.843182234799
 20
137.6404764505377
 30
0.0
 10
125.9864548660188
 20
137.6195092850456
 30
0.0
 10
125.1340891175461
 20
137.5983690846735
 30
0.0
 10
124.7590471250288
 20
137.5890673701408
 30
0.0
  0
LINE
  5
28B
330
1F
100
AcDbEntity
  8
0
  6
Continuous
 62
     7
370
    25
100
AcDbLine
 10
124.759047125
 20
137.5890673701
 30
0.0
 11
103.1314989563
 21
138.1554046502
 31
0.0
  0
LINE
  5
28C
330
1F
100
AcDbEntity
  8
0
  6
Continuous
 62
     7
370
    25
100
AcDbLine
 10
103.1314989563
 20
138.1554046502
 30
0.0
 11
103.3539438675
 21
138.3721008888
 31
0.0
  0
LINE
  5
28D
330
1F
100
AcDbEntity
  8
0
  6
Continuous
 62
     7
370
    25
100
AcDbLine
 10
98.0632106374
 20
140.8106286872
 30
0.0
 11
102.6421607806
 21
140.8106286872
 31
0.0
  0
SPLINE
  5
28E
330
1F
100
AcDbEntity
  8
0
  6
Continuous
 62
     7
370
    25
100
AcDbSpline
210
0.0
220
0.0
230
1.0
 70
     8
 71
     3
 72
    13
 73
     9
 74
     0
 42
0.00000001
 43
0.00000001
 40
0.0
 40
0.0
 40
0.0
 40
0.0
 40
0.1143463544469907
 40
0.2890454840074678
 40
0.5294852105593203
 40
0.7014879056604271
 40
0.9335094878266192
 40
1.0
 40
1.0
 40
1.0
 40
1.0
 10
98.82517148762845
 20
141.5093640164079
 30
0.0
 10
98.7839702869195
 20
141.5045294249028
 30
0.0
 10
98.67982161459668
 20
141.4923085119727
 30
0.0
 10
98.4924621202168
 20
141.4196604169317
 30
0.0
 10
98.31043439020803
 20
141.2891481505249
 30
0.0
 10
98.15815080899368
 20
141.1022805513553
 30
0.0
 10
98.08564753211365
 20
140.9409071465987
 30
0.0
 10
98.06729784279497
 20
140.8343607957467
 30
0.0
 10
98.06321063740477
 20
140.8106286871565
 30
0.0
  0
LINE
  5
28F
330
1F
100
AcDbEntity
  8
0
  6
Continuous
 62
     7
370
    25
100
AcDbLine
 10
103.2306413118
 20
141.5093640164
 30
0.0
 11
98.8251714876
 21
141.5093640164
 31
0.0
  0
ELLIPSE
  5
290
330
1F
100
AcDbEntity
  8
0
  6
Continuous
 62
     7
370
    25
100
AcDbEllipse
 10
98.4185539828
 20
140.1161838678
 30
0.0
 11
0.008721666502680138
 21
1.000418978703721
 31
0.0
210
0.0
220
0.0
230
1.0
 40
0.499714557
 41
0.8079180407726784
 42
1.588240544501536
  0
LINE
  5
291
330
1F
100
AcDbEntity
  8
0
  6
Continuous
 62
     7
370
    25
100
AcDbLine
 10
102.6421607806
 20
139.0726619381
 30
0.0
 11
98.0632106374
 21
139.0726619381
 31
0.0
  0
ELLIPSE
  5
292
330
1F
100
AcDbEntity
  8
0
  6
Continuous
 62
     7
370
    25
100
AcDbEllipse
 10
98.4185539828
 20
139.7671067575
 30
0.0
 11
-0.008721666502680138
 21
1.000418978703721
 31
0.0
210
0.0
220
0.0
230
1.0
 40
0.499714557
 41
1.553352109088314
 42
2.333674612817155
  0
LINE
  5
293
330
1F
100
AcDbEntity
  8
0
  6
Continuous
 62
     7
370
    25
100
AcDbLine
 10
97.9185539828
 20
140.103090907
 30
0.0
 11
97.9185539828
 21
139.7801997183
 31
0.0
  0
LINE
  5
294
330
1F
100
AcDbEntity
  8
0
  6
Continuous
 62
     7
370
    25
100
AcDbLine
 10
98.8251714876
 20
138.3739266089
 30
0.0
 11
103.2306413118
 21
138.3739266089
 31
0.0
  0
SPLINE
  5
295
330
1F
100
AcDbEntity
  8
0
  6
Continuous
 62
     7
370
    25
100
AcDbSpline
210
0.0
220
0.0
230
1.0
 70
     8
 71
     3
 72
    12
 73
     8
 74
     0
 42
0.00000001
 43
0.00000001
 40
0.0
 40
0.0
 40
0.0
 40
0.0
 40
0.1396834586182491
 40
0.3831896274038308
 40
0.5513169293013305
 40
0.8194729461607058
 40
1.0
 40
1.0
 40
1.0
 40
1.0
 10
98.06321063740475
 20
139.0726619381192
 30
0.0
 10
98.07345201815104
 20
139.0229470176407
 30
0.0
 10
98.10154690433936
 20
138.8865655015829
 30
0.0
 10
98.20869726569414
 20
138.7066493923708
 30
0.0
 10
98.38903435310712
 20
138.5283079639859
 30
0.0
 10
98.59749049767613
 20
138.4077877394344
 30
0.0
 10
98.75984739838006
 20
138.3836417261275
 30
0.0
 10
98.82517148762845
 20
138.3739266088679
 30
0.0
  0
LINE
  5
296
330
1F
100
AcDbEntity
  8
0
  6
Continuous
 62
     7
370
    25
100
AcDbLine
 10
103.1326268135
 20
141.6848148447
 30
0.0
 11
103.1314989563
 21
141.7278859751
 31
0.0
  0
LINE
  5
297
330
1F
100
AcDbEntity
  8
0
  6
Continuous
 62
     7
370
    25
100
AcDbLine
 10
103.1326268135
 20
138.1984757806
 30
0.0
 11
103.1314989563
 21
138.1554046502
 31
0.0
  0
ELLIPSE
  5
298
330
1F
100
AcDbEntity
  8
0
  6
Continuous
 62
     7
370
    25
100
AcDbEllipse
 10
66.9147603788
 20
139.779317588
 30
0.0
 11
36.18915845259204
 21
1.947628334984217
 31
0.0
210
0.0
220
0.0
230
1.0
 40
0.0007414247
 41
0.0282885576639979
 42
0.4911607830438839
  0
LINE
  5
299
330
1F
100
AcDbEntity
  8
0
  6
Continuous
 62
     7
370
    25
100
AcDbLine
 10
103.089398902
 20
141.7269256118
 30
0.0
 11
103.3118282844
 21
141.5102445006
 31
0.0
  0
LINE
  5
29A
330
1F
100
AcDbEntity
  8
0
  6
Continuous
 62
     7
370
    25
100
AcDbLine
 10
103.3118282844
 20
138.3730461247
 30
0.0
 11
103.089398902
 21
138.1563650135
 31
0.0
  0
ELLIPSE
  5
29B
330
1F
100
AcDbEntity
  8
0
  6
Continuous
 62
     7
370
    25
100
AcDbEllipse
 10
66.9147603788
 20
140.1039730372
 30
0.0
 11
36.18915845257631
 21
-1.947628334983392
 31
0.0
210
0.0
220
0.0
230
1.0
 40
0.0007414247
 41
5.792024524150765
 42
6.254896749547981
  0
LINE
  5
29C
330
1F
100
AcDbEntity
  8
0
  6
Continuous
 62
     7
370
    25
100
AcDbLine
 10
130.9336431563
 20
142.8065937248
 30
0.0
 11
131.5842966223
 21
143.0406888586
 31
0.0
  0
SPLINE
  5
29D
330
1F
100
AcDbEntity
  8
0
  6
Continuous
 62
     7
370
    25
100
AcDbSpline
210
0.0
220
0.0
230
1.0
 70
     8
 71
     3
 72
    10
 73
     6
 74
     0
 42
0.00000001
 43
0.00000001
 40
0.0
 40
0.0
 40
0.0
 40
0.0
 40
0.2383396858856105
 40
0.5716506333689656
 40
1.0
 40
1.0
 40
1.0
 40
1.0
 10
130.9357433162271
 20
142.8001677546926
 30
0.0
 10
130.6914770611271
 20
142.7255695522657
 30
0.0
 10
130.1056117281266
 20
142.5466479869919
 30
0.0
 10
129.0690569271211
 20
142.3103038747369
 30
0.0
 10
128.2743628315216
 20
142.2517204985514
 30
0.0
 10
127.8274356302385
 20
142.2187738534143
 30
0.0
  0
SPLINE
  5
29E
330
1F
100
AcDbEntity
  8
0
  6
Continuous
 62
     7
370
    25
100
AcDbSpline
210
0.0
220
0.0
230
1.0
 70
     8
 71
     3
 72
    11
 73
     7
 74
     0
 42
0.00000001
 43
0.00000001
 40
0.0
 40
0.0
 40
0.0
 40
0.0
 40
0.250667172502349
 40
0.5010414677145716
 40
0.7508849997170931
 40
1.0
 40
1.0
 40
1.0
 40
1.0
 10
124.7590471250288
 20
142.294223255135
 30
0.0
 10
125.2347351375894
 20
142.3210978217901
 30
0.0
 10
126.1855553730766
 20
142.3748155550963
 30
0.0
 10
127.5862279902888
 20
142.6602810187503
 30
0.0
 10
128.9497937515406
 20
143.0818091653699
 30
0.0
 10
129.8024612980965
 20
143.4981662430669
 30
0.0
 10
130.2281725794099
 20
143.7060408194434
 30
0.0
  0
SPLINE
  5
29F
330
1F
100
AcDbEntity
  8
0
  6
Continuous
 62
     7
370
    25
100
AcDbSpline
210
0.0
220
0.0
230
1.0
 70
     8
 71
     3
 72
     9
 73
     5
 74
     0
 42
0.00000001
 43
0.00000001
 40
0.0
 40
0.0
 40
0.0
 40
0.0
 40
0.501325902198991
 40
1.0
 40
1.0
 40
1.0
 40
1.0
 10
130.2281725499681
 20
143.7060408728076
 30
0.0
 10
130.4522482508022
 20
143.8310835302777
 30
0.0
 10
130.899214385708
 20
144.0805074218452
 30
0.0
 10
131.3132596654035
 20
144.3822755302664
 30
0.0
 10
131.5197333217044
 20
144.5327594694785
 30
0.0
  0
LINE
  5
2A0
330
1F
100
AcDbEntity
  8
0
  6
Continuous
 62
     7
370
    25
100
AcDbLine
 10
133.5855137817
 20
144.6475259088
 30
0.0
 11
131.5195600468
 21
144.5327507013
 31
0.0
  0
SPLINE
  5
2A1
330
1F
100
AcDbEntity
  8
0
  6
Continuous
 62
     7
370
    25
100
AcDbSpline
210
0.0
220
0.0
230
1.0
 70
     8
 71
     3
 72
    14
 73
    10
 74
     0
 42
0.00000001
 43
0.00000001
 40
0.0
 40
0.0
 40
0.0
 40
0.0
 40
0.0829413618596697
 40
0.1664594845668882
 40
0.2437726390188662
 40
0.3161479456895724
 40
0.4353725718192331
 40
0.6486290670514194
 40
0.9999999999999999
 40
0.9999999999999999
 40
0.9999999999999999
 40
0.9999999999999999
 10
133.5855137688637
 20
144.6475259039752
 30
0.0
 10
133.6313130701386
 20
144.6457107143928
 30
0.0
 10
133.7232301536397
 20
144.6420677126926
 30
0.0
 10
133.773775186176
 20
144.560406580205
 30
0.0
 10
133.7328702897358
 20
144.4271230999202
 30
0.0
 10
133.5972692436313
 20
144.2387966436825
 30
0.0
 10
133.2803609728865
 20
143.9405295640202
 30
0.0
 10
132.6033723626533
 20
143.4825024052349
 30
0.0
 10
131.9752055464398
 20
143.210166876557
 30
0.0
 10
131.5842936827151
 20
143.0406908929072
 30
0.0
  0
LINE
  5
2A2
330
1F
100
AcDbEntity
  8
0
  6
Continuous
 62
     7
370
    25
100
AcDbLine
 10
131.5195600468
 20
135.350539924
 30
0.0
 11
133.5855137817
 21
135.2357647165
 31
0.0
  0
SPLINE
  5
2A3
330
1F
100
AcDbEntity
  8
0
  6
Continuous
 62
     7
370
    25
100
AcDbSpline
210
0.0
220
0.0
230
1.0
 70
     8
 71
     3
 72
     9
 73
     5
 74
     0
 42
0.00000001
 43
0.00000001
 40
0.0
 40
0.0
 40
0.0
 40
0.0
 40
0.4986740982738612
 40
1.0
 40
1.0
 40
1.0
 40
1.0
 10
131.5197331204788
 20
135.3505309739619
 30
0.0
 10
131.3132594794091
 20
135.501014910241
 30
0.0
 10
130.8992142306495
 20
135.8027830124944
 30
0.0
 10
130.4522481287046
 20
136.0522069041166
 30
0.0
 10
130.228172444606
 20
136.1772495614962
 30
0.0
  0
SPLINE
  5
2A4
330
1F
100
AcDbEntity
  8
0
  6
Continuous
 62
     7
370
    25
100
AcDbSpline
210
0.0
220
0.0
230
1.0
 70
     8
 71
     3
 72
    11
 73
     7
 74
     0
 42
0.00000001
 43
0.00000001
 40
0.0
 40
0.0
 40
0.0
 40
0.0
 40
0.2491150002829083
 40
0.4989585322854289
 40
0.749332827497652
 40
1.0
 40
1.0
 40
1.0
 40
1.0
 10
130.2281725794099
 20
136.1772498058323
 30
0.0
 10
129.8024612980965
 20
136.3851243822089
 30
0.0
 10
128.9497937515407
 20
136.8014814599058
 30
0.0
 10
127.5862279902888
 20
137.2230096065255
 30
0.0
 10
126.1855553730766
 20
137.5084750701794
 30
0.0
 10
125.2347351375894
 20
137.5621928034856
 30
0.0
 10
124.7590471250288
 20
137.5890673701408
 30
0.0
  0
SPLINE
  5
2A5
330
1F
100
AcDbEntity
  8
0
  6
Continuous
 62
     7
370
    25
100
AcDbSpline
210
0.0
220
0.0
230
1.0
 70
     8
 71
     3
 72
    10
 73
     6
 74
     0
 42
0.00000001
 43
0.00000001
 40
0.0
 40
0.0
 40
0.0
 40
0.0
 40
0.4283493666310625
 40
0.761660314114417
 40
0.9999999999999999
 40
0.9999999999999999
 40
0.9999999999999999
 40
0.9999999999999999
 10
127.8274356302385
 20
137.6645167718615
 30
0.0
 10
128.2743628315216
 20
137.6315701267244
 30
0.0
 10
129.0690569271212
 20
137.5729867505389
 30
0.0
 10
130.1056117281267
 20
137.336642638284
 30
0.0
 10
130.6914770611271
 20
137.1577210730102
 30
0.0
 10
130.9357433162271
 20
137.0831228705833
 30
0.0
  0
LINE
  5
2A6
330
1F
100
AcDbEntity
  8
0
  6
Continuous
 62
     7
370
    25
100
AcDbLine
 10
130.9336431562
 20
137.0766969002
 30
0.0
 11
131.5842966223
 21
136.8426017664
 31
0.0
  0
SPLINE
  5
2A7
330
1F
100
AcDbEntity
  8
0
  6
Continuous
 62
     7
370
    25
100
AcDbSpline
210
0.0
220
0.0
230
1.0
 70
     8
 71
     3
 72
    15
 73
    11
 74
     0
 42
0.00000001
 43
0.00000001
 40
0.0
 40
0.0
 40
0.0
 40
0.0
 40
0.2091652517822444
 40
0.4176299509274903
 40
0.5931463878153087
 40
0.6923603779431098
 40
0.7731125739307014
 40
0.8543366880968429
 40
0.9261517123972135
 40
0.9999999999999999
 40
0.9999999999999999
 40
0.9999999999999999
 40
0.9999999999999999
 10
131.5842936826245
 20
136.842599732137
 30
0.0
 10
131.8178778947199
 20
136.7449020996476
 30
0.0
 10
132.28426398038
 20
136.5498340512283
 30
0.0
 10
132.9079141275591
 20
136.2005541978758
 30
0.0
 10
133.3677637568598
 20
135.8676640109324
 30
0.0
 10
133.6296481276296
 20
135.6060459248964
 30
0.0
 10
133.7501181081448
 20
135.4254519119826
 30
0.0
 10
133.7689113350545
 20
135.3033577486723
 30
0.0
 10
133.7078731337481
 20
135.2393077593539
 30
0.0
 10
133.6266780152366
 20
135.2369566733159
 30
0.0
 10
133.5855137688287
 20
135.2357647213025
 30
0.0
  0
SPLINE
  5
2A8
330
1F
100
AcDbEntity
  8
0
  6
Continuous
 62
     7
370
    25
100
AcDbSpline
210
0.0
220
0.0
230
1.0
 70
    24
 71
     3
 72
    11
 73
     7
 74
     0
 42
0.00000001
 43
0.00000001
 40
0.0
 40
0.0
 40
0.0
 40
0.0
 40
0.2500000000000018
 40
0.4999999999999982
 40
0.7499999999999983
 40
1.0
 40
1.0
 40
1.0
 40
1.0
 10
140.3526970445289
 20
136.8365312588333
 30
0.0
 10
140.3543835150328
 20
136.9009349690284
 30
0.0
 10
140.3577564560407
 20
137.0297423894186
 30
0.0
 10
140.3620363529419
 20
137.1931850580289
 30
0.0
 10
140.3650784737557
 20
137.3093589649021
 30
0.0
 10
140.3655468469783
 20
137.3272454166487
 30
0.0
 10
140.3657810335896
 20
137.336188642522
 30
0.0
  0
LINE
  5
2A9
330
1F
100
AcDbEntity
  8
0
  6
Continuous
 62
     7
370
    25
100
AcDbLine
 10
130.9357433162
 20
137.0831228706
 30
0.0
 11
140.3526970445
 21
136.8365312588
 31
0.0
  0
LINE
  5
2AA
330
1F
100
AcDbEntity
  8
0
  6
Continuous
 62
     7
370
    25
100
AcDbLine
 10
140.3526970445
 20
143.0467593664
 30
0.0
 11
130.9357433162
 21
142.8001677547
 31
0.0
  0
SPLINE
  5
2AB
330
1F
100
AcDbEntity
  8
0
  6
Continuous
 62
     7
370
    25
100
AcDbSpline
210
0.0
220
0.0
230
1.0
 70
    24
 71
     3
 72
    11
 73
     7
 74
     0
 42
0.00000001
 43
0.00000001
 40
0.0
 40
0.0
 40
0.0
 40
0.0
 40
0.2500000000000007
 40
0.4999999999999999
 40
0.7500000000000002
 40
1.0
 40
1.0
 40
1.0
 40
1.0
 10
140.3657810335896
 20
142.5471019827538
 30
0.0
 10
140.3655468469783
 20
142.556045208627
 30
0.0
 10
140.3650784737557
 20
142.5739316603736
 30
0.0
 10
140.3620363529419
 20
142.6901055672468
 30
0.0
 10
140.3577564560406
 20
142.8535482358572
 30
0.0
 10
140.3543835150328
 20
142.9823556562473
 30
0.0
 10
140.3526970445289
 20
143.0467593664424
 30
0.0
  0
ELLIPSE
  5
2AC
330
1F
100
AcDbEntity
  8
0
  6
Continuous
 62
     7
370
    25
100
AcDbEllipse
 10
140.3657675783
 20
138.8375603998
 30
0.0
 11
2.497021557391548
 21
-0.1525991103465856
 31
1.776356839400250E-14
210
-7.087433036401258E-15
220
4.331304120279970E-16
230
0.9999999999999998
 40
0.7994627403
 41
4.755979052769769
 42
6.332003616895593
  0
SPLINE
  5
2AD
330
1F
100
AcDbEntity
  8
0
  6
Continuous
 62
     7
370
    25
100
AcDbSpline
210
0.0
220
0.0
230
1.0
 70
    24
 71
     3
 72
    11
 73
     7
 74
     0
 42
0.00000001
 43
0.00000001
 40
0.0
 40
0.0
 40
0.0
 40
0.0
 40
0.2500000000000022
 40
0.4999999999999972
 40
0.75
 40
1.0
 40
1.0
 40
1.0
 40
1.0
 10
142.46576757831
 20
138.7825591929377
 30
0.0
 10
142.4910275165141
 20
138.7825591929377
 30
0.0
 10
142.5415473929224
 20
138.7825591929377
 30
0.0
 10
142.6404060021228
 20
138.7825591929377
 30
0.0
 10
142.7497932819463
 20
138.7825591929377
 30
0.0
 10
142.8271094795221
 20
138.7825591929377
 30
0.0
 10
142.86576757831
 20
138.7825591929377
 30
0.0
  0
ELLIPSE
  5
2AE
330
1F
100
AcDbEntity
  8
0
  6
Continuous
 62
     7
370
    25
100
AcDbEllipse
 10
140.3657675783
 20
141.0457302254
 30
0.0
 11
2.497021557391548
 21
0.1525991103465856
 31
1.776356839400250E-14
210
-7.087433036401258E-15
220
-4.331304120279970E-16
230
0.9999999999999998
 40
0.7994627403
 41
6.234366997463598
 42
7.810391561589415
  0
SPLINE
  5
2AF
330
1F
100
AcDbEntity
  8
0
  6
Continuous
 62
     7
370
    25
100
AcDbSpline
210
0.0
220
0.0
230
1.0
 70
    24
 71
     3
 72
    11
 73
     7
 74
     0
 42
0.00000001
 43
0.00000001
 40
0.0
 40
0.0
 40
0.0
 40
0.0
 40
0.2500000000000029
 40
0.5000000000000013
 40
0.7499999999999986
 40
1.0
 40
1.0
 40
1.0
 40
1.0
 10
142.86576757831
 20
141.1007314323381
 30
0.0
 10
142.8271094795221
 20
141.1007314323381
 30
0.0
 10
142.7497932819463
 20
141.1007314323381
 30
0.0
 10
142.6404060021228
 20
141.1007314323381
 30
0.0
 10
142.5415473929224
 20
141.1007314323381
 30
0.0
 10
142.4910275165141
 20
141.1007314323381
 30
0.0
 10
142.46576757831
 20
141.1007314323381
 30
0.0
  0
LINE
  5
2B0
330
1F
100
AcDbEntity
  8
0
  6
Continuous
 62
     7
370
    25
100
AcDbLine
 10
143.0025892528
 20
136.2149068884
 30
0.0
 11
131.5868599693
 21
136.8491140708
 31
0.0
  0
LINE
  5
2B1
330
1F
100
AcDbEntity
  8
0
  6
Continuous
 62
     7
370
    25
100
AcDbLine
 10
142.9193842234
 20
134.7172163586
 30
0.0
 11
143.0025892528
 21
136.2149068884
 31
0.0
  0
LINE
  5
2B2
330
1F
100
AcDbEntity
  8
0
  6
Continuous
 62
     7
370
    25
100
AcDbLine
 10
133.5857062119
 20
135.2357540259
 30
0.0
 11
142.9193842234
 21
134.7172163586
 31
0.0
  0
LINE
  5
2B3
330
1F
100
AcDbEntity
  8
0
  6
Continuous
 62
     7
370
    25
100
AcDbLine
 10
142.8657675783
 20
138.7825591929
 30
0.0
 11
142.8657675783
 21
141.1007314323
 31
0.0
  0
LINE
  5
2B4
330
1F
100
AcDbEntity
  8
0
  6
Continuous
 62
     7
370
    25
100
AcDbLine
 10
142.9193842234
 20
145.1660742667
 30
0.0
 11
133.5857062119
 21
144.6475365994
 31
0.0
  0
LINE
  5
2B5
330
1F
100
AcDbEntity
  8
0
  6
Continuous
 62
     7
370
    25
100
AcDbLine
 10
143.0025892528
 20
143.6683837369
 30
0.0
 11
142.9193842234
 21
145.1660742667
 31
0.0
  0
LINE
  5
2B6
330
1F
100
AcDbEntity
  8
0
  6
Continuous
 62
     7
370
    25
100
AcDbLine
 10
131.5868599693
 20
143.0341765544
 30
0.0
 11
143.0025892528
 21
143.6683837369
 31
0.0
  0
LINE
  5
2B7
330
1F
100
AcDbEntity
  8
0
  6
Continuous
 62
     7
370
    25
100
AcDbLine
 10
143.3657675783
 20
136.5780852139
 30
0.0
 11
143.0025892528
 21
136.2149068884
 31
0.0
  0
LINE
  5
2B8
330
1F
100
AcDbEntity
  8
0
  6
Continuous
 62
     7
370
    25
100
AcDbLine
 10
143.0025892528
 20
143.6683837369
 30
0.0
 11
143.3657675783
 21
143.3052054114
 31
0.0
  0
LINE
  5
2B9
330
1F
100
AcDbEntity
  8
0
  6
Continuous
 62
     7
370
    25
100
AcDbLine
 10
143.3657675783
 20
136.5780852139
 30
0.0
 11
143.3657675783
 21
143.3052054114
 31
0.0
  0
LINE
  5
2BA
330
1F
100
AcDbEntity
  8
0
  6
Continuous
 62
     7
370
    25
100
AcDbLine
 10
143.3657675783
 20
144.0315620624
 30
0.0
 11
143.0025892528
 21
143.6683837369
 31
0.0
  0
LINE
  5
2BB
330
1F
100
AcDbEntity
  8
0
  6
Continuous
 62
     7
370
    25
100
AcDbLine
 10
143.3657675783
 20
143.3052054114
 30
0.0
 11
143.3657675783
 21
144.0315620624
 31
0.0
  0
ARC
  5
2BC
330
1F
100
AcDbEntity
  8
0
  6
Continuous
 62
     7
370
    25
100
AcDbCircle
 10
143.0025892528
 20
143.6683837369
 30
0.0
 40
1.500000000000011
100
AcDbArc
 50
75.9883675978
 51
93.1798301199
  0
LINE
  5
2BD
330
1F
100
AcDbEntity
  8
0
  6
Continuous
 62
     7
370
    25
100
AcDbLine
 10
143.3657675783
 20
144.0315620624
 30
0.0
 11
143.3657675783
 21
145.1237536225
 31
0.0
  0
LINE
  5
2BE
330
1F
100
AcDbEntity
  8
0
  6
Continuous
 62
     7
370
    25
100
AcDbLine
 10
143.0025892528
 20
136.2149068884
 30
0.0
 11
143.3657675783
 21
135.8517285629
 31
0.0
  0
LINE
  5
2BF
330
1F
100
AcDbEntity
  8
0
  6
Continuous
 62
     7
370
    25
100
AcDbLine
 10
143.3657675783
 20
135.8517285629
 30
0.0
 11
143.3657675783
 21
136.5780852139
 31
0.0
  0
ARC
  5
2C0
330
1F
100
AcDbEntity
  8
0
  6
Continuous
 62
     7
370
    25
100
AcDbCircle
 10
143.0025892528
 20
136.2149068884
 30
0.0
 40
1.500000000000034
100
AcDbArc
 50
266.8201698801
 51
284.0116324022
  0
LINE
  5
2C1
330
1F
100
AcDbEntity
  8
0
  6
Continuous
 62
     7
370
    25
100
AcDbLine
 10
143.3657675783
 20
134.7595370028
 30
0.0
 11
143.3657675783
 21
135.8517285629
 31
0.0
  0
SPLINE
  5
2C2
330
1F
100
AcDbEntity
  8
0
  6
Continuous
 62
     7
370
    25
100
AcDbSpline
210
0.0
220
0.0
230
1.0
 70
    24
 71
     3
 72
     9
 73
     5
 74
     0
 42
0.00000001
 43
0.00000001
 40
0.0
 40
0.0
 40
0.0
 40
0.0
 40
0.5389665913333133
 40
0.9999999999999999
 40
0.9999999999999999
 40
0.9999999999999999
 40
0.9999999999999999
 10
131.5197341171093
 20
144.5327603718794
 30
0.0
 10
131.4738081753318
 20
144.5302089306696
 30
0.0
 10
131.3885970648178
 20
144.5254749800855
 30
0.0
 10
131.4011782569808
 20
144.5261739352057
 30
0.0
 10
131.4069786068889
 20
144.5264961768672
 30
0.0
  0
SPLINE
  5
2C3
330
1F
100
AcDbEntity
  8
0
  6
Continuous
 62
     7
370
    25
100
AcDbSpline
210
0.0
220
0.0
230
1.0
 70
    24
 71
     3
 72
     9
 73
     5
 74
     0
 42
0.00000001
 43
0.00000001
 40
0.0
 40
0.0
 40
0.0
 40
0.0
 40
0.449000901028251
 40
1.0
 40
1.0
 40
1.0
 40
1.0
 10
131.4130766780542
 20
135.3564556666771
 30
0.0
 10
131.4046911254625
 20
135.35692153071
 30
0.0
 10
131.3860150992619
 20
135.3579590877211
 30
0.0
 10
131.4722298610474
 20
135.353169378733
 30
0.0
 10
131.5197341171093
 20
135.3505302533963
 30
0.0
  0
SPLINE
  5
2C4
330
1F
100
AcDbEntity
  8
0
  6
Continuous
 62
     7
370
    25
100
AcDbSpline
210
0.0
220
0.0
230
1.0
 70
     8
 71
     3
 72
     9
 73
     5
 74
     0
 42
0.00000001
 43
0.00000001
 40
0.0
 40
0.0
 40
0.0
 40
0.0
 40
0.5407747560677784
 40
1.0
 40
1.0
 40
1.0
 40
1.0
 10
103.1314989562879
 20
141.7278859750545
 30
0.0
 10
103.1237429142404
 20
141.7279154754674
 30
0.0
 10
103.1094004510237
 20
141.7279700275938
 30
0.0
 10
103.0950819472157
 20
141.7273657824588
 30
0.0
 10
103.0885065288118
 20
141.7270882978394
 30
0.0
  0
LINE
  5
2C5
330
1F
100
AcDbEntity
  8
0
  6
Continuous
 62
     7
370
    25
100
AcDbLine
 10
103.1314989563
 20
138.1554046502
 30
0.0
 11
103.0885065288
 21
138.1562023274
 31
0.0
  0
CIRCLE
  5
2C6
330
1F
100
AcDbEntity
  8
0
  6
Continuous
 62
     7
370
    25
100
AcDbCircle
 10
153.3657675783
 20
139.9416453126
 30
0.0
 40
7.558608890731335
  0
CIRCLE
  5
2C7
330
1F
100
AcDbEntity
  8
0
  6
Continuous
 62
     7
370
    25
100
AcDbCircle
 10
153.3657675783
 20
139.9416453126
 30
0.0
 40
8.0547478290882
  0
CIRCLE
  5
2C8
330
1F
100
AcDbEntity
  8
0
  6
Continuous
 62
     7
370
    25
100
AcDbCircle
 10
153.3657675783
 20
139.9416453126
 30
0.0
 40
5.5
  0
SPLINE
  5
2C9
330
1F
100
AcDbEntity
  8
0
  6
Continuous
 62
     7
370
    25
100
AcDbSpline
210
0.0
220
0.0
230
1.0
 70
     8
 71
     3
 72
    11
 73
     7
 74
     0
 42
0.00000001
 43
0.00000001
 40
0.0
 40
0.0
 40
0.0
 40
0.0
 40
0.2920574028183101
 40
0.5665622171831312
 40
0.806568238991561
 40
0.9999999999999999
 40
0.9999999999999999
 40
0.9999999999999999
 40
0.9999999999999999
 10
145.2495619712566
 20
138.4618796068469
 30
0.0
 10
145.2812225075721
 20
138.2942790714233
 30
0.0
 10
145.3426407886327
 20
137.9691507574877
 30
0.0
 10
145.4225531478973
 20
137.5685470916215
 30
0.0
 10
145.4616519616248
 20
137.3107068956163
 30
0.0
 10
145.4462355986952
 20
137.2600614673347
 30
0.0
 10
145.4393556857111
 20
137.2374597589283
 30
0.0
  0
ARC
  5
2CA
330
1F
100
AcDbEntity
  8
0
  6
Continuous
 62
     7
370
    25
100
AcDbCircle
 10
153.3657675783
 20
139.9416453126
 30
0.0
 40
8.249999999999968
100
AcDbArc
 50
169.6671934996
 51
190.3328065004
  0
SPLINE
  5
2CB
330
1F
100
AcDbEntity
  8
0
  6
Continuous
 62
     7
370
    25
100
AcDbSpline
210
0.0
220
0.0
230
1.0
 70
     8
 71
     3
 72
    12
 73
     8
 74
     0
 42
0.00000001
 43
0.00000001
 40
0.0
 40
0.0
 40
0.0
 40
0.0
 40
0.1882084234719034
 40
0.375913419809593
 40
0.5768476463044262
 40
0.8018243756979399
 40
0.9999999999999999
 40
0.9999999999999999
 40
0.9999999999999999
 40
0.9999999999999999
 10
145.4393556857144
 20
142.6458308663441
 30
0.0
 10
145.4462272770839
 20
142.6242276718315
 30
0.0
 10
145.4599520794259
 20
142.5810790678623
 30
0.0
 10
145.4341273794678
 20
142.3875392100797
 30
0.0
 10
145.3830475848261
 20
142.1127101520406
 30
0.0
 10
145.3158075831579
 20
141.7769700146713
 30
0.0
 10
145.2706913360377
 20
141.5348183146585
 30
0.0
 10
145.2495619712566
 20
141.4214110184288
 30
0.0
  0
ARC
  5
2CC
330
1F
100
AcDbEntity
  8
0
  6
Continuous
 62
     7
370
    25
100
AcDbCircle
 10
153.3657675783
 20
139.9416453126
 30
0.0
 40
8.986048245082024
100
AcDbArc
 50
200.7364869057
 51
159.2635130943
  0
LINE
  5
2CD
330
1F
100
AcDbEntity
  8
0
  6
Continuous
 62
     7
370
    25
100
AcDbLine
 10
145.4393556857
 20
137.2374597589
 30
0.0
 11
143.709696034
 21
135.5078001072
 31
0.0
  0
LINE
  5
2CE
330
1F
100
AcDbEntity
  8
0
  6
Continuous
 62
     7
370
    25
100
AcDbLine
 10
143.709696034
 20
144.3754905181
 30
0.0
 11
145.4393556857
 21
142.6458308663
 31
0.0
  0
ARC
  5
2CF
330
1F
100
AcDbEntity
  8
0
  6
Continuous
 62
     7
370
    25
100
AcDbCircle
 10
143.0025892528
 20
143.6683837369
 30
0.0
 40
1.000000000000016
100
AcDbArc
 50
45.0
 51
68.7044833353
  0
ARC
  5
2D0
330
1F
100
AcDbEntity
  8
0
  6
Continuous
 62
     7
370
    25
100
AcDbCircle
 10
143.0025892528
 20
136.2149068884
 30
0.0
 40
1.000000000000028
100
AcDbArc
 50
291.2955166647
 51
315.0
  0
LINE
  5
2D1
330
1F
100
AcDbEntity
  8
0
  6
Continuous
 62
     7
370
    25
100
AcDbLine
 10
130.2150960051
 20
136.1535481205
 30
0.0
 11
130.2281725794
 21
136.1772498058
 31
0.0
  0
ARC
  5
2D2
330
1F
100
AcDbEntity
  8
0
  6
Continuous
 62
     7
370
    25
100
AcDbCircle
 10
98.3016443853
 20
138.9606507071
 30
0.0
 40
0.2634334223283705
100
AcDbArc
 50
154.8368352321
 51
203.834109513
  0
ARC
  5
2D3
330
1F
100
AcDbEntity
  8
0
  6
Continuous
 62
     7
370
    25
100
AcDbCircle
 10
98.3014175917
 20
140.9225939991
 30
0.0
 40
0.2632086323711059
100
AcDbArc
 50
155.9018884026
 51
205.1751091316
  0
LINE
  5
2D4
330
1F
100
AcDbEntity
  8
0
  6
Continuous
 62
     7
370
    25
100
AcDbLine
 10
97.9185539828
 20
140.103090907
 30
0.0
 11
97.8657676664
 21
140.103090907
 31
0.0
  0
LINE
  5
2D5
330
1F
100
AcDbEntity
  8
0
  6
Continuous
 62
     7
370
    25
100
AcDbLine
 10
97.9185539828
 20
139.7801997183
 30
0.0
 11
97.8657676457
 21
139.7801997183
 31
0.0
  0
LINE
  5
2D6
330
1F
100
AcDbEntity
  8
0
  6
Continuous
 62
     7
370
    25
100
AcDbLine
 10
143.709696034
 20
135.5078001072
 30
0.0
 11
143.3657675783
 21
135.8517285629
 31
0.0
  0
LINE
  5
2D7
330
1F
100
AcDbEntity
  8
0
  6
Continuous
 62
     7
370
    25
100
AcDbLine
 10
143.3657675783
 20
136.5780852139
 30
0.0
 11
145.2495619713
 21
138.4618796068
 31
0.0
  0
LINE
  5
2D8
330
1F
100
AcDbEntity
  8
0
  6
Continuous
 62
     7
370
    25
100
AcDbLine
 10
145.2495619713
 20
141.4214110184
 30
0.0
 11
143.3657675783
 21
143.3052054114
 31
0.0
  0
LINE
  5
2D9
330
1F
100
AcDbEntity
  8
0
  6
Continuous
 62
     7
370
    25
100
AcDbLine
 10
143.709696034
 20
144.3754905181
 30
0.0
 11
143.3657675783
 21
144.0315620624
 31
0.0
  0
INSERT
  5
2E5
330
1F
100
AcDbEntity
  8
0
  6
Continuous
 62
     7
370
    18
100
AcDbBlockReference
  2
SW_CENTERMARKSYMBOL_1
 10
153.3657675783
 20
139.9416453126
 30
0.0
  0
LINE
  5
2E6
330
1F
100
AcDbEntity
  8
0
  6
Continuous
 62
     7
370
    18
100
AcDbLine
 10
168.8657675783
 20
130.2667703126
 30
0.0
 11
179.3302434596
 21
130.5937851839
 31
0.0
  0
LINE
  5
2E7
330
1F
100
AcDbEntity
  8
0
  6
Continuous
 62
     7
370
    18
100
AcDbLine
 10
179.3302434596
 20
149.2895054413
 30
0.0
 11
168.8657675783
 21
149.6165203126
 31
0.0
  0
ENDSEC
  0
SECTION
  2
OBJECTS
  0
DICTIONARY
  5
C
330
0
100
AcDbDictionary
281
     1
  3
ACAD_GROUP
350
D
  3
ACAD_LAYOUT
350
1A
  3
ACAD_MLINESTYLE
350
17
  3
ACAD_PLOTSETTINGS
350
19
  3
ACAD_PLOTSTYLENAME
350
E
  3
ACAD_SCALELIST
350
47
  3
DWGPROPS
350
2E8
  0
DICTIONARY
  5
D
102
{ACAD_REACTORS
330
C
102
}
330
C
100
AcDbDictionary
281
     1
  0
DICTIONARY
  5
1A
102
{ACAD_REACTORS
330
C
102
}
330
C
100
AcDbDictionary
281
     1
  3
Layout1
350
1E
  3
Layout2
350
26
  3
Model
350
22
  0
DICTIONARY
  5
17
102
{ACAD_REACTORS
330
C
102
}
330
C
100
AcDbDictionary
281
     1
  3
Standard
350
18
  0
DICTIONARY
  5
19
102
{ACAD_REACTORS
330
C
102
}
330
C
100
AcDbDictionary
281
     1
  0
ACDBDICTIONARYWDFLT
  5
E
102
{ACAD_REACTORS
330
C
102
}
330
C
100
AcDbDictionary
281
     1
  3
Normal
350
F
100
AcDbDictionaryWithDefault
340
F
  0
DICTIONARY
  5
47
102
{ACAD_REACTORS
330
C
102
}
330
C
100
AcDbDictionary
281
     1
  3
A0
350
48
  3
A1
350
49
  3
A2
350
4A
  3
A3
350
4B
  3
A4
350
4C
  3
A5
350
4D
  3
A6
350
4E
  3
A7
350
4F
  3
A8
350
50
  3
A9
350
51
  3
B0
350
52
  3
B1
350
53
  3
B2
350
54
  3
B3
350
55
  3
B4
350
56
  3
B5
350
57
  3
B6
350
58
  0
XRECORD
  5
2E8
102
{ACAD_REACTORS
330
C
102
}
330
C
100
AcDbXrecord
280
     1
  1
DWGPROPS COOKIE
  2

  3

  4

  6

  7

  8
user28
  9

300
=
301
=
302
=
303
=
304
=
305
=
306
=
307
=
308
=
309
=
 40
0.0
 41
2460297.296540521
 42
2460297.296541435
  1

 90
        0
  0
LAYOUT
  5
1E
102
{ACAD_REACTORS
330
1A
102
}
330
1A
100
AcDbPlotSettings
  1

  2
none_device
  4

  6

 40
0.0
 41
0.0
 42
0.0
 43
0.0
 44
0.0
 45
0.0
 46
0.0
 47
0.0
 48
0.0
 49
0.0
140
0.0
141
0.0
142
1.0
143
1.0
 70
   688
 72
     1
 73
     0
 74
     5
  7

 75
    16
147
1.0
148
0.0
149
0.0
100
AcDbLayout
  1
Layout1
 70
     1
 71
     1
 10
0.0
 20
0.0
 11
420.0
 21
297.0
 12
0.0
 22
0.0
 32
0.0
 14
1.0000000000E+20
 24
1.0000000000E+20
 34
1.0000000000E+20
 15
-1.0000000000E+20
 25
-1.0000000000E+20
 35
-1.0000000000E+20
146
0.0
 13
0.0
 23
0.0
 33
0.0
 16
1.0
 26
0.0
 36
0.0
 17
0.0
 27
1.0
 37
0.0
 76
     0
330
1B
  0
LAYOUT
  5
26
102
{ACAD_REACTORS
330
1A
102
}
330
1A
100
AcDbPlotSettings
  1

  2
none_device
  4

  6

 40
0.0
 41
0.0
 42
0.0
 43
0.0
 44
0.0
 45
0.0
 46
0.0
 47
0.0
 48
0.0
 49
0.0
140
0.0
141
0.0
142
1.0
143
1.0
 70
   688
 72
     1
 73
     0
 74
     5
  7

 75
    16
147
1.0
148
0.0
149
0.0
100
AcDbLayout
  1
Layout2
 70
     1
 71
     2
 10
0.0
 20
0.0
 11
0.0
 21
0.0
 12
0.0
 22
0.0
 32
0.0
 14
0.0
 24
0.0
 34
0.0
 15
0.0
 25
0.0
 35
0.0
146
0.0
 13
0.0
 23
0.0
 33
0.0
 16
1.0
 26
0.0
 36
0.0
 17
0.0
 27
1.0
 37
0.0
 76
     0
330
23
  0
LAYOUT
  5
22
102
{ACAD_REACTORS
330
1A
102
}
330
1A
100
AcDbPlotSettings
  1

  2
none_device
  4
Letter_(8.50_x_11.00_Inches)
  6

 40
6.35
 41
6.35
 42
6.35000508
 43
6.35000508
 44
215.9
 45
279.4
 46
0.0
 47
0.0
 48
0.0
 49
0.0
140
0.0
141
0.0
142
1.0
143
1.0
 70
  1712
 72
     1
 73
     0
 74
     0
  7

 75
     0
147
1.0
148
0.0
149
0.0
100
AcDbLayout
  1
Model
 70
     1
 71
     0
 10
0.0
 20
0.0
 11
431.8
 21
279.4
 12
0.0
 22
0.0
 32
0.0
 14
0.0
 24
0.0
 34
0.0
 15
431.8
 25
279.4
 35
0.0
146
0.0
 13
0.0
 23
0.0
 33
0.0
 16
1.0
 26
0.0
 36
0.0
 17
0.0
 27
1.0
 37
0.0
 76
     0
330
1F
331
29
  0
MLINESTYLE
  5
18
102
{ACAD_REACTORS
330
17
102
}
330
17
100
AcDbMlineStyle
  2
Standard
 70
     0
  3

 62
   256
 51
90.0
 52
90.0
 71
     2
 49
0.5
 62
   256
  6
BYLAYER
 49
-0.5
 62
   256
  6
BYLAYER
  0
ACDBPLACEHOLDER
  5
F
102
{ACAD_REACTORS
330
E
102
}
330
E
  0
SCALE
  5
48
102
{ACAD_REACTORS
330
47
102
}
330
47
100
AcDbScale
 70
     0
300
1:1
140
1.0
141
1.0
290
     1
  0
SCALE
  5
49
102
{ACAD_REACTORS
330
47
102
}
330
47
100
AcDbScale
 70
     0
300
1:2
140
1.0
141
2.0
290
     0
  0
SCALE
  5
4A
102
{ACAD_REACTORS
330
47
102
}
330
47
100
AcDbScale
 70
     0
300
1:4
140
1.0
141
4.0
290
     0
  0
SCALE
  5
4B
102
{ACAD_REACTORS
330
47
102
}
330
47
100
AcDbScale
 70
     0
300
1:5
140
1.0
141
5.0
290
     0
  0
SCALE
  5
4C
102
{ACAD_REACTORS
330
47
102
}
330
47
100
AcDbScale
 70
     0
300
1:8
140
1.0
141
8.0
290
     0
  0
SCALE
  5
4D
102
{ACAD_REACTORS
330
47
102
}
330
47
100
AcDbScale
 70
     0
300
1:10
140
1.0
141
10.0
290
     0
  0
SCALE
  5
4E
102
{ACAD_REACTORS
330
47
102
}
330
47
100
AcDbScale
 70
     0
300
1:16
140
1.0
141
16.0
290
     0
  0
SCALE
  5
4F
102
{ACAD_REACTORS
330
47
102
}
330
47
100
AcDbScale
 70
     0
300
1:20
140
1.0
141
20.0
290
     0
  0
SCALE
  5
50
102
{ACAD_REACTORS
330
47
102
}
330
47
100
AcDbScale
 70
     0
300
1:30
140
1.0
141
30.0
290
     0
  0
SCALE
  5
51
102
{ACAD_REACTORS
330
47
102
}
330
47
100
AcDbScale
 70
     0
300
1:40
140
1.0
141
40.0
290
     0
  0
SCALE
  5
52
102
{ACAD_REACTORS
330
47
102
}
330
47
100
AcDbScale
 70
     0
300
1:50
140
1.0
141
50.0
290
     0
  0
SCALE
  5
53
102
{ACAD_REACTORS
330
47
102
}
330
47
100
AcDbScale
 70
     0
300
1:100
140
1.0
141
100.0
290
     0
  0
SCALE
  5
54
102
{ACAD_REACTORS
330
47
102
}
330
47
100
AcDbScale
 70
     0
300
2:1
140
2.0
141
1.0
290
     0
  0
SCALE
  5
55
102
{ACAD_REACTORS
330
47
102
}
330
47
100
AcDbScale
 70
     0
300
4:1
140
4.0
141
1.0
290
     0
  0
SCALE
  5
56
102
{ACAD_REACTORS
330
47
102
}
330
47
100
AcDbScale
 70
     0
300
8:1
140
8.0
141
1.0
290
     0
  0
SCALE
  5
57
102
{ACAD_REACTORS
330
47
102
}
330
47
100
AcDbScale
 70
     0
300
10:1
140
10.0
141
1.0
290
     0
  0
SCALE
  5
58
102
{ACAD_REACTORS
330
47
102
}
330
47
100
AcDbScale
 70
     0
300
100:1
140
100.0
141
1.0
290
     0
  0
ENDSEC
  0
EOF
