  0
SECTION
  2
HEADER
  9
$ACADVER
  1
AC1015
  9
$ACADMAINTVER
 70
     6
  9
$DWGCODEPAGE
  3
DOS932
  9
$INSBASE
 10
0.0
 20
0.0
 30
0.0
  9
$EXTMIN
 10
0.0
 20
0.0
 30
0.0
  9
$EXTMAX
 10
431.8
 20
279.4
 30
0.0
  9
$LIMMIN
 10
0.0
 20
0.0
  9
$LIMMAX
 10
431.8
 20
279.4
  9
$ORTHOMODE
 70
     0
  9
$REGENMODE
 70
     1
  9
$FILLMODE
 70
     1
  9
$QTEXTMODE
 70
     0
  9
$MIRRTEXT
 70
     1
  9
$LTSCALE
 40
1.0
  9
$ATTMODE
 70
     1
  9
$TEXTSIZE
 40
3.5
  9
$TRACEWID
 40
1.0
  9
$TEXTSTYLE
  7
Standard
  9
$CLAYER
  8
0
  9
$CELTYPE
  6
ByLayer
  9
$CECOLOR
 62
   256
  9
$CELTSCALE
 40
1.0
  9
$DISPSILH
 70
     0
  9
$DIMSCALE
 40
1.0
  9
$DIMASZ
 40
3.556
  9
$DIMEXO
 40
1.0
  9
$DIMDLI
 40
3.75
  9
$DIMRND
 40
0.0
  9
$DIMDLE
 40
0.0
  9
$DIMEXE
 40
1.0
  9
$DIMTP
 40
0.0
  9
$DIMTM
 40
0.0
  9
$DIMTXT
 40
3.5
  9
$DIMCEN
 40
2.5
  9
$DIMTSZ
 40
0.0
  9
$DIMTOL
 70
     0
  9
$DIMLIM
 70
     0
  9
$DIMTIH
 70
     1
  9
$DIMTOH
 70
     1
  9
$DIMSE1
 70
     0
  9
$DIMSE2
 70
     0
  9
$DIMTAD
 70
     1
  9
$DIMZIN
 70
     0
  9
$DIMBLK
  1

  9
$DIMASO
 70
     1
  9
$DIMSHO
 70
     1
  9
$DIMPOST
  1

  9
$DIMAPOST
  1

  9
$DIMALT
 70
     0
  9
$DIMALTD
 70
     3
  9
$DIMALTF
 40
0.0393700787
  9
$DIMLFAC
 40
1.0
  9
$DIMTOFL
 70
     1
  9
$DIMTVP
 40
0.0
  9
$DIMTIX
 70
     0
  9
$DIMSOXD
 70
     0
  9
$DIMSAH
 70
     0
  9
$DIMBLK1
  1

  9
$DIMBLK2
  1

  9
$DIMSTYLE
  2
ISO-25
  9
$DIMCLRD
 70
     0
  9
$DIMCLRE
 70
     0
  9
$DIMCLRT
 70
     0
  9
$DIMTFAC
 40
1.0
  9
$DIMGAP
 40
1.524
  9
$DIMJUST
 70
     0
  9
$DIMSD1
 70
     0
  9
$DIMSD2
 70
     0
  9
$DIMTOLJ
 70
     0
  9
$DIMTZIN
 70
     0
  9
$DIMALTZ
 70
     0
  9
$DIMALTTZ
 70
     0
  9
$DIMUPT
 70
     0
  9
$DIMDEC
 70
     3
  9
$DIMTDEC
 70
     3
  9
$DIMALTU
 70
     2
  9
$DIMALTTD
 70
     3
  9
$DIMTXSTY
  7
Standard
  9
$DIMAUNIT
 70
     0
  9
$DIMADEC
 70
     2
  9
$DIMALTRND
 40
0.0
  9
$DIMAZIN
 70
     0
  9
$DIMDSEP
 70
    44
  9
$DIMATFIT
 70
     3
  9
$DIMFRAC
 70
     0
  9
$DIMLDRBLK
  1

  9
$DIMLUNIT
 70
     2
  9
$DIMLWD
 70
    -2
  9
$DIMLWE
 70
    -2
  9
$DIMTMOVE
 70
     0
  9
$LUNITS
 70
     2
  9
$LUPREC
 70
     3
  9
$SKETCHINC
 40
1.0
  9
$FILLETRAD
 40
0.0
  9
$AUNITS
 70
     0
  9
$AUPREC
 70
     2
  9
$MENU
  1
.
  9
$ELEVATION
 40
0.0
  9
$PELEVATION
 40
0.0
  9
$THICKNESS
 40
0.0
  9
$LIMCHECK
 70
     0
  9
$CHAMFERA
 40
0.0
  9
$CHAMFERB
 40
0.0
  9
$CHAMFERC
 40
0.0
  9
$CHAMFERD
 40
0.0
  9
$SKPOLY
 70
     0
  9
$TDCREATE
 40
2460297.670001296
  9
$TDUCREATE
 40
2460297.295001296
  9
$TDUPDATE
 40
2460297.670002407
  9
$TDUUPDATE
 40
2460297.295002407
  9
$TDINDWG
 40
0.0000000116
  9
$TDUSRTIMER
 40
0.0000000116
  9
$USRTIMER
 70
     1
  9
$ANGBASE
 50
0.0
  9
$ANGDIR
 70
     0
  9
$PDMODE
 70
     0
  9
$PDSIZE
 40
-1.0
  9
$PLINEWID
 40
0.0
  9
$SPLFRAME
 70
     0
  9
$SPLINETYPE
 70
     6
  9
$SPLINESEGS
 70
     8
  9
$HANDSEED
  5
2E1
  9
$SURFTAB1
 70
     6
  9
$SURFTAB2
 70
     6
  9
$SURFTYPE
 70
     6
  9
$SURFU
 70
     6
  9
$SURFV
 70
     6
  9
$UCSBASE
  2

  9
$UCSNAME
  2

  9
$UCSORG
 10
0.0
 20
0.0
 30
0.0
  9
$UCSXDIR
 10
1.0
 20
0.0
 30
0.0
  9
$UCSYDIR
 10
0.0
 20
1.0
 30
0.0
  9
$UCSORTHOREF
  2

  9
$UCSORTHOVIEW
 70
     0
  9
$UCSORGTOP
 10
0.0
 20
0.0
 30
0.0
  9
$UCSORGBOTTOM
 10
0.0
 20
0.0
 30
0.0
  9
$UCSORGLEFT
 10
0.0
 20
0.0
 30
0.0
  9
$UCSORGRIGHT
 10
0.0
 20
0.0
 30
0.0
  9
$UCSORGFRONT
 10
0.0
 20
0.0
 30
0.0
  9
$UCSORGBACK
 10
0.0
 20
0.0
 30
0.0
  9
$PUCSBASE
  2

  9
$PUCSNAME
  2

  9
$PUCSORG
 10
0.0
 20
0.0
 30
0.0
  9
$PUCSXDIR
 10
1.0
 20
0.0
 30
0.0
  9
$PUCSYDIR
 10
0.0
 20
1.0
 30
0.0
  9
$PUCSORTHOREF
  2

  9
$PUCSORTHOVIEW
 70
     0
  9
$PUCSORGTOP
 10
0.0
 20
0.0
 30
0.0
  9
$PUCSORGBOTTOM
 10
0.0
 20
0.0
 30
0.0
  9
$PUCSORGLEFT
 10
0.0
 20
0.0
 30
0.0
  9
$PUCSORGRIGHT
 10
0.0
 20
0.0
 30
0.0
  9
$PUCSORGFRONT
 10
0.0
 20
0.0
 30
0.0
  9
$PUCSORGBACK
 10
0.0
 20
0.0
 30
0.0
  9
$USERI1
 70
     0
  9
$USERI2
 70
     0
  9
$USERI3
 70
     0
  9
$USERI4
 70
     0
  9
$USERI5
 70
     0
  9
$USERR1
 40
0.0
  9
$USERR2
 40
0.0
  9
$USERR3
 40
0.0
  9
$USERR4
 40
0.0
  9
$USERR5
 40
0.0
  9
$WORLDVIEW
 70
     1
  9
$SHADEDGE
 70
     3
  9
$SHADEDIF
 70
    70
  9
$TILEMODE
 70
     1
  9
$MAXACTVP
 70
    64
  9
$PINSBASE
 10
0.0
 20
0.0
 30
0.0
  9
$PLIMCHECK
 70
     0
  9
$PEXTMIN
 10
1.0000000000E+20
 20
1.0000000000E+20
 30
1.0000000000E+20
  9
$PEXTMAX
 10
-1.0000000000E+20
 20
-1.0000000000E+20
 30
-1.0000000000E+20
  9
$PLIMMIN
 10
0.0
 20
0.0
  9
$PLIMMAX
 10
420.0
 20
297.0
  9
$UNITMODE
 70
     0
  9
$VISRETAIN
 70
     1
  9
$PLINEGEN
 70
     0
  9
$PSLTSCALE
 70
     1
  9
$TREEDEPTH
 70
  3020
  9
$CMLSTYLE
  2
Standard
  9
$CMLJUST
 70
     0
  9
$CMLSCALE
 40
20.0
  9
$PROXYGRAPHICS
 70
     1
  9
$MEASUREMENT
 70
     1
  9
$CELWEIGHT
370
    -1
  9
$ENDCAPS
280
     0
  9
$JOINSTYLE
280
     0
  9
$LWDISPLAY
290
     1
  9
$INSUNITS
 70
     4
  9
$HYPERLINKBASE
  1

  9
$STYLESHEET
  1

  9
$XEDIT
290
     1
  9
$CEPSNTYPE
380
     0
  9
$PSTYLEMODE
290
     1
  9
$FINGERPRINTGUID
  2
{5d413b65-97d2-4e41-a4db-b2fad182c412}
  9
$VERSIONGUID
  2
{FAEB1C32-E019-11D5-929B-00C0DF256EC4}
  9
$EXTNAMES
290
     1
  9
$PSVPSCALE
 40
0.0
  9
$OLESTARTUP
290
     0
  0
ENDSEC
  0
SECTION
  2
CLASSES
  0
CLASS
  1
ACDBDICTIONARYWDFLT
  2
AcDbDictionaryWithDefault
  3
ObjectDBX Classes
 90
        0
280
     0
281
     0
  0
CLASS
  1
VISUALSTYLE
  2
AcDbVisualStyle
  3
ObjectDBX Classes
 90
     4095
280
     0
281
     0
  0
CLASS
  1
MATERIAL
  2
AcDbMaterial
  3
ObjectDBX Classes
 90
     1153
280
     0
281
     0
  0
CLASS
  1
SCALE
  2
AcDbScale
  3
ObjectDBX Classes
 90
     1153
280
     0
281
     0
  0
CLASS
  1
TABLESTYLE
  2
AcDbTableStyle
  3
ObjectDBX Classes
 90
     4095
280
     0
281
     0
  0
CLASS
  1
MLEADERSTYLE
  2
AcDbMLeaderStyle
  3
ACDB_MLEADERSTYLE_CLASS
 90
     4095
280
     0
281
     0
  0
CLASS
  1
SUN
  2
AcDbSun
  3
SCENEOE
 90
     1153
280
     0
281
     0
  0
CLASS
  1
ACDBPLACEHOLDER
  2
AcDbPlaceHolder
  3
ObjectDBX Classes
 90
        0
280
     0
281
     0
  0
CLASS
  1
LAYOUT
  2
AcDbLayout
  3
ObjectDBX Classes
 90
        0
280
     0
281
     0
  0
ENDSEC
  0
SECTION
  2
TABLES
  0
TABLE
  2
VPORT
  5
8
330
0
100
AcDbSymbolTable
 70
     1
  0
VPORT
  5
29
330
8
100
AcDbSymbolTableRecord
100
AcDbViewportTableRecord
  2
*Active
 70
     0
 10
0.0
 20
0.0
 11
1.0
 21
1.0
 12
215.9
 22
139.7
 13
0.0
 23
0.0
 14
10.0
 24
10.0
 15
10.0
 25
10.0
 16
0.0
 26
0.0
 36
1.0
 17
0.0
 27
0.0
 37
0.0
 40
279.4
 41
1.5454545455
 42
50.0
 43
0.0
 44
0.0
 50
0.0
 51
0.0
 71
     0
 72
  2000
 73
     1
 74
     3
 75
     0
 76
     0
 77
     0
 78
     0
281
     0
 65
     1
110
0.0
120
0.0
130
0.0
111
1.0
121
0.0
131
0.0
112
0.0
122
1.0
132
0.0
 79
     0
146
0.0
  0
ENDTAB
  0
TABLE
  2
LTYPE
  5
5
330
0
100
AcDbSymbolTable
 70
     6
  0
LTYPE
  5
14
330
5
100
AcDbSymbolTableRecord
100
AcDbLinetypeTableRecord
  2
ByBlock
 70
     0
  3

 72
    65
 73
     0
 40
0.0
  0
LTYPE
  5
15
330
5
100
AcDbSymbolTableRecord
100
AcDbLinetypeTableRecord
  2
ByLayer
 70
     0
  3

 72
    65
 73
     0
 40
0.0
  0
LTYPE
  5
16
330
5
100
AcDbSymbolTableRecord
100
AcDbLinetypeTableRecord
  2
Continuous
 70
     0
  3
Solid line
 72
    65
 73
     0
 40
0.0
  0
LTYPE
  5
5E
330
5
100
AcDbSymbolTableRecord
100
AcDbLinetypeTableRecord
  2
HIDDEN
 70
     0
  3
Hidden __ __ __ __ __ __ __ __ __ __ __ __ __ __
 72
    65
 73
     2
 40
1.905
 49
1.27
 74
     0
 49
-0.635
 74
     0
  0
LTYPE
  5
5F
330
5
100
AcDbSymbolTableRecord
100
AcDbLinetypeTableRecord
  2
PHANTOM
 70
     0
  3
Phantom ______  __  __  ______  __  __  ______
 72
    65
 73
     6
 40
12.7
 49
6.35
 74
     0
 49
-1.27
 74
     0
 49
1.27
 74
     0
 49
-1.27
 74
     0
 49
1.27
 74
     0
 49
-1.27
 74
     0
  0
LTYPE
  5
60
330
5
100
AcDbSymbolTableRecord
100
AcDbLinetypeTableRecord
  2
CENTER
 70
     0
  3
Center ____ _ ____ _ ____ _ ____ _ ____ _ ____
 72
    65
 73
     4
 40
10.16
 49
6.35
 74
     0
 49
-1.27
 74
     0
 49
1.27
 74
     0
 49
-1.27
 74
     0
  0
LTYPE
  5
61
330
5
100
AcDbSymbolTableRecord
100
AcDbLinetypeTableRecord
  2
CENTERX2
 70
     0
  3
Center (2x) ________  __  ________  __  _____
 72
    65
 73
     4
 40
20.32
 49
12.7
 74
     0
 49
-2.54
 74
     0
 49
2.54
 74
     0
 49
-2.54
 74
     0
  0
LTYPE
  5
62
330
5
100
AcDbSymbolTableRecord
100
AcDbLinetypeTableRecord
  2
DOT2
 70
     0
  3
Dot (.5x) ........................................
 72
    65
 73
     2
 40
0.635
 49
0.0
 74
     0
 49
-0.635
 74
     0
  0
ENDTAB
  0
TABLE
  2
LAYER
  5
2
330
0
100
AcDbSymbolTable
 70
     1
  0
LAYER
  5
10
330
2
100
AcDbSymbolTableRecord
100
AcDbLayerTableRecord
  2
0
 70
     0
 62
     7
  6
Continuous
370
    -3
390
F
  0
ENDTAB
  0
TABLE
  2
STYLE
  5
3
330
0
100
AcDbSymbolTable
 70
     2
  0
STYLE
  5
11
330
3
100
AcDbSymbolTableRecord
100
AcDbTextStyleTableRecord
  2
Standard
 70
     0
 40
0.0
 41
1.0
 50
0.0
 71
     0
 42
3.5
  3
txt
  4
bigfont
  0
STYLE
  5
63
330
3
100
AcDbSymbolTableRecord
100
AcDbTextStyleTableRecord
  2
SLDTEXTSTYLE0
 70
     0
 40
0.0
 41
0.7
 50
0.0
 71
     0
 42
3.5
  3
TXT
  4
bigfont
  0
ENDTAB
  0
TABLE
  2
VIEW
  5
6
330
0
100
AcDbSymbolTable
 70
     0
  0
ENDTAB
  0
TABLE
  2
UCS
  5
7
330
0
100
AcDbSymbolTable
 70
     0
  0
ENDTAB
  0
TABLE
  2
APPID
  5
9
330
0
100
AcDbSymbolTable
 70
     1
  0
APPID
  5
12
330
9
100
AcDbSymbolTableRecord
100
AcDbRegAppTableRecord
  2
ACAD
 70
     0
  0
ENDTAB
  0
TABLE
  2
DIMSTYLE
  5
A
330
0
100
AcDbSymbolTable
 70
     1
100
AcDbDimStyleTable
  0
DIMSTYLE
105
27
330
A
100
AcDbSymbolTableRecord
100
AcDbDimStyleTableRecord
  2
ISO-25
 70
     0
 41
2.5
 42
0.625
 43
3.75
 44
1.25
 73
     0
 74
     0
 77
     1
 78
     8
140
2.5
141
2.5
143
0.0393700787
147
0.625
171
     3
172
     1
178
     0
271
     2
272
     2
274
     3
278
    44
283
     0
284
     8
340
11
  0
ENDTAB
  0
TABLE
  2
BLOCK_RECORD
  5
1
330
0
100
AcDbSymbolTable
 70
     3
  0
BLOCK_RECORD
  5
1F
330
1
100
AcDbSymbolTableRecord
100
AcDbBlockTableRecord
  2
*Model_Space
340
22
  0
BLOCK_RECORD
  5
1B
330
1
100
AcDbSymbolTableRecord
100
AcDbBlockTableRecord
  2
*Paper_Space
340
1E
  0
BLOCK_RECORD
  5
23
330
1
100
AcDbSymbolTableRecord
100
AcDbBlockTableRecord
  2
*Paper_Space0
340
26
  0
BLOCK_RECORD
  5
1EE
330
1
100
AcDbSymbolTableRecord
100
AcDbBlockTableRecord
  2
SW_CENTERMARKSYMBOL_0
340
0
102
{BLKREFS
331
1F9
102
}
  0
BLOCK_RECORD
  5
2D2
330
1
100
AcDbSymbolTableRecord
100
AcDbBlockTableRecord
  2
SW_CENTERMARKSYMBOL_1
340
0
102
{BLKREFS
331
2DD
102
}
  0
ENDTAB
  0
ENDSEC
  0
SECTION
  2
BLOCKS
  0
BLOCK
  5
20
330
1F
100
AcDbEntity
  8
0
100
AcDbBlockBegin
  2
*Model_Space
 70
     0
 10
0.0
 20
0.0
 30
0.0
  3
*Model_Space
  1

  0
ENDBLK
  5
21
330
1F
100
AcDbEntity
  8
0
100
AcDbBlockEnd
  0
BLOCK
  5
1C
330
1B
100
AcDbEntity
 67
     1
  8
0
100
AcDbBlockBegin
  2
*Paper_Space
 70
     0
 10
0.0
 20
0.0
 30
0.0
  3
*Paper_Space
  1

  0
ENDBLK
  5
1D
330
1B
100
AcDbEntity
 67
     1
  8
0
100
AcDbBlockEnd
  0
BLOCK
  5
24
330
23
100
AcDbEntity
  8
0
100
AcDbBlockBegin
  2
*Paper_Space0
 70
     0
 10
0.0
 20
0.0
 30
0.0
  3
*Paper_Space0
  1

  0
ENDBLK
  5
25
330
23
100
AcDbEntity
  8
0
100
AcDbBlockEnd
  0
BLOCK
  5
1EF
330
1EE
100
AcDbEntity
  8
0
100
AcDbBlockBegin
  2
SW_CENTERMARKSYMBOL_0
 70
     0
 10
0.0
 20
0.0
 30
0.0
  3
SW_CENTERMARKSYMBOL_0
  1

  0
LINE
  5
1F1
330
1EE
100
AcDbEntity
  8
0
  6
Continuous
 62
     0
370
    18
100
AcDbLine
 10
0.0
 20
0.0
 30
0.0
 11
0.0
 21
2.5
 31
0.0
  0
LINE
  5
1F2
330
1EE
100
AcDbEntity
  8
0
  6
Continuous
 62
     0
370
    18
100
AcDbLine
 10
0.0
 20
0.0
 30
0.0
 11
-2.5
 21
0.0
 31
0.0
  0
LINE
  5
1F3
330
1EE
100
AcDbEntity
  8
0
  6
Continuous
 62
     0
370
    18
100
AcDbLine
 10
0.0
 20
0.0
 30
0.0
 11
0.0
 21
-2.5
 31
0.0
  0
LINE
  5
1F4
330
1EE
100
AcDbEntity
  8
0
  6
Continuous
 62
     0
370
    18
100
AcDbLine
 10
0.0
 20
0.0
 30
0.0
 11
2.5
 21
0.0
 31
0.0
  0
LINE
  5
1F5
330
1EE
100
AcDbEntity
  8
0
  6
Continuous
 62
     0
370
    18
100
AcDbLine
 10
0.0
 20
5.0
 30
0.0
 11
0.0
 21
41.3032217301
 31
0.0
  0
LINE
  5
1F6
330
1EE
100
AcDbEntity
  8
0
  6
Continuous
 62
     0
370
    18
100
AcDbLine
 10
-5.0
 20
0.0
 30
0.0
 11
-15.0
 21
0.0
 31
0.0
  0
LINE
  5
1F7
330
1EE
100
AcDbEntity
  8
0
  6
Continuous
 62
     0
370
    18
100
AcDbLine
 10
0.0
 20
-5.0
 30
0.0
 11
0.0
 21
-15.0
 31
0.0
  0
LINE
  5
1F8
330
1EE
100
AcDbEntity
  8
0
  6
Continuous
 62
     0
370
    18
100
AcDbLine
 10
5.0
 20
0.0
 30
0.0
 11
15.0
 21
0.0
 31
0.0
  0
ENDBLK
  5
1F0
330
1EE
100
AcDbEntity
  8
0
100
AcDbBlockEnd
  0
BLOCK
  5
2D3
330
2D2
100
AcDbEntity
  8
0
100
AcDbBlockBegin
  2
SW_CENTERMARKSYMBOL_1
 70
     0
 10
0.0
 20
0.0
 30
0.0
  3
SW_CENTERMARKSYMBOL_1
  1

  0
LINE
  5
2D5
330
2D2
100
AcDbEntity
  8
0
  6
Continuous
 62
     0
370
    18
100
AcDbLine
 10
0.0
 20
0.0
 30
0.0
 11
0.0
 21
2.5
 31
0.0
  0
LINE
  5
2D6
330
2D2
100
AcDbEntity
  8
0
  6
Continuous
 62
     0
370
    18
100
AcDbLine
 10
0.0
 20
0.0
 30
0.0
 11
-2.5
 21
0.0
 31
0.0
  0
LINE
  5
2D7
330
2D2
100
AcDbEntity
  8
0
  6
Continuous
 62
     0
370
    18
100
AcDbLine
 10
0.0
 20
0.0
 30
0.0
 11
0.0
 21
-2.5
 31
0.0
  0
LINE
  5
2D8
330
2D2
100
AcDbEntity
  8
0
  6
Continuous
 62
     0
370
    18
100
AcDbLine
 10
0.0
 20
0.0
 30
0.0
 11
2.5
 21
0.0
 31
0.0
  0
LINE
  5
2D9
330
2D2
100
AcDbEntity
  8
0
  6
Continuous
 62
     0
370
    18
100
AcDbLine
 10
0.0
 20
5.0
 30
0.0
 11
0.0
 21
14.0885317454
 31
0.0
  0
LINE
  5
2DA
330
2D2
100
AcDbEntity
  8
0
  6
Continuous
 62
     0
370
    18
100
AcDbLine
 10
-5.0
 20
0.0
 30
0.0
 11
-57.2872921382
 21
0.0
 31
0.0
  0
LINE
  5
2DB
330
2D2
100
AcDbEntity
  8
0
  6
Continuous
 62
     0
370
    18
100
AcDbLine
 10
0.0
 20
-5.0
 30
0.0
 11
0.0
 21
-13.6721256361
 31
0.0
  0
LINE
  5
2DC
330
2D2
100
AcDbEntity
  8
0
  6
Continuous
 62
     0
370
    18
100
AcDbLine
 10
5.0
 20
0.0
 30
0.0
 11
29.0674245256
 21
0.0
 31
0.0
  0
ENDBLK
  5
2D4
330
2D2
100
AcDbEntity
  8
0
100
AcDbBlockEnd
  0
ENDSEC
  0
SECTION
  2
ENTITIES
  0
MTEXT
  5
64
330
1F
100
AcDbEntity
  8
0
  6
Continuous
 62
     7
370
     0
100
AcDbMText
 10
167.0049820104
 20
115.7363938955
 30
0.0
 40
4.2333333333
 41
0.0
 71
     1
 72
     1
  1
エースボールZERO　BM-0033
  7
SLDTEXTSTYLE0
 73
     1
 44
1.0
  0
LINE
  5
65
330
1F
100
AcDbEntity
  8
0
  6
Continuous
 62
     7
370
    25
100
AcDbLine
 10
142.5933721619
 20
74.8488467351
 30
0.0
 11
139.8433721619
 21
74.8488467351
 31
0.0
  0
LINE
  5
66
330
1F
100
AcDbEntity
  8
0
  6
Continuous
 62
     7
370
    25
100
AcDbLine
 10
139.8433721619
 20
50.8488467351
 30
0.0
 11
142.5933721619
 21
50.8488467351
 31
0.0
  0
LINE
  5
67
330
1F
100
AcDbEntity
  8
0
  6
Continuous
 62
     7
370
    25
100
AcDbLine
 10
139.8433721619
 20
74.8488467351
 30
0.0
 11
139.5933721619
 21
74.5988467351
 31
0.0
  0
LINE
  5
68
330
1F
100
AcDbEntity
  8
0
  6
Continuous
 62
     7
370
    25
100
AcDbLine
 10
139.5933721619
 20
51.0988467351
 30
0.0
 11
139.8433721619
 21
50.8488467351
 31
0.0
  0
LINE
  5
69
330
1F
100
AcDbEntity
  8
0
  6
Continuous
 62
     7
370
    25
100
AcDbLine
 10
128.0933721619
 20
73.5988467351
 30
0.0
 11
127.5933721619
 21
73.0988467351
 31
0.0
  0
LINE
  5
6A
330
1F
100
AcDbEntity
  8
0
  6
Continuous
 62
     7
370
    25
100
AcDbLine
 10
127.5933721619
 20
52.5988467351
 30
0.0
 11
128.0933721619
 21
52.0988467351
 31
0.0
  0
LINE
  5
6B
330
1F
100
AcDbEntity
  8
0
  6
Continuous
 62
     7
370
    25
100
AcDbLine
 10
139.5933721619
 20
73.5988467351
 30
0.0
 11
128.0933721619
 21
73.5988467351
 31
0.0
  0
LINE
  5
6C
330
1F
100
AcDbEntity
  8
0
  6
Continuous
 62
     7
370
    25
100
AcDbLine
 10
128.0933721619
 20
52.0988467351
 30
0.0
 11
139.5933721619
 21
52.0988467351
 31
0.0
  0
LINE
  5
6D
330
1F
100
AcDbEntity
  8
0
  6
Continuous
 62
     7
370
    25
100
AcDbLine
 10
170.8433721619
 20
50.8488467351
 30
0.0
 11
171.0933721619
 21
51.0988467351
 31
0.0
  0
LINE
  5
6E
330
1F
100
AcDbEntity
  8
0
  6
Continuous
 62
     7
370
    25
100
AcDbLine
 10
171.0933721619
 20
74.5988467351
 30
0.0
 11
170.8433721619
 21
74.8488467351
 31
0.0
  0
LINE
  5
6F
330
1F
100
AcDbEntity
  8
0
  6
Continuous
 62
     7
370
    25
100
AcDbLine
 10
168.5933721619
 20
50.8488467351
 30
0.0
 11
170.8433721619
 21
50.8488467351
 31
0.0
  0
LINE
  5
70
330
1F
100
AcDbEntity
  8
0
  6
Continuous
 62
     7
370
    25
100
AcDbLine
 10
170.8433721619
 20
74.8488467351
 30
0.0
 11
168.5933721619
 21
74.8488467351
 31
0.0
  0
LINE
  5
71
330
1F
100
AcDbEntity
  8
0
  6
Continuous
 62
     7
370
    25
100
AcDbLine
 10
171.0933721619
 20
54.3303467351
 30
0.0
 11
180.999434355
 21
54.6399111786
 31
0.0
  0
LINE
  5
72
330
1F
100
AcDbEntity
  8
0
  6
Continuous
 62
     7
370
    25
100
AcDbLine
 10
180.999434355
 20
71.0577822916
 30
0.0
 11
171.0933721619
 21
71.3673467351
 31
0.0
  0
ARC
  5
73
330
1F
100
AcDbEntity
  8
0
  6
Continuous
 62
     7
370
    25
100
AcDbCircle
 10
164.0933721619
 20
75.5988467351
 30
0.0
 40
0.25
100
AcDbArc
 50
180.0
 51
270.0
  0
ARC
  5
74
330
1F
100
AcDbEntity
  8
0
  6
Continuous
 62
     7
370
    25
100
AcDbCircle
 10
147.0933721619
 20
75.5988467351
 30
0.0
 40
0.25
100
AcDbArc
 50
270.0
 51
0.0
  0
LINE
  5
75
330
1F
100
AcDbEntity
  8
0
  6
Continuous
 62
     7
370
    25
100
AcDbLine
 10
163.8433721619
 20
81.0488467351
 30
0.0
 11
163.3433721619
 21
81.5488467351
 31
0.0
  0
LINE
  5
76
330
1F
100
AcDbEntity
  8
0
  6
Continuous
 62
     7
370
    25
100
AcDbLine
 10
147.8433721619
 20
81.5488467351
 30
0.0
 11
147.3433721619
 21
81.0488467351
 31
0.0
  0
LINE
  5
77
330
1F
100
AcDbEntity
  8
0
  6
Continuous
 62
     7
370
    25
100
AcDbLine
 10
163.8433721619
 20
75.5988467351
 30
0.0
 11
163.8433721619
 21
81.0488467351
 31
0.0
  0
LINE
  5
78
330
1F
100
AcDbEntity
  8
0
  6
Continuous
 62
     7
370
    25
100
AcDbLine
 10
147.3433721619
 20
81.0488467351
 30
0.0
 11
147.3433721619
 21
75.5988467351
 31
0.0
  0
LINE
  5
79
330
1F
100
AcDbEntity
  8
0
  6
Continuous
 62
     7
370
    25
100
AcDbLine
 10
180.999434355
 20
54.6399111786
 30
0.0
 11
183.0933721619
 21
55.8488467351
 31
0.0
  0
LINE
  5
7A
330
1F
100
AcDbEntity
  8
0
  6
Continuous
 62
     7
370
    25
100
AcDbLine
 10
183.0933721619
 20
69.8488467351
 30
0.0
 11
180.999434355
 21
71.0577822916
 31
0.0
  0
LINE
  5
7B
330
1F
100
AcDbEntity
  8
0
  6
Continuous
 62
     7
370
    25
100
AcDbLine
 10
150.5933721619
 20
82.0488467351
 30
0.0
 11
150.5933721619
 21
81.5488467351
 31
0.0
  0
LINE
  5
7C
330
1F
100
AcDbEntity
  8
0
  6
Continuous
 62
     7
370
    25
100
AcDbLine
 10
160.5933721619
 20
81.5488467351
 30
0.0
 11
160.5933721619
 21
82.0488467351
 31
0.0
  0
ARC
  5
7D
330
1F
100
AcDbEntity
  8
0
  6
Continuous
 62
     7
370
    25
100
AcDbCircle
 10
155.5933721619
 20
79.5488467351
 30
0.0
 40
20.60000000000001
100
AcDbArc
 50
90.5300116899
 51
93.3558231766
  0
ARC
  5
7E
330
1F
100
AcDbEntity
  8
0
  6
Continuous
 62
     7
370
    25
100
AcDbCircle
 10
155.5933721619
 20
79.5488467351
 30
0.0
 40
20.6
100
AcDbArc
 50
86.6441768145
 51
89.4667292819
  0
ARC
  5
7F
330
1F
100
AcDbEntity
  8
0
  6
Continuous
 62
     7
370
    25
100
AcDbCircle
 10
163.5871425302
 20
92.0364260399
 30
0.0
 40
1.000000000000005
100
AcDbArc
 50
354.2894068625
 51
7.1250163489
  0
LINE
  5
80
330
1F
100
AcDbEntity
  8
0
  6
Continuous
 62
     7
370
    25
100
AcDbLine
 10
147.1867443052
 20
86.1151253014
 30
0.0
 11
147.4133721619
 21
83.8488467351
 31
0.0
  0
LINE
  5
81
330
1F
100
AcDbEntity
  8
0
  6
Continuous
 62
     7
370
    25
100
AcDbLine
 10
163.6383969759
 20
82.4990948756
 30
0.0
 11
164.5821797204
 21
91.9369223208
 31
0.0
  0
LINE
  5
82
330
1F
100
AcDbEntity
  8
0
  6
Continuous
 62
     7
370
    25
100
AcDbLine
 10
164.579420407
 20
92.1604607744
 30
0.0
 11
163.648119991
 21
99.6108641024
 31
0.0
  0
LINE
  5
83
330
1F
100
AcDbEntity
  8
0
  6
Continuous
 62
     7
370
    25
100
AcDbLine
 10
147.5386243328
 20
99.6108641024
 30
0.0
 11
147.3433721619
 21
98.0488467351
 31
0.0
  0
ARC
  5
84
330
1F
100
AcDbEntity
  8
0
  6
Continuous
 62
     7
370
    25
100
AcDbCircle
 10
148.0347632711
 20
99.5488467351
 30
0.0
 40
0.5000000000000017
100
AcDbArc
 50
90.0
 51
172.8749836511
  0
ARC
  5
85
330
1F
100
AcDbEntity
  8
0
  6
Continuous
 62
     7
370
    25
100
AcDbCircle
 10
163.1519810526
 20
99.5488467351
 30
0.0
 40
0.5000000000000017
100
AcDbArc
 50
7.1250163489
 51
90.0
  0
ARC
  5
86
330
1F
100
AcDbEntity
  8
0
  6
Continuous
 62
     7
370
    25
100
AcDbCircle
 10
163.1408783808
 20
82.5488467351
 30
0.0
 40
0.5000000000000142
100
AcDbArc
 50
270.0
 51
354.2894068625
  0
LINE
  5
87
330
1F
100
AcDbEntity
  8
0
  6
Continuous
 62
     7
370
    25
100
AcDbLine
 10
150.0933721619
 20
81.5488467351
 30
0.0
 11
150.0933721619
 21
82.0488467351
 31
0.0
  0
LINE
  5
88
330
1F
100
AcDbEntity
  8
0
  6
Continuous
 62
     7
370
    25
100
AcDbLine
 10
148.0933721619
 20
82.0520814671
 30
0.0
 11
148.0933721619
 21
81.5488467351
 31
0.0
  0
LINE
  5
89
330
1F
100
AcDbEntity
  8
0
  6
Continuous
 62
     7
370
    25
100
AcDbLine
 10
139.8433721619
 20
60.2212726611
 30
0.0
 11
139.8433721619
 21
50.8488467351
 31
0.0
  0
LINE
  5
8A
330
1F
100
AcDbEntity
  8
0
  6
Continuous
 62
     7
370
    25
100
AcDbLine
 10
139.8433721619
 20
74.8488467351
 30
0.0
 11
139.8433721619
 21
60.2212726611
 31
0.0
  0
LINE
  5
8B
330
1F
100
AcDbEntity
  8
0
  6
Continuous
 62
     7
370
    25
100
AcDbLine
 10
139.5933721619
 20
60.2760137877
 30
0.0
 11
139.5933721619
 21
74.5988467351
 31
0.0
  0
LINE
  5
8C
330
1F
100
AcDbEntity
  8
0
  6
Continuous
 62
     7
370
    25
100
AcDbLine
 10
139.5933721619
 20
51.0988467351
 30
0.0
 11
139.5933721619
 21
60.2760137877
 31
0.0
  0
LINE
  5
8D
330
1F
100
AcDbEntity
  8
0
  6
Continuous
 62
     7
370
    25
100
AcDbLine
 10
127.5933721619
 20
60.6044605469
 30
0.0
 11
127.5933721619
 21
73.0988467351
 31
0.0
  0
LINE
  5
8E
330
1F
100
AcDbEntity
  8
0
  6
Continuous
 62
     7
370
    25
100
AcDbLine
 10
127.5933721619
 20
52.5988467351
 30
0.0
 11
127.5933721619
 21
60.6044605469
 31
0.0
  0
LINE
  5
8F
330
1F
100
AcDbEntity
  8
0
  6
Continuous
 62
     7
370
    25
100
AcDbLine
 10
128.0933721619
 20
60.4949782938
 30
0.0
 11
128.0933721619
 21
52.0988467351
 31
0.0
  0
LINE
  5
90
330
1F
100
AcDbEntity
  8
0
  6
Continuous
 62
     7
370
    25
100
AcDbLine
 10
128.0933721619
 20
73.5988467351
 30
0.0
 11
128.0933721619
 21
60.4949782938
 31
0.0
  0
LINE
  5
91
330
1F
100
AcDbEntity
  8
0
  6
Continuous
 62
     7
370
    25
100
AcDbLine
 10
167.0056589216
 20
50.3488467351
 30
0.0
 11
144.1810854021
 21
50.3488467351
 31
0.0
  0
LINE
  5
92
330
1F
100
AcDbEntity
  8
0
  6
Continuous
 62
     7
370
    25
100
AcDbLine
 10
144.1810854021
 20
50.3488467351
 30
0.0
 11
144.1810854021
 21
54.1131441303
 31
0.0
  0
LINE
  5
93
330
1F
100
AcDbEntity
  8
0
  6
Continuous
 62
     7
370
    25
100
AcDbLine
 10
167.0056589216
 20
54.1131441303
 30
0.0
 11
144.1810854021
 21
54.1131441303
 31
0.0
  0
LINE
  5
94
330
1F
100
AcDbEntity
  8
0
  6
Continuous
 62
     7
370
    25
100
AcDbLine
 10
167.0056589216
 20
54.1131441303
 30
0.0
 11
167.0056589216
 21
50.3488467351
 31
0.0
  0
SPLINE
  5
95
330
1F
100
AcDbEntity
  8
0
  6
Continuous
 62
     7
370
    25
100
AcDbSpline
210
0.0
220
0.0
230
1.0
 70
     8
 71
     3
 72
    10
 73
     6
 74
     0
 42
0.00000001
 43
0.00000001
 40
0.0
 40
0.0
 40
0.0
 40
0.0
 40
0.5
 40
0.5
 40
1.0
 40
1.0
 40
1.0
 40
1.0
 10
167.0056589216036
 20
54.1131441302712
 30
0.0
 10
167.4727017602641
 20
55.52532182536776
 30
0.0
 10
167.8750508890301
 20
56.9719601503805
 30
0.0
 10
168.4357699133016
 20
59.88497949572616
 30
0.0
 10
168.5933721618751
 20
61.35697338712917
 30
0.0
 10
168.5933721618751
 20
62.84884673509926
 30
0.0
  0
SPLINE
  5
96
330
1F
100
AcDbEntity
  8
0
  6
Continuous
 62
     7
370
    25
100
AcDbSpline
210
0.0
220
0.0
230
1.0
 70
     8
 71
     3
 72
    10
 73
     6
 74
     0
 42
0.00000001
 43
0.00000001
 40
0.0
 40
0.0
 40
0.0
 40
0.0
 40
0.5
 40
0.5
 40
1.0
 40
1.0
 40
1.0
 40
1.0
 10
144.1810854021466
 20
54.1131441302712
 30
0.0
 10
143.7140825032528
 20
55.52520106118296
 30
0.0
 10
143.3116787561262
 20
56.97198398506082
 30
0.0
 10
142.7509201855344
 20
59.88531363153601
 30
0.0
 10
142.5933721618751
 20
61.35727208739198
 30
0.0
 10
142.5933721618751
 20
62.84884673509926
 30
0.0
  0
SPLINE
  5
97
330
1F
100
AcDbEntity
  8
0
  6
Continuous
 62
     7
370
    25
100
AcDbSpline
210
0.0
220
0.0
230
1.0
 70
     8
 71
     3
 72
    12
 73
     8
 74
     0
 42
0.00000001
 43
0.00000001
 40
0.0
 40
0.0
 40
0.0
 40
0.0
 40
0.2500000000000001
 40
0.2500000000000001
 40
0.5000000000000001
 40
0.5000000000000001
 40
1.0
 40
1.0
 40
1.0
 40
1.0
 10
142.5933721618751
 20
62.84884673509926
 30
0.0
 10
142.5933721618751
 20
63.59419294737358
 30
0.0
 10
142.6327652472447
 20
64.3460197972426
 30
0.0
 10
142.7833966500101
 20
65.82672025841788
 30
0.0
 10
142.8942770791819
 20
66.5596918630199
 30
0.0
 10
143.3154644851463
 20
68.7402359839759
 30
0.0
 10
143.713152230626
 20
70.16967958298511
 30
0.0
 10
144.1810854021466
 20
71.58454933992734
 30
0.0
  0
LINE
  5
98
330
1F
100
AcDbEntity
  8
0
  6
Continuous
 62
     7
370
    25
100
AcDbLine
 10
167.0056589216
 20
71.5845493399
 30
0.0
 11
144.1810854021
 21
71.5845493399
 31
0.0
  0
SPLINE
  5
99
330
1F
100
AcDbEntity
  8
0
  6
Continuous
 62
     7
370
    25
100
AcDbSpline
210
0.0
220
0.0
230
1.0
 70
     8
 71
     3
 72
    12
 73
     8
 74
     0
 42
0.00000001
 43
0.00000001
 40
0.0
 40
0.0
 40
0.0
 40
0.0
 40
0.2499999999999999
 40
0.2499999999999999
 40
0.4999999999999999
 40
0.4999999999999999
 40
1.0
 40
1.0
 40
1.0
 40
1.0
 10
168.5933721618751
 20
62.84884673509926
 30
0.0
 10
168.5933721618751
 20
63.59440795505794
 30
0.0
 10
168.5539631964957
 20
64.34620705712298
 30
0.0
 10
168.4033437751628
 20
65.82672741713861
 30
0.0
 10
168.292474559372
 20
66.55964235759176
 30
0.0
 10
167.8713115621998
 20
68.7400950161145
 30
0.0
 10
167.4736248049762
 20
70.16958067354062
 30
0.0
 10
167.0056589216036
 20
71.58454933992732
 30
0.0
  0
LINE
  5
9A
330
1F
100
AcDbEntity
  8
0
  6
Continuous
 62
     7
370
    25
100
AcDbLine
 10
144.1810854021
 20
71.5845493399
 30
0.0
 11
144.1810854021
 21
75.3488467351
 31
0.0
  0
LINE
  5
9B
330
1F
100
AcDbEntity
  8
0
  6
Continuous
 62
     7
370
    25
100
AcDbLine
 10
167.0056589216
 20
75.3488467351
 30
0.0
 11
144.1810854021
 21
75.3488467351
 31
0.0
  0
LINE
  5
9C
330
1F
100
AcDbEntity
  8
0
  6
Continuous
 62
     7
370
    25
100
AcDbLine
 10
167.0056589216
 20
75.3488467351
 30
0.0
 11
167.0056589216
 21
71.5845493399
 31
0.0
  0
LINE
  5
9D
330
1F
100
AcDbEntity
  8
0
  6
Continuous
 62
     7
370
    25
100
AcDbLine
 10
168.5933721619
 20
62.8488467351
 30
0.0
 11
168.5933721619
 21
50.3488467351
 31
0.0
  0
SPLINE
  5
9E
330
1F
100
AcDbEntity
  8
0
  6
Continuous
 62
     7
370
    25
100
AcDbSpline
210
0.0
220
0.0
230
1.0
 70
    24
 71
     3
 72
    12
 73
     8
 74
     0
 42
0.00000001
 43
0.00000001
 40
0.0
 40
0.0
 40
0.0
 40
0.0
 40
0.25
 40
0.25
 40
0.5
 40
0.5
 40
1.0
 40
1.0
 40
1.0
 40
1.0
 10
168.5933721618751
 20
50.34884673509925
 30
0.0
 10
168.5933721618751
 20
50.34884673509926
 30
0.0
 10
168.5539631964955
 20
50.34884673509925
 30
0.0
 10
168.4033437751627
 20
50.34884673509925
 30
0.0
 10
168.292474559372
 20
50.34884673509926
 30
0.0
 10
167.8713115622
 20
50.34884673509925
 30
0.0
 10
167.4736248049765
 20
50.34884673509925
 30
0.0
 10
167.0056589216036
 20
50.34884673509925
 30
0.0
  0
LINE
  5
9F
330
1F
100
AcDbEntity
  8
0
  6
Continuous
 62
     7
370
    25
100
AcDbLine
 10
142.5933721619
 20
62.8488467351
 30
0.0
 11
142.5933721619
 21
75.3488467351
 31
0.0
  0
SPLINE
  5
A0
330
1F
100
AcDbEntity
  8
0
  6
Continuous
 62
     7
370
    25
100
AcDbSpline
210
0.0
220
0.0
230
1.0
 70
    24
 71
     3
 72
    12
 73
     8
 74
     0
 42
0.00000001
 43
0.00000001
 40
0.0
 40
0.0
 40
0.0
 40
0.0
 40
0.2500000000000001
 40
0.2500000000000001
 40
0.5000000000000001
 40
0.5000000000000001
 40
1.0
 40
1.0
 40
1.0
 40
1.0
 10
142.5933721618751
 20
75.34884673509926
 30
0.0
 10
142.5933721618751
 20
75.34884673509926
 30
0.0
 10
142.6327652472447
 20
75.34884673509926
 30
0.0
 10
142.7833966500101
 20
75.34884673509926
 30
0.0
 10
142.8942770791819
 20
75.34884673509926
 30
0.0
 10
143.3154644851463
 20
75.34884673509926
 30
0.0
 10
143.713152230626
 20
75.34884673509926
 30
0.0
 10
144.1810854021466
 20
75.34884673509926
 30
0.0
  0
SPLINE
  5
A1
330
1F
100
AcDbEntity
  8
0
  6
Continuous
 62
     7
370
    25
100
AcDbSpline
210
0.0
220
0.0
230
1.0
 70
    24
 71
     3
 72
    12
 73
     8
 74
     0
 42
0.00000001
 43
0.00000001
 40
0.0
 40
0.0
 40
0.0
 40
0.0
 40
0.2500000000000001
 40
0.2500000000000001
 40
0.5000000000000001
 40
0.5000000000000001
 40
1.0
 40
1.0
 40
1.0
 40
1.0
 10
142.5933721618751
 20
50.34884673509925
 30
0.0
 10
142.5933721618751
 20
50.34884673509926
 30
0.0
 10
142.6327652472447
 20
50.34884673509925
 30
0.0
 10
142.7833966500101
 20
50.34884673509925
 30
0.0
 10
142.8942770791819
 20
50.34884673509925
 30
0.0
 10
143.3154644851462
 20
50.34884673509924
 30
0.0
 10
143.7131522306259
 20
50.34884673509925
 30
0.0
 10
144.1810854021466
 20
50.34884673509925
 30
0.0
  0
LINE
  5
A2
330
1F
100
AcDbEntity
  8
0
  6
Continuous
 62
     7
370
    25
100
AcDbLine
 10
142.5933721619
 20
50.3488467351
 30
0.0
 11
142.5933721619
 21
62.8488467351
 31
0.0
  0
SPLINE
  5
A3
330
1F
100
AcDbEntity
  8
0
  6
Continuous
 62
     7
370
    25
100
AcDbSpline
210
0.0
220
0.0
230
1.0
 70
    24
 71
     3
 72
    12
 73
     8
 74
     0
 42
0.00000001
 43
0.00000001
 40
0.0
 40
0.0
 40
0.0
 40
0.0
 40
0.2500000000000001
 40
0.2500000000000001
 40
0.5000000000000001
 40
0.5000000000000001
 40
1.0
 40
1.0
 40
1.0
 40
1.0
 10
168.5933721618751
 20
75.34884673509926
 30
0.0
 10
168.5933721618751
 20
75.34884673509926
 30
0.0
 10
168.5539631964957
 20
75.34884673509926
 30
0.0
 10
168.4033437751628
 20
75.34884673509926
 30
0.0
 10
168.292474559372
 20
75.34884673509926
 30
0.0
 10
167.8713115621998
 20
75.34884673509926
 30
0.0
 10
167.4736248049762
 20
75.34884673509926
 30
0.0
 10
167.0056589216036
 20
75.34884673509926
 30
0.0
  0
LINE
  5
A4
330
1F
100
AcDbEntity
  8
0
  6
Continuous
 62
     7
370
    25
100
AcDbLine
 10
168.5933721619
 20
75.3488467351
 30
0.0
 11
168.5933721619
 21
62.8488467351
 31
0.0
  0
LINE
  5
A5
330
1F
100
AcDbEntity
  8
0
  6
Continuous
 62
     7
370
    25
100
AcDbLine
 10
171.0933721619
 20
74.5988467351
 30
0.0
 11
171.0933721619
 21
51.0988467351
 31
0.0
  0
LINE
  5
A6
330
1F
100
AcDbEntity
  8
0
  6
Continuous
 62
     7
370
    25
100
AcDbLine
 10
170.8433721619
 20
50.8488467351
 30
0.0
 11
170.8433721619
 21
74.8488467351
 31
0.0
  0
LINE
  5
A7
330
1F
100
AcDbEntity
  8
0
  6
Continuous
 62
     7
370
    25
100
AcDbLine
 10
180.999434355
 20
54.6399111786
 30
0.0
 11
180.999434355
 21
71.0577822916
 31
0.0
  0
LINE
  5
A8
330
1F
100
AcDbEntity
  8
0
  6
Continuous
 62
     7
370
    25
100
AcDbLine
 10
155.5933721619
 20
81.5488467351
 30
0.0
 11
163.3433721619
 21
81.5488467351
 31
0.0
  0
LINE
  5
A9
330
1F
100
AcDbEntity
  8
0
  6
Continuous
 62
     7
370
    25
100
AcDbLine
 10
147.8433721619
 20
81.5488467351
 30
0.0
 11
155.5933721619
 21
81.5488467351
 31
0.0
  0
LINE
  5
AA
330
1F
100
AcDbEntity
  8
0
  6
Continuous
 62
     7
370
    25
100
AcDbLine
 10
155.5933721619
 20
81.0488467351
 30
0.0
 11
147.3433721619
 21
81.0488467351
 31
0.0
  0
LINE
  5
AB
330
1F
100
AcDbEntity
  8
0
  6
Continuous
 62
     7
370
    25
100
AcDbLine
 10
163.8433721619
 20
81.0488467351
 30
0.0
 11
155.5933721619
 21
81.0488467351
 31
0.0
  0
LINE
  5
AC
330
1F
100
AcDbEntity
  8
0
  6
Continuous
 62
     7
370
    25
100
AcDbLine
 10
183.0933721619
 20
69.8488467351
 30
0.0
 11
183.0933721619
 21
55.8488467351
 31
0.0
  0
ARC
  5
AD
330
1F
100
AcDbEntity
  8
0
  6
Continuous
 62
     7
370
    25
100
AcDbCircle
 10
154.5264204927
 20
97.7499227858
 30
0.0
 40
2.367678303605375
100
AcDbArc
 50
93.3632881502
 51
99.4868245016
  0
ARC
  5
AE
330
1F
100
AcDbEntity
  8
0
  6
Continuous
 62
     7
370
    25
100
AcDbCircle
 10
156.6603275176
 20
97.7499640365
 30
0.0
 40
2.367636907662699
100
AcDbArc
 50
80.5187694298
 51
86.636742268
  0
SPLINE
  5
AF
330
1F
100
AcDbEntity
  8
0
  6
Continuous
 62
     7
370
    25
100
AcDbSpline
210
0.0
220
0.0
230
1.0
 70
     8
 71
     3
 72
    15
 73
    11
 74
     0
 42
0.00000001
 43
0.00000001
 40
0.0
 40
0.0
 40
0.0
 40
0.0
 40
0.1233867499278388
 40
0.2487396502211602
 40
0.3739317114754985
 40
0.4999973617625659
 40
0.6259591330513601
 40
0.7512551380600303
 40
0.8765613478174267
 40
1.0
 40
1.0
 40
1.0
 40
1.0
 10
155.530489297069
 20
100.1487396324037
 30
0.0
 10
155.5333674982609
 20
100.1487402914759
 30
0.0
 10
155.5391697643725
 20
100.1487416201224
 30
0.0
 10
155.5546991690933
 20
100.1487455697495
 30
0.0
 10
155.5730537509667
 20
100.1487473520989
 30
0.0
 10
155.5933665674496
 20
100.1487489056769
 30
0.0
 10
155.6136849851647
 20
100.1487473515419
 30
0.0
 10
155.6320378543288
 20
100.1487455746614
 30
0.0
 10
155.6475759587244
 20
100.1487416071432
 30
0.0
 10
155.6533765207556
 20
100.1487402873473
 30
0.0
 10
155.6562550266812
 20
100.1487396324037
 30
0.0
  0
ARC
  5
B0
330
1F
100
AcDbEntity
  8
0
  6
Continuous
 62
     7
370
    25
100
AcDbCircle
 10
155.5313837247
 20
97.6043902196
 30
0.0
 40
2.544349570063839
100
AcDbArc
 50
90.0201414662
 51
95.4127462174
  0
SPLINE
  5
B1
330
1F
100
AcDbEntity
  8
0
  6
Continuous
 62
     7
370
    25
100
AcDbSpline
210
0.0
220
0.0
230
1.0
 70
     8
 71
     3
 72
    15
 73
    11
 74
     0
 42
0.00000001
 43
0.00000001
 40
0.0
 40
0.0
 40
0.0
 40
0.0
 40
0.1261585224210646
 40
0.2513121451548803
 40
0.3762846848783793
 40
0.4993062783340885
 40
0.6261594278645746
 40
0.7521171342021311
 40
0.87581969226928
 40
1.0
 40
1.0
 40
1.0
 40
1.0
 10
155.3542586361973
 20
100.135496500993
 30
0.0
 10
155.3490275397087
 20
100.1354455752425
 30
0.0
 10
155.338607014366
 20
100.1353441293842
 30
0.0
 10
155.3238204638516
 20
100.1353399477469
 30
0.0
 10
155.3106301112261
 20
100.1354392865675
 30
0.0
 10
155.2997595363848
 20
100.1356598287706
 30
0.0
 10
155.2917519490563
 20
100.1359836961721
 30
0.0
 10
155.2875853220236
 20
100.1364035660196
 30
0.0
 10
155.286964270512
 20
100.1368822830853
 30
0.0
 10
155.2899033828668
 20
100.1372235723309
 30
0.0
 10
155.2913757713495
 20
100.1373945458405
 30
0.0
  0
ARC
  5
B2
330
1F
100
AcDbEntity
  8
0
  6
Continuous
 62
     7
370
    25
100
AcDbCircle
 10
155.5933721619
 20
79.5488467351
 30
0.0
 40
20.58803836847347
100
AcDbArc
 50
89.3345405821
 51
90.66545941
  0
SPLINE
  5
B3
330
1F
100
AcDbEntity
  8
0
  6
Continuous
 62
     7
370
    25
100
AcDbSpline
210
0.0
220
0.0
230
1.0
 70
     8
 71
     3
 72
    15
 73
    11
 74
     0
 42
0.00000001
 43
0.00000001
 40
0.0
 40
0.0
 40
0.0
 40
0.0
 40
0.1241186784437694
 40
0.2478474916628982
 40
0.3736574149478941
 40
0.5005082335853295
 40
0.6234527658309924
 40
0.7484986612277525
 40
0.873697649245277
 40
1.0
 40
1.0
 40
1.0
 40
1.0
 10
155.8953685551267
 20
100.1373945458072
 30
0.0
 10
155.8968396277355
 20
100.1372236655287
 30
0.0
 10
155.8997771522139
 20
100.1368824417183
 30
0.0
 10
155.8991604177138
 20
100.1364039054308
 30
0.0
 10
155.8949984561192
 20
100.1359841155589
 30
0.0
 10
155.8869997083208
 20
100.1356603277125
 30
0.0
 10
155.876133616784
 20
100.1354396295068
 30
0.0
 10
155.8629458989593
 20
100.1353400375966
 30
0.0
 10
155.8481514523841
 20
100.1353439519953
 30
0.0
 10
155.8377228614768
 20
100.1354455028007
 30
0.0
 10
155.8324856903624
 20
100.1354965009604
 30
0.0
  0
ARC
  5
B4
330
1F
100
AcDbEntity
  8
0
  6
Continuous
 62
     7
370
    25
100
AcDbCircle
 10
155.6553605989
 20
97.6043901673
 30
0.0
 40
2.544349622297642
100
AcDbArc
 50
84.5872538302
 51
89.9798585321
  0
SPLINE
  5
B5
330
1F
100
AcDbEntity
  8
0
  6
Continuous
 62
     7
370
    25
100
AcDbSpline
210
0.0
220
0.0
230
1.0
 70
     8
 71
     3
 72
    13
 73
     9
 74
     0
 42
0.00000001
 43
0.00000001
 40
0.0
 40
0.0
 40
0.0
 40
0.0
 40
0.1374692963454099
 40
0.2749820892813126
 40
0.4163021045260215
 40
0.5576318202769773
 40
0.7770084914513209
 40
1.0
 40
1.0
 40
1.0
 40
1.0
 10
136.069171394519
 20
91.3252193371255
 30
0.0
 10
136.5544992858828
 20
91.23897892769659
 30
0.0
 10
137.5253086309627
 20
91.06647082155449
 30
0.0
 10
138.9460009987724
 20
90.66748874823149
 30
0.0
 10
140.3380973237886
 20
90.16717933675922
 30
0.0
 10
141.9424565080302
 20
89.4383588651565
 30
0.0
 10
143.7333243836626
 20
88.42213991495484
 30
0.0
 10
144.9699877468775
 20
87.43455662865131
 30
0.0
 10
145.5933721618751
 20
86.93672993829537
 30
0.0
  0
ELLIPSE
  5
B6
330
1F
100
AcDbEntity
  8
0
  6
Continuous
 62
     7
370
    25
100
AcDbEllipse
 10
258.1072676343
 20
84.6706694534
 30
0.0
 11
171.000000000001
 21
1.421085471520200E-14
 31
0.0
210
0.0
220
0.0
230
1.0
 40
0.0555555556
 41
2.292395939553289
 42
2.365524293035127
  0
LINE
  5
B7
330
1F
100
AcDbEntity
  8
0
  6
Continuous
 62
     7
370
    25
100
AcDbLine
 10
145.146988807
 20
91.8027945257
 30
0.0
 11
145.5933721619
 21
91.7653325599
 31
0.0
  0
LINE
  5
B8
330
1F
100
AcDbEntity
  8
0
  6
Continuous
 62
     7
370
    25
100
AcDbLine
 10
145.5933721619
 20
86.9367299383
 30
0.0
 11
145.5933721619
 21
91.7653325599
 31
0.0
  0
SPLINE
  5
B9
330
1F
100
AcDbEntity
  8
0
  6
Continuous
 62
     7
370
    25
100
AcDbSpline
210
0.0
220
0.0
230
1.0
 70
     8
 71
     3
 72
    11
 73
     7
 74
     0
 42
0.00000001
 43
0.00000001
 40
0.0
 40
0.0
 40
0.0
 40
0.0
 40
0.2795638428677818
 40
0.5590315779132449
 40
0.7794196683689383
 40
0.9999999999999999
 40
0.9999999999999999
 40
0.9999999999999999
 40
0.9999999999999999
 10
133.1570442077976
 20
91.54884673509925
 30
0.0
 10
133.0334708620214
 20
91.58736558704734
 30
0.0
 10
132.786366652233
 20
91.66439004902017
 30
0.0
 10
132.5326107443097
 20
92.19718794680986
 30
0.0
 10
132.4159923033293
 20
92.82492451367624
 30
0.0
 10
132.4425116893645
 20
93.2259073298449
 30
0.0
 10
132.455777162975
 20
93.42648614260948
 30
0.0
  0
SPLINE
  5
BA
330
1F
100
AcDbEntity
  8
0
  6
Continuous
 62
     7
370
    25
100
AcDbSpline
210
0.0
220
0.0
230
1.0
 70
     8
 71
     3
 72
     9
 73
     5
 74
     0
 42
0.00000001
 43
0.00000001
 40
0.0
 40
0.0
 40
0.0
 40
0.0
 40
0.4986740982738612
 40
1.0
 40
1.0
 40
1.0
 40
1.0
 10
133.7473377040439
 20
93.45628716803994
 30
0.0
 10
133.5408640629742
 20
93.45775224729658
 30
0.0
 10
133.1268188142146
 20
93.4606901966742
 30
0.0
 10
132.6798527122697
 20
93.43790691774248
 30
0.0
 10
132.4557770281711
 20
93.42648506988776
 30
0.0
  0
SPLINE
  5
BB
330
1F
100
AcDbEntity
  8
0
  6
Continuous
 62
     7
370
    25
100
AcDbSpline
210
0.0
220
0.0
230
1.0
 70
     8
 71
     3
 72
    13
 73
     9
 74
     0
 42
0.00000001
 43
0.00000001
 40
0.0
 40
0.0
 40
0.0
 40
0.0
 40
0.3327087167328941
 40
0.5628656559531299
 40
0.69871241253847
 40
0.8016200683166478
 40
0.9052998751809794
 40
1.0
 40
1.0
 40
1.0
 40
1.0
 10
135.7381384443146
 20
91.37339377395013
 30
0.0
 10
135.3757476139874
 20
91.45917934886828
 30
0.0
 10
134.762666735234
 20
91.60430856090628
 30
0.0
 10
134.1131214105716
 20
92.05467525733357
 30
0.0
 10
133.7704243949736
 20
92.45441640593944
 30
0.0
 10
133.6215007838298
 20
92.810308652351
 30
0.0
 10
133.6093280644031
 20
93.15774249938522
 30
0.0
 10
133.7027446582233
 20
93.3598213705643
 30
0.0
 10
133.7473387006744
 20
93.45628724874847
 30
0.0
  0
SPLINE
  5
BC
330
1F
100
AcDbEntity
  8
0
  6
Continuous
 62
     7
370
    25
100
AcDbSpline
210
0.0
220
0.0
230
1.0
 70
     8
 71
     3
 72
     9
 73
     5
 74
     0
 42
0.00000001
 43
0.00000001
 40
0.0
 40
0.0
 40
0.0
 40
0.0
 40
0.5551829690770671
 40
0.9999999999999999
 40
0.9999999999999999
 40
0.9999999999999999
 40
0.9999999999999999
 10
133.1570442077976
 20
91.54884673509925
 30
0.0
 10
133.6870670815188
 20
91.5358477146082
 30
0.0
 10
134.6417485167262
 20
91.51243377503316
 30
0.0
 10
135.4005919578836
 20
91.41620013568145
 30
0.0
 10
135.7381384443146
 20
91.37339377395013
 30
0.0
  0
LINE
  5
BD
330
1F
100
AcDbEntity
  8
0
  6
Continuous
 62
     7
370
    25
100
AcDbLine
 10
145.146988807
 20
97.0488467351
 30
0.0
 11
145.146988807
 21
91.8027945257
 31
0.0
  0
LINE
  5
BE
330
1F
100
AcDbEntity
  8
0
  6
Continuous
 62
     7
370
    25
100
AcDbLine
 10
145.5933721619
 20
97.0488467351
 30
0.0
 11
145.146988807
 21
97.0488467351
 31
0.0
  0
LINE
  5
BF
330
1F
100
AcDbEntity
  8
0
  6
Continuous
 62
     7
370
    25
100
AcDbLine
 10
145.5933721619
 20
91.7653325599
 30
0.0
 11
145.5933721619
 21
97.0488467351
 31
0.0
  0
ARC
  5
C0
330
1F
100
AcDbEntity
  8
0
  6
Continuous
 62
     7
370
    25
100
AcDbCircle
 10
151.9698012205
 20
97.4226928889
 30
0.0
 40
6.833046917551944
100
AcDbArc
 50
170.513808076
 51
183.1363032674
  0
ARC
  5
C1
330
1F
100
AcDbEntity
  8
0
  6
Continuous
 62
     7
370
    25
100
AcDbCircle
 10
145.2258042955
 20
97.7585967866
 30
0.0
 40
0.7902621394875665
100
AcDbArc
 50
62.2819181136
 51
89.6817467964
  0
LINE
  5
C2
330
1F
100
AcDbEntity
  8
0
  6
Continuous
 62
     7
370
    25
100
AcDbLine
 10
145.5933721619
 20
97.0488467351
 30
0.0
 11
145.5933721619
 21
98.4581738823
 31
0.0
  0
LINE
  5
C3
330
1F
100
AcDbEntity
  8
0
  6
Continuous
 62
     7
370
    25
100
AcDbLine
 10
145.2301938364
 20
98.5488467351
 30
0.0
 11
133.8144645529
 21
98.5488467351
 31
0.0
  0
LINE
  5
C4
330
1F
100
AcDbEntity
  8
0
  6
Continuous
 62
     7
370
    25
100
AcDbLine
 10
135.8133107955
 20
97.0488467351
 30
0.0
 11
145.146988807
 21
97.0488467351
 31
0.0
  0
SPLINE
  5
C5
330
1F
100
AcDbEntity
  8
0
  6
Continuous
 62
     7
370
    25
100
AcDbSpline
210
0.0
220
0.0
230
1.0
 70
     8
 71
     3
 72
    15
 73
    11
 74
     0
 42
0.00000001
 43
0.00000001
 40
0.0
 40
0.0
 40
0.0
 40
0.0
 40
0.2070474010410777
 40
0.4175968630246832
 40
0.5931232720441627
 40
0.6923428991082514
 40
0.7730996831079096
 40
0.8543284120985951
 40
0.926147516637204
 40
1.0
 40
1.0
 40
1.0
 40
1.0
 10
133.8118982661896
 20
98.54883200899326
 30
0.0
 10
134.0429875031545
 20
98.54498177015194
 30
0.0
 10
134.5090746887461
 20
98.53721616839144
 30
0.0
 10
135.1336724880531
 20
98.45056620565397
 30
0.0
 10
135.5953516784838
 20
98.28061569611137
 30
0.0
 10
135.8572553774676
 20
98.05125083876281
 30
0.0
 10
135.9777220335988
 20
97.81345737348349
 30
0.0
 10
135.9965160717946
 20
97.55154439621025
 30
0.0
 10
135.9354776797944
 20
97.28600199419486
 30
0.0
 10
135.8542825861797
 20
97.12870437118113
 30
0.0
 10
135.8131183523938
 20
97.04895772838012
 30
0.0
  0
LINE
  5
C6
330
1F
100
AcDbEntity
  8
0
  6
Continuous
 62
     7
370
    25
100
AcDbLine
 10
133.7471646303
 20
93.4563876544
 30
0.0
 11
135.8131183652
 21
97.048957741
 31
0.0
  0
ARC
  5
C7
330
1F
100
AcDbEntity
  8
0
  6
Continuous
 62
     7
370
    25
100
AcDbCircle
 10
133.1570442078
 20
72.4758394879
 30
0.0
 40
19.0730072472477
100
AcDbArc
 50
81.2175477188
 51
82.2224666688
  0
SPLINE
  5
C8
330
1F
100
AcDbEntity
  8
0
  6
Continuous
 62
     7
370
    25
100
AcDbSpline
210
0.0
220
0.0
230
1.0
 70
     8
 71
     3
 72
    11
 73
     7
 74
     0
 42
0.00000001
 43
0.00000001
 40
0.0
 40
0.0
 40
0.0
 40
0.0
 40
0.2491150002829083
 40
0.4989585322854289
 40
0.749332827497652
 40
1.0
 40
1.0
 40
1.0
 40
1.0
 10
132.455777162975
 20
93.42648614260948
 30
0.0
 10
132.0300658816616
 20
93.40023303464065
 30
0.0
 10
131.1773983351057
 20
93.34765004202607
 30
0.0
 10
129.8138325738539
 20
93.26332901179956
 30
0.0
 10
128.4131599566417
 20
93.17659574298787
 30
0.0
 10
127.4623397211545
 20
93.11761817756026
 30
0.0
 10
126.9866517085939
 20
93.08811215756106
 30
0.0
  0
SPLINE
  5
C9
330
1F
100
AcDbEntity
  8
0
  6
Continuous
 62
     7
370
    25
100
AcDbSpline
210
0.0
220
0.0
230
1.0
 70
     8
 71
     3
 72
     9
 73
     5
 74
     0
 42
0.00000001
 43
0.00000001
 40
0.0
 40
0.0
 40
0.0
 40
0.0
 40
0.5599987526606142
 40
1.0
 40
1.0
 40
1.0
 40
1.0
 10
129.5505530762513
 20
98.06193520925306
 30
0.0
 10
129.0707868183642
 20
97.13409390940373
 30
0.0
 10
128.2140594495839
 20
95.47723075490377
 30
0.0
 10
127.3616937011113
 20
93.81812205499331
 30
0.0
 10
126.9866517085939
 20
93.08811215756107
 30
0.0
  0
SPLINE
  5
CA
330
1F
100
AcDbEntity
  8
0
  6
Continuous
 62
     7
370
    25
100
AcDbSpline
210
0.0
220
0.0
230
1.0
 70
     8
 71
     3
 72
     9
 73
     5
 74
     0
 42
0.00000001
 43
0.00000001
 40
0.0
 40
0.0
 40
0.0
 40
0.0
 40
0.5600000882143262
 40
1.0
 40
1.0
 40
1.0
 40
1.0
 10
130.0550402138035
 20
99.0357582609452
 30
0.0
 10
129.9608277982718
 20
98.85399939011342
 30
0.0
 10
129.7925913684667
 20
98.52943002904178
 30
0.0
 10
129.6245092107982
 20
98.20478082874496
 30
0.0
 10
129.5505530762513
 20
98.06193520925306
 30
0.0
  0
SPLINE
  5
CB
330
1F
100
AcDbEntity
  8
0
  6
Continuous
 62
     7
370
    25
100
AcDbSpline
210
0.0
220
0.0
230
1.0
 70
     8
 71
     3
 72
    10
 73
     6
 74
     0
 42
0.00000001
 43
0.00000001
 40
0.0
 40
0.0
 40
0.0
 40
0.0
 40
0.4283493666310625
 40
0.7616603141144174
 40
1.0
 40
1.0
 40
1.0
 40
1.0
 10
130.0550402138037
 20
99.0357582609454
 30
0.0
 10
130.5019674150867
 20
98.93396199812224
 30
0.0
 10
131.2966615106863
 20
98.75295513886772
 30
0.0
 10
132.3332163116918
 20
98.57929275591461
 30
0.0
 10
132.9190816446922
 20
98.55780547801882
 30
0.0
 10
133.1633478997922
 20
98.54884673509916
 30
0.0
  0
LINE
  5
CC
330
1F
100
AcDbEntity
  8
0
  6
Continuous
 62
     7
370
    25
100
AcDbLine
 10
133.1612477397
 20
98.5488467351
 30
0.0
 11
133.8119012058
 21
98.5488467351
 31
0.0
  0
LINE
  5
CD
330
1F
100
AcDbEntity
  8
0
  6
Continuous
 62
     7
370
    25
100
AcDbLine
 10
145.5933721619
 20
98.5488467351
 30
0.0
 11
145.2301938364
 21
98.5488467351
 31
0.0
  0
LINE
  5
CE
330
1F
100
AcDbEntity
  8
0
  6
Continuous
 62
     7
370
    25
100
AcDbLine
 10
145.5933721619
 20
98.4581738823
 30
0.0
 11
145.5933721619
 21
98.5488467351
 31
0.0
  0
SPLINE
  5
CF
330
1F
100
AcDbEntity
  8
0
  6
Continuous
 62
     7
370
    25
100
AcDbSpline
210
0.0
220
0.0
230
1.0
 70
    24
 71
     3
 72
    11
 73
     7
 74
     0
 42
0.00000001
 43
0.00000001
 40
0.0
 40
0.0
 40
0.0
 40
0.0
 40
0.2799857774483056
 40
0.5599458358671284
 40
0.7799985659009365
 40
0.9999999999999999
 40
0.9999999999999999
 40
0.9999999999999999
 40
0.9999999999999999
 10
127.0259036757761
 20
91.54884673509925
 30
0.0
 10
127.6232276628601
 20
91.54884673509925
 30
0.0
 10
128.8178207678366
 20
91.54884673509925
 30
0.0
 10
130.4451825233193
 20
91.54884673509925
 30
0.0
 10
131.9009120928174
 20
91.54884673509926
 30
0.0
 10
132.7383660427251
 20
91.54884673509926
 30
0.0
 10
133.1570442077976
 20
91.54884673509925
 30
0.0
  0
SPLINE
  5
D0
330
1F
100
AcDbEntity
  8
0
  6
Continuous
 62
     7
370
    25
100
AcDbSpline
210
0.0
220
0.0
230
1.0
 70
     8
 71
     3
 72
    11
 73
     7
 74
     0
 42
0.00000001
 43
0.00000001
 40
0.0
 40
0.0
 40
0.0
 40
0.0
 40
0.2499999999999999
 40
0.4999999999999996
 40
0.75
 40
1.0
 40
1.0
 40
1.0
 40
1.0
 10
127.0259036757761
 20
91.54884673509925
 30
0.0
 10
127.020672642016
 20
91.57216826740756
 30
0.0
 10
127.0102105744958
 20
91.61881133202415
 30
0.0
 10
126.9970960866285
 20
91.97679240039086
 30
0.0
 10
126.9880717431346
 20
92.48698533843282
 30
0.0
 10
126.9871250534408
 20
92.88773655118499
 30
0.0
 10
126.986651708594
 20
93.08811215756106
 30
0.0
  0
SPLINE
  5
D1
330
1F
100
AcDbEntity
  8
0
  6
Continuous
 62
     7
370
    25
100
AcDbSpline
210
0.0
220
0.0
230
1.0
 70
     8
 71
     3
 72
    11
 73
     7
 74
     0
 42
0.00000001
 43
0.00000001
 40
0.0
 40
0.0
 40
0.0
 40
0.0
 40
0.2500000000000006
 40
0.5000000000000007
 40
0.7499999999999996
 40
1.0
 40
1.0
 40
1.0
 40
1.0
 10
142.580301628094
 20
98.54884673509925
 30
0.0
 10
142.5819880985979
 20
98.55610904475138
 30
0.0
 10
142.5853610396058
 20
98.57063366405568
 30
0.0
 10
142.5896409365071
 20
98.68260586764816
 30
0.0
 10
142.5926830573208
 20
98.84311744567313
 30
0.0
 10
142.5931514305434
 20
98.97154465585459
 30
0.0
 10
142.5933856171547
 20
99.03575826094531
 30
0.0
  0
SPLINE
  5
D2
330
1F
100
AcDbEntity
  8
0
  6
Continuous
 62
     7
370
    25
100
AcDbSpline
210
0.0
220
0.0
230
1.0
 70
     8
 71
     3
 72
    13
 73
     9
 74
     0
 42
0.00000001
 43
0.00000001
 40
0.0
 40
0.0
 40
0.0
 40
0.0
 40
0.2886949682914849
 40
0.5545536835943156
 40
0.6780091910936107
 40
0.78889220838012
 40
0.896419407140649
 40
1.0
 40
1.0
 40
1.0
 40
1.0
 10
142.5933856171547
 20
99.03575826094531
 30
0.0
 10
142.8651108077309
 20
98.99712810706731
 30
0.0
 10
143.3870672735854
 20
98.92292350884507
 30
0.0
 10
143.9846426816886
 20
98.83986078931646
 30
0.0
 10
144.3484968618681
 20
98.79087985870784
 30
0.0
 10
144.5450443534338
 20
98.76486289893637
 30
0.0
 10
144.67132764254
 20
98.74950408859213
 30
0.0
 10
144.6861161445111
 20
98.74906310490464
 30
0.0
 10
144.6933721618751
 20
98.74884673509926
 30
0.0
  0
SPLINE
  5
D3
330
1F
100
AcDbEntity
  8
0
  6
Continuous
 62
     7
370
    25
100
AcDbSpline
210
0.0
220
0.0
230
1.0
 70
     8
 71
     3
 72
    11
 73
     7
 74
     0
 42
0.00000001
 43
0.00000001
 40
0.0
 40
0.0
 40
0.0
 40
0.0
 40
0.2499999999999925
 40
0.4999999999999968
 40
0.7500000000000008
 40
1.0
 40
1.0
 40
1.0
 40
1.0
 10
144.6933721618751
 20
98.74884673509926
 30
0.0
 10
144.7186321000792
 20
98.71946906526749
 30
0.0
 10
144.7691519764876
 20
98.66071372560396
 30
0.0
 10
144.8680105856879
 20
98.59812358272497
 30
0.0
 10
144.9773978655114
 20
98.55659078109204
 30
0.0
 10
145.0547140630872
 20
98.55142808376353
 30
0.0
 10
145.0933721618751
 20
98.54884673509927
 30
0.0
  0
LINE
  5
D4
330
1F
100
AcDbEntity
  8
0
  6
Continuous
 62
     7
370
    25
100
AcDbLine
 10
142.5933856172
 20
99.0357582609
 30
0.0
 11
130.0550402138
 21
99.0357582609
 31
0.0
  0
LINE
  5
D5
330
1F
100
AcDbEntity
  8
0
  6
Continuous
 62
     7
370
    25
100
AcDbLine
 10
144.6933721619
 20
98.7488467351
 30
0.0
 11
142.2933721619
 21
101.9488467351
 31
0.0
  0
LINE
  5
D6
330
1F
100
AcDbEntity
  8
0
  6
Continuous
 62
     7
370
    25
100
AcDbLine
 10
140.4698263637
 20
101.8671705989
 30
0.0
 11
142.5933856172
 21
99.0357582609
 31
0.0
  0
ELLIPSE
  5
D7
330
1F
100
AcDbEntity
  8
0
  6
Continuous
 62
     7
370
    25
100
AcDbEllipse
 10
140.4933721619
 20
101.8488467351
 30
0.0
 11
1.56006363488487
 21
0.4198716740992979
 31
0.0
210
0.0
220
0.0
230
1.0
 40
0.0147408623
 41
0.9331929812040033
 42
1.581922327328498
  0
SPLINE
  5
D8
330
1F
100
AcDbEntity
  8
0
  6
Continuous
 62
     7
370
    25
100
AcDbSpline
210
0.0
220
0.0
230
1.0
 70
     8
 71
     3
 72
    11
 73
     7
 74
     0
 42
0.00000001
 43
0.00000001
 40
0.0
 40
0.0
 40
0.0
 40
0.0
 40
0.2307374805226518
 40
0.4903955403005862
 40
0.7438105520730652
 40
1.0
 40
1.0
 40
1.0
 40
1.0
 10
141.4170601655101
 20
102.1172627302526
 30
0.0
 10
141.5086921702696
 20
102.135978580657
 30
0.0
 10
141.7034413128063
 20
102.1757561215684
 30
0.0
 10
141.9509488800442
 20
102.1584361330098
 30
0.0
 10
142.1607576094383
 20
102.0874512406836
 30
0.0
 10
142.2490071589187
 20
101.9952156228799
 30
0.0
 10
142.2933721618751
 20
101.9488467350993
 30
0.0
  0
LINE
  5
D9
330
1F
100
AcDbEntity
  8
0
  6
Continuous
 62
     7
370
    25
100
AcDbLine
 10
126.9866517086
 20
93.0881121576
 30
0.0
 11
105.3591035399
 21
93.0881121576
 31
0.0
  0
LINE
  5
DA
330
1F
100
AcDbEntity
  8
0
  6
Continuous
 62
     7
370
    25
100
AcDbLine
 10
105.3591035399
 20
93.0881121576
 30
0.0
 11
105.581548451
 21
101.582940594
 31
0.0
  0
ARC
  5
DB
330
1F
100
AcDbEntity
  8
0
  6
Continuous
 62
     7
370
    25
100
AcDbCircle
 10
106.1930885659
 20
101.0671705989
 30
0.0
 40
0.8000000000000114
100
AcDbArc
 50
90.0
 51
139.8558773282
  0
LINE
  5
DC
330
1F
100
AcDbEntity
  8
0
  6
Continuous
 62
     7
370
    25
100
AcDbLine
 10
106.1930885659
 20
101.8671705989
 30
0.0
 11
140.4698263637
 21
101.8671705989
 31
0.0
  0
SPLINE
  5
DD
330
1F
100
AcDbEntity
  8
0
  6
Continuous
 62
     7
370
    25
100
AcDbSpline
210
0.0
220
0.0
230
1.0
 70
     8
 71
     3
 72
    11
 73
     7
 74
     0
 42
0.00000001
 43
0.00000001
 40
0.0
 40
0.0
 40
0.0
 40
0.0
 40
0.2499999999999985
 40
0.4999999999999984
 40
0.7499999999999983
 40
1.0
 40
1.0
 40
1.0
 40
1.0
 10
106.1930885659399
 20
101.8671705989148
 30
0.0
 10
106.1934164271957
 20
101.9570696460418
 30
0.0
 10
106.1940721497074
 20
102.1368677402958
 30
0.0
 10
106.1983311188467
 20
102.3615839495308
 30
0.0
 10
106.2043229745085
 20
102.5183450345602
 30
0.0
 10
106.2090450919195
 20
102.5386795015863
 30
0.0
 10
106.211406150625
 20
102.5488467350993
 30
0.0
  0
LINE
  5
DE
330
1F
100
AcDbEntity
  8
0
  6
Continuous
 62
     7
370
    25
100
AcDbLine
 10
140.4881439484
 20
102.5488467351
 30
0.0
 11
106.2114061506
 21
102.5488467351
 31
0.0
  0
SPLINE
  5
DF
330
1F
100
AcDbEntity
  8
0
  6
Continuous
 62
     7
370
    25
100
AcDbSpline
210
0.0
220
0.0
230
1.0
 70
     8
 71
     3
 72
    11
 73
     7
 74
     0
 42
0.00000001
 43
0.00000001
 40
0.0
 40
0.0
 40
0.0
 40
0.0
 40
0.2499999999999998
 40
0.4999999999999991
 40
0.7500000000000027
 40
1.0
 40
1.0
 40
1.0
 40
1.0
 10
140.4881439483626
 20
102.5488467350993
 30
0.0
 10
140.4857828896571
 20
102.5386795015863
 30
0.0
 10
140.4810607722461
 20
102.5183450345602
 30
0.0
 10
140.4750689165843
 20
102.3615839495308
 30
0.0
 10
140.470809947445
 20
102.1368677402958
 30
0.0
 10
140.4701542249334
 20
101.9570696460418
 30
0.0
 10
140.4698263636776
 20
101.8671705989148
 30
0.0
  0
LINE
  5
E0
330
1F
100
AcDbEntity
  8
0
  6
Continuous
 62
     7
370
    25
100
AcDbLine
 10
141.0933721619
 20
102.5488467351
 30
0.0
 11
140.4881439484
 21
102.5488467351
 31
0.0
  0
SPLINE
  5
E1
330
1F
100
AcDbEntity
  8
0
  6
Continuous
 62
     7
370
    25
100
AcDbSpline
210
0.0
220
0.0
230
1.0
 70
     8
 71
     3
 72
    10
 73
     6
 74
     0
 42
0.00000001
 43
0.00000001
 40
0.0
 40
0.0
 40
0.0
 40
0.0
 40
0.280833517338672
 40
0.5616510917414105
 40
0.9999999999999999
 40
0.9999999999999999
 40
0.9999999999999999
 40
0.9999999999999999
 10
141.0933721618751
 20
102.5488467350993
 30
0.0
 10
141.1317226108375
 20
102.5412721268313
 30
0.0
 10
141.2084213316051
 20
102.5261233403064
 30
0.0
 10
141.3335756816471
 20
102.3924924072468
 30
0.0
 10
141.3854447480004
 20
102.2214916928886
 30
0.0
 10
141.4170601655101
 20
102.1172627302526
 30
0.0
  0
LINE
  5
E2
330
1F
100
AcDbEntity
  8
0
  6
Continuous
 62
     7
370
    25
100
AcDbLine
 10
105.3591035399
 20
93.0881121576
 30
0.0
 11
105.3161111124
 21
93.0252250727
 31
0.0
  0
ELLIPSE
  5
E3
330
1F
100
AcDbEntity
  8
0
  6
Continuous
 62
     7
370
    25
100
AcDbEllipse
 10
101.0933721619
 20
93.0488467351
 30
0.0
 11
0.5000325503426524
 21
1.499994860147538
 31
0.0
210
0.0
220
0.0
230
0.9999999999999999
 40
0.0078530307
 41
2.363888000156923
 42
3.144210503887858
  0
SPLINE
  5
E4
330
1F
100
AcDbEntity
  8
0
  6
Continuous
 62
     7
370
    25
100
AcDbSpline
210
0.0
220
0.0
230
1.0
 70
     8
 71
     3
 72
    12
 73
     8
 74
     0
 42
0.00000001
 43
0.00000001
 40
0.0
 40
0.0
 40
0.0
 40
0.0
 40
0.0715202026166143
 40
0.1260836237049453
 40
0.3855387013103031
 40
0.8475626424815589
 40
1.0
 40
1.0
 40
1.0
 40
1.0
 10
101.0679435488745
 20
92.37715468474845
 30
0.0
 10
101.0534894140956
 20
92.37404603688363
 30
0.0
 10
101.0280080868096
 20
92.36856577294029
 30
0.0
 10
100.9615363591633
 20
92.32897722751996
 30
0.0
 10
100.8568319720304
 20
92.22254309453756
 30
0.0
 10
100.770003413184
 20
92.09203607882938
 30
0.0
 10
100.7370068464742
 20
92.00452636486604
 30
0.0
 10
100.7288209616232
 20
91.98281669888347
 30
0.0
  0
ELLIPSE
  5
E5
330
1F
100
AcDbEntity
  8
0
  6
Continuous
 62
     7
370
    25
100
AcDbEllipse
 10
69.1692353213
 20
93.0488467351
 30
0.0
 11
36.17607470647087
 21
0.04043410480178978
 31
0.0
210
0.0
220
0.0
230
1.0
 40
0.0414488012
 41
5.791928562280354
 42
6.243021298617577
  0
ELLIPSE
  5
E6
330
1F
100
AcDbEntity
  8
0
  6
Continuous
 62
     7
370
    25
100
AcDbEllipse
 10
105.398355507
 20
93.0488467351
 30
0.0
 11
0.03725061189166468
 21
1.499998630535885
 31
0.0
210
0.0
220
0.0
230
1.0
 40
0.0544129722
 41
1.585352277991062
 42
1.587896030767889
  0
LINE
  5
E7
330
1F
100
AcDbEntity
  8
0
  6
Continuous
 62
     7
370
    25
100
AcDbLine
 10
100.5933721619
 20
91.5488467351
 30
0.0
 11
127.0259036758
 21
91.5488467351
 31
0.0
  0
SPLINE
  5
E8
330
1F
100
AcDbEntity
  8
0
  6
Continuous
 62
     7
370
    25
100
AcDbSpline
210
0.0
220
0.0
230
1.0
 70
     8
 71
     3
 72
    11
 73
     7
 74
     0
 42
0.00000001
 43
0.00000001
 40
0.0
 40
0.0
 40
0.0
 40
0.0
 40
0.2561894651307309
 40
0.509604493920693
 40
0.7692742066553655
 40
1.0
 40
1.0
 40
1.0
 40
1.0
 10
142.2933721618751
 20
101.9488467350993
 30
0.0
 10
142.2177760295812
 20
102.0368571000877
 30
0.0
 10
142.0674024429065
 20
102.2119247106423
 30
0.0
 10
141.7681896569513
 20
102.4021122803439
 30
0.0
 10
141.4406699220645
 20
102.5261110810696
 30
0.0
 10
141.2044915412507
 20
102.5415723669487
 30
0.0
 10
141.0933721618751
 20
102.5488467350993
 30
0.0
  0
LINE
  5
E9
330
1F
100
AcDbEntity
  8
0
  6
Continuous
 62
     7
370
    25
100
AcDbLine
 10
105.5663032269
 20
101.5416569697
 30
0.0
 11
105.539432868
 21
101.5550921492
 31
0.0
  0
LINE
  5
EA
330
1F
100
AcDbEntity
  8
0
  6
Continuous
 62
     7
370
    25
100
AcDbLine
 10
105.5663032269
 20
101.5416569697
 30
0.0
 11
105.3443752207
 21
93.066568339
 31
0.0
  0
SPLINE
  5
EB
330
1F
100
AcDbEntity
  8
0
  6
Continuous
 62
     7
370
    25
100
AcDbSpline
210
0.0
220
0.0
230
1.0
 70
     8
 71
     3
 72
     9
 73
     5
 74
     0
 42
0.00000001
 43
0.00000001
 40
0.0
 40
0.0
 40
0.0
 40
0.0
 40
0.8673350121727758
 40
1.0
 40
1.0
 40
1.0
 40
1.0
 10
105.3170034855507
 20
93.06085673096182
 30
0.0
 10
105.3167660999208
 20
93.05165830758662
 30
0.0
 10
105.31649240449
 20
93.04105292068753
 30
0.0
 10
105.3162365179813
 20
93.03044729608615
 30
0.0
 10
105.3162025708008
 20
93.0290403010275
 30
0.0
  0
LINE
  5
EC
330
1F
100
AcDbEntity
  8
0
  6
Continuous
 62
     7
370
    25
100
AcDbLine
 10
105.539432868
 20
101.5550921492
 30
0.0
 11
105.3170034856
 21
93.060856731
 31
0.0
  0
ARC
  5
ED
330
1F
100
AcDbEntity
  8
0
  6
Continuous
 62
     7
370
    25
100
AcDbCircle
 10
109.792110384
 20
93.053850783
 30
0.0
 40
8.750371682200484
100
AcDbArc
 50
182.878079786
 51
184.4353064954
  0
ELLIPSE
  5
EE
330
1F
100
AcDbEntity
  8
0
  6
Continuous
 62
     7
370
    25
100
AcDbEllipse
 10
69.1423649624
 20
93.0622819145
 30
0.0
 11
36.18915847374971
 21
0.02692057091445577
 31
0.0
210
0.0
220
0.0
230
1.0
 40
0.0276225703
 41
5.791964074121238
 42
6.254836299513503
  0
ARC
  5
EF
330
1F
100
AcDbEntity
  8
0
  6
Continuous
 62
     7
370
    25
100
AcDbCircle
 10
106.1737876482
 20
101.0676559863
 30
0.0
 40
0.8000000000000229
100
AcDbArc
 50
142.4614409777
 51
153.4349488229
  0
LINE
  5
F0
330
1F
100
AcDbEntity
  8
0
  6
Continuous
 62
     7
370
    25
100
AcDbLine
 10
101.0527760712
 20
92.6144872143
 30
0.0
 11
105.4582458954
 21
101.4254268627
 31
0.0
  0
SPLINE
  5
F1
330
1F
100
AcDbEntity
  8
0
  6
Continuous
 62
     7
370
    25
100
AcDbSpline
210
0.0
220
0.0
230
1.0
 70
    24
 71
     3
 72
    11
 73
     7
 74
     0
 42
0.00000001
 43
0.00000001
 40
0.0
 40
0.0
 40
0.0
 40
0.0
 40
0.2499999999999992
 40
0.499999999999996
 40
0.7499999999999994
 40
1.0
 40
1.0
 40
1.0
 40
1.0
 10
105.4582458953981
 20
101.4254268627127
 30
0.0
 10
105.3800107870659
 20
101.4645444168788
 30
0.0
 10
105.2235405704013
 20
101.5427795252111
 30
0.0
 10
105.0302144189849
 20
101.6394426009193
 30
0.0
 10
104.8958379867059
 20
101.7066308170588
 30
0.0
 10
104.8784562383187
 20
101.7153216912524
 30
0.0
 10
104.8697653641251
 20
101.7196671283492
 30
0.0
  0
SPLINE
  5
F2
330
1F
100
AcDbEntity
  8
0
  6
Continuous
 62
     7
370
    25
100
AcDbSpline
210
0.0
220
0.0
230
1.0
 70
     8
 71
     3
 72
    12
 73
     8
 74
     0
 42
0.00000001
 43
0.00000001
 40
0.0
 40
0.0
 40
0.0
 40
0.0
 40
0.1396834586182491
 40
0.3831896274038308
 40
0.5513169293013305
 40
0.8194729461607058
 40
1.0
 40
1.0
 40
1.0
 40
1.0
 10
100.2908152209699
 20
92.56176684203872
 30
0.0
 10
100.3010566017162
 20
92.57507921569967
 30
0.0
 10
100.3291514879045
 20
92.61159866870763
 30
0.0
 10
100.4363018492593
 20
92.649270729299
 30
0.0
 10
100.6166389366722
 20
92.67363805006052
 30
0.0
 10
100.8250950812412
 20
92.67252101529654
 30
0.0
 10
100.9874519819452
 20
92.63113772691896
 30
0.0
 10
101.0527760711936
 20
92.61448721430357
 30
0.0
  0
LINE
  5
F3
330
1F
100
AcDbEntity
  8
0
  6
Continuous
 62
     7
370
    25
100
AcDbLine
 10
104.8697653641
 20
101.7196671283
 30
0.0
 11
100.290815221
 21
92.561766842
 31
0.0
  0
LWPOLYLINE
  5
F4
330
1F
100
AcDbEntity
  8
0
  6
Continuous
 62
     7
370
    25
100
AcDbPolyline
 90
        9
 70
   128
 43
0.0
 10
100.290815221
 20
92.561766842
 10
100.2679647312
 20
92.4854363644
 10
100.2708698572
 20
92.4010363652
 10
100.2993714222
 20
92.3131912646
 10
100.3519077767
 20
92.2267142463
 10
100.4256003638
 20
92.146343534
 10
100.5164114407
 20
92.0764827766
 10
100.6193653129
 20
92.0209597646
 10
100.7288209616
 20
91.9828166989
  0
LINE
  5
F5
330
1F
100
AcDbEntity
  8
0
  6
Continuous
 62
     7
370
    25
100
AcDbLine
 10
105.446981007
 20
101.693559229
 30
0.0
 11
105.0647684352
 21
102.0159154759
 31
0.0
  0
SPLINE
  5
F6
330
1F
100
AcDbEntity
  8
0
  6
Continuous
 62
     7
370
    25
100
AcDbSpline
210
0.0
220
0.0
230
1.0
 70
     8
 71
     3
 72
    12
 73
     8
 74
     0
 42
0.00000001
 43
0.00000001
 40
0.0
 40
0.0
 40
0.0
 40
0.0
 40
0.2198609600791296
 40
0.4397396970008153
 40
0.6583291451397748
 40
0.8791239516843598
 40
1.0
 40
1.0
 40
1.0
 40
1.0
 10
105.5815484510341
 20
101.5829405940297
 30
0.0
 10
105.5216333883052
 20
101.6334288101576
 30
0.0
 10
105.4017984184192
 20
101.7344093246346
 30
0.0
 10
105.2450634301447
 20
101.8660723175846
 30
0.0
 10
105.1284951063585
 20
101.9636336403577
 30
0.0
 10
105.0722384145643
 20
102.0102930318344
 30
0.0
 10
105.066720543348
 20
102.0144461788357
 30
0.0
 10
105.0647684351764
 20
102.0159154759398
 30
0.0
  0
SPLINE
  5
F7
330
1F
100
AcDbEntity
  8
0
  6
Continuous
 62
     7
370
    25
100
AcDbSpline
210
0.0
220
0.0
230
1.0
 70
     8
 71
     3
 72
    12
 73
     8
 74
     0
 42
0.00000001
 43
0.00000001
 40
0.0
 40
0.0
 40
0.0
 40
0.0
 40
0.0006864401058021
 40
0.2840613788817195
 40
0.5703177902163796
 40
0.8469872112136485
 40
1.0
 40
1.0
 40
1.0
 40
1.0
 10
105.5442766863445
 20
101.6122642815274
 30
0.0
 10
105.5442359685874
 20
101.6122985761643
 30
0.0
 10
105.5273862214252
 20
101.6264903195756
 30
0.0
 10
105.4981572853134
 20
101.6510225994237
 30
0.0
 10
105.4649112396141
 20
101.6788521841708
 30
0.0
 10
105.4492290165043
 20
101.6918530471435
 30
0.0
 10
105.4476487886983
 20
101.6930458600296
 30
0.0
 10
105.4470860587132
 20
101.6934706288984
 30
0.0
  0
SPLINE
  5
F8
330
1F
100
AcDbEntity
  8
0
  6
Continuous
 62
     7
370
    25
100
AcDbSpline
210
0.0
220
0.0
230
1.0
 70
     8
 71
     3
 72
    12
 73
     8
 74
     0
 42
0.00000001
 43
0.00000001
 40
0.0
 40
0.0
 40
0.0
 40
0.0
 40
0.2225634137435274
 40
0.446206317369568
 40
0.6680851268158019
 40
0.8917990985569333
 40
1.0
 40
1.0
 40
1.0
 40
1.0
 10
105.0219909377566
 20
101.9627895404198
 30
0.0
 10
105.0275775038591
 20
101.9573624678061
 30
0.0
 10
105.0387777323486
 20
101.9464819998787
 30
0.0
 10
105.1328285100358
 20
101.8711885688584
 30
0.0
 10
105.2723195734338
 20
101.7617100241051
 30
0.0
 10
105.4175436732701
 20
101.6489953835586
 30
0.0
 10
105.5094668420002
 20
101.5781779261144
 30
0.0
 10
105.5394328680016
 20
101.5550921491504
 30
0.0
  0
LINE
  5
F9
330
1F
100
AcDbEntity
  8
0
  6
Continuous
 62
     7
370
    25
100
AcDbLine
 10
105.4184626754
 20
101.6581419386
 30
0.0
 11
105.0219909378
 21
101.9627895404
 31
0.0
  0
ARC
  5
FA
330
1F
100
AcDbEntity
  8
0
  6
Continuous
 62
     7
370
    25
100
AcDbCircle
 10
106.2114061506
 20
101.0488467351
 30
0.0
 40
1.500000000000013
100
AcDbArc
 50
90.0
 51
139.8558773282
  0
ARC
  5
FB
330
1F
100
AcDbEntity
  8
0
  6
Continuous
 62
     7
370
    25
100
AcDbCircle
 10
106.2114061506
 20
101.0488467351
 30
0.0
 40
1.500000000000014
100
AcDbArc
 50
142.4614409777
 51
153.4349488229
  0
LINE
  5
FC
330
1F
100
AcDbEntity
  8
0
  6
Continuous
 62
     7
370
    25
100
AcDbLine
 10
100.1461585664
 20
92.2724535328
 30
0.0
 11
100.290815221
 21
92.561766842
 31
0.0
  0
ARC
  5
FD
330
1F
100
AcDbEntity
  8
0
  6
Continuous
 62
     7
370
    25
100
AcDbCircle
 10
100.5933721619
 20
92.0488467351
 30
0.0
 40
0.5000000000000023
100
AcDbArc
 50
153.4349488229
 51
270.0
  0
SPLINE
  5
FE
330
1F
100
AcDbEntity
  8
0
  6
Continuous
 62
     7
370
    25
100
AcDbSpline
210
0.0
220
0.0
230
1.0
 70
     8
 71
     3
 72
     9
 73
     5
 74
     0
 42
0.00000001
 43
0.00000001
 40
0.0
 40
0.0
 40
0.0
 40
0.0
 40
0.5600029565045499
 40
1.0
 40
1.0
 40
1.0
 40
1.0
 10
105.0647684351764
 20
102.0159154759398
 30
0.0
 10
105.0566206758233
 20
102.0061290137799
 30
0.0
 10
105.0420711823636
 20
101.9886532807569
 30
0.0
 10
105.028126539423
 20
101.9706923130911
 30
0.0
 10
105.0219909377566
 20
101.9627895404198
 30
0.0
  0
LINE
  5
FF
330
1F
100
AcDbEntity
  8
0
  6
Continuous
 62
     7
370
    25
100
AcDbLine
 10
147.1873113068
 20
91.9369223209
 30
0.0
 11
147.189451422
 21
92.1604607744
 31
0.0
  0
SPLINE
  5
100
330
1F
100
AcDbEntity
  8
0
  6
Continuous
 62
     7
370
    25
100
AcDbSpline
210
0.0
220
0.0
230
1.0
 70
     8
 71
     3
 72
    10
 73
     6
 74
     0
 42
0.00000001
 43
0.00000001
 40
0.0
 40
0.0
 40
0.0
 40
0.0
 40
0.3536466237081639
 40
0.7182931081305522
 40
1.0
 40
1.0
 40
1.0
 40
1.0
 10
147.3385992706643
 20
89.99065367438503
 30
0.0
 10
147.301092236355
 20
89.54711602426646
 30
0.0
 10
147.2249115451095
 20
88.64624488364589
 30
0.0
 10
147.2633479477227
 20
87.26823558883461
 30
0.0
 10
147.3263300670556
 20
86.35020155752976
 30
0.0
 10
147.3537802169758
 20
85.95008526963632
 30
0.0
  0
LINE
  5
101
330
1F
100
AcDbEntity
  8
0
  6
Continuous
 62
     7
370
    25
100
AcDbLine
 10
147.1873113068
 20
91.9369223209
 30
0.0
 11
147.3385992707
 21
89.9906536744
 31
0.0
  0
LINE
  5
102
330
1F
100
AcDbEntity
  8
0
  6
Continuous
 62
     7
370
    25
100
AcDbLine
 10
147.4133721619
 20
83.8488467351
 30
0.0
 11
147.4747269547
 21
83.8488467351
 31
0.0
  0
LWPOLYLINE
  5
103
330
1F
100
AcDbEntity
  8
0
  6
Continuous
 62
     7
370
    25
100
AcDbPolyline
 90
        3
 70
   128
 43
0.0
 10
147.6107394972
 20
82.4990948756
 10
147.569440725
 20
82.9088960202
 10
147.4747269547
 20
83.8488467351
  0
SPLINE
  5
104
330
1F
100
AcDbEntity
  8
0
  6
Continuous
 62
     7
370
    25
100
AcDbSpline
210
0.0
220
0.0
230
1.0
 70
     8
 71
     3
 72
    11
 73
     7
 74
     0
 42
0.00000001
 43
0.00000001
 40
0.0
 40
0.0
 40
0.0
 40
0.0
 40
0.2920574028183093
 40
0.5665622171831316
 40
0.8065682389915578
 40
1.0
 40
1.0
 40
1.0
 40
1.0
 10
147.4771665548217
 20
98.04884673509929
 30
0.0
 10
147.5088270911372
 20
98.03201493905058
 30
0.0
 10
147.5702453721978
 20
97.99936293435391
 30
0.0
 10
147.6501577314624
 20
97.74397104731291
 30
0.0
 10
147.6892565451899
 20
97.40824813073829
 30
0.0
 10
147.6738401822603
 20
97.1597464359172
 30
0.0
 10
147.6669602692762
 20
97.04884673508717
 30
0.0
  0
LINE
  5
105
330
1F
100
AcDbEntity
  8
0
  6
Continuous
 62
     7
370
    25
100
AcDbLine
 10
147.6669602693
 20
97.0488467351
 30
0.0
 11
147.189451422
 21
92.1604607744
 31
0.0
  0
LINE
  5
106
330
1F
100
AcDbEntity
  8
0
  6
Continuous
 62
     7
370
    25
100
AcDbLine
 10
148.0347632711
 20
100.0488467351
 30
0.0
 11
163.1519810526
 21
100.0488467351
 31
0.0
  0
LINE
  5
107
330
1F
100
AcDbEntity
  8
0
  6
Continuous
 62
     7
370
    25
100
AcDbLine
 10
163.1408783808
 20
82.0488467351
 30
0.0
 11
148.1124063068
 21
82.0488467351
 31
0.0
  0
SPLINE
  5
108
330
1F
100
AcDbEntity
  8
0
  6
Continuous
 62
     7
370
    25
100
AcDbSpline
210
0.0
220
0.0
230
1.0
 70
     8
 71
     3
 72
    12
 73
     8
 74
     0
 42
0.00000001
 43
0.00000001
 40
0.0
 40
0.0
 40
0.0
 40
0.0
 40
0.2316347876629357
 40
0.4633066480819574
 40
0.6939442291381489
 40
0.922740652522635
 40
1.0
 40
1.0
 40
1.0
 40
1.0
 10
148.1124063067867
 20
82.04884673509926
 30
0.0
 10
148.055352989138
 20
82.05443620012953
 30
0.0
 10
147.9412372225535
 20
82.0656160247745
 30
0.0
 10
147.7893838920754
 20
82.15293909073017
 30
0.0
 10
147.6752165091915
 20
82.2812492645122
 30
0.0
 10
147.6234621768242
 20
82.40592869121004
 30
0.0
 10
147.6133038258372
 20
82.48031669996334
 30
0.0
 10
147.6107394972297
 20
82.49909487558877
 30
0.0
  0
SPLINE
  5
109
330
1F
100
AcDbEntity
  8
0
  6
Continuous
 62
     7
370
    25
100
AcDbSpline
210
0.0
220
0.0
230
1.0
 70
     8
 71
     3
 72
     9
 73
     5
 74
     0
 42
0.00000001
 43
0.00000001
 40
0.0
 40
0.0
 40
0.0
 40
0.0
 40
0.7210175706402078
 40
0.9999999999999999
 40
0.9999999999999999
 40
0.9999999999999999
 40
0.9999999999999999
 10
145.9373006175725
 20
91.74664687133415
 30
0.0
 10
145.8683673985763
 20
91.80989768424344
 30
0.0
 10
145.7727619351269
 20
91.89762205530577
 30
0.0
 10
145.632502171479
 20
91.94243124164971
 30
0.0
 10
145.5933721618751
 20
91.95493221731358
 30
0.0
  0
ARC
  5
10A
330
1F
100
AcDbEntity
  8
0
  6
Continuous
 62
     7
370
    25
100
AcDbCircle
 10
138.871145823
 20
84.6706694534
 30
0.0
 40
10.00000000000001
100
AcDbArc
 50
32.1405798582
 51
45.0397956095
  0
SPLINE
  5
10B
330
1F
100
AcDbEntity
  8
0
  6
Continuous
 62
     7
370
    25
100
AcDbSpline
210
0.0
220
0.0
230
1.0
 70
     8
 71
     3
 72
     9
 73
     5
 74
     0
 42
0.00000001
 43
0.00000001
 40
0.0
 40
0.0
 40
0.0
 40
0.0
 40
0.4474581094010259
 40
1.0
 40
1.0
 40
1.0
 40
1.0
 10
145.5933721618751
 20
87.58115855427634
 30
0.0
 10
145.8670227635534
 20
87.35322561090945
 30
0.0
 10
146.4785897369281
 20
86.84383056681914
 30
0.0
 10
147.0423043042111
 20
86.26816474897896
 30
0.0
 10
147.3537802169758
 20
85.95008526963632
 30
0.0
  0
LINE
  5
10C
330
1F
100
AcDbEntity
  8
0
  6
Continuous
 62
     7
370
    25
100
AcDbLine
 10
145.9373006176
 20
97.0488467351
 30
0.0
 11
145.9373006176
 21
91.7466468713
 31
0.0
  0
LINE
  5
10D
330
1F
100
AcDbEntity
  8
0
  6
Continuous
 62
     7
370
    25
100
AcDbLine
 10
147.6669602693
 20
97.0488467351
 30
0.0
 11
145.9373006176
 21
97.0488467351
 31
0.0
  0
LINE
  5
10E
330
1F
100
AcDbEntity
  8
0
  6
Continuous
 62
     7
370
    25
100
AcDbLine
 10
145.5933721619
 20
98.0488467351
 30
0.0
 11
147.4771665548
 21
98.0488467351
 31
0.0
  0
ARC
  5
10F
330
1F
100
AcDbEntity
  8
0
  6
Continuous
 62
     7
370
    25
100
AcDbCircle
 10
107.9808314875
 20
104.7581919563
 30
0.0
 40
4.021945305553333
100
AcDbArc
 50
230.4243196696
 51
233.105861485
  0
LINE
  5
110
330
1F
100
AcDbEntity
  8
0
  6
Continuous
 62
     7
370
    25
100
AcDbLine
 10
147.3433721619
 20
75.5988467351
 30
0.0
 11
163.8433721619
 21
75.5988467351
 31
0.0
  0
LINE
  5
111
330
1F
100
AcDbEntity
  8
0
  6
Continuous
 62
     7
370
    25
100
AcDbLine
 10
155.5304892971
 20
100.1367890705
 30
0.0
 11
155.5304892971
 21
100.1487396324
 31
0.0
  0
LINE
  5
112
330
1F
100
AcDbEntity
  8
0
  6
Continuous
 62
     7
370
    25
100
AcDbLine
 10
155.6562550267
 20
100.1367890705
 30
0.0
 11
155.6562550267
 21
100.1487396324
 31
0.0
  0
LINE
  5
113
330
1F
100
AcDbEntity
  8
0
  6
Continuous
 62
     7
370
    25
100
AcDbLine
 10
147.189451422
 20
92.1604607744
 30
0.0
 11
164.579420407
 21
92.1604607745
 31
0.0
  0
LINE
  5
114
330
1F
100
AcDbEntity
  8
0
  6
Continuous
 62
     7
370
    25
100
AcDbLine
 10
164.5821797204
 20
91.9369223209
 30
0.0
 11
147.1873113068
 21
91.9369223209
 31
0.0
  0
LINE
  5
115
330
1F
100
AcDbEntity
  8
0
  6
Continuous
 62
     7
370
    25
100
AcDbLine
 10
147.6107394972
 20
82.4990948756
 30
0.0
 11
163.6383969759
 21
82.4990948756
 31
0.0
  0
LINE
  5
116
330
1F
100
AcDbEntity
  8
0
  6
Continuous
 62
     7
370
    25
100
AcDbLine
 10
163.648119991
 20
99.6108641024
 30
0.0
 11
147.5386243328
 21
99.6108641024
 31
0.0
  0
LINE
  5
117
330
1F
100
AcDbEntity
  8
0
  6
Continuous
 62
     7
370
    25
100
AcDbLine
 10
145.5933721619
 20
97.0488467351
 30
0.0
 11
145.9373006176
 21
97.0488467351
 31
0.0
  0
ARC
  5
118
330
1F
100
AcDbEntity
  8
0
  6
Continuous
 62
     7
370
    25
100
AcDbCircle
 10
144.8314268987
 20
97.1035113182
 30
0.0
 40
1.107223960532962
100
AcDbArc
 50
357.1701084939
 51
46.5155082001
  0
LINE
  5
119
330
1F
100
AcDbEntity
  8
0
  6
Continuous
 62
     7
370
    25
100
AcDbLine
 10
105.3443752207
 20
93.066568339
 30
0.0
 11
105.5663026571
 21
101.5416352102
 31
0.0
  0
LINE
  5
11A
330
1F
100
AcDbEntity
  8
0
  6
Continuous
 62
     7
370
    18
100
AcDbLine
 10
171.5933721619
 20
55.0144717351
 30
0.0
 11
182.2235685254
 21
55.3466653715
 31
0.0
  0
LINE
  5
11B
330
1F
100
AcDbEntity
  8
0
  6
Continuous
 62
     7
370
    18
100
AcDbLine
 10
182.2235685254
 20
70.3510280987
 30
0.0
 11
171.5933721619
 21
70.6832217351
 31
0.0
  0
LINE
  5
11C
330
1F
100
AcDbEntity
  8
0
  6
CENTERX2
 62
     7
370
    18
100
AcDbLine
 10
184.4488832723
 20
62.8488467351
 30
0.0
 11
125.9607806976
 21
62.8488467351
 31
0.0
  0
LINE
  5
11D
330
1F
100
AcDbEntity
  8
0
  6
CENTERX2
 62
     7
370
    18
100
AcDbLine
 10
155.5933721619
 20
48.7367104098
 30
0.0
 11
155.5933721619
 21
101.8210208988
 31
0.0
  0
ARC
  5
11E
330
1F
100
AcDbEntity
  8
0
  6
Continuous
 62
     7
370
    25
100
AcDbCircle
 10
224.5994091806
 20
75.5988467351
 30
0.0
 40
0.25
100
AcDbArc
 50
180.0
 51
270.0
  0
ARC
  5
11F
330
1F
100
AcDbEntity
  8
0
  6
Continuous
 62
     7
370
    25
100
AcDbCircle
 10
207.5994091806
 20
75.5988467351
 30
0.0
 40
0.25
100
AcDbArc
 50
270.0
 51
0.0
  0
LINE
  5
120
330
1F
100
AcDbEntity
  8
0
  6
Continuous
 62
     7
370
    25
100
AcDbLine
 10
224.3494091806
 20
75.5988467351
 30
0.0
 11
224.3494091806
 21
81.0488467351
 31
0.0
  0
LINE
  5
121
330
1F
100
AcDbEntity
  8
0
  6
Continuous
 62
     7
370
    25
100
AcDbLine
 10
207.8494091806
 20
81.0488467351
 30
0.0
 11
207.8494091806
 21
75.5988467351
 31
0.0
  0
LINE
  5
122
330
1F
100
AcDbEntity
  8
0
  6
Continuous
 62
     7
370
    25
100
AcDbLine
 10
224.3494091806
 20
81.0488467351
 30
0.0
 11
223.8494091806
 21
81.5488467351
 31
0.0
  0
LINE
  5
123
330
1F
100
AcDbEntity
  8
0
  6
Continuous
 62
     7
370
    25
100
AcDbLine
 10
208.3494091806
 20
81.5488467351
 30
0.0
 11
207.8494091806
 21
81.0488467351
 31
0.0
  0
LINE
  5
124
330
1F
100
AcDbEntity
  8
0
  6
Continuous
 62
     7
370
    25
100
AcDbLine
 10
211.0994091806
 20
83.8488467351
 30
0.0
 11
211.0994091806
 21
81.5488467351
 31
0.0
  0
LINE
  5
125
330
1F
100
AcDbEntity
  8
0
  6
Continuous
 62
     7
370
    25
100
AcDbLine
 10
221.0994091806
 20
81.5488467351
 30
0.0
 11
221.0994091806
 21
82.0488467351
 31
0.0
  0
LINE
  5
126
330
1F
100
AcDbEntity
  8
0
  6
Continuous
 62
     7
370
    25
100
AcDbLine
 10
215.229380116
 20
101.997562402
 30
0.0
 11
215.229380116
 21
101.9627797337
 31
0.0
  0
SPLINE
  5
127
330
1F
100
AcDbEntity
  8
0
  6
Continuous
 62
     7
370
    25
100
AcDbSpline
210
0.0
220
0.0
230
1.0
 70
     8
 71
     3
 72
     9
 73
     5
 74
     0
 42
0.00000001
 43
0.00000001
 40
0.0
 40
0.0
 40
0.0
 40
0.0
 40
0.4993165458323517
 40
0.9999999999999999
 40
0.9999999999999999
 40
0.9999999999999999
 40
0.9999999999999999
 10
217.108701975545
 20
102.536414163851
 30
0.0
 10
217.0855713578978
 20
102.5397651994986
 30
0.0
 10
217.0392468011806
 20
102.5464764444505
 30
0.0
 10
216.9926874080523
 20
102.5421492751449
 30
0.0
 10
216.9693758902769
 20
102.5399827330701
 30
0.0
  0
SPLINE
  5
128
330
1F
100
AcDbEntity
  8
0
  6
Continuous
 62
     7
370
    25
100
AcDbSpline
210
0.0
220
0.0
230
1.0
 70
     8
 71
     3
 72
     9
 73
     5
 74
     0
 42
0.00000001
 43
0.00000001
 40
0.0
 40
0.0
 40
0.0
 40
0.0
 40
0.5006834545219511
 40
1.0
 40
1.0
 40
1.0
 40
1.0
 10
215.2294424183968
 20
102.5399827329977
 30
0.0
 10
215.2061309037458
 20
102.542149273663
 30
0.0
 10
215.1595715168908
 20
102.5464764401506
 30
0.0
 10
215.1132469666342
 20
102.5397651937959
 30
0.0
 10
215.0901163522293
 20
102.5364141574502
 30
0.0
  0
LINE
  5
129
330
1F
100
AcDbEntity
  8
0
  6
Continuous
 62
     7
370
    25
100
AcDbLine
 10
213.6235546623
 20
101.8808971246
 30
0.0
 11
213.4927773077
 21
99.0276356345
 31
0.0
  0
LINE
  5
12A
330
1F
100
AcDbEntity
  8
0
  6
Continuous
 62
     7
370
    25
100
AcDbLine
 10
218.7060410536
 20
99.0276356345
 30
0.0
 11
218.5752636989
 21
101.8808971246
 31
0.0
  0
LINE
  5
12B
330
1F
100
AcDbEntity
  8
0
  6
Continuous
 62
     7
370
    25
100
AcDbLine
 10
214.1464352005
 20
102.5259980156
 30
0.0
 11
214.0980042575
 21
102.5047935015
 31
0.0
  0
SPLINE
  5
12C
330
1F
100
AcDbEntity
  8
0
  6
Continuous
 62
     7
370
    25
100
AcDbSpline
210
0.0
220
0.0
230
1.0
 70
     8
 71
     3
 72
     9
 73
     5
 74
     0
 42
0.00000001
 43
0.00000001
 40
0.0
 40
0.0
 40
0.0
 40
0.0
 40
0.0503631419175413
 40
1.0
 40
1.0
 40
1.0
 40
1.0
 10
213.6799169864145
 20
102.1194052930401
 30
0.0
 10
213.6780209058204
 20
102.116235235676
 30
0.0
 10
213.6403727265781
 20
102.0532912404584
 30
0.0
 10
213.6338322835628
 20
101.9781436417645
 30
0.0
 10
213.6276212378073
 20
101.9067807122484
 30
0.0
  0
SPLINE
  5
12D
330
1F
100
AcDbEntity
  8
0
  6
Continuous
 62
     7
370
    25
100
AcDbSpline
210
0.0
220
0.0
230
1.0
 70
     8
 71
     3
 72
    11
 73
     7
 74
     0
 42
0.00000001
 43
0.00000001
 40
0.0
 40
0.0
 40
0.0
 40
0.0
 40
0.2436788845968637
 40
0.4915884466681916
 40
0.7437897073051964
 40
1.0
 40
1.0
 40
1.0
 40
1.0
 10
218.5711971234841
 20
101.9067807122484
 30
0.0
 10
218.5598931666556
 20
101.9759000641452
 30
0.0
 10
218.5370889971942
 20
102.1153387967621
 30
0.0
 10
218.4239241982897
 20
102.299992689302
 30
0.0
 10
218.2616406054794
 20
102.4506211951112
 30
0.0
 10
218.1225013655609
 20
102.500740671274
 30
0.0
 10
218.0523831608285
 20
102.5259980155913
 30
0.0
  0
SPLINE
  5
12E
330
1F
100
AcDbEntity
  8
0
  6
Continuous
 62
     7
370
    25
100
AcDbSpline
210
0.0
220
0.0
230
1.0
 70
     8
 71
     3
 72
    10
 73
     6
 74
     0
 42
0.00000001
 43
0.00000001
 40
0.0
 40
0.0
 40
0.0
 40
0.0
 40
0.2663464296502963
 40
0.5214744039517432
 40
1.0
 40
1.0
 40
1.0
 40
1.0
 10
219.0541763775606
 20
98.57209251316556
 30
0.0
 10
219.0089949136441
 20
98.59107857890507
 30
0.0
 10
218.9205350195262
 20
98.62825102130613
 30
0.0
 10
218.7739506801267
 20
98.75781813942204
 30
0.0
 10
218.7199265633496
 20
98.8882975308649
 30
0.0
 10
218.6846893291475
 20
98.97340272367744
 30
0.0
  0
SPLINE
  5
12F
330
1F
100
AcDbEntity
  8
0
  6
Continuous
 62
     7
370
    25
100
AcDbSpline
210
0.0
220
0.0
230
1.0
 70
     8
 71
     3
 72
    10
 73
     6
 74
     0
 42
0.00000001
 43
0.00000001
 40
0.0
 40
0.0
 40
0.0
 40
0.0
 40
0.4785255960482551
 40
0.7336535703497021
 40
0.9999999999999999
 40
0.9999999999999999
 40
0.9999999999999999
 40
0.9999999999999999
 10
213.5141290321439
 20
98.97340272367742
 30
0.0
 10
213.4788917979417
 20
98.88829753086489
 30
0.0
 10
213.4248676811646
 20
98.75781813942204
 30
0.0
 10
213.2782833417651
 20
98.62825102130611
 30
0.0
 10
213.1898234476473
 20
98.59107857890505
 30
0.0
 10
213.1446419837307
 20
98.57209251316556
 30
0.0
  0
ARC
  5
130
330
1F
100
AcDbEntity
  8
0
  6
Continuous
 62
     7
370
    25
100
AcDbCircle
 10
212.3726707564
 20
97.0488467351
 30
0.0
 40
1.500000000000014
100
AcDbArc
 50
90.0
 51
180.0
  0
LINE
  5
131
330
1F
100
AcDbEntity
  8
0
  6
Continuous
 62
     7
370
    25
100
AcDbLine
 10
210.8726707564
 20
97.0488467351
 30
0.0
 11
210.8726707564
 21
91.7958921029
 31
0.0
  0
ARC
  5
132
330
1F
100
AcDbEntity
  8
0
  6
Continuous
 62
     7
370
    25
100
AcDbCircle
 10
219.8261476049
 20
97.0488467351
 30
0.0
 40
1.500000000000014
100
AcDbArc
 50
0.0
 51
90.0
  0
LINE
  5
133
330
1F
100
AcDbEntity
  8
0
  6
Continuous
 62
     7
370
    25
100
AcDbLine
 10
221.3261476049
 20
91.7958921029
 30
0.0
 11
221.3261476049
 21
97.0488467351
 31
0.0
  0
LINE
  5
134
330
1F
100
AcDbEntity
  8
0
  6
Continuous
 62
     7
370
    25
100
AcDbLine
 10
207.1106016221
 20
91.9369223208
 30
0.0
 11
207.9194091806
 21
83.8488467351
 31
0.0
  0
LINE
  5
135
330
1F
100
AcDbEntity
  8
0
  6
Continuous
 62
     7
370
    25
100
AcDbLine
 10
224.1444339947
 20
82.4990948756
 30
0.0
 11
225.0882167392
 21
91.9369223208
 31
0.0
  0
ARC
  5
136
330
1F
100
AcDbEntity
  8
0
  6
Continuous
 62
     7
370
    25
100
AcDbCircle
 10
224.093179549
 20
92.0364260399
 30
0.0
 40
0.9999999999999943
100
AcDbArc
 50
354.2894068625
 51
7.1250163489
  0
ARC
  5
137
330
1F
100
AcDbEntity
  8
0
  6
Continuous
 62
     7
370
    25
100
AcDbCircle
 10
208.1056388123
 20
92.0364260399
 30
0.0
 40
1.000000000000005
100
AcDbArc
 50
172.8749836511
 51
185.7105931375
  0
LINE
  5
138
330
1F
100
AcDbEntity
  8
0
  6
Continuous
 62
     7
370
    25
100
AcDbLine
 10
225.0854574257
 20
92.1604607744
 30
0.0
 11
224.1541570097
 21
99.6108641024
 31
0.0
  0
LINE
  5
139
330
1F
100
AcDbEntity
  8
0
  6
Continuous
 62
     7
370
    25
100
AcDbLine
 10
208.0446613516
 20
99.6108641024
 30
0.0
 11
207.1133609356
 21
92.1604607744
 31
0.0
  0
ARC
  5
13A
330
1F
100
AcDbEntity
  8
0
  6
Continuous
 62
     7
370
    25
100
AcDbCircle
 10
208.5408002899
 20
99.5488467351
 30
0.0
 40
0.5000000000000017
100
AcDbArc
 50
90.0
 51
172.8749836511
  0
ARC
  5
13B
330
1F
100
AcDbEntity
  8
0
  6
Continuous
 62
     7
370
    25
100
AcDbCircle
 10
223.6580180714
 20
99.5488467351
 30
0.0
 40
0.5000000000000017
100
AcDbArc
 50
7.1250163489
 51
90.0
  0
ARC
  5
13C
330
1F
100
AcDbEntity
  8
0
  6
Continuous
 62
     7
370
    25
100
AcDbCircle
 10
223.6469153996
 20
82.5488467351
 30
0.0
 40
0.5
100
AcDbArc
 50
270.0
 51
354.2894068625
  0
LINE
  5
13D
330
1F
100
AcDbEntity
  8
0
  6
Continuous
 62
     7
370
    25
100
AcDbLine
 10
217.0994091806
 20
81.5488467351
 30
0.0
 11
217.0994091806
 21
82.0200555815
 31
0.0
  0
LINE
  5
13E
330
1F
100
AcDbEntity
  8
0
  6
Continuous
 62
     7
370
    25
100
AcDbLine
 10
215.0994091806
 20
83.3488467351
 30
0.0
 11
215.0994091806
 21
81.5488467351
 31
0.0
  0
ARC
  5
13F
330
1F
100
AcDbEntity
  8
0
  6
Continuous
 62
     7
370
    25
100
AcDbCircle
 10
215.2994091806
 20
83.3488467351
 30
0.0
 40
0.2000000000000171
100
AcDbArc
 50
90.0
 51
180.0
  0
ARC
  5
140
330
1F
100
AcDbEntity
  8
0
  6
Continuous
 62
     7
370
    25
100
AcDbCircle
 10
216.8994091806
 20
83.3488467351
 30
0.0
 40
0.2000000000000171
100
AcDbArc
 50
0.0
 51
90.0
  0
CIRCLE
  5
141
330
1F
100
AcDbEntity
  8
0
  6
Continuous
 62
     7
370
    25
100
AcDbCircle
 10
216.0994091806
 20
62.8488467351
 30
0.0
 40
10.25000000000001
  0
CIRCLE
  5
142
330
1F
100
AcDbEntity
  8
0
  6
Continuous
 62
     7
370
    25
100
AcDbCircle
 10
216.0994091806
 20
62.8488467351
 30
0.0
 40
10.75000000000001
  0
CIRCLE
  5
143
330
1F
100
AcDbEntity
  8
0
  6
Continuous
 62
     7
370
    25
100
AcDbCircle
 10
216.0994091806
 20
62.8488467351
 30
0.0
 40
8.625000000000004
  0
CIRCLE
  5
144
330
1F
100
AcDbEntity
  8
0
  6
Continuous
 62
     7
370
    25
100
AcDbCircle
 10
216.0994091806
 20
62.8488467351
 30
0.0
 40
7.625000000000004
  0
CIRCLE
  5
145
330
1F
100
AcDbEntity
  8
0
  6
Continuous
 62
     7
370
    25
100
AcDbCircle
 10
216.0994091806
 20
62.8488467351
 30
0.0
 40
11.75000000000001
  0
CIRCLE
  5
146
330
1F
100
AcDbEntity
  8
0
  6
Continuous
 62
     7
370
    25
100
AcDbCircle
 10
216.0994091806
 20
62.8488467351
 30
0.0
 40
12.00000000000002
  0
CIRCLE
  5
147
330
1F
100
AcDbEntity
  8
0
  6
Continuous
 62
     7
370
    25
100
AcDbCircle
 10
216.0994091806
 20
62.8488467351
 30
0.0
 40
4.999999999999997
  0
ARC
  5
148
330
1F
100
AcDbEntity
  8
0
  6
Continuous
 62
     7
370
    25
100
AcDbCircle
 10
216.0994091806
 20
62.8488467351
 30
0.0
 40
15.25
100
AcDbArc
 50
124.9480137199
 51
145.0519862801
  0
SPLINE
  5
149
330
1F
100
AcDbEntity
  8
0
  6
Continuous
 62
     7
370
    25
100
AcDbSpline
210
0.0
220
0.0
230
1.0
 70
    24
 71
     3
 72
    10
 73
     6
 74
     0
 42
0.00000001
 43
0.00000001
 40
0.0
 40
0.0
 40
0.0
 40
0.0
 40
0.5
 40
0.5
 40
1.0
 40
1.0
 40
1.0
 40
1.0
 10
207.3637065758176
 20
75.34884673509926
 30
0.0
 10
208.7757635067294
 20
75.34884673509926
 30
0.0
 10
210.2225464306072
 20
75.34884673509926
 30
0.0
 10
213.1358760770824
 20
75.34884673509926
 30
0.0
 10
214.6078345329384
 20
75.34884673509926
 30
0.0
 10
216.0994091806457
 20
75.34884673509926
 30
0.0
  0
ARC
  5
14A
330
1F
100
AcDbEntity
  8
0
  6
Continuous
 62
     7
370
    25
100
AcDbCircle
 10
216.0994091806
 20
62.8488467351
 30
0.0
 40
12.50000000000003
100
AcDbArc
 50
90.0
 51
180.0
  0
SPLINE
  5
14B
330
1F
100
AcDbEntity
  8
0
  6
Continuous
 62
     7
370
    25
100
AcDbSpline
210
0.0
220
0.0
230
1.0
 70
    24
 71
     3
 72
    12
 73
     8
 74
     0
 42
0.00000001
 43
0.00000001
 40
0.0
 40
0.0
 40
0.0
 40
0.0
 40
0.25
 40
0.25
 40
0.5
 40
0.5
 40
1.0
 40
1.0
 40
1.0
 40
1.0
 10
203.5994091806457
 20
62.84884673509926
 30
0.0
 10
203.5994091806457
 20
63.59419294737358
 30
0.0
 10
203.5994091806457
 20
64.3460197972426
 30
0.0
 10
203.5994091806457
 20
65.82672025841788
 30
0.0
 10
203.5994091806457
 20
66.5596918630199
 30
0.0
 10
203.5994091806457
 20
68.7402359839759
 30
0.0
 10
203.5994091806457
 20
70.16967958298511
 30
0.0
 10
203.5994091806457
 20
71.58454933992734
 30
0.0
  0
ARC
  5
14C
330
1F
100
AcDbEntity
  8
0
  6
Continuous
 62
     7
370
    25
100
AcDbCircle
 10
216.0994091806
 20
62.8488467351
 30
0.0
 40
15.25
100
AcDbArc
 50
214.9480137199
 51
235.0519862801
  0
ARC
  5
14D
330
1F
100
AcDbEntity
  8
0
  6
Continuous
 62
     7
370
    25
100
AcDbCircle
 10
216.0994091806
 20
62.8488467351
 30
0.0
 40
12.50000000000003
100
AcDbArc
 50
180.0
 51
270.0
  0
SPLINE
  5
14E
330
1F
100
AcDbEntity
  8
0
  6
Continuous
 62
     7
370
    25
100
AcDbSpline
210
0.0
220
0.0
230
1.0
 70
    24
 71
     3
 72
    10
 73
     6
 74
     0
 42
0.00000001
 43
0.00000001
 40
0.0
 40
0.0
 40
0.0
 40
0.0
 40
0.5
 40
0.5
 40
1.0
 40
1.0
 40
1.0
 40
1.0
 10
207.3637065758176
 20
50.34884673509926
 30
0.0
 10
208.775763506729
 20
50.34884673509926
 30
0.0
 10
210.2225464306065
 20
50.34884673509926
 30
0.0
 10
213.1358760770817
 20
50.34884673509926
 30
0.0
 10
214.6078345329379
 20
50.34884673509925
 30
0.0
 10
216.0994091806457
 20
50.34884673509925
 30
0.0
  0
SPLINE
  5
14F
330
1F
100
AcDbEntity
  8
0
  6
Continuous
 62
     7
370
    25
100
AcDbSpline
210
0.0
220
0.0
230
1.0
 70
    24
 71
     3
 72
    10
 73
     6
 74
     0
 42
0.00000001
 43
0.00000001
 40
0.0
 40
0.0
 40
0.0
 40
0.0
 40
0.4999999999999999
 40
0.4999999999999999
 40
1.0
 40
1.0
 40
1.0
 40
1.0
 10
203.5994091806457
 20
54.1131441302712
 30
0.0
 10
203.5994091806456
 20
55.52520106118296
 30
0.0
 10
203.5994091806456
 20
56.97198398506082
 30
0.0
 10
203.5994091806457
 20
59.88531363153601
 30
0.0
 10
203.5994091806457
 20
61.35727208739198
 30
0.0
 10
203.5994091806457
 20
62.84884673509926
 30
0.0
  0
ARC
  5
150
330
1F
100
AcDbEntity
  8
0
  6
Continuous
 62
     7
370
    25
100
AcDbCircle
 10
216.0994091806
 20
62.8488467351
 30
0.0
 40
12.5
100
AcDbArc
 50
0.0
 51
90.0
  0
ARC
  5
151
330
1F
100
AcDbEntity
  8
0
  6
Continuous
 62
     7
370
    25
100
AcDbCircle
 10
216.0994091806
 20
62.8488467351
 30
0.0
 40
12.50000000000001
100
AcDbArc
 50
270.0
 51
0.0
  0
ARC
  5
152
330
1F
100
AcDbEntity
  8
0
  6
Continuous
 62
     7
370
    25
100
AcDbCircle
 10
216.0994091806
 20
62.8488467351
 30
0.0
 40
15.25
100
AcDbArc
 50
34.9480137199
 51
55.0519862801
  0
SPLINE
  5
153
330
1F
100
AcDbEntity
  8
0
  6
Continuous
 62
     7
370
    25
100
AcDbSpline
210
0.0
220
0.0
230
1.0
 70
    24
 71
     3
 72
    12
 73
     8
 74
     0
 42
0.00000001
 43
0.00000001
 40
0.0
 40
0.0
 40
0.0
 40
0.0
 40
0.2500000000000001
 40
0.2500000000000001
 40
0.5000000000000001
 40
0.5000000000000001
 40
1.0
 40
1.0
 40
1.0
 40
1.0
 10
228.5994091806457
 20
62.84884673509926
 30
0.0
 10
228.5994091806457
 20
63.59419294737358
 30
0.0
 10
228.5994091806457
 20
64.3460197972426
 30
0.0
 10
228.5994091806457
 20
65.82672025841788
 30
0.0
 10
228.5994091806457
 20
66.5596918630199
 30
0.0
 10
228.5994091806457
 20
68.7402359839759
 30
0.0
 10
228.5994091806457
 20
70.16967958298511
 30
0.0
 10
228.5994091806457
 20
71.58454933992734
 30
0.0
  0
SPLINE
  5
154
330
1F
100
AcDbEntity
  8
0
  6
Continuous
 62
     7
370
    25
100
AcDbSpline
210
0.0
220
0.0
230
1.0
 70
    24
 71
     3
 72
    12
 73
     8
 74
     0
 42
0.00000001
 43
0.00000001
 40
0.0
 40
0.0
 40
0.0
 40
0.0
 40
0.2500000000000001
 40
0.2500000000000001
 40
0.5000000000000001
 40
0.5000000000000001
 40
1.0
 40
1.0
 40
1.0
 40
1.0
 10
216.0994091806457
 20
75.34884673509926
 30
0.0
 10
216.84475539292
 20
75.34884673509926
 30
0.0
 10
217.596582242789
 20
75.34884673509926
 30
0.0
 10
219.0772827039643
 20
75.34884673509926
 30
0.0
 10
219.8102543085663
 20
75.34884673509926
 30
0.0
 10
221.9907984295223
 20
75.34884673509926
 30
0.0
 10
223.4202420285315
 20
75.34884673509926
 30
0.0
 10
224.8351117854737
 20
75.34884673509926
 30
0.0
  0
SPLINE
  5
155
330
1F
100
AcDbEntity
  8
0
  6
Continuous
 62
     7
370
    25
100
AcDbSpline
210
0.0
220
0.0
230
1.0
 70
    24
 71
     3
 72
    10
 73
     6
 74
     0
 42
0.00000001
 43
0.00000001
 40
0.0
 40
0.0
 40
0.0
 40
0.0
 40
0.5
 40
0.5
 40
1.0
 40
1.0
 40
1.0
 40
1.0
 10
228.5994091806457
 20
54.1131441302712
 30
0.0
 10
228.5994091806457
 20
55.52520106118296
 30
0.0
 10
228.5994091806457
 20
56.97198398506082
 30
0.0
 10
228.5994091806457
 20
59.88531363153601
 30
0.0
 10
228.5994091806457
 20
61.35727208739198
 30
0.0
 10
228.5994091806457
 20
62.84884673509926
 30
0.0
  0
ARC
  5
156
330
1F
100
AcDbEntity
  8
0
  6
Continuous
 62
     7
370
    25
100
AcDbCircle
 10
216.0994091806
 20
62.8488467351
 30
0.0
 40
15.24999999999999
100
AcDbArc
 50
304.9480137199
 51
325.0519862801
  0
SPLINE
  5
157
330
1F
100
AcDbEntity
  8
0
  6
Continuous
 62
     7
370
    25
100
AcDbSpline
210
0.0
220
0.0
230
1.0
 70
    24
 71
     3
 72
    12
 73
     8
 74
     0
 42
0.00000001
 43
0.00000001
 40
0.0
 40
0.0
 40
0.0
 40
0.0
 40
0.2500000000000001
 40
0.2500000000000001
 40
0.5000000000000001
 40
0.5000000000000001
 40
1.0
 40
1.0
 40
1.0
 40
1.0
 10
216.0994091806457
 20
50.34884673509925
 30
0.0
 10
216.8447553929207
 20
50.34884673509926
 30
0.0
 10
217.5965822427897
 20
50.34884673509925
 30
0.0
 10
219.0772827039644
 20
50.34884673509925
 30
0.0
 10
219.8102543085663
 20
50.34884673509925
 30
0.0
 10
221.9907984295219
 20
50.34884673509924
 30
0.0
 10
223.4202420285312
 20
50.34884673509925
 30
0.0
 10
224.8351117854737
 20
50.34884673509925
 30
0.0
  0
LINE
  5
158
330
1F
100
AcDbEntity
  8
0
  6
Continuous
 62
     7
370
    25
100
AcDbLine
 10
224.3494091806
 20
81.0488467351
 30
0.0
 11
207.8494091806
 21
81.0488467351
 31
0.0
  0
LINE
  5
159
330
1F
100
AcDbEntity
  8
0
  6
Continuous
 62
     7
370
    25
100
AcDbLine
 10
208.3494091806
 20
81.5488467351
 30
0.0
 11
223.8494091806
 21
81.5488467351
 31
0.0
  0
ELLIPSE
  5
15A
330
1F
100
AcDbEntity
  8
0
  6
Continuous
 62
     7
370
    25
100
AcDbEllipse
 10
215.9248706255
 20
93.2724535328
 30
0.0
 11
0.7234244958980014
 21
-0.7001325129304661
 31
0.0
210
0.0
220
0.0
230
1.0
 40
0.9869902583
 41
4.707649545362609
 42
5.487972049091459
  0
LINE
  5
15B
330
1F
100
AcDbEntity
  8
0
  6
Continuous
 62
     7
370
    25
100
AcDbLine
 10
215.9379635863
 20
92.2724535328
 30
0.0
 11
215.9379635863
 21
91.5488467351
 31
0.0
  0
ELLIPSE
  5
15C
330
1F
100
AcDbEntity
  8
0
  6
Continuous
 62
     7
370
    25
100
AcDbEllipse
 10
215.9248706255
 20
93.0488467351
 30
0.0
 11
1.074619436156752
 21
-1.056020081253678
 31
0.0
210
0.0
220
0.0
230
0.9999999999999999
 40
0.9913091236
 41
4.713099434383474
 42
5.493421938112319
  0
LWPOLYLINE
  5
15D
330
1F
100
AcDbEntity
  8
0
  6
Continuous
 62
     7
370
    25
100
AcDbPolyline
 90
        9
 70
   128
 43
0.0
 10
215.2304258061
 20
92.561766842
 10
215.1446969241
 20
92.4854363644
 10
215.0636652742
 20
92.4010363652
 10
214.9917707193
 20
92.3131912646
 10
214.9329524851
 20
92.2267142463
 10
214.8904333233
 20
92.146343534
 10
214.8665429317
 20
92.0764827766
 10
214.8625903055
 20
92.0209597646
 10
214.8787920161
 20
91.9828166989
  0
ELLIPSE
  5
15E
330
1F
100
AcDbEntity
  8
0
  6
Continuous
 62
     7
370
    25
100
AcDbEllipse
 10
216.2739477358
 20
93.2724535328
 30
0.0
 11
0.7234244958980298
 21
0.7001325129304662
 31
0.0
210
0.0
220
0.0
230
1.0
 40
0.9869902583
 41
3.936805911678
 42
4.717128415406837
  0
LWPOLYLINE
  5
15F
330
1F
100
AcDbEntity
  8
0
  6
Continuous
 62
     7
370
    25
100
AcDbPolyline
 90
        9
 70
   128
 43
0.0
 10
216.9683925552
 20
92.561766842
 10
217.0541214372
 20
92.4854363644
 10
217.1351530871
 20
92.4010363652
 10
217.207047642
 20
92.3131912646
 10
217.2658658762
 20
92.2267142463
 10
217.308385038
 20
92.146343534
 10
217.3322754296
 20
92.0764827766
 10
217.3362280558
 20
92.0209597646
 10
217.3200263452
 20
91.9828166989
  0
ELLIPSE
  5
160
330
1F
100
AcDbEntity
  8
0
  6
Continuous
 62
     7
370
    25
100
AcDbEllipse
 10
216.2739477358
 20
93.0488467351
 30
0.0
 11
1.074619436156752
 21
1.056020081253692
 31
0.0
210
0.0
220
0.0
230
1.0
 40
0.9913091236
 41
3.931356022657103
 42
4.711678526385926
  0
LINE
  5
161
330
1F
100
AcDbEntity
  8
0
  6
Continuous
 62
     7
370
    25
100
AcDbLine
 10
216.260854775
 20
92.2724535328
 30
0.0
 11
216.260854775
 21
91.5488467351
 31
0.0
  0
LINE
  5
162
330
1F
100
AcDbEntity
  8
0
  6
Continuous
 62
     7
370
    25
100
AcDbLine
 10
215.9379635863
 20
92.2724535328
 30
0.0
 11
216.260854775
 21
92.2724535328
 31
0.0
  0
LINE
  5
163
330
1F
100
AcDbEntity
  8
0
  6
Continuous
 62
     7
370
    25
100
AcDbLine
 10
216.260854775
 20
91.5488467351
 30
0.0
 11
215.9379635863
 21
91.5488467351
 31
0.0
  0
LINE
  5
164
330
1F
100
AcDbEntity
  8
0
  6
Continuous
 62
     7
370
    25
100
AcDbLine
 10
215.2304258061
 20
92.561766842
 30
0.0
 11
215.2304258061
 21
101.7196671283
 31
0.0
  0
LINE
  5
165
330
1F
100
AcDbEntity
  8
0
  6
Continuous
 62
     7
370
    25
100
AcDbLine
 10
215.2304258061
 20
101.7196671283
 30
0.0
 11
216.9683925552
 21
101.7196671283
 31
0.0
  0
LINE
  5
166
330
1F
100
AcDbEntity
  8
0
  6
Continuous
 62
     7
370
    25
100
AcDbLine
 10
216.9683925552
 20
101.7196671283
 30
0.0
 11
216.9683925552
 21
92.561766842
 31
0.0
  0
SPLINE
  5
167
330
1F
100
AcDbEntity
  8
0
  6
Continuous
 62
     7
370
    25
100
AcDbSpline
210
0.0
220
0.0
230
1.0
 70
     8
 71
     3
 72
    12
 73
     8
 74
     0
 42
0.00000001
 43
0.00000001
 40
0.0
 40
0.0
 40
0.0
 40
0.0
 40
0.1396834586182491
 40
0.3831896274038308
 40
0.5513169293013305
 40
0.8194729461607058
 40
1.0
 40
1.0
 40
1.0
 40
1.0
 10
216.9683925551644
 20
92.56176684203872
 30
0.0
 10
217.0181074756428
 20
92.57507921569967
 30
0.0
 10
217.1544889917006
 20
92.61159866870763
 30
0.0
 10
217.3344051009128
 20
92.649270729299
 30
0.0
 10
217.5127465292977
 20
92.67363805006052
 30
0.0
 10
217.6332667538491
 20
92.67252101529654
 30
0.0
 10
217.657412767156
 20
92.63113772691896
 30
0.0
 10
217.6671278844157
 20
92.61448721430357
 30
0.0
  0
ARC
  5
168
330
1F
100
AcDbEntity
  8
0
  6
Continuous
 62
     7
370
    25
100
AcDbCircle
 10
217.1688737037
 20
92.5996342286
 30
0.0
 40
0.4984755156836416
100
AcDbArc
 50
333.4921832491
 51
1.7074848132
  0
SPLINE
  5
169
330
1F
100
AcDbEntity
  8
0
  6
Continuous
 62
     7
370
    25
100
AcDbSpline
210
0.0
220
0.0
230
1.0
 70
     8
 71
     3
 72
    12
 73
     8
 74
     0
 42
0.00000001
 43
0.00000001
 40
0.0
 40
0.0
 40
0.0
 40
0.0
 40
0.0715202026166143
 40
0.1260836237049453
 40
0.3855387013103031
 40
0.8475626424815589
 40
1.0
 40
1.0
 40
1.0
 40
1.0
 10
217.6149462228546
 20
92.37715468474845
 30
0.0
 10
217.6130101771494
 20
92.37404603688363
 30
0.0
 10
217.6095971043499
 20
92.36856577294029
 30
0.0
 10
217.5874146538446
 20
92.32897722751996
 30
0.0
 10
217.5244011790782
 20
92.22254309453756
 30
0.0
 10
217.4273548536063
 20
92.09203607882938
 30
0.0
 10
217.3413601603881
 20
92.00452636486604
 30
0.0
 10
217.3200263451865
 20
91.98281669888347
 30
0.0
  0
SPLINE
  5
16A
330
1F
100
AcDbEntity
  8
0
  6
Continuous
 62
     7
370
    25
100
AcDbSpline
210
0.0
220
0.0
230
1.0
 70
     8
 71
     3
 72
    11
 73
     7
 74
     0
 42
0.00000001
 43
0.00000001
 40
0.0
 40
0.0
 40
0.0
 40
0.0
 40
0.2499999999999992
 40
0.499999999999996
 40
0.7499999999999994
 40
1.0
 40
1.0
 40
1.0
 40
1.0
 10
217.6671278844157
 20
101.4254268627127
 30
0.0
 10
217.6521285792491
 20
101.4645444168788
 30
0.0
 10
217.622129968916
 20
101.5427795252111
 30
0.0
 10
217.4586102661193
 20
101.6394426009193
 30
0.0
 10
217.2330306520369
 20
101.7066308170588
 30
0.0
 10
217.0566052541219
 20
101.7153216912524
 30
0.0
 10
216.9683925551644
 20
101.7196671283492
 30
0.0
  0
LINE
  5
16B
330
1F
100
AcDbEntity
  8
0
  6
Continuous
 62
     7
370
    25
100
AcDbLine
 10
217.6671278844
 20
92.6144872143
 30
0.0
 11
217.6671278844
 21
101.4254268627
 31
0.0
  0
SPLINE
  5
16C
330
1F
100
AcDbEntity
  8
0
  6
Continuous
 62
     7
370
    25
100
AcDbSpline
210
0.0
220
0.0
230
1.0
 70
     8
 71
     3
 72
    13
 73
     9
 74
     0
 42
0.00000001
 43
0.00000001
 40
0.0
 40
0.0
 40
0.0
 40
0.0
 40
0.1143463544469914
 40
0.2890454840074684
 40
0.5294852105593207
 40
0.7014879056604273
 40
0.9335094878266192
 40
1.0
 40
1.0
 40
1.0
 40
1.0
 10
214.5316904768756
 20
92.61448721430357
 30
0.0
 10
214.5365250683807
 20
92.62587404606154
 30
0.0
 10
214.5487459813108
 20
92.65465775598142
 30
0.0
 10
214.6213940763518
 20
92.67490793343028
 30
0.0
 10
214.7519063427586
 20
92.66705060668468
 30
0.0
 10
214.9387739419282
 20
92.63452319035672
 30
0.0
 10
215.1001473466848
 20
92.59740183540484
 30
0.0
 10
215.2066936975368
 20
92.56825827228586
 30
0.0
 10
215.230425806127
 20
92.56176684203871
 30
0.0
  0
SPLINE
  5
16D
330
1F
100
AcDbEntity
  8
0
  6
Continuous
 62
     7
370
    25
100
AcDbSpline
210
0.0
220
0.0
230
1.0
 70
     8
 71
     3
 72
    11
 73
     7
 74
     0
 42
0.00000001
 43
0.00000001
 40
0.0
 40
0.0
 40
0.0
 40
0.0
 40
0.3325271082490173
 40
0.7778992719027303
 40
0.9254453528959203
 40
1.0
 40
1.0
 40
1.0
 40
1.0
 10
214.8787920161049
 20
91.98281669888347
 30
0.0
 10
214.8335611929586
 20
92.03075324701166
 30
0.0
 10
214.727750197343
 20
92.14289389648472
 30
0.0
 10
214.6399902228654
 20
92.27825411450192
 30
0.0
 10
214.5923773309277
 20
92.3632547482804
 30
0.0
 10
214.5860096409994
 20
92.37366138934654
 30
0.0
 10
214.5838721384368
 20
92.37715468474845
 30
0.0
  0
ARC
  5
16E
330
1F
100
AcDbEntity
  8
0
  6
Continuous
 62
     7
370
    25
100
AcDbCircle
 10
215.0299446575
 20
92.5996342286
 30
0.0
 40
0.4984755156848814
100
AcDbArc
 50
178.2925151868
 51
206.5078167509
  0
SPLINE
  5
16F
330
1F
100
AcDbEntity
  8
0
  6
Continuous
 62
     7
370
    25
100
AcDbSpline
210
0.0
220
0.0
230
1.0
 70
     8
 71
     3
 72
    11
 73
     7
 74
     0
 42
0.00000001
 43
0.00000001
 40
0.0
 40
0.0
 40
0.0
 40
0.0
 40
0.2499999999999991
 40
0.5000000000000001
 40
0.7499999999999992
 40
1.0
 40
1.0
 40
1.0
 40
1.0
 10
214.5316904768756
 20
101.4254268627127
 30
0.0
 10
214.5466897820422
 20
101.4645444168788
 30
0.0
 10
214.5766883923754
 20
101.5427795252111
 30
0.0
 10
214.740208095172
 20
101.6394426009193
 30
0.0
 10
214.9657877092544
 20
101.7066308170588
 30
0.0
 10
215.1422131071694
 20
101.7153216912524
 30
0.0
 10
215.230425806127
 20
101.7196671283492
 30
0.0
  0
LINE
  5
170
330
1F
100
AcDbEntity
  8
0
  6
Continuous
 62
     7
370
    25
100
AcDbLine
 10
214.5316904769
 20
101.4254268627
 30
0.0
 11
214.5316904769
 21
92.6144872143
 31
0.0
  0
LINE
  5
171
330
1F
100
AcDbEntity
  8
0
  6
Continuous
 62
     7
370
    25
100
AcDbLine
 10
215.2458033892
 20
91.5488467351
 30
0.0
 11
215.9379635863
 21
91.5488467351
 31
0.0
  0
SPLINE
  5
172
330
1F
100
AcDbEntity
  8
0
  6
Continuous
 62
     7
370
    25
100
AcDbSpline
210
0.0
220
0.0
230
1.0
 70
     8
 71
     3
 72
    11
 73
     7
 74
     0
 42
0.00000001
 43
0.00000001
 40
0.0
 40
0.0
 40
0.0
 40
0.0
 40
0.25
 40
0.5000000000000004
 40
0.7500000000000006
 40
1.0
 40
1.0
 40
1.0
 40
1.0
 10
213.7468312381486
 20
93.08811215756106
 30
0.0
 10
213.7649075485666
 20
92.88773655118499
 30
0.0
 10
213.8010601694027
 20
92.4869853384328
 30
0.0
 10
214.1456859436032
 20
91.97679240039086
 30
0.0
 10
214.6465080297233
 20
91.61881133202417
 30
0.0
 10
215.0460382693841
 20
91.57216826740756
 30
0.0
 10
215.2458033892145
 20
91.54884673509925
 30
0.0
  0
LINE
  5
173
330
1F
100
AcDbEntity
  8
0
  6
Continuous
 62
     7
370
    25
100
AcDbLine
 10
214.3131685182
 20
93.0881121576
 30
0.0
 11
213.7468312381
 21
93.0881121576
 31
0.0
  0
SPLINE
  5
174
330
1F
100
AcDbEntity
  8
0
  6
Continuous
 62
     7
370
    25
100
AcDbSpline
210
0.0
220
0.0
230
1.0
 70
     8
 71
     3
 72
     9
 73
     5
 74
     0
 42
0.00000001
 43
0.00000001
 40
0.0
 40
0.0
 40
0.0
 40
0.0
 40
0.5407747560677784
 40
1.0
 40
1.0
 40
1.0
 40
1.0
 10
214.313168518229
 20
93.08811215756107
 30
0.0
 10
214.3131390178162
 20
93.07677820376038
 30
0.0
 10
214.3130844656898
 20
93.05581947062144
 30
0.0
 10
214.3136887108247
 20
93.03485327775348
 30
0.0
 10
214.3139661954442
 20
93.02522507271938
 30
0.0
  0
ELLIPSE
  5
175
330
1F
100
AcDbEntity
  8
0
  6
Continuous
 62
     7
370
    25
100
AcDbEllipse
 10
215.8121406693
 20
93.0488467351
 30
0.0
 11
-0.3999861399325653
 21
1.445826639360106
 31
0.0
210
0.0
220
0.0
230
1.0
 40
0.9987379186
 41
1.314426961368821
 42
1.316970714136568
  0
ELLIPSE
  5
176
330
1F
100
AcDbEntity
  8
0
  6
Continuous
 62
     7
370
    25
100
AcDbEllipse
 10
216.760833569
 20
93.0488467351
 30
0.0
 11
2.447559743736974
 21
-0.02501587584978892
 31
0.0
210
0.0
220
0.0
230
1.0
 40
0.6127700831
 41
3.171475350442034
 42
3.622568086779188
  0
LINE
  5
177
330
1F
100
AcDbEntity
  8
0
  6
Continuous
 62
     7
370
    25
100
AcDbLine
 10
217.8856498431
 20
93.0881121576
 30
0.0
 11
217.8848521659
 21
93.0252250727
 31
0.0
  0
LINE
  5
178
330
1F
100
AcDbEntity
  8
0
  6
Continuous
 62
     7
370
    25
100
AcDbLine
 10
218.4519871231
 20
93.0881121576
 30
0.0
 11
217.8856498431
 21
93.0881121576
 31
0.0
  0
SPLINE
  5
179
330
1F
100
AcDbEntity
  8
0
  6
Continuous
 62
     7
370
    25
100
AcDbSpline
210
0.0
220
0.0
230
1.0
 70
     8
 71
     3
 72
    11
 73
     7
 74
     0
 42
0.00000001
 43
0.00000001
 40
0.0
 40
0.0
 40
0.0
 40
0.0
 40
0.2499999999999999
 40
0.4999999999999996
 40
0.75
 40
1.0
 40
1.0
 40
1.0
 40
1.0
 10
216.9530149720769
 20
91.54884673509925
 30
0.0
 10
217.1527800919073
 20
91.57216826740756
 30
0.0
 10
217.552310331568
 20
91.61881133202415
 30
0.0
 10
218.0531324176881
 20
91.97679240039086
 30
0.0
 10
218.3977581918887
 20
92.48698533843282
 30
0.0
 10
218.4339108127247
 20
92.88773655118499
 30
0.0
 10
218.4519871231428
 20
93.08811215756106
 30
0.0
  0
LINE
  5
17A
330
1F
100
AcDbEntity
  8
0
  6
Continuous
 62
     7
370
    25
100
AcDbLine
 10
216.260854775
 20
91.5488467351
 30
0.0
 11
216.9530149721
 21
91.5488467351
 31
0.0
  0
ELLIPSE
  5
17B
330
1F
100
AcDbEntity
  8
0
  6
Continuous
 62
     7
370
    25
100
AcDbEllipse
 10
215.4379847923
 20
93.0488467351
 30
0.0
 11
2.447559743736946
 21
0.02501587584980314
 31
0.0
210
0.0
220
0.0
230
1.0
 40
0.6127700831
 41
5.802209873990222
 42
6.253302610327362
  0
ELLIPSE
  5
17C
330
1F
100
AcDbEntity
  8
0
  6
Continuous
 62
     7
370
    25
100
AcDbEllipse
 10
216.386677692
 20
93.0488467351
 30
0.0
 11
0.3999861399325653
 21
1.445826639360106
 31
0.0
210
0.0
220
0.0
230
1.0
 40
0.9987379186
 41
4.966214593033937
 42
4.968758345810766
  0
ELLIPSE
  5
17D
330
1F
100
AcDbEntity
  8
0
  6
Continuous
 62
     7
370
    25
100
AcDbEllipse
 10
214.4835363189
 20
101.0676559863
 30
0.0
 11
0.02159772760037981
 21
0.7999991561933228
 31
0.0
210
0.0
220
0.0
230
1.0
 40
0.0537988877
 41
5.177489007048937
 42
5.369012849440504
  0
ELLIPSE
  5
17E
330
1F
100
AcDbEntity
  8
0
  6
Continuous
 62
     7
370
    25
100
AcDbEllipse
 10
216.2617369052
 20
93.0622819145
 30
0.0
 11
1.947791790405574
 21
-0.01776981143129319
 31
0.0
210
0.0
220
0.0
230
1.0
 40
0.513320833
 41
3.160788584408881
 42
3.623660809788522
  0
LINE
  5
17F
330
1F
100
AcDbEntity
  8
0
  6
Continuous
 62
     7
370
    25
100
AcDbLine
 10
214.3141288815
 20
93.0608567309
 30
0.0
 11
214.5308099927
 21
101.5550921492
 31
0.0
  0
ELLIPSE
  5
180
330
1F
100
AcDbEntity
  8
0
  6
Continuous
 62
     7
370
    25
100
AcDbEllipse
 10
217.7152820424
 20
101.0676559863
 30
0.0
 11
-0.02159772760037981
 21
0.7999991561933228
 31
0.0
210
0.0
220
0.0
230
1.0
 40
0.0537988877
 41
0.9141724577395826
 42
1.105696300131252
  0
LINE
  5
181
330
1F
100
AcDbEntity
  8
0
  6
Continuous
 62
     7
370
    25
100
AcDbLine
 10
217.6680083686
 20
101.5550921492
 30
0.0
 11
217.8846894798
 21
93.060856731
 31
0.0
  0
ELLIPSE
  5
182
330
1F
100
AcDbEntity
  8
0
  6
Continuous
 62
     7
370
    25
100
AcDbEllipse
 10
215.937081456
 20
93.0622819145
 30
0.0
 11
1.947791790405546
 21
0.01776981143132162
 31
0.0
210
0.0
220
0.0
230
0.9999999999999999
 40
0.513320833
 41
5.801117150980872
 42
6.263989376373016
  0
LINE
  5
183
330
1F
100
AcDbEntity
  8
0
  6
Continuous
 62
     7
370
    25
100
AcDbLine
 10
214.3139085464
 20
93.029040301
 30
0.0
 11
214.3141288815
 21
93.0608567309
 31
0.0
  0
SPLINE
  5
184
330
1F
100
AcDbEntity
  8
0
  6
Continuous
 62
     7
370
    25
100
AcDbSpline
210
0.0
220
0.0
230
1.0
 70
     8
 71
     3
 72
     9
 73
     5
 74
     0
 42
0.00000001
 43
0.00000001
 40
0.0
 40
0.0
 40
0.0
 40
0.0
 40
0.8673350121727758
 40
1.0
 40
1.0
 40
1.0
 40
1.0
 10
217.8846894797711
 20
93.06085673096182
 30
0.0
 10
217.8848602119583
 20
93.05165830758662
 30
0.0
 10
217.8850570588339
 20
93.04105292068753
 30
0.0
 10
217.8849270610687
 20
93.03044729608615
 30
0.0
 10
217.8849098149167
 20
93.0290403010275
 30
0.0
  0
ELLIPSE
  5
185
330
1F
100
AcDbEntity
  8
0
  6
Continuous
 62
     7
370
    25
100
AcDbEllipse
 10
215.1998608102
 20
101.0488467351
 30
0.0
 11
0.0209600052571659
 21
1.499999971448744
 31
0.0
210
0.0
220
0.0
230
1.0
 40
0.013963099
 41
5.413231207420207
 42
6.283380418268021
  0
LINE
  5
186
330
1F
100
AcDbEntity
  8
0
  6
Continuous
 62
     7
370
    25
100
AcDbLine
 10
216.9780016328
 20
102.5488467351
 30
0.0
 11
215.2208167285
 21
102.5488467351
 31
0.0
  0
ELLIPSE
  5
187
330
1F
100
AcDbEntity
  8
0
  6
Continuous
 62
     7
370
    25
100
AcDbEllipse
 10
216.9989575511
 20
101.0488467351
 30
0.0
 11
-0.0209600052571659
 21
1.499999971448744
 31
0.0
210
0.0
220
0.0
230
1.0
 40
0.013963099
 41
6.282990196092133
 42
7.153139406940038
  0
SPLINE
  5
188
330
1F
100
AcDbEntity
  8
0
  6
Continuous
 62
     7
370
    25
100
AcDbSpline
210
0.0
220
0.0
230
1.0
 70
     8
 71
     3
 72
     9
 73
     5
 74
     0
 42
0.00000001
 43
0.00000001
 40
0.0
 40
0.0
 40
0.0
 40
0.0
 40
0.5600029565045499
 40
1.0
 40
1.0
 40
1.0
 40
1.0
 10
216.9694332672696
 20
102.0159154759398
 30
0.0
 10
216.9694389053358
 20
102.0061290137799
 30
0.0
 10
216.9694489732581
 20
101.9886532807569
 30
0.0
 10
216.9693267966547
 20
101.9706923130911
 30
0.0
 10
216.9692730393103
 20
101.9627895404198
 30
0.0
  0
ELLIPSE
  5
189
330
1F
100
AcDbEntity
  8
0
  6
Continuous
 62
     7
370
    25
100
AcDbEllipse
 10
217.0165467132
 20
101.0488467351
 30
0.0
 11
-0.02155295842283067
 21
1.499999872388898
 31
0.0
210
0.0
220
0.0
230
1.0
 40
0.0287076702
 41
0.9152123852433427
 42
1.106736227634813
  0
ELLIPSE
  5
18A
330
1F
100
AcDbEntity
  8
0
  6
Continuous
 62
     7
370
    25
100
AcDbEllipse
 10
215.1822716481
 20
101.0488467351
 30
0.0
 11
0.02155295842283067
 21
1.499999872388898
 31
0.0
210
0.0
220
0.0
230
1.0
 40
0.0287076702
 41
5.176449079544574
 42
5.367972921936406
  0
SPLINE
  5
18B
330
1F
100
AcDbEntity
  8
0
  6
Continuous
 62
     7
370
    25
100
AcDbSpline
210
0.0
220
0.0
230
1.0
 70
     8
 71
     3
 72
     9
 73
     5
 74
     0
 42
0.00000001
 43
0.00000001
 40
0.0
 40
0.0
 40
0.0
 40
0.0
 40
0.5599925069634167
 40
1.0
 40
1.0
 40
1.0
 40
1.0
 10
215.229545321981
 20
101.9627895404198
 30
0.0
 10
215.2294795768296
 20
101.9728371347227
 30
0.0
 10
215.2293621732026
 20
101.9907795074829
 30
0.0
 10
215.2293780903553
 20
102.0082349503042
 30
0.0
 10
215.2293850940217
 20
102.0159154759398
 30
0.0
  0
SPLINE
  5
18C
330
1F
100
AcDbEntity
  8
0
  6
Continuous
 62
     7
370
    25
100
AcDbSpline
210
0.0
220
0.0
230
1.0
 70
     8
 71
     3
 72
    12
 73
     8
 74
     0
 42
0.00000001
 43
0.00000001
 40
0.0
 40
0.0
 40
0.0
 40
0.0
 40
0.2225634137434412
 40
0.4462063173695272
 40
0.6680851268156954
 40
0.8917990985568369
 40
1.0
 40
1.0
 40
1.0
 40
1.0
 10
214.5308099927297
 20
101.5550921491504
 30
0.0
 10
214.5431631002964
 20
101.6026780924567
 30
0.0
 10
214.5679292311834
 20
101.6980807831512
 30
0.0
 10
214.7005131591813
 20
101.8222995157241
 30
0.0
 10
214.8868705626759
 20
101.9141893168286
 30
0.0
 10
215.0749613740292
 20
101.9566448958386
 30
0.0
 10
215.1915414069175
 20
101.9612789013538
 30
0.0
 10
215.229545321981
 20
101.9627895404198
 30
0.0
  0
SPLINE
  5
18D
330
1F
100
AcDbEntity
  8
0
  6
Continuous
 62
     7
370
    25
100
AcDbSpline
210
0.0
220
0.0
230
1.0
 70
     8
 71
     3
 72
    12
 73
     8
 74
     0
 42
0.00000001
 43
0.00000001
 40
0.0
 40
0.0
 40
0.0
 40
0.0
 40
0.2225634137435274
 40
0.446206317369568
 40
0.6680851268158019
 40
0.8917990985569333
 40
1.0
 40
1.0
 40
1.0
 40
1.0
 10
216.9692730393103
 20
101.9627895404198
 30
0.0
 10
217.0477766993529
 20
101.9573624678061
 30
0.0
 10
217.2051647824096
 20
101.9464819998787
 30
0.0
 10
217.414516320037
 20
101.8711885688584
 30
0.0
 10
217.573275614507
 20
101.7617100241051
 30
0.0
 10
217.6511244848237
 20
101.6489953835586
 30
0.0
 10
217.6638575256571
 20
101.5781779261144
 30
0.0
 10
217.6680083685617
 20
101.5550921491504
 30
0.0
  0
SPLINE
  5
18E
330
1F
100
AcDbEntity
  8
0
  6
Continuous
 62
     7
370
    25
100
AcDbSpline
210
0.0
220
0.0
230
1.0
 70
     8
 71
     3
 72
    12
 73
     8
 74
     0
 42
0.00000001
 43
0.00000001
 40
0.0
 40
0.0
 40
0.0
 40
0.0
 40
0.2198609600791296
 40
0.4397396970008153
 40
0.6583291451397748
 40
0.8791239516843598
 40
1.0
 40
1.0
 40
1.0
 40
1.0
 10
217.6689536044337
 20
101.5829405940297
 30
0.0
 10
217.6582816097896
 20
101.6334288101576
 30
0.0
 10
217.636936757618
 20
101.7344093246346
 30
0.0
 10
217.508818362351
 20
101.8660723175846
 30
0.0
 10
217.3258804262859
 20
101.9636336403577
 30
0.0
 10
217.1343312543988
 20
102.0102930318344
 30
0.0
 10
217.0125255827138
 20
102.0144461788357
 30
0.0
 10
216.9694332672696
 20
102.0159154759398
 30
0.0
  0
SPLINE
  5
18F
330
1F
100
AcDbEntity
  8
0
  6
Continuous
 62
     7
370
    25
100
AcDbSpline
210
0.0
220
0.0
230
1.0
 70
     8
 71
     3
 72
    12
 73
     8
 74
     0
 42
0.00000001
 43
0.00000001
 40
0.0
 40
0.0
 40
0.0
 40
0.0
 40
0.2198610998683198
 40
0.4397399767664984
 40
0.6583294271823332
 40
0.8791242261983196
 40
1.0
 40
1.0
 40
1.0
 40
1.0
 10
215.2293850940217
 20
102.0159154759398
 30
0.0
 10
215.1506941843026
 20
102.0110916825902
 30
0.0
 10
214.9933060022533
 20
102.0014437058597
 30
0.0
 10
214.7840242537683
 20
101.9242695681979
 30
0.0
 10
214.6253749331039
 20
101.8104020589858
 30
0.0
 10
214.5452748703887
 20
101.6889214894821
 30
0.0
 10
214.533891833087
 20
101.6106362462376
 30
0.0
 10
214.5298647568576
 20
101.5829405940297
 30
0.0
  0
LINE
  5
190
330
1F
100
AcDbEntity
  8
0
  6
Continuous
 62
     7
370
    25
100
AcDbLine
 10
217.1054912903
 20
102.5239123568
 30
0.0
 11
216.9780016328
 21
102.5488467351
 31
0.0
  0
ELLIPSE
  5
191
330
1F
100
AcDbEntity
  8
0
  6
Continuous
 62
     7
370
    25
100
AcDbEllipse
 10
217.6984778883
 20
101.0671705989
 30
0.0
 11
-0.02097028290364733
 21
0.7999998117962974
 31
0.0
210
0.0
220
0.0
230
0.9999999999999999
 40
0.0261679535
 41
6.28249937039185
 42
7.152648581238251
  0
ELLIPSE
  5
192
330
1F
100
AcDbEntity
  8
0
  6
Continuous
 62
     7
370
    25
100
AcDbEllipse
 10
214.500340473
 20
101.0671705989
 30
0.0
 11
0.02097028290361891
 21
0.7999998117962973
 31
0.0
210
0.0
220
0.0
230
1.0
 40
0.0261679535
 41
5.413722033121442
 42
6.283871243967846
  0
SPLINE
  5
193
330
1F
100
AcDbEntity
  8
0
  6
Continuous
 62
     7
370
    25
100
AcDbSpline
210
0.0
220
0.0
230
1.0
 70
     8
 71
     3
 72
    11
 73
     7
 74
     0
 42
0.00000001
 43
0.00000001
 40
0.0
 40
0.0
 40
0.0
 40
0.0
 40
0.2499999999999969
 40
0.5000000000000007
 40
0.7499999999999996
 40
1.0
 40
1.0
 40
1.0
 40
1.0
 10
214.5212963913322
 20
101.8671705989148
 30
0.0
 10
214.5338169075548
 20
101.9570696460418
 30
0.0
 10
214.5588579399999
 20
102.1368677402958
 30
0.0
 10
214.7215014096225
 20
102.3615839495308
 30
0.0
 10
214.950321145677
 20
102.5183450345602
 30
0.0
 10
215.1306515342232
 20
102.5386795015862
 30
0.0
 10
215.2208167284963
 20
102.5488467350992
 30
0.0
  0
LINE
  5
194
330
1F
100
AcDbEntity
  8
0
  6
Continuous
 62
     7
370
    25
100
AcDbLine
 10
217.8839953213
 20
93.0880688175
 30
0.0
 11
217.8856498431
 21
93.0881121576
 31
0.0
  0
LINE
  5
195
330
1F
100
AcDbEntity
  8
0
  6
Continuous
 62
     7
370
    25
100
AcDbLine
 10
214.31482304
 20
93.0880688175
 30
0.0
 11
214.3131685182
 21
93.0881121576
 31
0.0
  0
SPLINE
  5
196
330
1F
100
AcDbEntity
  8
0
  6
Continuous
 62
     7
370
    25
100
AcDbSpline
210
0.0
220
0.0
230
1.0
 70
     8
 71
     3
 72
     9
 73
     5
 74
     0
 42
0.00000001
 43
0.00000001
 40
0.0
 40
0.0
 40
0.0
 40
0.0
 40
0.5600012771711204
 40
1.0
 40
1.0
 40
1.0
 40
1.0
 10
213.7468312381486
 20
93.08811215756106
 30
0.0
 10
213.7586656504936
 20
94.01716179698924
 30
0.0
 10
213.7797984814843
 20
95.67617522660377
 30
0.0
 10
213.8007592108968
 20
97.33295446177036
 30
0.0
 10
213.8099819050678
 20
98.06193520925306
 30
0.0
  0
SPLINE
  5
197
330
1F
100
AcDbEntity
  8
0
  6
Continuous
 62
     7
370
    25
100
AcDbSpline
210
0.0
220
0.0
230
1.0
 70
     8
 71
     3
 72
     9
 73
     5
 74
     0
 42
0.00000001
 43
0.00000001
 40
0.0
 40
0.0
 40
0.0
 40
0.0
 40
0.5599999095971039
 40
1.0
 40
1.0
 40
1.0
 40
1.0
 10
213.8099819050678
 20
98.06193520925306
 30
0.0
 10
213.8122793149651
 20
98.24373692400188
 30
0.0
 10
213.816381833301
 20
98.56838289560498
 30
0.0
 10
213.820478226494
 20
98.89294910115949
 30
0.0
 10
213.8222806398693
 20
99.0357582609452
 30
0.0
  0
LINE
  5
198
330
1F
100
AcDbEntity
  8
0
  6
Continuous
 62
     7
370
    25
100
AcDbLine
 10
213.8222806399
 20
99.0357582609
 30
0.0
 11
213.4939525105
 21
99.0357582609
 31
0.0
  0
LINE
  5
199
330
1F
100
AcDbEntity
  8
0
  6
Continuous
 62
     7
370
    25
100
AcDbLine
 10
213.4939525105
 20
99.0357582609
 30
0.0
 11
213.6237284237
 21
101.8671705989
 31
0.0
  0
LINE
  5
19A
330
1F
100
AcDbEntity
  8
0
  6
Continuous
 62
     7
370
    25
100
AcDbLine
 10
213.6237284237
 20
101.8671705989
 30
0.0
 11
214.5212963913
 21
101.8671705989
 31
0.0
  0
LINE
  5
19B
330
1F
100
AcDbEntity
  8
0
  6
Continuous
 62
     7
370
    25
100
AcDbLine
 10
214.5298647569
 20
101.582940594
 30
0.0
 11
214.3131685182
 21
93.0881121576
 31
0.0
  0
LINE
  5
19C
330
1F
100
AcDbEntity
  8
0
  6
Continuous
 62
     7
370
    25
100
AcDbLine
 10
218.7048658508
 20
99.0357582609
 30
0.0
 11
218.3765377214
 21
99.0357582609
 31
0.0
  0
SPLINE
  5
19D
330
1F
100
AcDbEntity
  8
0
  6
Continuous
 62
     7
370
    25
100
AcDbSpline
210
0.0
220
0.0
230
1.0
 70
     8
 71
     3
 72
     9
 73
     5
 74
     0
 42
0.00000001
 43
0.00000001
 40
0.0
 40
0.0
 40
0.0
 40
0.0
 40
0.5600000882143262
 40
1.0
 40
1.0
 40
1.0
 40
1.0
 10
218.376537721422
 20
99.0357582609452
 30
0.0
 10
218.3788318375631
 20
98.85399939011342
 30
0.0
 10
218.382928472884
 20
98.52943002904178
 30
0.0
 10
218.3870312393433
 20
98.20478082874496
 30
0.0
 10
218.3888364562235
 20
98.06193520925306
 30
0.0
  0
SPLINE
  5
19E
330
1F
100
AcDbEntity
  8
0
  6
Continuous
 62
     7
370
    25
100
AcDbSpline
210
0.0
220
0.0
230
1.0
 70
     8
 71
     3
 72
     9
 73
     5
 74
     0
 42
0.00000001
 43
0.00000001
 40
0.0
 40
0.0
 40
0.0
 40
0.0
 40
0.5599987526606142
 40
1.0
 40
1.0
 40
1.0
 40
1.0
 10
218.3888364562235
 20
98.06193520925306
 30
0.0
 10
218.4005780427459
 20
97.13409390940373
 30
0.0
 10
218.4215452082379
 20
95.47723075490377
 30
0.0
 10
218.44268540861
 20
93.81812205499331
 30
0.0
 10
218.4519871231428
 20
93.08811215756107
 30
0.0
  0
LINE
  5
19F
330
1F
100
AcDbEntity
  8
0
  6
Continuous
 62
     7
370
    25
100
AcDbLine
 10
217.8856498431
 20
93.0881121576
 30
0.0
 11
217.6689536044
 21
101.582940594
 31
0.0
  0
LINE
  5
1A0
330
1F
100
AcDbEntity
  8
0
  6
Continuous
 62
     7
370
    25
100
AcDbLine
 10
217.67752197
 20
101.8671705989
 30
0.0
 11
218.5750899376
 21
101.8671705989
 31
0.0
  0
LINE
  5
1A1
330
1F
100
AcDbEntity
  8
0
  6
Continuous
 62
     7
370
    25
100
AcDbLine
 10
218.5750899376
 20
101.8671705989
 30
0.0
 11
218.7048658508
 21
99.0357582609
 31
0.0
  0
LINE
  5
1A2
330
1F
100
AcDbEntity
  8
0
  6
Continuous
 62
     7
370
    25
100
AcDbLine
 10
215.2208167285
 20
102.5488467351
 30
0.0
 11
214.3232487609
 21
102.5488467351
 31
0.0
  0
SPLINE
  5
1A3
330
1F
100
AcDbEntity
  8
0
  6
Continuous
 62
     7
370
    25
100
AcDbSpline
210
0.0
220
0.0
230
1.0
 70
     8
 71
     3
 72
    11
 73
     7
 74
     0
 42
0.00000001
 43
0.00000001
 40
0.0
 40
0.0
 40
0.0
 40
0.0
 40
0.2500000000000036
 40
0.500000000000002
 40
0.7500000000000007
 40
1.0
 40
1.0
 40
1.0
 40
1.0
 10
213.6237284237131
 20
101.8671705989148
 30
0.0
 10
213.6362489399356
 20
101.9570696460418
 30
0.0
 10
213.6612899723808
 20
102.1368677402958
 30
0.0
 10
213.8239334420034
 20
102.3615839495308
 30
0.0
 10
214.0527531780578
 20
102.5183450345603
 30
0.0
 10
214.233083566604
 20
102.5386795015863
 30
0.0
 10
214.3232487608771
 20
102.5488467350993
 30
0.0
  0
LINE
  5
1A4
330
1F
100
AcDbEntity
  8
0
  6
Continuous
 62
     7
370
    25
100
AcDbLine
 10
217.8755696004
 20
102.5488467351
 30
0.0
 11
216.9780016328
 21
102.5488467351
 31
0.0
  0
SPLINE
  5
1A5
330
1F
100
AcDbEntity
  8
0
  6
Continuous
 62
     7
370
    25
100
AcDbSpline
210
0.0
220
0.0
230
1.0
 70
     8
 71
     3
 72
    11
 73
     7
 74
     0
 42
0.00000001
 43
0.00000001
 40
0.0
 40
0.0
 40
0.0
 40
0.0
 40
0.2499999999999998
 40
0.4999999999999991
 40
0.7500000000000027
 40
1.0
 40
1.0
 40
1.0
 40
1.0
 10
217.8755696004142
 20
102.5488467350993
 30
0.0
 10
217.9657347946873
 20
102.5386795015863
 30
0.0
 10
218.1460651832335
 20
102.5183450345602
 30
0.0
 10
218.374884919288
 20
102.3615839495308
 30
0.0
 10
218.5375283889106
 20
102.1368677402958
 30
0.0
 10
218.5625694213557
 20
101.9570696460418
 30
0.0
 10
218.5750899375783
 20
101.8671705989148
 30
0.0
  0
LINE
  5
1A6
330
1F
100
AcDbEntity
  8
0
  6
Continuous
 62
     7
370
    25
100
AcDbLine
 10
213.2344607685
 20
98.5488467351
 30
0.0
 11
213.0003656347
 21
98.5488467351
 31
0.0
  0
SPLINE
  5
1A7
330
1F
100
AcDbEntity
  8
0
  6
Continuous
 62
     7
370
    25
100
AcDbSpline
210
0.0
220
0.0
230
1.0
 70
     8
 71
     3
 72
    10
 73
     6
 74
     0
 42
0.00000001
 43
0.00000001
 40
0.0
 40
0.0
 40
0.0
 40
0.0
 40
0.2383396858856103
 40
0.5716506333689653
 40
1.0
 40
1.0
 40
1.0
 40
1.0
 10
213.2408867385909
 20
98.54884673509916
 30
0.0
 10
213.3154849410178
 20
98.5578054780188
 30
0.0
 10
213.4944065062917
 20
98.57929275591454
 30
0.0
 10
213.7307506185467
 20
98.75295513886763
 30
0.0
 10
213.7893339947321
 20
98.93396199812221
 30
0.0
 10
213.8222806398693
 20
99.03575826094539
 30
0.0
  0
SPLINE
  5
1A8
330
1F
100
AcDbEntity
  8
0
  6
Continuous
 62
     7
370
    25
100
AcDbSpline
210
0.0
220
0.0
230
1.0
 70
     8
 71
     3
 72
    11
 73
     7
 74
     0
 42
0.00000001
 43
0.00000001
 40
0.0
 40
0.0
 40
0.0
 40
0.0
 40
0.250667172502349
 40
0.5010414677145716
 40
0.7508849997170931
 40
1.0
 40
1.0
 40
1.0
 40
1.0
 10
213.7468312381486
 20
93.08811215756106
 30
0.0
 10
213.7199566714934
 20
93.11761817756026
 30
0.0
 10
213.6662389381872
 20
93.17659574298784
 30
0.0
 10
213.3807734745333
 20
93.26332901179957
 30
0.0
 10
212.9592453279136
 20
93.34765004202607
 30
0.0
 10
212.5428882502166
 20
93.40023303464065
 30
0.0
 10
212.3350136738401
 20
93.42648614260948
 30
0.0
  0
SPLINE
  5
1A9
330
1F
100
AcDbEntity
  8
0
  6
Continuous
 62
     7
370
    25
100
AcDbSpline
210
0.0
220
0.0
230
1.0
 70
     8
 71
     3
 72
     9
 73
     5
 74
     0
 42
0.00000001
 43
0.00000001
 40
0.0
 40
0.0
 40
0.0
 40
0.0
 40
0.501325902198991
 40
1.0
 40
1.0
 40
1.0
 40
1.0
 10
212.335013620476
 20
93.42648590832223
 30
0.0
 10
212.2099709630059
 20
93.43790775543486
 30
0.0
 10
211.9605470714383
 20
93.4606910328648
 30
0.0
 10
211.6587789630171
 20
93.45775307895732
 30
0.0
 10
211.508295023805
 20
93.45628799744313
 30
0.0
  0
LINE
  5
1AA
330
1F
100
AcDbEntity
  8
0
  6
Continuous
 62
     7
370
    25
100
AcDbLine
 10
211.3935285845
 20
97.048957741
 30
0.0
 11
211.508303792
 21
93.4563876544
 31
0.0
  0
SPLINE
  5
1AB
330
1F
100
AcDbEntity
  8
0
  6
Continuous
 62
     7
370
    25
100
AcDbSpline
210
0.0
220
0.0
230
1.0
 70
     8
 71
     3
 72
    14
 73
    10
 74
     0
 42
0.00000001
 43
0.00000001
 40
0.0
 40
0.0
 40
0.0
 40
0.0
 40
0.0829413618596713
 40
0.1664594845668898
 40
0.2437726390188678
 40
0.3161479456895739
 40
0.4353725718192335
 40
0.6486290670514198
 40
1.0
 40
1.0
 40
1.0
 40
1.0
 10
211.3935285893083
 20
97.04895772835997
 30
0.0
 10
211.3953437788907
 20
97.13882163594984
 30
0.0
 10
211.398986780591
 20
97.31917435024314
 30
0.0
 10
211.4806479130785
 20
97.60705906102906
 30
0.0
 10
211.6139313933634
 20
97.8585850884558
 30
0.0
 10
211.802257849601
 20
98.09253441835683
 30
0.0
 10
212.1005249292633
 20
98.3333453888648
 30
0.0
 10
212.5585520880486
 20
98.52528699210418
 30
0.0
 10
212.8308876167265
 20
98.53980029572706
 30
0.0
 10
213.0003636003763
 20
98.5488320089943
 30
0.0
  0
LINE
  5
1AC
330
1F
100
AcDbEntity
  8
0
  6
Continuous
 62
     7
370
    25
100
AcDbLine
 10
220.6905145693
 20
93.4563876544
 30
0.0
 11
220.8052897768
 21
97.048957741
 31
0.0
  0
SPLINE
  5
1AD
330
1F
100
AcDbEntity
  8
0
  6
Continuous
 62
     7
370
    25
100
AcDbSpline
210
0.0
220
0.0
230
1.0
 70
     8
 71
     3
 72
     9
 73
     5
 74
     0
 42
0.00000001
 43
0.00000001
 40
0.0
 40
0.0
 40
0.0
 40
0.0
 40
0.4986740982738612
 40
1.0
 40
1.0
 40
1.0
 40
1.0
 10
220.6905235193216
 20
93.45628716803994
 30
0.0
 10
220.5400395830426
 20
93.45775224729658
 30
0.0
 10
220.2382714807892
 20
93.4606901966742
 30
0.0
 10
219.9888475891669
 20
93.43790691774248
 30
0.0
 10
219.8638049317873
 20
93.42648506988776
 30
0.0
  0
SPLINE
  5
1AE
330
1F
100
AcDbEntity
  8
0
  6
Continuous
 62
     7
370
    25
100
AcDbSpline
210
0.0
220
0.0
230
1.0
 70
     8
 71
     3
 72
    11
 73
     7
 74
     0
 42
0.00000001
 43
0.00000001
 40
0.0
 40
0.0
 40
0.0
 40
0.0
 40
0.2491150002829083
 40
0.4989585322854289
 40
0.749332827497652
 40
1.0
 40
1.0
 40
1.0
 40
1.0
 10
219.8638046874512
 20
93.42648614260948
 30
0.0
 10
219.6559301110747
 20
93.40023303464065
 30
0.0
 10
219.2395730333777
 20
93.34765004202607
 30
0.0
 10
218.8180448867581
 20
93.26332901179956
 30
0.0
 10
218.5325794231042
 20
93.17659574298787
 30
0.0
 10
218.4788616897979
 20
93.11761817756026
 30
0.0
 10
218.4519871231428
 20
93.08811215756106
 30
0.0
  0
SPLINE
  5
1AF
330
1F
100
AcDbEntity
  8
0
  6
Continuous
 62
     7
370
    25
100
AcDbSpline
210
0.0
220
0.0
230
1.0
 70
     8
 71
     3
 72
    10
 73
     6
 74
     0
 42
0.00000001
 43
0.00000001
 40
0.0
 40
0.0
 40
0.0
 40
0.0
 40
0.4283493666310625
 40
0.7616603141144174
 40
1.0
 40
1.0
 40
1.0
 40
1.0
 10
218.376537721422
 20
99.0357582609454
 30
0.0
 10
218.4094843665592
 20
98.93396199812224
 30
0.0
 10
218.4680677427446
 20
98.75295513886772
 30
0.0
 10
218.7044118549996
 20
98.57929275591461
 30
0.0
 10
218.8833334202733
 20
98.55780547801882
 30
0.0
 10
218.9579316227002
 20
98.54884673509916
 30
0.0
  0
LINE
  5
1B0
330
1F
100
AcDbEntity
  8
0
  6
Continuous
 62
     7
370
    25
100
AcDbLine
 10
218.9643575931
 20
98.5488467351
 30
0.0
 11
219.1984527269
 21
98.5488467351
 31
0.0
  0
SPLINE
  5
1B1
330
1F
100
AcDbEntity
  8
0
  6
Continuous
 62
     7
370
    25
100
AcDbSpline
210
0.0
220
0.0
230
1.0
 70
     8
 71
     3
 72
    15
 73
    11
 74
     0
 42
0.00000001
 43
0.00000001
 40
0.0
 40
0.0
 40
0.0
 40
0.0
 40
0.2091652517822445
 40
0.4176299509274902
 40
0.5931463878153087
 40
0.6923603779431098
 40
0.7731125739307014
 40
0.8543366880968448
 40
0.9261517123972136
 40
1.0
 40
1.0
 40
1.0
 40
1.0
 10
219.1984547611465
 20
98.54883200899326
 30
0.0
 10
219.2961523936359
 20
98.54574051849477
 30
0.0
 10
219.4912204420552
 20
98.53956789175983
 30
0.0
 10
219.8405002954077
 20
98.44929443194964
 30
0.0
 10
220.1733904823511
 20
98.28068797984625
 30
0.0
 10
220.4350085683871
 20
98.05123927179326
 30
0.0
 10
220.6156025813009
 20
97.81346022853693
 30
0.0
 10
220.7376967446112
 20
97.55154373169842
 30
0.0
 10
220.8017467339297
 20
97.28600215696045
 30
0.0
 10
220.8040978199676
 20
97.12870442593888
 30
0.0
 10
220.8052897719811
 20
97.04895772838012
 30
0.0
  0
SPLINE
  5
1B2
330
1F
100
AcDbEntity
  8
0
  6
Continuous
 62
     7
370
    25
100
AcDbSpline
210
0.0
220
0.0
230
1.0
 70
     8
 71
     3
 72
    11
 73
     7
 74
     0
 42
0.00000001
 43
0.00000001
 40
0.0
 40
0.0
 40
0.0
 40
0.0
 40
0.2795638428304259
 40
0.5590315778757567
 40
0.7794196683313493
 40
1.0
 40
1.0
 40
1.0
 40
1.0
 10
212.3350136738401
 20
93.42648614260948
 30
0.0
 10
212.3112644977132
 20
93.16922053242864
 30
0.0
 10
212.263774309894
 20
92.65477775421931
 30
0.0
 10
212.5994613913122
 20
92.01226355498015
 30
0.0
 10
213.0781762805756
 20
91.62059025378623
 30
0.0
 10
213.4300618512449
 20
91.57276819070826
 30
0.0
 10
213.6060813392475
 20
91.54884673509925
 30
0.0
  0
SPLINE
  5
1B3
330
1F
100
AcDbEntity
  8
0
  6
Continuous
 62
     7
370
    25
100
AcDbSpline
210
0.0
220
0.0
230
1.0
 70
    24
 71
     3
 72
    11
 73
     7
 74
     0
 42
0.00000001
 43
0.00000001
 40
0.0
 40
0.0
 40
0.0
 40
0.0
 40
0.2799317596299059
 40
0.5599103390525026
 40
0.7799480709991914
 40
1.0
 40
1.0
 40
1.0
 40
1.0
 10
213.6060813392475
 20
91.54884673509925
 30
0.0
 10
213.8736492966871
 20
91.54884673509925
 30
0.0
 10
214.4088299634597
 20
91.54884673509925
 30
0.0
 10
214.8826967571221
 20
91.54884673509925
 30
0.0
 10
215.1679465146708
 20
91.54884673509926
 30
0.0
 10
215.219850539568
 20
91.54884673509925
 30
0.0
 10
215.2458033892145
 20
91.54884673509925
 30
0.0
  0
SPLINE
  5
1B4
330
1F
100
AcDbEntity
  8
0
  6
Continuous
 62
     7
370
    25
100
AcDbSpline
210
0.0
220
0.0
230
1.0
 70
     8
 71
     3
 72
    11
 73
     7
 74
     0
 42
0.00000001
 43
0.00000001
 40
0.0
 40
0.0
 40
0.0
 40
0.0
 40
0.2795638428677818
 40
0.5590315779132449
 40
0.7794196683689383
 40
0.9999999999999999
 40
0.9999999999999999
 40
0.9999999999999999
 40
0.9999999999999999
 10
218.5927370220438
 20
91.54884673509925
 30
0.0
 10
218.81671743761
 20
91.58736558704734
 30
0.0
 10
219.2646012692645
 20
91.66439004902017
 30
0.0
 10
219.72454150437
 20
92.19718794680986
 30
0.0
 10
219.9359159452693
 20
92.82492451367624
 30
0.0
 10
219.88784875839
 20
93.2259073298449
 30
0.0
 10
219.8638046874512
 20
93.42648614260948
 30
0.0
  0
SPLINE
  5
1B5
330
1F
100
AcDbEntity
  8
0
  6
Continuous
 62
     7
370
    25
100
AcDbSpline
210
0.0
220
0.0
230
1.0
 70
    24
 71
     3
 72
    11
 73
     7
 74
     0
 42
0.00000001
 43
0.00000001
 40
0.0
 40
0.0
 40
0.0
 40
0.0
 40
0.2799857774483056
 40
0.5599458358671284
 40
0.7799985659009365
 40
0.9999999999999999
 40
0.9999999999999999
 40
0.9999999999999999
 40
0.9999999999999999
 10
216.9530149720768
 20
91.54884673509925
 30
0.0
 10
216.9907686916847
 20
91.54884673509925
 30
0.0
 10
217.0662726629064
 20
91.54884673509925
 30
0.0
 10
217.4478258132152
 20
91.54884673509925
 30
0.0
 10
217.9512564950282
 20
91.54884673509926
 30
0.0
 10
218.3789267971656
 20
91.54884673509926
 30
0.0
 10
218.5927370220438
 20
91.54884673509925
 30
0.0
  0
SPLINE
  5
1B6
330
1F
100
AcDbEntity
  8
0
  6
Continuous
 62
     7
370
    25
100
AcDbSpline
210
0.0
220
0.0
230
1.0
 70
     8
 71
     3
 72
    11
 73
     7
 74
     0
 42
0.00000001
 43
0.00000001
 40
0.0
 40
0.0
 40
0.0
 40
0.0
 40
0.2500000000000006
 40
0.5000000000000007
 40
0.7499999999999996
 40
1.0
 40
1.0
 40
1.0
 40
1.0
 10
219.2045232344502
 20
98.54884673509925
 30
0.0
 10
219.1401195242551
 20
98.55610904475138
 30
0.0
 10
219.011312103865
 20
98.57063366405568
 30
0.0
 10
218.8478694352546
 20
98.68260586764816
 30
0.0
 10
218.7316955283814
 20
98.84311744567313
 30
0.0
 10
218.7138090766348
 20
98.97154465585459
 30
0.0
 10
218.7048658507616
 20
99.03575826094531
 30
0.0
  0
SPLINE
  5
1B7
330
1F
100
AcDbEntity
  8
0
  6
Continuous
 62
     7
370
    25
100
AcDbSpline
210
0.0
220
0.0
230
1.0
 70
     8
 71
     3
 72
    11
 73
     7
 74
     0
 42
0.00000001
 43
0.00000001
 40
0.0
 40
0.0
 40
0.0
 40
0.0
 40
0.2500000000000003
 40
0.4999999999999991
 40
0.7499999999999989
 40
0.9999999999999999
 40
0.9999999999999999
 40
0.9999999999999999
 40
0.9999999999999999
 10
213.4939525105297
 20
99.03575826094531
 30
0.0
 10
213.4850092846565
 20
98.97154465585459
 30
0.0
 10
213.46712283291
 20
98.84311744567313
 30
0.0
 10
213.3509489260367
 20
98.68260586764815
 30
0.0
 10
213.1875062574263
 20
98.57063366405568
 30
0.0
 10
213.0586988370362
 20
98.55610904475138
 30
0.0
 10
212.9942951268411
 20
98.54884673509925
 30
0.0
  0
SPLINE
  5
1B8
330
1F
100
AcDbEntity
  8
0
  6
Continuous
 62
     7
370
    25
100
AcDbSpline
210
0.0
220
0.0
230
1.0
 70
     8
 71
     3
 72
     9
 73
     5
 74
     0
 42
0.00000001
 43
0.00000001
 40
0.0
 40
0.0
 40
0.0
 40
0.0
 40
0.5642319118445198
 40
0.9999999999999999
 40
0.9999999999999999
 40
0.9999999999999999
 40
0.9999999999999999
 10
211.3976941356463
 20
91.37339377395013
 30
0.0
 10
211.8731257469198
 20
91.42697574267744
 30
0.0
 10
212.7157431198351
 20
91.5219401847845
 30
0.0
 10
213.3358559547403
 20
91.540680363325
 30
0.0
 10
213.6060813392475
 20
91.54884673509925
 30
0.0
  0
SPLINE
  5
1B9
330
1F
100
AcDbEntity
  8
0
  6
Continuous
 62
     7
370
    25
100
AcDbSpline
210
0.0
220
0.0
230
1.0
 70
     8
 71
     3
 72
    13
 73
     9
 74
     0
 42
0.00000001
 43
0.00000001
 40
0.0
 40
0.0
 40
0.0
 40
0.0
 40
0.0926677825201017
 40
0.1856533156297215
 40
0.2733112842947874
 40
0.413548892575832
 40
0.6528449691515644
 40
1.0
 40
1.0
 40
1.0
 40
1.0
 10
211.5082941214041
 20
93.45628724874847
 30
0.0
 10
211.5107287888551
 20
93.36205253162967
 30
0.0
 10
211.5156064720419
 20
93.1732599739062
 30
0.0
 10
211.5155319848958
 20
92.86004956968534
 30
0.0
 10
211.5091449278395
 20
92.51831543489224
 30
0.0
 10
211.4912302817427
 20
92.10146127798888
 30
0.0
 10
211.4541685409762
 20
91.618232632326
 30
0.0
 10
211.4186937554225
 20
91.46443542197275
 30
0.0
 10
211.3976941356463
 20
91.37339377395013
 30
0.0
  0
SPLINE
  5
1BA
330
1F
100
AcDbEntity
  8
0
  6
Continuous
 62
     7
370
    25
100
AcDbSpline
210
0.0
220
0.0
230
1.0
 70
     8
 71
     3
 72
     9
 73
     5
 74
     0
 42
0.00000001
 43
0.00000001
 40
0.0
 40
0.0
 40
0.0
 40
0.0
 40
0.5551829690770671
 40
0.9999999999999999
 40
0.9999999999999999
 40
0.9999999999999999
 40
0.9999999999999999
 10
218.5927370220438
 20
91.54884673509925
 30
0.0
 10
218.9429914807918
 20
91.5358477146082
 30
0.0
 10
219.5738726105397
 20
91.51243377503316
 30
0.0
 10
220.4232892417386
 20
91.41620013568145
 30
0.0
 10
220.8011242256451
 20
91.37339377395013
 30
0.0
  0
SPLINE
  5
1BB
330
1F
100
AcDbEntity
  8
0
  6
Continuous
 62
     7
370
    25
100
AcDbSpline
210
0.0
220
0.0
230
1.0
 70
     8
 71
     3
 72
    13
 73
     9
 74
     0
 42
0.00000001
 43
0.00000001
 40
0.0
 40
0.0
 40
0.0
 40
0.0
 40
0.3327087167328941
 40
0.5628656559531299
 40
0.69871241253847
 40
0.8016200683166478
 40
0.9052998751809794
 40
1.0
 40
1.0
 40
1.0
 40
1.0
 10
220.8011242256451
 20
91.37339377395013
 30
0.0
 10
220.780991401738
 20
91.45917934886828
 30
0.0
 10
220.7469313529184
 20
91.60430856090628
 30
0.0
 10
220.7108455015482
 20
92.05467525733357
 30
0.0
 10
220.6918067784595
 20
92.45441640593944
 30
0.0
 10
220.683533244507
 20
92.810308652351
 30
0.0
 10
220.6828569823166
 20
93.15774249938522
 30
0.0
 10
220.6880467930844
 20
93.3598213705643
 30
0.0
 10
220.6905242398873
 20
93.45628724874847
 30
0.0
  0
SPLINE
  5
1BC
330
1F
100
AcDbEntity
  8
0
  6
Continuous
 62
     7
370
    25
100
AcDbSpline
210
0.0
220
0.0
230
1.0
 70
     8
 71
     3
 72
    13
 73
     9
 74
     0
 42
0.00000001
 43
0.00000001
 40
0.0
 40
0.0
 40
0.0
 40
0.0
 40
0.1400312919410834
 40
0.2800978778503042
 40
0.4240602241121907
 40
0.5680316995452359
 40
0.7822812815056388
 40
0.9999999999999999
 40
0.9999999999999999
 40
0.9999999999999999
 40
0.9999999999999999
 10
213.8251866491408
 20
86.93672993402781
 30
0.0
 10
213.7363410288315
 20
87.25485555416843
 30
0.0
 10
213.5586273952574
 20
87.89118697592443
 30
0.0
 10
213.2044113762591
 20
88.72429506734785
 30
0.0
 10
212.813235450446
 20
89.46659184205072
 30
0.0
 10
212.3384626871783
 20
90.20505021384689
 30
0.0
 10
211.7981125036573
 20
90.88820483852915
 30
0.0
 10
211.5196518842337
 20
91.17876999486874
 30
0.0
 10
211.3793034161905
 20
91.3252193371255
 30
0.0
  0
ELLIPSE
  5
1BD
330
1F
100
AcDbEntity
  8
0
  6
Continuous
 62
     7
370
    25
100
AcDbEllipse
 10
211.5410882599
 20
72.4758394879
 30
0.0
 11
0.0
 21
19.07300724724768
 31
0.0
210
0.0
220
0.0
230
1.0
 40
0.0555555556
 41
0.1357435643135845
 42
0.1532827087060913
  0
ELLIPSE
  5
1BE
330
1F
100
AcDbEntity
  8
0
  6
Continuous
 62
     7
370
    25
100
AcDbEllipse
 10
220.6577301014
 20
72.4758394879
 30
0.0
 11
0.0
 21
19.07300724724768
 31
0.0
210
0.0
220
0.0
230
1.0
 40
0.0555555556
 41
6.129902598473738
 42
6.147441742866246
  0
SPLINE
  5
1BF
330
1F
100
AcDbEntity
  8
0
  6
Continuous
 62
     7
370
    25
100
AcDbSpline
210
0.0
220
0.0
230
1.0
 70
     8
 71
     3
 72
    13
 73
     9
 74
     0
 42
0.00000001
 43
0.00000001
 40
0.0
 40
0.0
 40
0.0
 40
0.0
 40
0.1374692963454099
 40
0.2749820892813126
 40
0.4163021045260215
 40
0.5576318202769773
 40
0.7770084914513209
 40
1.0
 40
1.0
 40
1.0
 40
1.0
 10
220.8195149451008
 20
91.3252193371255
 30
0.0
 10
220.736236465485
 20
91.23897892769659
 30
0.0
 10
220.5696531561516
 20
91.06647082155449
 30
0.0
 10
220.2239529829228
 20
90.66748874823149
 30
0.0
 10
219.8403886682314
 20
90.16717933675922
 30
0.0
 10
219.3651309526329
 20
89.4383588651565
 30
0.0
 10
218.8190281847142
 20
88.42213991495484
 30
0.0
 10
218.5229038029213
 20
87.43455662865131
 30
0.0
 10
218.3736317131987
 20
86.93672993829537
 30
0.0
  0
LINE
  5
1C0
330
1F
100
AcDbEntity
  8
0
  6
Continuous
 62
     7
370
    25
100
AcDbLine
 10
213.8251866491
 20
86.936729934
 30
0.0
 11
218.3736317132
 21
86.9367299383
 31
0.0
  0
LINE
  5
1C1
330
1F
100
AcDbEntity
  8
0
  6
Continuous
 62
     7
370
    25
100
AcDbLine
 10
210.8749802266
 20
97.0488467351
 30
0.0
 11
211.3935178939
 21
97.0488467351
 31
0.0
  0
ARC
  5
1C2
330
1F
100
AcDbEntity
  8
0
  6
Continuous
 62
     7
370
    25
100
AcDbCircle
 10
204.5994091806
 20
84.6706694534
 30
0.0
 40
9.499999999999975
100
AcDbArc
 50
44.4654416734
 51
48.6553876907
  0
LINE
  5
1C3
330
1F
100
AcDbEntity
  8
0
  6
Continuous
 62
     7
370
    25
100
AcDbLine
 10
210.8749802266
 20
91.8027945257
 30
0.0
 11
210.8749802266
 21
97.0488467351
 31
0.0
  0
LINE
  5
1C4
330
1F
100
AcDbEntity
  8
0
  6
Continuous
 62
     7
370
    25
100
AcDbLine
 10
221.3238381347
 20
97.0488467351
 30
0.0
 11
221.3238381347
 21
91.8027945257
 31
0.0
  0
ARC
  5
1C5
330
1F
100
AcDbEntity
  8
0
  6
Continuous
 62
     7
370
    25
100
AcDbCircle
 10
227.5994091806
 20
84.6706694534
 30
0.0
 40
9.49999999999999
100
AcDbArc
 50
131.3446123093
 51
135.5345583266
  0
LINE
  5
1C6
330
1F
100
AcDbEntity
  8
0
  6
Continuous
 62
     7
370
    25
100
AcDbLine
 10
220.8053004674
 20
97.0488467351
 30
0.0
 11
221.3238381347
 21
97.0488467351
 31
0.0
  0
ARC
  5
1C7
330
1F
100
AcDbEntity
  8
0
  6
Continuous
 62
     7
370
    25
100
AcDbCircle
 10
219.8249919795
 20
97.0500005813
 30
0.0
 40
1.498846599345466
100
AcDbArc
 50
359.9558924033
 51
89.9558243884
  0
LINE
  5
1C8
330
1F
100
AcDbEntity
  8
0
  6
Continuous
 62
     7
370
    25
100
AcDbLine
 10
219.8261476049
 20
98.5488467351
 30
0.0
 11
219.1919404225
 21
98.5488467351
 31
0.0
  0
ARC
  5
1C9
330
1F
100
AcDbEntity
  8
0
  6
Continuous
 62
     7
370
    25
100
AcDbCircle
 10
212.3738263818
 20
97.0500005813
 30
0.0
 40
1.498846599345523
100
AcDbArc
 50
90.0441756116
 51
180.0441075967
  0
LINE
  5
1CA
330
1F
100
AcDbEntity
  8
0
  6
Continuous
 62
     7
370
    25
100
AcDbLine
 10
213.0068779388
 20
98.5488467351
 30
0.0
 11
212.3726707564
 21
98.5488467351
 31
0.0
  0
LINE
  5
1CB
330
1F
100
AcDbEntity
  8
0
  6
Continuous
 62
     7
370
    25
100
AcDbLine
 10
213.5393325572
 20
98.9787557828
 30
0.0
 11
213.5014232959
 21
99.0263741084
 31
0.0
  0
LINE
  5
1CC
330
1F
100
AcDbEntity
  8
0
  6
Continuous
 62
     7
370
    25
100
AcDbLine
 10
218.6973950654
 20
99.0263741084
 30
0.0
 11
218.6594858041
 21
98.9787557828
 31
0.0
  0
ELLIPSE
  5
1CD
330
1F
100
AcDbEntity
  8
0
  6
Continuous
 62
     7
370
    25
100
AcDbEllipse
 10
217.075157944
 20
101.8488467351
 30
0.0
 11
1.500207016110437
 21
0.02894030982645291
 31
0.0
210
0.0
220
0.0
230
1.0
 40
0.2796306798
 41
6.257897524076056
 42
6.3525947814612
  0
LINE
  5
1CE
330
1F
100
AcDbEntity
  8
0
  6
Continuous
 62
     7
370
    25
100
AcDbLine
 10
210.8827778681
 20
91.7958921029
 30
0.0
 11
210.8749802266
 21
91.8027945257
 31
0.0
  0
LINE
  5
1CF
330
1F
100
AcDbEntity
  8
0
  6
Continuous
 62
     7
370
    25
100
AcDbLine
 10
221.3238381347
 20
91.8027945257
 30
0.0
 11
221.3160404932
 21
91.7958921029
 31
0.0
  0
SPLINE
  5
1D0
330
1F
100
AcDbEntity
  8
0
  6
Continuous
 62
     7
370
    25
100
AcDbSpline
210
0.0
220
0.0
230
1.0
 70
     8
 71
     3
 72
     9
 73
     5
 74
     0
 42
0.00000001
 43
0.00000001
 40
0.0
 40
0.0
 40
0.0
 40
0.0
 40
0.0576289627817982
 40
1.0
 40
1.0
 40
1.0
 40
1.0
 10
217.8619227311735
 20
86.93672993781527
 30
0.0
 10
217.8570666590778
 20
86.9192266647969
 30
0.0
 10
217.7728022222156
 20
86.61550311723563
 30
0.0
 10
217.7258440990444
 20
86.27292292279847
 30
0.0
 10
217.6815921238057
 20
85.95008526963632
 30
0.0
  0
SPLINE
  5
1D1
330
1F
100
AcDbEntity
  8
0
  6
Continuous
 62
     7
370
    25
100
AcDbSpline
210
0.0
220
0.0
230
1.0
 70
     8
 71
     3
 72
    10
 73
     6
 74
     0
 42
0.00000001
 43
0.00000001
 40
0.0
 40
0.0
 40
0.0
 40
0.0
 40
0.274691850153182
 40
0.5573359346812419
 40
1.0
 40
1.0
 40
1.0
 40
1.0
 10
217.6815921238057
 20
85.95008526963632
 30
0.0
 10
217.3969713654513
 20
86.00330931279944
 30
0.0
 10
216.8194901758979
 20
86.11129821682876
 30
0.0
 10
215.7404722327312
 20
86.1530842900673
 30
0.0
 10
214.9808391882984
 20
86.02702234953678
 30
0.0
 10
214.5172262374857
 20
85.95008526963632
 30
0.0
  0
LINE
  5
1D2
330
1F
100
AcDbEntity
  8
0
  6
Continuous
 62
     7
370
    25
100
AcDbLine
 10
214.5172262375
 20
85.9500852696
 30
0.0
 11
214.3019914517
 21
86.9367299345
 31
0.0
  0
LINE
  5
1D3
330
1F
100
AcDbEntity
  8
0
  6
Continuous
 62
     7
370
    25
100
AcDbLine
 10
207.9194091806
 20
83.8488467351
 30
0.0
 11
217.0994091806
 21
83.8488467351
 31
0.0
  0
LWPOLYLINE
  5
1D4
330
1F
100
AcDbEntity
  8
0
  6
Continuous
 62
     7
370
    25
100
AcDbPolyline
 90
        3
 70
   128
 43
0.0
 10
207.9807639735
 20
83.8488467351
 10
208.0742476496
 20
82.9211025457
 10
208.116776516
 20
82.4990948756
  0
LINE
  5
1D5
330
1F
100
AcDbEntity
  8
0
  6
Continuous
 62
     7
370
    25
100
AcDbLine
 10
217.0994091806
 20
82.4990948756
 30
0.0
 11
217.0994091806
 21
83.8488467351
 31
0.0
  0
LINE
  5
1D6
330
1F
100
AcDbEntity
  8
0
  6
Continuous
 62
     7
370
    25
100
AcDbLine
 10
208.5408002899
 20
100.0488467351
 30
0.0
 11
213.5395838436
 21
100.0488467351
 31
0.0
  0
LINE
  5
1D7
330
1F
100
AcDbEntity
  8
0
  6
Continuous
 62
     7
370
    25
100
AcDbLine
 10
218.6592345177
 20
100.0488467351
 30
0.0
 11
223.6580180714
 21
100.0488467351
 31
0.0
  0
SPLINE
  5
1D8
330
1F
100
AcDbEntity
  8
0
  6
Continuous
 62
     7
370
    25
100
AcDbSpline
210
0.0
220
0.0
230
1.0
 70
     8
 71
     3
 72
    12
 73
     8
 74
     0
 42
0.00000001
 43
0.00000001
 40
0.0
 40
0.0
 40
0.0
 40
0.0
 40
0.2271543139929597
 40
0.4542742953683958
 40
0.6823371405829708
 40
0.9121899191033218
 40
1.0
 40
1.0
 40
1.0
 40
1.0
 10
208.1167765160003
 20
82.49909487558877
 30
0.0
 10
208.1278804611986
 20
82.44397506869439
 30
0.0
 10
208.1500866733199
 20
82.33374378583812
 30
0.0
 10
208.2505828848584
 20
82.19388972624971
 30
0.0
 10
208.3880451596889
 20
82.09364133716414
 30
0.0
 10
208.5190187430451
 20
82.0527126465894
 30
0.0
 10
208.5969117268598
 20
82.04968394510007
 30
0.0
 10
208.6184433255573
 20
82.04884673509926
 30
0.0
  0
LINE
  5
1D9
330
1F
100
AcDbEntity
  8
0
  6
Continuous
 62
     7
370
    25
100
AcDbLine
 10
223.6469153996
 20
82.0488467351
 30
0.0
 11
217.0994091806
 21
82.0488467351
 31
0.0
  0
SPLINE
  5
1DA
330
1F
100
AcDbEntity
  8
0
  6
Continuous
 62
     7
370
    25
100
AcDbSpline
210
0.0
220
0.0
230
1.0
 70
    24
 71
     3
 72
    12
 73
     8
 74
     0
 42
0.00000001
 43
0.00000001
 40
0.0
 40
0.0
 40
0.0
 40
0.0
 40
0.2316347876629357
 40
0.4633066480819574
 40
0.6939442291381489
 40
0.922740652522635
 40
1.0
 40
1.0
 40
1.0
 40
1.0
 10
217.0994091806457
 20
82.04884673509926
 30
0.0
 10
217.0994091806457
 20
82.05443620012953
 30
0.0
 10
217.0994091806457
 20
82.0656160247745
 30
0.0
 10
217.0994091806457
 20
82.15293909073017
 30
0.0
 10
217.0994091806457
 20
82.2812492645122
 30
0.0
 10
217.0994091806457
 20
82.40592869121004
 30
0.0
 10
217.0994091806457
 20
82.48031669996334
 30
0.0
 10
217.0994091806457
 20
82.49909487558877
 30
0.0
  0
SPLINE
  5
1DB
330
1F
100
AcDbEntity
  8
0
  6
Continuous
 62
     7
370
    25
100
AcDbSpline
210
0.0
220
0.0
230
1.0
 70
     8
 71
     3
 72
    11
 73
     7
 74
     0
 42
0.00000001
 43
0.00000001
 40
0.0
 40
0.0
 40
0.0
 40
0.0
 40
0.298199512551763
 40
0.5964325929955625
 40
0.8933636912282921
 40
1.0
 40
1.0
 40
1.0
 40
1.0
 10
210.1833293975461
 20
82.04884673509926
 30
0.0
 10
210.2993518891544
 20
82.06004350070488
 30
0.0
 10
210.5314099328569
 20
82.08243829231999
 30
0.0
 10
210.8333137830251
 20
82.2617872184641
 30
0.0
 10
211.033260911445
 20
82.45993391203339
 30
0.0
 10
211.0855837085037
 20
82.60755033388492
 30
0.0
 10
211.0994091806457
 20
82.6465556402281
 30
0.0
  0
LINE
  5
1DC
330
1F
100
AcDbEntity
  8
0
  6
Continuous
 62
     7
370
    25
100
AcDbLine
 10
211.0994091806
 20
82.0488467351
 30
0.0
 11
210.1833293975
 21
82.0488467351
 31
0.0
  0
LINE
  5
1DD
330
1F
100
AcDbEntity
  8
0
  6
Continuous
 62
     7
370
    25
100
AcDbLine
 10
208.6184433256
 20
82.0488467351
 30
0.0
 11
210.1833293975
 21
82.0488467351
 31
0.0
  0
LINE
  5
1DE
330
1F
100
AcDbEntity
  8
0
  6
Continuous
 62
     7
370
    25
100
AcDbLine
 10
216.876385355
 20
83.5488467351
 30
0.0
 11
216.8994091806
 21
83.5488467351
 31
0.0
  0
LINE
  5
1DF
330
1F
100
AcDbEntity
  8
0
  6
Continuous
 62
     7
370
    25
100
AcDbLine
 10
215.2994091806
 20
83.5488467351
 30
0.0
 11
216.876385355
 21
83.5488467351
 31
0.0
  0
LINE
  5
1E0
330
1F
100
AcDbEntity
  8
0
  6
Continuous
 62
     7
370
    25
100
AcDbLine
 10
207.8494091806
 20
75.5988467351
 30
0.0
 11
224.3494091806
 21
75.5988467351
 31
0.0
  0
SPLINE
  5
1E1
330
1F
100
AcDbEntity
  8
0
  6
Continuous
 62
     7
370
    25
100
AcDbSpline
210
0.0
220
0.0
230
1.0
 70
     8
 71
     3
 72
    11
 73
     7
 74
     0
 42
0.00000001
 43
0.00000001
 40
0.0
 40
0.0
 40
0.0
 40
0.0
 40
0.2843931288920267
 40
0.5687862577840548
 40
0.8531793866760832
 40
0.9999999999999999
 40
0.9999999999999999
 40
0.9999999999999999
 40
0.9999999999999999
 10
217.6775219699591
 20
101.8671705989148
 30
0.0
 10
217.6650554463437
 20
101.9572332197632
 30
0.0
 10
217.6401223991129
 20
102.1373584614601
 30
0.0
 10
217.4766690403828
 20
102.3596210648737
 30
0.0
 10
217.2873271018765
 20
102.4989251980108
 30
0.0
 10
217.1516775508977
 20
102.5175656233503
 30
0.0
 10
217.1054912902988
 20
102.5239123567983
 30
0.0
  0
LINE
  5
1E2
330
1F
100
AcDbEntity
  8
0
  6
Continuous
 62
     7
370
    25
100
AcDbLine
 10
213.5014232959
 20
99.0263741084
 30
0.0
 11
213.4939525105
 21
99.0357582609
 31
0.0
  0
ELLIPSE
  5
1E3
330
1F
100
AcDbEntity
  8
0
  6
Continuous
 62
     7
370
    25
100
AcDbEllipse
 10
215.1236604173
 20
101.8488467351
 30
0.0
 11
1.500207016110437
 21
-0.02894030982645291
 31
0.0
210
0.0
220
0.0
230
1.0
 40
0.2796306798
 41
3.072224892702355
 42
3.16688043669342
  0
LINE
  5
1E4
330
1F
100
AcDbEntity
  8
0
  6
Continuous
 62
     7
370
    25
100
AcDbLine
 10
210.8749802266
 20
97.0488467351
 30
0.0
 11
210.8726707564
 21
97.0488467351
 31
0.0
  0
LINE
  5
1E5
330
1F
100
AcDbEntity
  8
0
  6
Continuous
 62
     7
370
    25
100
AcDbLine
 10
221.3261476049
 20
97.0488467351
 30
0.0
 11
221.3238381347
 21
97.0488467351
 31
0.0
  0
LINE
  5
1E6
330
1F
100
AcDbEntity
  8
0
  6
Continuous
 62
     7
370
    25
100
AcDbLine
 10
210.8726707564
 20
91.9369223209
 30
0.0
 11
207.1106016221
 21
91.9369223209
 31
0.0
  0
LINE
  5
1E7
330
1F
100
AcDbEntity
  8
0
  6
Continuous
 62
     7
370
    25
100
AcDbLine
 10
225.0882167392
 20
91.9369223209
 30
0.0
 11
221.3261476049
 21
91.9369223209
 31
0.0
  0
LINE
  5
1E8
330
1F
100
AcDbEntity
  8
0
  6
Continuous
 62
     7
370
    25
100
AcDbLine
 10
217.0994091806
 20
82.4990948756
 30
0.0
 11
224.1444339947
 21
82.4990948756
 31
0.0
  0
LINE
  5
1E9
330
1F
100
AcDbEntity
  8
0
  6
Continuous
 62
     7
370
    25
100
AcDbLine
 10
221.3261476049
 20
92.1604607745
 30
0.0
 11
225.0854574257
 21
92.1604607745
 31
0.0
  0
LINE
  5
1EA
330
1F
100
AcDbEntity
  8
0
  6
Continuous
 62
     7
370
    25
100
AcDbLine
 10
207.1133609356
 20
92.1604607745
 30
0.0
 11
210.8726707564
 21
92.1604607745
 31
0.0
  0
LINE
  5
1EB
330
1F
100
AcDbEntity
  8
0
  6
Continuous
 62
     7
370
    25
100
AcDbLine
 10
224.1541570097
 20
99.6108641024
 30
0.0
 11
218.6793091622
 21
99.6108641024
 31
0.0
  0
LINE
  5
1EC
330
1F
100
AcDbEntity
  8
0
  6
Continuous
 62
     7
370
    25
100
AcDbLine
 10
213.5195091991
 20
99.6108641024
 30
0.0
 11
208.0446613516
 21
99.6108641024
 31
0.0
  0
LINE
  5
1ED
330
1F
100
AcDbEntity
  8
0
  6
Continuous
 62
     7
370
    25
100
AcDbLine
 10
217.0994091806
 20
83.3488467351
 30
0.0
 11
215.0994091806
 21
83.3488467351
 31
0.0
  0
INSERT
  5
1F9
330
1F
100
AcDbEntity
  8
0
  6
Continuous
 62
     7
370
    18
100
AcDbBlockReference
  2
SW_CENTERMARKSYMBOL_0
 10
216.0994091806
 20
62.8488467351
 30
0.0
  0
LINE
  5
1FA
330
1F
100
AcDbEntity
  8
0
  6
Continuous
 62
     7
370
    25
100
AcDbLine
 10
139.8433721619
 20
150.2738386609
 30
0.0
 11
139.5933721619
 21
150.0238386609
 31
0.0
  0
LINE
  5
1FB
330
1F
100
AcDbEntity
  8
0
  6
Continuous
 62
     7
370
    25
100
AcDbLine
 10
139.5933721619
 20
126.5238386609
 30
0.0
 11
139.8433721619
 21
126.2738386609
 31
0.0
  0
LINE
  5
1FC
330
1F
100
AcDbEntity
  8
0
  6
Continuous
 62
     7
370
    25
100
AcDbLine
 10
142.5933721619
 20
150.2738386609
 30
0.0
 11
139.8433721619
 21
150.2738386609
 31
0.0
  0
LINE
  5
1FD
330
1F
100
AcDbEntity
  8
0
  6
Continuous
 62
     7
370
    25
100
AcDbLine
 10
139.8433721619
 20
126.2738386609
 30
0.0
 11
142.5933721619
 21
126.2738386609
 31
0.0
  0
LINE
  5
1FE
330
1F
100
AcDbEntity
  8
0
  6
Continuous
 62
     7
370
    25
100
AcDbLine
 10
128.0933721619
 20
149.0238386609
 30
0.0
 11
127.5933721619
 21
148.5238386609
 31
0.0
  0
LINE
  5
1FF
330
1F
100
AcDbEntity
  8
0
  6
Continuous
 62
     7
370
    25
100
AcDbLine
 10
127.5933721619
 20
128.0238386609
 30
0.0
 11
128.0933721619
 21
127.5238386609
 31
0.0
  0
LINE
  5
200
330
1F
100
AcDbEntity
  8
0
  6
Continuous
 62
     7
370
    25
100
AcDbLine
 10
139.5933721619
 20
149.0238386609
 30
0.0
 11
128.0933721619
 21
149.0238386609
 31
0.0
  0
LINE
  5
201
330
1F
100
AcDbEntity
  8
0
  6
Continuous
 62
     7
370
    25
100
AcDbLine
 10
128.0933721619
 20
127.5238386609
 30
0.0
 11
139.5933721619
 21
127.5238386609
 31
0.0
  0
LINE
  5
202
330
1F
100
AcDbEntity
  8
0
  6
Continuous
 62
     7
370
    25
100
AcDbLine
 10
170.8433721619
 20
126.2738386609
 30
0.0
 11
171.0933721619
 21
126.5238386609
 31
0.0
  0
LINE
  5
203
330
1F
100
AcDbEntity
  8
0
  6
Continuous
 62
     7
370
    25
100
AcDbLine
 10
171.0933721619
 20
150.0238386609
 30
0.0
 11
170.8433721619
 21
150.2738386609
 31
0.0
  0
LINE
  5
204
330
1F
100
AcDbEntity
  8
0
  6
Continuous
 62
     7
370
    25
100
AcDbLine
 10
168.5933721619
 20
126.2738386609
 30
0.0
 11
170.8433721619
 21
126.2738386609
 31
0.0
  0
LINE
  5
205
330
1F
100
AcDbEntity
  8
0
  6
Continuous
 62
     7
370
    25
100
AcDbLine
 10
170.8433721619
 20
150.2738386609
 30
0.0
 11
168.5933721619
 21
150.2738386609
 31
0.0
  0
LINE
  5
206
330
1F
100
AcDbEntity
  8
0
  6
Continuous
 62
     7
370
    25
100
AcDbLine
 10
171.0933721619
 20
129.7553386609
 30
0.0
 11
180.999434355
 21
130.0649031045
 31
0.0
  0
LINE
  5
207
330
1F
100
AcDbEntity
  8
0
  6
Continuous
 62
     7
370
    25
100
AcDbLine
 10
180.999434355
 20
146.4827742174
 30
0.0
 11
171.0933721619
 21
146.7923386609
 31
0.0
  0
LINE
  5
208
330
1F
100
AcDbEntity
  8
0
  6
Continuous
 62
     7
370
    25
100
AcDbLine
 10
180.999434355
 20
130.0649031045
 30
0.0
 11
183.0933721619
 21
131.2738386609
 31
0.0
  0
LINE
  5
209
330
1F
100
AcDbEntity
  8
0
  6
Continuous
 62
     7
370
    25
100
AcDbLine
 10
183.0933721619
 20
145.2738386609
 30
0.0
 11
180.999434355
 21
146.4827742174
 31
0.0
  0
LINE
  5
20A
330
1F
100
AcDbEntity
  8
0
  6
Continuous
 62
     7
370
    25
100
AcDbLine
 10
105.0495467698
 20
137.4038095785
 30
0.0
 11
105.0669657601
 21
137.4038095785
 31
0.0
  0
LINE
  5
20B
330
1F
100
AcDbEntity
  8
0
  6
Continuous
 62
     7
370
    25
100
AcDbLine
 10
133.6277198393
 20
142.8689970204
 30
0.0
 11
132.4354797824
 21
142.075023782
 31
0.0
  0
LINE
  5
20C
330
1F
100
AcDbEntity
  8
0
  6
Continuous
 62
     7
370
    25
100
AcDbLine
 10
132.4354797232
 20
134.4726534324
 30
0.0
 11
133.6320989952
 21
133.6757639098
 31
0.0
  0
SPLINE
  5
20D
330
1F
100
AcDbEntity
  8
0
  6
Continuous
 62
     7
370
    25
100
AcDbSpline
210
0.0
220
0.0
230
1.0
 70
     8
 71
     3
 72
    11
 73
     7
 74
     0
 42
0.00000001
 43
0.00000001
 40
0.0
 40
0.0
 40
0.0
 40
0.0
 40
0.2485427336868742
 40
0.498245940737641
 40
0.748834762140145
 40
1.0
 40
1.0
 40
1.0
 40
1.0
 10
132.4353999404233
 20
142.075168498092
 30
0.0
 10
132.0141197973672
 20
141.8614032646369
 30
0.0
 10
131.1695925079253
 20
141.4328747043368
 30
0.0
 10
129.8129869406912
 20
140.9941807427235
 30
0.0
 10
128.4148898345648
 20
140.6932517982294
 30
0.0
 10
127.463533935584
 20
140.6319711141167
 30
0.0
 10
126.9873095259437
 20
140.6012955723503
 30
0.0
  0
SPLINE
  5
20E
330
1F
100
AcDbEntity
  8
0
  6
Continuous
 62
     7
370
    25
100
AcDbSpline
210
0.0
220
0.0
230
1.0
 70
     8
 71
     3
 72
    10
 73
     6
 74
     0
 42
0.00000001
 43
0.00000001
 40
0.0
 40
0.0
 40
0.0
 40
0.0
 40
0.0711023749285984
 40
0.5366329433438187
 40
1.0
 40
1.0
 40
1.0
 40
1.0
 10
129.59588485308
 20
135.5739327037407
 30
0.0
 10
129.6668592454334
 20
135.5597063501381
 30
0.0
 10
130.2025262623071
 20
135.4523353936193
 30
0.0
 10
131.167801477591
 20
135.1058456939384
 30
0.0
 10
132.0135237149806
 20
134.6832930555799
 30
0.0
 10
132.4353999404233
 20
134.4725088237832
 30
0.0
  0
LINE
  5
20F
330
1F
100
AcDbEntity
  8
0
  6
Continuous
 62
     7
370
    25
100
AcDbLine
 10
126.9866382533
 20
140.6269304398
 30
0.0
 11
105.3322472235
 21
140.0598902547
 31
0.0
  0
LINE
  5
210
330
1F
100
AcDbEntity
  8
0
  6
Continuous
 62
     7
370
    25
100
AcDbLine
 10
105.3322507421
 20
136.487786975
 30
0.0
 11
126.9866382533
 21
135.920746882
 31
0.0
  0
SPLINE
  5
211
330
1F
100
AcDbEntity
  8
0
  6
Continuous
 62
     7
370
    25
100
AcDbSpline
210
0.0
220
0.0
230
1.0
 70
     8
 71
     3
 72
    12
 73
     8
 74
     0
 42
0.00000001
 43
0.00000001
 40
0.0
 40
0.0
 40
0.0
 40
0.0
 40
0.109057839910703
 40
0.3283352015817021
 40
0.5848641792826541
 40
0.841834347067134
 40
1.0
 40
1.0
 40
1.0
 40
1.0
 10
100.2939162609418
 20
137.1889841179392
 30
0.0
 10
100.3083506273913
 20
137.1573893191644
 30
0.0
 10
100.3518074813121
 20
137.0622683756986
 30
0.0
 10
100.4812478138367
 20
136.9292767393394
 30
0.0
 10
100.6680853212851
 20
136.8052694168938
 30
0.0
 10
100.8661130880815
 20
136.7253633617141
 30
0.0
 10
101.0021073093369
 20
136.7142278571086
 30
0.0
 10
101.0539207490029
 20
136.7099852592195
 30
0.0
  0
SPLINE
  5
212
330
1F
100
AcDbEntity
  8
0
  6
Continuous
 62
     7
370
    25
100
AcDbSpline
210
0.0
220
0.0
230
1.0
 70
     8
 71
     3
 72
    12
 73
     8
 74
     0
 42
0.00000001
 43
0.00000001
 40
0.0
 40
0.0
 40
0.0
 40
0.0
 40
0.0693424315069026
 40
0.2378449826447222
 40
0.4637896265037253
 40
0.7592436410224913
 40
1.0
 40
1.0
 40
1.0
 40
1.0
 10
101.0538415058473
 20
139.8373888649288
 30
0.0
 10
101.0311572836646
 20
139.8372932228921
 30
0.0
 10
100.9533502567968
 20
139.8369651700959
 30
0.0
 10
100.8074990908764
 20
139.7968126067979
 30
0.0
 10
100.6120911758407
 20
139.7132922987099
 30
0.0
 10
100.418812658758
 20
139.5730814503431
 30
0.0
 10
100.3300301416561
 20
139.4283291296654
 30
0.0
 10
100.2901671389712
 20
139.3633359042404
 30
0.0
  0
SPLINE
  5
213
330
1F
100
AcDbEntity
  8
0
  6
Continuous
 62
     7
370
    25
100
AcDbSpline
210
0.0
220
0.0
230
1.0
 70
     8
 71
     3
 72
    11
 73
     7
 74
     0
 42
0.00000001
 43
0.00000001
 40
0.0
 40
0.0
 40
0.0
 40
0.0
 40
0.1967897577970565
 40
0.5726140437513273
 40
0.9522154374819125
 40
1.0
 40
1.0
 40
1.0
 40
1.0
 10
100.0933721618751
 20
138.1123930666045
 30
0.0
 10
100.0949517814328
 20
138.0462075791332
 30
0.0
 10
100.0995481199449
 20
137.8536226598629
 30
0.0
 10
100.1510606134978
 20
137.5431222309395
 30
0.0
 10
100.2293135804272
 20
137.3098316549788
 30
0.0
 10
100.2827811542958
 20
137.1979210628198
 30
0.0
 10
100.2887591809223
 20
137.1854087221374
 30
0.0
  0
SPLINE
  5
214
330
1F
100
AcDbEntity
  8
0
  6
Continuous
 62
     7
370
    25
100
AcDbSpline
210
0.0
220
0.0
230
1.0
 70
     8
 71
     3
 72
    10
 73
     6
 74
     0
 42
0.00000001
 43
0.00000001
 40
0.0
 40
0.0
 40
0.0
 40
0.0
 40
0.220882066126928
 40
0.6147196450449922
 40
1.0
 40
1.0
 40
1.0
 40
1.0
 10
100.2887591809223
 20
139.3622685997378
 30
0.0
 10
100.2626028226087
 20
139.3030600782547
 30
0.0
 10
100.1898091025021
 20
139.1382814615571
 30
0.0
 10
100.1116131556124
 20
138.8272412183344
 30
0.0
 10
100.0994078084483
 20
138.5649764055471
 30
0.0
 10
100.0933721618751
 20
138.4352842552707
 30
0.0
  0
LINE
  5
215
330
1F
100
AcDbEntity
  8
0
  6
Continuous
 62
     7
370
    25
100
AcDbLine
 10
100.0933721619
 20
138.4352842553
 30
0.0
 11
100.0933721619
 21
138.1123930666
 31
0.0
  0
ARC
  5
216
330
1F
100
AcDbEntity
  8
0
  6
Continuous
 62
     7
370
    25
100
AcDbCircle
 10
155.5933721619
 20
138.2738386609
 30
0.0
 40
8.993770368365585
100
AcDbArc
 50
200.7408128097
 51
90.0
  0
ARC
  5
217
330
1F
100
AcDbEntity
  8
0
  6
Continuous
 62
     7
370
    25
100
AcDbCircle
 10
155.5933721619
 20
138.2738386609
 30
0.0
 40
8.993770368365574
100
AcDbArc
 50
90.0
 51
159.2563000508
  0
LINE
  5
218
330
1F
100
AcDbEntity
  8
0
  6
Continuous
 62
     7
370
    25
100
AcDbLine
 10
139.5933721619
 20
126.5238386609
 30
0.0
 11
139.5933721619
 21
133.357943965
 31
0.0
  0
LINE
  5
219
330
1F
100
AcDbEntity
  8
0
  6
Continuous
 62
     7
370
    25
100
AcDbLine
 10
139.5933721619
 20
143.1897333569
 30
0.0
 11
139.5933721619
 21
150.0238386609
 31
0.0
  0
LINE
  5
21A
330
1F
100
AcDbEntity
  8
0
  6
Continuous
 62
     7
370
    25
100
AcDbLine
 10
139.8433721619
 20
150.2738386609
 30
0.0
 11
139.8433721619
 21
143.2036222458
 31
0.0
  0
LINE
  5
21B
330
1F
100
AcDbEntity
  8
0
  6
Continuous
 62
     7
370
    25
100
AcDbLine
 10
139.8433721619
 20
133.3440550761
 30
0.0
 11
139.8433721619
 21
126.2738386609
 31
0.0
  0
LINE
  5
21C
330
1F
100
AcDbEntity
  8
0
  6
Continuous
 62
     7
370
    25
100
AcDbLine
 10
127.5933721619
 20
128.0238386609
 30
0.0
 11
127.5933721619
 21
135.8821997125
 31
0.0
  0
LINE
  5
21D
330
1F
100
AcDbEntity
  8
0
  6
Continuous
 62
     7
370
    25
100
AcDbLine
 10
127.5933721619
 20
140.6687818617
 30
0.0
 11
127.5933721619
 21
148.5238386609
 31
0.0
  0
LINE
  5
21E
330
1F
100
AcDbEntity
  8
0
  6
Continuous
 62
     7
370
    25
100
AcDbLine
 10
128.0933721619
 20
149.0238386609
 30
0.0
 11
128.0933721619
 21
140.7130480715
 31
0.0
  0
LINE
  5
21F
330
1F
100
AcDbEntity
  8
0
  6
Continuous
 62
     7
370
    25
100
AcDbLine
 10
128.0933721619
 20
135.8377487045
 30
0.0
 11
128.0933721619
 21
127.5238386609
 31
0.0
  0
LINE
  5
220
330
1F
100
AcDbEntity
  8
0
  6
Continuous
 62
     7
370
    25
100
AcDbLine
 10
168.5933721619
 20
150.7738386609
 30
0.0
 11
168.5933721619
 21
138.2738386609
 31
0.0
  0
SPLINE
  5
221
330
1F
100
AcDbEntity
  8
0
  6
Continuous
 62
     7
370
    25
100
AcDbSpline
210
0.0
220
0.0
230
1.0
 70
     8
 71
     3
 72
    10
 73
     6
 74
     0
 42
0.00000001
 43
0.00000001
 40
0.0
 40
0.0
 40
0.0
 40
0.0
 40
0.5000000000000001
 40
0.5000000000000001
 40
1.0
 40
1.0
 40
1.0
 40
1.0
 10
167.0056589216036
 20
147.0095412657657
 30
0.0
 10
167.4727017602641
 20
145.5973635706691
 30
0.0
 10
167.8750508890301
 20
144.1507252456564
 30
0.0
 10
168.4357699133016
 20
141.2377059003107
 30
0.0
 10
168.5933721618751
 20
139.7657120089077
 30
0.0
 10
168.5933721618751
 20
138.2738386609376
 30
0.0
  0
LINE
  5
222
330
1F
100
AcDbEntity
  8
0
  6
Continuous
 62
     7
370
    25
100
AcDbLine
 10
167.0056589216
 20
150.7738386609
 30
0.0
 11
167.0056589216
 21
147.0095412658
 31
0.0
  0
SPLINE
  5
223
330
1F
100
AcDbEntity
  8
0
  6
Continuous
 62
     7
370
    25
100
AcDbSpline
210
0.0
220
0.0
230
1.0
 70
    24
 71
     3
 72
    12
 73
     8
 74
     0
 42
0.00000001
 43
0.00000001
 40
0.0
 40
0.0
 40
0.0
 40
0.0
 40
0.2499999999999999
 40
0.2499999999999999
 40
0.4999999999999998
 40
0.4999999999999998
 40
1.0
 40
1.0
 40
1.0
 40
1.0
 10
168.5933721618751
 20
150.7738386609376
 30
0.0
 10
168.5933721618751
 20
150.7738386609376
 30
0.0
 10
168.5539631964957
 20
150.7738386609376
 30
0.0
 10
168.4033437751628
 20
150.7738386609376
 30
0.0
 10
168.292474559372
 20
150.7738386609376
 30
0.0
 10
167.8713115621998
 20
150.7738386609376
 30
0.0
 10
167.4736248049762
 20
150.7738386609376
 30
0.0
 10
167.0056589216036
 20
150.7738386609376
 30
0.0
  0
LINE
  5
224
330
1F
100
AcDbEntity
  8
0
  6
Continuous
 62
     7
370
    25
100
AcDbLine
 10
144.1810854021
 20
147.0095412658
 30
0.0
 11
144.1810854021
 21
150.7738386609
 31
0.0
  0
SPLINE
  5
225
330
1F
100
AcDbEntity
  8
0
  6
Continuous
 62
     7
370
    25
100
AcDbSpline
210
0.0
220
0.0
230
1.0
 70
     8
 71
     3
 72
     9
 73
     5
 74
     0
 42
0.00000001
 43
0.00000001
 40
0.0
 40
0.0
 40
0.0
 40
0.0
 40
0.4308597066807026
 40
1.0
 40
1.0
 40
1.0
 40
1.0
 10
143.1767126322272
 20
143.3888078274876
 30
0.0
 10
143.2989051673932
 20
143.914846662529
 30
0.0
 10
143.5825068439281
 20
145.135751813057
 30
0.0
 10
143.9639759584279
 20
146.3299021772319
 30
0.0
 10
144.1810854021466
 20
147.0095412657657
 30
0.0
  0
SPLINE
  5
226
330
1F
100
AcDbEntity
  8
0
  6
Continuous
 62
     7
370
    25
100
AcDbSpline
210
0.0
220
0.0
230
1.0
 70
    24
 71
     3
 72
    12
 73
     8
 74
     0
 42
0.00000001
 43
0.00000001
 40
0.0
 40
0.0
 40
0.0
 40
0.0
 40
0.25
 40
0.25
 40
0.5
 40
0.5
 40
1.0
 40
1.0
 40
1.0
 40
1.0
 10
142.5933721618751
 20
150.7738386609376
 30
0.0
 10
142.5933721618751
 20
150.7738386609376
 30
0.0
 10
142.6327652472447
 20
150.7738386609376
 30
0.0
 10
142.7833966500101
 20
150.7738386609376
 30
0.0
 10
142.8942770791819
 20
150.7738386609376
 30
0.0
 10
143.3154644851463
 20
150.7738386609376
 30
0.0
 10
143.713152230626
 20
150.7738386609376
 30
0.0
 10
144.1810854021466
 20
150.7738386609376
 30
0.0
  0
LINE
  5
227
330
1F
100
AcDbEntity
  8
0
  6
Continuous
 62
     7
370
    25
100
AcDbLine
 10
142.5933721619
 20
143.3564000236
 30
0.0
 11
142.5933721619
 21
150.7738386609
 31
0.0
  0
LINE
  5
228
330
1F
100
AcDbEntity
  8
0
  6
Continuous
 62
     7
370
    25
100
AcDbLine
 10
167.0056589216
 20
147.0095412658
 30
0.0
 11
157.7323918997
 21
147.0095412658
 31
0.0
  0
LINE
  5
229
330
1F
100
AcDbEntity
  8
0
  6
Continuous
 62
     7
370
    25
100
AcDbLine
 10
153.454352424
 20
147.0095412658
 30
0.0
 11
144.1810854021
 21
147.0095412658
 31
0.0
  0
LINE
  5
22A
330
1F
100
AcDbEntity
  8
0
  6
Continuous
 62
     7
370
    25
100
AcDbLine
 10
167.0056589216
 20
150.7738386609
 30
0.0
 11
144.1810854021
 21
150.7738386609
 31
0.0
  0
SPLINE
  5
22B
330
1F
100
AcDbEntity
  8
0
  6
Continuous
 62
     7
370
    25
100
AcDbSpline
210
0.0
220
0.0
230
1.0
 70
     8
 71
     3
 72
    12
 73
     8
 74
     0
 42
0.00000001
 43
0.00000001
 40
0.0
 40
0.0
 40
0.0
 40
0.0
 40
0.2500000000000001
 40
0.2500000000000001
 40
0.5000000000000001
 40
0.5000000000000001
 40
1.0
 40
1.0
 40
1.0
 40
1.0
 10
168.5933721618751
 20
138.2738386609376
 30
0.0
 10
168.5933721618751
 20
137.5282774409789
 30
0.0
 10
168.5539631964957
 20
136.7764783389139
 30
0.0
 10
168.4033437751628
 20
135.2959579788982
 30
0.0
 10
168.292474559372
 20
134.5630430384451
 30
0.0
 10
167.8713115621998
 20
132.3825903799224
 30
0.0
 10
167.4736248049762
 20
130.9531047224962
 30
0.0
 10
167.0056589216036
 20
129.5381360561095
 30
0.0
  0
LINE
  5
22C
330
1F
100
AcDbEntity
  8
0
  6
Continuous
 62
     7
370
    25
100
AcDbLine
 10
167.0056589216
 20
129.5381360561
 30
0.0
 11
157.7323918997
 21
129.5381360561
 31
0.0
  0
LINE
  5
22D
330
1F
100
AcDbEntity
  8
0
  6
Continuous
 62
     7
370
    25
100
AcDbLine
 10
153.454352424
 20
129.5381360561
 30
0.0
 11
144.1810854021
 21
129.5381360561
 31
0.0
  0
SPLINE
  5
22E
330
1F
100
AcDbEntity
  8
0
  6
Continuous
 62
     7
370
    25
100
AcDbSpline
210
0.0
220
0.0
230
1.0
 70
     8
 71
     3
 72
     9
 73
     5
 74
     0
 42
0.00000001
 43
0.00000001
 40
0.0
 40
0.0
 40
0.0
 40
0.0
 40
0.5268904349897643
 40
0.9999999999999999
 40
0.9999999999999999
 40
0.9999999999999999
 40
0.9999999999999999
 10
144.1810854021466
 20
129.5381360561095
 30
0.0
 10
143.9792921112856
 20
130.1668661826154
 30
0.0
 10
143.5963030162854
 20
131.3601505634906
 30
0.0
 10
143.3138082244338
 20
132.5810560594026
 30
0.0
 10
143.1801572363432
 20
133.1586781274921
 30
0.0
  0
LINE
  5
22F
330
1F
100
AcDbEntity
  8
0
  6
Continuous
 62
     7
370
    25
100
AcDbLine
 10
144.1810854021
 20
125.7738386609
 30
0.0
 11
144.1810854021
 21
129.5381360561
 31
0.0
  0
SPLINE
  5
230
330
1F
100
AcDbEntity
  8
0
  6
Continuous
 62
     7
370
    25
100
AcDbSpline
210
0.0
220
0.0
230
1.0
 70
    24
 71
     3
 72
    12
 73
     8
 74
     0
 42
0.00000001
 43
0.00000001
 40
0.0
 40
0.0
 40
0.0
 40
0.0
 40
0.2500000000000001
 40
0.2500000000000001
 40
0.5000000000000001
 40
0.5000000000000001
 40
1.0
 40
1.0
 40
1.0
 40
1.0
 10
142.5933721618751
 20
125.7738386609376
 30
0.0
 10
142.5933721618751
 20
125.7738386609376
 30
0.0
 10
142.6327652472447
 20
125.7738386609376
 30
0.0
 10
142.7833966500101
 20
125.7738386609376
 30
0.0
 10
142.8942770791819
 20
125.7738386609376
 30
0.0
 10
143.3154644851463
 20
125.7738386609376
 30
0.0
 10
143.713152230626
 20
125.7738386609376
 30
0.0
 10
144.1810854021466
 20
125.7738386609376
 30
0.0
  0
LINE
  5
231
330
1F
100
AcDbEntity
  8
0
  6
Continuous
 62
     7
370
    25
100
AcDbLine
 10
142.5933721619
 20
125.7738386609
 30
0.0
 11
142.5933721619
 21
133.1912772983
 31
0.0
  0
SPLINE
  5
232
330
1F
100
AcDbEntity
  8
0
  6
Continuous
 62
     7
370
    25
100
AcDbSpline
210
0.0
220
0.0
230
1.0
 70
    24
 71
     3
 72
    12
 73
     8
 74
     0
 42
0.00000001
 43
0.00000001
 40
0.0
 40
0.0
 40
0.0
 40
0.0
 40
0.2499999999999999
 40
0.2499999999999999
 40
0.4999999999999999
 40
0.4999999999999999
 40
1.0
 40
1.0
 40
1.0
 40
1.0
 10
168.5933721618751
 20
125.7738386609376
 30
0.0
 10
168.5933721618751
 20
125.7738386609376
 30
0.0
 10
168.5539631964957
 20
125.7738386609376
 30
0.0
 10
168.4033437751628
 20
125.7738386609376
 30
0.0
 10
168.292474559372
 20
125.7738386609376
 30
0.0
 10
167.8713115621998
 20
125.7738386609376
 30
0.0
 10
167.4736248049762
 20
125.7738386609376
 30
0.0
 10
167.0056589216036
 20
125.7738386609376
 30
0.0
  0
LINE
  5
233
330
1F
100
AcDbEntity
  8
0
  6
Continuous
 62
     7
370
    25
100
AcDbLine
 10
167.0056589216
 20
129.5381360561
 30
0.0
 11
167.0056589216
 21
125.7738386609
 31
0.0
  0
LINE
  5
234
330
1F
100
AcDbEntity
  8
0
  6
Continuous
 62
     7
370
    25
100
AcDbLine
 10
168.5933721619
 20
138.2738386609
 30
0.0
 11
168.5933721619
 21
125.7738386609
 31
0.0
  0
LINE
  5
235
330
1F
100
AcDbEntity
  8
0
  6
Continuous
 62
     7
370
    25
100
AcDbLine
 10
167.0056589216
 20
125.7738386609
 30
0.0
 11
144.1810854021
 21
125.7738386609
 31
0.0
  0
LINE
  5
236
330
1F
100
AcDbEntity
  8
0
  6
Continuous
 62
     7
370
    25
100
AcDbLine
 10
171.0933721619
 20
138.2738386609
 30
0.0
 11
171.0933721619
 21
126.5238386609
 31
0.0
  0
LINE
  5
237
330
1F
100
AcDbEntity
  8
0
  6
Continuous
 62
     7
370
    25
100
AcDbLine
 10
171.0933721619
 20
150.0238386609
 30
0.0
 11
171.0933721619
 21
138.2738386609
 31
0.0
  0
LINE
  5
238
330
1F
100
AcDbEntity
  8
0
  6
Continuous
 62
     7
370
    25
100
AcDbLine
 10
170.8433721619
 20
126.2738386609
 30
0.0
 11
170.8433721619
 21
150.2738386609
 31
0.0
  0
LINE
  5
239
330
1F
100
AcDbEntity
  8
0
  6
Continuous
 62
     7
370
    25
100
AcDbLine
 10
180.999434355
 20
130.0649031045
 30
0.0
 11
180.999434355
 21
146.4827742174
 31
0.0
  0
LINE
  5
23A
330
1F
100
AcDbEntity
  8
0
  6
Continuous
 62
     7
370
    25
100
AcDbLine
 10
183.0933721619
 20
145.2738386609
 30
0.0
 11
183.0933721619
 21
131.2738386609
 31
0.0
  0
LINE
  5
23B
330
1F
100
AcDbEntity
  8
0
  6
Continuous
 62
     7
370
    25
100
AcDbLine
 10
153.3558881403
 20
137.2985661159
 30
0.0
 11
153.3230926133
 21
137.3173101552
 31
0.0
  0
SPLINE
  5
23C
330
1F
100
AcDbEntity
  8
0
  6
Continuous
 62
     7
370
    25
100
AcDbSpline
210
0.0
220
0.0
230
1.0
 70
     8
 71
     3
 72
    15
 73
    11
 74
     0
 42
0.00000001
 43
0.00000001
 40
0.0
 40
0.0
 40
0.0
 40
0.0
 40
0.1241930067305288
 40
0.2496556654892296
 40
0.3743703853151211
 40
0.4998404796364203
 40
0.6240146704162363
 40
0.7475381382242062
 40
0.8745858500551816
 40
1.0
 40
1.0
 40
1.0
 40
1.0
 10
154.1361778620056
 20
137.5710057665234
 30
0.0
 10
154.1206174668959
 20
137.5351585637795
 30
0.0
 10
154.0893375993844
 20
137.4630976845677
 30
0.0
 10
154.011901239896
 20
137.3732221712248
 30
0.0
 10
153.9185472361571
 20
137.3008983934305
 30
0.0
 10
153.8113216301361
 20
137.2519709749259
 30
0.0
 10
153.6969357194152
 20
137.2256429214711
 30
0.0
 10
153.5792649565299
 20
137.2247838274685
 30
0.0
 10
153.4623812313047
 20
137.2461665880981
 30
0.0
 10
153.3912323804099
 20
137.2811751145589
 30
0.0
 10
153.3558881403265
 20
137.2985661159403
 30
0.0
  0
LINE
  5
23D
330
1F
100
AcDbEntity
  8
0
  6
Continuous
 62
     7
370
    25
100
AcDbLine
 10
155.1280319067
 20
140.3445849824
 30
0.0
 11
154.136177862
 21
137.5710057665
 31
0.0
  0
SPLINE
  5
23E
330
1F
100
AcDbEntity
  8
0
  6
Continuous
 62
     7
370
    25
100
AcDbSpline
210
0.0
220
0.0
230
1.0
 70
     8
 71
     3
 72
    15
 73
    11
 74
     0
 42
0.00000001
 43
0.00000001
 40
0.0
 40
0.0
 40
0.0
 40
0.0
 40
0.1233025178081761
 40
0.2485158700387114
 40
0.3756924668130947
 40
0.4999990880429331
 40
0.6243057092728396
 40
0.7514823060473044
 40
0.8766757256079959
 40
1.0
 40
1.0
 40
1.0
 40
1.0
 10
156.0587124202268
 20
140.3445849824368
 30
0.0
 10
156.0345614482644
 20
140.3852301183725
 30
0.0
 10
155.9858852337297
 20
140.4671502729604
 30
0.0
 10
155.8705345755245
 20
140.5569692287728
 30
0.0
 10
155.7373749532627
 20
140.614543376934
 30
0.0
 10
155.5933723098939
 20
140.6337020726041
 30
0.0
 10
155.4493687811954
 20
140.614543969719
 30
0.0
 10
155.3162189082299
 20
140.5569698559805
 30
0.0
 10
155.2008565506955
 20
140.4671642938338
 30
0.0
 10
155.1521847650243
 20
140.385239362309
 30
0.0
 10
155.1280319067075
 20
140.3445849824369
 30
0.0
  0
LINE
  5
23F
330
1F
100
AcDbEntity
  8
0
  6
Continuous
 62
     7
370
    25
100
AcDbLine
 10
157.0503353266
 20
137.5716521121
 30
0.0
 11
156.0587124202
 21
140.3445849824
 31
0.0
  0
SPLINE
  5
240
330
1F
100
AcDbEntity
  8
0
  6
Continuous
 62
     7
370
    25
100
AcDbSpline
210
0.0
220
0.0
230
1.0
 70
     8
 71
     3
 72
    15
 73
    11
 74
     0
 42
0.00000001
 43
0.00000001
 40
0.0
 40
0.0
 40
0.0
 40
0.0
 40
0.1253320172137755
 40
0.2522975129251765
 40
0.3758847553984062
 40
0.5001929511416483
 40
0.6255758307380151
 40
0.7502289462456482
 40
0.8757444935777828
 40
1.0
 40
1.0
 40
1.0
 40
1.0
 10
157.8230370911406
 20
137.2949562614824
 30
0.0
 10
157.7877861745126
 20
137.2782819529997
 30
0.0
 10
157.7168249086582
 20
137.2447160162704
 30
0.0
 10
157.6008380178698
 20
137.2249344000162
 30
0.0
 10
157.4842416516295
 20
137.2270071803628
 30
0.0
 10
157.371121045048
 20
137.2540852067134
 30
0.0
 10
157.2652453307086
 20
137.3032980224206
 30
0.0
 10
157.1731362460894
 20
137.3753837862945
 30
0.0
 10
157.096704582221
 20
137.4646713077939
 30
0.0
 10
157.0657396747217
 20
137.536111978231
 30
0.0
 10
157.0503353266004
 20
137.571652112089
 30
0.0
  0
LINE
  5
241
330
1F
100
AcDbEntity
  8
0
  6
Continuous
 62
     7
370
    25
100
AcDbLine
 10
157.8636517136
 20
137.3173101552
 30
0.0
 11
157.8230370911
 21
137.2949562615
 31
0.0
  0
LINE
  5
242
330
1F
100
AcDbEntity
  8
0
  6
Continuous
 62
     7
370
    25
100
AcDbLine
 10
157.2366685171
 20
136.1218990517
 30
0.0
 11
157.8636517136
 21
137.3173101552
 31
0.0
  0
SPLINE
  5
243
330
1F
100
AcDbEntity
  8
0
  6
Continuous
 62
     7
370
    25
100
AcDbSpline
210
0.0
220
0.0
230
1.0
 70
     8
 71
     3
 72
    15
 73
    11
 74
     0
 42
0.00000001
 43
0.00000001
 40
0.0
 40
0.0
 40
0.0
 40
0.0
 40
0.1246332186438571
 40
0.2519059530189798
 40
0.3765391000744966
 40
0.4994035903146521
 40
0.6264494152300174
 40
0.7526064410610431
 40
0.8746804377363274
 40
1.0
 40
1.0
 40
1.0
 40
1.0
 10
157.1314400283316
 20
136.103781884985
 30
0.0
 10
157.1354545039997
 20
136.1006766501323
 30
0.0
 10
157.1435684749784
 20
136.0944004169305
 30
0.0
 10
157.1580070668149
 20
136.0887874034507
 30
0.0
 10
157.173140516748
 20
136.0862510508238
 30
0.0
 10
157.1885030590298
 20
136.0871364543917
 30
0.0
 10
157.2034336378665
 20
136.0912675249073
 30
0.0
 10
157.2169355378958
 20
136.0987582248532
 30
0.0
 10
157.2286211927822
 20
136.1088968067675
 30
0.0
 10
157.233962717123
 20
136.1175272291104
 30
0.0
 10
157.2366685171247
 20
136.1218990517026
 30
0.0
  0
SPLINE
  5
244
330
1F
100
AcDbEntity
  8
0
  6
Continuous
 62
     7
370
    25
100
AcDbSpline
210
0.0
220
0.0
230
1.0
 70
     8
 71
     3
 72
    11
 73
     7
 74
     0
 42
0.00000001
 43
0.00000001
 40
0.0
 40
0.0
 40
0.0
 40
0.0
 40
0.2506252605986011
 40
0.4999999999996215
 40
0.7493747394010043
 40
1.0
 40
1.0
 40
1.0
 40
1.0
 10
154.0553042986027
 20
136.1037818849849
 30
0.0
 10
154.285031992776
 20
136.2666361769459
 30
0.0
 10
154.743341130539
 20
136.5915321821847
 30
0.0
 10
155.5933721634751
 20
136.7252641291219
 30
0.0
 10
156.4434031964053
 20
136.5915321821796
 30
0.0
 10
156.9017123341616
 20
136.2666361769442
 30
0.0
 10
157.1314400283316
 20
136.103781884985
 30
0.0
  0
SPLINE
  5
245
330
1F
100
AcDbEntity
  8
0
  6
Continuous
 62
     7
370
    25
100
AcDbSpline
210
0.0
220
0.0
230
1.0
 70
     8
 71
     3
 72
    15
 73
    11
 74
     0
 42
0.00000001
 43
0.00000001
 40
0.0
 40
0.0
 40
0.0
 40
0.0
 40
0.125319195797913
 40
0.2473928354984057
 40
0.3734492416489697
 40
0.5005950046079961
 40
0.6235484391777629
 40
0.7480947836179478
 40
0.875367145815393
 40
1.0
 40
1.0
 40
1.0
 40
1.0
 10
153.9500758098094
 20
136.1218990517026
 30
0.0
 10
153.9527816061419
 20
136.1175272234186
 30
0.0
 10
153.9581231232391
 20
136.1088967898399
 30
0.0
 10
153.9698056958282
 20
136.0987610123401
 30
0.0
 10
153.9833066758154
 20
136.0912688964665
 30
0.0
 10
153.9982407046655
 20
136.0871364511744
 30
0.0
 10
154.0136077158545
 20
136.0862485094008
 30
0.0
 10
154.0287404522928
 20
136.0887894516583
 30
0.0
 10
154.0431758820745
 20
136.0944002299255
 30
0.0
 10
154.0512898329037
 20
136.1006765882343
 30
0.0
 10
154.0553042986026
 20
136.1037818849849
 30
0.0
  0
LINE
  5
246
330
1F
100
AcDbEntity
  8
0
  6
Continuous
 62
     7
370
    25
100
AcDbLine
 10
153.3230926133
 20
137.3173101552
 30
0.0
 11
153.9500758098
 21
136.1218990517
 31
0.0
  0
SPLINE
  5
247
330
1F
100
AcDbEntity
  8
0
  6
Continuous
 62
     7
370
    25
100
AcDbSpline
210
0.0
220
0.0
230
1.0
 70
     8
 71
     3
 72
    15
 73
    11
 74
     0
 42
0.00000001
 43
0.00000001
 40
0.0
 40
0.0
 40
0.0
 40
0.0
 40
0.1233867499278388
 40
0.2487396502211602
 40
0.3739317114754985
 40
0.4999973617625659
 40
0.6259591330513601
 40
0.7512551380600303
 40
0.8765613478174267
 40
1.0
 40
1.0
 40
1.0
 40
1.0
 10
155.530489297069
 20
138.2952481190804
 30
0.0
 10
155.5333674982609
 20
138.3012629151634
 30
0.0
 10
155.5391697643725
 20
138.313388352252
 30
0.0
 10
155.5546991690933
 20
138.3267796126021
 30
0.0
 10
155.5730537509667
 20
138.3356573241821
 30
0.0
 10
155.5933665674496
 20
138.3384139874785
 30
0.0
 10
155.6136849851647
 20
138.3356593062779
 30
0.0
 10
155.6320378543288
 20
138.3267836079884
 30
0.0
 10
155.6475759587244
 20
138.3133932407347
 30
0.0
 10
155.6533765207556
 20
138.3012661431887
 30
0.0
 10
155.6562550266812
 20
138.2952481190804
 30
0.0
  0
LINE
  5
248
330
1F
100
AcDbEntity
  8
0
  6
Continuous
 62
     7
370
    25
100
AcDbLine
 10
155.2913757713
 20
137.6569940898
 30
0.0
 11
155.5304892971
 21
138.2952481191
 31
0.0
  0
SPLINE
  5
249
330
1F
100
AcDbEntity
  8
0
  6
Continuous
 62
     7
370
    25
100
AcDbSpline
210
0.0
220
0.0
230
1.0
 70
     8
 71
     3
 72
    15
 73
    11
 74
     0
 42
0.00000001
 43
0.00000001
 40
0.0
 40
0.0
 40
0.0
 40
0.0
 40
0.1261585224210646
 40
0.2513121451548803
 40
0.3762846848783793
 40
0.4993062783340885
 40
0.6261594278645746
 40
0.7521171342021311
 40
0.87581969226928
 40
1.0
 40
1.0
 40
1.0
 40
1.0
 10
155.3542586361973
 20
137.5719297364579
 30
0.0
 10
155.3490275397087
 20
137.5722520430502
 30
0.0
 10
155.338607014366
 20
137.5728940889427
 30
0.0
 10
155.3238204638516
 20
137.5783423293179
 30
0.0
 10
155.3106301112261
 20
137.5865649319035
 30
0.0
 10
155.2997595363848
 20
137.5978215382161
 30
0.0
 10
155.2917519490563
 20
137.6113422835572
 30
0.0
 10
155.2875853220236
 20
137.626479171134
 30
0.0
 10
155.286964270512
 20
137.6421683027052
 30
0.0
 10
155.2899033828668
 20
137.6520458150638
 30
0.0
 10
155.2913757713495
 20
137.6569940898078
 30
0.0
  0
LINE
  5
24A
330
1F
100
AcDbEntity
  8
0
  6
Continuous
 62
     7
370
    25
100
AcDbLine
 10
155.8324856904
 20
137.5719297365
 30
0.0
 11
155.3542586362
 21
137.5719297365
 31
0.0
  0
SPLINE
  5
24B
330
1F
100
AcDbEntity
  8
0
  6
Continuous
 62
     7
370
    25
100
AcDbSpline
210
0.0
220
0.0
230
1.0
 70
     8
 71
     3
 72
    15
 73
    11
 74
     0
 42
0.00000001
 43
0.00000001
 40
0.0
 40
0.0
 40
0.0
 40
0.0
 40
0.1241186784437694
 40
0.2478474916628982
 40
0.3736574149478941
 40
0.5005082335853295
 40
0.6234527658309924
 40
0.7484986612277525
 40
0.873697649245277
 40
1.0
 40
1.0
 40
1.0
 40
1.0
 10
155.8953685551267
 20
137.6569940900309
 30
0.0
 10
155.8968396277355
 20
137.6520482443728
 30
0.0
 10
155.8997771522139
 20
137.6421720882946
 30
0.0
 10
155.8991604177138
 20
137.6264906926689
 30
0.0
 10
155.8949984561192
 20
137.6113581605887
 30
0.0
 10
155.8869997083208
 20
137.5978432529742
 30
0.0
 10
155.876133616784
 20
137.5865831917782
 30
0.0
 10
155.8629458989593
 20
137.5783534793447
 30
0.0
 10
155.8481514523841
 20
137.5728939089597
 30
0.0
 10
155.8377228614768
 20
137.5722520659027
 30
0.0
 10
155.8324856903624
 20
137.5719297364579
 30
0.0
  0
LINE
  5
24C
330
1F
100
AcDbEntity
  8
0
  6
Continuous
 62
     7
370
    25
100
AcDbLine
 10
155.6562550267
 20
138.2952481191
 30
0.0
 11
155.8953685551
 21
137.65699409
 31
0.0
  0
CIRCLE
  5
24D
330
1F
100
AcDbEntity
  8
0
  6
Continuous
 62
     7
370
    25
100
AcDbCircle
 10
155.5933721619
 20
138.2738386609
 30
0.0
 40
4.499999999999972
  0
LINE
  5
24E
330
1F
100
AcDbEntity
  8
0
  6
Continuous
 62
     7
370
    25
100
AcDbLine
 10
142.2933721619
 20
137.2614224263
 30
0.0
 11
142.2933721619
 21
139.2862548956
 31
0.0
  0
SPLINE
  5
24F
330
1F
100
AcDbEntity
  8
0
  6
Continuous
 62
     7
370
    25
100
AcDbSpline
210
0.0
220
0.0
230
1.0
 70
     8
 71
     3
 72
    11
 73
     7
 74
     0
 42
0.00000001
 43
0.00000001
 40
0.0
 40
0.0
 40
0.0
 40
0.0
 40
0.2561894651307309
 40
0.509604493920693
 40
0.7692742066553655
 40
1.0
 40
1.0
 40
1.0
 40
1.0
 10
142.2933721618751
 20
137.2614224263042
 30
0.0
 10
142.2177760295812
 20
137.2019103856558
 30
0.0
 10
142.0674024429065
 20
137.0835307975594
 30
0.0
 10
141.7681896569513
 20
136.912893255424
 30
0.0
 10
141.4406699220645
 20
136.7612693445233
 30
0.0
 10
141.2044915412507
 20
136.6818333088521
 30
0.0
 10
141.0933721618751
 20
136.6444595113292
 30
0.0
  0
LINE
  5
250
330
1F
100
AcDbEntity
  8
0
  6
Continuous
 62
     7
370
    25
100
AcDbLine
 10
141.0933721619
 20
139.9032178105
 30
0.0
 11
141.0933721619
 21
136.6444595113
 31
0.0
  0
SPLINE
  5
251
330
1F
100
AcDbEntity
  8
0
  6
Continuous
 62
     7
370
    25
100
AcDbSpline
210
0.0
220
0.0
230
1.0
 70
     8
 71
     3
 72
    11
 73
     7
 74
     0
 42
0.00000001
 43
0.00000001
 40
0.0
 40
0.0
 40
0.0
 40
0.0
 40
0.2307374805224083
 40
0.4903955403005851
 40
0.7438105520730633
 40
1.0
 40
1.0
 40
1.0
 40
1.0
 10
141.0933721618751
 20
139.9032178105461
 30
0.0
 10
141.2044973956315
 20
139.865842619633
 30
0.0
 10
141.440676272707
 20
139.7864076405385
 30
0.0
 10
141.7681939136581
 20
139.6347809607748
 30
0.0
 10
142.0674025103206
 20
139.4641466558264
 30
0.0
 10
142.217776052134
 20
139.3457669802151
 30
0.0
 10
142.2933721618751
 20
139.2862548955711
 30
0.0
  0
LINE
  5
252
330
1F
100
AcDbEntity
  8
0
  6
Continuous
 62
     7
370
    25
100
AcDbLine
 10
140.4881439484
 20
136.4976782412
 30
0.0
 11
106.2114061506
 21
137.3952462088
 31
0.0
  0
LINE
  5
253
330
1F
100
AcDbEntity
  8
0
  6
Continuous
 62
     7
370
    25
100
AcDbLine
 10
106.2114061506
 20
137.3952462088
 30
0.0
 11
106.2114061506
 21
139.1524311131
 31
0.0
  0
LINE
  5
254
330
1F
100
AcDbEntity
  8
0
  6
Continuous
 62
     7
370
    25
100
AcDbLine
 10
106.2114061506
 20
139.1524311131
 30
0.0
 11
140.4881439484
 21
140.0499990807
 31
0.0
  0
ELLIPSE
  5
255
330
1F
100
AcDbEntity
  8
0
  6
Continuous
 62
     7
370
    25
100
AcDbEllipse
 10
140.4933721619
 20
139.2495874243
 30
0.0
 11
0.9988086229566305
 21
0.06103964413861718
 31
0.0
210
0.0
220
0.0
230
0.9999999999999999
 40
0.7994627403
 41
0.8784769082856462
 42
1.527206254409843
  0
ELLIPSE
  5
256
330
1F
100
AcDbEntity
  8
0
  6
Continuous
 62
     7
370
    25
100
AcDbEllipse
 10
140.4933721619
 20
137.2980898976
 30
0.0
 11
0.9988086229566305
 21
-0.06103964413861718
 31
0.0
210
0.0
220
0.0
230
0.9999999999999999
 40
0.7994627403
 41
4.755979052769753
 42
5.404708398893976
  0
SPLINE
  5
257
330
1F
100
AcDbEntity
  8
0
  6
Continuous
 62
     7
370
    25
100
AcDbSpline
210
0.0
220
0.0
230
1.0
 70
    24
 71
     3
 72
    11
 73
     7
 74
     0
 42
0.00000001
 43
0.00000001
 40
0.0
 40
0.0
 40
0.0
 40
0.0
 40
0.2499999999999969
 40
0.5000000000000007
 40
0.7499999999999996
 40
1.0
 40
1.0
 40
1.0
 40
1.0
 10
106.1930885659399
 20
139.8519514502511
 30
0.0
 10
106.1934164271957
 20
139.8394309340285
 30
0.0
 10
106.1940721497074
 20
139.8143899015834
 30
0.0
 10
106.1983311188466
 20
139.6517464319608
 30
0.0
 10
106.2043229745084
 20
139.4229266959063
 30
0.0
 10
106.2090450919195
 20
139.2425963073601
 30
0.0
 10
106.211406150625
 20
139.152431113087
 30
0.0
  0
LINE
  5
258
330
1F
100
AcDbEntity
  8
0
  6
Continuous
 62
     7
370
    25
100
AcDbLine
 10
140.4698263637
 20
140.7495194179
 30
0.0
 11
106.1930885659
 21
139.8519514503
 31
0.0
  0
SPLINE
  5
259
330
1F
100
AcDbEntity
  8
0
  6
Continuous
 62
     7
370
    25
100
AcDbSpline
210
0.0
220
0.0
230
1.0
 70
    24
 71
     3
 72
    11
 73
     7
 74
     0
 42
0.00000001
 43
0.00000001
 40
0.0
 40
0.0
 40
0.0
 40
0.0
 40
0.2500000000000036
 40
0.500000000000002
 40
0.7500000000000007
 40
1.0
 40
1.0
 40
1.0
 40
1.0
 10
140.4698263636776
 20
140.7495194178702
 30
0.0
 10
140.4701542249334
 20
140.7369989016476
 30
0.0
 10
140.470809947445
 20
140.7119578692025
 30
0.0
 10
140.4750689165843
 20
140.5493143995799
 30
0.0
 10
140.4810607722461
 20
140.3204946635255
 30
0.0
 10
140.4857828896571
 20
140.1401642749792
 30
0.0
 10
140.4881439483626
 20
140.0499990807061
 30
0.0
  0
LINE
  5
25A
330
1F
100
AcDbEntity
  8
0
  6
Continuous
 62
     7
370
    25
100
AcDbLine
 10
106.1930885659
 20
136.6957258716
 30
0.0
 11
140.4698263637
 21
135.798157904
 31
0.0
  0
SPLINE
  5
25B
330
1F
100
AcDbEntity
  8
0
  6
Continuous
 62
     7
370
    25
100
AcDbSpline
210
0.0
220
0.0
230
1.0
 70
    24
 71
     3
 72
    11
 73
     7
 74
     0
 42
0.00000001
 43
0.00000001
 40
0.0
 40
0.0
 40
0.0
 40
0.0
 40
0.2499999999999985
 40
0.4999999999999984
 40
0.7499999999999983
 40
1.0
 40
1.0
 40
1.0
 40
1.0
 10
106.1930885659399
 20
136.6957258716241
 30
0.0
 10
106.1934164271957
 20
136.7082463878467
 30
0.0
 10
106.1940721497074
 20
136.7332874202919
 30
0.0
 10
106.1983311188467
 20
136.8959308899144
 30
0.0
 10
106.2043229745085
 20
137.1247506259689
 30
0.0
 10
106.2090450919195
 20
137.3050810145151
 30
0.0
 10
106.211406150625
 20
137.3952462087882
 30
0.0
  0
SPLINE
  5
25C
330
1F
100
AcDbEntity
  8
0
  6
Continuous
 62
     7
370
    25
100
AcDbSpline
210
0.0
220
0.0
230
1.0
 70
    24
 71
     3
 72
    11
 73
     7
 74
     0
 42
0.00000001
 43
0.00000001
 40
0.0
 40
0.0
 40
0.0
 40
0.0
 40
0.2499999999999998
 40
0.4999999999999991
 40
0.7500000000000027
 40
1.0
 40
1.0
 40
1.0
 40
1.0
 10
140.4881439483626
 20
136.4976782411691
 30
0.0
 10
140.4857828896571
 20
136.407513046896
 30
0.0
 10
140.4810607722461
 20
136.2271826583497
 30
0.0
 10
140.4750689165843
 20
135.9983629222953
 30
0.0
 10
140.470809947445
 20
135.8357194526727
 30
0.0
 10
140.4701542249334
 20
135.8106784202276
 30
0.0
 10
140.4698263636776
 20
135.798157904005
 30
0.0
  0
ELLIPSE
  5
25D
330
1F
100
AcDbEntity
  8
0
  6
Continuous
 62
     7
370
    25
100
AcDbEllipse
 10
106.2114061506
 20
139.1733870314
 30
0.0
 11
1.49999997144873
 21
0.02095282558971689
 31
0.0
210
0.0
220
0.0
230
0.9999999999999997
 40
0.0139678873
 41
3.842044658396177
 42
4.712193869245414
  0
ELLIPSE
  5
25E
330
1F
100
AcDbEntity
  8
0
  6
Continuous
 62
     7
370
    25
100
AcDbEllipse
 10
106.2114061506
 20
137.3742902905
 30
0.0
 11
1.49999997144873
 21
-0.02095282558968847
 31
0.0
210
0.0
220
0.0
230
0.9999999999999998
 40
0.0139678873
 41
1.570991437934171
 42
2.441140648781891
  0
SPLINE
  5
25F
330
1F
100
AcDbEntity
  8
0
  6
Continuous
 62
     7
370
    25
100
AcDbSpline
210
0.0
220
0.0
230
1.0
 70
     8
 71
     3
 72
     9
 73
     5
 74
     0
 42
0.00000001
 43
0.00000001
 40
0.0
 40
0.0
 40
0.0
 40
0.0
 40
0.5600029565045499
 40
1.0
 40
1.0
 40
1.0
 40
1.0
 10
105.0647684351764
 20
137.4038145743137
 30
0.0
 10
105.0566206758233
 20
137.4038089362474
 30
0.0
 10
105.0420711823636
 20
137.4037988683252
 30
0.0
 10
105.028126539423
 20
137.4039210449286
 30
0.0
 10
105.0219909377566
 20
137.4039748022729
 30
0.0
  0
ELLIPSE
  5
260
330
1F
100
AcDbEntity
  8
0
  6
Continuous
 62
     7
370
    25
100
AcDbEllipse
 10
106.2114061506
 20
137.3567011284
 30
0.0
 11
1.499999872704137
 21
-0.0430792567095466
 31
0.0
210
0.0
220
0.0
230
1.0
 40
0.0143449667
 41
2.48683318254268
 42
2.678357024933858
  0
LINE
  5
261
330
1F
100
AcDbEntity
  8
0
  6
Continuous
 62
     7
370
    25
100
AcDbLine
 10
104.8697653641
 20
139.1428220355
 30
0.0
 11
104.8697653641
 21
137.4048552864
 31
0.0
  0
ELLIPSE
  5
262
330
1F
100
AcDbEntity
  8
0
  6
Continuous
 62
     7
370
    25
100
AcDbEllipse
 10
106.2114061506
 20
139.1909761935
 30
0.0
 11
1.499999872704137
 21
0.04307925670957501
 31
0.0
210
0.0
220
0.0
230
1.0
 40
0.0143449667
 41
3.604828282244263
 42
3.796352124635611
  0
SPLINE
  5
263
330
1F
100
AcDbEntity
  8
0
  6
Continuous
 62
     7
370
    25
100
AcDbSpline
210
0.0
220
0.0
230
1.0
 70
     8
 71
     3
 72
     9
 73
     5
 74
     0
 42
0.00000001
 43
0.00000001
 40
0.0
 40
0.0
 40
0.0
 40
0.0
 40
0.5599925069634167
 40
1.0
 40
1.0
 40
1.0
 40
1.0
 10
105.0219909377566
 20
139.1437025196023
 30
0.0
 10
105.0298137476135
 20
139.1437682647537
 30
0.0
 10
105.0437832378471
 20
139.1438856683806
 30
0.0
 10
105.0583562157176
 20
139.143869751228
 30
0.0
 10
105.0647684351765
 20
139.1438627475615
 30
0.0
  0
ELLIPSE
  5
264
330
1F
100
AcDbEntity
  8
0
  6
Continuous
 62
     7
370
    25
100
AcDbEllipse
 10
106.1930885659
 20
136.6747699533
 30
0.0
 11
0.7999998117959281
 21
-0.02096310677478641
 31
0.0
210
0.0
220
0.0
230
1.0
 40
0.026176936
 41
1.571482264229187
 42
2.441631475077506
  0
SPLINE
  5
265
330
1F
100
AcDbEntity
  8
0
  6
Continuous
 62
     7
370
    25
100
AcDbSpline
210
0.0
220
0.0
230
1.0
 70
     8
 71
     3
 72
    12
 73
     8
 74
     0
 42
0.00000001
 43
0.00000001
 40
0.0
 40
0.0
 40
0.0
 40
0.0
 40
0.2198609600791296
 40
0.4397396970008153
 40
0.6583291451397748
 40
0.8791239516843598
 40
1.0
 40
1.0
 40
1.0
 40
1.0
 10
105.5815484510341
 20
136.7042942371496
 30
0.0
 10
105.5216333883052
 20
136.7149662317937
 30
0.0
 10
105.4017984184192
 20
136.7363110839653
 30
0.0
 10
105.2450634301447
 20
136.8644294792323
 30
0.0
 10
105.1284951063585
 20
137.0473674152973
 30
0.0
 10
105.0722384145643
 20
137.2389165871845
 30
0.0
 10
105.066720543348
 20
137.3607222588695
 30
0.0
 10
105.0647684351764
 20
137.4038145743137
 30
0.0
  0
ELLIPSE
  5
266
330
1F
100
AcDbEntity
  8
0
  6
Continuous
 62
     7
370
    25
100
AcDbEllipse
 10
106.1930885659
 20
139.8729073686
 30
0.0
 11
0.7999998117959279
 21
0.02096310677475799
 31
0.0
210
0.0
220
0.0
230
1.0
 40
0.026176936
 41
3.841553832104258
 42
4.711703042950401
  0
SPLINE
  5
267
330
1F
100
AcDbEntity
  8
0
  6
Continuous
 62
     7
370
    25
100
AcDbSpline
210
0.0
220
0.0
230
1.0
 70
     8
 71
     3
 72
    12
 73
     8
 74
     0
 42
0.00000001
 43
0.00000001
 40
0.0
 40
0.0
 40
0.0
 40
0.0
 40
0.2198610998683198
 40
0.4397399767664984
 40
0.6583294271823332
 40
0.8791242261983196
 40
1.0
 40
1.0
 40
1.0
 40
1.0
 10
105.0647684351765
 20
139.1438627475615
 30
0.0
 10
105.0708713850718
 20
139.2225536572807
 30
0.0
 10
105.0830777783209
 20
139.37994183933
 30
0.0
 10
105.1756017194193
 20
139.589223587815
 30
0.0
 10
105.311385666841
 20
139.7478729084793
 30
0.0
 10
105.4558135302044
 20
139.8279729711946
 30
0.0
 10
105.5486905418532
 20
139.8393560084963
 30
0.0
 10
105.5815484510341
 20
139.8433830847256
 30
0.0
  0
ELLIPSE
  5
268
330
1F
100
AcDbEntity
  8
0
  6
Continuous
 62
     7
370
    25
100
AcDbEllipse
 10
140.4933721619
 20
139.2495874243
 30
0.0
 11
1.557390436637235
 21
0.09517594847733335
 31
0.0
210
0.0
220
0.0
230
1.0
 40
0.9613560848
 41
0.878476908285613
 42
1.527206254409841
  0
SPLINE
  5
269
330
1F
100
AcDbEntity
  8
0
  6
Continuous
 62
     7
370
    25
100
AcDbSpline
210
0.0
220
0.0
230
1.0
 70
    24
 71
     3
 72
    10
 73
     6
 74
     0
 42
0.00000001
 43
0.00000001
 40
0.0
 40
0.0
 40
0.0
 40
0.0
 40
0.2808335173386724
 40
0.5616510917414121
 40
1.0
 40
1.0
 40
1.0
 40
1.0
 10
141.4170601655101
 20
140.4628417287703
 30
0.0
 10
141.3988520458653
 20
140.4313617259753
 30
0.0
 10
141.3624368402517
 20
140.3684035075069
 30
0.0
 10
141.2526537554513
 20
140.1785996241971
 30
0.0
 10
141.1536918027175
 20
140.0075043870488
 30
0.0
 10
141.0933721618751
 20
139.9032178105461
 30
0.0
  0
SPLINE
  5
26A
330
1F
100
AcDbEntity
  8
0
  6
Continuous
 62
     7
370
    25
100
AcDbSpline
210
0.0
220
0.0
230
1.0
 70
     8
 71
     3
 72
    11
 73
     7
 74
     0
 42
0.00000001
 43
0.00000001
 40
0.0
 40
0.0
 40
0.0
 40
0.0
 40
0.2561894651307118
 40
0.5096044939206585
 40
0.7692742066444709
 40
1.0
 40
1.0
 40
1.0
 40
1.0
 10
142.2933721618751
 20
139.2862548955711
 30
0.0
 10
142.2490071712583
 20
139.3997624308923
 30
0.0
 10
142.1607576463236
 20
139.6255482572691
 30
0.0
 10
141.9509455593991
 20
139.9507505930286
 30
0.0
 10
141.7034376899075
 20
140.2407069509578
 30
0.0
 10
141.5086878591694
 20
140.3917687721362
 30
0.0
 10
141.4170601655101
 20
140.4628417287703
 30
0.0
  0
SPLINE
  5
26B
330
1F
100
AcDbEntity
  8
0
  6
Continuous
 62
     7
370
    25
100
AcDbSpline
210
0.0
220
0.0
230
1.0
 70
    24
 71
     3
 72
    10
 73
     6
 74
     0
 42
0.00000001
 43
0.00000001
 40
0.0
 40
0.0
 40
0.0
 40
0.0
 40
0.280833517338672
 40
0.5616510917414105
 40
0.9999999999999999
 40
0.9999999999999999
 40
0.9999999999999999
 40
0.9999999999999999
 10
141.0933721618751
 20
136.6444595113292
 30
0.0
 10
141.1317226108375
 20
136.5781554522569
 30
0.0
 10
141.2084213316051
 20
136.4455510981977
 30
0.0
 10
141.3335756816471
 20
136.2291718472933
 30
0.0
 10
141.3854447480004
 20
136.1394954619429
 30
0.0
 10
141.4170601655101
 20
136.0848355931049
 30
0.0
  0
ELLIPSE
  5
26C
330
1F
100
AcDbEntity
  8
0
  6
Continuous
 62
     7
370
    25
100
AcDbEllipse
 10
140.4933721619
 20
137.2980898976
 30
0.0
 11
1.557390436637235
 21
-0.09517594847733335
 31
0.0
210
0.0
220
0.0
230
1.0
 40
0.9613560848
 41
4.75597905276976
 42
5.404708398894008
  0
SPLINE
  5
26D
330
1F
100
AcDbEntity
  8
0
  6
Continuous
 62
     7
370
    25
100
AcDbSpline
210
0.0
220
0.0
230
1.0
 70
     8
 71
     3
 72
    11
 73
     7
 74
     0
 42
0.00000001
 43
0.00000001
 40
0.0
 40
0.0
 40
0.0
 40
0.0
 40
0.2307374805226518
 40
0.4903955403005862
 40
0.7438105520730652
 40
1.0
 40
1.0
 40
1.0
 40
1.0
 10
141.4170601655101
 20
136.0848355931049
 30
0.0
 10
141.5086921702696
 20
136.1559126112951
 30
0.0
 10
141.7034413128063
 20
136.3069754237144
 30
0.0
 10
141.9509488800442
 20
136.5969314528699
 30
0.0
 10
142.1607576094383
 20
136.9221291134185
 30
0.0
 10
142.2490071589187
 20
137.1479149073127
 30
0.0
 10
142.2933721618751
 20
137.2614224263042
 30
0.0
  0
LINE
  5
26E
330
1F
100
AcDbEntity
  8
0
  6
Continuous
 62
     7
370
    25
100
AcDbLine
 10
142.5933856172
 20
140.8792953311
 30
0.0
 11
140.4698263637
 21
140.7495194179
 31
0.0
  0
SPLINE
  5
26F
330
1F
100
AcDbEntity
  8
0
  6
Continuous
 62
     7
370
    25
100
AcDbSpline
210
0.0
220
0.0
230
1.0
 70
     8
 71
     3
 72
    13
 73
     9
 74
     0
 42
0.00000001
 43
0.00000001
 40
0.0
 40
0.0
 40
0.0
 40
0.0
 40
0.1035746466401554
 40
0.2111076158583393
 40
0.3219769626223816
 40
0.4454462032504116
 40
0.711304972801038
 40
1.0
 40
1.0
 40
1.0
 40
1.0
 10
144.6933721618751
 20
139.4329247806378
 30
0.0
 10
144.6861159971147
 20
139.5312675590866
 30
0.0
 10
144.6713263580231
 20
139.7317114917349
 30
0.0
 10
144.5450537484612
 20
140.0146535419649
 30
0.0
 10
144.3485063603304
 20
140.2729117669839
 30
0.0
 10
143.9846546872431
 20
140.5760071167389
 30
0.0
 10
143.3870673005078
 20
140.8415367830224
 30
0.0
 10
142.8651108169481
 20
140.8663682984372
 30
0.0
 10
142.5933856171547
 20
140.8792953310535
 30
0.0
  0
LINE
  5
270
330
1F
100
AcDbEntity
  8
0
  6
Continuous
 62
     7
370
    25
100
AcDbLine
 10
142.2933721619
 20
139.2862548956
 30
0.0
 11
144.6933721619
 21
139.4329247806
 31
0.0
  0
LINE
  5
271
330
1F
100
AcDbEntity
  8
0
  6
Continuous
 62
     7
370
    25
100
AcDbLine
 10
144.6933721619
 20
137.1147525412
 30
0.0
 11
142.2933721619
 21
137.2614224263
 31
0.0
  0
SPLINE
  5
272
330
1F
100
AcDbEntity
  8
0
  6
Continuous
 62
     7
370
    25
100
AcDbSpline
210
0.0
220
0.0
230
1.0
 70
     8
 71
     3
 72
    13
 73
     9
 74
     0
 42
0.00000001
 43
0.00000001
 40
0.0
 40
0.0
 40
0.0
 40
0.0
 40
0.2886949682914849
 40
0.5545536835943156
 40
0.6780091910936107
 40
0.78889220838012
 40
0.896419407140649
 40
1.0
 40
1.0
 40
1.0
 40
1.0
 10
142.5933856171547
 20
135.6683819908217
 30
0.0
 10
142.8651108077309
 20
135.6813089963045
 30
0.0
 10
143.3870672735854
 20
135.7061404595985
 30
0.0
 10
143.9846426816886
 20
135.971665061031
 30
0.0
 10
144.3484968618681
 20
136.2747560576352
 30
0.0
 10
144.5450443534338
 20
136.5330078117559
 30
0.0
 10
144.67132764254
 20
136.8159591779241
 30
0.0
 10
144.6861161445111
 20
137.0164038406152
 30
0.0
 10
144.6933721618751
 20
137.1147525412374
 30
0.0
  0
LINE
  5
273
330
1F
100
AcDbEntity
  8
0
  6
Continuous
 62
     7
370
    25
100
AcDbLine
 10
140.4698263637
 20
135.798157904
 30
0.0
 11
142.5933856172
 21
135.6683819908
 31
0.0
  0
SPLINE
  5
274
330
1F
100
AcDbEntity
  8
0
  6
Continuous
 62
     7
370
    25
100
AcDbSpline
210
0.0
220
0.0
230
1.0
 70
     8
 71
     3
 72
    12
 73
     8
 74
     0
 42
0.00000001
 43
0.00000001
 40
0.0
 40
0.0
 40
0.0
 40
0.0
 40
0.2225634137434412
 40
0.4462063173695272
 40
0.6680851268156954
 40
0.8917990985568369
 40
1.0
 40
1.0
 40
1.0
 40
1.0
 10
105.5394328680016
 20
139.8424378488536
 30
0.0
 10
105.4777363023667
 20
139.8300847412869
 30
0.0
 10
105.3540439268623
 20
139.8053186103998
 30
0.0
 10
105.1948775850688
 20
139.672734682402
 30
0.0
 10
105.0787956970519
 20
139.4863772789074
 30
0.0
 10
105.027080646324
 20
139.2982864675541
 30
0.0
 10
105.0232422245471
 20
139.1817064346657
 30
0.0
 10
105.0219909377566
 20
139.1437025196023
 30
0.0
  0
SPLINE
  5
275
330
1F
100
AcDbEntity
  8
0
  6
Continuous
 62
     7
370
    25
100
AcDbSpline
210
0.0
220
0.0
230
1.0
 70
     8
 71
     3
 72
    12
 73
     8
 74
     0
 42
0.00000001
 43
0.00000001
 40
0.0
 40
0.0
 40
0.0
 40
0.0
 40
0.2225634137435274
 40
0.446206317369568
 40
0.6680851268158019
 40
0.8917990985569333
 40
1.0
 40
1.0
 40
1.0
 40
1.0
 10
105.0219909377566
 20
137.4039748022729
 30
0.0
 10
105.0275775038591
 20
137.3254711422304
 30
0.0
 10
105.0387777323486
 20
137.1680830591737
 30
0.0
 10
105.1328285100358
 20
136.9587315215463
 30
0.0
 10
105.2723195734338
 20
136.7999722270762
 30
0.0
 10
105.4175436732701
 20
136.7221233567596
 30
0.0
 10
105.5094668420002
 20
136.7093903159262
 30
0.0
 10
105.5394328680016
 20
136.7052394730216
 30
0.0
  0
SPLINE
  5
276
330
1F
100
AcDbEntity
  8
0
  6
Continuous
 62
     7
370
    25
100
AcDbSpline
210
0.0
220
0.0
230
1.0
 70
     8
 71
     3
 72
    11
 73
     7
 74
     0
 42
0.00000001
 43
0.00000001
 40
0.0
 40
0.0
 40
0.0
 40
0.0
 40
0.2499999999999991
 40
0.5000000000000001
 40
0.7499999999999992
 40
1.0
 40
1.0
 40
1.0
 40
1.0
 10
105.4582458953982
 20
139.8415573647076
 30
0.0
 10
105.3800107870659
 20
139.826558059541
 30
0.0
 10
105.2235405704013
 20
139.7965594492079
 30
0.0
 10
105.0302144189849
 20
139.6330397464112
 30
0.0
 10
104.8958379867059
 20
139.4074601323289
 30
0.0
 10
104.8784562383187
 20
139.2310347344138
 30
0.0
 10
104.8697653641251
 20
139.1428220354563
 30
0.0
  0
ELLIPSE
  5
277
330
1F
100
AcDbEntity
  8
0
  6
Continuous
 62
     7
370
    25
100
AcDbEllipse
 10
106.1737876482
 20
139.8897115227
 30
0.0
 11
0.7999991634988818
 21
0.04310148564323413
 31
0.0
210
0.0
220
0.0
230
1.0
 40
0.0268411366
 41
3.603794146006655
 42
3.79531798839691
  0
ELLIPSE
  5
278
330
1F
100
AcDbEntity
  8
0
  6
Continuous
 62
     7
370
    25
100
AcDbEllipse
 10
106.1737876482
 20
136.6579657992
 30
0.0
 11
0.7999991634988817
 21
-0.04310148564326255
 31
0.0
210
0.0
220
0.0
230
1.0
 40
0.0268411366
 41
2.487867318784533
 42
2.679391161177388
  0
SPLINE
  5
279
330
1F
100
AcDbEntity
  8
0
  6
Continuous
 62
     7
370
    25
100
AcDbSpline
210
0.0
220
0.0
230
1.0
 70
     8
 71
     3
 72
    11
 73
     7
 74
     0
 42
0.00000001
 43
0.00000001
 40
0.0
 40
0.0
 40
0.0
 40
0.0
 40
0.2499999999999992
 40
0.499999999999996
 40
0.7499999999999994
 40
1.0
 40
1.0
 40
1.0
 40
1.0
 10
105.4582458953981
 20
136.7061199571676
 30
0.0
 10
105.3800107870659
 20
136.7211192623342
 30
0.0
 10
105.2235405704013
 20
136.7511178726673
 30
0.0
 10
105.0302144189849
 20
136.914637575464
 30
0.0
 10
104.8958379867059
 20
137.1402171895463
 30
0.0
 10
104.8784562383187
 20
137.3166425874614
 30
0.0
 10
104.8697653641251
 20
137.4048552864189
 30
0.0
  0
LINE
  5
27A
330
1F
100
AcDbEntity
  8
0
  6
Continuous
 62
     7
370
    25
100
AcDbLine
 10
144.6933721619
 20
139.4329247806
 30
0.0
 11
144.6933721619
 21
137.1147525412
 31
0.0
  0
LINE
  5
27B
330
1F
100
AcDbEntity
  8
0
  6
Continuous
 62
     7
370
    25
100
AcDbLine
 10
105.3591035399
 20
140.0600793234
 30
0.0
 11
126.9866517086
 21
140.6264166034
 31
0.0
  0
SPLINE
  5
27C
330
1F
100
AcDbEntity
  8
0
  6
Continuous
 62
     7
370
    25
100
AcDbSpline
210
0.0
220
0.0
230
1.0
 70
     8
 71
     3
 72
     9
 73
     5
 74
     0
 42
0.00000001
 43
0.00000001
 40
0.0
 40
0.0
 40
0.0
 40
0.0
 40
0.5600012771711204
 40
1.0
 40
1.0
 40
1.0
 40
1.0
 10
126.9866517085939
 20
140.6264166034347
 30
0.0
 10
127.464081845119
 20
140.6145821910897
 30
0.0
 10
128.3166337159589
 20
140.5934493600989
 30
0.0
 10
129.1735229206024
 20
140.5724886306865
 30
0.0
 10
129.5505530762513
 20
140.5632659365154
 30
0.0
  0
SPLINE
  5
27D
330
1F
100
AcDbEntity
  8
0
  6
Continuous
 62
     7
370
    25
100
AcDbSpline
210
0.0
220
0.0
230
1.0
 70
     8
 71
     3
 72
     9
 73
     5
 74
     0
 42
0.00000001
 43
0.00000001
 40
0.0
 40
0.0
 40
0.0
 40
0.0
 40
0.5599999095971039
 40
1.0
 40
1.0
 40
1.0
 40
1.0
 10
129.5505530762513
 20
140.5632659365154
 30
0.0
 10
129.6446825669138
 20
140.5609685266182
 30
0.0
 10
129.812770970232
 20
140.5568660082823
 30
0.0
 10
129.9810134899277
 20
140.5527696150893
 30
0.0
 10
130.0550402138035
 20
140.550967201714
 30
0.0
  0
LINE
  5
27E
330
1F
100
AcDbEntity
  8
0
  6
Continuous
 62
     7
370
    25
100
AcDbLine
 10
130.0550402138
 20
140.5509672017
 30
0.0
 11
142.5933856172
 21
140.8792953311
 31
0.0
  0
LINE
  5
27F
330
1F
100
AcDbEntity
  8
0
  6
Continuous
 62
     7
370
    25
100
AcDbLine
 10
105.581548451
 20
139.8433830847
 30
0.0
 11
105.3591035399
 21
140.0600793234
 31
0.0
  0
LINE
  5
280
330
1F
100
AcDbEntity
  8
0
  6
Continuous
 62
     7
370
    25
100
AcDbLine
 10
142.5933856172
 20
135.6683819908
 30
0.0
 11
130.0550402138
 21
135.9967101202
 31
0.0
  0
SPLINE
  5
281
330
1F
100
AcDbEntity
  8
0
  6
Continuous
 62
     7
370
    25
100
AcDbSpline
210
0.0
220
0.0
230
1.0
 70
     8
 71
     3
 72
     9
 73
     5
 74
     0
 42
0.00000001
 43
0.00000001
 40
0.0
 40
0.0
 40
0.0
 40
0.0
 40
0.5600000882143262
 40
1.0
 40
1.0
 40
1.0
 40
1.0
 10
130.0550402138035
 20
135.9967101201612
 30
0.0
 10
129.9608277982718
 20
135.9944160040201
 30
0.0
 10
129.7925913684667
 20
135.9903193686993
 30
0.0
 10
129.6245092107982
 20
135.98621660224
 30
0.0
 10
129.5505530762513
 20
135.9844113853598
 30
0.0
  0
SPLINE
  5
282
330
1F
100
AcDbEntity
  8
0
  6
Continuous
 62
     7
370
    25
100
AcDbSpline
210
0.0
220
0.0
230
1.0
 70
     8
 71
     3
 72
     9
 73
     5
 74
     0
 42
0.00000001
 43
0.00000001
 40
0.0
 40
0.0
 40
0.0
 40
0.0
 40
0.5599987526606142
 40
1.0
 40
1.0
 40
1.0
 40
1.0
 10
129.5505530762513
 20
135.9844113853598
 30
0.0
 10
129.0707868183642
 20
135.9726697988374
 30
0.0
 10
128.2140594495839
 20
135.9517026333453
 30
0.0
 10
127.3616937011113
 20
135.9305624329732
 30
0.0
 10
126.9866517085939
 20
135.9212607184405
 30
0.0
  0
LINE
  5
283
330
1F
100
AcDbEntity
  8
0
  6
Continuous
 62
     7
370
    25
100
AcDbLine
 10
126.9866517086
 20
135.9212607184
 30
0.0
 11
105.3591035399
 21
136.4875979985
 31
0.0
  0
LINE
  5
284
330
1F
100
AcDbEntity
  8
0
  6
Continuous
 62
     7
370
    25
100
AcDbLine
 10
105.3591035399
 20
136.4875979985
 30
0.0
 11
105.581548451
 21
136.7042942371
 31
0.0
  0
LINE
  5
285
330
1F
100
AcDbEntity
  8
0
  6
Continuous
 62
     7
370
    25
100
AcDbLine
 10
100.290815221
 20
139.1428220355
 30
0.0
 11
104.8697653641
 21
139.1428220355
 31
0.0
  0
SPLINE
  5
286
330
1F
100
AcDbEntity
  8
0
  6
Continuous
 62
     7
370
    25
100
AcDbSpline
210
0.0
220
0.0
230
1.0
 70
     8
 71
     3
 72
    13
 73
     9
 74
     0
 42
0.00000001
 43
0.00000001
 40
0.0
 40
0.0
 40
0.0
 40
0.0
 40
0.1143463544469914
 40
0.2890454840074684
 40
0.5294852105593207
 40
0.7014879056604273
 40
0.9335094878266192
 40
1.0
 40
1.0
 40
1.0
 40
1.0
 10
101.0527760711936
 20
139.8415573647076
 30
0.0
 10
101.0115748704846
 20
139.8367227732025
 30
0.0
 10
100.9074261981618
 20
139.8245018602725
 30
0.0
 10
100.7200667037819
 20
139.7518537652314
 30
0.0
 10
100.5380389737731
 20
139.6213414988246
 30
0.0
 10
100.3857553925588
 20
139.434473899655
 30
0.0
 10
100.3132521156788
 20
139.2731004948984
 30
0.0
 10
100.2949024263601
 20
139.1665541440465
 30
0.0
 10
100.2908152209699
 20
139.1428220354563
 30
0.0
  0
LINE
  5
287
330
1F
100
AcDbEntity
  8
0
  6
Continuous
 62
     7
370
    25
100
AcDbLine
 10
105.4582458954
 20
139.8415573647
 30
0.0
 11
101.0527760712
 21
139.8415573647
 31
0.0
  0
LINE
  5
288
330
1F
100
AcDbEntity
  8
0
  6
Continuous
 62
     7
370
    25
100
AcDbLine
 10
101.0527760712
 20
136.7061199572
 30
0.0
 11
105.4582458954
 21
136.7061199572
 31
0.0
  0
SPLINE
  5
289
330
1F
100
AcDbEntity
  8
0
  6
Continuous
 62
     7
370
    25
100
AcDbSpline
210
0.0
220
0.0
230
1.0
 70
     8
 71
     3
 72
    12
 73
     8
 74
     0
 42
0.00000001
 43
0.00000001
 40
0.0
 40
0.0
 40
0.0
 40
0.0
 40
0.1396834586182491
 40
0.3831896274038308
 40
0.5513169293013305
 40
0.8194729461607058
 40
1.0
 40
1.0
 40
1.0
 40
1.0
 10
100.2908152209699
 20
137.4048552864189
 30
0.0
 10
100.3010566017162
 20
137.3551403659404
 30
0.0
 10
100.3291514879045
 20
137.2187588498826
 30
0.0
 10
100.4363018492593
 20
137.0388427406705
 30
0.0
 10
100.6166389366722
 20
136.8605013122856
 30
0.0
 10
100.8250950812412
 20
136.7399810877341
 30
0.0
 10
100.9874519819452
 20
136.7158350744272
 30
0.0
 10
101.0527760711936
 20
136.7061199571676
 30
0.0
  0
LINE
  5
28A
330
1F
100
AcDbEntity
  8
0
  6
Continuous
 62
     7
370
    25
100
AcDbLine
 10
104.8697653641
 20
137.4048552864
 30
0.0
 11
100.290815221
 21
137.4048552864
 31
0.0
  0
ELLIPSE
  5
28B
330
1F
100
AcDbEntity
  8
0
  6
Continuous
 62
     7
370
    25
100
AcDbEllipse
 10
100.6461585664
 20
138.4483772161
 30
0.0
 11
0.008721666502694349
 21
1.000418978703749
 31
0.0
210
0.0
220
0.0
230
0.9999999999999999
 40
0.499714557
 41
0.8079180407726494
 42
1.588240544501486
  0
ELLIPSE
  5
28C
330
1F
100
AcDbEntity
  8
0
  6
Continuous
 62
     7
370
    25
100
AcDbEllipse
 10
100.6461585664
 20
138.0993001058
 30
0.0
 11
-0.008721666502665927
 21
1.000418978703749
 31
0.0
210
0.0
220
0.0
230
1.0
 40
0.499714557
 41
1.553352109088293
 42
2.333674612817158
  0
LINE
  5
28D
330
1F
100
AcDbEntity
  8
0
  6
Continuous
 62
     7
370
    25
100
AcDbLine
 10
100.1461585664
 20
138.4352842553
 30
0.0
 11
100.1461585664
 21
138.1123930666
 31
0.0
  0
LINE
  5
28E
330
1F
100
AcDbEntity
  8
0
  6
Continuous
 62
     7
370
    25
100
AcDbLine
 10
105.3602313971
 20
140.017008193
 30
0.0
 11
105.3591035399
 21
140.0600793234
 31
0.0
  0
LINE
  5
28F
330
1F
100
AcDbEntity
  8
0
  6
Continuous
 62
     7
370
    25
100
AcDbLine
 10
105.3602313971
 20
136.5306691289
 30
0.0
 11
105.3591035399
 21
136.4875979985
 31
0.0
  0
ELLIPSE
  5
290
330
1F
100
AcDbEntity
  8
0
  6
Continuous
 62
     7
370
    25
100
AcDbEllipse
 10
69.1423649624
 20
138.1115109363
 30
0.0
 11
36.18915845259204
 21
1.947628334984217
 31
0.0
210
0.0
220
0.0
230
1.0
 40
0.0007414247
 41
0.0282885576639979
 42
0.4911607830429512
  0
LINE
  5
291
330
1F
100
AcDbEntity
  8
0
  6
Continuous
 62
     7
370
    25
100
AcDbLine
 10
105.3170034856
 20
140.0591189601
 30
0.0
 11
105.539432868
 21
139.8424378489
 31
0.0
  0
LINE
  5
292
330
1F
100
AcDbEntity
  8
0
  6
Continuous
 62
     7
370
    25
100
AcDbLine
 10
105.539432868
 20
136.705239473
 30
0.0
 11
105.3170034856
 21
136.4885583618
 31
0.0
  0
ELLIPSE
  5
293
330
1F
100
AcDbEntity
  8
0
  6
Continuous
 62
     7
370
    25
100
AcDbEllipse
 10
69.1423649624
 20
138.4361663855
 30
0.0
 11
36.18915845257631
 21
-1.947628334983392
 31
0.0
210
0.0
220
0.0
230
1.0
 40
0.0007414247
 41
5.792024524150753
 42
6.25489674954798
  0
LINE
  5
294
330
1F
100
AcDbEntity
  8
0
  6
Continuous
 62
     7
370
    25
100
AcDbLine
 10
133.1612477398
 20
141.1387870731
 30
0.0
 11
133.8119012059
 21
141.3728822069
 31
0.0
  0
SPLINE
  5
295
330
1F
100
AcDbEntity
  8
0
  6
Continuous
 62
     7
370
    25
100
AcDbSpline
210
0.0
220
0.0
230
1.0
 70
     8
 71
     3
 72
    10
 73
     6
 74
     0
 42
0.00000001
 43
0.00000001
 40
0.0
 40
0.0
 40
0.0
 40
0.0
 40
0.2383396858856103
 40
0.5716506333689653
 40
1.0
 40
1.0
 40
1.0
 40
1.0
 10
133.1633478997922
 20
141.1323611029923
 30
0.0
 10
132.9190816446922
 20
141.0577629005654
 30
0.0
 10
132.3332163116918
 20
140.8788413352916
 30
0.0
 10
131.2966615106862
 20
140.6424972230366
 30
0.0
 10
130.5019674150867
 20
140.5839138468511
 30
0.0
 10
130.0550402138036
 20
140.550967201714
 30
0.0
  0
SPLINE
  5
296
330
1F
100
AcDbEntity
  8
0
  6
Continuous
 62
     7
370
    25
100
AcDbSpline
210
0.0
220
0.0
230
1.0
 70
     8
 71
     3
 72
    11
 73
     7
 74
     0
 42
0.00000001
 43
0.00000001
 40
0.0
 40
0.0
 40
0.0
 40
0.0
 40
0.250667172502349
 40
0.5010414677145716
 40
0.7508849997170931
 40
1.0
 40
1.0
 40
1.0
 40
1.0
 10
126.9866517085939
 20
140.6264166034347
 30
0.0
 10
127.4623397211545
 20
140.6532911700899
 30
0.0
 10
128.4131599566417
 20
140.7070089033961
 30
0.0
 10
129.8138325738539
 20
140.99247436705
 30
0.0
 10
131.1773983351057
 20
141.4140025136697
 30
0.0
 10
132.0300658816616
 20
141.8303595913666
 30
0.0
 10
132.455777162975
 20
142.0382341677431
 30
0.0
  0
SPLINE
  5
297
330
1F
100
AcDbEntity
  8
0
  6
Continuous
 62
     7
370
    25
100
AcDbSpline
210
0.0
220
0.0
230
1.0
 70
     8
 71
     3
 72
     9
 73
     5
 74
     0
 42
0.00000001
 43
0.00000001
 40
0.0
 40
0.0
 40
0.0
 40
0.0
 40
0.501325902198991
 40
1.0
 40
1.0
 40
1.0
 40
1.0
 10
132.4557771335332
 20
142.0382342211073
 30
0.0
 10
132.6798528343673
 20
142.1632768785774
 30
0.0
 10
133.1268189692731
 20
142.4127007701449
 30
0.0
 10
133.5408642489686
 20
142.7144688785662
 30
0.0
 10
133.7473379052695
 20
142.8649528177783
 30
0.0
  0
LINE
  5
298
330
1F
100
AcDbEntity
  8
0
  6
Continuous
 62
     7
370
    25
100
AcDbLine
 10
135.8131183653
 20
142.9797192571
 30
0.0
 11
133.7471646304
 21
142.8649440496
 31
0.0
  0
SPLINE
  5
299
330
1F
100
AcDbEntity
  8
0
  6
Continuous
 62
     7
370
    25
100
AcDbSpline
210
0.0
220
0.0
230
1.0
 70
     8
 71
     3
 72
    14
 73
    10
 74
     0
 42
0.00000001
 43
0.00000001
 40
0.0
 40
0.0
 40
0.0
 40
0.0
 40
0.0829413618596713
 40
0.1664594845668898
 40
0.2437726390188678
 40
0.3161479456895739
 40
0.4353725718192335
 40
0.6486290670514198
 40
1.0
 40
1.0
 40
1.0
 40
1.0
 10
135.8131183524288
 20
142.9797192522749
 30
0.0
 10
135.8589176537037
 20
142.9779040626926
 30
0.0
 10
135.9508347372048
 20
142.9742610609923
 30
0.0
 10
136.0013797697411
 20
142.8925999285047
 30
0.0
 10
135.9604748733009
 20
142.7593164482199
 30
0.0
 10
135.8248738271964
 20
142.5709899919823
 30
0.0
 10
135.5079655564516
 20
142.2727229123199
 30
0.0
 10
134.8309769462184
 20
141.8146957535346
 30
0.0
 10
134.202810130005
 20
141.5423602248568
 30
0.0
 10
133.8118982662802
 20
141.372884241207
 30
0.0
  0
LINE
  5
29A
330
1F
100
AcDbEntity
  8
0
  6
Continuous
 62
     7
370
    25
100
AcDbLine
 10
133.7471646303
 20
133.6827332723
 30
0.0
 11
135.8131183652
 21
133.5679580648
 31
0.0
  0
SPLINE
  5
29B
330
1F
100
AcDbEntity
  8
0
  6
Continuous
 62
     7
370
    25
100
AcDbSpline
210
0.0
220
0.0
230
1.0
 70
     8
 71
     3
 72
     9
 73
     5
 74
     0
 42
0.00000001
 43
0.00000001
 40
0.0
 40
0.0
 40
0.0
 40
0.0
 40
0.4986740982738612
 40
1.0
 40
1.0
 40
1.0
 40
1.0
 10
133.7473377040439
 20
133.6827243222617
 30
0.0
 10
133.5408640629742
 20
133.8332082585407
 30
0.0
 10
133.1268188142146
 20
134.1349763607941
 30
0.0
 10
132.6798527122697
 20
134.3844002524164
 30
0.0
 10
132.4557770281711
 20
134.5094429097959
 30
0.0
  0
SPLINE
  5
29C
330
1F
100
AcDbEntity
  8
0
  6
Continuous
 62
     7
370
    25
100
AcDbSpline
210
0.0
220
0.0
230
1.0
 70
     8
 71
     3
 72
    11
 73
     7
 74
     0
 42
0.00000001
 43
0.00000001
 40
0.0
 40
0.0
 40
0.0
 40
0.0
 40
0.2491150002829083
 40
0.4989585322854289
 40
0.749332827497652
 40
1.0
 40
1.0
 40
1.0
 40
1.0
 10
132.455777162975
 20
134.5094431541321
 30
0.0
 10
132.0300658816616
 20
134.7173177305086
 30
0.0
 10
131.1773983351057
 20
135.1336748082056
 30
0.0
 10
129.8138325738539
 20
135.5552029548252
 30
0.0
 10
128.4131599566417
 20
135.8406684184791
 30
0.0
 10
127.4623397211545
 20
135.8943861517853
 30
0.0
 10
126.9866517085939
 20
135.9212607184405
 30
0.0
  0
SPLINE
  5
29D
330
1F
100
AcDbEntity
  8
0
  6
Continuous
 62
     7
370
    25
100
AcDbSpline
210
0.0
220
0.0
230
1.0
 70
     8
 71
     3
 72
    10
 73
     6
 74
     0
 42
0.00000001
 43
0.00000001
 40
0.0
 40
0.0
 40
0.0
 40
0.0
 40
0.4283493666310625
 40
0.7616603141144174
 40
1.0
 40
1.0
 40
1.0
 40
1.0
 10
130.0550402138037
 20
135.9967101201612
 30
0.0
 10
130.5019674150867
 20
135.9637634750241
 30
0.0
 10
131.2966615106863
 20
135.9051800988387
 30
0.0
 10
132.3332163116918
 20
135.6688359865837
 30
0.0
 10
132.9190816446922
 20
135.4899144213099
 30
0.0
 10
133.1633478997922
 20
135.415316218883
 30
0.0
  0
LINE
  5
29E
330
1F
100
AcDbEntity
  8
0
  6
Continuous
 62
     7
370
    25
100
AcDbLine
 10
133.1612477397
 20
135.4088902485
 30
0.0
 11
133.8119012058
 21
135.1747951147
 31
0.0
  0
SPLINE
  5
29F
330
1F
100
AcDbEntity
  8
0
  6
Continuous
 62
     7
370
    25
100
AcDbSpline
210
0.0
220
0.0
230
1.0
 70
     8
 71
     3
 72
    15
 73
    11
 74
     0
 42
0.00000001
 43
0.00000001
 40
0.0
 40
0.0
 40
0.0
 40
0.0
 40
0.2091652517822445
 40
0.4176299509274902
 40
0.5931463878153087
 40
0.6923603779431098
 40
0.7731125739307014
 40
0.8543366880968448
 40
0.9261517123972136
 40
1.0
 40
1.0
 40
1.0
 40
1.0
 10
133.8118982661896
 20
135.1747930804368
 30
0.0
 10
134.045482478285
 20
135.0770954479474
 30
0.0
 10
134.5118685639451
 20
134.8820273995281
 30
0.0
 10
135.1355187111243
 20
134.5327475461756
 30
0.0
 10
135.5953683404249
 20
134.1998573592321
 30
0.0
 10
135.8572527111947
 20
133.9382392731962
 30
0.0
 10
135.9777226917099
 20
133.7576452602824
 30
0.0
 10
135.9965159186196
 20
133.6355510969721
 30
0.0
 10
135.9354777173131
 20
133.5715011076536
 30
0.0
 10
135.8542825988017
 20
133.5691500216157
 30
0.0
 10
135.8131183523938
 20
133.5679580696022
 30
0.0
  0
SPLINE
  5
2A0
330
1F
100
AcDbEntity
  8
0
  6
Continuous
 62
     7
370
    25
100
AcDbSpline
210
0.0
220
0.0
230
1.0
 70
    24
 71
     3
 72
    11
 73
     7
 74
     0
 42
0.00000001
 43
0.00000001
 40
0.0
 40
0.0
 40
0.0
 40
0.0
 40
0.2500000000000006
 40
0.5000000000000007
 40
0.7499999999999996
 40
1.0
 40
1.0
 40
1.0
 40
1.0
 10
142.580301628094
 20
135.168724607133
 30
0.0
 10
142.5819880985979
 20
135.2331283173282
 30
0.0
 10
142.5853610396058
 20
135.3619357377183
 30
0.0
 10
142.5896409365071
 20
135.5253784063286
 30
0.0
 10
142.5926830573208
 20
135.6415523132019
 30
0.0
 10
142.5931514305434
 20
135.6594387649484
 30
0.0
 10
142.5933856171547
 20
135.6683819908217
 30
0.0
  0
LINE
  5
2A1
330
1F
100
AcDbEntity
  8
0
  6
Continuous
 62
     7
370
    25
100
AcDbLine
 10
133.1633478998
 20
135.4153162189
 30
0.0
 11
142.5803016281
 21
135.1687246071
 31
0.0
  0
LINE
  5
2A2
330
1F
100
AcDbEntity
  8
0
  6
Continuous
 62
     7
370
    25
100
AcDbLine
 10
142.5803016281
 20
141.3789527147
 30
0.0
 11
133.1633478998
 21
141.132361103
 31
0.0
  0
SPLINE
  5
2A3
330
1F
100
AcDbEntity
  8
0
  6
Continuous
 62
     7
370
    25
100
AcDbSpline
210
0.0
220
0.0
230
1.0
 70
    24
 71
     3
 72
    11
 73
     7
 74
     0
 42
0.00000001
 43
0.00000001
 40
0.0
 40
0.0
 40
0.0
 40
0.0
 40
0.2500000000000003
 40
0.4999999999999991
 40
0.7499999999999989
 40
0.9999999999999999
 40
0.9999999999999999
 40
0.9999999999999999
 40
0.9999999999999999
 10
142.5933856171547
 20
140.8792953310535
 30
0.0
 10
142.5931514305434
 20
140.8882385569268
 30
0.0
 10
142.5926830573208
 20
140.9061250086733
 30
0.0
 10
142.5896409365071
 20
141.0222989155466
 30
0.0
 10
142.5853610396057
 20
141.1857415841569
 30
0.0
 10
142.5819880985979
 20
141.3145490045471
 30
0.0
 10
142.580301628094
 20
141.3789527147422
 30
0.0
  0
ELLIPSE
  5
2A4
330
1F
100
AcDbEntity
  8
0
  6
Continuous
 62
     7
370
    25
100
AcDbEllipse
 10
142.5933721619
 20
137.1697537481
 30
0.0
 11
2.497021557391548
 21
-0.152599110346614
 31
2.131628207280301E-14
210
-8.504919643681506E-15
220
5.197564944336037E-16
230
1.0
 40
0.7994627403
 41
4.755979052769778
 42
6.332003616895607
  0
SPLINE
  5
2A5
330
1F
100
AcDbEntity
  8
0
  6
Continuous
 62
     7
370
    25
100
AcDbSpline
210
0.0
220
0.0
230
1.0
 70
    24
 71
     3
 72
    11
 73
     7
 74
     0
 42
0.00000001
 43
0.00000001
 40
0.0
 40
0.0
 40
0.0
 40
0.0
 40
0.2499999999999925
 40
0.4999999999999968
 40
0.7500000000000008
 40
1.0
 40
1.0
 40
1.0
 40
1.0
 10
144.6933721618751
 20
137.1147525412374
 30
0.0
 10
144.7186321000792
 20
137.1147525412374
 30
0.0
 10
144.7691519764876
 20
137.1147525412374
 30
0.0
 10
144.8680105856879
 20
137.1147525412374
 30
0.0
 10
144.9773978655114
 20
137.1147525412374
 30
0.0
 10
145.0547140630872
 20
137.1147525412374
 30
0.0
 10
145.0933721618751
 20
137.1147525412374
 30
0.0
  0
ELLIPSE
  5
2A6
330
1F
100
AcDbEntity
  8
0
  6
Continuous
 62
     7
370
    25
100
AcDbEllipse
 10
142.5933721619
 20
139.3779235737
 30
0.0
 11
2.497021557391548
 21
0.1525991103465856
 31
2.131628207280301E-14
210
-8.504919643681503E-15
220
-5.197564944337246E-16
230
0.9999999999999998
 40
0.7994627403
 41
6.234366997463598
 42
7.810391561589416
  0
SPLINE
  5
2A7
330
1F
100
AcDbEntity
  8
0
  6
Continuous
 62
     7
370
    25
100
AcDbSpline
210
0.0
220
0.0
230
1.0
 70
    24
 71
     3
 72
    11
 73
     7
 74
     0
 42
0.00000001
 43
0.00000001
 40
0.0
 40
0.0
 40
0.0
 40
0.0
 40
0.2499999999999994
 40
0.4999999999999963
 40
0.7500000000000001
 40
0.9999999999999999
 40
0.9999999999999999
 40
0.9999999999999999
 40
0.9999999999999999
 10
145.0933721618751
 20
139.4329247806378
 30
0.0
 10
145.0547140630872
 20
139.4329247806378
 30
0.0
 10
144.9773978655114
 20
139.4329247806378
 30
0.0
 10
144.8680105856879
 20
139.4329247806378
 30
0.0
 10
144.7691519764876
 20
139.4329247806378
 30
0.0
 10
144.7186321000792
 20
139.4329247806378
 30
0.0
 10
144.6933721618751
 20
139.4329247806378
 30
0.0
  0
LINE
  5
2A8
330
1F
100
AcDbEntity
  8
0
  6
Continuous
 62
     7
370
    25
100
AcDbLine
 10
145.2301938364
 20
134.5471002367
 30
0.0
 11
133.8144645529
 21
135.1813074191
 31
0.0
  0
LINE
  5
2A9
330
1F
100
AcDbEntity
  8
0
  6
Continuous
 62
     7
370
    25
100
AcDbLine
 10
145.146988807
 20
133.0494097069
 30
0.0
 11
145.2301938364
 21
134.5471002367
 31
0.0
  0
LINE
  5
2AA
330
1F
100
AcDbEntity
  8
0
  6
Continuous
 62
     7
370
    25
100
AcDbLine
 10
135.8133107955
 20
133.5679473742
 30
0.0
 11
145.146988807
 21
133.0494097069
 31
0.0
  0
LINE
  5
2AB
330
1F
100
AcDbEntity
  8
0
  6
Continuous
 62
     7
370
    25
100
AcDbLine
 10
145.0933721619
 20
137.1147525412
 30
0.0
 11
145.0933721619
 21
139.4329247806
 31
0.0
  0
LINE
  5
2AC
330
1F
100
AcDbEntity
  8
0
  6
Continuous
 62
     7
370
    25
100
AcDbLine
 10
145.146988807
 20
143.498267615
 30
0.0
 11
135.8133107955
 21
142.9797299477
 31
0.0
  0
LINE
  5
2AD
330
1F
100
AcDbEntity
  8
0
  6
Continuous
 62
     7
370
    25
100
AcDbLine
 10
145.2301938364
 20
142.0005770852
 30
0.0
 11
145.146988807
 21
143.498267615
 31
0.0
  0
LINE
  5
2AE
330
1F
100
AcDbEntity
  8
0
  6
Continuous
 62
     7
370
    25
100
AcDbLine
 10
133.8144645529
 20
141.3663699027
 30
0.0
 11
145.2301938364
 21
142.0005770852
 31
0.0
  0
LINE
  5
2AF
330
1F
100
AcDbEntity
  8
0
  6
Continuous
 62
     7
370
    25
100
AcDbLine
 10
145.5933721619
 20
134.9102785622
 30
0.0
 11
145.2301938364
 21
134.5471002367
 31
0.0
  0
LINE
  5
2B0
330
1F
100
AcDbEntity
  8
0
  6
Continuous
 62
     7
370
    25
100
AcDbLine
 10
145.2301938364
 20
142.0005770852
 30
0.0
 11
145.5933721619
 21
141.6373987597
 31
0.0
  0
LINE
  5
2B1
330
1F
100
AcDbEntity
  8
0
  6
Continuous
 62
     7
370
    25
100
AcDbLine
 10
145.5933721619
 20
134.9102785622
 30
0.0
 11
145.5933721619
 21
141.6373987597
 31
0.0
  0
LINE
  5
2B2
330
1F
100
AcDbEntity
  8
0
  6
Continuous
 62
     7
370
    25
100
AcDbLine
 10
145.5933721619
 20
142.3637554107
 30
0.0
 11
145.2301938364
 21
142.0005770852
 31
0.0
  0
ARC
  5
2B3
330
1F
100
AcDbEntity
  8
0
  6
Continuous
 62
     7
370
    25
100
AcDbCircle
 10
145.2301938364
 20
142.0005770852
 30
0.0
 40
1.500000000000006
100
AcDbArc
 50
75.9883675978
 51
93.1798301199
  0
LINE
  5
2B4
330
1F
100
AcDbEntity
  8
0
  6
Continuous
 62
     7
370
    25
100
AcDbLine
 10
145.5933721619
 20
142.3637554107
 30
0.0
 11
145.5933721619
 21
143.4559469708
 31
0.0
  0
LINE
  5
2B5
330
1F
100
AcDbEntity
  8
0
  6
Continuous
 62
     7
370
    25
100
AcDbLine
 10
145.5933721619
 20
141.6373987597
 30
0.0
 11
145.5933721619
 21
142.3637554107
 31
0.0
  0
LINE
  5
2B6
330
1F
100
AcDbEntity
  8
0
  6
Continuous
 62
     7
370
    25
100
AcDbLine
 10
145.2301938364
 20
134.5471002367
 30
0.0
 11
145.5933721619
 21
134.1839219112
 31
0.0
  0
LINE
  5
2B7
330
1F
100
AcDbEntity
  8
0
  6
Continuous
 62
     7
370
    25
100
AcDbLine
 10
145.5933721619
 20
134.1839219112
 30
0.0
 11
145.5933721619
 21
134.9102785622
 31
0.0
  0
ARC
  5
2B8
330
1F
100
AcDbEntity
  8
0
  6
Continuous
 62
     7
370
    25
100
AcDbCircle
 10
145.2301938364
 20
134.5471002367
 30
0.0
 40
1.499999999999977
100
AcDbArc
 50
266.8201698801
 51
284.0116324022
  0
LINE
  5
2B9
330
1F
100
AcDbEntity
  8
0
  6
Continuous
 62
     7
370
    25
100
AcDbLine
 10
145.5933721619
 20
133.0917303511
 30
0.0
 11
145.5933721619
 21
134.1839219112
 31
0.0
  0
SPLINE
  5
2BA
330
1F
100
AcDbEntity
  8
0
  6
Continuous
 62
     7
370
    25
100
AcDbSpline
210
0.0
220
0.0
230
1.0
 70
    24
 71
     3
 72
     9
 73
     5
 74
     0
 42
0.00000001
 43
0.00000001
 40
0.0
 40
0.0
 40
0.0
 40
0.0
 40
0.5389665913333166
 40
1.0
 40
1.0
 40
1.0
 40
1.0
 10
133.7473387006744
 20
142.8649537201792
 30
0.0
 10
133.7014127588969
 20
142.8624022789693
 30
0.0
 10
133.6162016483829
 20
142.8576683283852
 30
0.0
 10
133.6287828405459
 20
142.8583672835054
 30
0.0
 10
133.634583190454
 20
142.8586895251669
 30
0.0
  0
SPLINE
  5
2BB
330
1F
100
AcDbEntity
  8
0
  6
Continuous
 62
     7
370
    25
100
AcDbSpline
210
0.0
220
0.0
230
1.0
 70
    24
 71
     3
 72
     9
 73
     5
 74
     0
 42
0.00000001
 43
0.00000001
 40
0.0
 40
0.0
 40
0.0
 40
0.0
 40
0.449000901028251
 40
1.0
 40
1.0
 40
1.0
 40
1.0
 10
133.6406812616193
 20
133.6886490149768
 30
0.0
 10
133.6322957090276
 20
133.6891148790097
 30
0.0
 10
133.613619682827
 20
133.6901524360209
 30
0.0
 10
133.6998344446125
 20
133.6853627270328
 30
0.0
 10
133.7473387006744
 20
133.682723601696
 30
0.0
  0
SPLINE
  5
2BC
330
1F
100
AcDbEntity
  8
0
  6
Continuous
 62
     7
370
    25
100
AcDbSpline
210
0.0
220
0.0
230
1.0
 70
     8
 71
     3
 72
     9
 73
     5
 74
     0
 42
0.00000001
 43
0.00000001
 40
0.0
 40
0.0
 40
0.0
 40
0.0
 40
0.5407747560677784
 40
1.0
 40
1.0
 40
1.0
 40
1.0
 10
105.359103539853
 20
140.0600793233542
 30
0.0
 10
105.3513474978055
 20
140.0601088237671
 30
0.0
 10
105.3370050345888
 20
140.0601633758935
 30
0.0
 10
105.3226865307808
 20
140.0595591307586
 30
0.0
 10
105.3161111123769
 20
140.0592816461391
 30
0.0
  0
LINE
  5
2BD
330
1F
100
AcDbEntity
  8
0
  6
Continuous
 62
     7
370
    25
100
AcDbLine
 10
105.3591035399
 20
136.4875979985
 30
0.0
 11
105.3161111124
 21
136.4883956757
 31
0.0
  0
ARC
  5
2BE
330
1F
100
AcDbEntity
  8
0
  6
Continuous
 62
     7
370
    25
100
AcDbCircle
 10
100.5289271856
 20
139.25476811
 30
0.0
 40
0.2631144832895068
100
AcDbArc
 50
155.7907312029
 51
205.1801169991
  0
CIRCLE
  5
2BF
330
1F
100
AcDbEntity
  8
0
  6
Continuous
 62
     7
370
    25
100
AcDbCircle
 10
155.5933721619
 20
138.2738386609
 30
0.0
 40
7.558608890731335
  0
CIRCLE
  5
2C0
330
1F
100
AcDbEntity
  8
0
  6
Continuous
 62
     7
370
    25
100
AcDbCircle
 10
155.5933721619
 20
138.2738386609
 30
0.0
 40
5.499999999999972
  0
CIRCLE
  5
2C1
330
1F
100
AcDbEntity
  8
0
  6
Continuous
 62
     7
370
    25
100
AcDbCircle
 10
155.5933721619
 20
138.2738386609
 30
0.0
 40
8.054747829088143
  0
SPLINE
  5
2C2
330
1F
100
AcDbEntity
  8
0
  6
Continuous
 62
     7
370
    25
100
AcDbSpline
210
0.0
220
0.0
230
1.0
 70
     8
 71
     3
 72
    11
 73
     7
 74
     0
 42
0.00000001
 43
0.00000001
 40
0.0
 40
0.0
 40
0.0
 40
0.0
 40
0.2920574028183093
 40
0.5665622171831316
 40
0.8065682389915578
 40
1.0
 40
1.0
 40
1.0
 40
1.0
 10
147.4771665548217
 20
136.7940729551466
 30
0.0
 10
147.5088270911372
 20
136.626472419723
 30
0.0
 10
147.5702453721978
 20
136.3013441057875
 30
0.0
 10
147.6501577314624
 20
135.9007404399212
 30
0.0
 10
147.6892565451899
 20
135.642900243916
 30
0.0
 10
147.6738401822603
 20
135.5922548156344
 30
0.0
 10
147.6669602692762
 20
135.569653107228
 30
0.0
  0
ARC
  5
2C3
330
1F
100
AcDbEntity
  8
0
  6
Continuous
 62
     7
370
    25
100
AcDbCircle
 10
155.5933721619
 20
138.2738386609
 30
0.0
 40
8.249999999999968
100
AcDbArc
 50
169.6671934996
 51
190.3328065004
  0
SPLINE
  5
2C4
330
1F
100
AcDbEntity
  8
0
  6
Continuous
 62
     7
370
    25
100
AcDbSpline
210
0.0
220
0.0
230
1.0
 70
     8
 71
     3
 72
    12
 73
     8
 74
     0
 42
0.00000001
 43
0.00000001
 40
0.0
 40
0.0
 40
0.0
 40
0.0
 40
0.1882084234719069
 40
0.3759134198095928
 40
0.5768476463044282
 40
0.8018243756979399
 40
1.0
 40
1.0
 40
1.0
 40
1.0
 10
147.6669602692796
 20
140.9780242146438
 30
0.0
 10
147.673831860649
 20
140.9564210201312
 30
0.0
 10
147.687556662991
 20
140.913272416162
 30
0.0
 10
147.6617319630329
 20
140.7197325583794
 30
0.0
 10
147.6106521683912
 20
140.4449035003404
 30
0.0
 10
147.543412166723
 20
140.1091633629711
 30
0.0
 10
147.4982959196028
 20
139.8670116629582
 30
0.0
 10
147.4771665548217
 20
139.7536043667286
 30
0.0
  0
ARC
  5
2C5
330
1F
100
AcDbEntity
  8
0
  6
Continuous
 62
     7
370
    25
100
AcDbCircle
 10
155.5933721619
 20
138.2738386609
 30
0.0
 40
8.986048245082035
100
AcDbArc
 50
200.7364869057
 51
159.2635130943
  0
LINE
  5
2C6
330
1F
100
AcDbEntity
  8
0
  6
Continuous
 62
     7
370
    25
100
AcDbLine
 10
147.6669602693
 20
135.5696531072
 30
0.0
 11
145.9373006176
 21
133.8399934555
 31
0.0
  0
LINE
  5
2C7
330
1F
100
AcDbEntity
  8
0
  6
Continuous
 62
     7
370
    25
100
AcDbLine
 10
145.9373006176
 20
142.7076838664
 30
0.0
 11
147.6669602693
 21
140.9780242146
 31
0.0
  0
ARC
  5
2C8
330
1F
100
AcDbEntity
  8
0
  6
Continuous
 62
     7
370
    25
100
AcDbCircle
 10
145.2301938364
 20
142.0005770852
 30
0.0
 40
1.000000000000008
100
AcDbArc
 50
45.0
 51
68.7044833353
  0
ARC
  5
2C9
330
1F
100
AcDbEntity
  8
0
  6
Continuous
 62
     7
370
    25
100
AcDbCircle
 10
145.2301938364
 20
134.5471002367
 30
0.0
 40
0.9999999999999793
100
AcDbArc
 50
291.2955166647
 51
315.0
  0
LINE
  5
2CA
330
1F
100
AcDbEntity
  8
0
  6
Continuous
 62
     7
370
    25
100
AcDbLine
 10
132.4427014607
 20
134.4857430494
 30
0.0
 11
132.455777163
 21
134.5094431541
 31
0.0
  0
ARC
  5
2CB
330
1F
100
AcDbEntity
  8
0
  6
Continuous
 62
     7
370
    25
100
AcDbCircle
 10
100.5292521463
 20
137.2928434122
 30
0.0
 40
0.2634365716738605
100
AcDbArc
 50
154.8370024504
 51
203.8304246444
  0
LINE
  5
2CC
330
1F
100
AcDbEntity
  8
0
  6
Continuous
 62
     7
370
    25
100
AcDbLine
 10
100.1461585664
 20
138.1123930666
 30
0.0
 11
100.0933722289
 21
138.1123930666
 31
0.0
  0
LINE
  5
2CD
330
1F
100
AcDbEntity
  8
0
  6
Continuous
 62
     7
370
    25
100
AcDbLine
 10
100.1461585664
 20
138.4352842553
 30
0.0
 11
100.093372252
 21
138.4352842553
 31
0.0
  0
LINE
  5
2CE
330
1F
100
AcDbEntity
  8
0
  6
Continuous
 62
     7
370
    25
100
AcDbLine
 10
145.9373006176
 20
133.8399934555
 30
0.0
 11
145.5933721619
 21
134.1839219112
 31
0.0
  0
LINE
  5
2CF
330
1F
100
AcDbEntity
  8
0
  6
Continuous
 62
     7
370
    25
100
AcDbLine
 10
145.5933721619
 20
134.9102785622
 30
0.0
 11
147.4771665548
 21
136.7940729551
 31
0.0
  0
LINE
  5
2D0
330
1F
100
AcDbEntity
  8
0
  6
Continuous
 62
     7
370
    25
100
AcDbLine
 10
147.4771665548
 20
139.7536043667
 30
0.0
 11
145.5933721619
 21
141.6373987597
 31
0.0
  0
LINE
  5
2D1
330
1F
100
AcDbEntity
  8
0
  6
Continuous
 62
     7
370
    25
100
AcDbLine
 10
145.9373006176
 20
142.7076838664
 30
0.0
 11
145.5933721619
 21
142.3637554107
 31
0.0
  0
INSERT
  5
2DD
330
1F
100
AcDbEntity
  8
0
  6
Continuous
 62
     7
370
    18
100
AcDbBlockReference
  2
SW_CENTERMARKSYMBOL_1
 10
155.5933721619
 20
138.2738386609
 30
0.0
  0
LINE
  5
2DE
330
1F
100
AcDbEntity
  8
0
  6
Continuous
 62
     7
370
    18
100
AcDbLine
 10
171.5933721619
 20
130.4394636609
 30
0.0
 11
182.2235685254
 21
130.7716572973
 31
0.0
  0
LINE
  5
2DF
330
1F
100
AcDbEntity
  8
0
  6
Continuous
 62
     7
370
    18
100
AcDbLine
 10
182.2235685254
 20
145.7760200246
 30
0.0
 11
171.5933721619
 21
146.1082136609
 31
0.0
  0
ENDSEC
  0
SECTION
  2
OBJECTS
  0
DICTIONARY
  5
C
330
0
100
AcDbDictionary
281
     1
  3
ACAD_GROUP
350
D
  3
ACAD_LAYOUT
350
1A
  3
ACAD_MLINESTYLE
350
17
  3
ACAD_PLOTSETTINGS
350
19
  3
ACAD_PLOTSTYLENAME
350
E
  3
ACAD_SCALELIST
350
47
  3
DWGPROPS
350
2E0
  0
DICTIONARY
  5
D
102
{ACAD_REACTORS
330
C
102
}
330
C
100
AcDbDictionary
281
     1
  0
DICTIONARY
  5
1A
102
{ACAD_REACTORS
330
C
102
}
330
C
100
AcDbDictionary
281
     1
  3
Layout1
350
1E
  3
Layout2
350
26
  3
Model
350
22
  0
DICTIONARY
  5
17
102
{ACAD_REACTORS
330
C
102
}
330
C
100
AcDbDictionary
281
     1
  3
Standard
350
18
  0
DICTIONARY
  5
19
102
{ACAD_REACTORS
330
C
102
}
330
C
100
AcDbDictionary
281
     1
  0
ACDBDICTIONARYWDFLT
  5
E
102
{ACAD_REACTORS
330
C
102
}
330
C
100
AcDbDictionary
281
     1
  3
Normal
350
F
100
AcDbDictionaryWithDefault
340
F
  0
DICTIONARY
  5
47
102
{ACAD_REACTORS
330
C
102
}
330
C
100
AcDbDictionary
281
     1
  3
A0
350
48
  3
A1
350
49
  3
A2
350
4A
  3
A3
350
4B
  3
A4
350
4C
  3
A5
350
4D
  3
A6
350
4E
  3
A7
350
4F
  3
A8
350
50
  3
A9
350
51
  3
B0
350
52
  3
B1
350
53
  3
B2
350
54
  3
B3
350
55
  3
B4
350
56
  3
B5
350
57
  3
B6
350
58
  0
XRECORD
  5
2E0
102
{ACAD_REACTORS
330
C
102
}
330
C
100
AcDbXrecord
280
     1
  1
DWGPROPS COOKIE
  2

  3

  4

  6

  7

  8
user28
  9

300
=
301
=
302
=
303
=
304
=
305
=
306
=
307
=
308
=
309
=
 40
0.0
 41
2460297.295001296
 42
2460297.295002407
  1

 90
        0
  0
LAYOUT
  5
1E
102
{ACAD_REACTORS
330
1A
102
}
330
1A
100
AcDbPlotSettings
  1

  2
none_device
  4

  6

 40
0.0
 41
0.0
 42
0.0
 43
0.0
 44
0.0
 45
0.0
 46
0.0
 47
0.0
 48
0.0
 49
0.0
140
0.0
141
0.0
142
1.0
143
1.0
 70
   688
 72
     1
 73
     0
 74
     5
  7

 75
    16
147
1.0
148
0.0
149
0.0
100
AcDbLayout
  1
Layout1
 70
     1
 71
     1
 10
0.0
 20
0.0
 11
420.0
 21
297.0
 12
0.0
 22
0.0
 32
0.0
 14
1.0000000000E+20
 24
1.0000000000E+20
 34
1.0000000000E+20
 15
-1.0000000000E+20
 25
-1.0000000000E+20
 35
-1.0000000000E+20
146
0.0
 13
0.0
 23
0.0
 33
0.0
 16
1.0
 26
0.0
 36
0.0
 17
0.0
 27
1.0
 37
0.0
 76
     0
330
1B
  0
LAYOUT
  5
26
102
{ACAD_REACTORS
330
1A
102
}
330
1A
100
AcDbPlotSettings
  1

  2
none_device
  4

  6

 40
0.0
 41
0.0
 42
0.0
 43
0.0
 44
0.0
 45
0.0
 46
0.0
 47
0.0
 48
0.0
 49
0.0
140
0.0
141
0.0
142
1.0
143
1.0
 70
   688
 72
     1
 73
     0
 74
     5
  7

 75
    16
147
1.0
148
0.0
149
0.0
100
AcDbLayout
  1
Layout2
 70
     1
 71
     2
 10
0.0
 20
0.0
 11
0.0
 21
0.0
 12
0.0
 22
0.0
 32
0.0
 14
0.0
 24
0.0
 34
0.0
 15
0.0
 25
0.0
 35
0.0
146
0.0
 13
0.0
 23
0.0
 33
0.0
 16
1.0
 26
0.0
 36
0.0
 17
0.0
 27
1.0
 37
0.0
 76
     0
330
23
  0
LAYOUT
  5
22
102
{ACAD_REACTORS
330
1A
102
}
330
1A
100
AcDbPlotSettings
  1

  2
none_device
  4
Letter_(8.50_x_11.00_Inches)
  6

 40
6.35
 41
6.35
 42
6.35000508
 43
6.35000508
 44
215.9
 45
279.4
 46
0.0
 47
0.0
 48
0.0
 49
0.0
140
0.0
141
0.0
142
1.0
143
1.0
 70
  1712
 72
     1
 73
     0
 74
     0
  7

 75
     0
147
1.0
148
0.0
149
0.0
100
AcDbLayout
  1
Model
 70
     1
 71
     0
 10
0.0
 20
0.0
 11
431.8
 21
279.4
 12
0.0
 22
0.0
 32
0.0
 14
0.0
 24
0.0
 34
0.0
 15
431.8
 25
279.4
 35
0.0
146
0.0
 13
0.0
 23
0.0
 33
0.0
 16
1.0
 26
0.0
 36
0.0
 17
0.0
 27
1.0
 37
0.0
 76
     0
330
1F
331
29
  0
MLINESTYLE
  5
18
102
{ACAD_REACTORS
330
17
102
}
330
17
100
AcDbMlineStyle
  2
Standard
 70
     0
  3

 62
   256
 51
90.0
 52
90.0
 71
     2
 49
0.5
 62
   256
  6
BYLAYER
 49
-0.5
 62
   256
  6
BYLAYER
  0
ACDBPLACEHOLDER
  5
F
102
{ACAD_REACTORS
330
E
102
}
330
E
  0
SCALE
  5
48
102
{ACAD_REACTORS
330
47
102
}
330
47
100
AcDbScale
 70
     0
300
1:1
140
1.0
141
1.0
290
     1
  0
SCALE
  5
49
102
{ACAD_REACTORS
330
47
102
}
330
47
100
AcDbScale
 70
     0
300
1:2
140
1.0
141
2.0
290
     0
  0
SCALE
  5
4A
102
{ACAD_REACTORS
330
47
102
}
330
47
100
AcDbScale
 70
     0
300
1:4
140
1.0
141
4.0
290
     0
  0
SCALE
  5
4B
102
{ACAD_REACTORS
330
47
102
}
330
47
100
AcDbScale
 70
     0
300
1:5
140
1.0
141
5.0
290
     0
  0
SCALE
  5
4C
102
{ACAD_REACTORS
330
47
102
}
330
47
100
AcDbScale
 70
     0
300
1:8
140
1.0
141
8.0
290
     0
  0
SCALE
  5
4D
102
{ACAD_REACTORS
330
47
102
}
330
47
100
AcDbScale
 70
     0
300
1:10
140
1.0
141
10.0
290
     0
  0
SCALE
  5
4E
102
{ACAD_REACTORS
330
47
102
}
330
47
100
AcDbScale
 70
     0
300
1:16
140
1.0
141
16.0
290
     0
  0
SCALE
  5
4F
102
{ACAD_REACTORS
330
47
102
}
330
47
100
AcDbScale
 70
     0
300
1:20
140
1.0
141
20.0
290
     0
  0
SCALE
  5
50
102
{ACAD_REACTORS
330
47
102
}
330
47
100
AcDbScale
 70
     0
300
1:30
140
1.0
141
30.0
290
     0
  0
SCALE
  5
51
102
{ACAD_REACTORS
330
47
102
}
330
47
100
AcDbScale
 70
     0
300
1:40
140
1.0
141
40.0
290
     0
  0
SCALE
  5
52
102
{ACAD_REACTORS
330
47
102
}
330
47
100
AcDbScale
 70
     0
300
1:50
140
1.0
141
50.0
290
     0
  0
SCALE
  5
53
102
{ACAD_REACTORS
330
47
102
}
330
47
100
AcDbScale
 70
     0
300
1:100
140
1.0
141
100.0
290
     0
  0
SCALE
  5
54
102
{ACAD_REACTORS
330
47
102
}
330
47
100
AcDbScale
 70
     0
300
2:1
140
2.0
141
1.0
290
     0
  0
SCALE
  5
55
102
{ACAD_REACTORS
330
47
102
}
330
47
100
AcDbScale
 70
     0
300
4:1
140
4.0
141
1.0
290
     0
  0
SCALE
  5
56
102
{ACAD_REACTORS
330
47
102
}
330
47
100
AcDbScale
 70
     0
300
8:1
140
8.0
141
1.0
290
     0
  0
SCALE
  5
57
102
{ACAD_REACTORS
330
47
102
}
330
47
100
AcDbScale
 70
     0
300
10:1
140
10.0
141
1.0
290
     0
  0
SCALE
  5
58
102
{ACAD_REACTORS
330
47
102
}
330
47
100
AcDbScale
 70
     0
300
100:1
140
100.0
141
1.0
290
     0
  0
ENDSEC
  0
EOF
