  0
SECTION
  2
HEADER
  9
$ACADVER
  1
AC1015
  9
$ACADMAINTVER
 70
     6
  9
$DWGCODEPAGE
  3
DOS932
  9
$INSBASE
 10
0.0
 20
0.0
 30
0.0
  9
$EXTMIN
 10
0.0
 20
0.0
 30
0.0
  9
$EXTMAX
 10
431.8
 20
279.4
 30
0.0
  9
$LIMMIN
 10
0.0
 20
0.0
  9
$LIMMAX
 10
431.8
 20
279.4
  9
$ORTHOMODE
 70
     0
  9
$REGENMODE
 70
     1
  9
$FILLMODE
 70
     1
  9
$QTEXTMODE
 70
     0
  9
$MIRRTEXT
 70
     1
  9
$LTSCALE
 40
1.0
  9
$ATTMODE
 70
     1
  9
$TEXTSIZE
 40
3.5
  9
$TRACEWID
 40
1.0
  9
$TEXTSTYLE
  7
Standard
  9
$CLAYER
  8
0
  9
$CELTYPE
  6
ByLayer
  9
$CECOLOR
 62
   256
  9
$CELTSCALE
 40
1.0
  9
$DISPSILH
 70
     0
  9
$DIMSCALE
 40
1.0
  9
$DIMASZ
 40
3.302
  9
$DIMEXO
 40
1.0
  9
$DIMDLI
 40
3.75
  9
$DIMRND
 40
0.0
  9
$DIMDLE
 40
0.0
  9
$DIMEXE
 40
1.0
  9
$DIMTP
 40
0.0
  9
$DIMTM
 40
0.0
  9
$DIMTXT
 40
3.5
  9
$DIMCEN
 40
2.5
  9
$DIMTSZ
 40
0.0
  9
$DIMTOL
 70
     0
  9
$DIMLIM
 70
     0
  9
$DIMTIH
 70
     1
  9
$DIMTOH
 70
     1
  9
$DIMSE1
 70
     0
  9
$DIMSE2
 70
     0
  9
$DIMTAD
 70
     1
  9
$DIMZIN
 70
     1
  9
$DIMBLK
  1

  9
$DIMASO
 70
     1
  9
$DIMSHO
 70
     1
  9
$DIMPOST
  1

  9
$DIMAPOST
  1

  9
$DIMALT
 70
     0
  9
$DIMALTD
 70
     3
  9
$DIMALTF
 40
0.0393700787
  9
$DIMLFAC
 40
1.0
  9
$DIMTOFL
 70
     1
  9
$DIMTVP
 40
0.0
  9
$DIMTIX
 70
     0
  9
$DIMSOXD
 70
     0
  9
$DIMSAH
 70
     0
  9
$DIMBLK1
  1

  9
$DIMBLK2
  1

  9
$DIMSTYLE
  2
ISO-25
  9
$DIMCLRD
 70
     0
  9
$DIMCLRE
 70
     0
  9
$DIMCLRT
 70
     0
  9
$DIMTFAC
 40
1.0
  9
$DIMGAP
 40
1.524
  9
$DIMJUST
 70
     0
  9
$DIMSD1
 70
     0
  9
$DIMSD2
 70
     0
  9
$DIMTOLJ
 70
     0
  9
$DIMTZIN
 70
     1
  9
$DIMALTZ
 70
     0
  9
$DIMALTTZ
 70
     0
  9
$DIMUPT
 70
     0
  9
$DIMDEC
 70
     2
  9
$DIMTDEC
 70
     2
  9
$DIMALTU
 70
     2
  9
$DIMALTTD
 70
     3
  9
$DIMTXSTY
  7
Standard
  9
$DIMAUNIT
 70
     0
  9
$DIMADEC
 70
     2
  9
$DIMALTRND
 40
0.0
  9
$DIMAZIN
 70
     0
  9
$DIMDSEP
 70
    44
  9
$DIMATFIT
 70
     3
  9
$DIMFRAC
 70
     0
  9
$DIMLDRBLK
  1

  9
$DIMLUNIT
 70
     2
  9
$DIMLWD
 70
    -2
  9
$DIMLWE
 70
    -2
  9
$DIMTMOVE
 70
     0
  9
$LUNITS
 70
     2
  9
$LUPREC
 70
     2
  9
$SKETCHINC
 40
1.0
  9
$FILLETRAD
 40
10.0
  9
$AUNITS
 70
     0
  9
$AUPREC
 70
     2
  9
$MENU
  1
.
  9
$ELEVATION
 40
0.0
  9
$PELEVATION
 40
0.0
  9
$THICKNESS
 40
0.0
  9
$LIMCHECK
 70
     0
  9
$CHAMFERA
 40
0.0
  9
$CHAMFERB
 40
0.0
  9
$CHAMFERC
 40
0.0
  9
$CHAMFERD
 40
0.0
  9
$SKPOLY
 70
     0
  9
$TDCREATE
 40
2459566.576386435
  9
$TDUCREATE
 40
2459566.201386435
  9
$TDUPDATE
 40
2459566.576387234
  9
$TDUUPDATE
 40
2459566.201387234
  9
$TDINDWG
 40
0.0000000116
  9
$TDUSRTIMER
 40
0.0000000116
  9
$USRTIMER
 70
     1
  9
$ANGBASE
 50
0.0
  9
$ANGDIR
 70
     0
  9
$PDMODE
 70
     0
  9
$PDSIZE
 40
-1.0
  9
$PLINEWID
 40
0.0
  9
$SPLFRAME
 70
     0
  9
$SPLINETYPE
 70
     6
  9
$SPLINESEGS
 70
     8
  9
$HANDSEED
  5
241
  9
$SURFTAB1
 70
     6
  9
$SURFTAB2
 70
     6
  9
$SURFTYPE
 70
     6
  9
$SURFU
 70
     6
  9
$SURFV
 70
     6
  9
$UCSBASE
  2

  9
$UCSNAME
  2

  9
$UCSORG
 10
0.0
 20
0.0
 30
0.0
  9
$UCSXDIR
 10
1.0
 20
0.0
 30
0.0
  9
$UCSYDIR
 10
0.0
 20
1.0
 30
0.0
  9
$UCSORTHOREF
  2

  9
$UCSORTHOVIEW
 70
     0
  9
$UCSORGTOP
 10
0.0
 20
0.0
 30
0.0
  9
$UCSORGBOTTOM
 10
0.0
 20
0.0
 30
0.0
  9
$UCSORGLEFT
 10
0.0
 20
0.0
 30
0.0
  9
$UCSORGRIGHT
 10
0.0
 20
0.0
 30
0.0
  9
$UCSORGFRONT
 10
0.0
 20
0.0
 30
0.0
  9
$UCSORGBACK
 10
0.0
 20
0.0
 30
0.0
  9
$PUCSBASE
  2

  9
$PUCSNAME
  2

  9
$PUCSORG
 10
0.0
 20
0.0
 30
0.0
  9
$PUCSXDIR
 10
1.0
 20
0.0
 30
0.0
  9
$PUCSYDIR
 10
0.0
 20
1.0
 30
0.0
  9
$PUCSORTHOREF
  2

  9
$PUCSORTHOVIEW
 70
     0
  9
$PUCSORGTOP
 10
0.0
 20
0.0
 30
0.0
  9
$PUCSORGBOTTOM
 10
0.0
 20
0.0
 30
0.0
  9
$PUCSORGLEFT
 10
0.0
 20
0.0
 30
0.0
  9
$PUCSORGRIGHT
 10
0.0
 20
0.0
 30
0.0
  9
$PUCSORGFRONT
 10
0.0
 20
0.0
 30
0.0
  9
$PUCSORGBACK
 10
0.0
 20
0.0
 30
0.0
  9
$USERI1
 70
     0
  9
$USERI2
 70
     0
  9
$USERI3
 70
     0
  9
$USERI4
 70
     0
  9
$USERI5
 70
     0
  9
$USERR1
 40
0.0
  9
$USERR2
 40
0.0
  9
$USERR3
 40
0.0
  9
$USERR4
 40
0.0
  9
$USERR5
 40
0.0
  9
$WORLDVIEW
 70
     1
  9
$SHADEDGE
 70
     3
  9
$SHADEDIF
 70
    70
  9
$TILEMODE
 70
     1
  9
$MAXACTVP
 70
    64
  9
$PINSBASE
 10
0.0
 20
0.0
 30
0.0
  9
$PLIMCHECK
 70
     0
  9
$PEXTMIN
 10
1.0000000000E+20
 20
1.0000000000E+20
 30
1.0000000000E+20
  9
$PEXTMAX
 10
-1.0000000000E+20
 20
-1.0000000000E+20
 30
-1.0000000000E+20
  9
$PLIMMIN
 10
0.0
 20
0.0
  9
$PLIMMAX
 10
420.0
 20
297.0
  9
$UNITMODE
 70
     0
  9
$VISRETAIN
 70
     1
  9
$PLINEGEN
 70
     0
  9
$PSLTSCALE
 70
     1
  9
$TREEDEPTH
 70
  3020
  9
$CMLSTYLE
  2
Standard
  9
$CMLJUST
 70
     0
  9
$CMLSCALE
 40
20.0
  9
$PROXYGRAPHICS
 70
     1
  9
$MEASUREMENT
 70
     1
  9
$CELWEIGHT
370
    -1
  9
$ENDCAPS
280
     0
  9
$JOINSTYLE
280
     0
  9
$LWDISPLAY
290
     1
  9
$INSUNITS
 70
     4
  9
$HYPERLINKBASE
  1

  9
$STYLESHEET
  1

  9
$XEDIT
290
     1
  9
$CEPSNTYPE
380
     0
  9
$PSTYLEMODE
290
     1
  9
$FINGERPRINTGUID
  2
{DB34869C-D219-4B75-AFB6-C5A3AA5814AA}
  9
$VERSIONGUID
  2
{FAEB1C32-E019-11D5-929B-00C0DF256EC4}
  9
$EXTNAMES
290
     1
  9
$PSVPSCALE
 40
0.0
  9
$OLESTARTUP
290
     0
  0
ENDSEC
  0
SECTION
  2
CLASSES
  0
CLASS
  1
ACDBDICTIONARYWDFLT
  2
AcDbDictionaryWithDefault
  3
ObjectDBX Classes
 90
        0
280
     0
281
     0
  0
CLASS
  1
VISUALSTYLE
  2
AcDbVisualStyle
  3
ObjectDBX Classes
 90
     4095
280
     0
281
     0
  0
CLASS
  1
MATERIAL
  2
AcDbMaterial
  3
ObjectDBX Classes
 90
     1153
280
     0
281
     0
  0
CLASS
  1
SCALE
  2
AcDbScale
  3
ObjectDBX Classes
 90
     1153
280
     0
281
     0
  0
CLASS
  1
TABLESTYLE
  2
AcDbTableStyle
  3
ObjectDBX Classes
 90
     4095
280
     0
281
     0
  0
CLASS
  1
MLEADERSTYLE
  2
AcDbMLeaderStyle
  3
ACDB_MLEADERSTYLE_CLASS
 90
     4095
280
     0
281
     0
  0
CLASS
  1
SUN
  2
AcDbSun
  3
SCENEOE
 90
     1153
280
     0
281
     0
  0
CLASS
  1
ACDBPLACEHOLDER
  2
AcDbPlaceHolder
  3
ObjectDBX Classes
 90
        0
280
     0
281
     0
  0
CLASS
  1
LAYOUT
  2
AcDbLayout
  3
ObjectDBX Classes
 90
        0
280
     0
281
     0
  0
ENDSEC
  0
SECTION
  2
TABLES
  0
TABLE
  2
VPORT
  5
8
330
0
100
AcDbSymbolTable
 70
     1
  0
VPORT
  5
29
330
8
100
AcDbSymbolTableRecord
100
AcDbViewportTableRecord
  2
*Active
 70
     0
 10
0.0
 20
0.0
 11
1.0
 21
1.0
 12
215.9
 22
139.7
 13
0.0
 23
0.0
 14
10.0
 24
10.0
 15
10.0
 25
10.0
 16
0.0
 26
0.0
 36
1.0
 17
0.0
 27
0.0
 37
0.0
 40
279.4
 41
1.5454545455
 42
50.0
 43
0.0
 44
0.0
 50
0.0
 51
0.0
 71
     0
 72
  2000
 73
     1
 74
     3
 75
     0
 76
     0
 77
     0
 78
     0
281
     0
 65
     1
110
0.0
120
0.0
130
0.0
111
1.0
121
0.0
131
0.0
112
0.0
122
1.0
132
0.0
 79
     0
146
0.0
  0
ENDTAB
  0
TABLE
  2
LTYPE
  5
5
330
0
100
AcDbSymbolTable
 70
     6
  0
LTYPE
  5
14
330
5
100
AcDbSymbolTableRecord
100
AcDbLinetypeTableRecord
  2
ByBlock
 70
     0
  3

 72
    65
 73
     0
 40
0.0
  0
LTYPE
  5
15
330
5
100
AcDbSymbolTableRecord
100
AcDbLinetypeTableRecord
  2
ByLayer
 70
     0
  3

 72
    65
 73
     0
 40
0.0
  0
LTYPE
  5
16
330
5
100
AcDbSymbolTableRecord
100
AcDbLinetypeTableRecord
  2
Continuous
 70
     0
  3
Solid line
 72
    65
 73
     0
 40
0.0
  0
LTYPE
  5
6E
330
5
100
AcDbSymbolTableRecord
100
AcDbLinetypeTableRecord
  2
HIDDEN
 70
     0
  3
Hidden __ __ __ __ __ __ __ __ __ __ __ __ __ __
 72
    65
 73
     2
 40
1.905
 49
1.27
 74
     0
 49
-0.635
 74
     0
  0
LTYPE
  5
6F
330
5
100
AcDbSymbolTableRecord
100
AcDbLinetypeTableRecord
  2
PHANTOM
 70
     0
  3
Phantom ______  __  __  ______  __  __  ______
 72
    65
 73
     6
 40
12.7
 49
6.35
 74
     0
 49
-1.27
 74
     0
 49
1.27
 74
     0
 49
-1.27
 74
     0
 49
1.27
 74
     0
 49
-1.27
 74
     0
  0
LTYPE
  5
70
330
5
100
AcDbSymbolTableRecord
100
AcDbLinetypeTableRecord
  2
CENTER
 70
     0
  3
Center ____ _ ____ _ ____ _ ____ _ ____ _ ____
 72
    65
 73
     4
 40
10.16
 49
6.35
 74
     0
 49
-1.27
 74
     0
 49
1.27
 74
     0
 49
-1.27
 74
     0
  0
LTYPE
  5
71
330
5
100
AcDbSymbolTableRecord
100
AcDbLinetypeTableRecord
  2
CENTERX2
 70
     0
  3
Center (2x) ________  __  ________  __  _____
 72
    65
 73
     4
 40
20.32
 49
12.7
 74
     0
 49
-2.54
 74
     0
 49
2.54
 74
     0
 49
-2.54
 74
     0
  0
LTYPE
  5
72
330
5
100
AcDbSymbolTableRecord
100
AcDbLinetypeTableRecord
  2
DOT2
 70
     0
  3
Dot (.5x) ........................................
 72
    65
 73
     2
 40
0.635
 49
0.0
 74
     0
 49
-0.635
 74
     0
  0
ENDTAB
  0
TABLE
  2
LAYER
  5
2
330
0
100
AcDbSymbolTable
 70
     1
  0
LAYER
  5
10
330
2
100
AcDbSymbolTableRecord
100
AcDbLayerTableRecord
  2
0
 70
     0
 62
     7
  6
Continuous
370
    -3
390
F
  0
ENDTAB
  0
TABLE
  2
STYLE
  5
3
330
0
100
AcDbSymbolTable
 70
     2
  0
STYLE
  5
11
330
3
100
AcDbSymbolTableRecord
100
AcDbTextStyleTableRecord
  2
Standard
 70
     0
 40
0.0
 41
1.0
 50
0.0
 71
     0
 42
3.5
  3
txt
  4
bigfont
  0
STYLE
  5
73
330
3
100
AcDbSymbolTableRecord
100
AcDbTextStyleTableRecord
  2
SLDTEXTSTYLE0
 70
     0
 40
0.0
 41
0.7
 50
0.0
 71
     0
 42
3.5
  3
TXT
  4
bigfont
  0
ENDTAB
  0
TABLE
  2
VIEW
  5
6
330
0
100
AcDbSymbolTable
 70
     0
  0
ENDTAB
  0
TABLE
  2
UCS
  5
7
330
0
100
AcDbSymbolTable
 70
     0
  0
ENDTAB
  0
TABLE
  2
APPID
  5
9
330
0
100
AcDbSymbolTable
 70
     1
  0
APPID
  5
12
330
9
100
AcDbSymbolTableRecord
100
AcDbRegAppTableRecord
  2
ACAD
 70
     0
  0
ENDTAB
  0
TABLE
  2
DIMSTYLE
  5
A
330
0
100
AcDbSymbolTable
 70
     1
100
AcDbDimStyleTable
  0
DIMSTYLE
105
27
330
A
100
AcDbSymbolTableRecord
100
AcDbDimStyleTableRecord
  2
ISO-25
 70
     0
 41
2.5
 42
0.625
 43
3.75
 44
1.25
 73
     0
 74
     0
 77
     1
 78
     8
140
2.5
141
2.5
143
0.0393700787
147
0.625
171
     3
172
     1
178
     0
271
     2
272
     2
274
     3
278
    44
283
     0
284
     8
340
11
  0
ENDTAB
  0
TABLE
  2
BLOCK_RECORD
  5
1
330
0
100
AcDbSymbolTable
 70
     1
  0
BLOCK_RECORD
  5
1F
330
1
100
AcDbSymbolTableRecord
100
AcDbBlockTableRecord
  2
*Model_Space
340
22
  0
BLOCK_RECORD
  5
1B
330
1
100
AcDbSymbolTableRecord
100
AcDbBlockTableRecord
  2
*Paper_Space
340
1E
  0
BLOCK_RECORD
  5
23
330
1
100
AcDbSymbolTableRecord
100
AcDbBlockTableRecord
  2
*Paper_Space0
340
26
  0
ENDTAB
  0
ENDSEC
  0
SECTION
  2
BLOCKS
  0
BLOCK
  5
20
330
1F
100
AcDbEntity
  8
0
100
AcDbBlockBegin
  2
*Model_Space
 70
     0
 10
0.0
 20
0.0
 30
0.0
  3
*Model_Space
  1

  0
ENDBLK
  5
21
330
1F
100
AcDbEntity
  8
0
100
AcDbBlockEnd
  0
BLOCK
  5
1C
330
1B
100
AcDbEntity
 67
     1
  8
0
100
AcDbBlockBegin
  2
*Paper_Space
 70
     0
 10
0.0
 20
0.0
 30
0.0
  3
*Paper_Space
  1

  0
ENDBLK
  5
1D
330
1B
100
AcDbEntity
 67
     1
  8
0
100
AcDbBlockEnd
  0
BLOCK
  5
24
330
23
100
AcDbEntity
  8
0
100
AcDbBlockBegin
  2
*Paper_Space0
 70
     0
 10
0.0
 20
0.0
 30
0.0
  3
*Paper_Space0
  1

  0
ENDBLK
  5
25
330
23
100
AcDbEntity
  8
0
100
AcDbBlockEnd
  0
ENDSEC
  0
SECTION
  2
ENTITIES
  0
MTEXT
  5
74
330
1F
100
AcDbEntity
  8
0
  6
Continuous
 62
     7
370
     0
100
AcDbMText
 10
171.6717073611
 20
120.8085114557
 30
0.0
 40
4.2333333333
 41
0.0
 71
     1
 72
     1
  1
BH-1116
  7
SLDTEXTSTYLE0
 73
     1
 44
1.0
  0
LINE
  5
75
330
1F
100
AcDbEntity
  8
0
  6
Continuous
 62
     7
370
    25
100
AcDbLine
 10
145.6442980647
 20
66.911792131
 30
0.0
 11
147.5123318464
 21
66.911792131
 31
0.0
  0
LINE
  5
76
330
1F
100
AcDbEntity
  8
0
  6
Continuous
 62
     7
370
    25
100
AcDbLine
 10
147.5123318464
 20
86.911791684
 30
0.0
 11
145.6442980647
 21
86.911791684
 31
0.0
  0
LINE
  5
77
330
1F
100
AcDbEntity
  8
0
  6
Continuous
 62
     7
370
    25
100
AcDbLine
 10
164.8942979604
 20
86.911791684
 30
0.0
 11
163.2762646854
 21
86.911791684
 31
0.0
  0
LINE
  5
78
330
1F
100
AcDbEntity
  8
0
  6
Continuous
 62
     7
370
    25
100
AcDbLine
 10
163.2762646854
 20
66.911792131
 30
0.0
 11
164.8942979604
 21
66.911792131
 31
0.0
  0
ARC
  5
79
330
1F
100
AcDbEntity
  8
0
  6
Continuous
 62
     7
370
    25
100
AcDbCircle
 10
164.3942982659
 20
85.9117919075
 30
0.0
 40
1.500000000000014
100
AcDbArc
 50
138.1896851042
 51
180.0
  0
ARC
  5
7A
330
1F
100
AcDbEntity
  8
0
  6
Continuous
 62
     7
370
    25
100
AcDbCircle
 10
164.3942982659
 20
67.9117919075
 30
0.0
 40
1.500000000000014
100
AcDbArc
 50
180.0
 51
221.8103148958
  0
ARC
  5
7B
330
1F
100
AcDbEntity
  8
0
  6
Continuous
 62
     7
370
    25
100
AcDbCircle
 10
146.3942982659
 20
67.9117919075
 30
0.0
 40
1.500000000000014
100
AcDbArc
 50
318.1896851042
 51
0.0
  0
ARC
  5
7C
330
1F
100
AcDbEntity
  8
0
  6
Continuous
 62
     7
370
    25
100
AcDbCircle
 10
146.3942982659
 20
85.9117919075
 30
0.0
 40
1.500000000000014
100
AcDbArc
 50
0.0
 51
41.8103148958
  0
LINE
  5
7D
330
1F
100
AcDbEntity
  8
0
  6
Continuous
 62
     7
370
    25
100
AcDbLine
 10
145.6442980647
 20
86.911791684
 30
0.0
 11
145.3942984894
 21
86.6617921087
 31
0.0
  0
LINE
  5
7E
330
1F
100
AcDbEntity
  8
0
  6
Continuous
 62
     7
370
    25
100
AcDbLine
 10
145.3942984894
 20
67.1617917063
 30
0.0
 11
145.6442980647
 21
66.911792131
 31
0.0
  0
LINE
  5
7F
330
1F
100
AcDbEntity
  8
0
  6
Continuous
 62
     7
370
    25
100
AcDbLine
 10
164.8942979604
 20
66.911792131
 30
0.0
 11
165.3942980424
 21
67.411792213
 31
0.0
  0
LINE
  5
80
330
1F
100
AcDbEntity
  8
0
  6
Continuous
 62
     7
370
    25
100
AcDbLine
 10
165.3942980424
 20
86.411791602
 30
0.0
 11
164.8942979604
 21
86.911791684
 31
0.0
  0
ARC
  5
81
330
1F
100
AcDbEntity
  8
0
  6
Continuous
 62
     7
370
    25
100
AcDbCircle
 10
162.3942982659
 20
85.9117919075
 30
0.0
 40
0.5
100
AcDbArc
 50
270.0
 51
0.0
  0
ARC
  5
82
330
1F
100
AcDbEntity
  8
0
  6
Continuous
 62
     7
370
    25
100
AcDbCircle
 10
148.3942982659
 20
85.9117919075
 30
0.0
 40
0.5
100
AcDbArc
 50
180.0
 51
270.0
  0
ARC
  5
83
330
1F
100
AcDbEntity
  8
0
  6
Continuous
 62
     7
370
    25
100
AcDbCircle
 10
148.3942982659
 20
67.9117919075
 30
0.0
 40
0.5
100
AcDbArc
 50
90.0
 51
180.0
  0
ARC
  5
84
330
1F
100
AcDbEntity
  8
0
  6
Continuous
 62
     7
370
    25
100
AcDbCircle
 10
162.3942982659
 20
67.9117919075
 30
0.0
 40
0.5
100
AcDbArc
 50
0.0
 51
90.0
  0
LINE
  5
85
330
1F
100
AcDbEntity
  8
0
  6
Continuous
 62
     7
370
    25
100
AcDbLine
 10
149.0119772583
 20
85.4117923695
 30
0.0
 11
148.3942980498
 21
85.4117923695
 31
0.0
  0
LINE
  5
86
330
1F
100
AcDbEntity
  8
0
  6
Continuous
 62
     7
370
    25
100
AcDbLine
 10
162.394298482
 20
85.4117923695
 30
0.0
 11
161.7942981042
 21
85.4117923695
 31
0.0
  0
LINE
  5
87
330
1F
100
AcDbEntity
  8
0
  6
Continuous
 62
     7
370
    25
100
AcDbLine
 10
148.3942980498
 20
68.4117914456
 30
0.0
 11
162.394298482
 21
68.4117914456
 31
0.0
  0
SPLINE
  5
88
330
1F
100
AcDbEntity
  8
0
  6
Continuous
 62
     7
370
    25
100
AcDbSpline
210
0.0
220
0.0
230
1.0
 70
     8
 71
     3
 72
    13
 73
     9
 74
     0
 42
0.000000001
 43
0.00000001
 40
0.0
 40
0.0
 40
0.0
 40
0.0
 40
0.165764770712366
 40
0.3288517014565883
 40
0.5079763322819512
 40
0.6908236301181547
 40
0.865922736235392
 40
0.9999999999999999
 40
0.9999999999999999
 40
0.9999999999999999
 40
0.9999999999999999
 10
161.7946063719906
 20
85.415125572945
 30
0.0
 10
161.7509122546755
 20
85.4170079529028
 30
0.0
 10
161.6642298748131
 20
85.42074230399102
 30
0.0
 10
161.5400453475391
 20
85.47489944582976
 30
0.0
 10
161.4296786288106
 20
85.55933629448498
 30
0.0
 10
161.3468658873961
 20
85.67513059259001
 30
0.0
 10
161.3004326811844
 20
85.797892966835
 30
0.0
 10
161.2971462675733
 20
85.87912737844312
 30
0.0
 10
161.295721083156
 20
85.91435545113218
 30
0.0
  0
SPLINE
  5
89
330
1F
100
AcDbEntity
  8
0
  6
Continuous
 62
     7
370
    25
100
AcDbSpline
210
0.0
220
0.0
230
1.0
 70
     8
 71
     3
 72
    13
 73
     9
 74
     0
 42
0.000000001
 43
0.00000001
 40
0.0
 40
0.0
 40
0.0
 40
0.0
 40
0.1607066454459125
 40
0.3468546424435092
 40
0.5363364128969866
 40
0.7155423116060323
 40
0.8707861657624715
 40
1.0
 40
1.0
 40
1.0
 40
1.0
 10
149.493198151908
 20
85.9026803913368
 30
0.0
 10
149.4899739596769
 20
85.8619740200757
 30
0.0
 10
149.4830151556997
 20
85.77411708167863
 30
0.0
 10
149.4265295748079
 20
85.6479278856914
 30
0.0
 10
149.3367205768396
 20
85.53809626740409
 30
0.0
 10
149.2258882625435
 20
85.46293003036884
 30
0.0
 10
149.1147411335586
 20
85.42116470236249
 30
0.0
 10
149.0428487552226
 20
85.41526937464486
 30
0.0
 10
149.0101919129707
 20
85.41259144421947
 30
0.0
  0
LINE
  5
8A
330
1F
100
AcDbEntity
  8
0
  6
Continuous
 62
     7
370
    25
100
AcDbLine
 10
161.2942984879
 20
85.9117915201
 30
0.0
 11
161.2942984879
 21
87.411791766
 31
0.0
  0
LINE
  5
8B
330
1F
100
AcDbEntity
  8
0
  6
Continuous
 62
     7
370
    25
100
AcDbLine
 10
149.4942980439
 20
87.411791766
 30
0.0
 11
149.4942980439
 21
85.9005215856
 31
0.0
  0
LINE
  5
8C
330
1F
100
AcDbEntity
  8
0
  6
Continuous
 62
     7
370
    25
100
AcDbLine
 10
165.3942980424
 20
71.8593543674
 30
0.0
 11
174.0393501327
 21
72.1295124198
 31
0.0
  0
LINE
  5
8D
330
1F
100
AcDbEntity
  8
0
  6
Continuous
 62
     7
370
    25
100
AcDbLine
 10
174.0393501327
 20
81.6940713952
 30
0.0
 11
165.3942980424
 21
81.9642294477
 31
0.0
  0
LINE
  5
8E
330
1F
100
AcDbEntity
  8
0
  6
Continuous
 62
     7
370
    25
100
AcDbLine
 10
174.0393501327
 20
72.1295124198
 30
0.0
 11
175.3942978189
 21
72.9117917175
 31
0.0
  0
LINE
  5
8F
330
1F
100
AcDbEntity
  8
0
  6
Continuous
 62
     7
370
    25
100
AcDbLine
 10
175.3942978189
 20
80.9117920975
 30
0.0
 11
174.0393501327
 21
81.6940713952
 31
0.0
  0
LINE
  5
90
330
1F
100
AcDbEntity
  8
0
  6
Continuous
 62
     7
370
    25
100
AcDbLine
 10
162.8442981832
 20
95.4117921459
 30
0.0
 11
160.8942982361
 21
103.4117915946
 31
0.0
  0
LINE
  5
91
330
1F
100
AcDbEntity
  8
0
  6
Continuous
 62
     7
370
    25
100
AcDbLine
 10
162.394298482
 20
87.411791766
 30
0.0
 11
162.8442981832
 21
95.4117921459
 31
0.0
  0
LINE
  5
92
330
1F
100
AcDbEntity
  8
0
  6
Continuous
 62
     7
370
    25
100
AcDbLine
 10
148.3236418657
 20
88.6679093632
 30
0.0
 11
148.3942980498
 21
87.411791766
 31
0.0
  0
LINE
  5
93
330
1F
100
AcDbEntity
  8
0
  6
Continuous
 62
     7
370
    25
100
AcDbLine
 10
149.8942982957
 20
103.4117915946
 30
0.0
 11
149.6403215073
 21
102.3698353487
 31
0.0
  0
LINE
  5
94
330
1F
100
AcDbEntity
  8
0
  6
Continuous
 62
     7
370
    25
100
AcDbLine
 10
145.3942984894
 20
84.9117922875
 30
0.0
 11
135.3942987129
 21
84.9117922875
 31
0.0
  0
LINE
  5
95
330
1F
100
AcDbEntity
  8
0
  6
Continuous
 62
     7
370
    25
100
AcDbLine
 10
135.3942987129
 20
68.9117915275
 30
0.0
 11
145.3942984894
 21
68.9117915275
 31
0.0
  0
LINE
  5
96
330
1F
100
AcDbEntity
  8
0
  6
Continuous
 62
     7
370
    25
100
AcDbLine
 10
135.3942987129
 20
84.9117922875
 30
0.0
 11
130.3942978934
 21
83.9117921236
 31
0.0
  0
LINE
  5
97
330
1F
100
AcDbEntity
  8
0
  6
Continuous
 62
     7
370
    25
100
AcDbLine
 10
130.3942978934
 20
69.9117916914
 30
0.0
 11
135.3942987129
 21
68.9117915275
 31
0.0
  0
LINE
  5
98
330
1F
100
AcDbEntity
  8
0
  6
Continuous
 62
     7
370
    25
100
AcDbLine
 10
120.3942981169
 20
84.9117922875
 30
0.0
 11
115.7962393567
 21
83.9921801629
 31
0.0
  0
LINE
  5
99
330
1F
100
AcDbEntity
  8
0
  6
Continuous
 62
     7
370
    25
100
AcDbLine
 10
115.7962393567
 20
69.8314036521
 30
0.0
 11
120.3942981169
 21
68.9117915275
 31
0.0
  0
LINE
  5
9A
330
1F
100
AcDbEntity
  8
0
  6
Continuous
 62
     7
370
    25
100
AcDbLine
 10
125.3942989364
 20
84.9117922875
 30
0.0
 11
120.3942981169
 21
83.9117921236
 31
0.0
  0
LINE
  5
9B
330
1F
100
AcDbEntity
  8
0
  6
Continuous
 62
     7
370
    25
100
AcDbLine
 10
120.3942981169
 20
69.9117916914
 30
0.0
 11
125.3942989364
 21
68.9117915275
 31
0.0
  0
LINE
  5
9C
330
1F
100
AcDbEntity
  8
0
  6
Continuous
 62
     7
370
    25
100
AcDbLine
 10
130.3942978934
 20
84.9117922875
 30
0.0
 11
125.3942989364
 21
83.9117921236
 31
0.0
  0
LINE
  5
9D
330
1F
100
AcDbEntity
  8
0
  6
Continuous
 62
     7
370
    25
100
AcDbLine
 10
125.3942989364
 20
69.9117916914
 30
0.0
 11
130.3942978934
 21
68.9117915275
 31
0.0
  0
ARC
  5
9E
330
1F
100
AcDbEntity
  8
0
  6
Continuous
 62
     7
370
    25
100
AcDbCircle
 10
115.8942982659
 20
70.3216938589
 30
0.0
 40
0.5
100
AcDbArc
 50
180.0
 51
258.690067526
  0
ARC
  5
9F
330
1F
100
AcDbEntity
  8
0
  6
Continuous
 62
     7
370
    25
100
AcDbCircle
 10
115.8942982659
 20
83.5018899562
 30
0.0
 40
0.5000000000000063
100
AcDbArc
 50
101.309932474
 51
180.0
  0
LINE
  5
A0
330
1F
100
AcDbEntity
  8
0
  6
Continuous
 62
     7
370
    25
100
AcDbLine
 10
147.5123318464
 20
76.9117919075
 30
0.0
 11
147.5123318464
 21
66.911792131
 31
0.0
  0
LINE
  5
A1
330
1F
100
AcDbEntity
  8
0
  6
Continuous
 62
     7
370
    25
100
AcDbLine
 10
147.5123318464
 20
86.911791684
 30
0.0
 11
147.5123318464
 21
76.9117919075
 31
0.0
  0
LINE
  5
A2
330
1F
100
AcDbEntity
  8
0
  6
Continuous
 62
     7
370
    25
100
AcDbLine
 10
145.6442980647
 20
76.9117919075
 30
0.0
 11
145.6442980647
 21
66.911792131
 31
0.0
  0
LINE
  5
A3
330
1F
100
AcDbEntity
  8
0
  6
Continuous
 62
     7
370
    25
100
AcDbLine
 10
145.6442980647
 20
86.911791684
 30
0.0
 11
145.6442980647
 21
76.9117919075
 31
0.0
  0
LINE
  5
A4
330
1F
100
AcDbEntity
  8
0
  6
Continuous
 62
     7
370
    25
100
AcDbLine
 10
163.2762646854
 20
66.911792131
 30
0.0
 11
163.2762646854
 21
86.911791684
 31
0.0
  0
LINE
  5
A5
330
1F
100
AcDbEntity
  8
0
  6
Continuous
 62
     7
370
    25
100
AcDbLine
 10
164.8942979604
 20
66.911792131
 30
0.0
 11
164.8942979604
 21
86.911791684
 31
0.0
  0
SPLINE
  5
A6
330
1F
100
AcDbEntity
  8
0
  6
Continuous
 62
     7
370
    25
100
AcDbSpline
210
0.0
220
0.0
230
1.0
 70
     8
 71
     3
 72
     8
 73
     4
 74
     0
 42
0.000000001
 43
0.00000001
 40
0.0
 40
0.0
 40
0.0
 40
0.0
 40
1.0
 40
1.0
 40
1.0
 40
1.0
 10
162.9914993905499
 20
71.51210205601858
 30
0.0
 10
162.9236629729738
 20
71.4807391150078
 30
0.0
 10
162.894298265896
 20
71.44727095435825
 30
0.0
 10
162.894298265896
 20
71.41179190751447
 30
0.0
  0
SPLINE
  5
A7
330
1F
100
AcDbEntity
  8
0
  6
Continuous
 62
     7
370
    25
100
AcDbSpline
210
0.0
220
0.0
230
1.0
 70
     8
 71
     3
 72
    12
 73
     8
 74
     0
 42
0.000000001
 43
0.00000001
 40
0.0
 40
0.0
 40
0.0
 40
0.0
 40
0.5000000000000001
 40
0.5000000000000001
 40
0.75
 40
0.75
 40
1.0
 40
1.0
 40
1.0
 40
1.0
 10
162.9914993905499
 20
71.51210205601858
 30
0.0
 10
163.0593691505597
 20
71.54348041230067
 30
0.0
 10
163.1354037018134
 20
71.67718893279921
 30
0.0
 10
163.1820483001904
 20
71.955215042465
 30
0.0
 10
163.1864872967131
 20
72.06206122646896
 30
0.0
 10
163.1707566829202
 20
72.2889427005247
 30
0.0
 10
163.1508762529779
 20
72.40911167282931
 30
0.0
 10
163.123384332998
 20
72.53056131763957
 30
0.0
  0
SPLINE
  5
A8
330
1F
100
AcDbEntity
  8
0
  6
Continuous
 62
     7
370
    25
100
AcDbSpline
210
0.0
220
0.0
230
1.0
 70
     8
 71
     3
 72
    12
 73
     8
 74
     0
 42
0.000000001
 43
0.00000001
 40
0.0
 40
0.0
 40
0.0
 40
0.0
 40
0.5
 40
0.5
 40
0.75
 40
0.75
 40
1.0
 40
1.0
 40
1.0
 40
1.0
 10
162.894298265896
 20
76.91179190751447
 30
0.0
 10
162.894298265896
 20
76.17783488535726
 30
0.0
 10
162.8897408708967
 20
75.44485644099446
 30
0.0
 10
162.916924535276
 20
74.34803232804803
 30
0.0
 10
162.9323742061932
 20
73.9828847394776
 30
0.0
 10
162.995237807725
 20
73.25409672561356
 30
0.0
 10
163.0422677308934
 20
72.88890597021523
 30
0.0
 10
163.123384332998
 20
72.53056131763957
 30
0.0
  0
SPLINE
  5
A9
330
1F
100
AcDbEntity
  8
0
  6
Continuous
 62
     7
370
    25
100
AcDbSpline
210
0.0
220
0.0
230
1.0
 70
     8
 71
     3
 72
    12
 73
     8
 74
     0
 42
0.000000001
 43
0.00000001
 40
0.0
 40
0.0
 40
0.0
 40
0.0
 40
0.25
 40
0.25
 40
0.5
 40
0.5
 40
1.0
 40
1.0
 40
1.0
 40
1.0
 10
163.123384332998
 20
81.29302249738937
 30
0.0
 10
163.0422677308934
 20
80.9346778448137
 30
0.0
 10
162.995237807725
 20
80.56948708941538
 30
0.0
 10
162.9323742061932
 20
79.84069907555133
 30
0.0
 10
162.916924535276
 20
79.47555148698089
 30
0.0
 10
162.8897408708967
 20
78.3787273740345
 30
0.0
 10
162.894298265896
 20
77.64574892967168
 30
0.0
 10
162.894298265896
 20
76.91179190751446
 30
0.0
  0
SPLINE
  5
AA
330
1F
100
AcDbEntity
  8
0
  6
Continuous
 62
     7
370
    25
100
AcDbSpline
210
0.0
220
0.0
230
1.0
 70
     8
 71
     3
 72
    14
 73
    10
 74
     0
 42
0.000000001
 43
0.00000001
 40
0.0
 40
0.0
 40
0.0
 40
0.0
 40
0.25
 40
0.25
 40
0.5
 40
0.5
 40
0.75
 40
0.75
 40
1.0
 40
1.0
 40
1.0
 40
1.0
 10
163.123384332998
 20
81.29302249738937
 30
0.0
 10
163.1509053207431
 20
81.41460055337508
 30
0.0
 10
163.1708252425795
 20
81.53512529040022
 30
0.0
 10
163.1864922843976
 20
81.76210154950832
 30
0.0
 10
163.1820004525852
 20
81.8690715270745
 30
0.0
 10
163.1507441073016
 20
82.05453707885422
 30
0.0
 10
163.1243715239199
 20
82.13342233997307
 30
0.0
 10
163.0615349727756
 20
82.25406013114615
 30
0.0
 10
163.0254953939155
 20
82.29576432158876
 30
0.0
 10
162.9914993905499
 20
82.31148175901036
 30
0.0
  0
SPLINE
  5
AB
330
1F
100
AcDbEntity
  8
0
  6
Continuous
 62
     7
370
    25
100
AcDbSpline
210
0.0
220
0.0
230
1.0
 70
     8
 71
     3
 72
     8
 73
     4
 74
     0
 42
0.000000001
 43
0.00000001
 40
0.0
 40
0.0
 40
0.0
 40
0.0
 40
1.0
 40
1.0
 40
1.0
 40
1.0
 10
162.894298265896
 20
82.41179190751447
 30
0.0
 10
162.894298265896
 20
82.3763128606707
 30
0.0
 10
162.9236629729738
 20
82.34284470002113
 30
0.0
 10
162.9914993905499
 20
82.31148175901036
 30
0.0
  0
LINE
  5
AC
330
1F
100
AcDbEntity
  8
0
  6
Continuous
 62
     7
370
    25
100
AcDbLine
 10
162.8942980983
 20
82.4117918777
 30
0.0
 11
162.8942980983
 21
85.9117915201
 31
0.0
  0
LINE
  5
AD
330
1F
100
AcDbEntity
  8
0
  6
Continuous
 62
     7
370
    25
100
AcDbLine
 10
162.8942980983
 20
67.9117922949
 30
0.0
 11
162.8942980983
 21
71.4117919373
 31
0.0
  0
LINE
  5
AE
330
1F
100
AcDbEntity
  8
0
  6
Continuous
 62
     7
370
    25
100
AcDbLine
 10
147.8942984335
 20
85.9117915201
 30
0.0
 11
147.8942984335
 21
82.4117918777
 31
0.0
  0
SPLINE
  5
AF
330
1F
100
AcDbEntity
  8
0
  6
Continuous
 62
     7
370
    25
100
AcDbSpline
210
0.0
220
0.0
230
1.0
 70
     8
 71
     3
 72
     8
 73
     4
 74
     0
 42
0.000000001
 43
0.00000001
 40
0.0
 40
0.0
 40
0.0
 40
0.0
 40
1.0
 40
1.0
 40
1.0
 40
1.0
 10
147.797097141242
 20
82.31148175901036
 30
0.0
 10
147.8649335588181
 20
82.34284470002113
 30
0.0
 10
147.8942982658959
 20
82.3763128606707
 30
0.0
 10
147.8942982658959
 20
82.41179190751447
 30
0.0
  0
SPLINE
  5
B0
330
1F
100
AcDbEntity
  8
0
  6
Continuous
 62
     7
370
    25
100
AcDbSpline
210
0.0
220
0.0
230
1.0
 70
     8
 71
     3
 72
    12
 73
     8
 74
     0
 42
0.000000001
 43
0.00000001
 40
0.0
 40
0.0
 40
0.0
 40
0.0
 40
0.4999999999999992
 40
0.4999999999999992
 40
0.7499999999999996
 40
0.7499999999999996
 40
1.0
 40
1.0
 40
1.0
 40
1.0
 10
147.797097141242
 20
82.31148175901036
 30
0.0
 10
147.7292273812322
 20
82.28010340272826
 30
0.0
 10
147.6531928299785
 20
82.14639488222971
 30
0.0
 10
147.6065482316015
 20
81.86836877256393
 30
0.0
 10
147.6021092350788
 20
81.76152258855998
 30
0.0
 10
147.6178398488717
 20
81.53464111450423
 30
0.0
 10
147.637720278814
 20
81.41447214219961
 30
0.0
 10
147.6652121987939
 20
81.29302249738937
 30
0.0
  0
SPLINE
  5
B1
330
1F
100
AcDbEntity
  8
0
  6
Continuous
 62
     7
370
    25
100
AcDbSpline
210
0.0
220
0.0
230
1.0
 70
     8
 71
     3
 72
    12
 73
     8
 74
     0
 42
0.000000001
 43
0.00000001
 40
0.0
 40
0.0
 40
0.0
 40
0.0
 40
0.4999999999999998
 40
0.4999999999999998
 40
0.7499999999999999
 40
0.7499999999999999
 40
1.0
 40
1.0
 40
1.0
 40
1.0
 10
147.8942982658959
 20
76.91179190751444
 30
0.0
 10
147.8942982658959
 20
77.64574892967167
 30
0.0
 10
147.8988556608952
 20
78.37872737403448
 30
0.0
 10
147.8716719965159
 20
79.47555148698089
 30
0.0
 10
147.8562223255987
 20
79.84069907555133
 30
0.0
 10
147.7933587240669
 20
80.56948708941538
 30
0.0
 10
147.7463288008985
 20
80.9346778448137
 30
0.0
 10
147.6652121987939
 20
81.29302249738937
 30
0.0
  0
SPLINE
  5
B2
330
1F
100
AcDbEntity
  8
0
  6
Continuous
 62
     7
370
    25
100
AcDbSpline
210
0.0
220
0.0
230
1.0
 70
     8
 71
     3
 72
    12
 73
     8
 74
     0
 42
0.000000001
 43
0.00000001
 40
0.0
 40
0.0
 40
0.0
 40
0.0
 40
0.2500000000000001
 40
0.2500000000000001
 40
0.5000000000000002
 40
0.5000000000000002
 40
1.0
 40
1.0
 40
1.0
 40
1.0
 10
147.6652121987939
 20
72.53056131763957
 30
0.0
 10
147.7463288008985
 20
72.88890597021523
 30
0.0
 10
147.7933587240669
 20
73.25409672561356
 30
0.0
 10
147.8562223255987
 20
73.9828847394776
 30
0.0
 10
147.8716719965159
 20
74.34803232804803
 30
0.0
 10
147.8988556608952
 20
75.44485644099446
 30
0.0
 10
147.8942982658959
 20
76.17783488535724
 30
0.0
 10
147.8942982658959
 20
76.91179190751446
 30
0.0
  0
SPLINE
  5
B3
330
1F
100
AcDbEntity
  8
0
  6
Continuous
 62
     7
370
    25
100
AcDbSpline
210
0.0
220
0.0
230
1.0
 70
     8
 71
     3
 72
    14
 73
    10
 74
     0
 42
0.000000001
 43
0.00000001
 40
0.0
 40
0.0
 40
0.0
 40
0.0
 40
0.25
 40
0.25
 40
0.5
 40
0.5
 40
0.75
 40
0.75
 40
1.0
 40
1.0
 40
1.0
 40
1.0
 10
147.6652121987939
 20
72.53056131763957
 30
0.0
 10
147.6376912110488
 20
72.40898326165384
 30
0.0
 10
147.6177712892124
 20
72.28845852462871
 30
0.0
 10
147.6021042473944
 20
72.06148226552061
 30
0.0
 10
147.6065960792067
 20
71.95451228795443
 30
0.0
 10
147.6378524244903
 20
71.7690467361747
 30
0.0
 10
147.664225007872
 20
71.69016147505587
 30
0.0
 10
147.7270615590163
 20
71.56952368388278
 30
0.0
 10
147.7631011378764
 20
71.52781949344018
 30
0.0
 10
147.797097141242
 20
71.51210205601858
 30
0.0
  0
SPLINE
  5
B4
330
1F
100
AcDbEntity
  8
0
  6
Continuous
 62
     7
370
    25
100
AcDbSpline
210
0.0
220
0.0
230
1.0
 70
     8
 71
     3
 72
     8
 73
     4
 74
     0
 42
0.000000001
 43
0.00000001
 40
0.0
 40
0.0
 40
0.0
 40
0.0
 40
1.0
 40
1.0
 40
1.0
 40
1.0
 10
147.8942982658959
 20
71.41179190751447
 30
0.0
 10
147.8942982658959
 20
71.44727095435825
 30
0.0
 10
147.8649335588181
 20
71.4807391150078
 30
0.0
 10
147.797097141242
 20
71.51210205601858
 30
0.0
  0
LINE
  5
B5
330
1F
100
AcDbEntity
  8
0
  6
Continuous
 62
     7
370
    25
100
AcDbLine
 10
147.8942984335
 20
71.4117919373
 30
0.0
 11
147.8942984335
 21
67.9117922949
 31
0.0
  0
LINE
  5
B6
330
1F
100
AcDbEntity
  8
0
  6
Continuous
 62
     7
370
    25
100
AcDbLine
 10
145.3942984894
 20
76.9117919075
 30
0.0
 11
145.3942984894
 21
86.6617921087
 31
0.0
  0
LINE
  5
B7
330
1F
100
AcDbEntity
  8
0
  6
Continuous
 62
     7
370
    25
100
AcDbLine
 10
145.3942984894
 20
67.1617917063
 30
0.0
 11
145.3942984894
 21
76.9117919075
 31
0.0
  0
LINE
  5
B8
330
1F
100
AcDbEntity
  8
0
  6
Continuous
 62
     7
370
    25
100
AcDbLine
 10
165.3942980424
 20
86.411791602
 30
0.0
 11
165.3942980424
 21
67.411792213
 31
0.0
  0
LWPOLYLINE
  5
B9
330
1F
100
AcDbEntity
  8
0
  6
Continuous
 62
     7
370
    25
100
AcDbPolyline
 90
        9
 70
   128
 43
0.0
 10
163.1233843595
 20
72.5305613409
 10
163.0888970189
 20
72.5208928156
 10
163.0473837808
 20
72.5092540773
 10
162.9995943599
 20
72.4958560708
 10
162.9463916265
 20
72.4809404741
 10
162.8887353085
 20
72.4647759738
 10
162.8276670903
 20
72.4476554709
 10
162.7642891921
 20
72.4298867675
 10
162.6997462094
 20
72.4117921012
  0
SPLINE
  5
BA
330
1F
100
AcDbEntity
  8
0
  6
Continuous
 62
     7
370
    25
100
AcDbSpline
210
0.0
220
0.0
230
1.0
 70
     8
 71
     3
 72
    14
 73
    10
 74
     0
 42
0.000000001
 43
0.00000001
 40
0.0
 40
0.0
 40
0.0
 40
0.0
 40
0.2500000000000002
 40
0.2500000000000002
 40
0.5000000000000003
 40
0.5000000000000003
 40
0.7500000000000002
 40
0.7500000000000002
 40
1.0
 40
1.0
 40
1.0
 40
1.0
 10
162.6997463553653
 20
72.41179190751447
 30
0.0
 10
162.5971858375412
 20
72.77761447336032
 30
0.0
 10
162.5338728513904
 20
73.15322238880177
 30
0.0
 10
162.4486551882051
 20
73.90222762807046
 30
0.0
 10
162.4267370935266
 20
74.27770828571946
 30
0.0
 10
162.4009638377468
 20
75.0295234244346
 30
0.0
 10
162.3972003522822
 20
75.40586223894995
 30
0.0
 10
162.3938890041763
 20
76.15873913779853
 30
0.0
 10
162.394298265896
 20
76.5352751954275
 30
0.0
 10
162.394298265896
 20
76.91179190751447
 30
0.0
  0
LINE
  5
BB
330
1F
100
AcDbEntity
  8
0
  6
Continuous
 62
     7
370
    25
100
AcDbLine
 10
162.8942980983
 20
76.9117919075
 30
0.0
 11
162.394298482
 21
76.9117919075
 31
0.0
  0
SPLINE
  5
BC
330
1F
100
AcDbEntity
  8
0
  6
Continuous
 62
     7
370
    25
100
AcDbSpline
210
0.0
220
0.0
230
1.0
 70
     8
 71
     3
 72
    14
 73
    10
 74
     0
 42
0.000000001
 43
0.00000001
 40
0.0
 40
0.0
 40
0.0
 40
0.0
 40
0.2500000000000001
 40
0.2500000000000001
 40
0.5000000000000001
 40
0.5000000000000001
 40
0.7500000000000001
 40
0.7500000000000001
 40
1.0
 40
1.0
 40
1.0
 40
1.0
 10
148.3942982658959
 20
76.91179190751446
 30
0.0
 10
148.3942982658959
 20
76.53527519542749
 30
0.0
 10
148.3947075276156
 20
76.15873913779852
 30
0.0
 10
148.3913961795097
 20
75.40586223894995
 30
0.0
 10
148.3876326940451
 20
75.0295234244346
 30
0.0
 10
148.3618594382654
 20
74.27770828571946
 30
0.0
 10
148.3399413435868
 20
73.90222762807045
 30
0.0
 10
148.2547236804016
 20
73.15322238880177
 30
0.0
 10
148.1914106942507
 20
72.77761447336032
 30
0.0
 10
148.0888501764266
 20
72.41179190751447
 30
0.0
  0
LWPOLYLINE
  5
BD
330
1F
100
AcDbEntity
  8
0
  6
Continuous
 62
     7
370
    25
100
AcDbPolyline
 90
        9
 70
   128
 43
0.0
 10
148.0888503224
 20
72.4117921012
 10
148.0243073397
 20
72.4298867675
 10
147.9609294415
 20
72.4476554709
 10
147.8998612233
 20
72.4647759738
 10
147.8422049053
 20
72.4809404741
 10
147.7890021719
 20
72.4958560708
 10
147.741212751
 20
72.5092540773
 10
147.6996995129
 20
72.5208928156
 10
147.6652121723
 20
72.5305613409
  0
LINE
  5
BE
330
1F
100
AcDbEntity
  8
0
  6
Continuous
 62
     7
370
    25
100
AcDbLine
 10
148.3942980498
 20
76.9117919075
 30
0.0
 11
147.8942984335
 21
76.9117919075
 31
0.0
  0
SPLINE
  5
BF
330
1F
100
AcDbEntity
  8
0
  6
Continuous
 62
     7
370
    25
100
AcDbSpline
210
0.0
220
0.0
230
1.0
 70
     8
 71
     3
 72
    14
 73
    10
 74
     0
 42
0.000000001
 43
0.00000001
 40
0.0
 40
0.0
 40
0.0
 40
0.0
 40
0.2499999999999999
 40
0.2499999999999999
 40
0.4999999999999999
 40
0.4999999999999999
 40
0.7499999999999999
 40
0.7499999999999999
 40
1.0
 40
1.0
 40
1.0
 40
1.0
 10
162.394298265896
 20
76.91179190751446
 30
0.0
 10
162.394298265896
 20
77.28830861960142
 30
0.0
 10
162.3938890041763
 20
77.66484467723039
 30
0.0
 10
162.3972003522822
 20
78.41772157607897
 30
0.0
 10
162.4009638377468
 20
78.79406039059432
 30
0.0
 10
162.4267370935266
 20
79.54587552930947
 30
0.0
 10
162.4486551882051
 20
79.92135618695848
 30
0.0
 10
162.5338728513904
 20
80.67036142622716
 30
0.0
 10
162.5971858375412
 20
81.04596934166861
 30
0.0
 10
162.6997463553653
 20
81.41179190751447
 30
0.0
  0
LWPOLYLINE
  5
C0
330
1F
100
AcDbEntity
  8
0
  6
Continuous
 62
     7
370
    25
100
AcDbPolyline
 90
        9
 70
   128
 43
0.0
 10
163.1233843595
 20
81.2930224742
 10
163.0888970189
 20
81.3026909995
 10
163.0473837808
 20
81.3143297377
 10
162.9995943599
 20
81.3277277442
 10
162.9463916265
 20
81.3426433409
 10
162.8887353085
 20
81.3588078412
 10
162.8276670903
 20
81.3759283441
 10
162.7642891921
 20
81.3936970475
 10
162.6997462094
 20
81.4117917138
  0
SPLINE
  5
C1
330
1F
100
AcDbEntity
  8
0
  6
Continuous
 62
     7
370
    25
100
AcDbSpline
210
0.0
220
0.0
230
1.0
 70
     8
 71
     3
 72
    14
 73
    10
 74
     0
 42
0.000000001
 43
0.00000001
 40
0.0
 40
0.0
 40
0.0
 40
0.0
 40
0.2500000000000001
 40
0.2500000000000001
 40
0.5000000000000001
 40
0.5000000000000001
 40
0.75
 40
0.75
 40
1.0
 40
1.0
 40
1.0
 40
1.0
 10
148.0888501764266
 20
81.41179190751447
 30
0.0
 10
148.1914106942507
 20
81.04596934166861
 30
0.0
 10
148.2547236804016
 20
80.67036142622716
 30
0.0
 10
148.3399413435868
 20
79.92135618695848
 30
0.0
 10
148.3618594382654
 20
79.54587552930946
 30
0.0
 10
148.3876326940451
 20
78.79406039059432
 30
0.0
 10
148.3913961795097
 20
78.41772157607897
 30
0.0
 10
148.3947075276156
 20
77.66484467723038
 30
0.0
 10
148.3942982658959
 20
77.28830861960142
 30
0.0
 10
148.3942982658959
 20
76.91179190751446
 30
0.0
  0
LWPOLYLINE
  5
C2
330
1F
100
AcDbEntity
  8
0
  6
Continuous
 62
     7
370
    25
100
AcDbPolyline
 90
        9
 70
   128
 43
0.0
 10
148.0888503224
 20
81.4117917138
 10
148.0243073397
 20
81.3936970475
 10
147.9609294415
 20
81.3759283441
 10
147.8998612233
 20
81.3588078412
 10
147.8422049053
 20
81.3426433409
 10
147.7890021719
 20
81.3277277442
 10
147.741212751
 20
81.3143297377
 10
147.6996995129
 20
81.3026909995
 10
147.6652121723
 20
81.2930224742
  0
SPLINE
  5
C3
330
1F
100
AcDbEntity
  8
0
  6
Continuous
 62
     7
370
    25
100
AcDbSpline
210
0.0
220
0.0
230
1.0
 70
     8
 71
     3
 72
    14
 73
    10
 74
     0
 42
0.000000001
 43
0.00000001
 40
0.0
 40
0.0
 40
0.0
 40
0.0
 40
0.25
 40
0.25
 40
0.5
 40
0.5
 40
0.75
 40
0.75
 40
1.0
 40
1.0
 40
1.0
 40
1.0
 10
148.2646967663574
 20
71.91179190751447
 30
0.0
 10
148.2262212827358
 20
71.91179190751447
 30
0.0
 10
148.1851323612658
 20
71.92257847849768
 30
0.0
 10
148.1058495138252
 20
71.96551026556283
 30
0.0
 10
148.0685666127148
 20
71.99692777386771
 30
0.0
 10
148.015760853403
 20
72.08824261944393
 30
0.0
 10
148.0037915933093
 20
72.14947310220819
 30
0.0
 10
148.0237933816815
 20
72.28033646286391
 30
0.0
 10
148.0532498372338
 20
72.3483005772015
 30
0.0
 10
148.0888501764266
 20
72.41179190751447
 30
0.0
  0
ARC
  5
C4
330
1F
100
AcDbEntity
  8
0
  6
Continuous
 62
     7
370
    25
100
AcDbCircle
 10
148.2732455101
 20
71.4284221844
 30
0.0
 40
0.4834454273381092
100
AcDbArc
 50
91.0132315312
 51
170.0324555796
  0
SPLINE
  5
C5
330
1F
100
AcDbEntity
  8
0
  6
Continuous
 62
     7
370
    25
100
AcDbSpline
210
0.0
220
0.0
230
1.0
 70
     8
 71
     3
 72
    14
 73
    10
 74
     0
 42
0.000000001
 43
0.00000001
 40
0.0
 40
0.0
 40
0.0
 40
0.0
 40
0.25
 40
0.25
 40
0.5
 40
0.5
 40
0.75
 40
0.75
 40
1.0
 40
1.0
 40
1.0
 40
1.0
 10
162.5238997654345
 20
81.91179190751447
 30
0.0
 10
162.5623752490561
 20
81.91179190751447
 30
0.0
 10
162.6034641705261
 20
81.90100533653124
 30
0.0
 10
162.6827470179667
 20
81.85807354946608
 30
0.0
 10
162.7200299190772
 20
81.82665604116121
 30
0.0
 10
162.7728356783889
 20
81.735341195585
 30
0.0
 10
162.7848049384826
 20
81.67411071282073
 30
0.0
 10
162.7648031501104
 20
81.54324735216503
 30
0.0
 10
162.7353466945581
 20
81.47528323782744
 30
0.0
 10
162.6997463553653
 20
81.41179190751447
 30
0.0
  0
ARC
  5
C6
330
1F
100
AcDbEntity
  8
0
  6
Continuous
 62
     7
370
    25
100
AcDbCircle
 10
162.5153510217
 20
82.3951616307
 30
0.0
 40
0.4834454273381344
100
AcDbArc
 50
271.0132315313
 51
350.0324555796
  0
ARC
  5
C7
330
1F
100
AcDbEntity
  8
0
  6
Continuous
 62
     7
370
    25
100
AcDbCircle
 10
162.5153510217
 20
71.4284221844
 30
0.0
 40
0.4834454273381369
100
AcDbArc
 50
9.9675444204
 51
88.9867684687
  0
SPLINE
  5
C8
330
1F
100
AcDbEntity
  8
0
  6
Continuous
 62
     7
370
    25
100
AcDbSpline
210
0.0
220
0.0
230
1.0
 70
     8
 71
     3
 72
    16
 73
    12
 74
     0
 42
0.000000001
 43
0.00000001
 40
0.0
 40
0.0
 40
0.0
 40
0.0
 40
0.2499999999999999
 40
0.2499999999999999
 40
0.3750000000000003
 40
0.3750000000000003
 40
0.5000000000000007
 40
0.5000000000000007
 40
0.7500000000000003
 40
0.7500000000000003
 40
1.0
 40
1.0
 40
1.0
 40
1.0
 10
162.6997463553653
 20
72.41179190751447
 30
0.0
 10
162.735300284814
 20
72.34838334653628
 30
0.0
 10
162.7645724260427
 20
72.28111604621546
 30
0.0
 10
162.7797849762636
 20
72.18267673507312
 30
0.0
 10
162.7798456444371
 20
72.15020132871783
 30
0.0
 10
162.7696350599598
 20
72.09157612159161
 30
0.0
 10
162.7598517304345
 20
72.06595331003864
 30
0.0
 10
162.7206871819026
 20
71.99774446634319
 30
0.0
 10
162.6828141086293
 20
71.9655817111774
 30
0.0
 10
162.6037411356377
 20
71.92269349206153
 30
0.0
 10
162.5623540030469
 20
71.91179190751447
 30
0.0
 10
162.5238997654345
 20
71.91179190751447
 30
0.0
  0
SPLINE
  5
C9
330
1F
100
AcDbEntity
  8
0
  6
Continuous
 62
     7
370
    25
100
AcDbSpline
210
0.0
220
0.0
230
1.0
 70
     8
 71
     3
 72
    16
 73
    12
 74
     0
 42
0.000000001
 43
0.00000001
 40
0.0
 40
0.0
 40
0.0
 40
0.0
 40
0.2500000000000049
 40
0.2500000000000049
 40
0.3750000000000051
 40
0.3750000000000051
 40
0.5000000000000052
 40
0.5000000000000052
 40
0.7500000000000026
 40
0.7500000000000026
 40
1.0
 40
1.0
 40
1.0
 40
1.0
 10
148.0888501764266
 20
81.41179190751447
 30
0.0
 10
148.0532962469779
 20
81.47520046849266
 30
0.0
 10
148.0240241057492
 20
81.54246776881348
 30
0.0
 10
148.0088115555284
 20
81.64090707995582
 30
0.0
 10
148.0087508873548
 20
81.6733824863111
 30
0.0
 10
148.0189614718321
 20
81.7320076934373
 30
0.0
 10
148.0287448013574
 20
81.7576305049903
 30
0.0
 10
148.0679093498893
 20
81.82583934868575
 30
0.0
 10
148.1057824231626
 20
81.85800210385152
 30
0.0
 10
148.1848553961542
 20
81.90089032296741
 30
0.0
 10
148.226242528745
 20
81.91179190751447
 30
0.0
 10
148.2646967663574
 20
81.91179190751447
 30
0.0
  0
ARC
  5
CA
330
1F
100
AcDbEntity
  8
0
  6
Continuous
 62
     7
370
    25
100
AcDbCircle
 10
148.2732455101
 20
82.3951616307
 30
0.0
 40
0.483445427338095
100
AcDbArc
 50
189.9675444204
 51
268.9867684688
  0
LINE
  5
CB
330
1F
100
AcDbEntity
  8
0
  6
Continuous
 62
     7
370
    25
100
AcDbLine
 10
162.5238999345
 20
71.9117920193
 30
0.0
 11
148.2646965973
 21
71.9117920193
 31
0.0
  0
LINE
  5
CC
330
1F
100
AcDbEntity
  8
0
  6
Continuous
 62
     7
370
    25
100
AcDbLine
 10
148.0888503224
 20
72.4117921012
 30
0.0
 11
162.6997462094
 21
72.4117921012
 31
0.0
  0
ARC
  5
CD
330
1F
100
AcDbEntity
  8
0
  6
Continuous
 62
     7
370
    25
100
AcDbCircle
 10
156.5839486747
 20
76.106745767
 30
0.0
 40
0.7111999999997725
100
AcDbArc
 50
45.0
 51
315.0
  0
ARC
  5
CE
330
1F
100
AcDbEntity
  8
0
  6
Continuous
 62
     7
370
    25
100
AcDbCircle
 10
156.5839486747
 20
76.106745767
 30
0.0
 40
1.239109388553836
100
AcDbArc
 50
45.0
 51
315.0
  0
ARC
  5
CF
330
1F
100
AcDbEntity
  8
0
  6
Continuous
 62
     7
370
    25
100
AcDbCircle
 10
159.2576643518
 20
76.106745767
 30
0.0
 40
0.711200000000068
100
AcDbArc
 50
200.9248324276
 51
315.0
  0
LINE
  5
D0
330
1F
100
AcDbEntity
  8
0
  6
Continuous
 62
     7
370
    25
100
AcDbLine
 10
159.7605587535
 20
76.6096401016
 30
0.0
 11
160.1338468112
 21
76.9829284212
 31
0.0
  0
ARC
  5
D1
330
1F
100
AcDbEntity
  8
0
  6
Continuous
 62
     7
370
    25
100
AcDbCircle
 10
159.2576643518
 20
76.106745767
 30
0.0
 40
1.239109388553847
100
AcDbArc
 50
45.0
 51
315.0
  0
LINE
  5
D2
330
1F
100
AcDbEntity
  8
0
  6
Continuous
 62
     7
370
    25
100
AcDbLine
 10
160.1338468112
 20
75.2305631571
 30
0.0
 11
159.7605587535
 21
75.6038514477
 31
0.0
  0
ELLIPSE
  5
D3
330
1F
100
AcDbEntity
  8
0
  6
Continuous
 62
     7
370
    25
100
AcDbEllipse
 10
152.3432941282
 20
73.2652650235
 30
0.0
 11
2.293035763987604
 21
-1.065814103640150E-12
 31
0.0
210
0.0
220
0.0
230
1.0
 40
0.9533039403
 41
0.8210019969646102
 42
2.320590656625115
  0
LINE
  5
D4
330
1F
100
AcDbEntity
  8
0
  6
Continuous
 62
     7
370
    25
100
AcDbLine
 10
154.012883207
 20
74.8834211658
 30
0.0
 11
154.6498981274
 21
76.0979587607
 31
0.0
  0
LINE
  5
D5
330
1F
100
AcDbEntity
  8
0
  6
Continuous
 62
     7
370
    25
100
AcDbLine
 10
154.6498981274
 20
76.0979587607
 30
0.0
 11
154.6165779086
 21
76.0789148439
 31
0.0
  0
ELLIPSE
  5
D6
330
1F
100
AcDbEntity
  8
0
  6
Continuous
 62
     7
370
    25
100
AcDbEllipse
 10
154.3375033521
 20
76.5226608222
 30
0.0
 11
0.5427303583402932
 21
3.694822225952521E-13
 31
0.0
210
0.0
220
0.0
230
1.0
 40
0.9533039404
 41
3.470145824142399
 42
5.252469180527896
  0
LINE
  5
D7
330
1F
100
AcDbEntity
  8
0
  6
Continuous
 62
     7
370
    25
100
AcDbLine
 10
153.8238035368
 20
76.3557135173
 30
0.0
 11
152.8160797984
 21
79.1736698988
 31
0.0
  0
ELLIPSE
  5
D8
330
1F
100
AcDbEntity
  8
0
  6
Continuous
 62
     7
370
    25
100
AcDbEllipse
 10
152.3432941282
 20
78.9637976587
 30
0.0
 11
0.5215299537176463
 21
0.0
 31
0.0
210
0.0
220
0.0
230
1.0
 40
0.9533039403
 41
0.4357918987553139
 42
2.705800754834482
  0
LINE
  5
D9
330
1F
100
AcDbEntity
  8
0
  6
Continuous
 62
     7
370
    25
100
AcDbLine
 10
151.870508454
 20
79.1736698988
 30
0.0
 11
150.8630195253
 21
76.3563702161
 31
0.0
  0
ELLIPSE
  5
DA
330
1F
100
AcDbEntity
  8
0
  6
Continuous
 62
     7
370
    25
100
AcDbEllipse
 10
150.3493197409
 20
76.5233175093
 30
0.0
 11
-0.5427303583406342
 21
3.410605131648481E-13
 31
0.0
210
0.0
220
0.0
230
1.0
 40
0.9533039403
 41
1.047197551196577
 42
2.813039483039262
  0
LINE
  5
DB
330
1F
100
AcDbEntity
  8
0
  6
Continuous
 62
     7
370
    25
100
AcDbLine
 10
150.0366900668
 20
76.0979587607
 30
0.0
 11
150.6737049289
 21
74.8834211658
 31
0.0
  0
ELLIPSE
  5
DC
330
1F
100
AcDbEntity
  8
0
  6
Continuous
 62
     7
370
    25
100
AcDbEllipse
 10
150.7343841316
 20
74.9123439199
 30
0.0
 11
0.06784129479237322
 21
0.0
 31
0.0
210
0.0
220
0.0
230
1.0
 40
0.9533039403
 41
3.605240262580621
 42
5.462183310226822
  0
LINE
  5
DD
330
1F
100
AcDbEntity
  8
0
  6
Continuous
 62
     7
370
    25
100
AcDbLine
 10
162.6997462094
 20
81.4117917138
 30
0.0
 11
148.0888503224
 21
81.4117917138
 31
0.0
  0
LINE
  5
DE
330
1F
100
AcDbEntity
  8
0
  6
Continuous
 62
     7
370
    25
100
AcDbLine
 10
157.0868430512
 20
76.6096401016
 30
0.0
 11
157.4601312254
 21
76.9829284212
 31
0.0
  0
LINE
  5
DF
330
1F
100
AcDbEntity
  8
0
  6
Continuous
 62
     7
370
    25
100
AcDbLine
 10
160.1338468112
 20
76.3607457442
 30
0.0
 11
158.5933682595
 21
76.3607457442
 31
0.0
  0
ELLIPSE
  5
E0
330
1F
100
AcDbEntity
  8
0
  6
Continuous
 62
     7
370
    25
100
AcDbEllipse
 10
153.9522041248
 20
74.9123439199
 30
0.0
 11
0.06784129479237322
 21
0.0
 31
0.0
210
0.0
220
0.0
230
1.0
 40
0.9533039403
 41
3.962594650555296
 42
5.81953769817503
  0
LINE
  5
E1
330
1F
100
AcDbEntity
  8
0
  6
Continuous
 62
     7
370
    25
100
AcDbLine
 10
158.5933682595
 20
75.852745776
 30
0.0
 11
160.1338468112
 21
75.852745776
 31
0.0
  0
ARC
  5
E2
330
1F
100
AcDbEntity
  8
0
  6
Continuous
 62
     7
370
    25
100
AcDbCircle
 10
159.2576643518
 20
76.106745767
 30
0.0
 40
0.7112000000000438
100
AcDbArc
 50
45.0
 51
159.0751675723
  0
LINE
  5
E3
330
1F
100
AcDbEntity
  8
0
  6
Continuous
 62
     7
370
    25
100
AcDbLine
 10
150.0779546418
 20
76.0752472373
 30
0.0
 11
150.0366900668
 21
76.0979587607
 31
0.0
  0
LINE
  5
E4
330
1F
100
AcDbEntity
  8
0
  6
Continuous
 62
     7
370
    25
100
AcDbLine
 10
157.4601312254
 20
75.2305631571
 30
0.0
 11
157.0868430512
 21
75.6038514477
 31
0.0
  0
LINE
  5
E5
330
1F
100
AcDbEntity
  8
0
  6
Continuous
 62
     7
370
    25
100
AcDbLine
 10
160.1338468112
 20
75.852745776
 30
0.0
 11
160.1338468112
 21
76.3607457442
 31
0.0
  0
ELLIPSE
  5
E6
330
1F
100
AcDbEntity
  8
0
  6
Continuous
 62
     7
370
    25
100
AcDbEllipse
 10
152.1003547849
 20
76.4213256573
 30
0.0
 11
0.06784129479237322
 21
0.0
 31
0.0
210
0.0
220
0.0
230
1.0
 40
0.9533039403
 41
2.798568711307392
 42
4.712388980384703
  0
ELLIPSE
  5
E7
330
1F
100
AcDbEntity
  8
0
  6
Continuous
 62
     7
370
    25
100
AcDbEllipse
 10
152.3432941298
 20
77.069791751
 30
0.0
 11
0.06784129479268586
 21
0.0
 31
0.0
210
0.0
220
0.0
230
1.0
 40
0.9533039403
 41
0.343023938558097
 42
2.798568711309076
  0
LINE
  5
E8
330
1F
100
AcDbEntity
  8
0
  6
Continuous
 62
     7
370
    25
100
AcDbLine
 10
152.6501225393
 20
76.4430776575
 30
0.0
 11
152.4071830876
 21
77.0915437564
 31
0.0
  0
LINE
  5
E9
330
1F
100
AcDbEntity
  8
0
  6
Continuous
 62
     7
370
    25
100
AcDbLine
 10
152.1003546745
 20
76.3566522905
 30
0.0
 11
152.5862335779
 21
76.3566522905
 31
0.0
  0
LINE
  5
EA
330
1F
100
AcDbEntity
  8
0
  6
Continuous
 62
     7
370
    25
100
AcDbLine
 10
152.2794051647
 20
77.0915437564
 30
0.0
 11
152.036465713
 21
76.4430776575
 31
0.0
  0
ELLIPSE
  5
EB
330
1F
100
AcDbEntity
  8
0
  6
Continuous
 62
     7
370
    25
100
AcDbEllipse
 10
152.5862334719
 20
76.4213256573
 30
0.0
 11
-0.06784129479237322
 21
0.0
 31
0.0
210
0.0
220
0.0
230
1.0
 40
0.9533039403
 41
1.570796326794897
 42
3.484616592149797
  0
LINE
  5
EC
330
1F
100
AcDbEntity
  8
0
  6
Continuous
 62
     7
370
    25
100
AcDbLine
 10
148.2646965973
 20
81.9117917958
 30
0.0
 11
162.5238999345
 21
81.9117917958
 31
0.0
  0
ARC
  5
ED
330
1F
100
AcDbEntity
  8
0
  6
Continuous
 62
     7
370
    25
100
AcDbCircle
 10
162.3942982659
 20
71.4117919075
 30
0.0
 40
0.5
100
AcDbArc
 50
0.0
 51
90.0
  0
ARC
  5
EE
330
1F
100
AcDbEntity
  8
0
  6
Continuous
 62
     7
370
    25
100
AcDbCircle
 10
148.3942982659
 20
71.4117919075
 30
0.0
 40
0.5
100
AcDbArc
 50
90.0
 51
180.0
  0
ARC
  5
EF
330
1F
100
AcDbEntity
  8
0
  6
Continuous
 62
     7
370
    25
100
AcDbCircle
 10
148.3942982659
 20
82.4117919075
 30
0.0
 40
0.5
100
AcDbArc
 50
180.0
 51
270.0
  0
ARC
  5
F0
330
1F
100
AcDbEntity
  8
0
  6
Continuous
 62
     7
370
    25
100
AcDbCircle
 10
162.3942982659
 20
82.4117919075
 30
0.0
 40
0.5
100
AcDbArc
 50
270.0
 51
0.0
  0
LWPOLYLINE
  5
F1
330
1F
100
AcDbEntity
  8
0
  6
Continuous
 62
     7
370
    25
100
AcDbPolyline
 90
        9
 70
   128
 43
0.0
 10
162.394298482
 20
82.1062365825
 10
162.4918433458
 20
82.11210764
 10
162.5856401019
 20
82.1294954325
 10
162.6720836006
 20
82.157731736
 10
162.7478518144
 20
82.1957315597
 10
162.810032963
 20
82.2420341241
 10
162.8562382043
 20
82.2948610688
 10
162.8846910402
 20
82.3521811793
 10
162.8942980983
 20
82.4117918777
  0
LINE
  5
F2
330
1F
100
AcDbEntity
  8
0
  6
Continuous
 62
     7
370
    25
100
AcDbLine
 10
162.394298482
 20
81.9117917958
 30
0.0
 11
162.394298482
 21
82.1062365825
 31
0.0
  0
LWPOLYLINE
  5
F3
330
1F
100
AcDbEntity
  8
0
  6
Continuous
 62
     7
370
    25
100
AcDbPolyline
 90
        9
 70
   128
 43
0.0
 10
147.8942984335
 20
82.4117918777
 10
147.9039054916
 20
82.3521811793
 10
147.9323583275
 20
82.2948610688
 10
147.9785635688
 20
82.2420341241
 10
148.0407447174
 20
82.1957315597
 10
148.1165129312
 20
82.157731736
 10
148.2029564299
 20
82.1294954325
 10
148.296753186
 20
82.11210764
 10
148.3942980498
 20
82.1062365825
  0
LINE
  5
F4
330
1F
100
AcDbEntity
  8
0
  6
Continuous
 62
     7
370
    25
100
AcDbLine
 10
162.394298482
 20
71.7173472325
 30
0.0
 11
148.3942980498
 21
71.7173472325
 31
0.0
  0
LINE
  5
F5
330
1F
100
AcDbEntity
  8
0
  6
Continuous
 62
     7
370
    25
100
AcDbLine
 10
148.3942980498
 20
71.7173472325
 30
0.0
 11
148.3942980498
 21
71.9117920193
 31
0.0
  0
LINE
  5
F6
330
1F
100
AcDbEntity
  8
0
  6
Continuous
 62
     7
370
    25
100
AcDbLine
 10
162.394298482
 20
71.7173472325
 30
0.0
 11
162.394298482
 21
71.9117920193
 31
0.0
  0
LWPOLYLINE
  5
F7
330
1F
100
AcDbEntity
  8
0
  6
Continuous
 62
     7
370
    25
100
AcDbPolyline
 90
        9
 70
   128
 43
0.0
 10
148.3942980498
 20
71.7173472325
 10
148.296753186
 20
71.711476175
 10
148.2029564299
 20
71.6940883825
 10
148.1165129312
 20
71.6658520791
 10
148.0407447174
 20
71.6278522554
 10
147.9785635688
 20
71.5815496909
 10
147.9323583275
 20
71.5287227462
 10
147.9039054916
 20
71.4714026357
 10
147.8942984335
 20
71.4117919373
  0
LINE
  5
F8
330
1F
100
AcDbEntity
  8
0
  6
Continuous
 62
     7
370
    25
100
AcDbLine
 10
148.3942980498
 20
81.9117917958
 30
0.0
 11
148.3942980498
 21
82.1062365825
 31
0.0
  0
LWPOLYLINE
  5
F9
330
1F
100
AcDbEntity
  8
0
  6
Continuous
 62
     7
370
    25
100
AcDbPolyline
 90
        9
 70
   128
 43
0.0
 10
162.8942980983
 20
71.4117919373
 10
162.8846910402
 20
71.4714026357
 10
162.8562382043
 20
71.5287227462
 10
162.810032963
 20
71.5815496909
 10
162.7478518144
 20
71.6278522554
 10
162.6720836006
 20
71.6658520791
 10
162.5856401019
 20
71.6940883825
 10
162.4918433458
 20
71.711476175
 10
162.394298482
 20
71.7173472325
  0
LINE
  5
FA
330
1F
100
AcDbEntity
  8
0
  6
Continuous
 62
     7
370
    25
100
AcDbLine
 10
148.3942980498
 20
82.1062365825
 30
0.0
 11
162.394298482
 21
82.1062365825
 31
0.0
  0
SPLINE
  5
FB
330
1F
100
AcDbEntity
  8
0
  6
Continuous
 62
     7
370
    25
100
AcDbSpline
210
0.0
220
0.0
230
1.0
 70
    11
 71
     3
 72
    26
 73
    22
 74
     0
 42
0.000000001
 43
0.00000001
 40
0.0
 40
0.0
 40
0.0
 40
0.0
 40
0.125
 40
0.125
 40
0.1875
 40
0.1875
 40
0.25
 40
0.25
 40
0.3125
 40
0.3125
 40
0.375
 40
0.375
 40
0.5
 40
0.5
 40
0.625
 40
0.625
 40
0.75
 40
0.75
 40
0.875
 40
0.875
 40
1.0
 40
1.0
 40
1.0
 40
1.0
 10
155.9076172347443
 20
84.91179190751447
 30
0.0
 10
155.9076172347443
 20
85.05091093874329
 30
0.0
 10
155.8548212635954
 20
85.18663864171877
 30
0.0
 10
155.7133656737181
 20
85.33965737821454
 30
0.0
 10
155.6568117373462
 20
85.38116027923508
 30
0.0
 10
155.5312675859028
 20
85.43836017302877
 30
0.0
 10
155.4621159727947
 20
85.45364416177308
 30
0.0
 10
155.3249575980513
 20
85.45342328800945
 30
0.0
 10
155.2558430152452
 20
85.4378632267218
 30
0.0
 10
155.1310832466141
 20
85.38065739222777
 30
0.0
 10
155.0744521582796
 20
85.33890596496083
 30
0.0
 10
154.9343385317567
 20
85.18706509667739
 30
0.0
 10
154.8810179978101
 20
85.05101276940951
 30
0.0
 10
154.880940639234
 20
84.77288007570615
 30
0.0
 10
154.9346290212557
 20
84.63607806568616
 30
0.0
 10
155.1213238355633
 20
84.43400926202112
 30
0.0
 10
155.2572050449269
 20
84.36983950233557
 30
0.0
 10
155.5328361789654
 20
84.37026055513657
 30
0.0
 10
155.667811217379
 20
84.43452923755989
 30
0.0
 10
155.8536586944451
 20
84.63580678878402
 30
0.0
 10
155.9076172347443
 20
84.77267287628565
 30
0.0
 10
155.9076172347443
 20
84.91179190751447
 30
0.0
  0
SPLINE
  5
FC
330
1F
100
AcDbEntity
  8
0
  6
Continuous
 62
     7
370
    25
100
AcDbSpline
210
0.0
220
0.0
230
1.0
 70
    11
 71
     3
 72
    38
 73
    34
 74
     0
 42
0.000000001
 43
0.00000001
 40
0.0
 40
0.0
 40
0.0
 40
0.0
 40
0.0625
 40
0.0625
 40
0.125
 40
0.125
 40
0.1874999999999999
 40
0.1874999999999999
 40
0.2499999999999999
 40
0.2499999999999999
 40
0.3125
 40
0.3125
 40
0.375
 40
0.375
 40
0.4375000000000001
 40
0.4375000000000001
 40
0.5000000000000001
 40
0.5000000000000001
 40
0.5625000000000001
 40
0.5625000000000001
 40
0.6250000000000001
 40
0.6250000000000001
 40
0.6875000000000001
 40
0.6875000000000001
 40
0.75
 40
0.75
 40
0.8125
 40
0.8125
 40
0.875
 40
0.875
 40
0.9375
 40
0.9375
 40
1.0
 40
1.0
 40
1.0
 40
1.0
 10
154.394298265896
 20
84.91179190751447
 30
0.0
 10
154.394298265896
 20
84.77940599260415
 30
0.0
 10
154.4204468170388
 20
84.64951866612546
 30
0.0
 10
154.5209124864966
 20
84.40743967153959
 30
0.0
 10
154.5951973528931
 20
84.29665831748356
 30
0.0
 10
154.7793465326279
 20
84.1125510373778
 30
0.0
 10
154.8907221552221
 20
84.03808236608181
 30
0.0
 10
155.131270659756
 20
83.93825518995311
 30
0.0
 10
155.2630285557434
 20
83.9118672698798
 30
0.0
 10
155.5244172479073
 20
83.91171687619298
 30
0.0
 10
155.655589318499
 20
83.93765669660301
 30
0.0
 10
155.8980270044987
 20
84.03802432902829
 30
0.0
 10
156.0080811726483
 20
84.11141323217353
 30
0.0
 10
156.1943344900592
 20
84.29756269900307
 30
0.0
 10
156.2677608179523
 20
84.40760121640307
 30
0.0
 10
156.3681255655812
 20
84.64948393349174
 30
0.0
 10
156.3942468298774
 20
84.78075845200306
 30
0.0
 10
156.3943495473627
 20
85.04203910137558
 30
0.0
 10
156.3681059192689
 20
85.1738545048885
 30
0.0
 10
156.2684375624708
 20
85.41464242296998
 30
0.0
 10
156.1941567705022
 20
85.52597462436796
 30
0.0
 10
156.0099700300687
 20
85.71050481956298
 30
0.0
 10
155.8995464560061
 20
85.78469114883674
 30
0.0
 10
155.6571617407661
 20
85.88551240780691
 30
0.0
 10
155.5272375611997
 20
85.91168663711194
 30
0.0
 10
155.2629474516828
 20
85.91189654709885
 30
0.0
 10
155.1327136930208
 20
85.88580882473568
 30
0.0
 10
154.8908210218501
 20
85.78566038075708
 30
0.0
 10
154.7798050964435
 20
85.71137408559191
 30
0.0
 10
154.5956373604635
 20
85.52748198615514
 30
0.0
 10
154.5210386889613
 20
85.41615183560111
 30
0.0
 10
154.4209878754162
 20
85.17566329579249
 30
0.0
 10
154.394298265896
 20
85.04417782242477
 30
0.0
 10
154.394298265896
 20
84.91179190751447
 30
0.0
  0
LINE
  5
FD
330
1F
100
AcDbEntity
  8
0
  6
Continuous
 62
     7
370
    25
100
AcDbLine
 10
174.0393501327
 20
76.9117919075
 30
0.0
 11
174.0393501327
 21
72.1295124198
 31
0.0
  0
LINE
  5
FE
330
1F
100
AcDbEntity
  8
0
  6
Continuous
 62
     7
370
    25
100
AcDbLine
 10
174.0393501327
 20
81.6940713952
 30
0.0
 11
174.0393501327
 21
76.9117919075
 31
0.0
  0
LINE
  5
FF
330
1F
100
AcDbEntity
  8
0
  6
Continuous
 62
     7
370
    25
100
AcDbLine
 10
175.3942978189
 20
80.9117920975
 30
0.0
 11
175.3942978189
 21
72.9117917175
 31
0.0
  0
LINE
  5
100
330
1F
100
AcDbEntity
  8
0
  6
Continuous
 62
     7
370
    25
100
AcDbLine
 10
160.6333835602
 20
103.4117915946
 30
0.0
 11
160.6333835602
 21
104.011792438
 31
0.0
  0
LINE
  5
101
330
1F
100
AcDbEntity
  8
0
  6
Continuous
 62
     7
370
    25
100
AcDbLine
 10
150.1552129716
 20
103.4117915946
 30
0.0
 11
160.6333835602
 21
103.4117915946
 31
0.0
  0
LINE
  5
102
330
1F
100
AcDbEntity
  8
0
  6
Continuous
 62
     7
370
    25
100
AcDbLine
 10
150.1552129716
 20
104.011792438
 30
0.0
 11
150.1552129716
 21
103.4117915946
 31
0.0
  0
LINE
  5
103
330
1F
100
AcDbEntity
  8
0
  6
Continuous
 62
     7
370
    25
100
AcDbLine
 10
160.6333835602
 20
104.011792438
 30
0.0
 11
150.1552129716
 21
104.011792438
 31
0.0
  0
SPLINE
  5
104
330
1F
100
AcDbEntity
  8
0
  6
Continuous
 62
     7
370
    25
100
AcDbSpline
210
0.0
220
0.0
230
1.0
 70
     8
 71
     3
 72
    15
 73
    11
 74
     0
 42
0.000000001
 43
0.00000001
 40
0.0
 40
0.0
 40
0.0
 40
0.0
 40
0.0090436668555053
 40
0.1032416108587011
 40
0.1542555096908477
 40
0.3133160372726557
 40
0.5243720667937798
 40
0.6678058153000223
 40
0.9918331445062708
 40
0.9999999999999999
 40
0.9999999999999999
 40
0.9999999999999999
 40
0.9999999999999999
 10
160.6333835602022
 20
104.0117924379958
 30
0.0
 10
160.6333778047025
 20
104.0134731185008
 30
0.0
 10
160.6333121004843
 20
104.032659601754
 30
0.0
 10
160.6313170146956
 20
104.0613535858879
 30
0.0
 10
160.62350079196
 20
104.1120302946263
 30
0.0
 10
160.6063297963191
 20
104.1699058615047
 30
0.0
 10
160.5797467835145
 20
104.2147739571865
 30
0.0
 10
160.541916615232
 20
104.2521317971274
 30
0.0
 10
160.513637421714
 20
104.2616910656983
 30
0.0
 10
160.4938053309353
 20
104.2617886821308
 30
0.0
 10
160.4933177672542
 20
104.2617910819901
 30
0.0
  0
SPLINE
  5
105
330
1F
100
AcDbEntity
  8
0
  6
Continuous
 62
     7
370
    25
100
AcDbSpline
210
0.0
220
0.0
230
1.0
 70
     8
 71
     3
 72
    15
 73
    11
 74
     0
 42
0.000000001
 43
0.00000001
 40
0.0
 40
0.0
 40
0.0
 40
0.0
 40
0.0081668554937291
 40
0.3321941846999776
 40
0.4756279332062201
 40
0.6866839627273442
 40
0.8457444903091523
 40
0.8967583891412989
 40
0.9909563331444947
 40
1.0
 40
1.0
 40
1.0
 40
1.0
 10
150.2952787645377
 20
104.2617910819901
 30
0.0
 10
150.2947912008566
 20
104.2617886821308
 30
0.0
 10
150.2749591100778
 20
104.2616910656983
 30
0.0
 10
150.2466799165599
 20
104.2521317971274
 30
0.0
 10
150.2088497482774
 20
104.2147739571865
 30
0.0
 10
150.1822667354728
 20
104.1699058615047
 30
0.0
 10
150.1650957398319
 20
104.1120302946263
 30
0.0
 10
150.1572795170964
 20
104.0613535858879
 30
0.0
 10
150.1552844313076
 20
104.032659601754
 30
0.0
 10
150.1552187270894
 20
104.0134731185008
 30
0.0
 10
150.1552129715897
 20
104.0117924379958
 30
0.0
  0
LINE
  5
106
330
1F
100
AcDbEntity
  8
0
  6
Continuous
 62
     7
370
    25
100
AcDbLine
 10
150.2952787645
 20
104.261791082
 30
0.0
 11
160.4933177673
 21
104.261791082
 31
0.0
  0
SPLINE
  5
107
330
1F
100
AcDbEntity
  8
0
  6
Continuous
 62
     7
370
    25
100
AcDbSpline
210
0.0
220
0.0
230
1.0
 70
     8
 71
     3
 72
    15
 73
    11
 74
     0
 42
0.000000001
 43
0.00000001
 40
0.0
 40
0.0
 40
0.0
 40
0.0
 40
0.0080845166116213
 40
0.3310110803515837
 40
0.4750334718139839
 40
0.6874373868841556
 40
0.8468378249369453
 40
0.9001014979498858
 40
0.9910465065391931
 40
0.9999999999999999
 40
0.9999999999999999
 40
0.9999999999999999
 40
0.9999999999999999
 10
160.4933177672542
 20
104.2617910819901
 30
0.0
 10
160.4945975376866
 20
104.2617886800638
 30
0.0
 10
160.5469962417468
 20
104.2616903359978
 30
0.0
 10
160.6223523612638
 20
104.2519979752379
 30
0.0
 10
160.7242720268301
 20
104.2147206643309
 30
0.0
 10
160.7966618350001
 20
104.1700101679638
 30
0.0
 10
160.8443688812927
 20
104.1118754187498
 30
0.0
 10
160.8659025713455
 20
104.0609873848856
 30
0.0
 10
160.871333242946
 20
104.0322256242325
 30
0.0
 10
160.8715080101826
 20
104.0134731458092
 30
0.0
 10
160.871523673854
 20
104.0117924379958
 30
0.0
  0
LINE
  5
108
330
1F
100
AcDbEntity
  8
0
  6
Continuous
 62
     7
370
    25
100
AcDbLine
 10
160.6333835602
 20
104.011792438
 30
0.0
 11
160.8715236739
 21
104.011792438
 31
0.0
  0
SPLINE
  5
109
330
1F
100
AcDbEntity
  8
0
  6
Continuous
 62
     7
370
    25
100
AcDbSpline
210
0.0
220
0.0
230
1.0
 70
     8
 71
     3
 72
    15
 73
    11
 74
     0
 42
0.000000001
 43
0.00000001
 40
0.0
 40
0.0
 40
0.0
 40
0.0
 40
0.0089534934608068
 40
0.0998985020501141
 40
0.1531621750630547
 40
0.3125626131158444
 40
0.524966528186016
 40
0.6689889196484162
 40
0.9919154833883785
 40
0.9999999999999999
 40
0.9999999999999999
 40
0.9999999999999999
 40
0.9999999999999999
 10
149.9170728579379
 20
104.0117924379958
 30
0.0
 10
149.9170885216093
 20
104.0134731458092
 30
0.0
 10
149.917263288846
 20
104.0322256242325
 30
0.0
 10
149.9226939604464
 20
104.0609873848856
 30
0.0
 10
149.9442276504992
 20
104.1118754187498
 30
0.0
 10
149.9919346967918
 20
104.1700101679638
 30
0.0
 10
150.0643245049618
 20
104.2147206643309
 30
0.0
 10
150.1662441705281
 20
104.2519979752379
 30
0.0
 10
150.2416002900452
 20
104.2616903359977
 30
0.0
 10
150.2939989941054
 20
104.2617886800638
 30
0.0
 10
150.2952787645377
 20
104.2617910819901
 30
0.0
  0
LINE
  5
10A
330
1F
100
AcDbEntity
  8
0
  6
Continuous
 62
     7
370
    25
100
AcDbLine
 10
149.9170728579
 20
104.011792438
 30
0.0
 11
150.1552129716
 21
104.011792438
 31
0.0
  0
LINE
  5
10B
330
1F
100
AcDbEntity
  8
0
  6
Continuous
 62
     7
370
    25
100
AcDbLine
 10
149.9170728579
 20
103.4117915946
 30
0.0
 11
149.9170728579
 21
104.011792438
 31
0.0
  0
LINE
  5
10C
330
1F
100
AcDbEntity
  8
0
  6
Continuous
 62
     7
370
    25
100
AcDbLine
 10
150.1552129716
 20
103.4117915946
 30
0.0
 11
149.9170728579
 21
103.4117915946
 31
0.0
  0
LINE
  5
10D
330
1F
100
AcDbEntity
  8
0
  6
Continuous
 62
     7
370
    25
100
AcDbLine
 10
160.8715236739
 20
104.011792438
 30
0.0
 11
160.8715236739
 21
103.4117915946
 31
0.0
  0
LINE
  5
10E
330
1F
100
AcDbEntity
  8
0
  6
Continuous
 62
     7
370
    25
100
AcDbLine
 10
160.8715236739
 20
103.4117915946
 30
0.0
 11
160.6333835602
 21
103.4117915946
 31
0.0
  0
LINE
  5
10F
330
1F
100
AcDbEntity
  8
0
  6
Continuous
 62
     7
370
    25
100
AcDbLine
 10
161.1442982771
 20
103.4117915946
 30
0.0
 11
161.1442982771
 21
104.011792438
 31
0.0
  0
LINE
  5
110
330
1F
100
AcDbEntity
  8
0
  6
Continuous
 62
     7
370
    25
100
AcDbLine
 10
161.1442982771
 20
104.011792438
 30
0.0
 11
160.8715236739
 21
104.011792438
 31
0.0
  0
LINE
  5
111
330
1F
100
AcDbEntity
  8
0
  6
Continuous
 62
     7
370
    25
100
AcDbLine
 10
160.8715236739
 20
103.4117915946
 30
0.0
 11
161.1442982771
 21
103.4117915946
 31
0.0
  0
ARC
  5
112
330
1F
100
AcDbEntity
  8
0
  6
Continuous
 62
     7
370
    25
100
AcDbCircle
 10
149.6442982659
 20
104.0117919075
 30
0.0
 40
0.25
100
AcDbArc
 50
90.0
 51
180.0
  0
LINE
  5
113
330
1F
100
AcDbEntity
  8
0
  6
Continuous
 62
     7
370
    25
100
AcDbLine
 10
149.6442982547
 20
104.261791082
 30
0.0
 11
149.6442982547
 21
104.011792438
 31
0.0
  0
LINE
  5
114
330
1F
100
AcDbEntity
  8
0
  6
Continuous
 62
     7
370
    25
100
AcDbLine
 10
149.3942982137
 20
104.011792438
 30
0.0
 11
149.6442982547
 21
104.011792438
 31
0.0
  0
LINE
  5
115
330
1F
100
AcDbEntity
  8
0
  6
Continuous
 62
     7
370
    25
100
AcDbLine
 10
149.6442982547
 20
104.011792438
 30
0.0
 11
149.6442982547
 21
103.4117915946
 31
0.0
  0
LINE
  5
116
330
1F
100
AcDbEntity
  8
0
  6
Continuous
 62
     7
370
    25
100
AcDbLine
 10
149.9170728579
 20
104.011792438
 30
0.0
 11
149.6442982547
 21
104.011792438
 31
0.0
  0
LINE
  5
117
330
1F
100
AcDbEntity
  8
0
  6
Continuous
 62
     7
370
    25
100
AcDbLine
 10
149.6442982547
 20
103.4117915946
 30
0.0
 11
149.9170728579
 21
103.4117915946
 31
0.0
  0
LINE
  5
118
330
1F
100
AcDbEntity
  8
0
  6
Continuous
 62
     7
370
    25
100
AcDbLine
 10
161.1442982771
 20
104.011792438
 30
0.0
 11
161.3942983181
 21
104.011792438
 31
0.0
  0
LINE
  5
119
330
1F
100
AcDbEntity
  8
0
  6
Continuous
 62
     7
370
    25
100
AcDbLine
 10
161.1442982771
 20
104.011792438
 30
0.0
 11
161.1442982771
 21
104.261791082
 31
0.0
  0
ARC
  5
11A
330
1F
100
AcDbEntity
  8
0
  6
Continuous
 62
     7
370
    25
100
AcDbCircle
 10
161.1442982659
 20
104.0117919075
 30
0.0
 40
0.25
100
AcDbArc
 50
0.0
 51
90.0
  0
LINE
  5
11B
330
1F
100
AcDbEntity
  8
0
  6
Continuous
 62
     7
370
    25
100
AcDbLine
 10
149.3942982137
 20
103.4117915946
 30
0.0
 11
149.3942982137
 21
104.011792438
 31
0.0
  0
LINE
  5
11C
330
1F
100
AcDbEntity
  8
0
  6
Continuous
 62
     7
370
    25
100
AcDbLine
 10
149.6442982547
 20
103.4117915946
 30
0.0
 11
149.3942982137
 21
103.4117915946
 31
0.0
  0
LINE
  5
11D
330
1F
100
AcDbEntity
  8
0
  6
Continuous
 62
     7
370
    25
100
AcDbLine
 10
160.4933177673
 20
104.261791082
 30
0.0
 11
161.1442982771
 21
104.261791082
 31
0.0
  0
LINE
  5
11E
330
1F
100
AcDbEntity
  8
0
  6
Continuous
 62
     7
370
    25
100
AcDbLine
 10
161.3942983181
 20
104.011792438
 30
0.0
 11
161.3942983181
 21
103.4117915946
 31
0.0
  0
LINE
  5
11F
330
1F
100
AcDbEntity
  8
0
  6
Continuous
 62
     7
370
    25
100
AcDbLine
 10
161.3942983181
 20
103.4117915946
 30
0.0
 11
161.1442982771
 21
103.4117915946
 31
0.0
  0
LINE
  5
120
330
1F
100
AcDbEntity
  8
0
  6
Continuous
 62
     7
370
    25
100
AcDbLine
 10
149.6442982547
 20
104.261791082
 30
0.0
 11
150.2952787645
 21
104.261791082
 31
0.0
  0
LINE
  5
121
330
1F
100
AcDbEntity
  8
0
  6
Continuous
 62
     7
370
    25
100
AcDbLine
 10
150.3942983777
 20
104.2717916238
 30
0.0
 11
160.3942981541
 21
104.2717916238
 31
0.0
  0
LINE
  5
122
330
1F
100
AcDbEntity
  8
0
  6
Continuous
 62
     7
370
    25
100
AcDbLine
 10
160.3942981541
 20
104.261791082
 30
0.0
 11
160.3942981541
 21
104.2717916238
 31
0.0
  0
LINE
  5
123
330
1F
100
AcDbEntity
  8
0
  6
Continuous
 62
     7
370
    25
100
AcDbLine
 10
150.3942983777
 20
104.261791082
 30
0.0
 11
150.3942983777
 21
104.2717916238
 31
0.0
  0
LINE
  5
124
330
1F
100
AcDbEntity
  8
0
  6
Continuous
 62
     7
370
    25
100
AcDbLine
 10
150.9197515056
 20
95.4117921459
 30
0.0
 11
162.8442981832
 21
95.4117921459
 31
0.0
  0
SPLINE
  5
125
330
1F
100
AcDbEntity
  8
0
  6
Continuous
 62
     7
370
    25
100
AcDbSpline
210
0.0
220
0.0
230
1.0
 70
     8
 71
     3
 72
     9
 73
     5
 74
     0
 42
0.000000001
 43
0.00000001
 40
0.0
 40
0.0
 40
0.0
 40
0.0
 40
0.4978404435797771
 40
1.0
 40
1.0
 40
1.0
 40
1.0
 10
151.6799621835567
 20
96.40653592523468
 30
0.0
 10
151.5436401613078
 20
96.25002464544377
 30
0.0
 10
151.2698134282511
 20
95.93564424142215
 30
0.0
 10
151.0367743205347
 20
95.58691158299703
 30
0.0
 10
150.9197515055753
 20
95.41179214593303
 30
0.0
  0
LINE
  5
126
330
1F
100
AcDbEntity
  8
0
  6
Continuous
 62
     7
370
    25
100
AcDbLine
 10
150.170495975
 20
103.4117915946
 30
0.0
 11
148.4423575543
 21
96.4065359252
 31
0.0
  0
LINE
  5
127
330
1F
100
AcDbEntity
  8
0
  6
Continuous
 62
     7
370
    25
100
AcDbLine
 10
160.6333835602
 20
103.4117915946
 30
0.0
 11
150.170495975
 21
103.4117915946
 31
0.0
  0
LINE
  5
128
330
1F
100
AcDbEntity
  8
0
  6
Continuous
 62
     7
370
    25
100
AcDbLine
 10
153.3942981709
 20
87.411791766
 30
0.0
 11
162.394298482
 21
87.411791766
 31
0.0
  0
LINE
  5
129
330
1F
100
AcDbEntity
  8
0
  6
Continuous
 62
     7
370
    25
100
AcDbLine
 10
153.3942981709
 20
87.4496090504
 30
0.0
 11
153.3942981709
 21
87.411791766
 31
0.0
  0
SPLINE
  5
12A
330
1F
100
AcDbEntity
  8
0
  6
Continuous
 62
     7
370
    25
100
AcDbSpline
210
0.0
220
0.0
230
1.0
 70
     8
 71
     3
 72
     9
 73
     5
 74
     0
 42
0.000000001
 43
0.00000001
 40
0.0
 40
0.0
 40
0.0
 40
0.0
 40
0.4875149508301391
 40
1.0
 40
1.0
 40
1.0
 40
1.0
 10
153.2383530952252
 20
87.41179176595344
 30
0.0
 10
153.2646596707736
 20
87.41351934752494
 30
0.0
 10
153.3186202221446
 20
87.41706299591677
 30
0.0
 10
153.3686557241801
 20
87.4385812611845
 30
0.0
 10
153.3942981709011
 20
87.44960905041826
 30
0.0
  0
SPLINE
  5
12B
330
1F
100
AcDbEntity
  8
0
  6
Continuous
 62
     7
370
    25
100
AcDbSpline
210
0.0
220
0.0
230
1.0
 70
     8
 71
     3
 72
    17
 73
    13
 74
     0
 42
0.000000001
 43
0.00000001
 40
0.0
 40
0.0
 40
0.0
 40
0.0
 40
0.3241697917523345
 40
0.5422758587479237
 40
0.689509089275669
 40
0.7894035981534984
 40
0.8577089567094359
 40
0.9049823628410104
 40
0.9551711781537311
 40
0.9753097815865951
 40
0.991957189245944
 40
1.0
 40
1.0
 40
1.0
 40
1.0
 10
150.9197515055753
 20
95.41179214593303
 30
0.0
 10
151.0624666540494
 20
94.49917849321643
 30
0.0
 10
151.3012025932521
 20
92.97254533731125
 30
0.0
 10
151.6807903387526
 20
91.04577241994257
 30
0.0
 10
151.989924187767
 20
89.75813699585008
 30
0.0
 10
152.2460382021592
 20
88.89898527989388
 30
0.0
 10
152.4603490578753
 20
88.32551759213462
 30
0.0
 10
152.6635831235987
 20
87.90398523235498
 30
0.0
 10
152.8481290893881
 20
87.62349336916
 30
0.0
 10
153.034199066949
 20
87.46794317447343
 30
0.0
 10
153.1494104239125
 20
87.41733375833455
 30
0.0
 10
153.2164990508082
 20
87.41315348520324
 30
0.0
 10
153.2383530952252
 20
87.41179176595342
 30
0.0
  0
SPLINE
  5
12C
330
1F
100
AcDbEntity
  8
0
  6
Continuous
 62
     7
370
    25
100
AcDbSpline
210
0.0
220
0.0
230
1.0
 70
     8
 71
     3
 72
    14
 73
    10
 74
     0
 42
0.000000001
 43
0.00000001
 40
0.0
 40
0.0
 40
0.0
 40
0.0
 40
0.1576094553927752
 40
0.315238234353942
 40
0.4726925966125388
 40
0.6301651045756322
 40
0.790731299294198
 40
0.9513051076307096
 40
1.0
 40
1.0
 40
1.0
 40
1.0
 10
148.8942981317855
 20
87.41179176595342
 30
0.0
 10
148.8277270754922
 20
87.62529344320043
 30
0.0
 10
148.6945768010197
 20
88.0523229738794
 30
0.0
 10
148.3660106260278
 20
88.63757043339018
 30
0.0
 10
147.9526204532743
 20
89.15972496085325
 30
0.0
 10
147.4569456260706
 20
89.60870317493287
 30
0.0
 10
146.8906558637655
 20
89.96798534810485
 30
0.0
 10
146.4144052488596
 20
90.1725510904779
 30
0.0
 10
146.134210597835
 20
90.25334583524716
 30
0.0
 10
146.0690118923999
 20
90.2721460255636
 30
0.0
  0
LWPOLYLINE
  5
12D
330
1F
100
AcDbEntity
  8
0
  6
Continuous
 62
     7
370
    25
100
AcDbPolyline
 90
        4
 70
   128
 43
0.0
 10
146.0690118924
 20
90.2721460256
 10
144.1516897261
 20
90.7925057503
 10
142.2245262742
 20
91.3155365082
 10
140.289254728
 20
91.8407670501
  0
SPLINE
  5
12E
330
1F
100
AcDbEntity
  8
0
  6
Continuous
 62
     7
370
    25
100
AcDbSpline
210
0.0
220
0.0
230
1.0
 70
     8
 71
     3
 72
    11
 73
     7
 74
     0
 42
0.000000001
 43
0.00000001
 40
0.0
 40
0.0
 40
0.0
 40
0.0
 40
0.2488465959137647
 40
0.4976945924499491
 40
0.7488461206779728
 40
1.0
 40
1.0
 40
1.0
 40
1.0
 10
133.2188614264346
 20
93.16396688100231
 30
0.0
 10
133.8132973757123
 20
93.0944427251577
 30
0.0
 10
135.0021726200248
 20
92.95539402215475
 30
0.0
 10
136.7768970051044
 20
92.65506433611502
 30
0.0
 10
138.5434779048621
 20
92.29315598779893
 30
0.0
 10
139.7073273044344
 20
91.99156383317971
 30
0.0
 10
140.2892547279812
 20
91.840767050053
 30
0.0
  0
LINE
  5
12F
330
1F
100
AcDbEntity
  8
0
  6
Continuous
 62
     7
370
    25
100
AcDbLine
 10
133.2188614264
 20
93.163966881
 30
0.0
 11
133.2188614264
 21
96.4065359252
 31
0.0
  0
LINE
  5
130
330
1F
100
AcDbEntity
  8
0
  6
Continuous
 62
     7
370
    25
100
AcDbLine
 10
133.2188614264
 20
96.4065359252
 30
0.0
 11
151.6799621836
 21
96.4065359252
 31
0.0
  0
LINE
  5
131
330
1F
100
AcDbEntity
  8
0
  6
Continuous
 62
     7
370
    25
100
AcDbLine
 10
153.2383530952
 20
87.411791766
 30
0.0
 11
148.8942981318
 21
87.411791766
 31
0.0
  0
LINE
  5
132
330
1F
100
AcDbEntity
  8
0
  6
Continuous
 62
     7
370
    25
100
AcDbLine
 10
153.3942981709
 20
87.4496090504
 30
0.0
 11
153.3874988176
 21
87.411791766
 31
0.0
  0
LINE
  5
133
330
1F
100
AcDbEntity
  8
0
  6
Continuous
 62
     7
370
    25
100
AcDbLine
 10
153.3874988176
 20
87.411791766
 30
0.0
 11
153.2383530952
 21
87.411791766
 31
0.0
  0
LINE
  5
134
330
1F
100
AcDbEntity
  8
0
  6
Continuous
 62
     7
370
    25
100
AcDbLine
 10
153.3942981709
 20
87.411791766
 30
0.0
 11
153.3874988176
 21
87.411791766
 31
0.0
  0
LINE
  5
135
330
1F
100
AcDbEntity
  8
0
  6
Continuous
 62
     7
370
    25
100
AcDbLine
 10
133.2188614264
 20
105.4117919224
 30
0.0
 11
133.2188614264
 21
96.4065359252
 31
0.0
  0
LINE
  5
136
330
1F
100
AcDbEntity
  8
0
  6
Continuous
 62
     7
370
    25
100
AcDbLine
 10
133.2188614264
 20
105.4117919224
 30
0.0
 11
135.3942987129
 21
105.4117919224
 31
0.0
  0
LINE
  5
137
330
1F
100
AcDbEntity
  8
0
  6
Continuous
 62
     7
370
    25
100
AcDbLine
 10
135.3942987129
 20
105.4117919224
 30
0.0
 11
135.3942987129
 21
103.4307477343
 31
0.0
  0
ARC
  5
138
330
1F
100
AcDbEntity
  8
0
  6
Continuous
 62
     7
370
    25
100
AcDbCircle
 10
141.3942982659
 20
103.4307474309
 30
0.0
 40
6.000000000000005
100
AcDbArc
 50
180.0
 51
275.5801667845
  0
ARC
  5
139
330
1F
100
AcDbEntity
  8
0
  6
Continuous
 62
     7
370
    25
100
AcDbCircle
 10
141.0053447016
 20
107.4117919075
 30
0.0
 40
10.00000000000847
100
AcDbArc
 50
275.5801667845
 51
336.4218215217
  0
LINE
  5
13A
330
1F
100
AcDbEntity
  8
0
  6
Continuous
 62
     7
370
    25
100
AcDbLine
 10
128.5026308701
 20
93.4117918181
 30
0.0
 11
120.3942981169
 21
93.4117918181
 31
0.0
  0
ARC
  5
13B
330
1F
100
AcDbEntity
  8
0
  6
Continuous
 62
     7
370
    25
100
AcDbCircle
 10
120.3942982659
 20
98.4117919075
 30
0.0
 40
5.0
100
AcDbArc
 50
180.0
 51
270.0
  0
LINE
  5
13C
330
1F
100
AcDbEntity
  8
0
  6
Continuous
 62
     7
370
    25
100
AcDbLine
 10
115.39429916
 20
98.4117926377
 30
0.0
 11
115.39429916
 21
105.4117919224
 31
0.0
  0
LINE
  5
13D
330
1F
100
AcDbEntity
  8
0
  6
Continuous
 62
     7
370
    25
100
AcDbLine
 10
115.39429916
 20
105.4117919224
 30
0.0
 11
133.2188614264
 21
105.4117919224
 31
0.0
  0
ARC
  5
13E
330
1F
100
AcDbEntity
  8
0
  6
Continuous
 62
     7
370
    25
100
AcDbCircle
 10
128.5026304081
 20
48.4116626533
 30
0.0
 40
45.00012925418374
100
AcDbArc
 50
83.9840777705
 51
90.0
  0
LINE
  5
13F
330
1F
100
AcDbEntity
  8
0
  6
Continuous
 62
     7
370
    25
100
AcDbLine
 10
148.8942981318
 20
87.411791766
 30
0.0
 11
148.3942980498
 21
87.411791766
 31
0.0
  0
LINE
  5
140
330
1F
100
AcDbEntity
  8
0
  6
Continuous
 62
     7
370
    25
100
AcDbLine
 10
150.1552129716
 20
103.4117915946
 30
0.0
 11
150.170495975
 21
103.4117915946
 31
0.0
  0
LINE
  5
141
330
1F
100
AcDbEntity
  8
0
  6
Continuous
 62
     7
370
    25
100
AcDbLine
 10
135.3942987129
 20
84.9117922875
 30
0.0
 11
135.3942987129
 21
68.9117915275
 31
0.0
  0
LINE
  5
142
330
1F
100
AcDbEntity
  8
0
  6
Continuous
 62
     7
370
    25
100
AcDbLine
 10
120.3942981169
 20
84.9117922875
 30
0.0
 11
120.3942981169
 21
68.9117915275
 31
0.0
  0
LINE
  5
143
330
1F
100
AcDbEntity
  8
0
  6
Continuous
 62
     7
370
    25
100
AcDbLine
 10
125.3942989364
 20
84.9117922875
 30
0.0
 11
125.3942989364
 21
68.9117915275
 31
0.0
  0
LINE
  5
144
330
1F
100
AcDbEntity
  8
0
  6
Continuous
 62
     7
370
    25
100
AcDbLine
 10
130.3942978934
 20
84.9117922875
 30
0.0
 11
130.3942978934
 21
68.9117915275
 31
0.0
  0
LINE
  5
145
330
1F
100
AcDbEntity
  8
0
  6
Continuous
 62
     7
370
    25
100
AcDbLine
 10
115.39429916
 20
76.0541971353
 30
0.0
 11
115.39429916
 21
83.5018900501
 31
0.0
  0
LINE
  5
146
330
1F
100
AcDbEntity
  8
0
  6
Continuous
 62
     7
370
    25
100
AcDbLine
 10
115.39429916
 20
70.3216937649
 30
0.0
 11
115.39429916
 21
76.0541971353
 31
0.0
  0
LINE
  5
147
330
1F
100
AcDbEntity
  8
0
  6
Continuous
 62
     8
370
    25
100
AcDbLine
 10
162.394298482
 20
82.1062365825
 30
0.0
 11
162.394298482
 21
85.4117923695
 31
0.0
  0
LINE
  5
148
330
1F
100
AcDbEntity
  8
0
  6
Continuous
 62
     8
370
    25
100
AcDbLine
 10
148.3942980498
 20
85.4117923695
 30
0.0
 11
148.3942980498
 21
82.1062365825
 31
0.0
  0
LINE
  5
149
330
1F
100
AcDbEntity
  8
0
  6
Continuous
 62
     8
370
    25
100
AcDbLine
 10
148.3942980498
 20
71.7173472325
 30
0.0
 11
148.3942980498
 21
68.4117914456
 31
0.0
  0
LINE
  5
14A
330
1F
100
AcDbEntity
  8
0
  6
Continuous
 62
     8
370
    25
100
AcDbLine
 10
162.394298482
 20
68.4117914456
 30
0.0
 11
162.394298482
 21
71.7173472325
 31
0.0
  0
SPLINE
  5
14B
330
1F
100
AcDbEntity
  8
0
  6
Continuous
 62
     8
370
    25
100
AcDbSpline
210
0.0
220
0.0
230
1.0
 70
     8
 71
     3
 72
    32
 73
    28
 74
     0
 42
0.000000001
 43
0.00000001
 40
0.0
 40
0.0
 40
0.0
 40
0.0
 40
0.0401450221632395
 40
0.0814946536401461
 40
0.1230108409586373
 40
0.1655335799748644
 40
0.2131026898219141
 40
0.2616870022954625
 40
0.3186512825243805
 40
0.3479268726644023
 40
0.3771976361574257
 40
0.4187548088698845
 40
0.4612652034728578
 40
0.5031787625365712
 40
0.5464778243509152
 40
0.5837150066472543
 40
0.6216789014452945
 40
0.6496079967307147
 40
0.6775412832743115
 40
0.7348752080451525
 40
0.7907587104420757
 40
0.8195305303078511
 40
0.8482972711327345
 40
0.8930422563907552
 40
0.9390687309218955
 40
0.9835429324097366
 40
1.0
 40
1.0
 40
1.0
 40
1.0
 10
161.7942981042184
 20
85.41179236945045
 30
0.0
 10
161.7829794391543
 20
85.40417366610991
 30
0.0
 10
161.7600024761498
 20
85.38870764924236
 30
0.0
 10
161.5753257689483
 20
85.26548753675497
 30
0.0
 10
161.2847457785663
 20
85.0754644693756
 30
0.0
 10
160.8738058166656
 20
84.81492946437945
 30
0.0
 10
160.3411736891796
 20
84.49312495779537
 30
0.0
 10
159.6527290891907
 20
84.10726547911347
 30
0.0
 10
158.9607730948537
 20
83.7630964967648
 30
0.0
 10
158.3148544997304
 20
83.48905515177672
 30
0.0
 10
157.7246684662832
 20
83.2719687174487
 30
0.0
 10
157.0167757170312
 20
83.06641898593595
 30
0.0
 10
156.1866787295158
 20
82.91698179306518
 30
0.0
 10
155.3198838371795
 20
82.86939879077309
 30
0.0
 10
154.490806076482
 20
82.93286729986703
 30
0.0
 10
153.7150637764646
 20
83.083092773173
 30
0.0
 10
153.0717470705822
 20
83.270501603093
 30
0.0
 10
152.5168954763123
 20
83.4724361709763
 30
0.0
 10
151.880166152691
 20
83.73886770380196
 30
0.0
 10
151.1500650514072
 20
84.09829417751651
 30
0.0
 10
150.5111867883188
 20
84.45726085187614
 30
0.0
 10
150.0675773301185
 20
84.72240382870703
 30
0.0
 10
149.7126475723633
 20
84.94215227629708
 30
0.0
 10
149.369324875218
 20
85.16270233403812
 30
0.0
 10
149.1126675364144
 20
85.33231900690237
 30
0.0
 10
148.9895897563135
 20
85.41494847345044
 30
0.0
 10
149.0072164293894
 20
85.40312311968312
 30
0.0
 10
149.0119772583462
 20
85.399929182495
 30
0.0
  0
SPLINE
  5
14C
330
1F
100
AcDbEntity
  8
0
  6
Continuous
 62
     8
370
    25
100
AcDbSpline
210
0.0
220
0.0
230
1.0
 70
     8
 71
     3
 72
    32
 73
    28
 74
     0
 42
0.000000001
 43
0.00000001
 40
0.0
 40
0.0
 40
0.0
 40
0.0
 40
0.0148226906792131
 40
0.0619098637132524
 40
0.107441930207361
 40
0.1543358599367227
 40
0.1825981457429923
 40
0.2108647537096534
 40
0.2690259400149551
 40
0.3246070973321224
 40
0.353153192844224
 40
0.3816926982230958
 40
0.4179901551069189
 40
0.4550296688023185
 40
0.4953226379373429
 40
0.5372317744694444
 40
0.5776049818603044
 40
0.6191596157379867
 40
0.6475096421015109
 40
0.6758659575040337
 40
0.7341701249556764
 40
0.7822939386362806
 40
0.83136273806024
 40
0.8736469324893739
 40
0.91686816060055
 40
0.9578489931499836
 40
1.0
 40
1.0
 40
1.0
 40
1.0
 10
149.5088038586296
 20
85.90061285522115
 30
0.0
 10
149.5048599731115
 20
85.90365208352817
 30
0.0
 10
149.48838756468
 20
85.91634601436378
 30
0.0
 10
149.5991606985141
 20
85.83089345454074
 30
0.0
 10
149.8365938652218
 20
85.65065325169627
 30
0.0
 10
150.1494118376897
 20
85.41965807754467
 30
0.0
 10
150.4745339293175
 20
85.18836018697687
 30
0.0
 10
150.8806232453166
 20
84.90910355507663
 30
0.0
 10
151.4628482083018
 20
84.5324079682488
 30
0.0
 10
152.1386397028778
 20
84.14929797829289
 30
0.0
 10
152.7252123491666
 20
83.86548295459093
 30
0.0
 10
153.2404740156929
 20
83.64934763207003
 30
0.0
 10
153.837973192381
 20
83.4484798618013
 30
0.0
 10
154.5440623053922
 20
83.28999371458855
 30
0.0
 10
155.3154359434416
 20
83.21989699800868
 30
0.0
 10
156.1122850311579
 20
83.26819800759081
 30
0.0
 10
156.8882249977969
 20
83.4278996540354
 30
0.0
 10
157.5371206741353
 20
83.64400173631155
 30
0.0
 10
158.0781682154577
 20
83.87226887584573
 30
0.0
 10
158.6758708165488
 20
84.16248418967288
 30
0.0
 10
159.3132168113071
 20
84.52638593088614
 30
0.0
 10
159.9526143667153
 20
84.93765252086018
 30
0.0
 10
160.4406570263536
 20
85.27624071761869
 30
0.0
 10
160.8224787891803
 20
85.55412401328476
 30
0.0
 10
161.0887978705639
 20
85.75413258793036
 30
0.0
 10
161.2615742657773
 20
85.88648894053594
 30
0.0
 10
161.2832885296319
 20
85.9032785493481
 30
0.0
 10
161.2942984879233
 20
85.91179152008426
 30
0.0
  0
LINE
  5
14D
330
1F
100
AcDbEntity
  8
0
  6
Continuous
 62
     8
370
    25
100
AcDbLine
 10
115.7962393567
 20
75.9903937973
 30
0.0
 11
115.7962393567
 21
69.8314036521
 31
0.0
  0
LINE
  5
14E
330
1F
100
AcDbEntity
  8
0
  6
Continuous
 62
     8
370
    25
100
AcDbLine
 10
115.7962393567
 20
83.9921801629
 30
0.0
 11
115.7962393567
 21
75.9903937973
 31
0.0
  0
LINE
  5
14F
330
1F
100
AcDbEntity
  8
0
  6
Continuous
 62
     7
370
    25
100
AcDbLine
 10
221.800000222
 20
84.9858240503
 30
0.0
 11
221.800000222
 21
87.411791766
 31
0.0
  0
LINE
  5
150
330
1F
100
AcDbEntity
  8
0
  6
Continuous
 62
     7
370
    25
100
AcDbLine
 10
209.999999778
 20
87.411791766
 30
0.0
 11
209.999999778
 21
85.9098860341
 31
0.0
  0
ARC
  5
151
330
1F
100
AcDbEntity
  8
0
  6
Continuous
 62
     7
370
    25
100
AcDbCircle
 10
210.2
 20
85.4535343378
 30
0.0
 40
0.4999999999999851
100
AcDbArc
 50
113.64497808
 51
180.007858636
  0
ARC
  5
152
330
1F
100
AcDbEntity
  8
0
  6
Continuous
 62
     7
370
    25
100
AcDbCircle
 10
221.15
 20
104.0117919075
 30
0.0
 40
0.25
100
AcDbArc
 50
0.0
 51
90.0
  0
ARC
  5
153
330
1F
100
AcDbEntity
  8
0
  6
Continuous
 62
     7
370
    25
100
AcDbCircle
 10
210.65
 20
104.0117919075
 30
0.0
 40
0.25
100
AcDbArc
 50
90.0
 51
180.0
  0
LINE
  5
154
330
1F
100
AcDbEntity
  8
0
  6
Continuous
 62
     7
370
    25
100
AcDbLine
 10
221.3999999702
 20
103.4117915946
 30
0.0
 11
221.3999999702
 21
104.011792438
 31
0.0
  0
LINE
  5
155
330
1F
100
AcDbEntity
  8
0
  6
Continuous
 62
     7
370
    25
100
AcDbLine
 10
210.4000000298
 20
104.011792438
 30
0.0
 11
210.4000000298
 21
103.4117915946
 31
0.0
  0
LINE
  5
156
330
1F
100
AcDbEntity
  8
0
  6
Continuous
 62
     7
370
    25
100
AcDbLine
 10
208.4500000827
 20
95.4117921459
 30
0.0
 11
208.8999997839
 21
87.411791766
 31
0.0
  0
LINE
  5
157
330
1F
100
AcDbEntity
  8
0
  6
Continuous
 62
     7
370
    25
100
AcDbLine
 10
222.9000002161
 20
87.411791766
 30
0.0
 11
223.3499999173
 21
95.4117921459
 31
0.0
  0
LINE
  5
158
330
1F
100
AcDbEntity
  8
0
  6
Continuous
 62
     7
370
    25
100
AcDbLine
 10
223.3499999173
 20
95.4117921459
 30
0.0
 11
221.3999999702
 21
103.4117915946
 31
0.0
  0
LINE
  5
159
330
1F
100
AcDbEntity
  8
0
  6
Continuous
 62
     7
370
    25
100
AcDbLine
 10
210.4000000298
 20
103.4117915946
 30
0.0
 11
208.4500000827
 21
95.4117921459
 31
0.0
  0
CIRCLE
  5
15A
330
1F
100
AcDbEntity
  8
0
  6
Continuous
 62
     7
370
    25
100
AcDbCircle
 10
215.9
 20
76.9117919075
 30
0.0
 40
4.782279626857616
  0
CIRCLE
  5
15B
330
1F
100
AcDbEntity
  8
0
  6
Continuous
 62
     7
370
    25
100
AcDbCircle
 10
215.9
 20
76.9117919075
 30
0.0
 40
4.0
  0
CIRCLE
  5
15C
330
1F
100
AcDbEntity
  8
0
  6
Continuous
 62
     7
370
    25
100
AcDbCircle
 10
215.9
 20
76.9117919075
 30
0.0
 40
3.200000000000017
  0
CIRCLE
  5
15D
330
1F
100
AcDbEntity
  8
0
  6
Continuous
 62
     7
370
    25
100
AcDbCircle
 10
215.9
 20
76.9117919075
 30
0.0
 40
3.0
  0
CIRCLE
  5
15E
330
1F
100
AcDbEntity
  8
0
  6
Continuous
 62
     7
370
    25
100
AcDbCircle
 10
215.9
 20
76.9117919075
 30
0.0
 40
5.052437499999996
  0
CIRCLE
  5
15F
330
1F
100
AcDbEntity
  8
0
  6
Continuous
 62
     7
370
    25
100
AcDbCircle
 10
215.9
 20
76.9117919075
 30
0.0
 40
9.999999999999972
  0
CIRCLE
  5
160
330
1F
100
AcDbEntity
  8
0
  6
Continuous
 62
     7
370
    25
100
AcDbCircle
 10
215.9
 20
76.9117919075
 30
0.0
 40
9.499999999999972
  0
SPLINE
  5
161
330
1F
100
AcDbEntity
  8
0
  6
Continuous
 62
     7
370
    25
100
AcDbSpline
210
0.0
220
0.0
230
1.0
 70
     8
 71
     3
 72
    13
 73
     9
 74
     0
 42
0.000000001
 43
0.00000001
 40
0.0
 40
0.0
 40
0.0
 40
0.0
 40
0.0709001864317471
 40
0.2985329260907166
 40
0.5283502676383272
 40
0.7606230766575048
 40
0.9918194481407943
 40
1.0
 40
1.0
 40
1.0
 40
1.0
 10
210.0822681576013
 20
85.02278544929159
 30
0.0
 10
210.0821835768635
 20
85.05731439097052
 30
0.0
 10
210.0818274404916
 20
85.2027022455447
 30
0.0
 10
210.062727074599
 20
85.44237687521579
 30
0.0
 10
210.0333995984606
 20
85.70184772319996
 30
0.0
 10
210.0086861652681
 20
85.86098956124441
 30
0.0
 10
209.9971478256592
 20
85.9290369489659
 30
0.0
 10
210.0002108204552
 20
85.91051887724592
 30
0.0
 10
210.0003154963254
 20
85.9098860340966
 30
0.0
  0
SPLINE
  5
162
330
1F
100
AcDbEntity
  8
0
  6
Continuous
 62
     7
370
    25
100
AcDbSpline
210
0.0
220
0.0
230
1.0
 70
    24
 71
     3
 72
    14
 73
    10
 74
     0
 42
0.000000001
 43
0.00000001
 40
0.0
 40
0.0
 40
0.0
 40
0.0
 40
0.0686783537768138
 40
0.2932170497282056
 40
0.2935200239703272
 40
0.5073355948525435
 40
0.7069536501822122
 40
0.9001970470938867
 40
1.0
 40
1.0
 40
1.0
 40
1.0
 10
209.6999998219311
 20
84.91179228749407
 30
0.0
 10
209.6999998219311
 20
84.93064448347704
 30
0.0
 10
209.699999821931
 20
85.01113251184452
 30
0.0
 10
209.6999998219312
 20
85.09081708018317
 30
0.0
 10
209.6999998219309
 20
85.20003645769903
 30
0.0
 10
209.6999998219311
 20
85.29672658673663
 30
0.0
 10
209.699999821931
 20
85.39831142312018
 30
0.0
 10
209.6999998219311
 20
85.45186273488996
 30
0.0
 10
209.6999998219311
 20
85.44765604102516
 30
0.0
 10
209.6999998219311
 20
85.44622336503399
 30
0.0
  0
SPLINE
  5
163
330
1F
100
AcDbEntity
  8
0
  6
Continuous
 62
     7
370
    25
100
AcDbSpline
210
0.0
220
0.0
230
1.0
 70
    24
 71
     3
 72
     9
 73
     5
 74
     0
 42
0.000000001
 43
0.00000001
 40
0.0
 40
0.0
 40
0.0
 40
0.0
 40
0.3143285051886555
 40
1.0
 40
1.0
 40
1.0
 40
1.0
 10
209.6999998219311
 20
84.72636968817842
 30
0.0
 10
209.6999998219311
 20
84.74455295848726
 30
0.0
 10
209.6999998219311
 20
84.80240094239161
 30
0.0
 10
209.6999998219311
 20
84.86729576053332
 30
0.0
 10
209.6999998219311
 20
84.91179228749407
 30
0.0
  0
LINE
  5
164
330
1F
100
AcDbEntity
  8
0
  6
Continuous
 62
     7
370
    25
100
AcDbLine
 10
217.1499999721
 20
104.011792438
 30
0.0
 11
217.400000013
 21
104.011792438
 31
0.0
  0
LINE
  5
165
330
1F
100
AcDbEntity
  8
0
  6
Continuous
 62
     7
370
    25
100
AcDbLine
 10
217.1499999721
 20
104.011792438
 30
0.0
 11
217.1499999721
 21
104.261791082
 31
0.0
  0
ARC
  5
166
330
1F
100
AcDbEntity
  8
0
  6
Continuous
 62
     7
370
    25
100
AcDbCircle
 10
217.15
 20
104.0117919075
 30
0.0
 40
0.25
100
AcDbArc
 50
0.0
 51
90.0
  0
LINE
  5
167
330
1F
100
AcDbEntity
  8
0
  6
Continuous
 62
     7
370
    25
100
AcDbLine
 10
217.1499999721
 20
103.4117915946
 30
0.0
 11
217.1499999721
 21
104.011792438
 31
0.0
  0
LINE
  5
168
330
1F
100
AcDbEntity
  8
0
  6
Continuous
 62
     7
370
    25
100
AcDbLine
 10
217.400000013
 20
104.011792438
 30
0.0
 11
217.400000013
 21
103.4117915946
 31
0.0
  0
LINE
  5
169
330
1F
100
AcDbEntity
  8
0
  6
Continuous
 62
     7
370
    25
100
AcDbLine
 10
217.400000013
 20
103.4117915946
 30
0.0
 11
217.1499999721
 21
103.4117915946
 31
0.0
  0
LINE
  5
16A
330
1F
100
AcDbEntity
  8
0
  6
Continuous
 62
     7
370
    25
100
AcDbLine
 10
214.6500000279
 20
104.011792438
 30
0.0
 11
214.6500000279
 21
103.4117915946
 31
0.0
  0
LINE
  5
16B
330
1F
100
AcDbEntity
  8
0
  6
Continuous
 62
     7
370
    25
100
AcDbLine
 10
217.1499999721
 20
104.011792438
 30
0.0
 11
214.6500000279
 21
104.011792438
 31
0.0
  0
LINE
  5
16C
330
1F
100
AcDbEntity
  8
0
  6
Continuous
 62
     7
370
    25
100
AcDbLine
 10
214.6500000279
 20
103.4117915946
 30
0.0
 11
217.1499999721
 21
103.4117915946
 31
0.0
  0
LINE
  5
16D
330
1F
100
AcDbEntity
  8
0
  6
Continuous
 62
     7
370
    25
100
AcDbLine
 10
214.6500000279
 20
104.261791082
 30
0.0
 11
214.6500000279
 21
104.011792438
 31
0.0
  0
LINE
  5
16E
330
1F
100
AcDbEntity
  8
0
  6
Continuous
 62
     7
370
    25
100
AcDbLine
 10
214.6500000279
 20
104.261791082
 30
0.0
 11
217.1499999721
 21
104.261791082
 31
0.0
  0
LINE
  5
16F
330
1F
100
AcDbEntity
  8
0
  6
Continuous
 62
     7
370
    25
100
AcDbLine
 10
214.399999987
 20
103.4117915946
 30
0.0
 11
214.399999987
 21
104.011792438
 31
0.0
  0
LINE
  5
170
330
1F
100
AcDbEntity
  8
0
  6
Continuous
 62
     7
370
    25
100
AcDbLine
 10
214.399999987
 20
104.011792438
 30
0.0
 11
214.6500000279
 21
104.011792438
 31
0.0
  0
LINE
  5
171
330
1F
100
AcDbEntity
  8
0
  6
Continuous
 62
     7
370
    25
100
AcDbLine
 10
214.6500000279
 20
103.4117915946
 30
0.0
 11
214.399999987
 21
103.4117915946
 31
0.0
  0
ARC
  5
172
330
1F
100
AcDbEntity
  8
0
  6
Continuous
 62
     7
370
    25
100
AcDbCircle
 10
214.65
 20
104.0117919075
 30
0.0
 40
0.25
100
AcDbArc
 50
90.0
 51
180.0
  0
SPLINE
  5
173
330
1F
100
AcDbEntity
  8
0
  6
Continuous
 62
     7
370
    25
100
AcDbSpline
210
0.0
220
0.0
230
1.0
 70
     8
 71
     3
 72
    15
 73
    11
 74
     0
 42
0.000000001
 43
0.00000001
 40
0.0
 40
0.0
 40
0.0
 40
0.0
 40
0.0090436668555053
 40
0.1032416108587011
 40
0.1542555096908477
 40
0.3133160372726557
 40
0.5243720667937798
 40
0.6678058153000223
 40
0.9918331445062708
 40
0.9999999999999999
 40
0.9999999999999999
 40
0.9999999999999999
 40
0.9999999999999999
 10
214.2260869048535
 20
104.0117924379958
 30
0.0
 10
214.2261045706403
 20
104.0134731185008
 30
0.0
 10
214.2263062415234
 20
104.032659601754
 30
0.0
 10
214.2324957590856
 20
104.0613535858879
 30
0.0
 10
214.2566972535277
 20
104.1120302946263
 30
0.0
 10
214.3097169272658
 20
104.1699058615047
 30
0.0
 10
214.3910870260987
 20
104.2147739571865
 30
0.0
 10
214.5056666552514
 20
104.2521317971274
 30
0.0
 10
214.5900919948556
 20
104.2616910656983
 30
0.0
 10
214.6485625536364
 20
104.2617886821308
 30
0.0
 10
214.6500000279396
 20
104.2617910819901
 30
0.0
  0
LINE
  5
174
330
1F
100
AcDbEntity
  8
0
  6
Continuous
 62
     7
370
    25
100
AcDbLine
 10
214.2260869049
 20
104.011792438
 30
0.0
 11
214.399999987
 21
104.011792438
 31
0.0
  0
LINE
  5
175
330
1F
100
AcDbEntity
  8
0
  6
Continuous
 62
     7
370
    25
100
AcDbLine
 10
217.400000013
 20
104.011792438
 30
0.0
 11
217.5739130951
 21
104.011792438
 31
0.0
  0
SPLINE
  5
176
330
1F
100
AcDbEntity
  8
0
  6
Continuous
 62
     7
370
    25
100
AcDbSpline
210
0.0
220
0.0
230
1.0
 70
     8
 71
     3
 72
    15
 73
    11
 74
     0
 42
0.000000001
 43
0.00000001
 40
0.0
 40
0.0
 40
0.0
 40
0.0
 40
0.0081668554937291
 40
0.3321941846999776
 40
0.4756279332062201
 40
0.6866839627273442
 40
0.8457444903091523
 40
0.8967583891412989
 40
0.9909563331444947
 40
1.0
 40
1.0
 40
1.0
 40
1.0
 10
217.1499999720603
 20
104.2617910819901
 30
0.0
 10
217.1514374463635
 20
104.2617886821308
 30
0.0
 10
217.2099080051442
 20
104.2616910656983
 30
0.0
 10
217.2943333447485
 20
104.2521317971274
 30
0.0
 10
217.4089129739012
 20
104.2147739571865
 30
0.0
 10
217.4902830727341
 20
104.1699058615047
 30
0.0
 10
217.5433027464722
 20
104.1120302946263
 30
0.0
 10
217.5675042409143
 20
104.0613535858879
 30
0.0
 10
217.5736937584765
 20
104.032659601754
 30
0.0
 10
217.5738954293596
 20
104.0134731185008
 30
0.0
 10
217.5739130951464
 20
104.0117924379958
 30
0.0
  0
LINE
  5
177
330
1F
100
AcDbEntity
  8
0
  6
Continuous
 62
     7
370
    25
100
AcDbLine
 10
217.5739130951
 20
104.011792438
 30
0.0
 11
217.5739130951
 21
103.4117915946
 31
0.0
  0
LINE
  5
178
330
1F
100
AcDbEntity
  8
0
  6
Continuous
 62
     7
370
    25
100
AcDbLine
 10
217.5739130951
 20
103.4117915946
 30
0.0
 11
217.400000013
 21
103.4117915946
 31
0.0
  0
LINE
  5
179
330
1F
100
AcDbEntity
  8
0
  6
Continuous
 62
     7
370
    25
100
AcDbLine
 10
214.2260869049
 20
103.4117915946
 30
0.0
 11
214.2260869049
 21
104.011792438
 31
0.0
  0
LINE
  5
17A
330
1F
100
AcDbEntity
  8
0
  6
Continuous
 62
     7
370
    25
100
AcDbLine
 10
214.399999987
 20
103.4117915946
 30
0.0
 11
214.2260869049
 21
103.4117915946
 31
0.0
  0
LINE
  5
17B
330
1F
100
AcDbEntity
  8
0
  6
Continuous
 62
     7
370
    25
100
AcDbLine
 10
217.1499999721
 20
104.261791082
 30
0.0
 11
221.1499999292
 21
104.261791082
 31
0.0
  0
LINE
  5
17C
330
1F
100
AcDbEntity
  8
0
  6
Continuous
 62
     7
370
    25
100
AcDbLine
 10
210.6500000708
 20
104.261791082
 30
0.0
 11
214.6500000279
 21
104.261791082
 31
0.0
  0
LINE
  5
17D
330
1F
100
AcDbEntity
  8
0
  6
Continuous
 62
     7
370
    25
100
AcDbLine
 10
217.5739130951
 20
103.4117915946
 30
0.0
 11
221.3999999702
 21
103.4117915946
 31
0.0
  0
LINE
  5
17E
330
1F
100
AcDbEntity
  8
0
  6
Continuous
 62
     7
370
    25
100
AcDbLine
 10
210.4000000298
 20
103.4117915946
 30
0.0
 11
214.2260869049
 21
103.4117915946
 31
0.0
  0
LINE
  5
17F
330
1F
100
AcDbEntity
  8
0
  6
Continuous
 62
     7
370
    25
100
AcDbLine
 10
216.5000000285
 20
104.261791082
 30
0.0
 11
216.5000000285
 21
104.2717916238
 31
0.0
  0
LINE
  5
180
330
1F
100
AcDbEntity
  8
0
  6
Continuous
 62
     7
370
    25
100
AcDbLine
 10
215.2999999715
 20
104.261791082
 30
0.0
 11
215.2999999715
 21
104.2717916238
 31
0.0
  0
LINE
  5
181
330
1F
100
AcDbEntity
  8
0
  6
Continuous
 62
     7
370
    25
100
AcDbLine
 10
215.2999999715
 20
104.2717916238
 30
0.0
 11
216.5000000285
 21
104.2717916238
 31
0.0
  0
LINE
  5
182
330
1F
100
AcDbEntity
  8
0
  6
Continuous
 62
     7
370
    25
100
AcDbLine
 10
208.8999997839
 20
87.411791766
 30
0.0
 11
222.9000002161
 21
87.411791766
 31
0.0
  0
LINE
  5
183
330
1F
100
AcDbEntity
  8
0
  6
Continuous
 62
     7
370
    25
100
AcDbLine
 10
208.4500000827
 20
95.4117921459
 30
0.0
 11
223.3499999173
 21
95.4117921459
 31
0.0
  0
LINE
  5
184
330
1F
100
AcDbEntity
  8
0
  6
Continuous
 62
     7
370
    25
100
AcDbLine
 10
219.1716991846
 20
105.4117919224
 30
0.0
 11
219.1716991846
 21
104.261791082
 31
0.0
  0
LINE
  5
185
330
1F
100
AcDbEntity
  8
0
  6
Continuous
 62
     7
370
    25
100
AcDbLine
 10
219.1716991846
 20
105.4117919224
 30
0.0
 11
219.400000108
 21
105.4117919224
 31
0.0
  0
LINE
  5
186
330
1F
100
AcDbEntity
  8
0
  6
Continuous
 62
     7
370
    25
100
AcDbLine
 10
219.400000108
 20
104.261791082
 30
0.0
 11
219.400000108
 21
105.4117919224
 31
0.0
  0
LINE
  5
187
330
1F
100
AcDbEntity
  8
0
  6
Continuous
 62
     7
370
    25
100
AcDbLine
 10
212.399999892
 20
105.4117919224
 30
0.0
 11
212.399999892
 21
104.261791082
 31
0.0
  0
LINE
  5
188
330
1F
100
AcDbEntity
  8
0
  6
Continuous
 62
     7
370
    25
100
AcDbLine
 10
212.399999892
 20
105.4117919224
 30
0.0
 11
212.6283008154
 21
105.4117919224
 31
0.0
  0
LINE
  5
189
330
1F
100
AcDbEntity
  8
0
  6
Continuous
 62
     7
370
    25
100
AcDbLine
 10
212.6283008154
 20
105.4117919224
 30
0.0
 11
212.6283008154
 21
104.261791082
 31
0.0
  0
LINE
  5
18A
330
1F
100
AcDbEntity
  8
0
  6
Continuous
 62
     7
370
    25
100
AcDbLine
 10
212.6283008154
 20
105.4117919224
 30
0.0
 11
219.1716991846
 21
105.4117919224
 31
0.0
  0
LINE
  5
18B
330
1F
100
AcDbEntity
  8
0
  6
Continuous
 62
     8
370
    25
100
AcDbLine
 10
221.3999999702
 20
104.011792438
 30
0.0
 11
217.5739130951
 21
104.011792438
 31
0.0
  0
LINE
  5
18C
330
1F
100
AcDbEntity
  8
0
  6
Continuous
 62
     8
370
    25
100
AcDbLine
 10
214.2260869049
 20
104.011792438
 30
0.0
 11
210.4000000298
 21
104.011792438
 31
0.0
  0
ARC
  5
18D
330
1F
100
AcDbEntity
  8
0
  6
Continuous
 62
     7
370
    25
100
AcDbCircle
 10
164.3942982659
 20
153.8067213873
 30
0.0
 40
1.500000000000014
100
AcDbArc
 50
138.1896851042
 51
180.0
  0
ARC
  5
18E
330
1F
100
AcDbEntity
  8
0
  6
Continuous
 62
     7
370
    25
100
AcDbCircle
 10
164.3942982659
 20
135.8067213873
 30
0.0
 40
1.500000000000014
100
AcDbArc
 50
180.0
 51
221.8103148958
  0
LINE
  5
18F
330
1F
100
AcDbEntity
  8
0
  6
Continuous
 62
     7
370
    25
100
AcDbLine
 10
164.8942979604
 20
154.8067211638
 30
0.0
 11
163.2762646854
 21
154.8067211638
 31
0.0
  0
LINE
  5
190
330
1F
100
AcDbEntity
  8
0
  6
Continuous
 62
     7
370
    25
100
AcDbLine
 10
163.2762646854
 20
134.8067216108
 30
0.0
 11
164.8942979604
 21
134.8067216108
 31
0.0
  0
ARC
  5
191
330
1F
100
AcDbEntity
  8
0
  6
Continuous
 62
     7
370
    25
100
AcDbCircle
 10
146.3942982659
 20
135.8067213873
 30
0.0
 40
1.500000000000014
100
AcDbArc
 50
318.1896851042
 51
0.0
  0
ARC
  5
192
330
1F
100
AcDbEntity
  8
0
  6
Continuous
 62
     7
370
    25
100
AcDbCircle
 10
146.3942982659
 20
153.8067213873
 30
0.0
 40
1.500000000000014
100
AcDbArc
 50
0.0
 51
41.8103148958
  0
LINE
  5
193
330
1F
100
AcDbEntity
  8
0
  6
Continuous
 62
     7
370
    25
100
AcDbLine
 10
145.6442980647
 20
154.8067211638
 30
0.0
 11
145.3942984894
 21
154.5567215884
 31
0.0
  0
LINE
  5
194
330
1F
100
AcDbEntity
  8
0
  6
Continuous
 62
     7
370
    25
100
AcDbLine
 10
145.3942984894
 20
135.0567211861
 30
0.0
 11
145.6442980647
 21
134.8067216108
 31
0.0
  0
LINE
  5
195
330
1F
100
AcDbEntity
  8
0
  6
Continuous
 62
     7
370
    25
100
AcDbLine
 10
164.8942979604
 20
134.8067216108
 30
0.0
 11
165.3942980424
 21
135.3067216928
 31
0.0
  0
LINE
  5
196
330
1F
100
AcDbEntity
  8
0
  6
Continuous
 62
     7
370
    25
100
AcDbLine
 10
165.3942980424
 20
154.3067210818
 30
0.0
 11
164.8942979604
 21
154.8067211638
 31
0.0
  0
LINE
  5
197
330
1F
100
AcDbEntity
  8
0
  6
Continuous
 62
     7
370
    25
100
AcDbLine
 10
145.6442980647
 20
134.8067216108
 30
0.0
 11
147.5123318464
 21
134.8067216108
 31
0.0
  0
LINE
  5
198
330
1F
100
AcDbEntity
  8
0
  6
Continuous
 62
     7
370
    25
100
AcDbLine
 10
147.5123318464
 20
154.8067211638
 30
0.0
 11
145.6442980647
 21
154.8067211638
 31
0.0
  0
LINE
  5
199
330
1F
100
AcDbEntity
  8
0
  6
Continuous
 62
     7
370
    25
100
AcDbLine
 10
165.3942980424
 20
139.7542838471
 30
0.0
 11
174.0393501327
 21
140.0244418996
 31
0.0
  0
LINE
  5
19A
330
1F
100
AcDbEntity
  8
0
  6
Continuous
 62
     7
370
    25
100
AcDbLine
 10
174.0393501327
 20
149.589000875
 30
0.0
 11
165.3942980424
 21
149.8591589274
 31
0.0
  0
LINE
  5
19B
330
1F
100
AcDbEntity
  8
0
  6
Continuous
 62
     7
370
    25
100
AcDbLine
 10
174.0393501327
 20
140.0244418996
 30
0.0
 11
175.3942978189
 21
140.8067211973
 31
0.0
  0
LINE
  5
19C
330
1F
100
AcDbEntity
  8
0
  6
Continuous
 62
     7
370
    25
100
AcDbLine
 10
175.3942978189
 20
148.8067215773
 30
0.0
 11
174.0393501327
 21
149.589000875
 31
0.0
  0
LINE
  5
19D
330
1F
100
AcDbEntity
  8
0
  6
Continuous
 62
     7
370
    25
100
AcDbLine
 10
145.3942984894
 20
152.8067217673
 30
0.0
 11
135.3942987129
 21
152.8067217673
 31
0.0
  0
LINE
  5
19E
330
1F
100
AcDbEntity
  8
0
  6
Continuous
 62
     7
370
    25
100
AcDbLine
 10
135.3942987129
 20
136.8067210073
 30
0.0
 11
145.3942984894
 21
136.8067210073
 31
0.0
  0
LINE
  5
19F
330
1F
100
AcDbEntity
  8
0
  6
Continuous
 62
     7
370
    25
100
AcDbLine
 10
120.3942981169
 20
152.8067217673
 30
0.0
 11
115.7962393567
 21
151.8871096427
 31
0.0
  0
LINE
  5
1A0
330
1F
100
AcDbEntity
  8
0
  6
Continuous
 62
     7
370
    25
100
AcDbLine
 10
115.7962393567
 20
137.7263331319
 30
0.0
 11
120.3942981169
 21
136.8067210073
 31
0.0
  0
LINE
  5
1A1
330
1F
100
AcDbEntity
  8
0
  6
Continuous
 62
     7
370
    25
100
AcDbLine
 10
135.3942987129
 20
152.8067217673
 30
0.0
 11
130.3942978934
 21
151.8067216034
 31
0.0
  0
LINE
  5
1A2
330
1F
100
AcDbEntity
  8
0
  6
Continuous
 62
     7
370
    25
100
AcDbLine
 10
130.3942978934
 20
137.8067211712
 30
0.0
 11
135.3942987129
 21
136.8067210073
 31
0.0
  0
LINE
  5
1A3
330
1F
100
AcDbEntity
  8
0
  6
Continuous
 62
     7
370
    25
100
AcDbLine
 10
125.3942989364
 20
152.8067217673
 30
0.0
 11
120.3942981169
 21
151.8067216034
 31
0.0
  0
LINE
  5
1A4
330
1F
100
AcDbEntity
  8
0
  6
Continuous
 62
     7
370
    25
100
AcDbLine
 10
120.3942981169
 20
137.8067211712
 30
0.0
 11
125.3942989364
 21
136.8067210073
 31
0.0
  0
LINE
  5
1A5
330
1F
100
AcDbEntity
  8
0
  6
Continuous
 62
     7
370
    25
100
AcDbLine
 10
130.3942978934
 20
152.8067217673
 30
0.0
 11
125.3942989364
 21
151.8067216034
 31
0.0
  0
LINE
  5
1A6
330
1F
100
AcDbEntity
  8
0
  6
Continuous
 62
     7
370
    25
100
AcDbLine
 10
125.3942989364
 20
137.8067211712
 30
0.0
 11
130.3942978934
 21
136.8067210073
 31
0.0
  0
ARC
  5
1A7
330
1F
100
AcDbEntity
  8
0
  6
Continuous
 62
     7
370
    25
100
AcDbCircle
 10
115.8942982659
 20
138.2166233386
 30
0.0
 40
0.5
100
AcDbArc
 50
180.0
 51
258.690067526
  0
ARC
  5
1A8
330
1F
100
AcDbEntity
  8
0
  6
Continuous
 62
     7
370
    25
100
AcDbCircle
 10
115.8942982659
 20
151.3968194359
 30
0.0
 40
0.5
100
AcDbArc
 50
101.309932474
 51
180.0
  0
LINE
  5
1A9
330
1F
100
AcDbEntity
  8
0
  6
Continuous
 62
     7
370
    25
100
AcDbLine
 10
163.2762646854
 20
134.8067216108
 30
0.0
 11
163.2762646854
 21
154.8067211638
 31
0.0
  0
SPLINE
  5
1AA
330
1F
100
AcDbEntity
  8
0
  6
Continuous
 62
     7
370
    25
100
AcDbSpline
210
0.0
220
0.0
230
1.0
 70
     8
 71
     3
 72
    12
 73
     8
 74
     0
 42
0.000000001
 43
0.00000001
 40
0.0
 40
0.0
 40
0.0
 40
0.0
 40
0.25
 40
0.25
 40
0.5
 40
0.5
 40
1.0
 40
1.0
 40
1.0
 40
1.0
 10
163.123384332998
 20
136.0442602075335
 30
0.0
 10
163.0422677308934
 20
136.0097550696734
 30
0.0
 10
162.995237807725
 20
135.9769099983729
 30
0.0
 10
162.9323742061932
 20
135.9185574701263
 30
0.0
 10
162.916924535276
 20
135.8929031064976
 30
0.0
 10
162.8897408708967
 20
135.8298038537579
 30
0.0
 10
162.894298265896
 20
135.8067213872833
 30
0.0
 10
162.894298265896
 20
135.8067213872833
 30
0.0
  0
SPLINE
  5
1AB
330
1F
100
AcDbEntity
  8
0
  6
Continuous
 62
     7
370
    25
100
AcDbSpline
210
0.0
220
0.0
230
1.0
 70
     8
 71
     3
 72
    14
 73
    10
 74
     0
 42
0.000000001
 43
0.00000001
 40
0.0
 40
0.0
 40
0.0
 40
0.0
 40
0.25
 40
0.25
 40
0.5
 40
0.5
 40
0.75
 40
0.75
 40
1.0
 40
1.0
 40
1.0
 40
1.0
 10
163.123384332998
 20
136.0442602075335
 30
0.0
 10
163.1509053207431
 20
136.055967003079
 30
0.0
 10
163.1708252425795
 20
136.0880089561606
 30
0.0
 10
163.1864922843976
 20
136.1873327068256
 30
0.0
 10
163.1820004525852
 20
136.2551561496064
 30
0.0
 10
163.1507441073016
 20
136.4175977670192
 30
0.0
 10
163.1243715239199
 20
136.5120431637549
 30
0.0
 10
163.0615349727756
 20
136.7202722713515
 30
0.0
 10
163.0254953939155
 20
136.8328706642346
 30
0.0
 10
162.9914993905499
 20
136.9526270578347
 30
0.0
  0
SPLINE
  5
1AC
330
1F
100
AcDbEntity
  8
0
  6
Continuous
 62
     7
370
    25
100
AcDbSpline
210
0.0
220
0.0
230
1.0
 70
     8
 71
     3
 72
     8
 73
     4
 74
     0
 42
0.000000001
 43
0.00000001
 40
0.0
 40
0.0
 40
0.0
 40
0.0
 40
1.0
 40
1.0
 40
1.0
 40
1.0
 10
162.894298265896
 20
137.6828179628958
 30
0.0
 10
162.894298265896
 20
137.4353885061008
 30
0.0
 10
162.9236629729738
 20
137.1915917571934
 30
0.0
 10
162.9914993905499
 20
136.9526270578347
 30
0.0
  0
LINE
  5
1AD
330
1F
100
AcDbEntity
  8
0
  6
Continuous
 62
     7
370
    25
100
AcDbLine
 10
162.8942980983
 20
137.6828180159
 30
0.0
 11
162.8942980983
 21
151.9306247587
 31
0.0
  0
SPLINE
  5
1AE
330
1F
100
AcDbEntity
  8
0
  6
Continuous
 62
     7
370
    25
100
AcDbSpline
210
0.0
220
0.0
230
1.0
 70
     8
 71
     3
 72
     8
 73
     4
 74
     0
 42
0.000000001
 43
0.00000001
 40
0.0
 40
0.0
 40
0.0
 40
0.0
 40
1.0
 40
1.0
 40
1.0
 40
1.0
 10
162.9914993905499
 20
152.6608157167319
 30
0.0
 10
162.9236629729738
 20
152.4218510173731
 30
0.0
 10
162.894298265896
 20
152.1780542684658
 30
0.0
 10
162.894298265896
 20
151.9306248116708
 30
0.0
  0
SPLINE
  5
1AF
330
1F
100
AcDbEntity
  8
0
  6
Continuous
 62
     7
370
    25
100
AcDbSpline
210
0.0
220
0.0
230
1.0
 70
     8
 71
     3
 72
    12
 73
     8
 74
     0
 42
0.000000001
 43
0.00000001
 40
0.0
 40
0.0
 40
0.0
 40
0.0
 40
0.4999999999999992
 40
0.4999999999999992
 40
0.7499999999999996
 40
0.7499999999999996
 40
1.0
 40
1.0
 40
1.0
 40
1.0
 10
162.9914993905499
 20
152.6608157167319
 30
0.0
 10
163.0593691505597
 20
152.89989787018
 30
0.0
 10
163.1354037018134
 20
153.1156679773568
 30
0.0
 10
163.1820483001904
 20
153.3587625700607
 30
0.0
 10
163.1864872967131
 20
153.4264278455368
 30
0.0
 10
163.1707566829202
 20
153.5255809616934
 30
0.0
 10
163.1508762529779
 20
153.5574881362467
 30
0.0
 10
163.123384332998
 20
153.5691825670331
 30
0.0
  0
SPLINE
  5
1B0
330
1F
100
AcDbEntity
  8
0
  6
Continuous
 62
     7
370
    25
100
AcDbSpline
210
0.0
220
0.0
230
1.0
 70
     8
 71
     3
 72
    12
 73
     8
 74
     0
 42
0.000000001
 43
0.00000001
 40
0.0
 40
0.0
 40
0.0
 40
0.0
 40
0.5000000000000002
 40
0.5000000000000002
 40
0.7500000000000001
 40
0.7500000000000001
 40
1.0
 40
1.0
 40
1.0
 40
1.0
 10
162.894298265896
 20
153.8067213872833
 30
0.0
 10
162.894298265896
 20
153.8067213872833
 30
0.0
 10
162.8897408708967
 20
153.7836389208087
 30
0.0
 10
162.916924535276
 20
153.7205396680689
 30
0.0
 10
162.9323742061932
 20
153.6948853044403
 30
0.0
 10
162.995237807725
 20
153.6365327761937
 30
0.0
 10
163.0422677308934
 20
153.6036877048932
 30
0.0
 10
163.123384332998
 20
153.5691825670331
 30
0.0
  0
LINE
  5
1B1
330
1F
100
AcDbEntity
  8
0
  6
Continuous
 62
     7
370
    25
100
AcDbLine
 10
164.8942979604
 20
134.8067216108
 30
0.0
 11
164.8942979604
 21
154.8067211638
 31
0.0
  0
LINE
  5
1B2
330
1F
100
AcDbEntity
  8
0
  6
Continuous
 62
     7
370
    25
100
AcDbLine
 10
147.5123318464
 20
154.8067211638
 30
0.0
 11
147.5123318464
 21
149.8977575915
 31
0.0
  0
LINE
  5
1B3
330
1F
100
AcDbEntity
  8
0
  6
Continuous
 62
     7
370
    25
100
AcDbLine
 10
147.5123318464
 20
139.715685183
 30
0.0
 11
147.5123318464
 21
134.8067216108
 31
0.0
  0
SPLINE
  5
1B4
330
1F
100
AcDbEntity
  8
0
  6
Continuous
 62
     7
370
    25
100
AcDbSpline
210
0.0
220
0.0
230
1.0
 70
     8
 71
     3
 72
    12
 73
     8
 74
     0
 42
0.000000001
 43
0.00000001
 40
0.0
 40
0.0
 40
0.0
 40
0.0
 40
0.2500000000000001
 40
0.2500000000000001
 40
0.5000000000000001
 40
0.5000000000000001
 40
1.0
 40
1.0
 40
1.0
 40
1.0
 10
147.6652121987939
 20
153.5691825670331
 30
0.0
 10
147.7463288008985
 20
153.6036877048932
 30
0.0
 10
147.7933587240669
 20
153.6365327761937
 30
0.0
 10
147.8562223255987
 20
153.6948853044403
 30
0.0
 10
147.8716719965159
 20
153.7205396680689
 30
0.0
 10
147.8988556608952
 20
153.7836389208087
 30
0.0
 10
147.8942982658959
 20
153.8067213872833
 30
0.0
 10
147.8942982658959
 20
153.8067213872833
 30
0.0
  0
SPLINE
  5
1B5
330
1F
100
AcDbEntity
  8
0
  6
Continuous
 62
     7
370
    25
100
AcDbSpline
210
0.0
220
0.0
230
1.0
 70
     8
 71
     3
 72
    14
 73
    10
 74
     0
 42
0.000000001
 43
0.00000001
 40
0.0
 40
0.0
 40
0.0
 40
0.0
 40
0.25
 40
0.25
 40
0.5
 40
0.5
 40
0.75
 40
0.75
 40
1.0
 40
1.0
 40
1.0
 40
1.0
 10
147.6652121987939
 20
153.5691825670331
 30
0.0
 10
147.6376912110489
 20
153.5574757714875
 30
0.0
 10
147.6177712892124
 20
153.525433818406
 30
0.0
 10
147.6021042473944
 20
153.426110067741
 30
0.0
 10
147.6065960792067
 20
153.3582866249602
 30
0.0
 10
147.6378524244903
 20
153.1958450075474
 30
0.0
 10
147.664225007872
 20
153.1013996108117
 30
0.0
 10
147.7270615590163
 20
152.8931705032151
 30
0.0
 10
147.7631011378764
 20
152.780572110332
 30
0.0
 10
147.797097141242
 20
152.6608157167319
 30
0.0
  0
SPLINE
  5
1B6
330
1F
100
AcDbEntity
  8
0
  6
Continuous
 62
     7
370
    25
100
AcDbSpline
210
0.0
220
0.0
230
1.0
 70
     8
 71
     3
 72
     8
 73
     4
 74
     0
 42
0.000000001
 43
0.00000001
 40
0.0
 40
0.0
 40
0.0
 40
0.0
 40
1.0
 40
1.0
 40
1.0
 40
1.0
 10
147.8942982658959
 20
151.9306248116708
 30
0.0
 10
147.8942982658959
 20
152.1780542684658
 30
0.0
 10
147.8649335588181
 20
152.4218510173731
 30
0.0
 10
147.797097141242
 20
152.6608157167319
 30
0.0
  0
LINE
  5
1B7
330
1F
100
AcDbEntity
  8
0
  6
Continuous
 62
     7
370
    25
100
AcDbLine
 10
147.8942984335
 20
151.9306247587
 30
0.0
 11
147.8942984335
 21
149.9850700142
 31
0.0
  0
LINE
  5
1B8
330
1F
100
AcDbEntity
  8
0
  6
Continuous
 62
     7
370
    25
100
AcDbLine
 10
147.8942984335
 20
139.6283727603
 30
0.0
 11
147.8942984335
 21
137.6828180159
 31
0.0
  0
SPLINE
  5
1B9
330
1F
100
AcDbEntity
  8
0
  6
Continuous
 62
     7
370
    25
100
AcDbSpline
210
0.0
220
0.0
230
1.0
 70
     8
 71
     3
 72
     8
 73
     4
 74
     0
 42
0.000000001
 43
0.00000001
 40
0.0
 40
0.0
 40
0.0
 40
0.0
 40
1.0
 40
1.0
 40
1.0
 40
1.0
 10
147.797097141242
 20
136.9526270578347
 30
0.0
 10
147.8649335588181
 20
137.1915917571934
 30
0.0
 10
147.8942982658959
 20
137.4353885061008
 30
0.0
 10
147.8942982658959
 20
137.6828179628958
 30
0.0
  0
SPLINE
  5
1BA
330
1F
100
AcDbEntity
  8
0
  6
Continuous
 62
     7
370
    25
100
AcDbSpline
210
0.0
220
0.0
230
1.0
 70
     8
 71
     3
 72
    12
 73
     8
 74
     0
 42
0.000000001
 43
0.00000001
 40
0.0
 40
0.0
 40
0.0
 40
0.0
 40
0.4999999999999992
 40
0.4999999999999992
 40
0.7499999999999996
 40
0.7499999999999996
 40
1.0
 40
1.0
 40
1.0
 40
1.0
 10
147.797097141242
 20
136.9526270578347
 30
0.0
 10
147.7292273812322
 20
136.7135449043866
 30
0.0
 10
147.6531928299785
 20
136.4977747972098
 30
0.0
 10
147.6065482316015
 20
136.2546802045059
 30
0.0
 10
147.6021092350788
 20
136.1870149290298
 30
0.0
 10
147.6178398488717
 20
136.0878618128731
 30
0.0
 10
147.637720278814
 20
136.0559546383199
 30
0.0
 10
147.6652121987939
 20
136.0442602075335
 30
0.0
  0
SPLINE
  5
1BB
330
1F
100
AcDbEntity
  8
0
  6
Continuous
 62
     7
370
    25
100
AcDbSpline
210
0.0
220
0.0
230
1.0
 70
     8
 71
     3
 72
    12
 73
     8
 74
     0
 42
0.000000001
 43
0.00000001
 40
0.0
 40
0.0
 40
0.0
 40
0.0
 40
0.4999999999999998
 40
0.4999999999999998
 40
0.7499999999999999
 40
0.7499999999999999
 40
1.0
 40
1.0
 40
1.0
 40
1.0
 10
147.8942982658959
 20
135.8067213872833
 30
0.0
 10
147.8942982658959
 20
135.8067213872833
 30
0.0
 10
147.8988556608952
 20
135.8298038537579
 30
0.0
 10
147.8716719965159
 20
135.8929031064976
 30
0.0
 10
147.8562223255987
 20
135.9185574701263
 30
0.0
 10
147.7933587240669
 20
135.9769099983729
 30
0.0
 10
147.7463288008985
 20
136.0097550696734
 30
0.0
 10
147.6652121987939
 20
136.0442602075335
 30
0.0
  0
LINE
  5
1BC
330
1F
100
AcDbEntity
  8
0
  6
Continuous
 62
     7
370
    25
100
AcDbLine
 10
145.3942984894
 20
135.0567211861
 30
0.0
 11
145.3942984894
 21
140.1562221812
 31
0.0
  0
LINE
  5
1BD
330
1F
100
AcDbEntity
  8
0
  6
Continuous
 62
     7
370
    25
100
AcDbLine
 10
145.3942984894
 20
149.4572205933
 30
0.0
 11
145.3942984894
 21
154.5567215884
 31
0.0
  0
LINE
  5
1BE
330
1F
100
AcDbEntity
  8
0
  6
Continuous
 62
     7
370
    25
100
AcDbLine
 10
145.6442980647
 20
154.8067211638
 30
0.0
 11
145.6442980647
 21
149.5054007041
 31
0.0
  0
LINE
  5
1BF
330
1F
100
AcDbEntity
  8
0
  6
Continuous
 62
     7
370
    25
100
AcDbLine
 10
145.6442980647
 20
140.1080420705
 30
0.0
 11
145.6442980647
 21
134.8067216108
 31
0.0
  0
LINE
  5
1C0
330
1F
100
AcDbEntity
  8
0
  6
Continuous
 62
     7
370
    25
100
AcDbLine
 10
165.3942980424
 20
154.3067210818
 30
0.0
 11
165.3942980424
 21
135.3067216928
 31
0.0
  0
ARC
  5
1C1
330
1F
100
AcDbEntity
  8
0
  6
Continuous
 62
     7
370
    25
100
AcDbCircle
 10
148.3476160312
 20
151.9896002433
 30
0.0
 40
0.4571377824698493
100
AcDbArc
 50
187.4124053607
 51
275.8611502695
  0
ARC
  5
1C2
330
1F
100
AcDbEntity
  8
0
  6
Continuous
 62
     7
370
    25
100
AcDbCircle
 10
148.3476160312
 20
137.6238425313
 30
0.0
 40
0.4571377824698493
100
AcDbArc
 50
84.1388497305
 51
172.5875946393
  0
ARC
  5
1C3
330
1F
100
AcDbEntity
  8
0
  6
Continuous
 62
     7
370
    25
100
AcDbCircle
 10
162.4409805006
 20
151.9896002433
 30
0.0
 40
0.4571377824698463
100
AcDbArc
 50
264.1388497305
 51
352.5875946393
  0
ARC
  5
1C4
330
1F
100
AcDbEntity
  8
0
  6
Continuous
 62
     7
370
    25
100
AcDbCircle
 10
162.4409805006
 20
137.6238425313
 30
0.0
 40
0.4571377824698463
100
AcDbArc
 50
7.4124053607
 51
95.8611502695
  0
LWPOLYLINE
  5
1C5
330
1F
100
AcDbEntity
  8
0
  6
Continuous
 62
     7
370
    25
100
AcDbPolyline
 90
        9
 70
   128
 43
0.0
 10
147.7970972277
 20
152.6608161161
 10
147.8202294179
 20
152.6680338661
 10
147.8563414507
 20
152.6793019379
 10
147.9043795347
 20
152.6942915747
 10
147.9629406326
 20
152.7125641236
 10
148.0303139046
 20
152.7335868681
 10
148.1045319319
 20
152.7567451353
 10
148.1834275268
 20
152.7813627849
 10
148.2646965973
 20
152.8067217673
  0
SPLINE
  5
1C6
330
1F
100
AcDbEntity
  8
0
  6
Continuous
 62
     7
370
    25
100
AcDbSpline
210
0.0
220
0.0
230
1.0
 70
     8
 71
     3
 72
     8
 73
     4
 74
     0
 42
0.000000001
 43
0.00000001
 40
0.0
 40
0.0
 40
0.0
 40
0.0
 40
1.0
 40
1.0
 40
1.0
 40
1.0
 10
148.2646967663574
 20
152.8067213872833
 30
0.0
 10
148.3537054617458
 20
152.5214656296535
 30
0.0
 10
148.3942982658959
 20
152.2290476797716
 30
0.0
 10
148.3942982658959
 20
151.9306248116708
 30
0.0
  0
LINE
  5
1C7
330
1F
100
AcDbEntity
  8
0
  6
Continuous
 62
     7
370
    25
100
AcDbLine
 10
147.8942984335
 20
151.9306247587
 30
0.0
 11
148.3942980498
 21
151.9306247587
 31
0.0
  0
SPLINE
  5
1C8
330
1F
100
AcDbEntity
  8
0
  6
Continuous
 62
     7
370
    25
100
AcDbSpline
210
0.0
220
0.0
230
1.0
 70
     8
 71
     3
 72
     8
 73
     4
 74
     0
 42
0.000000001
 43
0.00000001
 40
0.0
 40
0.0
 40
0.0
 40
0.0
 40
1.0
 40
1.0
 40
1.0
 40
1.0
 10
162.394298265896
 20
151.9306248116708
 30
0.0
 10
162.394298265896
 20
152.2290476797716
 30
0.0
 10
162.4348910700461
 20
152.5214656296535
 30
0.0
 10
162.5238997654345
 20
152.8067213872833
 30
0.0
  0
LWPOLYLINE
  5
1C9
330
1F
100
AcDbEntity
  8
0
  6
Continuous
 62
     7
370
    25
100
AcDbPolyline
 90
        9
 70
   128
 43
0.0
 10
162.5238999345
 20
152.8067217673
 10
162.605169005
 20
152.7813627849
 10
162.6840645999
 20
152.7567451353
 10
162.7582826272
 20
152.7335868681
 10
162.8256558992
 20
152.7125641236
 10
162.884216997
 20
152.6942915747
 10
162.9322550811
 20
152.6793019379
 10
162.9683671139
 20
152.6680338661
 10
162.991499304
 20
152.6608161161
  0
LINE
  5
1CA
330
1F
100
AcDbEntity
  8
0
  6
Continuous
 62
     7
370
    25
100
AcDbLine
 10
162.394298482
 20
151.9306247587
 30
0.0
 11
162.8942980983
 21
151.9306247587
 31
0.0
  0
SPLINE
  5
1CB
330
1F
100
AcDbEntity
  8
0
  6
Continuous
 62
     7
370
    25
100
AcDbSpline
210
0.0
220
0.0
230
1.0
 70
     8
 71
     3
 72
     8
 73
     4
 74
     0
 42
0.000000001
 43
0.00000001
 40
0.0
 40
0.0
 40
0.0
 40
0.0
 40
1.0
 40
1.0
 40
1.0
 40
1.0
 10
148.3942982658959
 20
137.6828179628958
 30
0.0
 10
148.3942982658959
 20
137.384395094795
 30
0.0
 10
148.3537054617458
 20
137.0919771449131
 30
0.0
 10
148.2646967663574
 20
136.8067213872833
 30
0.0
  0
LWPOLYLINE
  5
1CC
330
1F
100
AcDbEntity
  8
0
  6
Continuous
 62
     7
370
    25
100
AcDbPolyline
 90
        9
 70
   128
 43
0.0
 10
148.2646965973
 20
136.8067210073
 10
148.1834275268
 20
136.8320799897
 10
148.1045319319
 20
136.8566976393
 10
148.0303139046
 20
136.8798559064
 10
147.9629406326
 20
136.9008786509
 10
147.9043795347
 20
136.9191511998
 10
147.8563414507
 20
136.9341408367
 10
147.8202294179
 20
136.9454089085
 10
147.7970972277
 20
136.9526266585
  0
LINE
  5
1CD
330
1F
100
AcDbEntity
  8
0
  6
Continuous
 62
     7
370
    25
100
AcDbLine
 10
147.8942984335
 20
137.6828180159
 30
0.0
 11
148.3942980498
 21
137.6828180159
 31
0.0
  0
LWPOLYLINE
  5
1CE
330
1F
100
AcDbEntity
  8
0
  6
Continuous
 62
     7
370
    25
100
AcDbPolyline
 90
        9
 70
   128
 43
0.0
 10
162.991499304
 20
136.9526266585
 10
162.9683671139
 20
136.9454089085
 10
162.9322550811
 20
136.9341408367
 10
162.884216997
 20
136.9191511998
 10
162.8256558992
 20
136.9008786509
 10
162.7582826272
 20
136.8798559064
 10
162.6840645999
 20
136.8566976393
 10
162.605169005
 20
136.8320799897
 10
162.5238999345
 20
136.8067210073
  0
SPLINE
  5
1CF
330
1F
100
AcDbEntity
  8
0
  6
Continuous
 62
     7
370
    25
100
AcDbSpline
210
0.0
220
0.0
230
1.0
 70
     8
 71
     3
 72
     8
 73
     4
 74
     0
 42
0.000000001
 43
0.00000001
 40
0.0
 40
0.0
 40
0.0
 40
0.0
 40
1.0
 40
1.0
 40
1.0
 40
1.0
 10
162.5238997654345
 20
136.8067213872833
 30
0.0
 10
162.4348910700461
 20
137.0919771449131
 30
0.0
 10
162.394298265896
 20
137.384395094795
 30
0.0
 10
162.394298265896
 20
137.6828179628958
 30
0.0
  0
LINE
  5
1D0
330
1F
100
AcDbEntity
  8
0
  6
Continuous
 62
     7
370
    25
100
AcDbLine
 10
162.8942980983
 20
137.6828180159
 30
0.0
 11
162.394298482
 21
137.6828180159
 31
0.0
  0
LINE
  5
1D1
330
1F
100
AcDbEntity
  8
0
  6
Continuous
 62
     7
370
    25
100
AcDbLine
 10
162.394298482
 20
151.5348522457
 30
0.0
 11
162.394298482
 21
151.9306247587
 31
0.0
  0
LINE
  5
1D2
330
1F
100
AcDbEntity
  8
0
  6
Continuous
 62
     7
370
    25
100
AcDbLine
 10
148.3942980498
 20
151.5348522457
 30
0.0
 11
148.3942980498
 21
151.9306247587
 31
0.0
  0
LINE
  5
1D3
330
1F
100
AcDbEntity
  8
0
  6
Continuous
 62
     7
370
    25
100
AcDbLine
 10
148.3942980498
 20
137.6828180159
 30
0.0
 11
148.3942980498
 21
138.0785905289
 31
0.0
  0
LINE
  5
1D4
330
1F
100
AcDbEntity
  8
0
  6
Continuous
 62
     7
370
    25
100
AcDbLine
 10
162.394298482
 20
137.6828180159
 30
0.0
 11
162.394298482
 21
138.0785905289
 31
0.0
  0
ARC
  5
1D5
330
1F
100
AcDbEntity
  8
0
  6
Continuous
 62
     7
370
    25
100
AcDbCircle
 10
148.0926783991
 20
153.7860285652
 30
0.0
 40
0.4793220025378209
100
AcDbArc
 50
206.8978733264
 51
269.5424057934
  0
SPLINE
  5
1D6
330
1F
100
AcDbEntity
  8
0
  6
Continuous
 62
     7
370
    25
100
AcDbSpline
210
0.0
220
0.0
230
1.0
 70
     8
 71
     3
 72
    14
 73
    10
 74
     0
 42
0.000000001
 43
0.00000001
 40
0.0
 40
0.0
 40
0.0
 40
0.0
 40
0.25
 40
0.25
 40
0.5
 40
0.5
 40
0.75
 40
0.75
 40
1.0
 40
1.0
 40
1.0
 40
1.0
 10
148.2646967663574
 20
152.8067213872833
 30
0.0
 10
148.2262212827358
 20
152.8683746515108
 30
0.0
 10
148.1851323612658
 20
152.9265585967837
 30
0.0
 10
148.1058495138252
 20
153.0402239182506
 30
0.0
 10
148.0685666127148
 20
153.0939005169504
 30
0.0
 10
148.015760853403
 20
153.1938905493971
 30
0.0
 10
148.0037915933093
 20
153.23829504962
 30
0.0
 10
148.0237933816815
 20
153.2943549051138
 30
0.0
 10
148.0532498372338
 20
153.3067213872833
 30
0.0
 10
148.0888501764266
 20
153.3067213872833
 30
0.0
  0
ARC
  5
1D7
330
1F
100
AcDbEntity
  8
0
  6
Continuous
 62
     7
370
    25
100
AcDbCircle
 10
162.6959181327
 20
135.8274142094
 30
0.0
 40
0.4793220025378564
100
AcDbArc
 50
26.8978733264
 51
89.5424057934
  0
SPLINE
  5
1D8
330
1F
100
AcDbEntity
  8
0
  6
Continuous
 62
     7
370
    25
100
AcDbSpline
210
0.0
220
0.0
230
1.0
 70
     8
 71
     3
 72
    14
 73
    10
 74
     0
 42
0.000000001
 43
0.00000001
 40
0.0
 40
0.0
 40
0.0
 40
0.0
 40
0.25
 40
0.25
 40
0.5
 40
0.5
 40
0.75
 40
0.75
 40
1.0
 40
1.0
 40
1.0
 40
1.0
 10
162.5238997654345
 20
136.8067213872833
 30
0.0
 10
162.5623752490561
 20
136.7450681230558
 30
0.0
 10
162.6034641705261
 20
136.6868841777829
 30
0.0
 10
162.6827470179667
 20
136.5732188563159
 30
0.0
 10
162.7200299190772
 20
136.5195422576162
 30
0.0
 10
162.7728356783889
 20
136.4195522251695
 30
0.0
 10
162.7848049384826
 20
136.3751477249466
 30
0.0
 10
162.7648031501104
 20
136.3190878694528
 30
0.0
 10
162.7353466945581
 20
136.3067213872833
 30
0.0
 10
162.6997463553653
 20
136.3067213872833
 30
0.0
  0
SPLINE
  5
1D9
330
1F
100
AcDbEntity
  8
0
  6
Continuous
 62
     7
370
    25
100
AcDbSpline
210
0.0
220
0.0
230
1.0
 70
     8
 71
     3
 72
    16
 73
    12
 74
     0
 42
0.000000001
 43
0.00000001
 40
0.0
 40
0.0
 40
0.0
 40
0.0
 40
0.2500000000000011
 40
0.2500000000000011
 40
0.3749999999999992
 40
0.3749999999999992
 40
0.4999999999999974
 40
0.4999999999999974
 40
0.7499999999999987
 40
0.7499999999999987
 40
1.0
 40
1.0
 40
1.0
 40
1.0
 10
162.6997463553653
 20
153.3067213872833
 30
0.0
 10
162.735300284814
 20
153.3067213872833
 30
0.0
 10
162.7645724260427
 20
153.2945896368675
 30
0.0
 10
162.7797849762636
 20
153.2525679305881
 30
0.0
 10
162.7798456444371
 20
153.2343535610815
 30
0.0
 10
162.7696350599598
 20
153.192416548555
 30
0.0
 10
162.7598517304345
 20
153.1693889850607
 30
0.0
 10
162.7206871819026
 20
153.0949803062886
 30
0.0
 10
162.6828141086293
 20
153.0403224301062
 30
0.0
 10
162.6037411356377
 20
152.9269533569274
 30
0.0
 10
162.5623540030469
 20
152.8683406068232
 30
0.0
 10
162.5238997654345
 20
152.8067213872833
 30
0.0
  0
ARC
  5
1DA
330
1F
100
AcDbEntity
  8
0
  6
Continuous
 62
     7
370
    25
100
AcDbCircle
 10
162.6959181327
 20
153.7860285652
 30
0.0
 40
0.4793220025378436
100
AcDbArc
 50
270.4575942066
 51
333.1021266736
  0
SPLINE
  5
1DB
330
1F
100
AcDbEntity
  8
0
  6
Continuous
 62
     7
370
    25
100
AcDbSpline
210
0.0
220
0.0
230
1.0
 70
     8
 71
     3
 72
    16
 73
    12
 74
     0
 42
0.000000001
 43
0.00000001
 40
0.0
 40
0.0
 40
0.0
 40
0.0
 40
0.2500000000000049
 40
0.2500000000000049
 40
0.3750000000000051
 40
0.3750000000000051
 40
0.5000000000000052
 40
0.5000000000000052
 40
0.7500000000000026
 40
0.7500000000000026
 40
1.0
 40
1.0
 40
1.0
 40
1.0
 10
148.0888501764266
 20
136.3067213872833
 30
0.0
 10
148.0532962469779
 20
136.3067213872833
 30
0.0
 10
148.0240241057492
 20
136.3188531376991
 30
0.0
 10
148.0088115555284
 20
136.3608748439785
 30
0.0
 10
148.0087508873548
 20
136.3790892134851
 30
0.0
 10
148.0189614718321
 20
136.4210262260116
 30
0.0
 10
148.0287448013574
 20
136.4440537895059
 30
0.0
 10
148.0679093498893
 20
136.5184624682779
 30
0.0
 10
148.1057824231626
 20
136.5731203444604
 30
0.0
 10
148.1848553961542
 20
136.6864894176392
 30
0.0
 10
148.226242528745
 20
136.7451021677433
 30
0.0
 10
148.2646967663574
 20
136.8067213872833
 30
0.0
  0
ARC
  5
1DC
330
1F
100
AcDbEntity
  8
0
  6
Continuous
 62
     7
370
    25
100
AcDbCircle
 10
148.0926783991
 20
135.8274142094
 30
0.0
 40
0.4793220025377928
100
AcDbArc
 50
90.4575942066
 51
153.1021266736
  0
LINE
  5
1DD
330
1F
100
AcDbEntity
  8
0
  6
Continuous
 62
     7
370
    25
100
AcDbLine
 10
174.0393501327
 20
149.589000875
 30
0.0
 11
174.0393501327
 21
140.0244418996
 31
0.0
  0
LINE
  5
1DE
330
1F
100
AcDbEntity
  8
0
  6
Continuous
 62
     7
370
    25
100
AcDbLine
 10
162.5238999345
 20
152.8067217673
 30
0.0
 11
148.2646965973
 21
152.8067217673
 31
0.0
  0
LINE
  5
1DF
330
1F
100
AcDbEntity
  8
0
  6
Continuous
 62
     7
370
    25
100
AcDbLine
 10
148.0888503224
 20
153.3067218492
 30
0.0
 11
162.6997462094
 21
153.3067218492
 31
0.0
  0
LINE
  5
1E0
330
1F
100
AcDbEntity
  8
0
  6
Continuous
 62
     7
370
    25
100
AcDbLine
 10
148.2646965973
 20
136.8067210073
 30
0.0
 11
162.5238999345
 21
136.8067210073
 31
0.0
  0
LINE
  5
1E1
330
1F
100
AcDbEntity
  8
0
  6
Continuous
 62
     7
370
    25
100
AcDbLine
 10
162.6997462094
 20
136.3067209253
 30
0.0
 11
148.0888503224
 21
136.3067209253
 31
0.0
  0
LINE
  5
1E2
330
1F
100
AcDbEntity
  8
0
  6
Continuous
 62
     7
370
    25
100
AcDbLine
 10
175.3942978189
 20
148.8067215773
 30
0.0
 11
175.3942978189
 21
140.8067211973
 31
0.0
  0
ARC
  5
1E3
330
1F
100
AcDbEntity
  8
0
  6
Continuous
 62
     7
370
    25
100
AcDbCircle
 10
162.3942982659
 20
153.8067213873
 30
0.0
 40
0.5
100
AcDbArc
 50
270.0
 51
0.0
  0
ARC
  5
1E4
330
1F
100
AcDbEntity
  8
0
  6
Continuous
 62
     7
370
    25
100
AcDbCircle
 10
148.3942982659
 20
153.8067213873
 30
0.0
 40
0.5
100
AcDbArc
 50
180.0
 51
270.0
  0
ARC
  5
1E5
330
1F
100
AcDbEntity
  8
0
  6
Continuous
 62
     7
370
    25
100
AcDbCircle
 10
148.3942982659
 20
135.8067213873
 30
0.0
 40
0.5
100
AcDbArc
 50
90.0
 51
180.0
  0
ARC
  5
1E6
330
1F
100
AcDbEntity
  8
0
  6
Continuous
 62
     7
370
    25
100
AcDbCircle
 10
162.3942982659
 20
135.8067213873
 30
0.0
 40
0.5
100
AcDbArc
 50
0.0
 51
90.0
  0
SPLINE
  5
1E7
330
1F
100
AcDbEntity
  8
0
  6
Continuous
 62
     7
370
    25
100
AcDbSpline
210
0.0
220
0.0
230
1.0
 70
     8
 71
     3
 72
    15
 73
    11
 74
     0
 42
0.000000001
 43
0.00000001
 40
0.0
 40
0.0
 40
0.0
 40
0.0
 40
0.0081668554937291
 40
0.3321941846999776
 40
0.4756279332062201
 40
0.6866839627273442
 40
0.8457444903091523
 40
0.8967583891412989
 40
0.9909563331444947
 40
1.0
 40
1.0
 40
1.0
 40
1.0
 10
160.4933177672542
 20
146.0567213593436
 30
0.0
 10
160.4938053309353
 20
146.0581588336469
 30
0.0
 10
160.5136374217141
 20
146.1166293924276
 30
0.0
 10
160.541916615232
 20
146.2010547320319
 30
0.0
 10
160.5797467835145
 20
146.3156343611846
 30
0.0
 10
160.6063297963191
 20
146.3970044600174
 30
0.0
 10
160.62350079196
 20
146.4500241337555
 30
0.0
 10
160.6313170146956
 20
146.4742256281976
 30
0.0
 10
160.6333121004843
 20
146.4804151457599
 30
0.0
 10
160.6333778047025
 20
146.480616816643
 30
0.0
 10
160.6333835602022
 20
146.4806344824297
 30
0.0
  0
ARC
  5
1E8
330
1F
100
AcDbEntity
  8
0
  6
Continuous
 62
     7
370
    25
100
AcDbCircle
 10
155.3942982659
 20
144.8067213873
 30
0.0
 40
5.250000000000009
100
AcDbArc
 50
13.774146998
 51
166.225853002
  0
SPLINE
  5
1E9
330
1F
100
AcDbEntity
  8
0
  6
Continuous
 62
     7
370
    25
100
AcDbSpline
210
0.0
220
0.0
230
1.0
 70
     8
 71
     3
 72
    15
 73
    11
 74
     0
 42
0.000000001
 43
0.00000001
 40
0.0
 40
0.0
 40
0.0
 40
0.0
 40
0.0090436668555053
 40
0.1032416108587011
 40
0.1542555096908477
 40
0.3133160372726557
 40
0.5243720667937798
 40
0.6678058153000223
 40
0.9918331445062708
 40
0.9999999999999999
 40
0.9999999999999999
 40
0.9999999999999999
 40
0.9999999999999999
 10
150.1552129715897
 20
146.4806344824297
 30
0.0
 10
150.1552187270894
 20
146.480616816643
 30
0.0
 10
150.1552844313076
 20
146.4804151457599
 30
0.0
 10
150.1572795170964
 20
146.4742256281976
 30
0.0
 10
150.1650957398319
 20
146.4500241337555
 30
0.0
 10
150.1822667354728
 20
146.3970044600174
 30
0.0
 10
150.2088497482774
 20
146.3156343611846
 30
0.0
 10
150.2466799165599
 20
146.2010547320319
 30
0.0
 10
150.2749591100779
 20
146.1166293924276
 30
0.0
 10
150.2947912008566
 20
146.0581588336469
 30
0.0
 10
150.2952787645377
 20
146.0567213593436
 30
0.0
  0
ARC
  5
1EA
330
1F
100
AcDbEntity
  8
0
  6
Continuous
 62
     7
370
    25
100
AcDbCircle
 10
155.3942982659
 20
144.8067213873
 30
0.0
 40
5.500000000000002
100
AcDbArc
 50
17.7189318734
 51
162.2810681266
  0
ARC
  5
1EB
330
1F
100
AcDbEntity
  8
0
  6
Continuous
 62
     7
370
    25
100
AcDbCircle
 10
149.9170726908
 20
146.5567213873
 30
0.0
 40
0.25
100
AcDbArc
 50
270.0
 51
342.2810681266
  0
SPLINE
  5
1EC
330
1F
100
AcDbEntity
  8
0
  6
Continuous
 62
     7
370
    25
100
AcDbSpline
210
0.0
220
0.0
230
1.0
 70
     8
 71
     3
 72
    15
 73
    11
 74
     0
 42
0.000000001
 43
0.00000001
 40
0.0
 40
0.0
 40
0.0
 40
0.0
 40
0.0080845166116213
 40
0.3310110803515837
 40
0.4750334718139839
 40
0.6874373868841556
 40
0.8468378249369453
 40
0.9001014979498858
 40
0.9910465065391931
 40
0.9999999999999999
 40
0.9999999999999999
 40
0.9999999999999999
 40
0.9999999999999999
 10
150.2952787645377
 20
146.0567213593436
 30
0.0
 10
150.2939989941054
 20
146.0575373105721
 30
0.0
 10
150.2416002900451
 20
146.0909454796238
 30
0.0
 10
150.1662441705282
 20
146.1397568568903
 30
0.0
 10
150.0643245049618
 20
146.2071282502424
 30
0.0
 10
149.9919346967918
 20
146.2557117280568
 30
0.0
 10
149.9442276504992
 20
146.2881610996679
 30
0.0
 10
149.9226939604464
 20
146.3028716812274
 30
0.0
 10
149.9172632888459
 20
146.3065902724539
 30
0.0
 10
149.9170885216093
 20
146.3067106145525
 30
0.0
 10
149.9170728579379
 20
146.3067214003218
 30
0.0
  0
SPLINE
  5
1ED
330
1F
100
AcDbEntity
  8
0
  6
Continuous
 62
     7
370
    25
100
AcDbSpline
210
0.0
220
0.0
230
1.0
 70
     8
 71
     3
 72
    15
 73
    11
 74
     0
 42
0.000000001
 43
0.00000001
 40
0.0
 40
0.0
 40
0.0
 40
0.0
 40
0.0090436668555053
 40
0.1032416108587011
 40
0.1542555096908477
 40
0.3133160372726557
 40
0.5243720667937798
 40
0.6678058153000223
 40
0.9918331445062708
 40
0.9999999999999999
 40
0.9999999999999999
 40
0.9999999999999999
 40
0.9999999999999999
 10
160.6333835602022
 20
143.1328082921369
 30
0.0
 10
160.6333778047025
 20
143.1328259579236
 30
0.0
 10
160.6333121004843
 20
143.1330276288067
 30
0.0
 10
160.6313170146956
 20
143.139217146369
 30
0.0
 10
160.62350079196
 20
143.163418640811
 30
0.0
 10
160.6063297963191
 20
143.2164383145492
 30
0.0
 10
160.5797467835145
 20
143.297808413382
 30
0.0
 10
160.541916615232
 20
143.4123880425347
 30
0.0
 10
160.513637421714
 20
143.496813382139
 30
0.0
 10
160.4938053309353
 20
143.5552839409197
 30
0.0
 10
160.4933177672542
 20
143.556721415223
 30
0.0
  0
ARC
  5
1EE
330
1F
100
AcDbEntity
  8
0
  6
Continuous
 62
     7
370
    25
100
AcDbCircle
 10
155.3942982659
 20
144.8067213873
 30
0.0
 40
5.499999999999993
100
AcDbArc
 50
197.7189318734
 51
342.2810681266
  0
SPLINE
  5
1EF
330
1F
100
AcDbEntity
  8
0
  6
Continuous
 62
     7
370
    25
100
AcDbSpline
210
0.0
220
0.0
230
1.0
 70
     8
 71
     3
 72
    15
 73
    11
 74
     0
 42
0.000000001
 43
0.00000001
 40
0.0
 40
0.0
 40
0.0
 40
0.0
 40
0.0081668554937291
 40
0.3321941846999776
 40
0.4756279332062201
 40
0.6866839627273442
 40
0.8457444903091523
 40
0.8967583891412989
 40
0.9909563331444947
 40
1.0
 40
1.0
 40
1.0
 40
1.0
 10
150.2952787645377
 20
143.556721415223
 30
0.0
 10
150.2947912008566
 20
143.5552839409197
 30
0.0
 10
150.2749591100778
 20
143.496813382139
 30
0.0
 10
150.2466799165599
 20
143.4123880425347
 30
0.0
 10
150.2088497482774
 20
143.297808413382
 30
0.0
 10
150.1822667354728
 20
143.2164383145492
 30
0.0
 10
150.1650957398319
 20
143.163418640811
 30
0.0
 10
150.1572795170964
 20
143.139217146369
 30
0.0
 10
150.1552844313076
 20
143.1330276288067
 30
0.0
 10
150.1552187270894
 20
143.1328259579236
 30
0.0
 10
150.1552129715897
 20
143.1328082921369
 30
0.0
  0
ARC
  5
1F0
330
1F
100
AcDbEntity
  8
0
  6
Continuous
 62
     7
370
    25
100
AcDbCircle
 10
155.3942982659
 20
144.8067213873
 30
0.0
 40
5.250000000000009
100
AcDbArc
 50
193.774146998
 51
346.225853002
  0
SPLINE
  5
1F1
330
1F
100
AcDbEntity
  8
0
  6
Continuous
 62
     7
370
    25
100
AcDbSpline
210
0.0
220
0.0
230
1.0
 70
     8
 71
     3
 72
    15
 73
    11
 74
     0
 42
0.000000001
 43
0.00000001
 40
0.0
 40
0.0
 40
0.0
 40
0.0
 40
0.0089534934608068
 40
0.0998985020501141
 40
0.1531621750630547
 40
0.3125626131158444
 40
0.524966528186016
 40
0.6689889196484162
 40
0.9919154833883785
 40
0.9999999999999999
 40
0.9999999999999999
 40
0.9999999999999999
 40
0.9999999999999999
 10
149.9170728579379
 20
143.3067213742448
 30
0.0
 10
149.9170885216093
 20
143.306732160014
 30
0.0
 10
149.917263288846
 20
143.3068525021127
 30
0.0
 10
149.9226939604464
 20
143.3105710933392
 30
0.0
 10
149.9442276504992
 20
143.3252816748987
 30
0.0
 10
149.9919346967918
 20
143.3577310465097
 30
0.0
 10
150.0643245049618
 20
143.4063145243242
 30
0.0
 10
150.1662441705281
 20
143.4736859176763
 30
0.0
 10
150.2416002900452
 20
143.5224972949428
 30
0.0
 10
150.2939989941054
 20
143.5559054639945
 30
0.0
 10
150.2952787645377
 20
143.556721415223
 30
0.0
  0
ARC
  5
1F2
330
1F
100
AcDbEntity
  8
0
  6
Continuous
 62
     7
370
    25
100
AcDbCircle
 10
149.9170726908
 20
143.0567213873
 30
0.0
 40
0.25
100
AcDbArc
 50
17.7189318734
 51
90.0
  0
ARC
  5
1F3
330
1F
100
AcDbEntity
  8
0
  6
Continuous
 62
     7
370
    25
100
AcDbCircle
 10
160.8715238409
 20
146.5567213873
 30
0.0
 40
0.2500000000000126
100
AcDbArc
 50
197.7189318734
 51
270.0
  0
SPLINE
  5
1F4
330
1F
100
AcDbEntity
  8
0
  6
Continuous
 62
     7
370
    25
100
AcDbSpline
210
0.0
220
0.0
230
1.0
 70
     8
 71
     3
 72
    15
 73
    11
 74
     0
 42
0.000000001
 43
0.00000001
 40
0.0
 40
0.0
 40
0.0
 40
0.0
 40
0.0089534934608068
 40
0.0998985020501141
 40
0.1531621750630547
 40
0.3125626131158444
 40
0.524966528186016
 40
0.6689889196484162
 40
0.9919154833883785
 40
0.9999999999999999
 40
0.9999999999999999
 40
0.9999999999999999
 40
0.9999999999999999
 10
160.871523673854
 20
146.3067214003218
 30
0.0
 10
160.8715080101826
 20
146.3067106145525
 30
0.0
 10
160.871333242946
 20
146.3065902724539
 30
0.0
 10
160.8659025713456
 20
146.3028716812274
 30
0.0
 10
160.8443688812927
 20
146.2881610996679
 30
0.0
 10
160.7966618350001
 20
146.2557117280568
 30
0.0
 10
160.7242720268301
 20
146.2071282502424
 30
0.0
 10
160.6223523612638
 20
146.1397568568903
 30
0.0
 10
160.5469962417467
 20
146.0909454796238
 30
0.0
 10
160.4945975376866
 20
146.0575373105721
 30
0.0
 10
160.4933177672542
 20
146.0567213593436
 30
0.0
  0
SPLINE
  5
1F5
330
1F
100
AcDbEntity
  8
0
  6
Continuous
 62
     7
370
    25
100
AcDbSpline
210
0.0
220
0.0
230
1.0
 70
     8
 71
     3
 72
    15
 73
    11
 74
     0
 42
0.000000001
 43
0.00000001
 40
0.0
 40
0.0
 40
0.0
 40
0.0
 40
0.0080845166116213
 40
0.3310110803515837
 40
0.4750334718139839
 40
0.6874373868841556
 40
0.8468378249369453
 40
0.9001014979498858
 40
0.9910465065391931
 40
0.9999999999999999
 40
0.9999999999999999
 40
0.9999999999999999
 40
0.9999999999999999
 10
160.4933177672542
 20
143.556721415223
 30
0.0
 10
160.4945975376866
 20
143.5559054639945
 30
0.0
 10
160.5469962417468
 20
143.5224972949428
 30
0.0
 10
160.6223523612638
 20
143.4736859176763
 30
0.0
 10
160.7242720268301
 20
143.4063145243242
 30
0.0
 10
160.7966618350001
 20
143.3577310465097
 30
0.0
 10
160.8443688812927
 20
143.3252816748987
 30
0.0
 10
160.8659025713455
 20
143.3105710933392
 30
0.0
 10
160.871333242946
 20
143.3068525021127
 30
0.0
 10
160.8715080101826
 20
143.306732160014
 30
0.0
 10
160.871523673854
 20
143.3067213742448
 30
0.0
  0
ARC
  5
1F6
330
1F
100
AcDbEntity
  8
0
  6
Continuous
 62
     7
370
    25
100
AcDbCircle
 10
160.8715238409
 20
143.0567213873
 30
0.0
 40
0.2500000000000213
100
AcDbArc
 50
90.0
 51
162.2810681266
  0
LINE
  5
1F7
330
1F
100
AcDbEntity
  8
0
  6
Continuous
 62
     7
370
    25
100
AcDbLine
 10
160.3942981541
 20
145.4067214158
 30
0.0
 11
150.3942983777
 21
145.4067214158
 31
0.0
  0
LINE
  5
1F8
330
1F
100
AcDbEntity
  8
0
  6
Continuous
 62
     7
370
    25
100
AcDbLine
 10
150.3942983777
 20
144.2067213588
 30
0.0
 11
160.3942981541
 21
144.2067213588
 31
0.0
  0
LINE
  5
1F9
330
1F
100
AcDbEntity
  8
0
  6
Continuous
 62
     7
370
    25
100
AcDbLine
 10
150.3942983777
 20
145.4067214158
 30
0.0
 11
150.3942983777
 21
144.2067213588
 31
0.0
  0
LINE
  5
1FA
330
1F
100
AcDbEntity
  8
0
  6
Continuous
 62
     7
370
    25
100
AcDbLine
 10
160.3942981541
 20
144.2067213588
 30
0.0
 11
160.3942981541
 21
145.4067214158
 31
0.0
  0
LINE
  5
1FB
330
1F
100
AcDbEntity
  8
0
  6
Continuous
 62
     7
370
    25
100
AcDbLine
 10
161.1442982771
 20
146.0567213593
 30
0.0
 11
160.4933177673
 21
146.0567213593
 31
0.0
  0
LINE
  5
1FC
330
1F
100
AcDbEntity
  8
0
  6
Continuous
 62
     7
370
    25
100
AcDbLine
 10
161.1442982771
 20
143.5567214152
 30
0.0
 11
161.1442982771
 21
146.0567213593
 31
0.0
  0
LINE
  5
1FD
330
1F
100
AcDbEntity
  8
0
  6
Continuous
 62
     7
370
    25
100
AcDbLine
 10
160.4933177673
 20
143.5567214152
 30
0.0
 11
161.1442982771
 21
143.5567214152
 31
0.0
  0
LINE
  5
1FE
330
1F
100
AcDbEntity
  8
0
  6
Continuous
 62
     7
370
    25
100
AcDbLine
 10
149.6442982547
 20
143.5567214152
 30
0.0
 11
150.2952787645
 21
143.5567214152
 31
0.0
  0
LINE
  5
1FF
330
1F
100
AcDbEntity
  8
0
  6
Continuous
 62
     7
370
    25
100
AcDbLine
 10
149.6442982547
 20
146.0567213593
 30
0.0
 11
149.6442982547
 21
143.5567214152
 31
0.0
  0
LINE
  5
200
330
1F
100
AcDbEntity
  8
0
  6
Continuous
 62
     7
370
    25
100
AcDbLine
 10
150.2952787645
 20
146.0567213593
 30
0.0
 11
149.6442982547
 21
146.0567213593
 31
0.0
  0
LINE
  5
201
330
1F
100
AcDbEntity
  8
0
  6
Continuous
 62
     7
370
    25
100
AcDbLine
 10
161.1442982771
 20
146.0567213593
 30
0.0
 11
161.1442982771
 21
146.3067214003
 31
0.0
  0
LINE
  5
202
330
1F
100
AcDbEntity
  8
0
  6
Continuous
 62
     7
370
    25
100
AcDbLine
 10
160.8715236739
 20
146.3067214003
 30
0.0
 11
161.1442982771
 21
146.3067214003
 31
0.0
  0
LINE
  5
203
330
1F
100
AcDbEntity
  8
0
  6
Continuous
 62
     7
370
    25
100
AcDbLine
 10
149.6442982547
 20
146.3067214003
 30
0.0
 11
149.6442982547
 21
146.0567213593
 31
0.0
  0
LINE
  5
204
330
1F
100
AcDbEntity
  8
0
  6
Continuous
 62
     7
370
    25
100
AcDbLine
 10
149.6442982547
 20
146.0567213593
 30
0.0
 11
149.3942982137
 21
146.0567213593
 31
0.0
  0
ARC
  5
205
330
1F
100
AcDbEntity
  8
0
  6
Continuous
 62
     7
370
    25
100
AcDbCircle
 10
149.6442982659
 20
146.0567213873
 30
0.0
 40
0.25
100
AcDbArc
 50
90.0
 51
180.0
  0
LINE
  5
206
330
1F
100
AcDbEntity
  8
0
  6
Continuous
 62
     7
370
    25
100
AcDbLine
 10
149.6442982547
 20
146.3067214003
 30
0.0
 11
149.9170728579
 21
146.3067214003
 31
0.0
  0
ARC
  5
207
330
1F
100
AcDbEntity
  8
0
  6
Continuous
 62
     7
370
    25
100
AcDbCircle
 10
161.1442982659
 20
146.0567213873
 30
0.0
 40
0.25
100
AcDbArc
 50
0.0
 51
90.0
  0
LINE
  5
208
330
1F
100
AcDbEntity
  8
0
  6
Continuous
 62
     7
370
    25
100
AcDbLine
 10
161.3942983181
 20
146.0567213593
 30
0.0
 11
161.1442982771
 21
146.0567213593
 31
0.0
  0
LINE
  5
209
330
1F
100
AcDbEntity
  8
0
  6
Continuous
 62
     7
370
    25
100
AcDbLine
 10
149.3942982137
 20
143.5567214152
 30
0.0
 11
149.6442982547
 21
143.5567214152
 31
0.0
  0
LINE
  5
20A
330
1F
100
AcDbEntity
  8
0
  6
Continuous
 62
     7
370
    25
100
AcDbLine
 10
149.3942982137
 20
143.5567214152
 30
0.0
 11
149.3942982137
 21
146.0567213593
 31
0.0
  0
LINE
  5
20B
330
1F
100
AcDbEntity
  8
0
  6
Continuous
 62
     7
370
    25
100
AcDbLine
 10
161.3942983181
 20
146.0567213593
 30
0.0
 11
161.3942983181
 21
143.5567214152
 31
0.0
  0
LINE
  5
20C
330
1F
100
AcDbEntity
  8
0
  6
Continuous
 62
     7
370
    25
100
AcDbLine
 10
161.1442982771
 20
143.5567214152
 30
0.0
 11
161.3942983181
 21
143.5567214152
 31
0.0
  0
LINE
  5
20D
330
1F
100
AcDbEntity
  8
0
  6
Continuous
 62
     7
370
    25
100
AcDbLine
 10
149.9170728579
 20
143.3067213742
 30
0.0
 11
149.6442982547
 21
143.3067213742
 31
0.0
  0
LINE
  5
20E
330
1F
100
AcDbEntity
  8
0
  6
Continuous
 62
     7
370
    25
100
AcDbLine
 10
149.6442982547
 20
143.5567214152
 30
0.0
 11
149.6442982547
 21
143.3067213742
 31
0.0
  0
LINE
  5
20F
330
1F
100
AcDbEntity
  8
0
  6
Continuous
 62
     7
370
    25
100
AcDbLine
 10
161.1442982771
 20
143.3067213742
 30
0.0
 11
161.1442982771
 21
143.5567214152
 31
0.0
  0
LINE
  5
210
330
1F
100
AcDbEntity
  8
0
  6
Continuous
 62
     7
370
    25
100
AcDbLine
 10
161.1442982771
 20
143.3067213742
 30
0.0
 11
160.8715236739
 21
143.3067213742
 31
0.0
  0
ARC
  5
211
330
1F
100
AcDbEntity
  8
0
  6
Continuous
 62
     7
370
    25
100
AcDbCircle
 10
161.1442982659
 20
143.5567213873
 30
0.0
 40
0.25
100
AcDbArc
 50
270.0
 51
0.0
  0
ARC
  5
212
330
1F
100
AcDbEntity
  8
0
  6
Continuous
 62
     7
370
    25
100
AcDbCircle
 10
149.6442982659
 20
143.5567213873
 30
0.0
 40
0.25
100
AcDbArc
 50
180.0
 51
270.0
  0
LINE
  5
213
330
1F
100
AcDbEntity
  8
0
  6
Continuous
 62
     7
370
    25
100
AcDbLine
 10
135.3942987129
 20
148.0784205718
 30
0.0
 11
133.2188614264
 21
148.3067214953
 31
0.0
  0
LINE
  5
214
330
1F
100
AcDbEntity
  8
0
  6
Continuous
 62
     7
370
    25
100
AcDbLine
 10
135.3942987129
 20
141.5350222027
 30
0.0
 11
135.3942987129
 21
148.0784205718
 31
0.0
  0
LINE
  5
215
330
1F
100
AcDbEntity
  8
0
  6
Continuous
 62
     7
370
    25
100
AcDbLine
 10
133.2188614264
 20
141.3067212792
 30
0.0
 11
135.3942987129
 21
141.5350222027
 31
0.0
  0
LINE
  5
216
330
1F
100
AcDbEntity
  8
0
  6
Continuous
 62
     7
370
    25
100
AcDbLine
 10
115.39429916
 20
141.3067212792
 30
0.0
 11
133.2188614264
 21
141.3067212792
 31
0.0
  0
LINE
  5
217
330
1F
100
AcDbEntity
  8
0
  6
Continuous
 62
     7
370
    25
100
AcDbLine
 10
133.2188614264
 20
148.3067214953
 30
0.0
 11
115.39429916
 21
148.3067214953
 31
0.0
  0
LINE
  5
218
330
1F
100
AcDbEntity
  8
0
  6
Continuous
 62
     7
370
    25
100
AcDbLine
 10
115.39429916
 20
148.3067214953
 30
0.0
 11
115.39429916
 21
141.3067212792
 31
0.0
  0
LINE
  5
219
330
1F
100
AcDbEntity
  8
0
  6
Continuous
 62
     7
370
    25
100
AcDbLine
 10
150.170495975
 20
146.5277358888
 30
0.0
 11
150.0420870811
 21
146.3435942073
 31
0.0
  0
LINE
  5
21A
330
1F
100
AcDbEntity
  8
0
  6
Continuous
 62
     7
370
    25
100
AcDbLine
 10
150.0516545579
 20
143.2615036842
 30
0.0
 11
150.170495975
 21
143.0857068858
 31
0.0
  0
LINE
  5
21B
330
1F
100
AcDbEntity
  8
0
  6
Continuous
 62
     7
370
    25
100
AcDbLine
 10
141.9777285859
 20
147.3875240421
 30
0.0
 11
141.9777285859
 21
142.2259187324
 31
0.0
  0
LWPOLYLINE
  5
21C
330
1F
100
AcDbEntity
  8
0
  6
Continuous
 62
     7
370
    25
100
AcDbPolyline
 90
       15
 70
   128
 43
0.0
 10
150.170495975
 20
143.0857068858
 10
149.8410392173
 20
143.0511321173
 10
149.4607741565
 20
143.0112252942
 10
149.0318880037
 20
142.9662158711
 10
148.5568464354
 20
142.9163627558
 10
148.0383810207
 20
142.8619525627
 10
147.4794738546
 20
142.8032982162
 10
146.8833379999
 20
142.740736855
 10
146.253401655
 20
142.6746283191
 10
145.5932867334
 20
142.6053528207
 10
144.9067902372
 20
142.5333085003
 10
144.1978600428
 20
142.4589097964
 10
143.4705706865
 20
142.3825846518
 10
142.7291056693
 20
142.3047719522
 10
141.9777285859
 20
142.2259187324
  0
LWPOLYLINE
  5
21D
330
1F
100
AcDbEntity
  8
0
  6
Continuous
 62
     7
370
    25
100
AcDbPolyline
 90
       15
 70
   128
 43
0.0
 10
141.9777285859
 20
147.3875240421
 10
142.7291056693
 20
147.3086708224
 10
143.4705706865
 20
147.2308581228
 10
144.1978600428
 20
147.1545329782
 10
144.9067902372
 20
147.0801342743
 10
145.5932867334
 20
147.0080899539
 10
146.253401655
 20
146.9388144555
 10
146.8833379999
 20
146.8727059195
 10
147.4794738546
 20
146.8101445584
 10
148.0383810207
 20
146.7514902119
 10
148.5568464354
 20
146.6970800188
 10
149.0318880037
 20
146.6472269034
 10
149.4607741565
 20
146.6022174804
 10
149.8410392173
 20
146.5623106573
 10
150.170495975
 20
146.5277358888
  0
LWPOLYLINE
  5
21E
330
1F
100
AcDbEntity
  8
0
  6
Continuous
 62
     7
370
    25
100
AcDbPolyline
 90
       19
 70
   128
 43
0.0
 10
141.9777285859
 20
142.2259187324
 10
141.4225886196
 20
142.1676598488
 10
140.8672065094
 20
142.1093753538
 10
140.316347833
 20
142.0515656004
 10
139.7747418463
 20
141.9947267509
 10
139.2470349178
 20
141.9393468181
 10
138.7377597943
 20
141.8859010095
 10
138.2512834475
 20
141.8348477686
 10
137.7917837903
 20
141.7866257484
 10
137.3632059053
 20
141.7416486888
 10
136.9692247913
 20
141.7003023902
 10
136.6132248745
 20
141.6629419195
 10
136.2982590303
 20
141.6298881172
 10
136.0270318195
 20
141.6014243381
 10
135.8018734113
 20
141.5777950546
 10
135.6247135058
 20
141.5592028292
 10
135.4970720217
 20
141.5458076166
 10
135.4200460568
 20
141.5377242024
 10
135.3942987129
 20
141.5350222027
  0
LWPOLYLINE
  5
21F
330
1F
100
AcDbEntity
  8
0
  6
Continuous
 62
     7
370
    25
100
AcDbPolyline
 90
       19
 70
   128
 43
0.0
 10
135.3942987129
 20
148.0784205718
 10
135.4200460568
 20
148.0757185722
 10
135.4970720217
 20
148.0676351579
 10
135.6247135058
 20
148.0542399453
 10
135.8018734113
 20
148.03564772
 10
136.0270318195
 20
148.0120184364
 10
136.2982590303
 20
147.9835546574
 10
136.6132248745
 20
147.9505008551
 10
136.9692247913
 20
147.9131403843
 10
137.3632059053
 20
147.8717940858
 10
137.7917837903
 20
147.8268170262
 10
138.2512834475
 20
147.7785950059
 10
138.7377597943
 20
147.7275417651
 10
139.2470349178
 20
147.6740959565
 10
139.7747418463
 20
147.6187160237
 10
140.316347833
 20
147.5618771742
 10
140.8672065094
 20
147.5040674208
 10
141.4225886196
 20
147.4457829258
 10
141.9777285859
 20
147.3875240421
  0
ARC
  5
220
330
1F
100
AcDbEntity
  8
0
  6
Continuous
 62
     7
370
    25
100
AcDbCircle
 10
155.3942982659
 20
144.8067213873
 30
0.0
 40
7.450000000000661
100
AcDbArc
 50
233.0863788866
 51
126.9136211134
  0
ARC
  5
221
330
1F
100
AcDbEntity
  8
0
  6
Continuous
 62
     7
370
    25
100
AcDbCircle
 10
155.3942982659
 20
144.8067213873
 30
0.0
 40
7.207531252870781
100
AcDbArc
 50
195.3041237151
 51
238.9797515565
  0
ARC
  5
222
330
1F
100
AcDbEntity
  8
0
  6
Continuous
 62
     7
370
    25
100
AcDbCircle
 10
155.3942982659
 20
144.8067213873
 30
0.0
 40
7.207531252872441
100
AcDbArc
 50
121.0202484435
 51
164.6958762849
  0
ARC
  5
223
330
1F
100
AcDbEntity
  8
0
  6
Continuous
 62
     7
370
    25
100
AcDbCircle
 10
133.2188614044
 20
213.3067213873
 30
0.0
 40
65.0
100
AcDbArc
 50
270.0
 51
286.5000949923
  0
ARC
  5
224
330
1F
100
AcDbEntity
  8
0
  6
Continuous
 62
     7
370
    25
100
AcDbCircle
 10
133.2188614044
 20
76.3067213873
 30
0.0
 40
65.0
100
AcDbArc
 50
73.4999050077
 51
90.0
  0
LINE
  5
225
330
1F
100
AcDbEntity
  8
0
  6
Continuous
 62
     7
370
    25
100
AcDbLine
 10
135.3942987129
 20
152.7386933098
 30
0.0
 11
135.3942987129
 21
148.3431357423
 31
0.0
  0
LINE
  5
226
330
1F
100
AcDbEntity
  8
0
  6
Continuous
 62
     7
370
    25
100
AcDbLine
 10
135.3942987129
 20
141.2703070322
 30
0.0
 11
135.3942987129
 21
136.8067210073
 31
0.0
  0
LINE
  5
227
330
1F
100
AcDbEntity
  8
0
  6
Continuous
 62
     7
370
    25
100
AcDbLine
 10
135.3942987129
 20
152.8067217673
 30
0.0
 11
135.3942987129
 21
152.7386933098
 31
0.0
  0
LINE
  5
228
330
1F
100
AcDbEntity
  8
0
  6
Continuous
 62
     7
370
    25
100
AcDbLine
 10
120.3942981169
 20
152.7386933098
 30
0.0
 11
120.3942981169
 21
148.3067214953
 31
0.0
  0
LINE
  5
229
330
1F
100
AcDbEntity
  8
0
  6
Continuous
 62
     7
370
    25
100
AcDbLine
 10
120.3942981169
 20
141.3067212792
 30
0.0
 11
120.3942981169
 21
136.8067210073
 31
0.0
  0
LINE
  5
22A
330
1F
100
AcDbEntity
  8
0
  6
Continuous
 62
     7
370
    25
100
AcDbLine
 10
120.3942981169
 20
152.8067217673
 30
0.0
 11
120.3942981169
 21
152.7386933098
 31
0.0
  0
LINE
  5
22B
330
1F
100
AcDbEntity
  8
0
  6
Continuous
 62
     7
370
    25
100
AcDbLine
 10
125.3942989364
 20
152.7386933098
 30
0.0
 11
125.3942989364
 21
148.3067214953
 31
0.0
  0
LINE
  5
22C
330
1F
100
AcDbEntity
  8
0
  6
Continuous
 62
     7
370
    25
100
AcDbLine
 10
125.3942989364
 20
141.3067212792
 30
0.0
 11
125.3942989364
 21
136.8067210073
 31
0.0
  0
LINE
  5
22D
330
1F
100
AcDbEntity
  8
0
  6
Continuous
 62
     7
370
    25
100
AcDbLine
 10
125.3942989364
 20
152.8067217673
 30
0.0
 11
125.3942989364
 21
152.7386933098
 31
0.0
  0
LINE
  5
22E
330
1F
100
AcDbEntity
  8
0
  6
Continuous
 62
     7
370
    25
100
AcDbLine
 10
130.3942978934
 20
152.7386933098
 30
0.0
 11
130.3942978934
 21
148.3067214953
 31
0.0
  0
LINE
  5
22F
330
1F
100
AcDbEntity
  8
0
  6
Continuous
 62
     7
370
    25
100
AcDbLine
 10
130.3942978934
 20
141.3067212792
 30
0.0
 11
130.3942978934
 21
136.8067210073
 31
0.0
  0
LINE
  5
230
330
1F
100
AcDbEntity
  8
0
  6
Continuous
 62
     7
370
    25
100
AcDbLine
 10
130.3942978934
 20
152.8067217673
 30
0.0
 11
130.3942978934
 21
152.7386933098
 31
0.0
  0
LINE
  5
231
330
1F
100
AcDbEntity
  8
0
  6
Continuous
 62
     7
370
    25
100
AcDbLine
 10
115.39429916
 20
138.2166232447
 30
0.0
 11
115.39429916
 21
141.3067212792
 31
0.0
  0
LINE
  5
232
330
1F
100
AcDbEntity
  8
0
  6
Continuous
 62
     7
370
    25
100
AcDbLine
 10
115.39429916
 20
148.3067214953
 30
0.0
 11
115.39429916
 21
151.3968195299
 31
0.0
  0
LINE
  5
233
330
1F
100
AcDbEntity
  8
0
  6
Continuous
 62
     8
370
    25
100
AcDbLine
 10
148.3942980498
 20
151.5348522457
 30
0.0
 11
148.3942980498
 21
150.1030336598
 31
0.0
  0
LINE
  5
234
330
1F
100
AcDbEntity
  8
0
  6
Continuous
 62
     8
370
    25
100
AcDbLine
 10
148.3942980498
 20
139.5104091147
 30
0.0
 11
148.3942980498
 21
138.0785905289
 31
0.0
  0
LINE
  5
235
330
1F
100
AcDbEntity
  8
0
  6
Continuous
 62
     8
370
    25
100
AcDbLine
 10
162.394298482
 20
138.0785905289
 30
0.0
 11
162.394298482
 21
142.2567212953
 31
0.0
  0
LINE
  5
236
330
1F
100
AcDbEntity
  8
0
  6
Continuous
 62
     8
370
    25
100
AcDbLine
 10
162.394298482
 20
147.3567214793
 30
0.0
 11
162.394298482
 21
151.5348522457
 31
0.0
  0
LINE
  5
237
330
1F
100
AcDbEntity
  8
0
  6
Continuous
 62
     8
370
    25
100
AcDbLine
 10
162.394298482
 20
151.5348522457
 30
0.0
 11
158.5934783884
 21
151.5348522457
 31
0.0
  0
LINE
  5
238
330
1F
100
AcDbEntity
  8
0
  6
Continuous
 62
     8
370
    25
100
AcDbLine
 10
152.1951181434
 20
151.5348522457
 30
0.0
 11
148.3942980498
 21
151.5348522457
 31
0.0
  0
LINE
  5
239
330
1F
100
AcDbEntity
  8
0
  6
Continuous
 62
     8
370
    25
100
AcDbLine
 10
148.3942980498
 20
138.0785905289
 30
0.0
 11
152.1951181434
 21
138.0785905289
 31
0.0
  0
LINE
  5
23A
330
1F
100
AcDbEntity
  8
0
  6
Continuous
 62
     8
370
    25
100
AcDbLine
 10
158.5934783884
 20
138.0785905289
 30
0.0
 11
162.394298482
 21
138.0785905289
 31
0.0
  0
LINE
  5
23B
330
1F
100
AcDbEntity
  8
0
  6
Continuous
 62
     8
370
    25
100
AcDbLine
 10
148.3942980498
 20
151.9306247587
 30
0.0
 11
153.2142753799
 21
151.9306247587
 31
0.0
  0
LINE
  5
23C
330
1F
100
AcDbEntity
  8
0
  6
Continuous
 62
     8
370
    25
100
AcDbLine
 10
157.5743211519
 20
151.9306247587
 30
0.0
 11
162.394298482
 21
151.9306247587
 31
0.0
  0
LINE
  5
23D
330
1F
100
AcDbEntity
  8
0
  6
Continuous
 62
     8
370
    25
100
AcDbLine
 10
162.394298482
 20
137.6828180159
 30
0.0
 11
157.5743211519
 21
137.6828180159
 31
0.0
  0
LINE
  5
23E
330
1F
100
AcDbEntity
  8
0
  6
Continuous
 62
     8
370
    25
100
AcDbLine
 10
153.2142753799
 20
137.6828180159
 30
0.0
 11
148.3942980498
 21
137.6828180159
 31
0.0
  0
LINE
  5
23F
330
1F
100
AcDbEntity
  8
0
  6
Continuous
 62
     8
370
    25
100
AcDbLine
 10
115.7962393567
 20
151.8871096427
 30
0.0
 11
115.7962393567
 21
148.3067214953
 31
0.0
  0
LINE
  5
240
330
1F
100
AcDbEntity
  8
0
  6
Continuous
 62
     8
370
    25
100
AcDbLine
 10
115.7962393567
 20
141.3067212792
 30
0.0
 11
115.7962393567
 21
137.7263331319
 31
0.0
  0
ENDSEC
  0
SECTION
  2
OBJECTS
  0
DICTIONARY
  5
C
330
0
100
AcDbDictionary
281
     1
  3
ACAD_GROUP
350
D
  3
ACAD_LAYOUT
350
1A
  3
ACAD_MLINESTYLE
350
17
  3
ACAD_PLOTSETTINGS
350
19
  3
ACAD_PLOTSTYLENAME
350
E
  3
ACAD_SCALELIST
350
47
  0
DICTIONARY
  5
D
102
{ACAD_REACTORS
330
C
102
}
330
C
100
AcDbDictionary
281
     1
  0
DICTIONARY
  5
1A
102
{ACAD_REACTORS
330
C
102
}
330
C
100
AcDbDictionary
281
     1
  3
Layout1
350
1E
  3
Layout2
350
26
  3
Model
350
22
  0
DICTIONARY
  5
17
102
{ACAD_REACTORS
330
C
102
}
330
C
100
AcDbDictionary
281
     1
  3
Standard
350
18
  0
DICTIONARY
  5
19
102
{ACAD_REACTORS
330
C
102
}
330
C
100
AcDbDictionary
281
     1
  0
ACDBDICTIONARYWDFLT
  5
E
102
{ACAD_REACTORS
330
C
102
}
330
C
100
AcDbDictionary
281
     1
  3
Normal
350
F
100
AcDbDictionaryWithDefault
340
F
  0
DICTIONARY
  5
47
102
{ACAD_REACTORS
330
C
102
}
330
C
100
AcDbDictionary
281
     1
  3
A0
350
48
  3
A1
350
49
  3
A2
350
4A
  3
A3
350
4B
  3
A4
350
4C
  3
A5
350
4D
  3
A6
350
4E
  3
A7
350
4F
  3
A8
350
50
  3
A9
350
51
  3
B0
350
52
  3
B1
350
53
  3
B2
350
54
  3
B3
350
55
  3
B4
350
56
  3
B5
350
57
  3
B6
350
58
  3
B7
350
59
  3
B8
350
5A
  3
B9
350
5B
  3
C0
350
5C
  3
C1
350
5D
  3
C2
350
5E
  3
C3
350
5F
  3
C4
350
60
  3
C5
350
61
  3
C6
350
62
  3
C7
350
63
  3
C8
350
64
  3
C9
350
65
  3
D0
350
66
  3
D1
350
67
  3
D2
350
68
  0
LAYOUT
  5
1E
102
{ACAD_REACTORS
330
1A
102
}
330
1A
100
AcDbPlotSettings
  1

  2
none_device
  4

  6

 40
0.0
 41
0.0
 42
0.0
 43
0.0
 44
0.0
 45
0.0
 46
0.0
 47
0.0
 48
0.0
 49
0.0
140
0.0
141
0.0
142
1.0
143
1.0
 70
   688
 72
     1
 73
     0
 74
     5
  7

 75
    16
147
1.0
148
0.0
149
0.0
100
AcDbLayout
  1
Layout1
 70
     1
 71
     1
 10
0.0
 20
0.0
 11
420.0
 21
297.0
 12
0.0
 22
0.0
 32
0.0
 14
1.0000000000E+20
 24
1.0000000000E+20
 34
1.0000000000E+20
 15
-1.0000000000E+20
 25
-1.0000000000E+20
 35
-1.0000000000E+20
146
0.0
 13
0.0
 23
0.0
 33
0.0
 16
1.0
 26
0.0
 36
0.0
 17
0.0
 27
1.0
 37
0.0
 76
     0
330
1B
  0
LAYOUT
  5
26
102
{ACAD_REACTORS
330
1A
102
}
330
1A
100
AcDbPlotSettings
  1

  2
none_device
  4

  6

 40
0.0
 41
0.0
 42
0.0
 43
0.0
 44
0.0
 45
0.0
 46
0.0
 47
0.0
 48
0.0
 49
0.0
140
0.0
141
0.0
142
1.0
143
1.0
 70
   688
 72
     1
 73
     0
 74
     5
  7

 75
    16
147
1.0
148
0.0
149
0.0
100
AcDbLayout
  1
Layout2
 70
     1
 71
     2
 10
0.0
 20
0.0
 11
0.0
 21
0.0
 12
0.0
 22
0.0
 32
0.0
 14
0.0
 24
0.0
 34
0.0
 15
0.0
 25
0.0
 35
0.0
146
0.0
 13
0.0
 23
0.0
 33
0.0
 16
1.0
 26
0.0
 36
0.0
 17
0.0
 27
1.0
 37
0.0
 76
     0
330
23
  0
LAYOUT
  5
22
102
{ACAD_REACTORS
330
1A
102
}
330
1A
100
AcDbPlotSettings
  1

  2
none_device
  4
Letter_(8.50_x_11.00_Inches)
  6

 40
6.35
 41
6.35
 42
6.35000508
 43
6.35000508
 44
215.9
 45
279.4
 46
0.0
 47
0.0
 48
0.0
 49
0.0
140
0.0
141
0.0
142
1.0
143
1.0
 70
  1712
 72
     1
 73
     0
 74
     0
  7

 75
     0
147
1.0
148
0.0
149
0.0
100
AcDbLayout
  1
Model
 70
     1
 71
     0
 10
0.0
 20
0.0
 11
431.8
 21
279.4
 12
0.0
 22
0.0
 32
0.0
 14
0.0
 24
0.0
 34
0.0
 15
431.8
 25
279.4
 35
0.0
146
0.0
 13
0.0
 23
0.0
 33
0.0
 16
1.0
 26
0.0
 36
0.0
 17
0.0
 27
1.0
 37
0.0
 76
     0
330
1F
331
29
  0
MLINESTYLE
  5
18
102
{ACAD_REACTORS
330
17
102
}
330
17
100
AcDbMlineStyle
  2
Standard
 70
     0
  3

 62
   256
 51
90.0
 52
90.0
 71
     2
 49
0.5
 62
   256
  6
BYLAYER
 49
-0.5
 62
   256
  6
BYLAYER
  0
ACDBPLACEHOLDER
  5
F
102
{ACAD_REACTORS
330
E
102
}
330
E
  0
SCALE
  5
48
102
{ACAD_REACTORS
330
47
102
}
330
47
100
AcDbScale
 70
     0
300
1:1
140
1.0
141
1.0
290
     1
  0
SCALE
  5
49
102
{ACAD_REACTORS
330
47
102
}
330
47
100
AcDbScale
 70
     0
300
1:2
140
1.0
141
2.0
290
     0
  0
SCALE
  5
4A
102
{ACAD_REACTORS
330
47
102
}
330
47
100
AcDbScale
 70
     0
300
1:4
140
1.0
141
4.0
290
     0
  0
SCALE
  5
4B
102
{ACAD_REACTORS
330
47
102
}
330
47
100
AcDbScale
 70
     0
300
1:5
140
1.0
141
5.0
290
     0
  0
SCALE
  5
4C
102
{ACAD_REACTORS
330
47
102
}
330
47
100
AcDbScale
 70
     0
300
1:8
140
1.0
141
8.0
290
     0
  0
SCALE
  5
4D
102
{ACAD_REACTORS
330
47
102
}
330
47
100
AcDbScale
 70
     0
300
1:10
140
1.0
141
10.0
290
     0
  0
SCALE
  5
4E
102
{ACAD_REACTORS
330
47
102
}
330
47
100
AcDbScale
 70
     0
300
1:16
140
1.0
141
16.0
290
     0
  0
SCALE
  5
4F
102
{ACAD_REACTORS
330
47
102
}
330
47
100
AcDbScale
 70
     0
300
1:20
140
1.0
141
20.0
290
     0
  0
SCALE
  5
50
102
{ACAD_REACTORS
330
47
102
}
330
47
100
AcDbScale
 70
     0
300
1:30
140
1.0
141
30.0
290
     0
  0
SCALE
  5
51
102
{ACAD_REACTORS
330
47
102
}
330
47
100
AcDbScale
 70
     0
300
1:40
140
1.0
141
40.0
290
     0
  0
SCALE
  5
52
102
{ACAD_REACTORS
330
47
102
}
330
47
100
AcDbScale
 70
     0
300
1:50
140
1.0
141
50.0
290
     0
  0
SCALE
  5
53
102
{ACAD_REACTORS
330
47
102
}
330
47
100
AcDbScale
 70
     0
300
1:100
140
1.0
141
100.0
290
     0
  0
SCALE
  5
54
102
{ACAD_REACTORS
330
47
102
}
330
47
100
AcDbScale
 70
     0
300
2:1
140
2.0
141
1.0
290
     0
  0
SCALE
  5
55
102
{ACAD_REACTORS
330
47
102
}
330
47
100
AcDbScale
 70
     0
300
4:1
140
4.0
141
1.0
290
     0
  0
SCALE
  5
56
102
{ACAD_REACTORS
330
47
102
}
330
47
100
AcDbScale
 70
     0
300
8:1
140
8.0
141
1.0
290
     0
  0
SCALE
  5
57
102
{ACAD_REACTORS
330
47
102
}
330
47
100
AcDbScale
 70
     0
300
10:1
140
10.0
141
1.0
290
     0
  0
SCALE
  5
58
102
{ACAD_REACTORS
330
47
102
}
330
47
100
AcDbScale
 70
     0
300
100:1
140
100.0
141
1.0
290
     0
  0
SCALE
  5
59
102
{ACAD_REACTORS
330
47
102
}
330
47
100
AcDbScale
 70
     0
300
1/128" = 1'-0"
140
0.0078125
141
12.0
290
     0
  0
SCALE
  5
5A
102
{ACAD_REACTORS
330
47
102
}
330
47
100
AcDbScale
 70
     0
300
1/64" = 1'-0"
140
0.015625
141
12.0
290
     0
  0
SCALE
  5
5B
102
{ACAD_REACTORS
330
47
102
}
330
47
100
AcDbScale
 70
     0
300
1/32" = 1'-0"
140
0.03125
141
12.0
290
     0
  0
SCALE
  5
5C
102
{ACAD_REACTORS
330
47
102
}
330
47
100
AcDbScale
 70
     0
300
1/16" = 1'-0"
140
0.0625
141
12.0
290
     0
  0
SCALE
  5
5D
102
{ACAD_REACTORS
330
47
102
}
330
47
100
AcDbScale
 70
     0
300
3/32" = 1'-0"
140
0.09375
141
12.0
290
     0
  0
SCALE
  5
5E
102
{ACAD_REACTORS
330
47
102
}
330
47
100
AcDbScale
 70
     0
300
1/8" = 1'-0"
140
0.125
141
12.0
290
     0
  0
SCALE
  5
5F
102
{ACAD_REACTORS
330
47
102
}
330
47
100
AcDbScale
 70
     0
300
3/16" = 1'-0"
140
0.1875
141
12.0
290
     0
  0
SCALE
  5
60
102
{ACAD_REACTORS
330
47
102
}
330
47
100
AcDbScale
 70
     0
300
1/4" = 1'-0"
140
0.25
141
12.0
290
     0
  0
SCALE
  5
61
102
{ACAD_REACTORS
330
47
102
}
330
47
100
AcDbScale
 70
     0
300
3/8" = 1'-0"
140
0.375
141
12.0
290
     0
  0
SCALE
  5
62
102
{ACAD_REACTORS
330
47
102
}
330
47
100
AcDbScale
 70
     0
300
1/2" = 1'-0"
140
0.5
141
12.0
290
     0
  0
SCALE
  5
63
102
{ACAD_REACTORS
330
47
102
}
330
47
100
AcDbScale
 70
     0
300
3/4" = 1'-0"
140
0.75
141
12.0
290
     0
  0
SCALE
  5
64
102
{ACAD_REACTORS
330
47
102
}
330
47
100
AcDbScale
 70
     0
300
1" = 1'-0"
140
1.0
141
12.0
290
     0
  0
SCALE
  5
65
102
{ACAD_REACTORS
330
47
102
}
330
47
100
AcDbScale
 70
     0
300
1-1/2" = 1'-0"
140
1.5
141
12.0
290
     0
  0
SCALE
  5
66
102
{ACAD_REACTORS
330
47
102
}
330
47
100
AcDbScale
 70
     0
300
3" = 1'-0"
140
3.0
141
12.0
290
     0
  0
SCALE
  5
67
102
{ACAD_REACTORS
330
47
102
}
330
47
100
AcDbScale
 70
     0
300
6" = 1'-0"
140
6.0
141
12.0
290
     0
  0
SCALE
  5
68
102
{ACAD_REACTORS
330
47
102
}
330
47
100
AcDbScale
 70
     0
300
1'-0" = 1'-0"
140
12.0
141
12.0
290
     0
  0
ENDSEC
  0
EOF
