  0
SECTION
  2
HEADER
  9
$ACADVER
  1
AC1015
  9
$ACADMAINTVER
 70
     6
  9
$DWGCODEPAGE
  3
DOS932
  9
$INSBASE
 10
0.0
 20
0.0
 30
0.0
  9
$EXTMIN
 10
0.0
 20
0.0
 30
0.0
  9
$EXTMAX
 10
431.8
 20
279.4
 30
0.0
  9
$LIMMIN
 10
0.0
 20
0.0
  9
$LIMMAX
 10
431.8
 20
279.4
  9
$ORTHOMODE
 70
     0
  9
$REGENMODE
 70
     1
  9
$FILLMODE
 70
     1
  9
$QTEXTMODE
 70
     0
  9
$MIRRTEXT
 70
     1
  9
$LTSCALE
 40
1.0
  9
$ATTMODE
 70
     1
  9
$TEXTSIZE
 40
3.5
  9
$TRACEWID
 40
1.0
  9
$TEXTSTYLE
  7
Standard
  9
$CLAYER
  8
0
  9
$CELTYPE
  6
ByLayer
  9
$CECOLOR
 62
   256
  9
$CELTSCALE
 40
1.0
  9
$DISPSILH
 70
     0
  9
$DIMSCALE
 40
1.0
  9
$DIMASZ
 40
3.302
  9
$DIMEXO
 40
1.0
  9
$DIMDLI
 40
3.75
  9
$DIMRND
 40
0.0
  9
$DIMDLE
 40
0.0
  9
$DIMEXE
 40
1.0
  9
$DIMTP
 40
0.0
  9
$DIMTM
 40
0.0
  9
$DIMTXT
 40
3.5
  9
$DIMCEN
 40
2.5
  9
$DIMTSZ
 40
0.0
  9
$DIMTOL
 70
     0
  9
$DIMLIM
 70
     0
  9
$DIMTIH
 70
     1
  9
$DIMTOH
 70
     1
  9
$DIMSE1
 70
     0
  9
$DIMSE2
 70
     0
  9
$DIMTAD
 70
     1
  9
$DIMZIN
 70
     1
  9
$DIMBLK
  1

  9
$DIMASO
 70
     1
  9
$DIMSHO
 70
     1
  9
$DIMPOST
  1

  9
$DIMAPOST
  1

  9
$DIMALT
 70
     0
  9
$DIMALTD
 70
     3
  9
$DIMALTF
 40
0.0393700787
  9
$DIMLFAC
 40
1.0
  9
$DIMTOFL
 70
     1
  9
$DIMTVP
 40
0.0
  9
$DIMTIX
 70
     0
  9
$DIMSOXD
 70
     0
  9
$DIMSAH
 70
     0
  9
$DIMBLK1
  1

  9
$DIMBLK2
  1

  9
$DIMSTYLE
  2
ISO-25
  9
$DIMCLRD
 70
     0
  9
$DIMCLRE
 70
     0
  9
$DIMCLRT
 70
     0
  9
$DIMTFAC
 40
1.0
  9
$DIMGAP
 40
1.524
  9
$DIMJUST
 70
     0
  9
$DIMSD1
 70
     0
  9
$DIMSD2
 70
     0
  9
$DIMTOLJ
 70
     0
  9
$DIMTZIN
 70
     1
  9
$DIMALTZ
 70
     0
  9
$DIMALTTZ
 70
     0
  9
$DIMUPT
 70
     0
  9
$DIMDEC
 70
     2
  9
$DIMTDEC
 70
     2
  9
$DIMALTU
 70
     2
  9
$DIMALTTD
 70
     3
  9
$DIMTXSTY
  7
Standard
  9
$DIMAUNIT
 70
     0
  9
$DIMADEC
 70
     2
  9
$DIMALTRND
 40
0.0
  9
$DIMAZIN
 70
     0
  9
$DIMDSEP
 70
    44
  9
$DIMATFIT
 70
     3
  9
$DIMFRAC
 70
     0
  9
$DIMLDRBLK
  1

  9
$DIMLUNIT
 70
     2
  9
$DIMLWD
 70
    -2
  9
$DIMLWE
 70
    -2
  9
$DIMTMOVE
 70
     0
  9
$LUNITS
 70
     2
  9
$LUPREC
 70
     2
  9
$SKETCHINC
 40
1.0
  9
$FILLETRAD
 40
10.0
  9
$AUNITS
 70
     0
  9
$AUPREC
 70
     2
  9
$MENU
  1
.
  9
$ELEVATION
 40
0.0
  9
$PELEVATION
 40
0.0
  9
$THICKNESS
 40
0.0
  9
$LIMCHECK
 70
     0
  9
$CHAMFERA
 40
0.0
  9
$CHAMFERB
 40
0.0
  9
$CHAMFERC
 40
0.0
  9
$CHAMFERD
 40
0.0
  9
$SKPOLY
 70
     0
  9
$TDCREATE
 40
2459423.389259271
  9
$TDUCREATE
 40
2459423.014259271
  9
$TDUPDATE
 40
2459423.389259965
  9
$TDUUPDATE
 40
2459423.014259965
  9
$TDINDWG
 40
0.0000000116
  9
$TDUSRTIMER
 40
0.0000000116
  9
$USRTIMER
 70
     1
  9
$ANGBASE
 50
0.0
  9
$ANGDIR
 70
     0
  9
$PDMODE
 70
     0
  9
$PDSIZE
 40
-1.0
  9
$PLINEWID
 40
0.0
  9
$SPLFRAME
 70
     0
  9
$SPLINETYPE
 70
     6
  9
$SPLINESEGS
 70
     8
  9
$HANDSEED
  5
25A
  9
$SURFTAB1
 70
     6
  9
$SURFTAB2
 70
     6
  9
$SURFTYPE
 70
     6
  9
$SURFU
 70
     6
  9
$SURFV
 70
     6
  9
$UCSBASE
  2

  9
$UCSNAME
  2

  9
$UCSORG
 10
0.0
 20
0.0
 30
0.0
  9
$UCSXDIR
 10
1.0
 20
0.0
 30
0.0
  9
$UCSYDIR
 10
0.0
 20
1.0
 30
0.0
  9
$UCSORTHOREF
  2

  9
$UCSORTHOVIEW
 70
     0
  9
$UCSORGTOP
 10
0.0
 20
0.0
 30
0.0
  9
$UCSORGBOTTOM
 10
0.0
 20
0.0
 30
0.0
  9
$UCSORGLEFT
 10
0.0
 20
0.0
 30
0.0
  9
$UCSORGRIGHT
 10
0.0
 20
0.0
 30
0.0
  9
$UCSORGFRONT
 10
0.0
 20
0.0
 30
0.0
  9
$UCSORGBACK
 10
0.0
 20
0.0
 30
0.0
  9
$PUCSBASE
  2

  9
$PUCSNAME
  2

  9
$PUCSORG
 10
0.0
 20
0.0
 30
0.0
  9
$PUCSXDIR
 10
1.0
 20
0.0
 30
0.0
  9
$PUCSYDIR
 10
0.0
 20
1.0
 30
0.0
  9
$PUCSORTHOREF
  2

  9
$PUCSORTHOVIEW
 70
     0
  9
$PUCSORGTOP
 10
0.0
 20
0.0
 30
0.0
  9
$PUCSORGBOTTOM
 10
0.0
 20
0.0
 30
0.0
  9
$PUCSORGLEFT
 10
0.0
 20
0.0
 30
0.0
  9
$PUCSORGRIGHT
 10
0.0
 20
0.0
 30
0.0
  9
$PUCSORGFRONT
 10
0.0
 20
0.0
 30
0.0
  9
$PUCSORGBACK
 10
0.0
 20
0.0
 30
0.0
  9
$USERI1
 70
     0
  9
$USERI2
 70
     0
  9
$USERI3
 70
     0
  9
$USERI4
 70
     0
  9
$USERI5
 70
     0
  9
$USERR1
 40
0.0
  9
$USERR2
 40
0.0
  9
$USERR3
 40
0.0
  9
$USERR4
 40
0.0
  9
$USERR5
 40
0.0
  9
$WORLDVIEW
 70
     1
  9
$SHADEDGE
 70
     3
  9
$SHADEDIF
 70
    70
  9
$TILEMODE
 70
     1
  9
$MAXACTVP
 70
    64
  9
$PINSBASE
 10
0.0
 20
0.0
 30
0.0
  9
$PLIMCHECK
 70
     0
  9
$PEXTMIN
 10
1.0000000000E+20
 20
1.0000000000E+20
 30
1.0000000000E+20
  9
$PEXTMAX
 10
-1.0000000000E+20
 20
-1.0000000000E+20
 30
-1.0000000000E+20
  9
$PLIMMIN
 10
0.0
 20
0.0
  9
$PLIMMAX
 10
420.0
 20
297.0
  9
$UNITMODE
 70
     0
  9
$VISRETAIN
 70
     1
  9
$PLINEGEN
 70
     0
  9
$PSLTSCALE
 70
     1
  9
$TREEDEPTH
 70
  3020
  9
$CMLSTYLE
  2
Standard
  9
$CMLJUST
 70
     0
  9
$CMLSCALE
 40
20.0
  9
$PROXYGRAPHICS
 70
     1
  9
$MEASUREMENT
 70
     1
  9
$CELWEIGHT
370
    -1
  9
$ENDCAPS
280
     0
  9
$JOINSTYLE
280
     0
  9
$LWDISPLAY
290
     1
  9
$INSUNITS
 70
     4
  9
$HYPERLINKBASE
  1

  9
$STYLESHEET
  1

  9
$XEDIT
290
     1
  9
$CEPSNTYPE
380
     0
  9
$PSTYLEMODE
290
     1
  9
$FINGERPRINTGUID
  2
{A5EBEDA3-E5FC-4ADE-9FE3-1919783D680F}
  9
$VERSIONGUID
  2
{FAEB1C32-E019-11D5-929B-00C0DF256EC4}
  9
$EXTNAMES
290
     1
  9
$PSVPSCALE
 40
0.0
  9
$OLESTARTUP
290
     0
  0
ENDSEC
  0
SECTION
  2
CLASSES
  0
CLASS
  1
ACDBDICTIONARYWDFLT
  2
AcDbDictionaryWithDefault
  3
ObjectDBX Classes
 90
        0
280
     0
281
     0
  0
CLASS
  1
VISUALSTYLE
  2
AcDbVisualStyle
  3
ObjectDBX Classes
 90
     4095
280
     0
281
     0
  0
CLASS
  1
MATERIAL
  2
AcDbMaterial
  3
ObjectDBX Classes
 90
     1153
280
     0
281
     0
  0
CLASS
  1
SCALE
  2
AcDbScale
  3
ObjectDBX Classes
 90
     1153
280
     0
281
     0
  0
CLASS
  1
TABLESTYLE
  2
AcDbTableStyle
  3
ObjectDBX Classes
 90
     4095
280
     0
281
     0
  0
CLASS
  1
MLEADERSTYLE
  2
AcDbMLeaderStyle
  3
ACDB_MLEADERSTYLE_CLASS
 90
     4095
280
     0
281
     0
  0
CLASS
  1
SUN
  2
AcDbSun
  3
SCENEOE
 90
     1153
280
     0
281
     0
  0
CLASS
  1
ACDBPLACEHOLDER
  2
AcDbPlaceHolder
  3
ObjectDBX Classes
 90
        0
280
     0
281
     0
  0
CLASS
  1
LAYOUT
  2
AcDbLayout
  3
ObjectDBX Classes
 90
        0
280
     0
281
     0
  0
ENDSEC
  0
SECTION
  2
TABLES
  0
TABLE
  2
VPORT
  5
8
330
0
100
AcDbSymbolTable
 70
     1
  0
VPORT
  5
29
330
8
100
AcDbSymbolTableRecord
100
AcDbViewportTableRecord
  2
*Active
 70
     0
 10
0.0
 20
0.0
 11
1.0
 21
1.0
 12
215.9
 22
139.7
 13
0.0
 23
0.0
 14
10.0
 24
10.0
 15
10.0
 25
10.0
 16
0.0
 26
0.0
 36
1.0
 17
0.0
 27
0.0
 37
0.0
 40
279.4
 41
1.5454545455
 42
50.0
 43
0.0
 44
0.0
 50
0.0
 51
0.0
 71
     0
 72
  2000
 73
     1
 74
     3
 75
     0
 76
     0
 77
     0
 78
     0
281
     0
 65
     1
110
0.0
120
0.0
130
0.0
111
1.0
121
0.0
131
0.0
112
0.0
122
1.0
132
0.0
 79
     0
146
0.0
  0
ENDTAB
  0
TABLE
  2
LTYPE
  5
5
330
0
100
AcDbSymbolTable
 70
     6
  0
LTYPE
  5
14
330
5
100
AcDbSymbolTableRecord
100
AcDbLinetypeTableRecord
  2
ByBlock
 70
     0
  3

 72
    65
 73
     0
 40
0.0
  0
LTYPE
  5
15
330
5
100
AcDbSymbolTableRecord
100
AcDbLinetypeTableRecord
  2
ByLayer
 70
     0
  3

 72
    65
 73
     0
 40
0.0
  0
LTYPE
  5
16
330
5
100
AcDbSymbolTableRecord
100
AcDbLinetypeTableRecord
  2
Continuous
 70
     0
  3
Solid line
 72
    65
 73
     0
 40
0.0
  0
LTYPE
  5
6E
330
5
100
AcDbSymbolTableRecord
100
AcDbLinetypeTableRecord
  2
HIDDEN
 70
     0
  3
Hidden __ __ __ __ __ __ __ __ __ __ __ __ __ __
 72
    65
 73
     2
 40
1.905
 49
1.27
 74
     0
 49
-0.635
 74
     0
  0
LTYPE
  5
6F
330
5
100
AcDbSymbolTableRecord
100
AcDbLinetypeTableRecord
  2
PHANTOM
 70
     0
  3
Phantom ______  __  __  ______  __  __  ______
 72
    65
 73
     6
 40
12.7
 49
6.35
 74
     0
 49
-1.27
 74
     0
 49
1.27
 74
     0
 49
-1.27
 74
     0
 49
1.27
 74
     0
 49
-1.27
 74
     0
  0
LTYPE
  5
70
330
5
100
AcDbSymbolTableRecord
100
AcDbLinetypeTableRecord
  2
CENTER
 70
     0
  3
Center ____ _ ____ _ ____ _ ____ _ ____ _ ____
 72
    65
 73
     4
 40
10.16
 49
6.35
 74
     0
 49
-1.27
 74
     0
 49
1.27
 74
     0
 49
-1.27
 74
     0
  0
LTYPE
  5
71
330
5
100
AcDbSymbolTableRecord
100
AcDbLinetypeTableRecord
  2
CENTERX2
 70
     0
  3
Center (2x) ________  __  ________  __  _____
 72
    65
 73
     4
 40
20.32
 49
12.7
 74
     0
 49
-2.54
 74
     0
 49
2.54
 74
     0
 49
-2.54
 74
     0
  0
LTYPE
  5
72
330
5
100
AcDbSymbolTableRecord
100
AcDbLinetypeTableRecord
  2
DOT2
 70
     0
  3
Dot (.5x) ........................................
 72
    65
 73
     2
 40
0.635
 49
0.0
 74
     0
 49
-0.635
 74
     0
  0
ENDTAB
  0
TABLE
  2
LAYER
  5
2
330
0
100
AcDbSymbolTable
 70
     1
  0
LAYER
  5
10
330
2
100
AcDbSymbolTableRecord
100
AcDbLayerTableRecord
  2
0
 70
     0
 62
     7
  6
Continuous
370
    -3
390
F
  0
ENDTAB
  0
TABLE
  2
STYLE
  5
3
330
0
100
AcDbSymbolTable
 70
     2
  0
STYLE
  5
11
330
3
100
AcDbSymbolTableRecord
100
AcDbTextStyleTableRecord
  2
Standard
 70
     0
 40
0.0
 41
1.0
 50
0.0
 71
     0
 42
3.5
  3
txt
  4
bigfont
  0
STYLE
  5
73
330
3
100
AcDbSymbolTableRecord
100
AcDbTextStyleTableRecord
  2
SLDTEXTSTYLE0
 70
     0
 40
0.0
 41
0.7
 50
0.0
 71
     0
 42
3.5
  3
TXT
  4
bigfont
  0
ENDTAB
  0
TABLE
  2
VIEW
  5
6
330
0
100
AcDbSymbolTable
 70
     0
  0
ENDTAB
  0
TABLE
  2
UCS
  5
7
330
0
100
AcDbSymbolTable
 70
     0
  0
ENDTAB
  0
TABLE
  2
APPID
  5
9
330
0
100
AcDbSymbolTable
 70
     1
  0
APPID
  5
12
330
9
100
AcDbSymbolTableRecord
100
AcDbRegAppTableRecord
  2
ACAD
 70
     0
  0
ENDTAB
  0
TABLE
  2
DIMSTYLE
  5
A
330
0
100
AcDbSymbolTable
 70
     1
100
AcDbDimStyleTable
  0
DIMSTYLE
105
27
330
A
100
AcDbSymbolTableRecord
100
AcDbDimStyleTableRecord
  2
ISO-25
 70
     0
 41
2.5
 42
0.625
 43
3.75
 44
1.25
 73
     0
 74
     0
 77
     1
 78
     8
140
2.5
141
2.5
143
0.0393700787
147
0.625
171
     3
172
     1
178
     0
271
     2
272
     2
274
     3
278
    44
283
     0
284
     8
340
11
  0
ENDTAB
  0
TABLE
  2
BLOCK_RECORD
  5
1
330
0
100
AcDbSymbolTable
 70
     1
  0
BLOCK_RECORD
  5
1F
330
1
100
AcDbSymbolTableRecord
100
AcDbBlockTableRecord
  2
*Model_Space
340
22
  0
BLOCK_RECORD
  5
1B
330
1
100
AcDbSymbolTableRecord
100
AcDbBlockTableRecord
  2
*Paper_Space
340
1E
  0
BLOCK_RECORD
  5
23
330
1
100
AcDbSymbolTableRecord
100
AcDbBlockTableRecord
  2
*Paper_Space0
340
26
  0
ENDTAB
  0
ENDSEC
  0
SECTION
  2
BLOCKS
  0
BLOCK
  5
20
330
1F
100
AcDbEntity
  8
0
100
AcDbBlockBegin
  2
*Model_Space
 70
     0
 10
0.0
 20
0.0
 30
0.0
  3
*Model_Space
  1

  0
ENDBLK
  5
21
330
1F
100
AcDbEntity
  8
0
100
AcDbBlockEnd
  0
BLOCK
  5
1C
330
1B
100
AcDbEntity
 67
     1
  8
0
100
AcDbBlockBegin
  2
*Paper_Space
 70
     0
 10
0.0
 20
0.0
 30
0.0
  3
*Paper_Space
  1

  0
ENDBLK
  5
1D
330
1B
100
AcDbEntity
 67
     1
  8
0
100
AcDbBlockEnd
  0
BLOCK
  5
24
330
23
100
AcDbEntity
  8
0
100
AcDbBlockBegin
  2
*Paper_Space0
 70
     0
 10
0.0
 20
0.0
 30
0.0
  3
*Paper_Space0
  1

  0
ENDBLK
  5
25
330
23
100
AcDbEntity
  8
0
100
AcDbBlockEnd
  0
ENDSEC
  0
SECTION
  2
ENTITIES
  0
MTEXT
  5
74
330
1F
100
AcDbEntity
  8
0
  6
Continuous
 62
     7
370
     0
100
AcDbMText
 10
173.7079818612
 20
133.3917312409
 30
0.0
 40
3.7041666667
 41
0.0
 71
     1
 72
     1
  1
BH-1110
  7
SLDTEXTSTYLE0
 73
     1
 44
1.0
  0
LINE
  5
75
330
1F
100
AcDbEntity
  8
0
  6
Continuous
 62
     7
370
    25
100
AcDbLine
 10
141.3612414173
 20
99.1020298343
 30
0.0
 11
141.111241842
 21
98.852030259
 31
0.0
  0
LINE
  5
76
330
1F
100
AcDbEntity
  8
0
  6
Continuous
 62
     7
370
    25
100
AcDbLine
 10
141.111241842
 20
79.3520298566
 30
0.0
 11
141.3612414173
 21
79.1020302813
 31
0.0
  0
LINE
  5
77
330
1F
100
AcDbEntity
  8
0
  6
Continuous
 62
     7
370
    25
100
AcDbLine
 10
160.611241313
 20
99.1020298343
 30
0.0
 11
158.993208038
 21
99.1020298343
 31
0.0
  0
LINE
  5
78
330
1F
100
AcDbEntity
  8
0
  6
Continuous
 62
     7
370
    25
100
AcDbLine
 10
158.993208038
 20
79.1020302813
 30
0.0
 11
160.611241313
 21
79.1020302813
 31
0.0
  0
ARC
  5
79
330
1F
100
AcDbEntity
  8
0
  6
Continuous
 62
     7
370
    25
100
AcDbCircle
 10
160.1112416185
 20
98.1020300578
 30
0.0
 40
1.500000000000014
100
AcDbArc
 50
138.1896851042
 51
180.0
  0
ARC
  5
7A
330
1F
100
AcDbEntity
  8
0
  6
Continuous
 62
     7
370
    25
100
AcDbCircle
 10
160.1112416185
 20
80.1020300578
 30
0.0
 40
1.500000000000014
100
AcDbArc
 50
180.0
 51
221.8103148958
  0
LINE
  5
7B
330
1F
100
AcDbEntity
  8
0
  6
Continuous
 62
     7
370
    25
100
AcDbLine
 10
160.611241313
 20
79.1020302813
 30
0.0
 11
161.111241395
 21
79.6020303633
 31
0.0
  0
LINE
  5
7C
330
1F
100
AcDbEntity
  8
0
  6
Continuous
 62
     7
370
    25
100
AcDbLine
 10
161.111241395
 20
98.6020297523
 30
0.0
 11
160.611241313
 21
99.1020298343
 31
0.0
  0
LINE
  5
7D
330
1F
100
AcDbEntity
  8
0
  6
Continuous
 62
     7
370
    25
100
AcDbLine
 10
141.3612414173
 20
79.1020302813
 30
0.0
 11
143.229275199
 21
79.1020302813
 31
0.0
  0
LINE
  5
7E
330
1F
100
AcDbEntity
  8
0
  6
Continuous
 62
     7
370
    25
100
AcDbLine
 10
143.229275199
 20
99.1020298343
 30
0.0
 11
141.3612414173
 21
99.1020298343
 31
0.0
  0
ARC
  5
7F
330
1F
100
AcDbEntity
  8
0
  6
Continuous
 62
     7
370
    25
100
AcDbCircle
 10
142.1112416185
 20
80.1020300578
 30
0.0
 40
1.500000000000014
100
AcDbArc
 50
318.1896851042
 51
0.0
  0
ARC
  5
80
330
1F
100
AcDbEntity
  8
0
  6
Continuous
 62
     7
370
    25
100
AcDbCircle
 10
142.1112416185
 20
98.1020300578
 30
0.0
 40
1.500000000000014
100
AcDbArc
 50
0.0
 51
41.8103148958
  0
ARC
  5
81
330
1F
100
AcDbEntity
  8
0
  6
Continuous
 62
     7
370
    25
100
AcDbCircle
 10
158.1112416185
 20
98.1020300578
 30
0.0
 40
0.5
100
AcDbArc
 50
270.0
 51
0.0
  0
ARC
  5
82
330
1F
100
AcDbEntity
  8
0
  6
Continuous
 62
     7
370
    25
100
AcDbCircle
 10
144.1112416185
 20
98.1020300578
 30
0.0
 40
0.5
100
AcDbArc
 50
180.0
 51
270.0
  0
ARC
  5
83
330
1F
100
AcDbEntity
  8
0
  6
Continuous
 62
     7
370
    25
100
AcDbCircle
 10
144.1112416185
 20
80.1020300578
 30
0.0
 40
0.5
100
AcDbArc
 50
90.0
 51
180.0
  0
ARC
  5
84
330
1F
100
AcDbEntity
  8
0
  6
Continuous
 62
     7
370
    25
100
AcDbCircle
 10
158.1112416185
 20
80.1020300578
 30
0.0
 40
0.5
100
AcDbArc
 50
0.0
 51
90.0
  0
LINE
  5
85
330
1F
100
AcDbEntity
  8
0
  6
Continuous
 62
     7
370
    25
100
AcDbLine
 10
144.7289206109
 20
97.6020305197
 30
0.0
 11
144.1112414024
 21
97.6020305197
 31
0.0
  0
LINE
  5
86
330
1F
100
AcDbEntity
  8
0
  6
Continuous
 62
     7
370
    25
100
AcDbLine
 10
158.1112418346
 20
97.6020305197
 30
0.0
 11
157.5112414568
 21
97.6020305197
 31
0.0
  0
LINE
  5
87
330
1F
100
AcDbEntity
  8
0
  6
Continuous
 62
     7
370
    25
100
AcDbLine
 10
144.1112414024
 20
80.6020295959
 30
0.0
 11
158.1112418346
 21
80.6020295959
 31
0.0
  0
SPLINE
  5
88
330
1F
100
AcDbEntity
  8
0
  6
Continuous
 62
     7
370
    25
100
AcDbSpline
210
0.0
220
0.0
230
1.0
 70
     8
 71
     3
 72
    13
 73
     9
 74
     0
 42
0.000000001
 43
0.00000001
 40
0.0
 40
0.0
 40
0.0
 40
0.0
 40
0.165764770712366
 40
0.3288517014565883
 40
0.5079763322819512
 40
0.6908236301181547
 40
0.865922736235392
 40
0.9999999999999999
 40
0.9999999999999999
 40
0.9999999999999999
 40
0.9999999999999999
 10
157.5115497245917
 20
97.60536372323403
 30
0.0
 10
157.4678556072767
 20
97.60724610319181
 30
0.0
 10
157.3811732274143
 20
97.61098045428004
 30
0.0
 10
157.2569887001402
 20
97.6651375961188
 30
0.0
 10
157.1466219814118
 20
97.749574444774
 30
0.0
 10
157.0638092399973
 20
97.86536874287903
 30
0.0
 10
157.0173760337856
 20
97.98813111712401
 30
0.0
 10
157.0140896201745
 20
98.06936552873213
 30
0.0
 10
157.0126644357572
 20
98.10459360142121
 30
0.0
  0
SPLINE
  5
89
330
1F
100
AcDbEntity
  8
0
  6
Continuous
 62
     7
370
    25
100
AcDbSpline
210
0.0
220
0.0
230
1.0
 70
     8
 71
     3
 72
    13
 73
     9
 74
     0
 42
0.000000001
 43
0.00000001
 40
0.0
 40
0.0
 40
0.0
 40
0.0
 40
0.1607066454459125
 40
0.3468546424435092
 40
0.5363364128969866
 40
0.7155423116060323
 40
0.8707861657624715
 40
1.0
 40
1.0
 40
1.0
 40
1.0
 10
145.2101415045092
 20
98.09291854162583
 30
0.0
 10
145.2069173122781
 20
98.05221217036474
 30
0.0
 10
145.1999585083008
 20
97.96435523196764
 30
0.0
 10
145.143472927409
 20
97.83816603598044
 30
0.0
 10
145.0536639294407
 20
97.7283344176931
 30
0.0
 10
144.9428316151446
 20
97.65316818065786
 30
0.0
 10
144.8316844861597
 20
97.61140285265152
 30
0.0
 10
144.7597921078238
 20
97.60550752493388
 30
0.0
 10
144.7271352655718
 20
97.6028295945085
 30
0.0
  0
LINE
  5
8A
330
1F
100
AcDbEntity
  8
0
  6
Continuous
 62
     7
370
    25
100
AcDbLine
 10
157.0112418405
 20
98.1020296704
 30
0.0
 11
157.0112418405
 21
99.6020299162
 31
0.0
  0
LINE
  5
8B
330
1F
100
AcDbEntity
  8
0
  6
Continuous
 62
     7
370
    25
100
AcDbLine
 10
145.2112413965
 20
99.6020299162
 30
0.0
 11
145.2112413965
 21
98.0907597359
 31
0.0
  0
LINE
  5
8C
330
1F
100
AcDbEntity
  8
0
  6
Continuous
 62
     7
370
    25
100
AcDbLine
 10
161.111241395
 20
84.0495925177
 30
0.0
 11
169.7562934853
 21
84.3197505701
 31
0.0
  0
LINE
  5
8D
330
1F
100
AcDbEntity
  8
0
  6
Continuous
 62
     7
370
    25
100
AcDbLine
 10
169.7562934853
 20
93.8843095455
 30
0.0
 11
161.111241395
 21
94.1544675979
 31
0.0
  0
LINE
  5
8E
330
1F
100
AcDbEntity
  8
0
  6
Continuous
 62
     7
370
    25
100
AcDbLine
 10
169.7562934853
 20
84.3197505701
 30
0.0
 11
171.1112411715
 21
85.1020298678
 31
0.0
  0
LINE
  5
8F
330
1F
100
AcDbEntity
  8
0
  6
Continuous
 62
     7
370
    25
100
AcDbLine
 10
171.1112411715
 20
93.1020302478
 30
0.0
 11
169.7562934853
 21
93.8843095455
 31
0.0
  0
LINE
  5
90
330
1F
100
AcDbEntity
  8
0
  6
Continuous
 62
     7
370
    25
100
AcDbLine
 10
158.1112418346
 20
99.6020299162
 30
0.0
 11
158.5612415358
 21
107.6020302962
 31
0.0
  0
LINE
  5
91
330
1F
100
AcDbEntity
  8
0
  6
Continuous
 62
     7
370
    25
100
AcDbLine
 10
158.5612415358
 20
107.6020302962
 30
0.0
 11
156.6112415887
 21
115.6020297449
 31
0.0
  0
LINE
  5
92
330
1F
100
AcDbEntity
  8
0
  6
Continuous
 62
     7
370
    25
100
AcDbLine
 10
144.0405852183
 20
100.8581475135
 30
0.0
 11
144.1112414024
 21
99.6020299162
 31
0.0
  0
LINE
  5
93
330
1F
100
AcDbEntity
  8
0
  6
Continuous
 62
     7
370
    25
100
AcDbLine
 10
145.6112416483
 20
115.6020297449
 30
0.0
 11
145.3572648599
 21
114.560073499
 31
0.0
  0
LINE
  5
94
330
1F
100
AcDbEntity
  8
0
  6
Continuous
 62
     7
370
    25
100
AcDbLine
 10
138.3112419419
 20
97.1020304378
 30
0.0
 11
138.1112413503
 21
96.9020298462
 31
0.0
  0
LINE
  5
95
330
1F
100
AcDbEntity
  8
0
  6
Continuous
 62
     7
370
    25
100
AcDbLine
 10
138.1112413503
 20
81.3020302694
 30
0.0
 11
138.3112419419
 21
81.1020296778
 31
0.0
  0
LINE
  5
96
330
1F
100
AcDbEntity
  8
0
  6
Continuous
 62
     7
370
    25
100
AcDbLine
 10
141.111241842
 20
97.1020304378
 30
0.0
 11
138.3112419419
 21
97.1020304378
 31
0.0
  0
LINE
  5
97
330
1F
100
AcDbEntity
  8
0
  6
Continuous
 62
     7
370
    25
100
AcDbLine
 10
138.3112419419
 20
81.1020296778
 30
0.0
 11
141.111241842
 21
81.1020296778
 31
0.0
  0
LINE
  5
98
330
1F
100
AcDbEntity
  8
0
  6
Continuous
 62
     7
370
    25
100
AcDbLine
 10
115.6112404562
 20
94.352029987
 30
0.0
 11
111.5912424422
 21
93.6820300076
 31
0.0
  0
LINE
  5
99
330
1F
100
AcDbEntity
  8
0
  6
Continuous
 62
     7
370
    25
100
AcDbLine
 10
111.5912424422
 20
84.522030108
 30
0.0
 11
115.6112404562
 21
83.8520301286
 31
0.0
  0
LINE
  5
9A
330
1F
100
AcDbEntity
  8
0
  6
Continuous
 62
     7
370
    25
100
AcDbLine
 10
124.6112419314
 20
94.352029987
 30
0.0
 11
120.1112421251
 21
93.6020298641
 31
0.0
  0
LINE
  5
9B
330
1F
100
AcDbEntity
  8
0
  6
Continuous
 62
     7
370
    25
100
AcDbLine
 10
120.1112421251
 20
84.6020302515
 30
0.0
 11
124.6112419314
 21
83.8520301286
 31
0.0
  0
LINE
  5
9C
330
1F
100
AcDbEntity
  8
0
  6
Continuous
 62
     7
370
    25
100
AcDbLine
 10
120.1112421251
 20
94.352029987
 30
0.0
 11
115.6112404562
 21
93.6020298641
 31
0.0
  0
LINE
  5
9D
330
1F
100
AcDbEntity
  8
0
  6
Continuous
 62
     7
370
    25
100
AcDbLine
 10
115.6112404562
 20
84.6020302515
 30
0.0
 11
120.1112421251
 21
83.8520301286
 31
0.0
  0
LINE
  5
9E
330
1F
100
AcDbEntity
  8
0
  6
Continuous
 62
     7
370
    25
100
AcDbLine
 10
129.1112417377
 20
94.352029987
 30
0.0
 11
124.6112419314
 21
93.6020298641
 31
0.0
  0
LINE
  5
9F
330
1F
100
AcDbEntity
  8
0
  6
Continuous
 62
     7
370
    25
100
AcDbLine
 10
124.6112419314
 20
84.6020302515
 30
0.0
 11
129.1112417377
 21
83.8520301286
 31
0.0
  0
LINE
  5
A0
330
1F
100
AcDbEntity
  8
0
  6
Continuous
 62
     7
370
    25
100
AcDbLine
 10
133.611241544
 20
94.352029987
 30
0.0
 11
129.1112417377
 21
93.6020298641
 31
0.0
  0
LINE
  5
A1
330
1F
100
AcDbEntity
  8
0
  6
Continuous
 62
     7
370
    25
100
AcDbLine
 10
129.1112417377
 20
84.6020302515
 30
0.0
 11
133.611241544
 21
83.8520301286
 31
0.0
  0
LINE
  5
A2
330
1F
100
AcDbEntity
  8
0
  6
Continuous
 62
     7
370
    25
100
AcDbLine
 10
138.1112413503
 20
94.352029987
 30
0.0
 11
133.611241544
 21
94.352029987
 31
0.0
  0
LINE
  5
A3
330
1F
100
AcDbEntity
  8
0
  6
Continuous
 62
     7
370
    25
100
AcDbLine
 10
133.611241544
 20
83.8520301286
 30
0.0
 11
138.1112413503
 21
83.8520301286
 31
0.0
  0
LINE
  5
A4
330
1F
100
AcDbEntity
  8
0
  6
Continuous
 62
     7
370
    25
100
AcDbLine
 10
111.5912424422
 20
93.6820300076
 30
0.0
 11
111.1112425126
 21
93.2020300779
 31
0.0
  0
LINE
  5
A5
330
1F
100
AcDbEntity
  8
0
  6
Continuous
 62
     7
370
    25
100
AcDbLine
 10
111.1112425126
 20
85.0020300377
 30
0.0
 11
111.5912424422
 21
84.522030108
 31
0.0
  0
LINE
  5
A6
330
1F
100
AcDbEntity
  8
0
  6
Continuous
 62
     7
370
    25
100
AcDbLine
 10
141.111241842
 20
89.1020300578
 30
0.0
 11
141.111241842
 21
98.852030259
 31
0.0
  0
LINE
  5
A7
330
1F
100
AcDbEntity
  8
0
  6
Continuous
 62
     7
370
    25
100
AcDbLine
 10
141.111241842
 20
79.3520298566
 30
0.0
 11
141.111241842
 21
89.1020300578
 31
0.0
  0
LINE
  5
A8
330
1F
100
AcDbEntity
  8
0
  6
Continuous
 62
     7
370
    25
100
AcDbLine
 10
141.3612414173
 20
89.1020300578
 30
0.0
 11
141.3612414173
 21
79.1020302813
 31
0.0
  0
LINE
  5
A9
330
1F
100
AcDbEntity
  8
0
  6
Continuous
 62
     7
370
    25
100
AcDbLine
 10
141.3612414173
 20
99.1020298343
 30
0.0
 11
141.3612414173
 21
89.1020300578
 31
0.0
  0
LINE
  5
AA
330
1F
100
AcDbEntity
  8
0
  6
Continuous
 62
     7
370
    25
100
AcDbLine
 10
158.993208038
 20
79.1020302813
 30
0.0
 11
158.993208038
 21
99.1020298343
 31
0.0
  0
LINE
  5
AB
330
1F
100
AcDbEntity
  8
0
  6
Continuous
 62
     7
370
    25
100
AcDbLine
 10
160.611241313
 20
79.1020302813
 30
0.0
 11
160.611241313
 21
99.1020298343
 31
0.0
  0
SPLINE
  5
AC
330
1F
100
AcDbEntity
  8
0
  6
Continuous
 62
     7
370
    25
100
AcDbSpline
210
0.0
220
0.0
230
1.0
 70
     8
 71
     3
 72
     8
 73
     4
 74
     0
 42
0.000000001
 43
0.00000001
 40
0.0
 40
0.0
 40
0.0
 40
0.0
 40
1.0
 40
1.0
 40
1.0
 40
1.0
 10
158.708442743151
 20
83.7023402063076
 30
0.0
 10
158.640606325575
 20
83.67097726529681
 30
0.0
 10
158.6112416184971
 20
83.63750910464726
 30
0.0
 10
158.6112416184971
 20
83.60203005780349
 30
0.0
  0
SPLINE
  5
AD
330
1F
100
AcDbEntity
  8
0
  6
Continuous
 62
     7
370
    25
100
AcDbSpline
210
0.0
220
0.0
230
1.0
 70
     8
 71
     3
 72
    12
 73
     8
 74
     0
 42
0.000000001
 43
0.00000001
 40
0.0
 40
0.0
 40
0.0
 40
0.0
 40
0.5000000000000001
 40
0.5000000000000001
 40
0.75
 40
0.75
 40
1.0
 40
1.0
 40
1.0
 40
1.0
 10
158.708442743151
 20
83.7023402063076
 30
0.0
 10
158.7763125031609
 20
83.7337185625897
 30
0.0
 10
158.8523470544146
 20
83.86742708308824
 30
0.0
 10
158.8989916527916
 20
84.14545319275402
 30
0.0
 10
158.9034306493142
 20
84.25229937675797
 30
0.0
 10
158.8877000355214
 20
84.47918085081372
 30
0.0
 10
158.867819605579
 20
84.59934982311835
 30
0.0
 10
158.8403276855992
 20
84.72079946792859
 30
0.0
  0
SPLINE
  5
AE
330
1F
100
AcDbEntity
  8
0
  6
Continuous
 62
     7
370
    25
100
AcDbSpline
210
0.0
220
0.0
230
1.0
 70
     8
 71
     3
 72
    12
 73
     8
 74
     0
 42
0.000000001
 43
0.00000001
 40
0.0
 40
0.0
 40
0.0
 40
0.0
 40
0.5
 40
0.5
 40
0.75
 40
0.75
 40
1.0
 40
1.0
 40
1.0
 40
1.0
 10
158.6112416184971
 20
89.1020300578035
 30
0.0
 10
158.6112416184971
 20
88.36807303564628
 30
0.0
 10
158.6066842234979
 20
87.63509459128348
 30
0.0
 10
158.6338678878772
 20
86.53827047833707
 30
0.0
 10
158.6493175587944
 20
86.17312288976663
 30
0.0
 10
158.7121811603262
 20
85.44433487590258
 30
0.0
 10
158.7592110834945
 20
85.07914412050425
 30
0.0
 10
158.8403276855992
 20
84.72079946792859
 30
0.0
  0
SPLINE
  5
AF
330
1F
100
AcDbEntity
  8
0
  6
Continuous
 62
     7
370
    25
100
AcDbSpline
210
0.0
220
0.0
230
1.0
 70
     8
 71
     3
 72
    12
 73
     8
 74
     0
 42
0.000000001
 43
0.00000001
 40
0.0
 40
0.0
 40
0.0
 40
0.0
 40
0.25
 40
0.25
 40
0.5
 40
0.5
 40
1.0
 40
1.0
 40
1.0
 40
1.0
 10
158.8403276855992
 20
93.48326064767839
 30
0.0
 10
158.7592110834945
 20
93.12491599510273
 30
0.0
 10
158.7121811603262
 20
92.7597252397044
 30
0.0
 10
158.6493175587944
 20
92.03093722584035
 30
0.0
 10
158.6338678878772
 20
91.66578963726991
 30
0.0
 10
158.6066842234979
 20
90.56896552432352
 30
0.0
 10
158.6112416184971
 20
89.83598707996072
 30
0.0
 10
158.6112416184971
 20
89.10203005780349
 30
0.0
  0
SPLINE
  5
B0
330
1F
100
AcDbEntity
  8
0
  6
Continuous
 62
     7
370
    25
100
AcDbSpline
210
0.0
220
0.0
230
1.0
 70
     8
 71
     3
 72
    14
 73
    10
 74
     0
 42
0.000000001
 43
0.00000001
 40
0.0
 40
0.0
 40
0.0
 40
0.0
 40
0.25
 40
0.25
 40
0.5
 40
0.5
 40
0.75
 40
0.75
 40
1.0
 40
1.0
 40
1.0
 40
1.0
 10
158.8403276855992
 20
93.48326064767839
 30
0.0
 10
158.8678486733442
 20
93.60483870366411
 30
0.0
 10
158.8877685951806
 20
93.72536344068924
 30
0.0
 10
158.9034356369987
 20
93.95233969979734
 30
0.0
 10
158.8989438051864
 20
94.05930967736352
 30
0.0
 10
158.8676874599028
 20
94.24477522914324
 30
0.0
 10
158.841314876521
 20
94.32366049026209
 30
0.0
 10
158.7784783253767
 20
94.44429828143518
 30
0.0
 10
158.7424387465166
 20
94.48600247187778
 30
0.0
 10
158.708442743151
 20
94.50171990929938
 30
0.0
  0
SPLINE
  5
B1
330
1F
100
AcDbEntity
  8
0
  6
Continuous
 62
     7
370
    25
100
AcDbSpline
210
0.0
220
0.0
230
1.0
 70
     8
 71
     3
 72
     8
 73
     4
 74
     0
 42
0.000000001
 43
0.00000001
 40
0.0
 40
0.0
 40
0.0
 40
0.0
 40
1.0
 40
1.0
 40
1.0
 40
1.0
 10
158.6112416184971
 20
94.60203005780349
 30
0.0
 10
158.6112416184971
 20
94.56655101095971
 30
0.0
 10
158.640606325575
 20
94.53308285031017
 30
0.0
 10
158.708442743151
 20
94.50171990929938
 30
0.0
  0
LINE
  5
B2
330
1F
100
AcDbEntity
  8
0
  6
Continuous
 62
     7
370
    25
100
AcDbLine
 10
158.6112414509
 20
94.602030028
 30
0.0
 11
158.6112414509
 21
98.1020296704
 31
0.0
  0
LINE
  5
B3
330
1F
100
AcDbEntity
  8
0
  6
Continuous
 62
     7
370
    25
100
AcDbLine
 10
158.6112414509
 20
80.1020304452
 30
0.0
 11
158.6112414509
 21
83.6020300876
 31
0.0
  0
LINE
  5
B4
330
1F
100
AcDbEntity
  8
0
  6
Continuous
 62
     7
370
    25
100
AcDbLine
 10
161.111241395
 20
98.6020297523
 30
0.0
 11
161.111241395
 21
79.6020303633
 31
0.0
  0
LINE
  5
B5
330
1F
100
AcDbEntity
  8
0
  6
Continuous
 62
     7
370
    25
100
AcDbLine
 10
143.229275199
 20
89.1020300578
 30
0.0
 11
143.229275199
 21
79.1020302813
 31
0.0
  0
LINE
  5
B6
330
1F
100
AcDbEntity
  8
0
  6
Continuous
 62
     7
370
    25
100
AcDbLine
 10
143.229275199
 20
99.1020298343
 30
0.0
 11
143.229275199
 21
89.1020300578
 31
0.0
  0
LINE
  5
B7
330
1F
100
AcDbEntity
  8
0
  6
Continuous
 62
     7
370
    25
100
AcDbLine
 10
143.6112417861
 20
98.1020296704
 30
0.0
 11
143.6112417861
 21
94.602030028
 31
0.0
  0
SPLINE
  5
B8
330
1F
100
AcDbEntity
  8
0
  6
Continuous
 62
     7
370
    25
100
AcDbSpline
210
0.0
220
0.0
230
1.0
 70
     8
 71
     3
 72
     8
 73
     4
 74
     0
 42
0.000000001
 43
0.00000001
 40
0.0
 40
0.0
 40
0.0
 40
0.0
 40
1.0
 40
1.0
 40
1.0
 40
1.0
 10
143.5140404938432
 20
94.50171990929938
 30
0.0
 10
143.5818769114193
 20
94.53308285031017
 30
0.0
 10
143.6112416184971
 20
94.56655101095971
 30
0.0
 10
143.6112416184971
 20
94.60203005780349
 30
0.0
  0
SPLINE
  5
B9
330
1F
100
AcDbEntity
  8
0
  6
Continuous
 62
     7
370
    25
100
AcDbSpline
210
0.0
220
0.0
230
1.0
 70
     8
 71
     3
 72
    12
 73
     8
 74
     0
 42
0.000000001
 43
0.00000001
 40
0.0
 40
0.0
 40
0.0
 40
0.0
 40
0.4999999999999992
 40
0.4999999999999992
 40
0.7499999999999996
 40
0.7499999999999996
 40
1.0
 40
1.0
 40
1.0
 40
1.0
 10
143.5140404938432
 20
94.50171990929938
 30
0.0
 10
143.4461707338334
 20
94.47034155301728
 30
0.0
 10
143.3701361825796
 20
94.33663303251875
 30
0.0
 10
143.3234915842027
 20
94.05860692285295
 30
0.0
 10
143.31905258768
 20
93.951760738849
 30
0.0
 10
143.3347832014729
 20
93.72487926479326
 30
0.0
 10
143.3546636314152
 20
93.60471029248863
 30
0.0
 10
143.3821555513951
 20
93.48326064767839
 30
0.0
  0
SPLINE
  5
BA
330
1F
100
AcDbEntity
  8
0
  6
Continuous
 62
     7
370
    25
100
AcDbSpline
210
0.0
220
0.0
230
1.0
 70
     8
 71
     3
 72
    12
 73
     8
 74
     0
 42
0.000000001
 43
0.00000001
 40
0.0
 40
0.0
 40
0.0
 40
0.0
 40
0.4999999999999998
 40
0.4999999999999998
 40
0.7499999999999999
 40
0.7499999999999999
 40
1.0
 40
1.0
 40
1.0
 40
1.0
 10
143.6112416184971
 20
89.10203005780347
 30
0.0
 10
143.6112416184971
 20
89.8359870799607
 30
0.0
 10
143.6157990134964
 20
90.5689655243235
 30
0.0
 10
143.5886153491171
 20
91.66578963726991
 30
0.0
 10
143.5731656781999
 20
92.03093722584035
 30
0.0
 10
143.510302076668
 20
92.7597252397044
 30
0.0
 10
143.4632721534997
 20
93.12491599510273
 30
0.0
 10
143.3821555513951
 20
93.48326064767839
 30
0.0
  0
SPLINE
  5
BB
330
1F
100
AcDbEntity
  8
0
  6
Continuous
 62
     7
370
    25
100
AcDbSpline
210
0.0
220
0.0
230
1.0
 70
     8
 71
     3
 72
    12
 73
     8
 74
     0
 42
0.000000001
 43
0.00000001
 40
0.0
 40
0.0
 40
0.0
 40
0.0
 40
0.2500000000000001
 40
0.2500000000000001
 40
0.5000000000000002
 40
0.5000000000000002
 40
1.0
 40
1.0
 40
1.0
 40
1.0
 10
143.3821555513951
 20
84.72079946792859
 30
0.0
 10
143.4632721534997
 20
85.07914412050425
 30
0.0
 10
143.510302076668
 20
85.44433487590258
 30
0.0
 10
143.5731656781999
 20
86.17312288976663
 30
0.0
 10
143.5886153491171
 20
86.53827047833707
 30
0.0
 10
143.6157990134964
 20
87.63509459128348
 30
0.0
 10
143.6112416184971
 20
88.36807303564628
 30
0.0
 10
143.6112416184971
 20
89.10203005780349
 30
0.0
  0
SPLINE
  5
BC
330
1F
100
AcDbEntity
  8
0
  6
Continuous
 62
     7
370
    25
100
AcDbSpline
210
0.0
220
0.0
230
1.0
 70
     8
 71
     3
 72
    14
 73
    10
 74
     0
 42
0.000000001
 43
0.00000001
 40
0.0
 40
0.0
 40
0.0
 40
0.0
 40
0.25
 40
0.25
 40
0.5
 40
0.5
 40
0.75
 40
0.75
 40
1.0
 40
1.0
 40
1.0
 40
1.0
 10
143.3821555513951
 20
84.72079946792859
 30
0.0
 10
143.35463456365
 20
84.59922141194286
 30
0.0
 10
143.3347146418136
 20
84.47869667491774
 30
0.0
 10
143.3190475999955
 20
84.25172041580964
 30
0.0
 10
143.3235394318079
 20
84.14475043824346
 30
0.0
 10
143.3547957770914
 20
83.95928488646373
 30
0.0
 10
143.3811683604732
 20
83.8803996253449
 30
0.0
 10
143.4440049116175
 20
83.7597618341718
 30
0.0
 10
143.4800444904776
 20
83.7180576437292
 30
0.0
 10
143.5140404938432
 20
83.7023402063076
 30
0.0
  0
SPLINE
  5
BD
330
1F
100
AcDbEntity
  8
0
  6
Continuous
 62
     7
370
    25
100
AcDbSpline
210
0.0
220
0.0
230
1.0
 70
     8
 71
     3
 72
     8
 73
     4
 74
     0
 42
0.000000001
 43
0.00000001
 40
0.0
 40
0.0
 40
0.0
 40
0.0
 40
1.0
 40
1.0
 40
1.0
 40
1.0
 10
143.6112416184971
 20
83.60203005780349
 30
0.0
 10
143.6112416184971
 20
83.63750910464726
 30
0.0
 10
143.5818769114193
 20
83.67097726529681
 30
0.0
 10
143.5140404938432
 20
83.7023402063076
 30
0.0
  0
LINE
  5
BE
330
1F
100
AcDbEntity
  8
0
  6
Continuous
 62
     7
370
    25
100
AcDbLine
 10
143.6112417861
 20
83.6020300876
 30
0.0
 11
143.6112417861
 21
80.1020304452
 31
0.0
  0
LWPOLYLINE
  5
BF
330
1F
100
AcDbEntity
  8
0
  6
Continuous
 62
     7
370
    25
100
AcDbPolyline
 90
        9
 70
   128
 43
0.0
 10
158.8403277121
 20
84.7207994912
 10
158.8058403715
 20
84.7111309658
 10
158.7643271334
 20
84.6994922276
 10
158.7165377125
 20
84.6860942211
 10
158.6633349791
 20
84.6711786244
 10
158.6056786611
 20
84.6550141241
 10
158.5446104429
 20
84.6378936212
 10
158.4812325447
 20
84.6201249178
 10
158.416689562
 20
84.6020302515
  0
SPLINE
  5
C0
330
1F
100
AcDbEntity
  8
0
  6
Continuous
 62
     7
370
    25
100
AcDbSpline
210
0.0
220
0.0
230
1.0
 70
     8
 71
     3
 72
    14
 73
    10
 74
     0
 42
0.000000001
 43
0.00000001
 40
0.0
 40
0.0
 40
0.0
 40
0.0
 40
0.2500000000000002
 40
0.2500000000000002
 40
0.5000000000000003
 40
0.5000000000000003
 40
0.7500000000000002
 40
0.7500000000000002
 40
1.0
 40
1.0
 40
1.0
 40
1.0
 10
158.4166897079665
 20
84.60203005780349
 30
0.0
 10
158.3141291901424
 20
84.96785262364934
 30
0.0
 10
158.2508162039915
 20
85.3434605390908
 30
0.0
 10
158.1655985408063
 20
86.09246577835948
 30
0.0
 10
158.1436804461277
 20
86.46794643600849
 30
0.0
 10
158.117907190348
 20
87.21976157472362
 30
0.0
 10
158.1141437048834
 20
87.59610038923897
 30
0.0
 10
158.1108323567775
 20
88.34897728808757
 30
0.0
 10
158.1112416184971
 20
88.72551334571654
 30
0.0
 10
158.1112416184971
 20
89.1020300578035
 30
0.0
  0
LINE
  5
C1
330
1F
100
AcDbEntity
  8
0
  6
Continuous
 62
     7
370
    25
100
AcDbLine
 10
158.6112414509
 20
89.1020300578
 30
0.0
 11
158.1112418346
 21
89.1020300578
 31
0.0
  0
SPLINE
  5
C2
330
1F
100
AcDbEntity
  8
0
  6
Continuous
 62
     7
370
    25
100
AcDbSpline
210
0.0
220
0.0
230
1.0
 70
     8
 71
     3
 72
    14
 73
    10
 74
     0
 42
0.000000001
 43
0.00000001
 40
0.0
 40
0.0
 40
0.0
 40
0.0
 40
0.2499999999999999
 40
0.2499999999999999
 40
0.4999999999999999
 40
0.4999999999999999
 40
0.7499999999999999
 40
0.7499999999999999
 40
1.0
 40
1.0
 40
1.0
 40
1.0
 10
158.1112416184971
 20
89.10203005780349
 30
0.0
 10
158.1112416184971
 20
89.47854676989044
 30
0.0
 10
158.1108323567775
 20
89.85508282751941
 30
0.0
 10
158.1141437048834
 20
90.607959726368
 30
0.0
 10
158.117907190348
 20
90.98429854088334
 30
0.0
 10
158.1436804461277
 20
91.7361136795985
 30
0.0
 10
158.1655985408063
 20
92.1115943372475
 30
0.0
 10
158.2508162039915
 20
92.86059957651618
 30
0.0
 10
158.3141291901424
 20
93.23620749195763
 30
0.0
 10
158.4166897079665
 20
93.60203005780349
 30
0.0
  0
LWPOLYLINE
  5
C3
330
1F
100
AcDbEntity
  8
0
  6
Continuous
 62
     7
370
    25
100
AcDbPolyline
 90
        9
 70
   128
 43
0.0
 10
158.8403277121
 20
93.4832606245
 10
158.8058403715
 20
93.4929291498
 10
158.7643271334
 20
93.504567888
 10
158.7165377125
 20
93.5179658945
 10
158.6633349791
 20
93.5328814912
 10
158.6056786611
 20
93.5490459915
 10
158.5446104429
 20
93.5661664944
 10
158.4812325447
 20
93.5839351978
 10
158.416689562
 20
93.6020298641
  0
SPLINE
  5
C4
330
1F
100
AcDbEntity
  8
0
  6
Continuous
 62
     7
370
    25
100
AcDbSpline
210
0.0
220
0.0
230
1.0
 70
     8
 71
     3
 72
    14
 73
    10
 74
     0
 42
0.000000001
 43
0.00000001
 40
0.0
 40
0.0
 40
0.0
 40
0.0
 40
0.2500000000000001
 40
0.2500000000000001
 40
0.5000000000000001
 40
0.5000000000000001
 40
0.7500000000000001
 40
0.7500000000000001
 40
1.0
 40
1.0
 40
1.0
 40
1.0
 10
144.1112416184971
 20
89.10203005780349
 30
0.0
 10
144.1112416184971
 20
88.72551334571652
 30
0.0
 10
144.1116508802168
 20
88.34897728808755
 30
0.0
 10
144.1083395321109
 20
87.59610038923897
 30
0.0
 10
144.1045760466462
 20
87.21976157472362
 30
0.0
 10
144.0788027908665
 20
86.46794643600849
 30
0.0
 10
144.056884696188
 20
86.09246577835947
 30
0.0
 10
143.9716670330027
 20
85.3434605390908
 30
0.0
 10
143.9083540468519
 20
84.96785262364934
 30
0.0
 10
143.8057935290277
 20
84.60203005780349
 30
0.0
  0
LWPOLYLINE
  5
C5
330
1F
100
AcDbEntity
  8
0
  6
Continuous
 62
     7
370
    25
100
AcDbPolyline
 90
        9
 70
   128
 43
0.0
 10
143.805793675
 20
84.6020302515
 10
143.7412506923
 20
84.6201249178
 10
143.6778727941
 20
84.6378936212
 10
143.6168045759
 20
84.6550141241
 10
143.5591482579
 20
84.6711786244
 10
143.5059455245
 20
84.6860942211
 10
143.4581561036
 20
84.6994922276
 10
143.4166428655
 20
84.7111309658
 10
143.3821555249
 20
84.7207994912
  0
LINE
  5
C6
330
1F
100
AcDbEntity
  8
0
  6
Continuous
 62
     7
370
    25
100
AcDbLine
 10
144.1112414024
 20
89.1020300578
 30
0.0
 11
143.6112417861
 21
89.1020300578
 31
0.0
  0
SPLINE
  5
C7
330
1F
100
AcDbEntity
  8
0
  6
Continuous
 62
     7
370
    25
100
AcDbSpline
210
0.0
220
0.0
230
1.0
 70
     8
 71
     3
 72
    14
 73
    10
 74
     0
 42
0.000000001
 43
0.00000001
 40
0.0
 40
0.0
 40
0.0
 40
0.0
 40
0.2500000000000001
 40
0.2500000000000001
 40
0.5000000000000001
 40
0.5000000000000001
 40
0.75
 40
0.75
 40
1.0
 40
1.0
 40
1.0
 40
1.0
 10
143.8057935290277
 20
93.60203005780349
 30
0.0
 10
143.9083540468519
 20
93.23620749195763
 30
0.0
 10
143.9716670330027
 20
92.86059957651618
 30
0.0
 10
144.056884696188
 20
92.1115943372475
 30
0.0
 10
144.0788027908665
 20
91.73611367959849
 30
0.0
 10
144.1045760466462
 20
90.98429854088334
 30
0.0
 10
144.1083395321109
 20
90.607959726368
 30
0.0
 10
144.1116508802168
 20
89.8550828275194
 30
0.0
 10
144.1112416184971
 20
89.47854676989044
 30
0.0
 10
144.1112416184971
 20
89.10203005780349
 30
0.0
  0
LWPOLYLINE
  5
C8
330
1F
100
AcDbEntity
  8
0
  6
Continuous
 62
     7
370
    25
100
AcDbPolyline
 90
        9
 70
   128
 43
0.0
 10
143.805793675
 20
93.6020298641
 10
143.7412506923
 20
93.5839351978
 10
143.6778727941
 20
93.5661664944
 10
143.6168045759
 20
93.5490459915
 10
143.5591482579
 20
93.5328814912
 10
143.5059455245
 20
93.5179658945
 10
143.4581561036
 20
93.504567888
 10
143.4166428655
 20
93.4929291498
 10
143.3821555249
 20
93.4832606245
  0
SPLINE
  5
C9
330
1F
100
AcDbEntity
  8
0
  6
Continuous
 62
     7
370
    25
100
AcDbSpline
210
0.0
220
0.0
230
1.0
 70
     8
 71
     3
 72
    14
 73
    10
 74
     0
 42
0.000000001
 43
0.00000001
 40
0.0
 40
0.0
 40
0.0
 40
0.0
 40
0.25
 40
0.25
 40
0.5
 40
0.5
 40
0.75
 40
0.75
 40
1.0
 40
1.0
 40
1.0
 40
1.0
 10
143.9816401189586
 20
84.10203005780349
 30
0.0
 10
143.943164635337
 20
84.10203005780349
 30
0.0
 10
143.902075713867
 20
84.1128166287867
 30
0.0
 10
143.8227928664264
 20
84.15574841585186
 30
0.0
 10
143.7855099653159
 20
84.18716592415673
 30
0.0
 10
143.7327042060041
 20
84.27848076973297
 30
0.0
 10
143.7207349459105
 20
84.33971125249721
 30
0.0
 10
143.7407367342827
 20
84.47057461315293
 30
0.0
 10
143.770193189835
 20
84.53853872749052
 30
0.0
 10
143.8057935290277
 20
84.60203005780349
 30
0.0
  0
ARC
  5
CA
330
1F
100
AcDbEntity
  8
0
  6
Continuous
 62
     7
370
    25
100
AcDbCircle
 10
143.9901888627
 20
83.6186603346
 30
0.0
 40
0.4834454273381097
100
AcDbArc
 50
91.0132315313
 51
170.0324555796
  0
SPLINE
  5
CB
330
1F
100
AcDbEntity
  8
0
  6
Continuous
 62
     7
370
    25
100
AcDbSpline
210
0.0
220
0.0
230
1.0
 70
     8
 71
     3
 72
    14
 73
    10
 74
     0
 42
0.000000001
 43
0.00000001
 40
0.0
 40
0.0
 40
0.0
 40
0.0
 40
0.25
 40
0.25
 40
0.5
 40
0.5
 40
0.75
 40
0.75
 40
1.0
 40
1.0
 40
1.0
 40
1.0
 10
158.2408431180357
 20
94.10203005780349
 30
0.0
 10
158.2793186016573
 20
94.10203005780349
 30
0.0
 10
158.3204075231273
 20
94.09124348682028
 30
0.0
 10
158.3996903705679
 20
94.0483116997551
 30
0.0
 10
158.4369732716783
 20
94.01689419145023
 30
0.0
 10
158.4897790309901
 20
93.92557934587401
 30
0.0
 10
158.5017482910837
 20
93.86434886310977
 30
0.0
 10
158.4817465027116
 20
93.73348550245404
 30
0.0
 10
158.4522900471593
 20
93.66552138811646
 30
0.0
 10
158.4166897079665
 20
93.60203005780349
 30
0.0
  0
ARC
  5
CC
330
1F
100
AcDbEntity
  8
0
  6
Continuous
 62
     7
370
    25
100
AcDbCircle
 10
158.2322943743
 20
94.585399781
 30
0.0
 40
0.4834454273380808
100
AcDbArc
 50
271.0132315312
 51
350.0324555796
  0
SPLINE
  5
CD
330
1F
100
AcDbEntity
  8
0
  6
Continuous
 62
     7
370
    25
100
AcDbSpline
210
0.0
220
0.0
230
1.0
 70
     8
 71
     3
 72
    16
 73
    12
 74
     0
 42
0.000000001
 43
0.00000001
 40
0.0
 40
0.0
 40
0.0
 40
0.0
 40
0.2500000000000049
 40
0.2500000000000049
 40
0.3750000000000051
 40
0.3750000000000051
 40
0.5000000000000052
 40
0.5000000000000052
 40
0.7500000000000026
 40
0.7500000000000026
 40
1.0
 40
1.0
 40
1.0
 40
1.0
 10
143.8057935290277
 20
93.60203005780349
 30
0.0
 10
143.7702395995791
 20
93.66543861878168
 30
0.0
 10
143.7409674583504
 20
93.7327059191025
 30
0.0
 10
143.7257549081295
 20
93.83114523024484
 30
0.0
 10
143.725694239956
 20
93.86362063660013
 30
0.0
 10
143.7359048244333
 20
93.92224584372633
 30
0.0
 10
143.7456881539585
 20
93.94786865527932
 30
0.0
 10
143.7848527024905
 20
94.01607749897477
 30
0.0
 10
143.8227257757638
 20
94.04824025414055
 30
0.0
 10
143.9017987487553
 20
94.09112847325643
 30
0.0
 10
143.9431858813461
 20
94.10203005780349
 30
0.0
 10
143.9816401189586
 20
94.10203005780349
 30
0.0
  0
ARC
  5
CE
330
1F
100
AcDbEntity
  8
0
  6
Continuous
 62
     7
370
    25
100
AcDbCircle
 10
143.9901888627
 20
94.585399781
 30
0.0
 40
0.483445427338104
100
AcDbArc
 50
189.9675444204
 51
268.9867684687
  0
ARC
  5
CF
330
1F
100
AcDbEntity
  8
0
  6
Continuous
 62
     7
370
    25
100
AcDbCircle
 10
158.2322943743
 20
83.6186603346
 30
0.0
 40
0.4834454273381092
100
AcDbArc
 50
9.9675444204
 51
88.9867684688
  0
SPLINE
  5
D0
330
1F
100
AcDbEntity
  8
0
  6
Continuous
 62
     7
370
    25
100
AcDbSpline
210
0.0
220
0.0
230
1.0
 70
     8
 71
     3
 72
    16
 73
    12
 74
     0
 42
0.000000001
 43
0.00000001
 40
0.0
 40
0.0
 40
0.0
 40
0.0
 40
0.2499999999999999
 40
0.2499999999999999
 40
0.3750000000000003
 40
0.3750000000000003
 40
0.5000000000000007
 40
0.5000000000000007
 40
0.7500000000000003
 40
0.7500000000000003
 40
1.0
 40
1.0
 40
1.0
 40
1.0
 10
158.4166897079665
 20
84.60203005780349
 30
0.0
 10
158.4522436374152
 20
84.5386214968253
 30
0.0
 10
158.4815157786439
 20
84.47135419650448
 30
0.0
 10
158.4967283288647
 20
84.37291488536214
 30
0.0
 10
158.4967889970383
 20
84.34043947900685
 30
0.0
 10
158.486578412561
 20
84.28181427188063
 30
0.0
 10
158.4767950830357
 20
84.25619146032766
 30
0.0
 10
158.4376305345038
 20
84.18798261663221
 30
0.0
 10
158.3997574612305
 20
84.15581986146643
 30
0.0
 10
158.3206844882389
 20
84.11293164235055
 30
0.0
 10
158.2792973556481
 20
84.10203005780349
 30
0.0
 10
158.2408431180357
 20
84.10203005780349
 30
0.0
  0
LINE
  5
D1
330
1F
100
AcDbEntity
  8
0
  6
Continuous
 62
     7
370
    25
100
AcDbLine
 10
158.2408432871
 20
84.1020301696
 30
0.0
 11
143.9816399499
 21
84.1020301696
 31
0.0
  0
LINE
  5
D2
330
1F
100
AcDbEntity
  8
0
  6
Continuous
 62
     7
370
    25
100
AcDbLine
 10
143.805793675
 20
84.6020302515
 30
0.0
 11
158.416689562
 21
84.6020302515
 31
0.0
  0
LINE
  5
D3
330
1F
100
AcDbEntity
  8
0
  6
Continuous
 62
     7
370
    25
100
AcDbLine
 10
147.8172980271
 20
88.5468904407
 30
0.0
 11
148.3031769305
 21
88.5468904407
 31
0.0
  0
ELLIPSE
  5
D4
330
1F
100
AcDbEntity
  8
0
  6
Continuous
 62
     7
370
    25
100
AcDbEllipse
 10
147.8172981375
 20
88.6115638076
 30
0.0
 11
0.06784129479237322
 21
0.0
 31
0.0
210
0.0
220
0.0
230
1.0
 40
0.9533039403
 41
2.798568711307185
 42
4.712388980384703
  0
LINE
  5
D5
330
1F
100
AcDbEntity
  8
0
  6
Continuous
 62
     7
370
    25
100
AcDbLine
 10
147.9963485173
 20
89.2817819067
 30
0.0
 11
147.7534090656
 21
88.6333158078
 31
0.0
  0
ELLIPSE
  5
D6
330
1F
100
AcDbEntity
  8
0
  6
Continuous
 62
     7
370
    25
100
AcDbEllipse
 10
148.0602374824
 20
89.2600299013
 30
0.0
 11
0.06784129479268586
 21
0.0
 31
0.0
210
0.0
220
0.0
230
1.0
 40
0.9533039403
 41
0.343023938558097
 42
2.798568711309076
  0
LINE
  5
D7
330
1F
100
AcDbEntity
  8
0
  6
Continuous
 62
     7
370
    25
100
AcDbLine
 10
148.3670658919
 20
88.6333158078
 30
0.0
 11
148.1241264402
 21
89.2817819067
 31
0.0
  0
ELLIPSE
  5
D8
330
1F
100
AcDbEntity
  8
0
  6
Continuous
 62
     7
370
    25
100
AcDbEllipse
 10
148.3031768245
 20
88.6115638076
 30
0.0
 11
-0.06784129479237322
 21
0.0
 31
0.0
210
0.0
220
0.0
230
1.0
 40
0.9533039403
 41
1.570796326794897
 42
3.484616592149797
  0
LINE
  5
D9
330
1F
100
AcDbEntity
  8
0
  6
Continuous
 62
     7
370
    25
100
AcDbLine
 10
158.416689562
 20
93.6020298641
 30
0.0
 11
143.805793675
 21
93.6020298641
 31
0.0
  0
LINE
  5
DA
330
1F
100
AcDbEntity
  8
0
  6
Continuous
 62
     7
370
    25
100
AcDbLine
 10
143.9816399499
 20
94.102029946
 30
0.0
 11
158.2408432871
 21
94.102029946
 31
0.0
  0
ARC
  5
DB
330
1F
100
AcDbEntity
  8
0
  6
Continuous
 62
     7
370
    25
100
AcDbCircle
 10
154.9746077044
 20
88.2969839173
 30
0.0
 40
0.7112000000000337
100
AcDbArc
 50
45.0
 51
159.0751675723
  0
LINE
  5
DC
330
1F
100
AcDbEntity
  8
0
  6
Continuous
 62
     7
370
    25
100
AcDbLine
 10
155.8507901638
 20
87.4208013074
 30
0.0
 11
155.4775021061
 21
87.794089598
 31
0.0
  0
ELLIPSE
  5
DD
330
1F
100
AcDbEntity
  8
0
  6
Continuous
 62
     7
370
    25
100
AcDbEllipse
 10
149.6691474774
 20
87.1025820702
 30
0.0
 11
0.0678412947923448
 21
0.0
 31
0.0
210
0.0
220
0.0
230
1.0
 40
0.9533039403
 41
3.96259465055478
 42
5.819537698175198
  0
LINE
  5
DE
330
1F
100
AcDbEntity
  8
0
  6
Continuous
 62
     7
370
    25
100
AcDbLine
 10
149.7298265596
 20
87.073659316
 30
0.0
 11
150.36684148
 21
88.288196911
 31
0.0
  0
ELLIPSE
  5
DF
330
1F
100
AcDbEntity
  8
0
  6
Continuous
 62
     7
370
    25
100
AcDbEllipse
 10
146.0662630935
 20
88.7135556596
 30
0.0
 11
-0.5427303583406342
 21
3.552713678800501E-13
 31
0.0
210
0.0
220
0.0
230
1.0
 40
0.9533039403
 41
1.047197551196603
 42
2.813039483039315
  0
LINE
  5
E0
330
1F
100
AcDbEntity
  8
0
  6
Continuous
 62
     7
370
    25
100
AcDbLine
 10
145.7536334194
 20
88.288196911
 30
0.0
 11
146.3906482815
 21
87.073659316
 31
0.0
  0
ELLIPSE
  5
E1
330
1F
100
AcDbEntity
  8
0
  6
Continuous
 62
     7
370
    25
100
AcDbEllipse
 10
150.0544467047
 20
88.7128989725
 30
0.0
 11
0.5427303583402932
 21
3.694822225952521E-13
 31
0.0
210
0.0
220
0.0
230
1.0
 40
0.9533039404
 41
3.470145824142399
 42
5.252469180527896
  0
ARC
  5
E2
330
1F
100
AcDbEntity
  8
0
  6
Continuous
 62
     7
370
    25
100
AcDbCircle
 10
152.3008920273
 20
88.2969839173
 30
0.0
 40
1.239109388553836
100
AcDbArc
 50
45.0
 51
315.0
  0
ARC
  5
E3
330
1F
100
AcDbEntity
  8
0
  6
Continuous
 62
     7
370
    25
100
AcDbCircle
 10
154.9746077044
 20
88.2969839173
 30
0.0
 40
0.7112000000000739
100
AcDbArc
 50
200.9248324276
 51
315.0
  0
ELLIPSE
  5
E4
330
1F
100
AcDbEntity
  8
0
  6
Continuous
 62
     7
370
    25
100
AcDbEllipse
 10
148.0602374808
 20
85.4555031738
 30
0.0
 11
2.293035763987604
 21
-1.065814103640150E-12
 31
0.0
210
0.0
220
0.0
230
1.0
 40
0.9533039403
 41
0.8210019969646025
 42
2.320590656625123
  0
LINE
  5
E5
330
1F
100
AcDbEntity
  8
0
  6
Continuous
 62
     7
370
    25
100
AcDbLine
 10
147.5874518066
 20
91.3639080491
 30
0.0
 11
146.5799628779
 21
88.5466083664
 31
0.0
  0
ELLIPSE
  5
E6
330
1F
100
AcDbEntity
  8
0
  6
Continuous
 62
     7
370
    25
100
AcDbEllipse
 10
148.0602374808
 20
91.154035809
 30
0.0
 11
0.5215299537176463
 21
0.0
 31
0.0
210
0.0
220
0.0
230
1.0
 40
0.9533039403
 41
0.4357918987552989
 42
2.705800754834474
  0
LINE
  5
E7
330
1F
100
AcDbEntity
  8
0
  6
Continuous
 62
     7
370
    25
100
AcDbLine
 10
155.4775021061
 20
88.7998782518
 30
0.0
 11
155.8507901638
 21
89.1731665715
 31
0.0
  0
LINE
  5
E8
330
1F
100
AcDbEntity
  8
0
  6
Continuous
 62
     7
370
    25
100
AcDbLine
 10
152.8037864038
 20
88.7998782518
 30
0.0
 11
153.177074578
 21
89.1731665715
 31
0.0
  0
ARC
  5
E9
330
1F
100
AcDbEntity
  8
0
  6
Continuous
 62
     7
370
    25
100
AcDbCircle
 10
152.3008920273
 20
88.2969839173
 30
0.0
 40
0.7111999999997725
100
AcDbArc
 50
45.0
 51
315.0
  0
LINE
  5
EA
330
1F
100
AcDbEntity
  8
0
  6
Continuous
 62
     7
370
    25
100
AcDbLine
 10
153.177074578
 20
87.4208013074
 30
0.0
 11
152.8037864038
 21
87.794089598
 31
0.0
  0
LINE
  5
EB
330
1F
100
AcDbEntity
  8
0
  6
Continuous
 62
     7
370
    25
100
AcDbLine
 10
145.7948979944
 20
88.2654853876
 30
0.0
 11
145.7536334194
 21
88.288196911
 31
0.0
  0
LINE
  5
EC
330
1F
100
AcDbEntity
  8
0
  6
Continuous
 62
     7
370
    25
100
AcDbLine
 10
154.3103116121
 20
88.0429839262
 30
0.0
 11
155.8507901638
 21
88.0429839262
 31
0.0
  0
ELLIPSE
  5
ED
330
1F
100
AcDbEntity
  8
0
  6
Continuous
 62
     7
370
    25
100
AcDbEllipse
 10
146.4513274842
 20
87.1025820702
 30
0.0
 11
0.06784129479237322
 21
0.0
 31
0.0
210
0.0
220
0.0
230
1.0
 40
0.9533039403
 41
3.605240262580905
 42
5.462183310226562
  0
ARC
  5
EE
330
1F
100
AcDbEntity
  8
0
  6
Continuous
 62
     7
370
    25
100
AcDbCircle
 10
154.9746077044
 20
88.2969839173
 30
0.0
 40
1.239109388553836
100
AcDbArc
 50
45.0
 51
315.0
  0
LINE
  5
EF
330
1F
100
AcDbEntity
  8
0
  6
Continuous
 62
     7
370
    25
100
AcDbLine
 10
155.8507901638
 20
88.5509838945
 30
0.0
 11
154.3103116121
 21
88.5509838945
 31
0.0
  0
LINE
  5
F0
330
1F
100
AcDbEntity
  8
0
  6
Continuous
 62
     7
370
    25
100
AcDbLine
 10
155.8507901638
 20
88.0429839262
 30
0.0
 11
155.8507901638
 21
88.5509838945
 31
0.0
  0
LINE
  5
F1
330
1F
100
AcDbEntity
  8
0
  6
Continuous
 62
     7
370
    25
100
AcDbLine
 10
150.36684148
 20
88.288196911
 30
0.0
 11
150.3335212612
 21
88.2691529941
 31
0.0
  0
LINE
  5
F2
330
1F
100
AcDbEntity
  8
0
  6
Continuous
 62
     7
370
    25
100
AcDbLine
 10
149.5407468894
 20
88.5459516676
 30
0.0
 11
148.533023151
 21
91.3639080491
 31
0.0
  0
ARC
  5
F3
330
1F
100
AcDbEntity
  8
0
  6
Continuous
 62
     7
370
    25
100
AcDbCircle
 10
158.1112416185
 20
83.6020300578
 30
0.0
 40
0.5
100
AcDbArc
 50
0.0
 51
90.0
  0
ARC
  5
F4
330
1F
100
AcDbEntity
  8
0
  6
Continuous
 62
     7
370
    25
100
AcDbCircle
 10
144.1112416185
 20
83.6020300578
 30
0.0
 40
0.5
100
AcDbArc
 50
90.0
 51
180.0
  0
ARC
  5
F5
330
1F
100
AcDbEntity
  8
0
  6
Continuous
 62
     7
370
    25
100
AcDbCircle
 10
158.1112416185
 20
94.6020300578
 30
0.0
 40
0.5
100
AcDbArc
 50
270.0
 51
0.0
  0
ARC
  5
F6
330
1F
100
AcDbEntity
  8
0
  6
Continuous
 62
     7
370
    25
100
AcDbCircle
 10
144.1112416185
 20
94.6020300578
 30
0.0
 40
0.5
100
AcDbArc
 50
180.0
 51
270.0
  0
LWPOLYLINE
  5
F7
330
1F
100
AcDbEntity
  8
0
  6
Continuous
 62
     7
370
    25
100
AcDbPolyline
 90
        9
 70
   128
 43
0.0
 10
158.1112418346
 20
94.2964747328
 10
158.2087866984
 20
94.3023457903
 10
158.3025834545
 20
94.3197335828
 10
158.3890269532
 20
94.3479698863
 10
158.464795167
 20
94.3859697099
 10
158.5269763156
 20
94.4322722744
 10
158.5731815569
 20
94.4850992191
 10
158.6016343928
 20
94.5424193296
 10
158.6112414509
 20
94.602030028
  0
LINE
  5
F8
330
1F
100
AcDbEntity
  8
0
  6
Continuous
 62
     7
370
    25
100
AcDbLine
 10
158.1112418346
 20
94.102029946
 30
0.0
 11
158.1112418346
 21
94.2964747328
 31
0.0
  0
LINE
  5
F9
330
1F
100
AcDbEntity
  8
0
  6
Continuous
 62
     7
370
    25
100
AcDbLine
 10
158.1112418346
 20
83.9075853828
 30
0.0
 11
144.1112414024
 21
83.9075853828
 31
0.0
  0
LINE
  5
FA
330
1F
100
AcDbEntity
  8
0
  6
Continuous
 62
     7
370
    25
100
AcDbLine
 10
144.1112414024
 20
83.9075853828
 30
0.0
 11
144.1112414024
 21
84.1020301696
 31
0.0
  0
LINE
  5
FB
330
1F
100
AcDbEntity
  8
0
  6
Continuous
 62
     7
370
    25
100
AcDbLine
 10
158.1112418346
 20
83.9075853828
 30
0.0
 11
158.1112418346
 21
84.1020301696
 31
0.0
  0
LWPOLYLINE
  5
FC
330
1F
100
AcDbEntity
  8
0
  6
Continuous
 62
     7
370
    25
100
AcDbPolyline
 90
        9
 70
   128
 43
0.0
 10
143.6112417861
 20
94.602030028
 10
143.6208488442
 20
94.5424193296
 10
143.6493016801
 20
94.4850992191
 10
143.6955069214
 20
94.4322722744
 10
143.75768807
 20
94.3859697099
 10
143.8334562838
 20
94.3479698863
 10
143.9198997825
 20
94.3197335828
 10
144.0136965386
 20
94.3023457903
 10
144.1112414024
 20
94.2964747328
  0
LINE
  5
FD
330
1F
100
AcDbEntity
  8
0
  6
Continuous
 62
     7
370
    25
100
AcDbLine
 10
144.1112414024
 20
94.102029946
 30
0.0
 11
144.1112414024
 21
94.2964747328
 31
0.0
  0
LWPOLYLINE
  5
FE
330
1F
100
AcDbEntity
  8
0
  6
Continuous
 62
     7
370
    25
100
AcDbPolyline
 90
        9
 70
   128
 43
0.0
 10
144.1112414024
 20
83.9075853828
 10
144.0136965386
 20
83.9017143253
 10
143.9198997825
 20
83.8843265328
 10
143.8334562838
 20
83.8560902293
 10
143.75768807
 20
83.8180904057
 10
143.6955069214
 20
83.7717878412
 10
143.6493016801
 20
83.7189608965
 10
143.6208488442
 20
83.661640786
 10
143.6112417861
 20
83.6020300876
  0
LWPOLYLINE
  5
FF
330
1F
100
AcDbEntity
  8
0
  6
Continuous
 62
     7
370
    25
100
AcDbPolyline
 90
        9
 70
   128
 43
0.0
 10
158.6112414509
 20
83.6020300876
 10
158.6016343928
 20
83.661640786
 10
158.5731815569
 20
83.7189608965
 10
158.5269763156
 20
83.7717878412
 10
158.464795167
 20
83.8180904057
 10
158.3890269532
 20
83.8560902293
 10
158.3025834545
 20
83.8843265328
 10
158.2087866984
 20
83.9017143253
 10
158.1112418346
 20
83.9075853828
  0
LINE
  5
100
330
1F
100
AcDbEntity
  8
0
  6
Continuous
 62
     7
370
    25
100
AcDbLine
 10
144.1112414024
 20
94.2964747328
 30
0.0
 11
158.1112418346
 21
94.2964747328
 31
0.0
  0
SPLINE
  5
101
330
1F
100
AcDbEntity
  8
0
  6
Continuous
 62
     7
370
    25
100
AcDbSpline
210
0.0
220
0.0
230
1.0
 70
    11
 71
     3
 72
    26
 73
    22
 74
     0
 42
0.000000001
 43
0.00000001
 40
0.0
 40
0.0
 40
0.0
 40
0.0
 40
0.125
 40
0.125
 40
0.1875
 40
0.1875
 40
0.25
 40
0.25
 40
0.3125
 40
0.3125
 40
0.375
 40
0.375
 40
0.5
 40
0.5
 40
0.625
 40
0.625
 40
0.75
 40
0.75
 40
0.875
 40
0.875
 40
1.0
 40
1.0
 40
1.0
 40
1.0
 10
151.6245605873455
 20
97.10203005780349
 30
0.0
 10
151.6245605873455
 20
97.2411490890323
 30
0.0
 10
151.5717646161965
 20
97.37687679200779
 30
0.0
 10
151.4303090263192
 20
97.52989552850356
 30
0.0
 10
151.3737550899474
 20
97.5713984295241
 30
0.0
 10
151.2482109385039
 20
97.62859832331779
 30
0.0
 10
151.1790593253959
 20
97.64388231206212
 30
0.0
 10
151.0419009506525
 20
97.64366143829848
 30
0.0
 10
150.9727863678463
 20
97.62810137701082
 30
0.0
 10
150.8480265992152
 20
97.5708955425168
 30
0.0
 10
150.7913955108808
 20
97.52914411524985
 30
0.0
 10
150.6512818843579
 20
97.3773032469664
 30
0.0
 10
150.5979613504112
 20
97.24125091969854
 30
0.0
 10
150.5978839918351
 20
96.96311822599519
 30
0.0
 10
150.6515723738568
 20
96.8263162159752
 30
0.0
 10
150.8382671881645
 20
96.62424741231014
 30
0.0
 10
150.9741483975281
 20
96.56007765262459
 30
0.0
 10
151.2497795315665
 20
96.56049870542559
 30
0.0
 10
151.3847545699802
 20
96.6247673878489
 30
0.0
 10
151.5706020470462
 20
96.82604493907304
 30
0.0
 10
151.6245605873455
 20
96.96291102657467
 30
0.0
 10
151.6245605873455
 20
97.10203005780349
 30
0.0
  0
SPLINE
  5
102
330
1F
100
AcDbEntity
  8
0
  6
Continuous
 62
     7
370
    25
100
AcDbSpline
210
0.0
220
0.0
230
1.0
 70
    11
 71
     3
 72
    38
 73
    34
 74
     0
 42
0.000000001
 43
0.00000001
 40
0.0
 40
0.0
 40
0.0
 40
0.0
 40
0.0625
 40
0.0625
 40
0.125
 40
0.125
 40
0.1874999999999999
 40
0.1874999999999999
 40
0.2499999999999999
 40
0.2499999999999999
 40
0.3125
 40
0.3125
 40
0.375
 40
0.375
 40
0.4375000000000001
 40
0.4375000000000001
 40
0.5000000000000001
 40
0.5000000000000001
 40
0.5625000000000001
 40
0.5625000000000001
 40
0.6250000000000001
 40
0.6250000000000001
 40
0.6875000000000001
 40
0.6875000000000001
 40
0.75
 40
0.75
 40
0.8125
 40
0.8125
 40
0.875
 40
0.875
 40
0.9375
 40
0.9375
 40
1.0
 40
1.0
 40
1.0
 40
1.0
 10
150.1112416184972
 20
97.10203005780349
 30
0.0
 10
150.1112416184971
 20
96.96964414289317
 30
0.0
 10
150.13739016964
 20
96.83975681641448
 30
0.0
 10
150.2378558390978
 20
96.59767782182861
 30
0.0
 10
150.3121407054943
 20
96.48689646777258
 30
0.0
 10
150.496289885229
 20
96.30278918766683
 30
0.0
 10
150.6076655078233
 20
96.22832051637083
 30
0.0
 10
150.8482140123572
 20
96.12849334024213
 30
0.0
 10
150.9799719083446
 20
96.10210542016883
 30
0.0
 10
151.2413606005085
 20
96.101955026482
 30
0.0
 10
151.3725326711001
 20
96.12789484689203
 30
0.0
 10
151.6149703570999
 20
96.22826247931732
 30
0.0
 10
151.7250245252494
 20
96.30165138246255
 30
0.0
 10
151.9112778426604
 20
96.4878008492921
 30
0.0
 10
151.9847041705535
 20
96.59783936669209
 30
0.0
 10
152.0850689181824
 20
96.83972208378076
 30
0.0
 10
152.1111901824786
 20
96.97099660229208
 30
0.0
 10
152.1112928999638
 20
97.2322772516646
 30
0.0
 10
152.0850492718701
 20
97.36409265517753
 30
0.0
 10
151.985380915072
 20
97.604880573259
 30
0.0
 10
151.9111001231034
 20
97.716212774657
 30
0.0
 10
151.7269133826699
 20
97.900742969852
 30
0.0
 10
151.6164898086073
 20
97.97492929912576
 30
0.0
 10
151.3741050933673
 20
98.07575055809593
 30
0.0
 10
151.2441809138009
 20
98.10192478740097
 30
0.0
 10
150.979890804284
 20
98.10213469738788
 30
0.0
 10
150.849657045622
 20
98.0760469750247
 30
0.0
 10
150.6077643744512
 20
97.9758985310461
 30
0.0
 10
150.4967484490446
 20
97.90161223588093
 30
0.0
 10
150.3125807130646
 20
97.71772013644416
 30
0.0
 10
150.2379820415625
 20
97.60638998589013
 30
0.0
 10
150.1379312280174
 20
97.36590144608151
 30
0.0
 10
150.1112416184971
 20
97.23441597271379
 30
0.0
 10
150.1112416184971
 20
97.10203005780349
 30
0.0
  0
LINE
  5
103
330
1F
100
AcDbEntity
  8
0
  6
Continuous
 62
     7
370
    25
100
AcDbLine
 10
169.7562934853
 20
89.1020300578
 30
0.0
 11
169.7562934853
 21
84.3197505701
 31
0.0
  0
LINE
  5
104
330
1F
100
AcDbEntity
  8
0
  6
Continuous
 62
     7
370
    25
100
AcDbLine
 10
169.7562934853
 20
93.8843095455
 30
0.0
 11
169.7562934853
 21
89.1020300578
 31
0.0
  0
LINE
  5
105
330
1F
100
AcDbEntity
  8
0
  6
Continuous
 62
     7
370
    25
100
AcDbLine
 10
171.1112411715
 20
93.1020302478
 30
0.0
 11
171.1112411715
 21
85.1020298678
 31
0.0
  0
SPLINE
  5
106
330
1F
100
AcDbEntity
  8
0
  6
Continuous
 62
     7
370
    25
100
AcDbSpline
210
0.0
220
0.0
230
1.0
 70
     8
 71
     3
 72
    15
 73
    11
 74
     0
 42
0.000000001
 43
0.00000001
 40
0.0
 40
0.0
 40
0.0
 40
0.0
 40
0.0090436668555053
 40
0.1032416108587011
 40
0.1542555096908477
 40
0.3133160372726557
 40
0.5243720667937798
 40
0.6678058153000223
 40
0.9918331445062708
 40
0.9999999999999999
 40
0.9999999999999999
 40
0.9999999999999999
 40
0.9999999999999999
 10
156.3503269128034
 20
116.2020305882848
 30
0.0
 10
156.3503211573037
 20
116.2037112687898
 30
0.0
 10
156.3502554530855
 20
116.222897752043
 30
0.0
 10
156.3482603672968
 20
116.2515917361769
 30
0.0
 10
156.3404441445611
 20
116.3022684449153
 30
0.0
 10
156.3232731489203
 20
116.3601440117937
 30
0.0
 10
156.2966901361157
 20
116.4050121074755
 30
0.0
 10
156.2588599678332
 20
116.4423699474164
 30
0.0
 10
156.2305807743152
 20
116.4519292159873
 30
0.0
 10
156.2107486835365
 20
116.4520268324199
 30
0.0
 10
156.2102611198554
 20
116.4520292322792
 30
0.0
  0
LINE
  5
107
330
1F
100
AcDbEntity
  8
0
  6
Continuous
 62
     7
370
    25
100
AcDbLine
 10
156.3503269128
 20
116.2020305883
 30
0.0
 11
145.8721563242
 21
116.2020305883
 31
0.0
  0
SPLINE
  5
108
330
1F
100
AcDbEntity
  8
0
  6
Continuous
 62
     7
370
    25
100
AcDbSpline
210
0.0
220
0.0
230
1.0
 70
     8
 71
     3
 72
    15
 73
    11
 74
     0
 42
0.000000001
 43
0.00000001
 40
0.0
 40
0.0
 40
0.0
 40
0.0
 40
0.0081668554937291
 40
0.3321941846999776
 40
0.4756279332062201
 40
0.6866839627273442
 40
0.8457444903091523
 40
0.8967583891412989
 40
0.9909563331444947
 40
1.0
 40
1.0
 40
1.0
 40
1.0
 10
146.0122221171389
 20
116.4520292322792
 30
0.0
 10
146.0117345534578
 20
116.4520268324199
 30
0.0
 10
145.991902462679
 20
116.4519292159873
 30
0.0
 10
145.9636232691611
 20
116.4423699474164
 30
0.0
 10
145.9257931008786
 20
116.4050121074755
 30
0.0
 10
145.8992100880739
 20
116.3601440117937
 30
0.0
 10
145.8820390924331
 20
116.3022684449153
 30
0.0
 10
145.8742228696975
 20
116.2515917361769
 30
0.0
 10
145.8722277839087
 20
116.222897752043
 30
0.0
 10
145.8721620796905
 20
116.2037112687898
 30
0.0
 10
145.8721563241909
 20
116.2020305882848
 30
0.0
  0
LINE
  5
109
330
1F
100
AcDbEntity
  8
0
  6
Continuous
 62
     7
370
    25
100
AcDbLine
 10
146.0122221171
 20
116.4520292323
 30
0.0
 11
156.2102611199
 21
116.4520292323
 31
0.0
  0
LINE
  5
10A
330
1F
100
AcDbEntity
  8
0
  6
Continuous
 62
     7
370
    25
100
AcDbLine
 10
156.3503269128
 20
115.6020297449
 30
0.0
 11
156.3503269128
 21
116.2020305883
 31
0.0
  0
LINE
  5
10B
330
1F
100
AcDbEntity
  8
0
  6
Continuous
 62
     7
370
    25
100
AcDbLine
 10
145.8721563242
 20
115.6020297449
 30
0.0
 11
156.3503269128
 21
115.6020297449
 31
0.0
  0
LINE
  5
10C
330
1F
100
AcDbEntity
  8
0
  6
Continuous
 62
     7
370
    25
100
AcDbLine
 10
145.8721563242
 20
116.2020305883
 30
0.0
 11
145.8721563242
 21
115.6020297449
 31
0.0
  0
SPLINE
  5
10D
330
1F
100
AcDbEntity
  8
0
  6
Continuous
 62
     7
370
    25
100
AcDbSpline
210
0.0
220
0.0
230
1.0
 70
     8
 71
     3
 72
    15
 73
    11
 74
     0
 42
0.000000001
 43
0.00000001
 40
0.0
 40
0.0
 40
0.0
 40
0.0
 40
0.0080845166116213
 40
0.3310110803515837
 40
0.4750334718139839
 40
0.6874373868841556
 40
0.8468378249369453
 40
0.9001014979498858
 40
0.9910465065391931
 40
0.9999999999999999
 40
0.9999999999999999
 40
0.9999999999999999
 40
0.9999999999999999
 10
156.2102611198554
 20
116.4520292322792
 30
0.0
 10
156.2115408902877
 20
116.4520268303528
 30
0.0
 10
156.263939594348
 20
116.4519284862869
 30
0.0
 10
156.3392957138649
 20
116.4422361255269
 30
0.0
 10
156.4412153794313
 20
116.4049588146199
 30
0.0
 10
156.5136051876013
 20
116.3602483182528
 30
0.0
 10
156.5613122338938
 20
116.3021135690388
 30
0.0
 10
156.5828459239467
 20
116.2512255351746
 30
0.0
 10
156.5882765955471
 20
116.2224637745215
 30
0.0
 10
156.5884513627837
 20
116.2037112960982
 30
0.0
 10
156.5884670264552
 20
116.2020305882848
 30
0.0
  0
LINE
  5
10E
330
1F
100
AcDbEntity
  8
0
  6
Continuous
 62
     7
370
    25
100
AcDbLine
 10
156.3503269128
 20
116.2020305883
 30
0.0
 11
156.5884670265
 21
116.2020305883
 31
0.0
  0
SPLINE
  5
10F
330
1F
100
AcDbEntity
  8
0
  6
Continuous
 62
     7
370
    25
100
AcDbSpline
210
0.0
220
0.0
230
1.0
 70
     8
 71
     3
 72
    15
 73
    11
 74
     0
 42
0.000000001
 43
0.00000001
 40
0.0
 40
0.0
 40
0.0
 40
0.0
 40
0.0089534934608068
 40
0.0998985020501141
 40
0.1531621750630547
 40
0.3125626131158444
 40
0.524966528186016
 40
0.6689889196484162
 40
0.9919154833883785
 40
0.9999999999999999
 40
0.9999999999999999
 40
0.9999999999999999
 40
0.9999999999999999
 10
145.6340162105391
 20
116.2020305882848
 30
0.0
 10
145.6340318742105
 20
116.2037112960982
 30
0.0
 10
145.6342066414471
 20
116.2224637745215
 30
0.0
 10
145.6396373130475
 20
116.2512255351746
 30
0.0
 10
145.6611710031004
 20
116.3021135690388
 30
0.0
 10
145.708878049393
 20
116.3602483182528
 30
0.0
 10
145.781267857563
 20
116.4049588146199
 30
0.0
 10
145.8831875231293
 20
116.4422361255269
 30
0.0
 10
145.9585436426463
 20
116.4519284862868
 30
0.0
 10
146.0109423467065
 20
116.4520268303528
 30
0.0
 10
146.0122221171389
 20
116.4520292322792
 30
0.0
  0
LINE
  5
110
330
1F
100
AcDbEntity
  8
0
  6
Continuous
 62
     7
370
    25
100
AcDbLine
 10
145.6340162105
 20
116.2020305883
 30
0.0
 11
145.8721563242
 21
116.2020305883
 31
0.0
  0
LINE
  5
111
330
1F
100
AcDbEntity
  8
0
  6
Continuous
 62
     7
370
    25
100
AcDbLine
 10
145.6340162105
 20
115.6020297449
 30
0.0
 11
145.6340162105
 21
116.2020305883
 31
0.0
  0
LINE
  5
112
330
1F
100
AcDbEntity
  8
0
  6
Continuous
 62
     7
370
    25
100
AcDbLine
 10
145.8721563242
 20
115.6020297449
 30
0.0
 11
145.6340162105
 21
115.6020297449
 31
0.0
  0
LINE
  5
113
330
1F
100
AcDbEntity
  8
0
  6
Continuous
 62
     7
370
    25
100
AcDbLine
 10
156.5884670265
 20
116.2020305883
 30
0.0
 11
156.5884670265
 21
115.6020297449
 31
0.0
  0
LINE
  5
114
330
1F
100
AcDbEntity
  8
0
  6
Continuous
 62
     7
370
    25
100
AcDbLine
 10
156.5884670265
 20
115.6020297449
 30
0.0
 11
156.3503269128
 21
115.6020297449
 31
0.0
  0
LINE
  5
115
330
1F
100
AcDbEntity
  8
0
  6
Continuous
 62
     7
370
    25
100
AcDbLine
 10
156.8612416297
 20
116.2020305883
 30
0.0
 11
157.1112416707
 21
116.2020305883
 31
0.0
  0
LINE
  5
116
330
1F
100
AcDbEntity
  8
0
  6
Continuous
 62
     7
370
    25
100
AcDbLine
 10
156.8612416297
 20
116.2020305883
 30
0.0
 11
156.8612416297
 21
116.4520292323
 31
0.0
  0
ARC
  5
117
330
1F
100
AcDbEntity
  8
0
  6
Continuous
 62
     7
370
    25
100
AcDbCircle
 10
156.8612416185
 20
116.2020300578
 30
0.0
 40
0.25
100
AcDbArc
 50
0.0
 51
90.0
  0
ARC
  5
118
330
1F
100
AcDbEntity
  8
0
  6
Continuous
 62
     7
370
    25
100
AcDbCircle
 10
145.3612416185
 20
116.2020300578
 30
0.0
 40
0.25
100
AcDbArc
 50
90.0
 51
180.0
  0
LINE
  5
119
330
1F
100
AcDbEntity
  8
0
  6
Continuous
 62
     7
370
    25
100
AcDbLine
 10
145.3612416073
 20
116.4520292323
 30
0.0
 11
145.3612416073
 21
116.2020305883
 31
0.0
  0
LINE
  5
11A
330
1F
100
AcDbEntity
  8
0
  6
Continuous
 62
     7
370
    25
100
AcDbLine
 10
145.1112415663
 20
116.2020305883
 30
0.0
 11
145.3612416073
 21
116.2020305883
 31
0.0
  0
LINE
  5
11B
330
1F
100
AcDbEntity
  8
0
  6
Continuous
 62
     7
370
    25
100
AcDbLine
 10
145.3612416073
 20
116.2020305883
 30
0.0
 11
145.3612416073
 21
115.6020297449
 31
0.0
  0
LINE
  5
11C
330
1F
100
AcDbEntity
  8
0
  6
Continuous
 62
     7
370
    25
100
AcDbLine
 10
145.6340162105
 20
116.2020305883
 30
0.0
 11
145.3612416073
 21
116.2020305883
 31
0.0
  0
LINE
  5
11D
330
1F
100
AcDbEntity
  8
0
  6
Continuous
 62
     7
370
    25
100
AcDbLine
 10
145.3612416073
 20
115.6020297449
 30
0.0
 11
145.6340162105
 21
115.6020297449
 31
0.0
  0
LINE
  5
11E
330
1F
100
AcDbEntity
  8
0
  6
Continuous
 62
     7
370
    25
100
AcDbLine
 10
156.8612416297
 20
115.6020297449
 30
0.0
 11
156.8612416297
 21
116.2020305883
 31
0.0
  0
LINE
  5
11F
330
1F
100
AcDbEntity
  8
0
  6
Continuous
 62
     7
370
    25
100
AcDbLine
 10
157.1112416707
 20
116.2020305883
 30
0.0
 11
157.1112416707
 21
115.6020297449
 31
0.0
  0
LINE
  5
120
330
1F
100
AcDbEntity
  8
0
  6
Continuous
 62
     7
370
    25
100
AcDbLine
 10
157.1112416707
 20
115.6020297449
 30
0.0
 11
156.8612416297
 21
115.6020297449
 31
0.0
  0
LINE
  5
121
330
1F
100
AcDbEntity
  8
0
  6
Continuous
 62
     7
370
    25
100
AcDbLine
 10
156.8612416297
 20
116.2020305883
 30
0.0
 11
156.5884670265
 21
116.2020305883
 31
0.0
  0
LINE
  5
122
330
1F
100
AcDbEntity
  8
0
  6
Continuous
 62
     7
370
    25
100
AcDbLine
 10
156.5884670265
 20
115.6020297449
 30
0.0
 11
156.8612416297
 21
115.6020297449
 31
0.0
  0
LINE
  5
123
330
1F
100
AcDbEntity
  8
0
  6
Continuous
 62
     7
370
    25
100
AcDbLine
 10
156.2102611199
 20
116.4520292323
 30
0.0
 11
156.8612416297
 21
116.4520292323
 31
0.0
  0
LINE
  5
124
330
1F
100
AcDbEntity
  8
0
  6
Continuous
 62
     7
370
    25
100
AcDbLine
 10
145.3612416073
 20
116.4520292323
 30
0.0
 11
146.0122221171
 21
116.4520292323
 31
0.0
  0
LINE
  5
125
330
1F
100
AcDbEntity
  8
0
  6
Continuous
 62
     7
370
    25
100
AcDbLine
 10
145.1112415663
 20
115.6020297449
 30
0.0
 11
145.1112415663
 21
116.2020305883
 31
0.0
  0
LINE
  5
126
330
1F
100
AcDbEntity
  8
0
  6
Continuous
 62
     7
370
    25
100
AcDbLine
 10
145.3612416073
 20
115.6020297449
 30
0.0
 11
145.1112415663
 21
115.6020297449
 31
0.0
  0
LINE
  5
127
330
1F
100
AcDbEntity
  8
0
  6
Continuous
 62
     7
370
    25
100
AcDbLine
 10
146.1112417303
 20
116.4620297741
 30
0.0
 11
156.1112415067
 21
116.4620297741
 31
0.0
  0
LINE
  5
128
330
1F
100
AcDbEntity
  8
0
  6
Continuous
 62
     7
370
    25
100
AcDbLine
 10
156.1112415067
 20
116.4520292323
 30
0.0
 11
156.1112415067
 21
116.4620297741
 31
0.0
  0
LINE
  5
129
330
1F
100
AcDbEntity
  8
0
  6
Continuous
 62
     7
370
    25
100
AcDbLine
 10
146.1112417303
 20
116.4520292323
 30
0.0
 11
146.1112417303
 21
116.4620297741
 31
0.0
  0
LINE
  5
12A
330
1F
100
AcDbEntity
  8
0
  6
Continuous
 62
     7
370
    25
100
AcDbLine
 10
149.1112415235
 20
99.6020299162
 30
0.0
 11
158.1112418346
 21
99.6020299162
 31
0.0
  0
LINE
  5
12B
330
1F
100
AcDbEntity
  8
0
  6
Continuous
 62
     7
370
    25
100
AcDbLine
 10
149.1112415235
 20
99.6398472007
 30
0.0
 11
149.1112415235
 21
99.6020299162
 31
0.0
  0
SPLINE
  5
12C
330
1F
100
AcDbEntity
  8
0
  6
Continuous
 62
     7
370
    25
100
AcDbSpline
210
0.0
220
0.0
230
1.0
 70
     8
 71
     3
 72
     9
 73
     5
 74
     0
 42
0.000000001
 43
0.00000001
 40
0.0
 40
0.0
 40
0.0
 40
0.0
 40
0.4875149508301391
 40
1.0
 40
1.0
 40
1.0
 40
1.0
 10
148.9552964478264
 20
99.60202991624247
 30
0.0
 10
148.9816030233748
 20
99.60375749781396
 30
0.0
 10
149.0355635747458
 20
99.6073011462058
 30
0.0
 10
149.0855990767813
 20
99.62881941147351
 30
0.0
 10
149.1112415235022
 20
99.6398472007073
 30
0.0
  0
SPLINE
  5
12D
330
1F
100
AcDbEntity
  8
0
  6
Continuous
 62
     7
370
    25
100
AcDbSpline
210
0.0
220
0.0
230
1.0
 70
     8
 71
     3
 72
    17
 73
    13
 74
     0
 42
0.000000001
 43
0.00000001
 40
0.0
 40
0.0
 40
0.0
 40
0.0
 40
0.3241697917523345
 40
0.5422758587479237
 40
0.689509089275669
 40
0.7894035981534984
 40
0.8577089567094359
 40
0.9049823628410104
 40
0.9551711781537311
 40
0.9753097815865951
 40
0.991957189245944
 40
1.0
 40
1.0
 40
1.0
 40
1.0
 10
146.6366948581765
 20
107.6020302962221
 30
0.0
 10
146.7794100066506
 20
106.6894166435055
 30
0.0
 10
147.0181459458533
 20
105.1627834876003
 30
0.0
 10
147.3977336913538
 20
103.2360105702316
 30
0.0
 10
147.7068675403681
 20
101.9483751461391
 30
0.0
 10
147.9629815547604
 20
101.0892234301829
 30
0.0
 10
148.1772924104764
 20
100.5157557424236
 30
0.0
 10
148.3805264761999
 20
100.094223382644
 30
0.0
 10
148.5650724419893
 20
99.81373151944902
 30
0.0
 10
148.7511424195501
 20
99.65818132476245
 30
0.0
 10
148.8663537765137
 20
99.60757190862357
 30
0.0
 10
148.9334424034094
 20
99.60339163549226
 30
0.0
 10
148.9552964478264
 20
99.60202991624246
 30
0.0
  0
LINE
  5
12E
330
1F
100
AcDbEntity
  8
0
  6
Continuous
 62
     7
370
    25
100
AcDbLine
 10
146.6366948582
 20
107.6020302962
 30
0.0
 11
158.5612415358
 21
107.6020302962
 31
0.0
  0
SPLINE
  5
12F
330
1F
100
AcDbEntity
  8
0
  6
Continuous
 62
     7
370
    25
100
AcDbSpline
210
0.0
220
0.0
230
1.0
 70
     8
 71
     3
 72
     9
 73
     5
 74
     0
 42
0.000000001
 43
0.00000001
 40
0.0
 40
0.0
 40
0.0
 40
0.0
 40
0.4978404435797771
 40
1.0
 40
1.0
 40
1.0
 40
1.0
 10
147.3969055361578
 20
108.5967740755237
 30
0.0
 10
147.2605835139089
 20
108.4402627957328
 30
0.0
 10
146.9867567808523
 20
108.1258823917112
 30
0.0
 10
146.7537176731359
 20
107.7771497332861
 30
0.0
 10
146.6366948581765
 20
107.6020302962221
 30
0.0
  0
LINE
  5
130
330
1F
100
AcDbEntity
  8
0
  6
Continuous
 62
     7
370
    25
100
AcDbLine
 10
145.8874393276
 20
115.6020297449
 30
0.0
 11
144.1593009069
 21
108.5967740755
 31
0.0
  0
LINE
  5
131
330
1F
100
AcDbEntity
  8
0
  6
Continuous
 62
     7
370
    25
100
AcDbLine
 10
156.3503269128
 20
115.6020297449
 30
0.0
 11
145.8874393276
 21
115.6020297449
 31
0.0
  0
SPLINE
  5
132
330
1F
100
AcDbEntity
  8
0
  6
Continuous
 62
     7
370
    25
100
AcDbSpline
210
0.0
220
0.0
230
1.0
 70
     8
 71
     3
 72
    14
 73
    10
 74
     0
 42
0.000000001
 43
0.00000001
 40
0.0
 40
0.0
 40
0.0
 40
0.0
 40
0.1576094553927752
 40
0.315238234353942
 40
0.4726925966125388
 40
0.6301651045756322
 40
0.790731299294198
 40
0.9513051076307096
 40
1.0
 40
1.0
 40
1.0
 40
1.0
 10
144.6112414843867
 20
99.60202991624246
 30
0.0
 10
144.5446704280933
 20
99.81553159348945
 30
0.0
 10
144.4115201536209
 20
100.2425611241684
 30
0.0
 10
144.082953978629
 20
100.8278085836792
 30
0.0
 10
143.6695638058755
 20
101.3499631111423
 30
0.0
 10
143.1738889786718
 20
101.7989413252219
 30
0.0
 10
142.6075992163667
 20
102.1582234983939
 30
0.0
 10
142.1313486014607
 20
102.3627892407669
 30
0.0
 10
141.8511539504361
 20
102.4435839855362
 30
0.0
 10
141.7859552450011
 20
102.4623841758526
 30
0.0
  0
LWPOLYLINE
  5
133
330
1F
100
AcDbEntity
  8
0
  6
Continuous
 62
     7
370
    25
100
AcDbPolyline
 90
        4
 70
   128
 43
0.0
 10
141.785955245
 20
102.4623841759
 10
139.8686330787
 20
102.9827439006
 10
137.9414696268
 20
103.5057746585
 10
136.0061980806
 20
104.0310052003
  0
SPLINE
  5
134
330
1F
100
AcDbEntity
  8
0
  6
Continuous
 62
     7
370
    25
100
AcDbSpline
210
0.0
220
0.0
230
1.0
 70
     8
 71
     3
 72
    11
 73
     7
 74
     0
 42
0.000000001
 43
0.00000001
 40
0.0
 40
0.0
 40
0.0
 40
0.0
 40
0.2488465959137647
 40
0.4976945924499491
 40
0.7488461206779728
 40
1.0
 40
1.0
 40
1.0
 40
1.0
 10
128.9358047790358
 20
105.3542050312913
 30
0.0
 10
129.5302407283134
 20
105.2846808754467
 30
0.0
 10
130.719115972626
 20
105.1456321724438
 30
0.0
 10
132.4938403577055
 20
104.845302486404
 30
0.0
 10
134.2604212574632
 20
104.4833941380879
 30
0.0
 10
135.4242706570356
 20
104.1818019834687
 30
0.0
 10
136.0061980805824
 20
104.031005200342
 30
0.0
  0
LINE
  5
135
330
1F
100
AcDbEntity
  8
0
  6
Continuous
 62
     7
370
    25
100
AcDbLine
 10
128.935804779
 20
105.3542050313
 30
0.0
 11
128.935804779
 21
108.5967740755
 31
0.0
  0
LINE
  5
136
330
1F
100
AcDbEntity
  8
0
  6
Continuous
 62
     7
370
    25
100
AcDbLine
 10
128.935804779
 20
108.5967740755
 30
0.0
 11
147.3969055362
 21
108.5967740755
 31
0.0
  0
LINE
  5
137
330
1F
100
AcDbEntity
  8
0
  6
Continuous
 62
     7
370
    25
100
AcDbLine
 10
148.9552964478
 20
99.6020299162
 30
0.0
 11
144.6112414844
 21
99.6020299162
 31
0.0
  0
LINE
  5
138
330
1F
100
AcDbEntity
  8
0
  6
Continuous
 62
     7
370
    25
100
AcDbLine
 10
149.1112415235
 20
99.6398472007
 30
0.0
 11
149.1044421702
 21
99.6020299162
 31
0.0
  0
LINE
  5
139
330
1F
100
AcDbEntity
  8
0
  6
Continuous
 62
     7
370
    25
100
AcDbLine
 10
149.1044421702
 20
99.6020299162
 30
0.0
 11
148.9552964478
 21
99.6020299162
 31
0.0
  0
LINE
  5
13A
330
1F
100
AcDbEntity
  8
0
  6
Continuous
 62
     7
370
    25
100
AcDbLine
 10
149.1112415235
 20
99.6020299162
 30
0.0
 11
149.1044421702
 21
99.6020299162
 31
0.0
  0
LINE
  5
13B
330
1F
100
AcDbEntity
  8
0
  6
Continuous
 62
     7
370
    25
100
AcDbLine
 10
128.935804779
 20
117.6020300727
 30
0.0
 11
128.935804779
 21
108.5967740755
 31
0.0
  0
LINE
  5
13C
330
1F
100
AcDbEntity
  8
0
  6
Continuous
 62
     7
370
    25
100
AcDbLine
 10
128.935804779
 20
117.6020300727
 30
0.0
 11
131.1112420655
 21
117.6020300727
 31
0.0
  0
LINE
  5
13D
330
1F
100
AcDbEntity
  8
0
  6
Continuous
 62
     7
370
    25
100
AcDbLine
 10
131.1112420655
 20
117.6020300727
 30
0.0
 11
131.1112420655
 21
115.6209858846
 31
0.0
  0
ARC
  5
13E
330
1F
100
AcDbEntity
  8
0
  6
Continuous
 62
     7
370
    25
100
AcDbCircle
 10
137.1112416185
 20
115.6209855812
 30
0.0
 40
6.000000000000005
100
AcDbArc
 50
180.0
 51
275.5801667845
  0
ARC
  5
13F
330
1F
100
AcDbEntity
  8
0
  6
Continuous
 62
     7
370
    25
100
AcDbCircle
 10
136.7222880542
 20
119.6020300578
 30
0.0
 40
10.00000000000848
100
AcDbArc
 50
275.5801667845
 51
336.4218215217
  0
LINE
  5
140
330
1F
100
AcDbEntity
  8
0
  6
Continuous
 62
     7
370
    25
100
AcDbLine
 10
124.2195742227
 20
105.6020299684
 30
0.0
 11
116.1112414695
 21
105.6020299684
 31
0.0
  0
ARC
  5
141
330
1F
100
AcDbEntity
  8
0
  6
Continuous
 62
     7
370
    25
100
AcDbCircle
 10
116.1112416185
 20
110.6020300578
 30
0.0
 40
4.999999999999986
100
AcDbArc
 50
180.0
 51
270.0
  0
LINE
  5
142
330
1F
100
AcDbEntity
  8
0
  6
Continuous
 62
     7
370
    25
100
AcDbLine
 10
111.1112425126
 20
110.602030788
 30
0.0
 11
111.1112425126
 21
117.6020300727
 31
0.0
  0
LINE
  5
143
330
1F
100
AcDbEntity
  8
0
  6
Continuous
 62
     7
370
    25
100
AcDbLine
 10
111.1112425126
 20
117.6020300727
 30
0.0
 11
128.935804779
 21
117.6020300727
 31
0.0
  0
ARC
  5
144
330
1F
100
AcDbEntity
  8
0
  6
Continuous
 62
     7
370
    25
100
AcDbCircle
 10
124.2195737607
 20
60.6019008036
 30
0.0
 40
45.00012925418375
100
AcDbArc
 50
83.9840777705
 51
90.0
  0
LINE
  5
145
330
1F
100
AcDbEntity
  8
0
  6
Continuous
 62
     7
370
    25
100
AcDbLine
 10
144.6112414844
 20
99.6020299162
 30
0.0
 11
144.1112414024
 21
99.6020299162
 31
0.0
  0
LINE
  5
146
330
1F
100
AcDbEntity
  8
0
  6
Continuous
 62
     7
370
    25
100
AcDbLine
 10
145.8721563242
 20
115.6020297449
 30
0.0
 11
145.8874393276
 21
115.6020297449
 31
0.0
  0
LINE
  5
147
330
1F
100
AcDbEntity
  8
0
  6
Continuous
 62
     7
370
    25
100
AcDbLine
 10
138.3112419419
 20
97.1020304378
 30
0.0
 11
138.3112419419
 21
81.1020296778
 31
0.0
  0
LINE
  5
148
330
1F
100
AcDbEntity
  8
0
  6
Continuous
 62
     7
370
    25
100
AcDbLine
 10
138.1112413503
 20
81.3020302694
 30
0.0
 11
138.1112413503
 21
96.9020298462
 31
0.0
  0
LINE
  5
149
330
1F
100
AcDbEntity
  8
0
  6
Continuous
 62
     7
370
    25
100
AcDbLine
 10
111.5912424422
 20
88.5060170795
 30
0.0
 11
111.5912424422
 21
84.522030108
 31
0.0
  0
LINE
  5
14A
330
1F
100
AcDbEntity
  8
0
  6
Continuous
 62
     7
370
    25
100
AcDbLine
 10
111.5912424422
 20
93.6820300076
 30
0.0
 11
111.5912424422
 21
88.5060170795
 31
0.0
  0
LINE
  5
14B
330
1F
100
AcDbEntity
  8
0
  6
Continuous
 62
     7
370
    25
100
AcDbLine
 10
115.6112404562
 20
94.352029987
 30
0.0
 11
115.6112404562
 21
83.8520301286
 31
0.0
  0
LINE
  5
14C
330
1F
100
AcDbEntity
  8
0
  6
Continuous
 62
     7
370
    25
100
AcDbLine
 10
124.6112419314
 20
94.352029987
 30
0.0
 11
124.6112419314
 21
83.8520301286
 31
0.0
  0
LINE
  5
14D
330
1F
100
AcDbEntity
  8
0
  6
Continuous
 62
     7
370
    25
100
AcDbLine
 10
120.1112421251
 20
94.352029987
 30
0.0
 11
120.1112421251
 21
83.8520301286
 31
0.0
  0
LINE
  5
14E
330
1F
100
AcDbEntity
  8
0
  6
Continuous
 62
     7
370
    25
100
AcDbLine
 10
129.1112417377
 20
94.352029987
 30
0.0
 11
129.1112417377
 21
83.8520301286
 31
0.0
  0
LINE
  5
14F
330
1F
100
AcDbEntity
  8
0
  6
Continuous
 62
     7
370
    25
100
AcDbLine
 10
133.611241544
 20
94.352029987
 30
0.0
 11
133.611241544
 21
83.8520301286
 31
0.0
  0
LINE
  5
150
330
1F
100
AcDbEntity
  8
0
  6
Continuous
 62
     7
370
    25
100
AcDbLine
 10
111.1112425126
 20
85.0020300377
 30
0.0
 11
111.1112425126
 21
93.2020300779
 31
0.0
  0
LINE
  5
151
330
1F
100
AcDbEntity
  8
0
  6
Continuous
 62
     8
370
    25
100
AcDbLine
 10
158.1112418346
 20
94.2964747328
 30
0.0
 11
158.1112418346
 21
97.6020305197
 31
0.0
  0
LINE
  5
152
330
1F
100
AcDbEntity
  8
0
  6
Continuous
 62
     8
370
    25
100
AcDbLine
 10
144.1112414024
 20
97.6020305197
 30
0.0
 11
144.1112414024
 21
94.2964747328
 31
0.0
  0
LINE
  5
153
330
1F
100
AcDbEntity
  8
0
  6
Continuous
 62
     8
370
    25
100
AcDbLine
 10
144.1112414024
 20
83.9075853828
 30
0.0
 11
144.1112414024
 21
80.6020295959
 31
0.0
  0
LINE
  5
154
330
1F
100
AcDbEntity
  8
0
  6
Continuous
 62
     8
370
    25
100
AcDbLine
 10
158.1112418346
 20
80.6020295959
 30
0.0
 11
158.1112418346
 21
83.9075853828
 31
0.0
  0
SPLINE
  5
155
330
1F
100
AcDbEntity
  8
0
  6
Continuous
 62
     8
370
    25
100
AcDbSpline
210
0.0
220
0.0
230
1.0
 70
     8
 71
     3
 72
    32
 73
    28
 74
     0
 42
0.000000001
 43
0.00000001
 40
0.0
 40
0.0
 40
0.0
 40
0.0
 40
0.0401450221632395
 40
0.0814946536401461
 40
0.1230108409586373
 40
0.1655335799748644
 40
0.2131026898219141
 40
0.2616870022954625
 40
0.3186512825243805
 40
0.3479268726644023
 40
0.3771976361574257
 40
0.4187548088698845
 40
0.4612652034728578
 40
0.5031787625365712
 40
0.5464778243509152
 40
0.5837150066472543
 40
0.6216789014452945
 40
0.6496079967307147
 40
0.6775412832743115
 40
0.7348752080451525
 40
0.7907587104420757
 40
0.8195305303078511
 40
0.8482972711327345
 40
0.8930422563907552
 40
0.9390687309218955
 40
0.9835429324097366
 40
1.0
 40
1.0
 40
1.0
 40
1.0
 10
157.5112414568195
 20
97.60203051973949
 30
0.0
 10
157.4999227917555
 20
97.59441181639895
 30
0.0
 10
157.4769458287509
 20
97.57894579953138
 30
0.0
 10
157.2922691215495
 20
97.455725687044
 30
0.0
 10
157.0016891311674
 20
97.26570261966462
 30
0.0
 10
156.5907491692668
 20
97.00516761466847
 30
0.0
 10
156.0581170417807
 20
96.6833631080844
 30
0.0
 10
155.3696724417919
 20
96.2975036294025
 30
0.0
 10
154.6777164474549
 20
95.95333464705382
 30
0.0
 10
154.0317978523316
 20
95.67929330206574
 30
0.0
 10
153.4416118188844
 20
95.46220686773772
 30
0.0
 10
152.7337190696323
 20
95.25665713622497
 30
0.0
 10
151.903622082117
 20
95.1072199433542
 30
0.0
 10
151.0368271897807
 20
95.05963694106212
 30
0.0
 10
150.2077494290831
 20
95.12310545015605
 30
0.0
 10
149.4320071290658
 20
95.27333092346201
 30
0.0
 10
148.7886904231834
 20
95.46073975338201
 30
0.0
 10
148.2338388289135
 20
95.66267432126533
 30
0.0
 10
147.5971095052922
 20
95.92910585409098
 30
0.0
 10
146.8670084040084
 20
96.28853232780553
 30
0.0
 10
146.22813014092
 20
96.64749900216516
 30
0.0
 10
145.7845206827197
 20
96.91264197899606
 30
0.0
 10
145.4295909249645
 20
97.1323904265861
 30
0.0
 10
145.0862682278191
 20
97.35294048432714
 30
0.0
 10
144.8296108890156
 20
97.5225571571914
 30
0.0
 10
144.7065331089147
 20
97.60518662373946
 30
0.0
 10
144.7241597819906
 20
97.59336126997215
 30
0.0
 10
144.7289206109474
 20
97.59016733278403
 30
0.0
  0
SPLINE
  5
156
330
1F
100
AcDbEntity
  8
0
  6
Continuous
 62
     8
370
    25
100
AcDbSpline
210
0.0
220
0.0
230
1.0
 70
     8
 71
     3
 72
    32
 73
    28
 74
     0
 42
0.000000001
 43
0.00000001
 40
0.0
 40
0.0
 40
0.0
 40
0.0
 40
0.0148226906792131
 40
0.0619098637132524
 40
0.107441930207361
 40
0.1543358599367227
 40
0.1825981457429923
 40
0.2108647537096534
 40
0.2690259400149551
 40
0.3246070973321224
 40
0.353153192844224
 40
0.3816926982230958
 40
0.4179901551069189
 40
0.4550296688023185
 40
0.4953226379373429
 40
0.5372317744694444
 40
0.5776049818603044
 40
0.6191596157379867
 40
0.6475096421015109
 40
0.6758659575040337
 40
0.7341701249556764
 40
0.7822939386362806
 40
0.83136273806024
 40
0.8736469324893739
 40
0.91686816060055
 40
0.9578489931499836
 40
1.0
 40
1.0
 40
1.0
 40
1.0
 10
145.2257472112308
 20
98.09085100551019
 30
0.0
 10
145.2218033257127
 20
98.09389023381719
 30
0.0
 10
145.2053309172811
 20
98.1065841646528
 30
0.0
 10
145.3161040511152
 20
98.02113160482976
 30
0.0
 10
145.553537217823
 20
97.84089140198529
 30
0.0
 10
145.8663551902908
 20
97.60989622783369
 30
0.0
 10
146.1914772819187
 20
97.3785983372659
 30
0.0
 10
146.5975665979178
 20
97.09934170536565
 30
0.0
 10
147.1797915609029
 20
96.72264611853782
 30
0.0
 10
147.8555830554789
 20
96.33953612858191
 30
0.0
 10
148.4421557017678
 20
96.05572110487995
 30
0.0
 10
148.957417368294
 20
95.83958578235905
 30
0.0
 10
149.5549165449822
 20
95.63871801209032
 30
0.0
 10
150.2610056579934
 20
95.48023186487757
 30
0.0
 10
151.0323792960428
 20
95.4101351482977
 30
0.0
 10
151.8292283837591
 20
95.45843615787983
 30
0.0
 10
152.6051683503981
 20
95.61813780432442
 30
0.0
 10
153.2540640267364
 20
95.83423988660057
 30
0.0
 10
153.7951115680589
 20
96.06250702613475
 30
0.0
 10
154.3928141691499
 20
96.35272233996191
 30
0.0
 10
155.0301601639083
 20
96.71662408117517
 30
0.0
 10
155.6695577193165
 20
97.1278906711492
 30
0.0
 10
156.1576003789548
 20
97.46647886790771
 30
0.0
 10
156.5394221417815
 20
97.74436216357378
 30
0.0
 10
156.8057412231651
 20
97.94437073821938
 30
0.0
 10
156.9785176183785
 20
98.07672709082496
 30
0.0
 10
157.000231882233
 20
98.09351669963714
 30
0.0
 10
157.0112418405244
 20
98.1020296703733
 30
0.0
  0
LINE
  5
157
330
1F
100
AcDbEntity
  8
0
  6
Continuous
 62
     7
370
    25
100
AcDbLine
 10
213.2733848968
 20
97.1760622006
 30
0.0
 11
213.2733848968
 21
99.6020299162
 31
0.0
  0
LINE
  5
158
330
1F
100
AcDbEntity
  8
0
  6
Continuous
 62
     7
370
    25
100
AcDbLine
 10
201.4733844527
 20
99.6020299162
 30
0.0
 11
201.4733844527
 21
98.1001241844
 31
0.0
  0
ARC
  5
159
330
1F
100
AcDbEntity
  8
0
  6
Continuous
 62
     7
370
    25
100
AcDbCircle
 10
201.6733846747
 20
97.6437724881
 30
0.0
 40
0.4999999999999961
100
AcDbArc
 50
113.64497808
 51
180.007858636
  0
ARC
  5
15A
330
1F
100
AcDbEntity
  8
0
  6
Continuous
 62
     7
370
    25
100
AcDbCircle
 10
212.6233846747
 20
116.2020300578
 30
0.0
 40
0.25
100
AcDbArc
 50
0.0
 51
90.0
  0
ARC
  5
15B
330
1F
100
AcDbEntity
  8
0
  6
Continuous
 62
     7
370
    25
100
AcDbCircle
 10
202.1233846747
 20
116.2020300578
 30
0.0
 40
0.25
100
AcDbArc
 50
90.0
 51
180.0
  0
LINE
  5
15C
330
1F
100
AcDbEntity
  8
0
  6
Continuous
 62
     7
370
    25
100
AcDbLine
 10
212.8733846449
 20
115.6020297449
 30
0.0
 11
212.8733846449
 21
116.2020305883
 31
0.0
  0
LINE
  5
15D
330
1F
100
AcDbEntity
  8
0
  6
Continuous
 62
     7
370
    25
100
AcDbLine
 10
201.8733847045
 20
116.2020305883
 30
0.0
 11
201.8733847045
 21
115.6020297449
 31
0.0
  0
LINE
  5
15E
330
1F
100
AcDbEntity
  8
0
  6
Continuous
 62
     7
370
    25
100
AcDbLine
 10
199.9233847574
 20
107.6020302962
 30
0.0
 11
200.3733844587
 21
99.6020299162
 31
0.0
  0
LINE
  5
15F
330
1F
100
AcDbEntity
  8
0
  6
Continuous
 62
     7
370
    25
100
AcDbLine
 10
214.3733848908
 20
99.6020299162
 30
0.0
 11
214.823384592
 21
107.6020302962
 31
0.0
  0
LINE
  5
160
330
1F
100
AcDbEntity
  8
0
  6
Continuous
 62
     7
370
    25
100
AcDbLine
 10
214.823384592
 20
107.6020302962
 30
0.0
 11
212.8733846449
 21
115.6020297449
 31
0.0
  0
LINE
  5
161
330
1F
100
AcDbEntity
  8
0
  6
Continuous
 62
     7
370
    25
100
AcDbLine
 10
201.8733847045
 20
115.6020297449
 30
0.0
 11
199.9233847574
 21
107.6020302962
 31
0.0
  0
CIRCLE
  5
162
330
1F
100
AcDbEntity
  8
0
  6
Continuous
 62
     7
370
    25
100
AcDbCircle
 10
207.3733846747
 20
89.1020300578
 30
0.0
 40
4.782279626857616
  0
CIRCLE
  5
163
330
1F
100
AcDbEntity
  8
0
  6
Continuous
 62
     7
370
    25
100
AcDbCircle
 10
207.3733846747
 20
89.1020300578
 30
0.0
 40
4.0
  0
CIRCLE
  5
164
330
1F
100
AcDbEntity
  8
0
  6
Continuous
 62
     7
370
    25
100
AcDbCircle
 10
207.3733846747
 20
89.1020300578
 30
0.0
 40
3.199999999999989
  0
CIRCLE
  5
165
330
1F
100
AcDbEntity
  8
0
  6
Continuous
 62
     7
370
    25
100
AcDbCircle
 10
207.3733846747
 20
89.1020300578
 30
0.0
 40
3.0
  0
CIRCLE
  5
166
330
1F
100
AcDbEntity
  8
0
  6
Continuous
 62
     7
370
    25
100
AcDbCircle
 10
207.3733846747
 20
89.1020300578
 30
0.0
 40
5.052437499999996
  0
CIRCLE
  5
167
330
1F
100
AcDbEntity
  8
0
  6
Continuous
 62
     7
370
    25
100
AcDbCircle
 10
207.3733846747
 20
89.1020300578
 30
0.0
 40
10.0
  0
CIRCLE
  5
168
330
1F
100
AcDbEntity
  8
0
  6
Continuous
 62
     7
370
    25
100
AcDbCircle
 10
207.3733846747
 20
89.1020300578
 30
0.0
 40
9.500000000000028
  0
SPLINE
  5
169
330
1F
100
AcDbEntity
  8
0
  6
Continuous
 62
     7
370
    25
100
AcDbSpline
210
0.0
220
0.0
230
1.0
 70
     8
 71
     3
 72
    13
 73
     9
 74
     0
 42
0.000000001
 43
0.00000001
 40
0.0
 40
0.0
 40
0.0
 40
0.0
 40
0.0709001864317471
 40
0.2985329260907166
 40
0.5283502676383272
 40
0.7606230766575048
 40
0.9918194481407943
 40
1.0
 40
1.0
 40
1.0
 40
1.0
 10
201.5556528323387
 20
97.21302359958062
 30
0.0
 10
201.5555682516008
 20
97.24755254125954
 30
0.0
 10
201.5552121152289
 20
97.39294039583372
 30
0.0
 10
201.5361117493363
 20
97.63261502550482
 30
0.0
 10
201.506784273198
 20
97.89208587348898
 30
0.0
 10
201.4820708400055
 20
98.05122771153343
 30
0.0
 10
201.4705325003965
 20
98.11927509925493
 30
0.0
 10
201.4735954951925
 20
98.10075702753494
 30
0.0
 10
201.4737001710628
 20
98.10012418438563
 30
0.0
  0
SPLINE
  5
16A
330
1F
100
AcDbEntity
  8
0
  6
Continuous
 62
     7
370
    25
100
AcDbSpline
210
0.0
220
0.0
230
1.0
 70
    24
 71
     3
 72
    14
 73
    10
 74
     0
 42
0.000000001
 43
0.00000001
 40
0.0
 40
0.0
 40
0.0
 40
0.0
 40
0.0686783537768138
 40
0.2932170497282056
 40
0.2935200239703272
 40
0.5073355948525435
 40
0.7069536501822122
 40
0.9001970470938867
 40
1.0
 40
1.0
 40
1.0
 40
1.0
 10
201.1733844966684
 20
97.1020304377831
 30
0.0
 10
201.1733844966684
 20
97.12088263376606
 30
0.0
 10
201.1733844966684
 20
97.20137066213356
 30
0.0
 10
201.1733844966686
 20
97.28105523047219
 30
0.0
 10
201.1733844966683
 20
97.39027460798805
 30
0.0
 10
201.1733844966685
 20
97.48696473702564
 30
0.0
 10
201.1733844966684
 20
97.58854957340921
 30
0.0
 10
201.1733844966684
 20
97.64210088517898
 30
0.0
 10
201.1733844966684
 20
97.63789419131417
 30
0.0
 10
201.1733844966684
 20
97.63646151532302
 30
0.0
  0
SPLINE
  5
16B
330
1F
100
AcDbEntity
  8
0
  6
Continuous
 62
     7
370
    25
100
AcDbSpline
210
0.0
220
0.0
230
1.0
 70
    24
 71
     3
 72
     9
 73
     5
 74
     0
 42
0.000000001
 43
0.00000001
 40
0.0
 40
0.0
 40
0.0
 40
0.0
 40
0.3143285051886555
 40
1.0
 40
1.0
 40
1.0
 40
1.0
 10
201.1733844966684
 20
96.91660783846746
 30
0.0
 10
201.1733844966684
 20
96.93479110877628
 30
0.0
 10
201.1733844966684
 20
96.99263909268063
 30
0.0
 10
201.1733844966684
 20
97.05753391082234
 30
0.0
 10
201.1733844966684
 20
97.1020304377831
 30
0.0
  0
LINE
  5
16C
330
1F
100
AcDbEntity
  8
0
  6
Continuous
 62
     7
370
    25
100
AcDbLine
 10
208.6233846468
 20
115.6020297449
 30
0.0
 11
208.6233846468
 21
116.2020305883
 31
0.0
  0
LINE
  5
16D
330
1F
100
AcDbEntity
  8
0
  6
Continuous
 62
     7
370
    25
100
AcDbLine
 10
208.6233846468
 20
116.2020305883
 30
0.0
 11
208.8733846878
 21
116.2020305883
 31
0.0
  0
LINE
  5
16E
330
1F
100
AcDbEntity
  8
0
  6
Continuous
 62
     7
370
    25
100
AcDbLine
 10
208.8733846878
 20
116.2020305883
 30
0.0
 11
208.8733846878
 21
115.6020297449
 31
0.0
  0
LINE
  5
16F
330
1F
100
AcDbEntity
  8
0
  6
Continuous
 62
     7
370
    25
100
AcDbLine
 10
208.8733846878
 20
115.6020297449
 30
0.0
 11
208.6233846468
 21
115.6020297449
 31
0.0
  0
LINE
  5
170
330
1F
100
AcDbEntity
  8
0
  6
Continuous
 62
     7
370
    25
100
AcDbLine
 10
208.6233846468
 20
116.2020305883
 30
0.0
 11
208.6233846468
 21
116.4520292323
 31
0.0
  0
ARC
  5
171
330
1F
100
AcDbEntity
  8
0
  6
Continuous
 62
     7
370
    25
100
AcDbCircle
 10
208.6233846747
 20
116.2020300578
 30
0.0
 40
0.25
100
AcDbArc
 50
0.0
 51
90.0
  0
LINE
  5
172
330
1F
100
AcDbEntity
  8
0
  6
Continuous
 62
     7
370
    25
100
AcDbLine
 10
206.1233847027
 20
116.2020305883
 30
0.0
 11
206.1233847027
 21
115.6020297449
 31
0.0
  0
LINE
  5
173
330
1F
100
AcDbEntity
  8
0
  6
Continuous
 62
     7
370
    25
100
AcDbLine
 10
208.6233846468
 20
116.2020305883
 30
0.0
 11
206.1233847027
 21
116.2020305883
 31
0.0
  0
LINE
  5
174
330
1F
100
AcDbEntity
  8
0
  6
Continuous
 62
     7
370
    25
100
AcDbLine
 10
206.1233847027
 20
115.6020297449
 30
0.0
 11
208.6233846468
 21
115.6020297449
 31
0.0
  0
LINE
  5
175
330
1F
100
AcDbEntity
  8
0
  6
Continuous
 62
     7
370
    25
100
AcDbLine
 10
206.1233847027
 20
116.4520292323
 30
0.0
 11
206.1233847027
 21
116.2020305883
 31
0.0
  0
LINE
  5
176
330
1F
100
AcDbEntity
  8
0
  6
Continuous
 62
     7
370
    25
100
AcDbLine
 10
206.1233847027
 20
116.4520292323
 30
0.0
 11
208.6233846468
 21
116.4520292323
 31
0.0
  0
LINE
  5
177
330
1F
100
AcDbEntity
  8
0
  6
Continuous
 62
     7
370
    25
100
AcDbLine
 10
205.8733846617
 20
116.2020305883
 30
0.0
 11
206.1233847027
 21
116.2020305883
 31
0.0
  0
ARC
  5
178
330
1F
100
AcDbEntity
  8
0
  6
Continuous
 62
     7
370
    25
100
AcDbCircle
 10
206.1233846747
 20
116.2020300578
 30
0.0
 40
0.25
100
AcDbArc
 50
90.0
 51
180.0
  0
LINE
  5
179
330
1F
100
AcDbEntity
  8
0
  6
Continuous
 62
     7
370
    25
100
AcDbLine
 10
205.8733846617
 20
115.6020297449
 30
0.0
 11
205.8733846617
 21
116.2020305883
 31
0.0
  0
LINE
  5
17A
330
1F
100
AcDbEntity
  8
0
  6
Continuous
 62
     7
370
    25
100
AcDbLine
 10
206.1233847027
 20
115.6020297449
 30
0.0
 11
205.8733846617
 21
115.6020297449
 31
0.0
  0
SPLINE
  5
17B
330
1F
100
AcDbEntity
  8
0
  6
Continuous
 62
     7
370
    25
100
AcDbSpline
210
0.0
220
0.0
230
1.0
 70
     8
 71
     3
 72
    15
 73
    11
 74
     0
 42
0.000000001
 43
0.00000001
 40
0.0
 40
0.0
 40
0.0
 40
0.0
 40
0.0090436668555053
 40
0.1032416108587011
 40
0.1542555096908477
 40
0.3133160372726557
 40
0.5243720667937798
 40
0.6678058153000223
 40
0.9918331445062708
 40
0.9999999999999999
 40
0.9999999999999999
 40
0.9999999999999999
 40
0.9999999999999999
 10
205.6994715795909
 20
116.2020305882848
 30
0.0
 10
205.6994892453776
 20
116.2037112687898
 30
0.0
 10
205.6996909162607
 20
116.222897752043
 30
0.0
 10
205.705880433823
 20
116.2515917361769
 30
0.0
 10
205.7300819282651
 20
116.3022684449153
 30
0.0
 10
205.7831016020032
 20
116.3601440117937
 30
0.0
 10
205.864471700836
 20
116.4050121074755
 30
0.0
 10
205.9790513299887
 20
116.4423699474164
 30
0.0
 10
206.063476669593
 20
116.4519292159873
 30
0.0
 10
206.1219472283737
 20
116.4520268324199
 30
0.0
 10
206.123384702677
 20
116.4520292322792
 30
0.0
  0
LINE
  5
17C
330
1F
100
AcDbEntity
  8
0
  6
Continuous
 62
     7
370
    25
100
AcDbLine
 10
205.6994715796
 20
116.2020305883
 30
0.0
 11
205.8733846617
 21
116.2020305883
 31
0.0
  0
LINE
  5
17D
330
1F
100
AcDbEntity
  8
0
  6
Continuous
 62
     7
370
    25
100
AcDbLine
 10
208.8733846878
 20
116.2020305883
 30
0.0
 11
209.0472977699
 21
116.2020305883
 31
0.0
  0
SPLINE
  5
17E
330
1F
100
AcDbEntity
  8
0
  6
Continuous
 62
     7
370
    25
100
AcDbSpline
210
0.0
220
0.0
230
1.0
 70
     8
 71
     3
 72
    15
 73
    11
 74
     0
 42
0.000000001
 43
0.00000001
 40
0.0
 40
0.0
 40
0.0
 40
0.0
 40
0.0081668554937291
 40
0.3321941846999776
 40
0.4756279332062201
 40
0.6866839627273442
 40
0.8457444903091523
 40
0.8967583891412989
 40
0.9909563331444947
 40
1.0
 40
1.0
 40
1.0
 40
1.0
 10
208.6233846467976
 20
116.4520292322792
 30
0.0
 10
208.6248221211009
 20
116.4520268324199
 30
0.0
 10
208.6832926798816
 20
116.4519292159873
 30
0.0
 10
208.7677180194859
 20
116.4423699474164
 30
0.0
 10
208.8822976486386
 20
116.4050121074755
 30
0.0
 10
208.9636677474714
 20
116.3601440117937
 30
0.0
 10
209.0166874212096
 20
116.3022684449153
 30
0.0
 10
209.0408889156516
 20
116.2515917361769
 30
0.0
 10
209.0470784332139
 20
116.222897752043
 30
0.0
 10
209.047280104097
 20
116.2037112687898
 30
0.0
 10
209.0472977698837
 20
116.2020305882848
 30
0.0
  0
LINE
  5
17F
330
1F
100
AcDbEntity
  8
0
  6
Continuous
 62
     7
370
    25
100
AcDbLine
 10
209.0472977699
 20
116.2020305883
 30
0.0
 11
209.0472977699
 21
115.6020297449
 31
0.0
  0
LINE
  5
180
330
1F
100
AcDbEntity
  8
0
  6
Continuous
 62
     7
370
    25
100
AcDbLine
 10
209.0472977699
 20
115.6020297449
 30
0.0
 11
208.8733846878
 21
115.6020297449
 31
0.0
  0
LINE
  5
181
330
1F
100
AcDbEntity
  8
0
  6
Continuous
 62
     7
370
    25
100
AcDbLine
 10
205.6994715796
 20
115.6020297449
 30
0.0
 11
205.6994715796
 21
116.2020305883
 31
0.0
  0
LINE
  5
182
330
1F
100
AcDbEntity
  8
0
  6
Continuous
 62
     7
370
    25
100
AcDbLine
 10
205.8733846617
 20
115.6020297449
 30
0.0
 11
205.6994715796
 21
115.6020297449
 31
0.0
  0
LINE
  5
183
330
1F
100
AcDbEntity
  8
0
  6
Continuous
 62
     7
370
    25
100
AcDbLine
 10
208.6233846468
 20
116.4520292323
 30
0.0
 11
212.623384604
 21
116.4520292323
 31
0.0
  0
LINE
  5
184
330
1F
100
AcDbEntity
  8
0
  6
Continuous
 62
     7
370
    25
100
AcDbLine
 10
202.1233847455
 20
116.4520292323
 30
0.0
 11
206.1233847027
 21
116.4520292323
 31
0.0
  0
LINE
  5
185
330
1F
100
AcDbEntity
  8
0
  6
Continuous
 62
     7
370
    25
100
AcDbLine
 10
209.0472977699
 20
115.6020297449
 30
0.0
 11
212.8733846449
 21
115.6020297449
 31
0.0
  0
LINE
  5
186
330
1F
100
AcDbEntity
  8
0
  6
Continuous
 62
     7
370
    25
100
AcDbLine
 10
201.8733847045
 20
115.6020297449
 30
0.0
 11
205.6994715796
 21
115.6020297449
 31
0.0
  0
LINE
  5
187
330
1F
100
AcDbEntity
  8
0
  6
Continuous
 62
     7
370
    25
100
AcDbLine
 10
206.7733846462
 20
116.4620297741
 30
0.0
 11
207.9733847032
 21
116.4620297741
 31
0.0
  0
LINE
  5
188
330
1F
100
AcDbEntity
  8
0
  6
Continuous
 62
     7
370
    25
100
AcDbLine
 10
207.9733847032
 20
116.4520292323
 30
0.0
 11
207.9733847032
 21
116.4620297741
 31
0.0
  0
LINE
  5
189
330
1F
100
AcDbEntity
  8
0
  6
Continuous
 62
     7
370
    25
100
AcDbLine
 10
206.7733846462
 20
116.4520292323
 30
0.0
 11
206.7733846462
 21
116.4620297741
 31
0.0
  0
LINE
  5
18A
330
1F
100
AcDbEntity
  8
0
  6
Continuous
 62
     7
370
    25
100
AcDbLine
 10
200.3733844587
 20
99.6020299162
 30
0.0
 11
214.3733848908
 21
99.6020299162
 31
0.0
  0
LINE
  5
18B
330
1F
100
AcDbEntity
  8
0
  6
Continuous
 62
     7
370
    25
100
AcDbLine
 10
199.9233847574
 20
107.6020302962
 30
0.0
 11
214.823384592
 21
107.6020302962
 31
0.0
  0
LINE
  5
18C
330
1F
100
AcDbEntity
  8
0
  6
Continuous
 62
     7
370
    25
100
AcDbLine
 10
210.6450838593
 20
117.6020300727
 30
0.0
 11
210.6450838593
 21
116.4520292323
 31
0.0
  0
LINE
  5
18D
330
1F
100
AcDbEntity
  8
0
  6
Continuous
 62
     7
370
    25
100
AcDbLine
 10
210.6450838593
 20
117.6020300727
 30
0.0
 11
210.8733847828
 21
117.6020300727
 31
0.0
  0
LINE
  5
18E
330
1F
100
AcDbEntity
  8
0
  6
Continuous
 62
     7
370
    25
100
AcDbLine
 10
210.8733847828
 20
116.4520292323
 30
0.0
 11
210.8733847828
 21
117.6020300727
 31
0.0
  0
LINE
  5
18F
330
1F
100
AcDbEntity
  8
0
  6
Continuous
 62
     7
370
    25
100
AcDbLine
 10
203.8733845667
 20
117.6020300727
 30
0.0
 11
203.8733845667
 21
116.4520292323
 31
0.0
  0
LINE
  5
190
330
1F
100
AcDbEntity
  8
0
  6
Continuous
 62
     7
370
    25
100
AcDbLine
 10
203.8733845667
 20
117.6020300727
 30
0.0
 11
204.1016854902
 21
117.6020300727
 31
0.0
  0
LINE
  5
191
330
1F
100
AcDbEntity
  8
0
  6
Continuous
 62
     7
370
    25
100
AcDbLine
 10
204.1016854902
 20
117.6020300727
 30
0.0
 11
204.1016854902
 21
116.4520292323
 31
0.0
  0
LINE
  5
192
330
1F
100
AcDbEntity
  8
0
  6
Continuous
 62
     7
370
    25
100
AcDbLine
 10
204.1016854902
 20
117.6020300727
 30
0.0
 11
210.6450838593
 21
117.6020300727
 31
0.0
  0
CIRCLE
  5
193
330
1F
100
AcDbEntity
  8
0
  6
Continuous
 62
     7
370
    25
100
AcDbCircle
 10
207.3733846747
 20
89.1020300578
 30
0.0
 40
2.899999999999991
  0
LINE
  5
194
330
1F
100
AcDbEntity
  8
0
  6
Continuous
 62
     8
370
    25
100
AcDbLine
 10
212.8733846449
 20
116.2020305883
 30
0.0
 11
209.0472977699
 21
116.2020305883
 31
0.0
  0
LINE
  5
195
330
1F
100
AcDbEntity
  8
0
  6
Continuous
 62
     8
370
    25
100
AcDbLine
 10
205.6994715796
 20
116.2020305883
 30
0.0
 11
201.8733847045
 21
116.2020305883
 31
0.0
  0
LINE
  5
196
330
1F
100
AcDbEntity
  8
0
  6
Continuous
 62
     7
370
    25
100
AcDbLine
 10
141.3612414173
 20
144.6662022012
 30
0.0
 11
143.229275199
 21
144.6662022012
 31
0.0
  0
LINE
  5
197
330
1F
100
AcDbEntity
  8
0
  6
Continuous
 62
     7
370
    25
100
AcDbLine
 10
143.229275199
 20
164.6662017541
 30
0.0
 11
141.3612414173
 21
164.6662017541
 31
0.0
  0
ARC
  5
198
330
1F
100
AcDbEntity
  8
0
  6
Continuous
 62
     7
370
    25
100
AcDbCircle
 10
160.1112416185
 20
163.6662019776
 30
0.0
 40
1.500000000000014
100
AcDbArc
 50
138.1896851042
 51
180.0
  0
ARC
  5
199
330
1F
100
AcDbEntity
  8
0
  6
Continuous
 62
     7
370
    25
100
AcDbCircle
 10
160.1112416185
 20
145.6662019776
 30
0.0
 40
1.5
100
AcDbArc
 50
180.0
 51
221.8103148958
  0
LINE
  5
19A
330
1F
100
AcDbEntity
  8
0
  6
Continuous
 62
     7
370
    25
100
AcDbLine
 10
160.611241313
 20
164.6662017541
 30
0.0
 11
158.993208038
 21
164.6662017541
 31
0.0
  0
LINE
  5
19B
330
1F
100
AcDbEntity
  8
0
  6
Continuous
 62
     7
370
    25
100
AcDbLine
 10
158.993208038
 20
144.6662022012
 30
0.0
 11
160.611241313
 21
144.6662022012
 31
0.0
  0
LINE
  5
19C
330
1F
100
AcDbEntity
  8
0
  6
Continuous
 62
     7
370
    25
100
AcDbLine
 10
160.611241313
 20
144.6662022012
 30
0.0
 11
161.111241395
 21
145.1662022831
 31
0.0
  0
LINE
  5
19D
330
1F
100
AcDbEntity
  8
0
  6
Continuous
 62
     7
370
    25
100
AcDbLine
 10
161.111241395
 20
164.1662016722
 30
0.0
 11
160.611241313
 21
164.6662017541
 31
0.0
  0
ARC
  5
19E
330
1F
100
AcDbEntity
  8
0
  6
Continuous
 62
     7
370
    25
100
AcDbCircle
 10
142.1112416185
 20
145.6662019776
 30
0.0
 40
1.5
100
AcDbArc
 50
318.1896851042
 51
0.0
  0
ARC
  5
19F
330
1F
100
AcDbEntity
  8
0
  6
Continuous
 62
     7
370
    25
100
AcDbCircle
 10
142.1112416185
 20
163.6662019776
 30
0.0
 40
1.500000000000014
100
AcDbArc
 50
0.0
 51
41.8103148958
  0
LINE
  5
1A0
330
1F
100
AcDbEntity
  8
0
  6
Continuous
 62
     7
370
    25
100
AcDbLine
 10
141.3612414173
 20
164.6662017541
 30
0.0
 11
141.111241842
 21
164.4162021788
 31
0.0
  0
LINE
  5
1A1
330
1F
100
AcDbEntity
  8
0
  6
Continuous
 62
     7
370
    25
100
AcDbLine
 10
141.111241842
 20
144.9162017765
 30
0.0
 11
141.3612414173
 21
144.6662022012
 31
0.0
  0
LINE
  5
1A2
330
1F
100
AcDbEntity
  8
0
  6
Continuous
 62
     7
370
    25
100
AcDbLine
 10
161.111241395
 20
149.6137644375
 30
0.0
 11
169.7562934853
 21
149.8839224899
 31
0.0
  0
LINE
  5
1A3
330
1F
100
AcDbEntity
  8
0
  6
Continuous
 62
     7
370
    25
100
AcDbLine
 10
169.7562934853
 20
159.4484814653
 30
0.0
 11
161.111241395
 21
159.7186395178
 31
0.0
  0
LINE
  5
1A4
330
1F
100
AcDbEntity
  8
0
  6
Continuous
 62
     7
370
    25
100
AcDbLine
 10
169.7562934853
 20
149.8839224899
 30
0.0
 11
171.1112411715
 21
150.6662017876
 31
0.0
  0
LINE
  5
1A5
330
1F
100
AcDbEntity
  8
0
  6
Continuous
 62
     7
370
    25
100
AcDbLine
 10
171.1112411715
 20
158.6662021676
 30
0.0
 11
169.7562934853
 21
159.4484814653
 31
0.0
  0
LINE
  5
1A6
330
1F
100
AcDbEntity
  8
0
  6
Continuous
 62
     7
370
    25
100
AcDbLine
 10
138.3112419419
 20
162.6662023576
 30
0.0
 11
138.1112413503
 21
162.466201766
 31
0.0
  0
LINE
  5
1A7
330
1F
100
AcDbEntity
  8
0
  6
Continuous
 62
     7
370
    25
100
AcDbLine
 10
138.1112413503
 20
146.8662021892
 30
0.0
 11
138.3112419419
 21
146.6662015977
 31
0.0
  0
LINE
  5
1A8
330
1F
100
AcDbEntity
  8
0
  6
Continuous
 62
     7
370
    25
100
AcDbLine
 10
141.111241842
 20
162.6662023576
 30
0.0
 11
138.3112419419
 21
162.6662023576
 31
0.0
  0
LINE
  5
1A9
330
1F
100
AcDbEntity
  8
0
  6
Continuous
 62
     7
370
    25
100
AcDbLine
 10
138.3112419419
 20
146.6662015977
 30
0.0
 11
141.111241842
 21
146.6662015977
 31
0.0
  0
LINE
  5
1AA
330
1F
100
AcDbEntity
  8
0
  6
Continuous
 62
     7
370
    25
100
AcDbLine
 10
124.6112419314
 20
159.9162019069
 30
0.0
 11
120.1112421251
 21
159.1662017839
 31
0.0
  0
LINE
  5
1AB
330
1F
100
AcDbEntity
  8
0
  6
Continuous
 62
     7
370
    25
100
AcDbLine
 10
120.1112421251
 20
150.1662021714
 30
0.0
 11
124.6112419314
 21
149.4162020484
 31
0.0
  0
LINE
  5
1AC
330
1F
100
AcDbEntity
  8
0
  6
Continuous
 62
     7
370
    25
100
AcDbLine
 10
120.1112421251
 20
159.9162019069
 30
0.0
 11
115.6112404562
 21
159.1662017839
 31
0.0
  0
LINE
  5
1AD
330
1F
100
AcDbEntity
  8
0
  6
Continuous
 62
     7
370
    25
100
AcDbLine
 10
115.6112404562
 20
150.1662021714
 30
0.0
 11
120.1112421251
 21
149.4162020484
 31
0.0
  0
LINE
  5
1AE
330
1F
100
AcDbEntity
  8
0
  6
Continuous
 62
     7
370
    25
100
AcDbLine
 10
138.1112413503
 20
159.9162019069
 30
0.0
 11
133.611241544
 21
159.9162019069
 31
0.0
  0
LINE
  5
1AF
330
1F
100
AcDbEntity
  8
0
  6
Continuous
 62
     7
370
    25
100
AcDbLine
 10
133.611241544
 20
149.4162020484
 30
0.0
 11
138.1112413503
 21
149.4162020484
 31
0.0
  0
LINE
  5
1B0
330
1F
100
AcDbEntity
  8
0
  6
Continuous
 62
     7
370
    25
100
AcDbLine
 10
115.6112404562
 20
159.9162019069
 30
0.0
 11
111.5912424422
 21
159.2462019274
 31
0.0
  0
LINE
  5
1B1
330
1F
100
AcDbEntity
  8
0
  6
Continuous
 62
     7
370
    25
100
AcDbLine
 10
111.5912424422
 20
150.0862020279
 30
0.0
 11
115.6112404562
 21
149.4162020484
 31
0.0
  0
LINE
  5
1B2
330
1F
100
AcDbEntity
  8
0
  6
Continuous
 62
     7
370
    25
100
AcDbLine
 10
129.1112417377
 20
159.9162019069
 30
0.0
 11
124.6112419314
 21
159.1662017839
 31
0.0
  0
LINE
  5
1B3
330
1F
100
AcDbEntity
  8
0
  6
Continuous
 62
     7
370
    25
100
AcDbLine
 10
124.6112419314
 20
150.1662021714
 30
0.0
 11
129.1112417377
 21
149.4162020484
 31
0.0
  0
LINE
  5
1B4
330
1F
100
AcDbEntity
  8
0
  6
Continuous
 62
     7
370
    25
100
AcDbLine
 10
133.611241544
 20
159.9162019069
 30
0.0
 11
129.1112417377
 21
159.1662017839
 31
0.0
  0
LINE
  5
1B5
330
1F
100
AcDbEntity
  8
0
  6
Continuous
 62
     7
370
    25
100
AcDbLine
 10
129.1112417377
 20
150.1662021714
 30
0.0
 11
133.611241544
 21
149.4162020484
 31
0.0
  0
LINE
  5
1B6
330
1F
100
AcDbEntity
  8
0
  6
Continuous
 62
     7
370
    25
100
AcDbLine
 10
111.5912424422
 20
159.2462019274
 30
0.0
 11
111.1112425126
 21
158.7662019978
 31
0.0
  0
LINE
  5
1B7
330
1F
100
AcDbEntity
  8
0
  6
Continuous
 62
     7
370
    25
100
AcDbLine
 10
111.1112425126
 20
150.5662019575
 30
0.0
 11
111.5912424422
 21
150.0862020279
 31
0.0
  0
LINE
  5
1B8
330
1F
100
AcDbEntity
  8
0
  6
Continuous
 62
     7
370
    25
100
AcDbLine
 10
143.229275199
 20
164.6662017541
 30
0.0
 11
143.229275199
 21
159.7572381819
 31
0.0
  0
LINE
  5
1B9
330
1F
100
AcDbEntity
  8
0
  6
Continuous
 62
     7
370
    25
100
AcDbLine
 10
143.229275199
 20
149.5751657734
 30
0.0
 11
143.229275199
 21
144.6662022012
 31
0.0
  0
LINE
  5
1BA
330
1F
100
AcDbEntity
  8
0
  6
Continuous
 62
     7
370
    25
100
AcDbLine
 10
141.3612414173
 20
164.6662017541
 30
0.0
 11
141.3612414173
 21
159.3648812944
 31
0.0
  0
LINE
  5
1BB
330
1F
100
AcDbEntity
  8
0
  6
Continuous
 62
     7
370
    25
100
AcDbLine
 10
141.3612414173
 20
149.9675226608
 30
0.0
 11
141.3612414173
 21
144.6662022012
 31
0.0
  0
LINE
  5
1BC
330
1F
100
AcDbEntity
  8
0
  6
Continuous
 62
     7
370
    25
100
AcDbLine
 10
158.993208038
 20
144.6662022012
 30
0.0
 11
158.993208038
 21
164.6662017541
 31
0.0
  0
SPLINE
  5
1BD
330
1F
100
AcDbEntity
  8
0
  6
Continuous
 62
     7
370
    25
100
AcDbSpline
210
0.0
220
0.0
230
1.0
 70
     8
 71
     3
 72
    12
 73
     8
 74
     0
 42
0.000000001
 43
0.00000001
 40
0.0
 40
0.0
 40
0.0
 40
0.0
 40
0.25
 40
0.25
 40
0.5
 40
0.5
 40
1.0
 40
1.0
 40
1.0
 40
1.0
 10
158.8403276855992
 20
145.9037407978871
 30
0.0
 10
158.7592110834945
 20
145.869235660027
 30
0.0
 10
158.7121811603262
 20
145.8363905887265
 30
0.0
 10
158.6493175587944
 20
145.7780380604799
 30
0.0
 10
158.6338678878772
 20
145.7523836968513
 30
0.0
 10
158.6066842234979
 20
145.6892844441115
 30
0.0
 10
158.6112416184971
 20
145.6662019776369
 30
0.0
 10
158.6112416184971
 20
145.6662019776369
 30
0.0
  0
SPLINE
  5
1BE
330
1F
100
AcDbEntity
  8
0
  6
Continuous
 62
     7
370
    25
100
AcDbSpline
210
0.0
220
0.0
230
1.0
 70
     8
 71
     3
 72
    14
 73
    10
 74
     0
 42
0.000000001
 43
0.00000001
 40
0.0
 40
0.0
 40
0.0
 40
0.0
 40
0.25
 40
0.25
 40
0.5
 40
0.5
 40
0.75
 40
0.75
 40
1.0
 40
1.0
 40
1.0
 40
1.0
 10
158.8403276855992
 20
145.9037407978871
 30
0.0
 10
158.8678486733442
 20
145.9154475934326
 30
0.0
 10
158.8877685951806
 20
145.9474895465142
 30
0.0
 10
158.9034356369987
 20
146.0468132971792
 30
0.0
 10
158.8989438051864
 20
146.11463673996
 30
0.0
 10
158.8676874599028
 20
146.2770783573728
 30
0.0
 10
158.841314876521
 20
146.3715237541085
 30
0.0
 10
158.7784783253767
 20
146.5797528617051
 30
0.0
 10
158.7424387465166
 20
146.6923512545882
 30
0.0
 10
158.708442743151
 20
146.8121076481883
 30
0.0
  0
SPLINE
  5
1BF
330
1F
100
AcDbEntity
  8
0
  6
Continuous
 62
     7
370
    25
100
AcDbSpline
210
0.0
220
0.0
230
1.0
 70
     8
 71
     3
 72
     8
 73
     4
 74
     0
 42
0.000000001
 43
0.00000001
 40
0.0
 40
0.0
 40
0.0
 40
0.0
 40
1.0
 40
1.0
 40
1.0
 40
1.0
 10
158.6112416184971
 20
147.5422985532494
 30
0.0
 10
158.6112416184971
 20
147.2948690964544
 30
0.0
 10
158.640606325575
 20
147.0510723475471
 30
0.0
 10
158.708442743151
 20
146.8121076481883
 30
0.0
  0
LINE
  5
1C0
330
1F
100
AcDbEntity
  8
0
  6
Continuous
 62
     7
370
    25
100
AcDbLine
 10
158.6112414509
 20
147.5422986062
 30
0.0
 11
158.6112414509
 21
161.790105349
 31
0.0
  0
SPLINE
  5
1C1
330
1F
100
AcDbEntity
  8
0
  6
Continuous
 62
     7
370
    25
100
AcDbSpline
210
0.0
220
0.0
230
1.0
 70
     8
 71
     3
 72
     8
 73
     4
 74
     0
 42
0.000000001
 43
0.00000001
 40
0.0
 40
0.0
 40
0.0
 40
0.0
 40
1.0
 40
1.0
 40
1.0
 40
1.0
 10
158.708442743151
 20
162.5202963070855
 30
0.0
 10
158.640606325575
 20
162.2813316077267
 30
0.0
 10
158.6112416184971
 20
162.0375348588194
 30
0.0
 10
158.6112416184971
 20
161.7901054020244
 30
0.0
  0
SPLINE
  5
1C2
330
1F
100
AcDbEntity
  8
0
  6
Continuous
 62
     7
370
    25
100
AcDbSpline
210
0.0
220
0.0
230
1.0
 70
     8
 71
     3
 72
    12
 73
     8
 74
     0
 42
0.000000001
 43
0.00000001
 40
0.0
 40
0.0
 40
0.0
 40
0.0
 40
0.4999999999999992
 40
0.4999999999999992
 40
0.7499999999999996
 40
0.7499999999999996
 40
1.0
 40
1.0
 40
1.0
 40
1.0
 10
158.708442743151
 20
162.5202963070855
 30
0.0
 10
158.7763125031609
 20
162.7593784605336
 30
0.0
 10
158.8523470544146
 20
162.9751485677104
 30
0.0
 10
158.8989916527916
 20
163.2182431604143
 30
0.0
 10
158.9034306493142
 20
163.2859084358904
 30
0.0
 10
158.8877000355214
 20
163.385061552047
 30
0.0
 10
158.867819605579
 20
163.4169687266003
 30
0.0
 10
158.8403276855992
 20
163.4286631573867
 30
0.0
  0
SPLINE
  5
1C3
330
1F
100
AcDbEntity
  8
0
  6
Continuous
 62
     7
370
    25
100
AcDbSpline
210
0.0
220
0.0
230
1.0
 70
     8
 71
     3
 72
    12
 73
     8
 74
     0
 42
0.000000001
 43
0.00000001
 40
0.0
 40
0.0
 40
0.0
 40
0.0
 40
0.5000000000000002
 40
0.5000000000000002
 40
0.7500000000000001
 40
0.7500000000000001
 40
1.0
 40
1.0
 40
1.0
 40
1.0
 10
158.6112416184971
 20
163.6662019776369
 30
0.0
 10
158.6112416184971
 20
163.6662019776369
 30
0.0
 10
158.6066842234979
 20
163.6431195111623
 30
0.0
 10
158.6338678878772
 20
163.5800202584225
 30
0.0
 10
158.6493175587944
 20
163.5543658947939
 30
0.0
 10
158.7121811603262
 20
163.4960133665473
 30
0.0
 10
158.7592110834945
 20
163.4631682952468
 30
0.0
 10
158.8403276855992
 20
163.4286631573867
 30
0.0
  0
LINE
  5
1C4
330
1F
100
AcDbEntity
  8
0
  6
Continuous
 62
     7
370
    25
100
AcDbLine
 10
160.611241313
 20
144.6662022012
 30
0.0
 11
160.611241313
 21
164.6662017541
 31
0.0
  0
LINE
  5
1C5
330
1F
100
AcDbEntity
  8
0
  6
Continuous
 62
     7
370
    25
100
AcDbLine
 10
161.111241395
 20
164.1662016722
 30
0.0
 11
161.111241395
 21
145.1662022831
 31
0.0
  0
SPLINE
  5
1C6
330
1F
100
AcDbEntity
  8
0
  6
Continuous
 62
     7
370
    25
100
AcDbSpline
210
0.0
220
0.0
230
1.0
 70
     8
 71
     3
 72
    12
 73
     8
 74
     0
 42
0.000000001
 43
0.00000001
 40
0.0
 40
0.0
 40
0.0
 40
0.0
 40
0.2500000000000001
 40
0.2500000000000001
 40
0.5000000000000001
 40
0.5000000000000001
 40
1.0
 40
1.0
 40
1.0
 40
1.0
 10
143.3821555513951
 20
163.4286631573867
 30
0.0
 10
143.4632721534997
 20
163.4631682952468
 30
0.0
 10
143.510302076668
 20
163.4960133665473
 30
0.0
 10
143.5731656781999
 20
163.5543658947939
 30
0.0
 10
143.5886153491171
 20
163.5800202584225
 30
0.0
 10
143.6157990134964
 20
163.6431195111623
 30
0.0
 10
143.6112416184971
 20
163.6662019776369
 30
0.0
 10
143.6112416184971
 20
163.6662019776369
 30
0.0
  0
SPLINE
  5
1C7
330
1F
100
AcDbEntity
  8
0
  6
Continuous
 62
     7
370
    25
100
AcDbSpline
210
0.0
220
0.0
230
1.0
 70
     8
 71
     3
 72
    14
 73
    10
 74
     0
 42
0.000000001
 43
0.00000001
 40
0.0
 40
0.0
 40
0.0
 40
0.0
 40
0.25
 40
0.25
 40
0.5
 40
0.5
 40
0.75
 40
0.75
 40
1.0
 40
1.0
 40
1.0
 40
1.0
 10
143.3821555513951
 20
163.4286631573867
 30
0.0
 10
143.35463456365
 20
163.4169563618411
 30
0.0
 10
143.3347146418136
 20
163.3849144087596
 30
0.0
 10
143.3190475999955
 20
163.2855906580946
 30
0.0
 10
143.3235394318079
 20
163.2177672153138
 30
0.0
 10
143.3547957770914
 20
163.055325597901
 30
0.0
 10
143.3811683604732
 20
162.9608802011653
 30
0.0
 10
143.4440049116175
 20
162.7526510935687
 30
0.0
 10
143.4800444904776
 20
162.6400527006856
 30
0.0
 10
143.5140404938432
 20
162.5202963070855
 30
0.0
  0
SPLINE
  5
1C8
330
1F
100
AcDbEntity
  8
0
  6
Continuous
 62
     7
370
    25
100
AcDbSpline
210
0.0
220
0.0
230
1.0
 70
     8
 71
     3
 72
     8
 73
     4
 74
     0
 42
0.000000001
 43
0.00000001
 40
0.0
 40
0.0
 40
0.0
 40
0.0
 40
1.0
 40
1.0
 40
1.0
 40
1.0
 10
143.6112416184971
 20
161.7901054020244
 30
0.0
 10
143.6112416184971
 20
162.0375348588194
 30
0.0
 10
143.5818769114193
 20
162.2813316077267
 30
0.0
 10
143.5140404938432
 20
162.5202963070855
 30
0.0
  0
LINE
  5
1C9
330
1F
100
AcDbEntity
  8
0
  6
Continuous
 62
     7
370
    25
100
AcDbLine
 10
143.6112417861
 20
161.790105349
 30
0.0
 11
143.6112417861
 21
159.8445506046
 31
0.0
  0
LINE
  5
1CA
330
1F
100
AcDbEntity
  8
0
  6
Continuous
 62
     7
370
    25
100
AcDbLine
 10
143.6112417861
 20
149.4878533507
 30
0.0
 11
143.6112417861
 21
147.5422986062
 31
0.0
  0
SPLINE
  5
1CB
330
1F
100
AcDbEntity
  8
0
  6
Continuous
 62
     7
370
    25
100
AcDbSpline
210
0.0
220
0.0
230
1.0
 70
     8
 71
     3
 72
     8
 73
     4
 74
     0
 42
0.000000001
 43
0.00000001
 40
0.0
 40
0.0
 40
0.0
 40
0.0
 40
1.0
 40
1.0
 40
1.0
 40
1.0
 10
143.5140404938432
 20
146.8121076481883
 30
0.0
 10
143.5818769114193
 20
147.0510723475471
 30
0.0
 10
143.6112416184971
 20
147.2948690964544
 30
0.0
 10
143.6112416184971
 20
147.5422985532494
 30
0.0
  0
SPLINE
  5
1CC
330
1F
100
AcDbEntity
  8
0
  6
Continuous
 62
     7
370
    25
100
AcDbSpline
210
0.0
220
0.0
230
1.0
 70
     8
 71
     3
 72
    12
 73
     8
 74
     0
 42
0.000000001
 43
0.00000001
 40
0.0
 40
0.0
 40
0.0
 40
0.0
 40
0.4999999999999992
 40
0.4999999999999992
 40
0.7499999999999996
 40
0.7499999999999996
 40
1.0
 40
1.0
 40
1.0
 40
1.0
 10
143.5140404938432
 20
146.8121076481883
 30
0.0
 10
143.4461707338334
 20
146.5730254947402
 30
0.0
 10
143.3701361825796
 20
146.3572553875634
 30
0.0
 10
143.3234915842027
 20
146.1141607948595
 30
0.0
 10
143.31905258768
 20
146.0464955193834
 30
0.0
 10
143.3347832014729
 20
145.9473424032267
 30
0.0
 10
143.3546636314152
 20
145.9154352286735
 30
0.0
 10
143.3821555513951
 20
145.9037407978871
 30
0.0
  0
SPLINE
  5
1CD
330
1F
100
AcDbEntity
  8
0
  6
Continuous
 62
     7
370
    25
100
AcDbSpline
210
0.0
220
0.0
230
1.0
 70
     8
 71
     3
 72
    12
 73
     8
 74
     0
 42
0.000000001
 43
0.00000001
 40
0.0
 40
0.0
 40
0.0
 40
0.0
 40
0.4999999999999998
 40
0.4999999999999998
 40
0.7499999999999999
 40
0.7499999999999999
 40
1.0
 40
1.0
 40
1.0
 40
1.0
 10
143.6112416184971
 20
145.6662019776369
 30
0.0
 10
143.6112416184971
 20
145.6662019776369
 30
0.0
 10
143.6157990134964
 20
145.6892844441115
 30
0.0
 10
143.5886153491171
 20
145.7523836968513
 30
0.0
 10
143.5731656781999
 20
145.7780380604799
 30
0.0
 10
143.510302076668
 20
145.8363905887265
 30
0.0
 10
143.4632721534997
 20
145.869235660027
 30
0.0
 10
143.3821555513951
 20
145.9037407978871
 30
0.0
  0
LINE
  5
1CE
330
1F
100
AcDbEntity
  8
0
  6
Continuous
 62
     7
370
    25
100
AcDbLine
 10
141.111241842
 20
144.9162017765
 30
0.0
 11
141.111241842
 21
150.0157027716
 31
0.0
  0
LINE
  5
1CF
330
1F
100
AcDbEntity
  8
0
  6
Continuous
 62
     7
370
    25
100
AcDbLine
 10
141.111241842
 20
159.3167011837
 30
0.0
 11
141.111241842
 21
164.4162021788
 31
0.0
  0
ARC
  5
1D0
330
1F
100
AcDbEntity
  8
0
  6
Continuous
 62
     7
370
    25
100
AcDbCircle
 10
144.0645593838
 20
161.8490808336
 30
0.0
 40
0.4571377824698463
100
AcDbArc
 50
187.4124053607
 51
275.8611502695
  0
ARC
  5
1D1
330
1F
100
AcDbEntity
  8
0
  6
Continuous
 62
     7
370
    25
100
AcDbCircle
 10
144.0645593838
 20
147.4833231217
 30
0.0
 40
0.4571377824698463
100
AcDbArc
 50
84.1388497305
 51
172.5875946393
  0
ARC
  5
1D2
330
1F
100
AcDbEntity
  8
0
  6
Continuous
 62
     7
370
    25
100
AcDbCircle
 10
158.1579238532
 20
161.8490808336
 30
0.0
 40
0.4571377824698378
100
AcDbArc
 50
264.1388497305
 51
352.5875946393
  0
ARC
  5
1D3
330
1F
100
AcDbEntity
  8
0
  6
Continuous
 62
     7
370
    25
100
AcDbCircle
 10
158.1579238532
 20
147.4833231217
 30
0.0
 40
0.4571377824698378
100
AcDbArc
 50
7.4124053607
 51
95.8611502695
  0
LWPOLYLINE
  5
1D4
330
1F
100
AcDbEntity
  8
0
  6
Continuous
 62
     7
370
    25
100
AcDbPolyline
 90
        9
 70
   128
 43
0.0
 10
143.5140405803
 20
162.5202967065
 10
143.5371727705
 20
162.5275144564
 10
143.5732848033
 20
162.5387825282
 10
143.6213228873
 20
162.5537721651
 10
143.6798839852
 20
162.572044714
 10
143.7472572572
 20
162.5930674585
 10
143.8214752845
 20
162.6162257256
 10
143.9003708794
 20
162.6408433752
 10
143.9816399499
 20
162.6662023576
  0
SPLINE
  5
1D5
330
1F
100
AcDbEntity
  8
0
  6
Continuous
 62
     7
370
    25
100
AcDbSpline
210
0.0
220
0.0
230
1.0
 70
     8
 71
     3
 72
     8
 73
     4
 74
     0
 42
0.000000001
 43
0.00000001
 40
0.0
 40
0.0
 40
0.0
 40
0.0
 40
1.0
 40
1.0
 40
1.0
 40
1.0
 10
143.9816401189586
 20
162.6662019776369
 30
0.0
 10
144.070648814347
 20
162.3809462200071
 30
0.0
 10
144.1112416184971
 20
162.0885282701252
 30
0.0
 10
144.1112416184971
 20
161.7901054020244
 30
0.0
  0
LINE
  5
1D6
330
1F
100
AcDbEntity
  8
0
  6
Continuous
 62
     7
370
    25
100
AcDbLine
 10
143.6112417861
 20
161.790105349
 30
0.0
 11
144.1112414024
 21
161.790105349
 31
0.0
  0
SPLINE
  5
1D7
330
1F
100
AcDbEntity
  8
0
  6
Continuous
 62
     7
370
    25
100
AcDbSpline
210
0.0
220
0.0
230
1.0
 70
     8
 71
     3
 72
     8
 73
     4
 74
     0
 42
0.000000001
 43
0.00000001
 40
0.0
 40
0.0
 40
0.0
 40
0.0
 40
1.0
 40
1.0
 40
1.0
 40
1.0
 10
158.1112416184971
 20
161.7901054020244
 30
0.0
 10
158.1112416184971
 20
162.0885282701252
 30
0.0
 10
158.1518344226473
 20
162.3809462200071
 30
0.0
 10
158.2408431180357
 20
162.6662019776369
 30
0.0
  0
LWPOLYLINE
  5
1D8
330
1F
100
AcDbEntity
  8
0
  6
Continuous
 62
     7
370
    25
100
AcDbPolyline
 90
        9
 70
   128
 43
0.0
 10
158.2408432871
 20
162.6662023576
 10
158.3221123576
 20
162.6408433752
 10
158.4010079525
 20
162.6162257256
 10
158.4752259798
 20
162.5930674585
 10
158.5425992518
 20
162.572044714
 10
158.6011603497
 20
162.5537721651
 10
158.6491984337
 20
162.5387825282
 10
158.6853104665
 20
162.5275144564
 10
158.7084426566
 20
162.5202967065
  0
LINE
  5
1D9
330
1F
100
AcDbEntity
  8
0
  6
Continuous
 62
     7
370
    25
100
AcDbLine
 10
158.1112418346
 20
161.790105349
 30
0.0
 11
158.6112414509
 21
161.790105349
 31
0.0
  0
SPLINE
  5
1DA
330
1F
100
AcDbEntity
  8
0
  6
Continuous
 62
     7
370
    25
100
AcDbSpline
210
0.0
220
0.0
230
1.0
 70
     8
 71
     3
 72
     8
 73
     4
 74
     0
 42
0.000000001
 43
0.00000001
 40
0.0
 40
0.0
 40
0.0
 40
0.0
 40
1.0
 40
1.0
 40
1.0
 40
1.0
 10
144.1112416184971
 20
147.5422985532494
 30
0.0
 10
144.1112416184971
 20
147.2438756851486
 30
0.0
 10
144.070648814347
 20
146.9514577352667
 30
0.0
 10
143.9816401189586
 20
146.6662019776369
 30
0.0
  0
LWPOLYLINE
  5
1DB
330
1F
100
AcDbEntity
  8
0
  6
Continuous
 62
     7
370
    25
100
AcDbPolyline
 90
        9
 70
   128
 43
0.0
 10
143.9816399499
 20
146.6662015977
 10
143.9003708794
 20
146.69156058
 10
143.8214752845
 20
146.7161782297
 10
143.7472572572
 20
146.7393364968
 10
143.6798839852
 20
146.7603592413
 10
143.6213228873
 20
146.7786317902
 10
143.5732848033
 20
146.793621427
 10
143.5371727705
 20
146.8048894989
 10
143.5140405803
 20
146.8121072488
  0
LINE
  5
1DC
330
1F
100
AcDbEntity
  8
0
  6
Continuous
 62
     7
370
    25
100
AcDbLine
 10
143.6112417861
 20
147.5422986062
 30
0.0
 11
144.1112414024
 21
147.5422986062
 31
0.0
  0
LWPOLYLINE
  5
1DD
330
1F
100
AcDbEntity
  8
0
  6
Continuous
 62
     7
370
    25
100
AcDbPolyline
 90
        9
 70
   128
 43
0.0
 10
158.7084426566
 20
146.8121072488
 10
158.6853104665
 20
146.8048894989
 10
158.6491984337
 20
146.793621427
 10
158.6011603497
 20
146.7786317902
 10
158.5425992518
 20
146.7603592413
 10
158.4752259798
 20
146.7393364968
 10
158.4010079525
 20
146.7161782297
 10
158.3221123576
 20
146.69156058
 10
158.2408432871
 20
146.6662015977
  0
SPLINE
  5
1DE
330
1F
100
AcDbEntity
  8
0
  6
Continuous
 62
     7
370
    25
100
AcDbSpline
210
0.0
220
0.0
230
1.0
 70
     8
 71
     3
 72
     8
 73
     4
 74
     0
 42
0.000000001
 43
0.00000001
 40
0.0
 40
0.0
 40
0.0
 40
0.0
 40
1.0
 40
1.0
 40
1.0
 40
1.0
 10
158.2408431180357
 20
146.6662019776369
 30
0.0
 10
158.1518344226473
 20
146.9514577352667
 30
0.0
 10
158.1112416184971
 20
147.2438756851486
 30
0.0
 10
158.1112416184971
 20
147.5422985532494
 30
0.0
  0
LINE
  5
1DF
330
1F
100
AcDbEntity
  8
0
  6
Continuous
 62
     7
370
    25
100
AcDbLine
 10
158.6112414509
 20
147.5422986062
 30
0.0
 11
158.1112418346
 21
147.5422986062
 31
0.0
  0
LINE
  5
1E0
330
1F
100
AcDbEntity
  8
0
  6
Continuous
 62
     7
370
    25
100
AcDbLine
 10
158.1112418346
 20
161.394332836
 30
0.0
 11
158.1112418346
 21
161.790105349
 31
0.0
  0
LINE
  5
1E1
330
1F
100
AcDbEntity
  8
0
  6
Continuous
 62
     7
370
    25
100
AcDbLine
 10
144.1112414024
 20
161.394332836
 30
0.0
 11
144.1112414024
 21
161.790105349
 31
0.0
  0
LINE
  5
1E2
330
1F
100
AcDbEntity
  8
0
  6
Continuous
 62
     7
370
    25
100
AcDbLine
 10
144.1112414024
 20
147.5422986062
 30
0.0
 11
144.1112414024
 21
147.9380711192
 31
0.0
  0
LINE
  5
1E3
330
1F
100
AcDbEntity
  8
0
  6
Continuous
 62
     7
370
    25
100
AcDbLine
 10
158.1112418346
 20
147.5422986062
 30
0.0
 11
158.1112418346
 21
147.9380711192
 31
0.0
  0
ARC
  5
1E4
330
1F
100
AcDbEntity
  8
0
  6
Continuous
 62
     7
370
    25
100
AcDbCircle
 10
143.8096217517
 20
163.6455091555
 30
0.0
 40
0.4793220025378311
100
AcDbArc
 50
206.8978733264
 51
269.5424057934
  0
SPLINE
  5
1E5
330
1F
100
AcDbEntity
  8
0
  6
Continuous
 62
     7
370
    25
100
AcDbSpline
210
0.0
220
0.0
230
1.0
 70
     8
 71
     3
 72
    14
 73
    10
 74
     0
 42
0.000000001
 43
0.00000001
 40
0.0
 40
0.0
 40
0.0
 40
0.0
 40
0.25
 40
0.25
 40
0.5
 40
0.5
 40
0.75
 40
0.75
 40
1.0
 40
1.0
 40
1.0
 40
1.0
 10
143.9816401189586
 20
162.6662019776369
 30
0.0
 10
143.943164635337
 20
162.7278552418644
 30
0.0
 10
143.902075713867
 20
162.7860391871373
 30
0.0
 10
143.8227928664264
 20
162.8997045086043
 30
0.0
 10
143.7855099653159
 20
162.953381107304
 30
0.0
 10
143.7327042060041
 20
163.0533711397507
 30
0.0
 10
143.7207349459105
 20
163.0977756399736
 30
0.0
 10
143.7407367342827
 20
163.1538354954674
 30
0.0
 10
143.770193189835
 20
163.1662019776369
 30
0.0
 10
143.8057935290277
 20
163.1662019776369
 30
0.0
  0
ARC
  5
1E6
330
1F
100
AcDbEntity
  8
0
  6
Continuous
 62
     7
370
    25
100
AcDbCircle
 10
158.4128614853
 20
145.6868947998
 30
0.0
 40
0.4793220025378311
100
AcDbArc
 50
26.8978733264
 51
89.5424057934
  0
SPLINE
  5
1E7
330
1F
100
AcDbEntity
  8
0
  6
Continuous
 62
     7
370
    25
100
AcDbSpline
210
0.0
220
0.0
230
1.0
 70
     8
 71
     3
 72
    14
 73
    10
 74
     0
 42
0.000000001
 43
0.00000001
 40
0.0
 40
0.0
 40
0.0
 40
0.0
 40
0.25
 40
0.25
 40
0.5
 40
0.5
 40
0.75
 40
0.75
 40
1.0
 40
1.0
 40
1.0
 40
1.0
 10
158.2408431180357
 20
146.6662019776369
 30
0.0
 10
158.2793186016573
 20
146.6045487134094
 30
0.0
 10
158.3204075231273
 20
146.5463647681365
 30
0.0
 10
158.3996903705679
 20
146.4326994466696
 30
0.0
 10
158.4369732716783
 20
146.3790228479698
 30
0.0
 10
158.4897790309901
 20
146.2790328155231
 30
0.0
 10
158.5017482910837
 20
146.2346283153002
 30
0.0
 10
158.4817465027116
 20
146.1785684598064
 30
0.0
 10
158.4522900471593
 20
146.1662019776369
 30
0.0
 10
158.4166897079665
 20
146.1662019776369
 30
0.0
  0
SPLINE
  5
1E8
330
1F
100
AcDbEntity
  8
0
  6
Continuous
 62
     7
370
    25
100
AcDbSpline
210
0.0
220
0.0
230
1.0
 70
     8
 71
     3
 72
    16
 73
    12
 74
     0
 42
0.000000001
 43
0.00000001
 40
0.0
 40
0.0
 40
0.0
 40
0.0
 40
0.2500000000000011
 40
0.2500000000000011
 40
0.3749999999999992
 40
0.3749999999999992
 40
0.4999999999999974
 40
0.4999999999999974
 40
0.7499999999999987
 40
0.7499999999999987
 40
1.0
 40
1.0
 40
1.0
 40
1.0
 10
158.4166897079665
 20
163.1662019776369
 30
0.0
 10
158.4522436374152
 20
163.1662019776369
 30
0.0
 10
158.4815157786439
 20
163.1540702272211
 30
0.0
 10
158.4967283288647
 20
163.1120485209417
 30
0.0
 10
158.4967889970383
 20
163.0938341514351
 30
0.0
 10
158.486578412561
 20
163.0518971389086
 30
0.0
 10
158.4767950830357
 20
163.0288695754143
 30
0.0
 10
158.4376305345038
 20
162.9544608966422
 30
0.0
 10
158.3997574612305
 20
162.8998030204598
 30
0.0
 10
158.3206844882389
 20
162.786433947281
 30
0.0
 10
158.2792973556481
 20
162.7278211971769
 30
0.0
 10
158.2408431180357
 20
162.6662019776369
 30
0.0
  0
ARC
  5
1E9
330
1F
100
AcDbEntity
  8
0
  6
Continuous
 62
     7
370
    25
100
AcDbCircle
 10
158.4128614853
 20
163.6455091555
 30
0.0
 40
0.4793220025378311
100
AcDbArc
 50
270.4575942066
 51
333.1021266736
  0
SPLINE
  5
1EA
330
1F
100
AcDbEntity
  8
0
  6
Continuous
 62
     7
370
    25
100
AcDbSpline
210
0.0
220
0.0
230
1.0
 70
     8
 71
     3
 72
    16
 73
    12
 74
     0
 42
0.000000001
 43
0.00000001
 40
0.0
 40
0.0
 40
0.0
 40
0.0
 40
0.2500000000000049
 40
0.2500000000000049
 40
0.3750000000000051
 40
0.3750000000000051
 40
0.5000000000000052
 40
0.5000000000000052
 40
0.7500000000000026
 40
0.7500000000000026
 40
1.0
 40
1.0
 40
1.0
 40
1.0
 10
143.8057935290277
 20
146.1662019776369
 30
0.0
 10
143.7702395995791
 20
146.1662019776369
 30
0.0
 10
143.7409674583504
 20
146.1783337280527
 30
0.0
 10
143.7257549081295
 20
146.2203554343321
 30
0.0
 10
143.725694239956
 20
146.2385698038387
 30
0.0
 10
143.7359048244333
 20
146.2805068163652
 30
0.0
 10
143.7456881539585
 20
146.3035343798595
 30
0.0
 10
143.7848527024905
 20
146.3779430586315
 30
0.0
 10
143.8227257757638
 20
146.432600934814
 30
0.0
 10
143.9017987487553
 20
146.5459700079928
 30
0.0
 10
143.9431858813461
 20
146.604582758097
 30
0.0
 10
143.9816401189586
 20
146.6662019776369
 30
0.0
  0
ARC
  5
1EB
330
1F
100
AcDbEntity
  8
0
  6
Continuous
 62
     7
370
    25
100
AcDbCircle
 10
143.8096217517
 20
145.6868947998
 30
0.0
 40
0.4793220025378311
100
AcDbArc
 50
90.4575942066
 51
153.1021266736
  0
LINE
  5
1EC
330
1F
100
AcDbEntity
  8
0
  6
Continuous
 62
     7
370
    25
100
AcDbLine
 10
169.7562934853
 20
159.4484814653
 30
0.0
 11
169.7562934853
 21
149.8839224899
 31
0.0
  0
LINE
  5
1ED
330
1F
100
AcDbEntity
  8
0
  6
Continuous
 62
     7
370
    25
100
AcDbLine
 10
158.2408432871
 20
162.6662023576
 30
0.0
 11
143.9816399499
 21
162.6662023576
 31
0.0
  0
LINE
  5
1EE
330
1F
100
AcDbEntity
  8
0
  6
Continuous
 62
     7
370
    25
100
AcDbLine
 10
143.805793675
 20
163.1662024396
 30
0.0
 11
158.416689562
 21
163.1662024396
 31
0.0
  0
LINE
  5
1EF
330
1F
100
AcDbEntity
  8
0
  6
Continuous
 62
     7
370
    25
100
AcDbLine
 10
143.9816399499
 20
146.6662015977
 30
0.0
 11
158.2408432871
 21
146.6662015977
 31
0.0
  0
LINE
  5
1F0
330
1F
100
AcDbEntity
  8
0
  6
Continuous
 62
     7
370
    25
100
AcDbLine
 10
158.416689562
 20
146.1662015157
 30
0.0
 11
143.805793675
 21
146.1662015157
 31
0.0
  0
LINE
  5
1F1
330
1F
100
AcDbEntity
  8
0
  6
Continuous
 62
     7
370
    25
100
AcDbLine
 10
171.1112411715
 20
158.6662021676
 30
0.0
 11
171.1112411715
 21
150.6662017876
 31
0.0
  0
ARC
  5
1F2
330
1F
100
AcDbEntity
  8
0
  6
Continuous
 62
     7
370
    25
100
AcDbCircle
 10
158.1112416185
 20
163.6662019776
 30
0.0
 40
0.5
100
AcDbArc
 50
270.0
 51
0.0
  0
ARC
  5
1F3
330
1F
100
AcDbEntity
  8
0
  6
Continuous
 62
     7
370
    25
100
AcDbCircle
 10
144.1112416185
 20
163.6662019776
 30
0.0
 40
0.5
100
AcDbArc
 50
180.0
 51
270.0
  0
ARC
  5
1F4
330
1F
100
AcDbEntity
  8
0
  6
Continuous
 62
     7
370
    25
100
AcDbCircle
 10
144.1112416185
 20
145.6662019776
 30
0.0
 40
0.5
100
AcDbArc
 50
90.0
 51
180.0
  0
ARC
  5
1F5
330
1F
100
AcDbEntity
  8
0
  6
Continuous
 62
     7
370
    25
100
AcDbCircle
 10
158.1112416185
 20
145.6662019776
 30
0.0
 40
0.5
100
AcDbArc
 50
0.0
 51
90.0
  0
SPLINE
  5
1F6
330
1F
100
AcDbEntity
  8
0
  6
Continuous
 62
     7
370
    25
100
AcDbSpline
210
0.0
220
0.0
230
1.0
 70
     8
 71
     3
 72
    15
 73
    11
 74
     0
 42
0.000000001
 43
0.00000001
 40
0.0
 40
0.0
 40
0.0
 40
0.0
 40
0.0081668554937291
 40
0.3321941846999776
 40
0.4756279332062201
 40
0.6866839627273442
 40
0.8457444903091523
 40
0.8967583891412989
 40
0.9909563331444947
 40
1.0
 40
1.0
 40
1.0
 40
1.0
 10
156.2102611198554
 20
155.9162019496972
 30
0.0
 10
156.2107486835365
 20
155.9176394240005
 30
0.0
 10
156.2305807743152
 20
155.9761099827812
 30
0.0
 10
156.2588599678332
 20
156.0605353223855
 30
0.0
 10
156.2966901361157
 20
156.1751149515382
 30
0.0
 10
156.3232731489203
 20
156.256485050371
 30
0.0
 10
156.3404441445611
 20
156.3095047241092
 30
0.0
 10
156.3482603672968
 20
156.3337062185512
 30
0.0
 10
156.3502554530855
 20
156.3398957361135
 30
0.0
 10
156.3503211573037
 20
156.3400974069966
 30
0.0
 10
156.3503269128034
 20
156.3401150727833
 30
0.0
  0
ARC
  5
1F7
330
1F
100
AcDbEntity
  8
0
  6
Continuous
 62
     7
370
    25
100
AcDbCircle
 10
151.1112416185
 20
154.6662019776
 30
0.0
 40
5.250000000000009
100
AcDbArc
 50
13.774146998
 51
166.225853002
  0
SPLINE
  5
1F8
330
1F
100
AcDbEntity
  8
0
  6
Continuous
 62
     7
370
    25
100
AcDbSpline
210
0.0
220
0.0
230
1.0
 70
     8
 71
     3
 72
    15
 73
    11
 74
     0
 42
0.000000001
 43
0.00000001
 40
0.0
 40
0.0
 40
0.0
 40
0.0
 40
0.0090436668555053
 40
0.1032416108587011
 40
0.1542555096908477
 40
0.3133160372726557
 40
0.5243720667937798
 40
0.6678058153000223
 40
0.9918331445062708
 40
0.9999999999999999
 40
0.9999999999999999
 40
0.9999999999999999
 40
0.9999999999999999
 10
145.8721563241909
 20
156.3401150727833
 30
0.0
 10
145.8721620796905
 20
156.3400974069966
 30
0.0
 10
145.8722277839087
 20
156.3398957361135
 30
0.0
 10
145.8742228696975
 20
156.3337062185512
 30
0.0
 10
145.8820390924331
 20
156.3095047241092
 30
0.0
 10
145.8992100880739
 20
156.256485050371
 30
0.0
 10
145.9257931008786
 20
156.1751149515382
 30
0.0
 10
145.9636232691611
 20
156.0605353223855
 30
0.0
 10
145.991902462679
 20
155.9761099827812
 30
0.0
 10
146.0117345534578
 20
155.9176394240005
 30
0.0
 10
146.0122221171389
 20
155.9162019496972
 30
0.0
  0
ARC
  5
1F9
330
1F
100
AcDbEntity
  8
0
  6
Continuous
 62
     7
370
    25
100
AcDbCircle
 10
151.1112416185
 20
154.6662019776
 30
0.0
 40
5.500000000000002
100
AcDbArc
 50
17.7189318734
 51
162.2810681266
  0
ARC
  5
1FA
330
1F
100
AcDbEntity
  8
0
  6
Continuous
 62
     7
370
    25
100
AcDbCircle
 10
145.6340160434
 20
156.4162019776
 30
0.0
 40
0.2500000000000126
100
AcDbArc
 50
270.0
 51
342.2810681266
  0
SPLINE
  5
1FB
330
1F
100
AcDbEntity
  8
0
  6
Continuous
 62
     7
370
    25
100
AcDbSpline
210
0.0
220
0.0
230
1.0
 70
     8
 71
     3
 72
    15
 73
    11
 74
     0
 42
0.000000001
 43
0.00000001
 40
0.0
 40
0.0
 40
0.0
 40
0.0
 40
0.0080845166116213
 40
0.3310110803515837
 40
0.4750334718139839
 40
0.6874373868841556
 40
0.8468378249369453
 40
0.9001014979498858
 40
0.9910465065391931
 40
0.9999999999999999
 40
0.9999999999999999
 40
0.9999999999999999
 40
0.9999999999999999
 10
146.0122221171389
 20
155.9162019496972
 30
0.0
 10
146.0109423467065
 20
155.9170179009257
 30
0.0
 10
145.9585436426463
 20
155.9504260699774
 30
0.0
 10
145.8831875231293
 20
155.9992374472439
 30
0.0
 10
145.781267857563
 20
156.066608840596
 30
0.0
 10
145.708878049393
 20
156.1151923184105
 30
0.0
 10
145.6611710031004
 20
156.1476416900215
 30
0.0
 10
145.6396373130475
 20
156.162352271581
 30
0.0
 10
145.6342066414471
 20
156.1660708628075
 30
0.0
 10
145.6340318742105
 20
156.1661912049062
 30
0.0
 10
145.6340162105391
 20
156.1662019906754
 30
0.0
  0
SPLINE
  5
1FC
330
1F
100
AcDbEntity
  8
0
  6
Continuous
 62
     7
370
    25
100
AcDbSpline
210
0.0
220
0.0
230
1.0
 70
     8
 71
     3
 72
    15
 73
    11
 74
     0
 42
0.000000001
 43
0.00000001
 40
0.0
 40
0.0
 40
0.0
 40
0.0
 40
0.0090436668555053
 40
0.1032416108587011
 40
0.1542555096908477
 40
0.3133160372726557
 40
0.5243720667937798
 40
0.6678058153000223
 40
0.9918331445062708
 40
0.9999999999999999
 40
0.9999999999999999
 40
0.9999999999999999
 40
0.9999999999999999
 10
156.3503269128034
 20
152.9922888824905
 30
0.0
 10
156.3503211573037
 20
152.9923065482772
 30
0.0
 10
156.3502554530855
 20
152.9925082191603
 30
0.0
 10
156.3482603672968
 20
152.9986977367226
 30
0.0
 10
156.3404441445611
 20
153.0228992311646
 30
0.0
 10
156.3232731489203
 20
153.0759189049028
 30
0.0
 10
156.2966901361157
 20
153.1572890037356
 30
0.0
 10
156.2588599678332
 20
153.2718686328883
 30
0.0
 10
156.2305807743152
 20
153.3562939724926
 30
0.0
 10
156.2107486835365
 20
153.4147645312733
 30
0.0
 10
156.2102611198554
 20
153.4162020055766
 30
0.0
  0
ARC
  5
1FD
330
1F
100
AcDbEntity
  8
0
  6
Continuous
 62
     7
370
    25
100
AcDbCircle
 10
151.1112416185
 20
154.6662019776
 30
0.0
 40
5.499999999999993
100
AcDbArc
 50
197.7189318734
 51
342.2810681266
  0
SPLINE
  5
1FE
330
1F
100
AcDbEntity
  8
0
  6
Continuous
 62
     7
370
    25
100
AcDbSpline
210
0.0
220
0.0
230
1.0
 70
     8
 71
     3
 72
    15
 73
    11
 74
     0
 42
0.000000001
 43
0.00000001
 40
0.0
 40
0.0
 40
0.0
 40
0.0
 40
0.0081668554937291
 40
0.3321941846999776
 40
0.4756279332062201
 40
0.6866839627273442
 40
0.8457444903091523
 40
0.8967583891412989
 40
0.9909563331444947
 40
1.0
 40
1.0
 40
1.0
 40
1.0
 10
146.0122221171389
 20
153.4162020055766
 30
0.0
 10
146.0117345534578
 20
153.4147645312733
 30
0.0
 10
145.991902462679
 20
153.3562939724926
 30
0.0
 10
145.9636232691611
 20
153.2718686328883
 30
0.0
 10
145.9257931008786
 20
153.1572890037356
 30
0.0
 10
145.8992100880739
 20
153.0759189049028
 30
0.0
 10
145.8820390924331
 20
153.0228992311646
 30
0.0
 10
145.8742228696975
 20
152.9986977367226
 30
0.0
 10
145.8722277839087
 20
152.9925082191603
 30
0.0
 10
145.8721620796905
 20
152.9923065482772
 30
0.0
 10
145.8721563241909
 20
152.9922888824905
 30
0.0
  0
ARC
  5
1FF
330
1F
100
AcDbEntity
  8
0
  6
Continuous
 62
     7
370
    25
100
AcDbCircle
 10
151.1112416185
 20
154.6662019776
 30
0.0
 40
5.250000000000009
100
AcDbArc
 50
193.774146998
 51
346.225853002
  0
SPLINE
  5
200
330
1F
100
AcDbEntity
  8
0
  6
Continuous
 62
     7
370
    25
100
AcDbSpline
210
0.0
220
0.0
230
1.0
 70
     8
 71
     3
 72
    15
 73
    11
 74
     0
 42
0.000000001
 43
0.00000001
 40
0.0
 40
0.0
 40
0.0
 40
0.0
 40
0.0089534934608068
 40
0.0998985020501141
 40
0.1531621750630547
 40
0.3125626131158444
 40
0.524966528186016
 40
0.6689889196484162
 40
0.9919154833883785
 40
0.9999999999999999
 40
0.9999999999999999
 40
0.9999999999999999
 40
0.9999999999999999
 10
145.6340162105391
 20
153.1662019645984
 30
0.0
 10
145.6340318742105
 20
153.1662127503677
 30
0.0
 10
145.6342066414471
 20
153.1663330924663
 30
0.0
 10
145.6396373130475
 20
153.1700516836928
 30
0.0
 10
145.6611710031004
 20
153.1847622652523
 30
0.0
 10
145.708878049393
 20
153.2172116368633
 30
0.0
 10
145.781267857563
 20
153.2657951146778
 30
0.0
 10
145.8831875231293
 20
153.3331665080299
 30
0.0
 10
145.9585436426463
 20
153.3819778852964
 30
0.0
 10
146.0109423467065
 20
153.4153860543481
 30
0.0
 10
146.0122221171389
 20
153.4162020055766
 30
0.0
  0
ARC
  5
201
330
1F
100
AcDbEntity
  8
0
  6
Continuous
 62
     7
370
    25
100
AcDbCircle
 10
145.6340160434
 20
152.9162019776
 30
0.0
 40
0.2500000000000213
100
AcDbArc
 50
17.7189318734
 51
90.0
  0
ARC
  5
202
330
1F
100
AcDbEntity
  8
0
  6
Continuous
 62
     7
370
    25
100
AcDbCircle
 10
156.5884671935
 20
156.4162019776
 30
0.0
 40
0.2500000000000397
100
AcDbArc
 50
197.7189318734
 51
270.0
  0
SPLINE
  5
203
330
1F
100
AcDbEntity
  8
0
  6
Continuous
 62
     7
370
    25
100
AcDbSpline
210
0.0
220
0.0
230
1.0
 70
     8
 71
     3
 72
    15
 73
    11
 74
     0
 42
0.000000001
 43
0.00000001
 40
0.0
 40
0.0
 40
0.0
 40
0.0
 40
0.0089534934608068
 40
0.0998985020501141
 40
0.1531621750630547
 40
0.3125626131158444
 40
0.524966528186016
 40
0.6689889196484162
 40
0.9919154833883785
 40
0.9999999999999999
 40
0.9999999999999999
 40
0.9999999999999999
 40
0.9999999999999999
 10
156.5884670264552
 20
156.1662019906754
 30
0.0
 10
156.5884513627837
 20
156.1661912049062
 30
0.0
 10
156.5882765955471
 20
156.1660708628075
 30
0.0
 10
156.5828459239467
 20
156.162352271581
 30
0.0
 10
156.5613122338938
 20
156.1476416900215
 30
0.0
 10
156.5136051876013
 20
156.1151923184105
 30
0.0
 10
156.4412153794313
 20
156.066608840596
 30
0.0
 10
156.3392957138649
 20
155.9992374472439
 30
0.0
 10
156.2639395943479
 20
155.9504260699774
 30
0.0
 10
156.2115408902877
 20
155.9170179009257
 30
0.0
 10
156.2102611198554
 20
155.9162019496972
 30
0.0
  0
SPLINE
  5
204
330
1F
100
AcDbEntity
  8
0
  6
Continuous
 62
     7
370
    25
100
AcDbSpline
210
0.0
220
0.0
230
1.0
 70
     8
 71
     3
 72
    15
 73
    11
 74
     0
 42
0.000000001
 43
0.00000001
 40
0.0
 40
0.0
 40
0.0
 40
0.0
 40
0.0080845166116213
 40
0.3310110803515837
 40
0.4750334718139839
 40
0.6874373868841556
 40
0.8468378249369453
 40
0.9001014979498858
 40
0.9910465065391931
 40
0.9999999999999999
 40
0.9999999999999999
 40
0.9999999999999999
 40
0.9999999999999999
 10
156.2102611198554
 20
153.4162020055766
 30
0.0
 10
156.2115408902877
 20
153.4153860543481
 30
0.0
 10
156.263939594348
 20
153.3819778852964
 30
0.0
 10
156.3392957138649
 20
153.3331665080299
 30
0.0
 10
156.4412153794313
 20
153.2657951146778
 30
0.0
 10
156.5136051876013
 20
153.2172116368633
 30
0.0
 10
156.5613122338938
 20
153.1847622652523
 30
0.0
 10
156.5828459239467
 20
153.1700516836928
 30
0.0
 10
156.5882765955471
 20
153.1663330924663
 30
0.0
 10
156.5884513627837
 20
153.1662127503677
 30
0.0
 10
156.5884670264552
 20
153.1662019645984
 30
0.0
  0
ARC
  5
205
330
1F
100
AcDbEntity
  8
0
  6
Continuous
 62
     7
370
    25
100
AcDbCircle
 10
156.5884671935
 20
152.9162019776
 30
0.0
 40
0.2500000000000484
100
AcDbArc
 50
90.0
 51
162.2810681266
  0
LINE
  5
206
330
1F
100
AcDbEntity
  8
0
  6
Continuous
 62
     7
370
    25
100
AcDbLine
 10
156.1112415067
 20
155.2662020061
 30
0.0
 11
146.1112417303
 21
155.2662020061
 31
0.0
  0
LINE
  5
207
330
1F
100
AcDbEntity
  8
0
  6
Continuous
 62
     7
370
    25
100
AcDbLine
 10
146.1112417303
 20
154.0662019491
 30
0.0
 11
156.1112415067
 21
154.0662019491
 31
0.0
  0
LINE
  5
208
330
1F
100
AcDbEntity
  8
0
  6
Continuous
 62
     7
370
    25
100
AcDbLine
 10
146.1112417303
 20
155.2662020061
 30
0.0
 11
146.1112417303
 21
154.0662019491
 31
0.0
  0
LINE
  5
209
330
1F
100
AcDbEntity
  8
0
  6
Continuous
 62
     7
370
    25
100
AcDbLine
 10
156.1112415067
 20
154.0662019491
 30
0.0
 11
156.1112415067
 21
155.2662020061
 31
0.0
  0
LINE
  5
20A
330
1F
100
AcDbEntity
  8
0
  6
Continuous
 62
     7
370
    25
100
AcDbLine
 10
156.8612416297
 20
155.9162019497
 30
0.0
 11
156.2102611199
 21
155.9162019497
 31
0.0
  0
LINE
  5
20B
330
1F
100
AcDbEntity
  8
0
  6
Continuous
 62
     7
370
    25
100
AcDbLine
 10
156.8612416297
 20
153.4162020056
 30
0.0
 11
156.8612416297
 21
155.9162019497
 31
0.0
  0
LINE
  5
20C
330
1F
100
AcDbEntity
  8
0
  6
Continuous
 62
     7
370
    25
100
AcDbLine
 10
156.2102611199
 20
153.4162020056
 30
0.0
 11
156.8612416297
 21
153.4162020056
 31
0.0
  0
LINE
  5
20D
330
1F
100
AcDbEntity
  8
0
  6
Continuous
 62
     7
370
    25
100
AcDbLine
 10
145.3612416073
 20
153.4162020056
 30
0.0
 11
146.0122221171
 21
153.4162020056
 31
0.0
  0
LINE
  5
20E
330
1F
100
AcDbEntity
  8
0
  6
Continuous
 62
     7
370
    25
100
AcDbLine
 10
145.3612416073
 20
155.9162019497
 30
0.0
 11
145.3612416073
 21
153.4162020056
 31
0.0
  0
LINE
  5
20F
330
1F
100
AcDbEntity
  8
0
  6
Continuous
 62
     7
370
    25
100
AcDbLine
 10
146.0122221171
 20
155.9162019497
 30
0.0
 11
145.3612416073
 21
155.9162019497
 31
0.0
  0
LINE
  5
210
330
1F
100
AcDbEntity
  8
0
  6
Continuous
 62
     7
370
    25
100
AcDbLine
 10
156.8612416297
 20
155.9162019497
 30
0.0
 11
156.8612416297
 21
156.1662019907
 31
0.0
  0
LINE
  5
211
330
1F
100
AcDbEntity
  8
0
  6
Continuous
 62
     7
370
    25
100
AcDbLine
 10
156.5884670265
 20
156.1662019907
 30
0.0
 11
156.8612416297
 21
156.1662019907
 31
0.0
  0
LINE
  5
212
330
1F
100
AcDbEntity
  8
0
  6
Continuous
 62
     7
370
    25
100
AcDbLine
 10
145.3612416073
 20
156.1662019907
 30
0.0
 11
145.3612416073
 21
155.9162019497
 31
0.0
  0
LINE
  5
213
330
1F
100
AcDbEntity
  8
0
  6
Continuous
 62
     7
370
    25
100
AcDbLine
 10
145.3612416073
 20
155.9162019497
 30
0.0
 11
145.1112415663
 21
155.9162019497
 31
0.0
  0
ARC
  5
214
330
1F
100
AcDbEntity
  8
0
  6
Continuous
 62
     7
370
    25
100
AcDbCircle
 10
145.3612416185
 20
155.9162019776
 30
0.0
 40
0.25
100
AcDbArc
 50
90.0
 51
180.0
  0
LINE
  5
215
330
1F
100
AcDbEntity
  8
0
  6
Continuous
 62
     7
370
    25
100
AcDbLine
 10
145.3612416073
 20
156.1662019907
 30
0.0
 11
145.6340162105
 21
156.1662019907
 31
0.0
  0
ARC
  5
216
330
1F
100
AcDbEntity
  8
0
  6
Continuous
 62
     7
370
    25
100
AcDbCircle
 10
156.8612416185
 20
155.9162019776
 30
0.0
 40
0.25
100
AcDbArc
 50
0.0
 51
90.0
  0
LINE
  5
217
330
1F
100
AcDbEntity
  8
0
  6
Continuous
 62
     7
370
    25
100
AcDbLine
 10
157.1112416707
 20
155.9162019497
 30
0.0
 11
156.8612416297
 21
155.9162019497
 31
0.0
  0
LINE
  5
218
330
1F
100
AcDbEntity
  8
0
  6
Continuous
 62
     7
370
    25
100
AcDbLine
 10
145.1112415663
 20
153.4162020056
 30
0.0
 11
145.3612416073
 21
153.4162020056
 31
0.0
  0
LINE
  5
219
330
1F
100
AcDbEntity
  8
0
  6
Continuous
 62
     7
370
    25
100
AcDbLine
 10
145.1112415663
 20
153.4162020056
 30
0.0
 11
145.1112415663
 21
155.9162019497
 31
0.0
  0
LINE
  5
21A
330
1F
100
AcDbEntity
  8
0
  6
Continuous
 62
     7
370
    25
100
AcDbLine
 10
157.1112416707
 20
155.9162019497
 30
0.0
 11
157.1112416707
 21
153.4162020056
 31
0.0
  0
LINE
  5
21B
330
1F
100
AcDbEntity
  8
0
  6
Continuous
 62
     7
370
    25
100
AcDbLine
 10
156.8612416297
 20
153.4162020056
 30
0.0
 11
157.1112416707
 21
153.4162020056
 31
0.0
  0
LINE
  5
21C
330
1F
100
AcDbEntity
  8
0
  6
Continuous
 62
     7
370
    25
100
AcDbLine
 10
145.6340162105
 20
153.1662019646
 30
0.0
 11
145.3612416073
 21
153.1662019646
 31
0.0
  0
LINE
  5
21D
330
1F
100
AcDbEntity
  8
0
  6
Continuous
 62
     7
370
    25
100
AcDbLine
 10
145.3612416073
 20
153.4162020056
 30
0.0
 11
145.3612416073
 21
153.1662019646
 31
0.0
  0
LINE
  5
21E
330
1F
100
AcDbEntity
  8
0
  6
Continuous
 62
     7
370
    25
100
AcDbLine
 10
156.8612416297
 20
153.1662019646
 30
0.0
 11
156.8612416297
 21
153.4162020056
 31
0.0
  0
LINE
  5
21F
330
1F
100
AcDbEntity
  8
0
  6
Continuous
 62
     7
370
    25
100
AcDbLine
 10
156.8612416297
 20
153.1662019646
 30
0.0
 11
156.5884670265
 21
153.1662019646
 31
0.0
  0
ARC
  5
220
330
1F
100
AcDbEntity
  8
0
  6
Continuous
 62
     7
370
    25
100
AcDbCircle
 10
156.8612416185
 20
153.4162019776
 30
0.0
 40
0.25
100
AcDbArc
 50
270.0
 51
0.0
  0
ARC
  5
221
330
1F
100
AcDbEntity
  8
0
  6
Continuous
 62
     7
370
    25
100
AcDbCircle
 10
145.3612416185
 20
153.4162019776
 30
0.0
 40
0.25
100
AcDbArc
 50
180.0
 51
270.0
  0
LINE
  5
222
330
1F
100
AcDbEntity
  8
0
  6
Continuous
 62
     7
370
    25
100
AcDbLine
 10
131.1112420655
 20
157.9379011622
 30
0.0
 11
128.935804779
 21
158.1662020857
 31
0.0
  0
LINE
  5
223
330
1F
100
AcDbEntity
  8
0
  6
Continuous
 62
     7
370
    25
100
AcDbLine
 10
131.1112420655
 20
151.3945027931
 30
0.0
 11
131.1112420655
 21
157.9379011622
 31
0.0
  0
LINE
  5
224
330
1F
100
AcDbEntity
  8
0
  6
Continuous
 62
     7
370
    25
100
AcDbLine
 10
128.935804779
 20
151.1662018696
 30
0.0
 11
131.1112420655
 21
151.3945027931
 31
0.0
  0
LINE
  5
225
330
1F
100
AcDbEntity
  8
0
  6
Continuous
 62
     7
370
    25
100
AcDbLine
 10
111.1112425126
 20
151.1662018696
 30
0.0
 11
128.935804779
 21
151.1662018696
 31
0.0
  0
LINE
  5
226
330
1F
100
AcDbEntity
  8
0
  6
Continuous
 62
     7
370
    25
100
AcDbLine
 10
111.1112425126
 20
158.1662020857
 30
0.0
 11
111.1112425126
 21
151.1662018696
 31
0.0
  0
LINE
  5
227
330
1F
100
AcDbEntity
  8
0
  6
Continuous
 62
     7
370
    25
100
AcDbLine
 10
128.935804779
 20
158.1662020857
 30
0.0
 11
111.1112425126
 21
158.1662020857
 31
0.0
  0
LINE
  5
228
330
1F
100
AcDbEntity
  8
0
  6
Continuous
 62
     7
370
    25
100
AcDbLine
 10
145.8874393276
 20
156.3872164792
 30
0.0
 11
145.7590304337
 21
156.2030747976
 31
0.0
  0
LINE
  5
229
330
1F
100
AcDbEntity
  8
0
  6
Continuous
 62
     7
370
    25
100
AcDbLine
 10
145.7685979105
 20
153.1209842745
 30
0.0
 11
145.8874393276
 21
152.9451874761
 31
0.0
  0
LINE
  5
22A
330
1F
100
AcDbEntity
  8
0
  6
Continuous
 62
     7
370
    25
100
AcDbLine
 10
137.6946719385
 20
157.2470046325
 30
0.0
 11
137.6946719385
 21
152.0853993228
 31
0.0
  0
LWPOLYLINE
  5
22B
330
1F
100
AcDbEntity
  8
0
  6
Continuous
 62
     7
370
    25
100
AcDbPolyline
 90
       15
 70
   128
 43
0.0
 10
145.8874393276
 20
152.9451874761
 10
145.5579825699
 20
152.9106127076
 10
145.1777175091
 20
152.8707058845
 10
144.7488313563
 20
152.8256964615
 10
144.273789788
 20
152.7758433461
 10
143.7553243733
 20
152.721433153
 10
143.1964172072
 20
152.6627788065
 10
142.6002813525
 20
152.6002174454
 10
141.9703450076
 20
152.5341089094
 10
141.310230086
 20
152.464833411
 10
140.6237335898
 20
152.3927890906
 10
139.9148033954
 20
152.3183903868
 10
139.1875140391
 20
152.2420652421
 10
138.4460490219
 20
152.1642525425
 10
137.6946719385
 20
152.0853993228
  0
LWPOLYLINE
  5
22C
330
1F
100
AcDbEntity
  8
0
  6
Continuous
 62
     7
370
    25
100
AcDbPolyline
 90
       15
 70
   128
 43
0.0
 10
137.6946719385
 20
157.2470046325
 10
138.4460490219
 20
157.1681514127
 10
139.1875140391
 20
157.0903387131
 10
139.9148033954
 20
157.0140135685
 10
140.6237335898
 20
156.9396148646
 10
141.310230086
 20
156.8675705442
 10
141.9703450076
 20
156.7982950458
 10
142.6002813525
 20
156.7321865099
 10
143.1964172072
 20
156.6696251488
 10
143.7553243733
 20
156.6109708023
 10
144.273789788
 20
156.5565606091
 10
144.7488313563
 20
156.5067074938
 10
145.1777175091
 20
156.4616980707
 10
145.5579825699
 20
156.4217912477
 10
145.8874393276
 20
156.3872164792
  0
LWPOLYLINE
  5
22D
330
1F
100
AcDbEntity
  8
0
  6
Continuous
 62
     7
370
    25
100
AcDbPolyline
 90
       19
 70
   128
 43
0.0
 10
137.6946719385
 20
152.0853993228
 10
137.1395319722
 20
152.0271404391
 10
136.584149862
 20
151.9688559441
 10
136.0332911856
 20
151.9110461908
 10
135.4916851989
 20
151.8542073412
 10
134.9639782704
 20
151.7988274085
 10
134.4547031469
 20
151.7453815999
 10
133.9682268001
 20
151.694328359
 10
133.5087271429
 20
151.6461063387
 10
133.0801492579
 20
151.6011292791
 10
132.6861681439
 20
151.5597829806
 10
132.3301682271
 20
151.5224225098
 10
132.0152023829
 20
151.4893687075
 10
131.7439751721
 20
151.4609049285
 10
131.5188167639
 20
151.437275645
 10
131.3416568584
 20
151.4186834196
 10
131.2140153743
 20
151.405288207
 10
131.1369894094
 20
151.3972047927
 10
131.1112420655
 20
151.3945027931
  0
LWPOLYLINE
  5
22E
330
1F
100
AcDbEntity
  8
0
  6
Continuous
 62
     7
370
    25
100
AcDbPolyline
 90
       19
 70
   128
 43
0.0
 10
131.1112420655
 20
157.9379011622
 10
131.1369894094
 20
157.9351991626
 10
131.2140153743
 20
157.9271157483
 10
131.3416568584
 20
157.9137205357
 10
131.5188167639
 20
157.8951283103
 10
131.7439751721
 20
157.8714990268
 10
132.0152023829
 20
157.8430352478
 10
132.3301682271
 20
157.8099814454
 10
132.6861681439
 20
157.7726209747
 10
133.0801492579
 20
157.7312746762
 10
133.5087271429
 20
157.6862976166
 10
133.9682268001
 20
157.6380755963
 10
134.4547031469
 20
157.5870223554
 10
134.9639782704
 20
157.5335765468
 10
135.4916851989
 20
157.4781966141
 10
136.0332911856
 20
157.4213577645
 10
136.584149862
 20
157.3635480112
 10
137.1395319722
 20
157.3052635161
 10
137.6946719385
 20
157.2470046325
  0
ARC
  5
22F
330
1F
100
AcDbEntity
  8
0
  6
Continuous
 62
     7
370
    25
100
AcDbCircle
 10
151.1112416185
 20
154.6662019776
 30
0.0
 40
7.450000000000661
100
AcDbArc
 50
233.0863788866
 51
126.9136211134
  0
ARC
  5
230
330
1F
100
AcDbEntity
  8
0
  6
Continuous
 62
     7
370
    25
100
AcDbCircle
 10
151.1112416185
 20
154.6662019776
 30
0.0
 40
7.207531252870781
100
AcDbArc
 50
195.3041237151
 51
238.9797515565
  0
ARC
  5
231
330
1F
100
AcDbEntity
  8
0
  6
Continuous
 62
     7
370
    25
100
AcDbCircle
 10
151.1112416185
 20
154.6662019776
 30
0.0
 40
7.207531252872441
100
AcDbArc
 50
121.0202484435
 51
164.6958762849
  0
ARC
  5
232
330
1F
100
AcDbEntity
  8
0
  6
Continuous
 62
     7
370
    25
100
AcDbCircle
 10
128.935804757
 20
223.1662019776
 30
0.0
 40
64.99999999999997
100
AcDbArc
 50
270.0
 51
286.5000949923
  0
ARC
  5
233
330
1F
100
AcDbEntity
  8
0
  6
Continuous
 62
     7
370
    25
100
AcDbCircle
 10
128.935804757
 20
86.1662019776
 30
0.0
 40
65.0
100
AcDbArc
 50
73.4999050077
 51
90.0
  0
LINE
  5
234
330
1F
100
AcDbEntity
  8
0
  6
Continuous
 62
     7
370
    25
100
AcDbLine
 10
138.3112419419
 20
162.5981739002
 30
0.0
 11
138.3112419419
 21
158.8459003927
 31
0.0
  0
LINE
  5
235
330
1F
100
AcDbEntity
  8
0
  6
Continuous
 62
     7
370
    25
100
AcDbLine
 10
138.3112419419
 20
150.4865035625
 30
0.0
 11
138.3112419419
 21
146.6662015977
 31
0.0
  0
LINE
  5
236
330
1F
100
AcDbEntity
  8
0
  6
Continuous
 62
     7
370
    25
100
AcDbLine
 10
138.3112419419
 20
162.6662023576
 30
0.0
 11
138.3112419419
 21
162.5981739002
 31
0.0
  0
LINE
  5
237
330
1F
100
AcDbEntity
  8
0
  6
Continuous
 62
     7
370
    25
100
AcDbLine
 10
138.1112413503
 20
162.3998743693
 30
0.0
 11
138.1112413503
 21
162.466201766
 31
0.0
  0
LINE
  5
238
330
1F
100
AcDbEntity
  8
0
  6
Continuous
 62
     7
370
    25
100
AcDbLine
 10
138.1112413503
 20
146.8662021892
 30
0.0
 11
138.1112413503
 21
150.5153382408
 31
0.0
  0
LINE
  5
239
330
1F
100
AcDbEntity
  8
0
  6
Continuous
 62
     7
370
    25
100
AcDbLine
 10
138.1112413503
 20
158.8170657145
 30
0.0
 11
138.1112413503
 21
162.3998743693
 31
0.0
  0
LINE
  5
23A
330
1F
100
AcDbEntity
  8
0
  6
Continuous
 62
     7
370
    25
100
AcDbLine
 10
124.6112419314
 20
159.8715584936
 30
0.0
 11
124.6112419314
 21
158.1662020857
 31
0.0
  0
LINE
  5
23B
330
1F
100
AcDbEntity
  8
0
  6
Continuous
 62
     7
370
    25
100
AcDbLine
 10
124.6112419314
 20
151.1662018696
 30
0.0
 11
124.6112419314
 21
149.4162020484
 31
0.0
  0
LINE
  5
23C
330
1F
100
AcDbEntity
  8
0
  6
Continuous
 62
     7
370
    25
100
AcDbLine
 10
124.6112419314
 20
159.9162019069
 30
0.0
 11
124.6112419314
 21
159.8715584936
 31
0.0
  0
LINE
  5
23D
330
1F
100
AcDbEntity
  8
0
  6
Continuous
 62
     7
370
    25
100
AcDbLine
 10
120.1112421251
 20
159.8715584936
 30
0.0
 11
120.1112421251
 21
158.1662020857
 31
0.0
  0
LINE
  5
23E
330
1F
100
AcDbEntity
  8
0
  6
Continuous
 62
     7
370
    25
100
AcDbLine
 10
120.1112421251
 20
151.1662018696
 30
0.0
 11
120.1112421251
 21
149.4162020484
 31
0.0
  0
LINE
  5
23F
330
1F
100
AcDbEntity
  8
0
  6
Continuous
 62
     7
370
    25
100
AcDbLine
 10
120.1112421251
 20
159.9162019069
 30
0.0
 11
120.1112421251
 21
159.8715584936
 31
0.0
  0
LINE
  5
240
330
1F
100
AcDbEntity
  8
0
  6
Continuous
 62
     7
370
    25
100
AcDbLine
 10
133.611241544
 20
159.8715584936
 30
0.0
 11
133.611241544
 21
158.334571703
 31
0.0
  0
LINE
  5
241
330
1F
100
AcDbEntity
  8
0
  6
Continuous
 62
     7
370
    25
100
AcDbLine
 10
133.611241544
 20
150.9978322523
 30
0.0
 11
133.611241544
 21
149.4162020484
 31
0.0
  0
LINE
  5
242
330
1F
100
AcDbEntity
  8
0
  6
Continuous
 62
     7
370
    25
100
AcDbLine
 10
133.611241544
 20
159.9162019069
 30
0.0
 11
133.611241544
 21
159.8715584936
 31
0.0
  0
LINE
  5
243
330
1F
100
AcDbEntity
  8
0
  6
Continuous
 62
     7
370
    25
100
AcDbLine
 10
115.6112404562
 20
159.8715584936
 30
0.0
 11
115.6112404562
 21
158.1662020857
 31
0.0
  0
LINE
  5
244
330
1F
100
AcDbEntity
  8
0
  6
Continuous
 62
     7
370
    25
100
AcDbLine
 10
115.6112404562
 20
151.1662018696
 30
0.0
 11
115.6112404562
 21
149.4162020484
 31
0.0
  0
LINE
  5
245
330
1F
100
AcDbEntity
  8
0
  6
Continuous
 62
     7
370
    25
100
AcDbLine
 10
115.6112404562
 20
159.9162019069
 30
0.0
 11
115.6112404562
 21
159.8715584936
 31
0.0
  0
LINE
  5
246
330
1F
100
AcDbEntity
  8
0
  6
Continuous
 62
     7
370
    25
100
AcDbLine
 10
111.5912424422
 20
159.2462019274
 30
0.0
 11
111.5912424422
 21
158.1662020857
 31
0.0
  0
LINE
  5
247
330
1F
100
AcDbEntity
  8
0
  6
Continuous
 62
     7
370
    25
100
AcDbLine
 10
111.5912424422
 20
151.1662018696
 30
0.0
 11
111.5912424422
 21
150.0862020279
 31
0.0
  0
LINE
  5
248
330
1F
100
AcDbEntity
  8
0
  6
Continuous
 62
     7
370
    25
100
AcDbLine
 10
129.1112417377
 20
159.8715584936
 30
0.0
 11
129.1112417377
 21
158.1664386416
 31
0.0
  0
LINE
  5
249
330
1F
100
AcDbEntity
  8
0
  6
Continuous
 62
     7
370
    25
100
AcDbLine
 10
129.1112417377
 20
151.1659653137
 30
0.0
 11
129.1112417377
 21
149.4162020484
 31
0.0
  0
LINE
  5
24A
330
1F
100
AcDbEntity
  8
0
  6
Continuous
 62
     7
370
    25
100
AcDbLine
 10
129.1112417377
 20
159.9162019069
 30
0.0
 11
129.1112417377
 21
159.8715584936
 31
0.0
  0
LINE
  5
24B
330
1F
100
AcDbEntity
  8
0
  6
Continuous
 62
     7
370
    25
100
AcDbLine
 10
111.1112425126
 20
158.7313374715
 30
0.0
 11
111.1112425126
 21
158.7662019978
 31
0.0
  0
LINE
  5
24C
330
1F
100
AcDbEntity
  8
0
  6
Continuous
 62
     7
370
    25
100
AcDbLine
 10
111.1112425126
 20
150.5662019575
 30
0.0
 11
111.1112425126
 21
151.1662018696
 31
0.0
  0
LINE
  5
24D
330
1F
100
AcDbEntity
  8
0
  6
Continuous
 62
     7
370
    25
100
AcDbLine
 10
111.1112425126
 20
158.1662020857
 30
0.0
 11
111.1112425126
 21
158.7313374715
 31
0.0
  0
LINE
  5
24E
330
1F
100
AcDbEntity
  8
0
  6
Continuous
 62
     8
370
    25
100
AcDbLine
 10
144.1112414024
 20
161.394332836
 30
0.0
 11
144.1112414024
 21
159.9625142502
 31
0.0
  0
LINE
  5
24F
330
1F
100
AcDbEntity
  8
0
  6
Continuous
 62
     8
370
    25
100
AcDbLine
 10
144.1112414024
 20
149.3698897051
 30
0.0
 11
144.1112414024
 21
147.9380711192
 31
0.0
  0
LINE
  5
250
330
1F
100
AcDbEntity
  8
0
  6
Continuous
 62
     8
370
    25
100
AcDbLine
 10
158.1112418346
 20
147.9380711192
 30
0.0
 11
158.1112418346
 21
152.1162018856
 31
0.0
  0
LINE
  5
251
330
1F
100
AcDbEntity
  8
0
  6
Continuous
 62
     8
370
    25
100
AcDbLine
 10
158.1112418346
 20
157.2162020697
 30
0.0
 11
158.1112418346
 21
161.394332836
 31
0.0
  0
LINE
  5
252
330
1F
100
AcDbEntity
  8
0
  6
Continuous
 62
     8
370
    25
100
AcDbLine
 10
158.1112418346
 20
161.394332836
 30
0.0
 11
154.310421741
 21
161.394332836
 31
0.0
  0
LINE
  5
253
330
1F
100
AcDbEntity
  8
0
  6
Continuous
 62
     8
370
    25
100
AcDbLine
 10
147.912061496
 20
161.394332836
 30
0.0
 11
144.1112414024
 21
161.394332836
 31
0.0
  0
LINE
  5
254
330
1F
100
AcDbEntity
  8
0
  6
Continuous
 62
     8
370
    25
100
AcDbLine
 10
144.1112414024
 20
147.9380711192
 30
0.0
 11
147.912061496
 21
147.9380711192
 31
0.0
  0
LINE
  5
255
330
1F
100
AcDbEntity
  8
0
  6
Continuous
 62
     8
370
    25
100
AcDbLine
 10
154.310421741
 20
147.9380711192
 30
0.0
 11
158.1112418346
 21
147.9380711192
 31
0.0
  0
LINE
  5
256
330
1F
100
AcDbEntity
  8
0
  6
Continuous
 62
     8
370
    25
100
AcDbLine
 10
144.1112414024
 20
161.790105349
 30
0.0
 11
148.9312187325
 21
161.790105349
 31
0.0
  0
LINE
  5
257
330
1F
100
AcDbEntity
  8
0
  6
Continuous
 62
     8
370
    25
100
AcDbLine
 10
153.2912645045
 20
161.790105349
 30
0.0
 11
158.1112418346
 21
161.790105349
 31
0.0
  0
LINE
  5
258
330
1F
100
AcDbEntity
  8
0
  6
Continuous
 62
     8
370
    25
100
AcDbLine
 10
158.1112418346
 20
147.5422986062
 30
0.0
 11
153.2912645045
 21
147.5422986062
 31
0.0
  0
LINE
  5
259
330
1F
100
AcDbEntity
  8
0
  6
Continuous
 62
     8
370
    25
100
AcDbLine
 10
148.9312187325
 20
147.5422986062
 30
0.0
 11
144.1112414024
 21
147.5422986062
 31
0.0
  0
ENDSEC
  0
SECTION
  2
OBJECTS
  0
DICTIONARY
  5
C
330
0
100
AcDbDictionary
281
     1
  3
ACAD_GROUP
350
D
  3
ACAD_LAYOUT
350
1A
  3
ACAD_MLINESTYLE
350
17
  3
ACAD_PLOTSETTINGS
350
19
  3
ACAD_PLOTSTYLENAME
350
E
  3
ACAD_SCALELIST
350
47
  0
DICTIONARY
  5
D
102
{ACAD_REACTORS
330
C
102
}
330
C
100
AcDbDictionary
281
     1
  0
DICTIONARY
  5
1A
102
{ACAD_REACTORS
330
C
102
}
330
C
100
AcDbDictionary
281
     1
  3
Layout1
350
1E
  3
Layout2
350
26
  3
Model
350
22
  0
DICTIONARY
  5
17
102
{ACAD_REACTORS
330
C
102
}
330
C
100
AcDbDictionary
281
     1
  3
Standard
350
18
  0
DICTIONARY
  5
19
102
{ACAD_REACTORS
330
C
102
}
330
C
100
AcDbDictionary
281
     1
  0
ACDBDICTIONARYWDFLT
  5
E
102
{ACAD_REACTORS
330
C
102
}
330
C
100
AcDbDictionary
281
     1
  3
Normal
350
F
100
AcDbDictionaryWithDefault
340
F
  0
DICTIONARY
  5
47
102
{ACAD_REACTORS
330
C
102
}
330
C
100
AcDbDictionary
281
     1
  3
A0
350
48
  3
A1
350
49
  3
A2
350
4A
  3
A3
350
4B
  3
A4
350
4C
  3
A5
350
4D
  3
A6
350
4E
  3
A7
350
4F
  3
A8
350
50
  3
A9
350
51
  3
B0
350
52
  3
B1
350
53
  3
B2
350
54
  3
B3
350
55
  3
B4
350
56
  3
B5
350
57
  3
B6
350
58
  3
B7
350
59
  3
B8
350
5A
  3
B9
350
5B
  3
C0
350
5C
  3
C1
350
5D
  3
C2
350
5E
  3
C3
350
5F
  3
C4
350
60
  3
C5
350
61
  3
C6
350
62
  3
C7
350
63
  3
C8
350
64
  3
C9
350
65
  3
D0
350
66
  3
D1
350
67
  3
D2
350
68
  0
LAYOUT
  5
1E
102
{ACAD_REACTORS
330
1A
102
}
330
1A
100
AcDbPlotSettings
  1

  2
none_device
  4

  6

 40
0.0
 41
0.0
 42
0.0
 43
0.0
 44
0.0
 45
0.0
 46
0.0
 47
0.0
 48
0.0
 49
0.0
140
0.0
141
0.0
142
1.0
143
1.0
 70
   688
 72
     1
 73
     0
 74
     5
  7

 75
    16
147
1.0
148
0.0
149
0.0
100
AcDbLayout
  1
Layout1
 70
     1
 71
     1
 10
0.0
 20
0.0
 11
420.0
 21
297.0
 12
0.0
 22
0.0
 32
0.0
 14
1.0000000000E+20
 24
1.0000000000E+20
 34
1.0000000000E+20
 15
-1.0000000000E+20
 25
-1.0000000000E+20
 35
-1.0000000000E+20
146
0.0
 13
0.0
 23
0.0
 33
0.0
 16
1.0
 26
0.0
 36
0.0
 17
0.0
 27
1.0
 37
0.0
 76
     0
330
1B
  0
LAYOUT
  5
26
102
{ACAD_REACTORS
330
1A
102
}
330
1A
100
AcDbPlotSettings
  1

  2
none_device
  4

  6

 40
0.0
 41
0.0
 42
0.0
 43
0.0
 44
0.0
 45
0.0
 46
0.0
 47
0.0
 48
0.0
 49
0.0
140
0.0
141
0.0
142
1.0
143
1.0
 70
   688
 72
     1
 73
     0
 74
     5
  7

 75
    16
147
1.0
148
0.0
149
0.0
100
AcDbLayout
  1
Layout2
 70
     1
 71
     2
 10
0.0
 20
0.0
 11
0.0
 21
0.0
 12
0.0
 22
0.0
 32
0.0
 14
0.0
 24
0.0
 34
0.0
 15
0.0
 25
0.0
 35
0.0
146
0.0
 13
0.0
 23
0.0
 33
0.0
 16
1.0
 26
0.0
 36
0.0
 17
0.0
 27
1.0
 37
0.0
 76
     0
330
23
  0
LAYOUT
  5
22
102
{ACAD_REACTORS
330
1A
102
}
330
1A
100
AcDbPlotSettings
  1

  2
none_device
  4
Letter_(8.50_x_11.00_Inches)
  6

 40
6.35
 41
6.35
 42
6.35000508
 43
6.35000508
 44
215.9
 45
279.4
 46
0.0
 47
0.0
 48
0.0
 49
0.0
140
0.0
141
0.0
142
1.0
143
1.0
 70
  1712
 72
     1
 73
     0
 74
     0
  7

 75
     0
147
1.0
148
0.0
149
0.0
100
AcDbLayout
  1
Model
 70
     1
 71
     0
 10
0.0
 20
0.0
 11
431.8
 21
279.4
 12
0.0
 22
0.0
 32
0.0
 14
0.0
 24
0.0
 34
0.0
 15
431.8
 25
279.4
 35
0.0
146
0.0
 13
0.0
 23
0.0
 33
0.0
 16
1.0
 26
0.0
 36
0.0
 17
0.0
 27
1.0
 37
0.0
 76
     0
330
1F
331
29
  0
MLINESTYLE
  5
18
102
{ACAD_REACTORS
330
17
102
}
330
17
100
AcDbMlineStyle
  2
Standard
 70
     0
  3

 62
   256
 51
90.0
 52
90.0
 71
     2
 49
0.5
 62
   256
  6
BYLAYER
 49
-0.5
 62
   256
  6
BYLAYER
  0
ACDBPLACEHOLDER
  5
F
102
{ACAD_REACTORS
330
E
102
}
330
E
  0
SCALE
  5
48
102
{ACAD_REACTORS
330
47
102
}
330
47
100
AcDbScale
 70
     0
300
1:1
140
1.0
141
1.0
290
     1
  0
SCALE
  5
49
102
{ACAD_REACTORS
330
47
102
}
330
47
100
AcDbScale
 70
     0
300
1:2
140
1.0
141
2.0
290
     0
  0
SCALE
  5
4A
102
{ACAD_REACTORS
330
47
102
}
330
47
100
AcDbScale
 70
     0
300
1:4
140
1.0
141
4.0
290
     0
  0
SCALE
  5
4B
102
{ACAD_REACTORS
330
47
102
}
330
47
100
AcDbScale
 70
     0
300
1:5
140
1.0
141
5.0
290
     0
  0
SCALE
  5
4C
102
{ACAD_REACTORS
330
47
102
}
330
47
100
AcDbScale
 70
     0
300
1:8
140
1.0
141
8.0
290
     0
  0
SCALE
  5
4D
102
{ACAD_REACTORS
330
47
102
}
330
47
100
AcDbScale
 70
     0
300
1:10
140
1.0
141
10.0
290
     0
  0
SCALE
  5
4E
102
{ACAD_REACTORS
330
47
102
}
330
47
100
AcDbScale
 70
     0
300
1:16
140
1.0
141
16.0
290
     0
  0
SCALE
  5
4F
102
{ACAD_REACTORS
330
47
102
}
330
47
100
AcDbScale
 70
     0
300
1:20
140
1.0
141
20.0
290
     0
  0
SCALE
  5
50
102
{ACAD_REACTORS
330
47
102
}
330
47
100
AcDbScale
 70
     0
300
1:30
140
1.0
141
30.0
290
     0
  0
SCALE
  5
51
102
{ACAD_REACTORS
330
47
102
}
330
47
100
AcDbScale
 70
     0
300
1:40
140
1.0
141
40.0
290
     0
  0
SCALE
  5
52
102
{ACAD_REACTORS
330
47
102
}
330
47
100
AcDbScale
 70
     0
300
1:50
140
1.0
141
50.0
290
     0
  0
SCALE
  5
53
102
{ACAD_REACTORS
330
47
102
}
330
47
100
AcDbScale
 70
     0
300
1:100
140
1.0
141
100.0
290
     0
  0
SCALE
  5
54
102
{ACAD_REACTORS
330
47
102
}
330
47
100
AcDbScale
 70
     0
300
2:1
140
2.0
141
1.0
290
     0
  0
SCALE
  5
55
102
{ACAD_REACTORS
330
47
102
}
330
47
100
AcDbScale
 70
     0
300
4:1
140
4.0
141
1.0
290
     0
  0
SCALE
  5
56
102
{ACAD_REACTORS
330
47
102
}
330
47
100
AcDbScale
 70
     0
300
8:1
140
8.0
141
1.0
290
     0
  0
SCALE
  5
57
102
{ACAD_REACTORS
330
47
102
}
330
47
100
AcDbScale
 70
     0
300
10:1
140
10.0
141
1.0
290
     0
  0
SCALE
  5
58
102
{ACAD_REACTORS
330
47
102
}
330
47
100
AcDbScale
 70
     0
300
100:1
140
100.0
141
1.0
290
     0
  0
SCALE
  5
59
102
{ACAD_REACTORS
330
47
102
}
330
47
100
AcDbScale
 70
     0
300
1/128" = 1'-0"
140
0.0078125
141
12.0
290
     0
  0
SCALE
  5
5A
102
{ACAD_REACTORS
330
47
102
}
330
47
100
AcDbScale
 70
     0
300
1/64" = 1'-0"
140
0.015625
141
12.0
290
     0
  0
SCALE
  5
5B
102
{ACAD_REACTORS
330
47
102
}
330
47
100
AcDbScale
 70
     0
300
1/32" = 1'-0"
140
0.03125
141
12.0
290
     0
  0
SCALE
  5
5C
102
{ACAD_REACTORS
330
47
102
}
330
47
100
AcDbScale
 70
     0
300
1/16" = 1'-0"
140
0.0625
141
12.0
290
     0
  0
SCALE
  5
5D
102
{ACAD_REACTORS
330
47
102
}
330
47
100
AcDbScale
 70
     0
300
3/32" = 1'-0"
140
0.09375
141
12.0
290
     0
  0
SCALE
  5
5E
102
{ACAD_REACTORS
330
47
102
}
330
47
100
AcDbScale
 70
     0
300
1/8" = 1'-0"
140
0.125
141
12.0
290
     0
  0
SCALE
  5
5F
102
{ACAD_REACTORS
330
47
102
}
330
47
100
AcDbScale
 70
     0
300
3/16" = 1'-0"
140
0.1875
141
12.0
290
     0
  0
SCALE
  5
60
102
{ACAD_REACTORS
330
47
102
}
330
47
100
AcDbScale
 70
     0
300
1/4" = 1'-0"
140
0.25
141
12.0
290
     0
  0
SCALE
  5
61
102
{ACAD_REACTORS
330
47
102
}
330
47
100
AcDbScale
 70
     0
300
3/8" = 1'-0"
140
0.375
141
12.0
290
     0
  0
SCALE
  5
62
102
{ACAD_REACTORS
330
47
102
}
330
47
100
AcDbScale
 70
     0
300
1/2" = 1'-0"
140
0.5
141
12.0
290
     0
  0
SCALE
  5
63
102
{ACAD_REACTORS
330
47
102
}
330
47
100
AcDbScale
 70
     0
300
3/4" = 1'-0"
140
0.75
141
12.0
290
     0
  0
SCALE
  5
64
102
{ACAD_REACTORS
330
47
102
}
330
47
100
AcDbScale
 70
     0
300
1" = 1'-0"
140
1.0
141
12.0
290
     0
  0
SCALE
  5
65
102
{ACAD_REACTORS
330
47
102
}
330
47
100
AcDbScale
 70
     0
300
1-1/2" = 1'-0"
140
1.5
141
12.0
290
     0
  0
SCALE
  5
66
102
{ACAD_REACTORS
330
47
102
}
330
47
100
AcDbScale
 70
     0
300
3" = 1'-0"
140
3.0
141
12.0
290
     0
  0
SCALE
  5
67
102
{ACAD_REACTORS
330
47
102
}
330
47
100
AcDbScale
 70
     0
300
6" = 1'-0"
140
6.0
141
12.0
290
     0
  0
SCALE
  5
68
102
{ACAD_REACTORS
330
47
102
}
330
47
100
AcDbScale
 70
     0
300
1'-0" = 1'-0"
140
12.0
141
12.0
290
     0
  0
ENDSEC
  0
EOF
