  0
SECTION
  2
HEADER
  9
$ACADVER
  1
AC1015
  9
$ACADMAINTVER
 70
     6
  9
$DWGCODEPAGE
  3
DOS932
  9
$INSBASE
 10
0.0
 20
0.0
 30
0.0
  9
$EXTMIN
 10
0.0
 20
0.0
 30
0.0
  9
$EXTMAX
 10
431.8
 20
279.4
 30
0.0
  9
$LIMMIN
 10
0.0
 20
0.0
  9
$LIMMAX
 10
431.8
 20
279.4
  9
$ORTHOMODE
 70
     0
  9
$REGENMODE
 70
     1
  9
$FILLMODE
 70
     1
  9
$QTEXTMODE
 70
     0
  9
$MIRRTEXT
 70
     1
  9
$LTSCALE
 40
1.0
  9
$ATTMODE
 70
     1
  9
$TEXTSIZE
 40
3.5
  9
$TRACEWID
 40
1.0
  9
$TEXTSTYLE
  7
Standard
  9
$CLAYER
  8
0
  9
$CELTYPE
  6
ByLayer
  9
$CECOLOR
 62
   256
  9
$CELTSCALE
 40
1.0
  9
$DISPSILH
 70
     0
  9
$DIMSCALE
 40
1.0
  9
$DIMASZ
 40
3.556
  9
$DIMEXO
 40
1.0
  9
$DIMDLI
 40
3.75
  9
$DIMRND
 40
0.0
  9
$DIMDLE
 40
0.0
  9
$DIMEXE
 40
1.0
  9
$DIMTP
 40
0.0
  9
$DIMTM
 40
0.0
  9
$DIMTXT
 40
3.5
  9
$DIMCEN
 40
2.5
  9
$DIMTSZ
 40
0.0
  9
$DIMTOL
 70
     0
  9
$DIMLIM
 70
     0
  9
$DIMTIH
 70
     1
  9
$DIMTOH
 70
     1
  9
$DIMSE1
 70
     0
  9
$DIMSE2
 70
     0
  9
$DIMTAD
 70
     1
  9
$DIMZIN
 70
     0
  9
$DIMBLK
  1

  9
$DIMASO
 70
     1
  9
$DIMSHO
 70
     1
  9
$DIMPOST
  1

  9
$DIMAPOST
  1

  9
$DIMALT
 70
     0
  9
$DIMALTD
 70
     3
  9
$DIMALTF
 40
0.0393700787
  9
$DIMLFAC
 40
1.0
  9
$DIMTOFL
 70
     1
  9
$DIMTVP
 40
0.0
  9
$DIMTIX
 70
     0
  9
$DIMSOXD
 70
     0
  9
$DIMSAH
 70
     0
  9
$DIMBLK1
  1

  9
$DIMBLK2
  1

  9
$DIMSTYLE
  2
ISO-25
  9
$DIMCLRD
 70
     0
  9
$DIMCLRE
 70
     0
  9
$DIMCLRT
 70
     0
  9
$DIMTFAC
 40
1.0
  9
$DIMGAP
 40
1.524
  9
$DIMJUST
 70
     0
  9
$DIMSD1
 70
     0
  9
$DIMSD2
 70
     0
  9
$DIMTOLJ
 70
     0
  9
$DIMTZIN
 70
     0
  9
$DIMALTZ
 70
     0
  9
$DIMALTTZ
 70
     0
  9
$DIMUPT
 70
     0
  9
$DIMDEC
 70
     3
  9
$DIMTDEC
 70
     3
  9
$DIMALTU
 70
     2
  9
$DIMALTTD
 70
     3
  9
$DIMTXSTY
  7
Standard
  9
$DIMAUNIT
 70
     0
  9
$DIMADEC
 70
     2
  9
$DIMALTRND
 40
0.0
  9
$DIMAZIN
 70
     0
  9
$DIMDSEP
 70
    44
  9
$DIMATFIT
 70
     3
  9
$DIMFRAC
 70
     0
  9
$DIMLDRBLK
  1

  9
$DIMLUNIT
 70
     2
  9
$DIMLWD
 70
    -2
  9
$DIMLWE
 70
    -2
  9
$DIMTMOVE
 70
     0
  9
$LUNITS
 70
     2
  9
$LUPREC
 70
     3
  9
$SKETCHINC
 40
1.0
  9
$FILLETRAD
 40
0.0
  9
$AUNITS
 70
     0
  9
$AUPREC
 70
     2
  9
$MENU
  1
.
  9
$ELEVATION
 40
0.0
  9
$PELEVATION
 40
0.0
  9
$THICKNESS
 40
0.0
  9
$LIMCHECK
 70
     0
  9
$CHAMFERA
 40
0.0
  9
$CHAMFERB
 40
0.0
  9
$CHAMFERC
 40
0.0
  9
$CHAMFERD
 40
0.0
  9
$SKPOLY
 70
     0
  9
$TDCREATE
 40
2460299.40743515
  9
$TDUCREATE
 40
2460299.03243515
  9
$TDUPDATE
 40
2460299.40743625
  9
$TDUUPDATE
 40
2460299.03243625
  9
$TDINDWG
 40
0.0000000116
  9
$TDUSRTIMER
 40
0.0000000116
  9
$USRTIMER
 70
     1
  9
$ANGBASE
 50
0.0
  9
$ANGDIR
 70
     0
  9
$PDMODE
 70
     0
  9
$PDSIZE
 40
-1.0
  9
$PLINEWID
 40
0.0
  9
$SPLFRAME
 70
     0
  9
$SPLINETYPE
 70
     6
  9
$SPLINESEGS
 70
     8
  9
$HANDSEED
  5
302
  9
$SURFTAB1
 70
     6
  9
$SURFTAB2
 70
     6
  9
$SURFTYPE
 70
     6
  9
$SURFU
 70
     6
  9
$SURFV
 70
     6
  9
$UCSBASE
  2

  9
$UCSNAME
  2

  9
$UCSORG
 10
0.0
 20
0.0
 30
0.0
  9
$UCSXDIR
 10
1.0
 20
0.0
 30
0.0
  9
$UCSYDIR
 10
0.0
 20
1.0
 30
0.0
  9
$UCSORTHOREF
  2

  9
$UCSORTHOVIEW
 70
     0
  9
$UCSORGTOP
 10
0.0
 20
0.0
 30
0.0
  9
$UCSORGBOTTOM
 10
0.0
 20
0.0
 30
0.0
  9
$UCSORGLEFT
 10
0.0
 20
0.0
 30
0.0
  9
$UCSORGRIGHT
 10
0.0
 20
0.0
 30
0.0
  9
$UCSORGFRONT
 10
0.0
 20
0.0
 30
0.0
  9
$UCSORGBACK
 10
0.0
 20
0.0
 30
0.0
  9
$PUCSBASE
  2

  9
$PUCSNAME
  2

  9
$PUCSORG
 10
0.0
 20
0.0
 30
0.0
  9
$PUCSXDIR
 10
1.0
 20
0.0
 30
0.0
  9
$PUCSYDIR
 10
0.0
 20
1.0
 30
0.0
  9
$PUCSORTHOREF
  2

  9
$PUCSORTHOVIEW
 70
     0
  9
$PUCSORGTOP
 10
0.0
 20
0.0
 30
0.0
  9
$PUCSORGBOTTOM
 10
0.0
 20
0.0
 30
0.0
  9
$PUCSORGLEFT
 10
0.0
 20
0.0
 30
0.0
  9
$PUCSORGRIGHT
 10
0.0
 20
0.0
 30
0.0
  9
$PUCSORGFRONT
 10
0.0
 20
0.0
 30
0.0
  9
$PUCSORGBACK
 10
0.0
 20
0.0
 30
0.0
  9
$USERI1
 70
     0
  9
$USERI2
 70
     0
  9
$USERI3
 70
     0
  9
$USERI4
 70
     0
  9
$USERI5
 70
     0
  9
$USERR1
 40
0.0
  9
$USERR2
 40
0.0
  9
$USERR3
 40
0.0
  9
$USERR4
 40
0.0
  9
$USERR5
 40
0.0
  9
$WORLDVIEW
 70
     1
  9
$SHADEDGE
 70
     3
  9
$SHADEDIF
 70
    70
  9
$TILEMODE
 70
     1
  9
$MAXACTVP
 70
    64
  9
$PINSBASE
 10
0.0
 20
0.0
 30
0.0
  9
$PLIMCHECK
 70
     0
  9
$PEXTMIN
 10
1.0000000000E+20
 20
1.0000000000E+20
 30
1.0000000000E+20
  9
$PEXTMAX
 10
-1.0000000000E+20
 20
-1.0000000000E+20
 30
-1.0000000000E+20
  9
$PLIMMIN
 10
0.0
 20
0.0
  9
$PLIMMAX
 10
420.0
 20
297.0
  9
$UNITMODE
 70
     0
  9
$VISRETAIN
 70
     1
  9
$PLINEGEN
 70
     0
  9
$PSLTSCALE
 70
     1
  9
$TREEDEPTH
 70
  3020
  9
$CMLSTYLE
  2
Standard
  9
$CMLJUST
 70
     0
  9
$CMLSCALE
 40
20.0
  9
$PROXYGRAPHICS
 70
     1
  9
$MEASUREMENT
 70
     1
  9
$CELWEIGHT
370
    -1
  9
$ENDCAPS
280
     0
  9
$JOINSTYLE
280
     0
  9
$LWDISPLAY
290
     1
  9
$INSUNITS
 70
     4
  9
$HYPERLINKBASE
  1

  9
$STYLESHEET
  1

  9
$XEDIT
290
     1
  9
$CEPSNTYPE
380
     0
  9
$PSTYLEMODE
290
     1
  9
$FINGERPRINTGUID
  2
{6b84c2e3-41ab-4f3a-a84b-b9e26a9706d3}
  9
$VERSIONGUID
  2
{FAEB1C32-E019-11D5-929B-00C0DF256EC4}
  9
$EXTNAMES
290
     1
  9
$PSVPSCALE
 40
0.0
  9
$OLESTARTUP
290
     0
  0
ENDSEC
  0
SECTION
  2
CLASSES
  0
CLASS
  1
ACDBDICTIONARYWDFLT
  2
AcDbDictionaryWithDefault
  3
ObjectDBX Classes
 90
        0
280
     0
281
     0
  0
CLASS
  1
VISUALSTYLE
  2
AcDbVisualStyle
  3
ObjectDBX Classes
 90
     4095
280
     0
281
     0
  0
CLASS
  1
MATERIAL
  2
AcDbMaterial
  3
ObjectDBX Classes
 90
     1153
280
     0
281
     0
  0
CLASS
  1
SCALE
  2
AcDbScale
  3
ObjectDBX Classes
 90
     1153
280
     0
281
     0
  0
CLASS
  1
TABLESTYLE
  2
AcDbTableStyle
  3
ObjectDBX Classes
 90
     4095
280
     0
281
     0
  0
CLASS
  1
MLEADERSTYLE
  2
AcDbMLeaderStyle
  3
ACDB_MLEADERSTYLE_CLASS
 90
     4095
280
     0
281
     0
  0
CLASS
  1
SUN
  2
AcDbSun
  3
SCENEOE
 90
     1153
280
     0
281
     0
  0
CLASS
  1
ACDBPLACEHOLDER
  2
AcDbPlaceHolder
  3
ObjectDBX Classes
 90
        0
280
     0
281
     0
  0
CLASS
  1
LAYOUT
  2
AcDbLayout
  3
ObjectDBX Classes
 90
        0
280
     0
281
     0
  0
ENDSEC
  0
SECTION
  2
TABLES
  0
TABLE
  2
VPORT
  5
8
330
0
100
AcDbSymbolTable
 70
     1
  0
VPORT
  5
29
330
8
100
AcDbSymbolTableRecord
100
AcDbViewportTableRecord
  2
*Active
 70
     0
 10
0.0
 20
0.0
 11
1.0
 21
1.0
 12
215.9
 22
139.7
 13
0.0
 23
0.0
 14
10.0
 24
10.0
 15
10.0
 25
10.0
 16
0.0
 26
0.0
 36
1.0
 17
0.0
 27
0.0
 37
0.0
 40
279.4
 41
1.5454545455
 42
50.0
 43
0.0
 44
0.0
 50
0.0
 51
0.0
 71
     0
 72
  2000
 73
     1
 74
     3
 75
     0
 76
     0
 77
     0
 78
     0
281
     0
 65
     1
110
0.0
120
0.0
130
0.0
111
1.0
121
0.0
131
0.0
112
0.0
122
1.0
132
0.0
 79
     0
146
0.0
  0
ENDTAB
  0
TABLE
  2
LTYPE
  5
5
330
0
100
AcDbSymbolTable
 70
     6
  0
LTYPE
  5
14
330
5
100
AcDbSymbolTableRecord
100
AcDbLinetypeTableRecord
  2
ByBlock
 70
     0
  3

 72
    65
 73
     0
 40
0.0
  0
LTYPE
  5
15
330
5
100
AcDbSymbolTableRecord
100
AcDbLinetypeTableRecord
  2
ByLayer
 70
     0
  3

 72
    65
 73
     0
 40
0.0
  0
LTYPE
  5
16
330
5
100
AcDbSymbolTableRecord
100
AcDbLinetypeTableRecord
  2
Continuous
 70
     0
  3
Solid line
 72
    65
 73
     0
 40
0.0
  0
LTYPE
  5
5E
330
5
100
AcDbSymbolTableRecord
100
AcDbLinetypeTableRecord
  2
HIDDEN
 70
     0
  3
Hidden __ __ __ __ __ __ __ __ __ __ __ __ __ __
 72
    65
 73
     2
 40
1.905
 49
1.27
 74
     0
 49
-0.635
 74
     0
  0
LTYPE
  5
5F
330
5
100
AcDbSymbolTableRecord
100
AcDbLinetypeTableRecord
  2
PHANTOM
 70
     0
  3
Phantom ______  __  __  ______  __  __  ______
 72
    65
 73
     6
 40
12.7
 49
6.35
 74
     0
 49
-1.27
 74
     0
 49
1.27
 74
     0
 49
-1.27
 74
     0
 49
1.27
 74
     0
 49
-1.27
 74
     0
  0
LTYPE
  5
60
330
5
100
AcDbSymbolTableRecord
100
AcDbLinetypeTableRecord
  2
CENTER
 70
     0
  3
Center ____ _ ____ _ ____ _ ____ _ ____ _ ____
 72
    65
 73
     4
 40
10.16
 49
6.35
 74
     0
 49
-1.27
 74
     0
 49
1.27
 74
     0
 49
-1.27
 74
     0
  0
LTYPE
  5
61
330
5
100
AcDbSymbolTableRecord
100
AcDbLinetypeTableRecord
  2
CENTERX2
 70
     0
  3
Center (2x) ________  __  ________  __  _____
 72
    65
 73
     4
 40
20.32
 49
12.7
 74
     0
 49
-2.54
 74
     0
 49
2.54
 74
     0
 49
-2.54
 74
     0
  0
LTYPE
  5
62
330
5
100
AcDbSymbolTableRecord
100
AcDbLinetypeTableRecord
  2
DOT2
 70
     0
  3
Dot (.5x) ........................................
 72
    65
 73
     2
 40
0.635
 49
0.0
 74
     0
 49
-0.635
 74
     0
  0
ENDTAB
  0
TABLE
  2
LAYER
  5
2
330
0
100
AcDbSymbolTable
 70
     1
  0
LAYER
  5
10
330
2
100
AcDbSymbolTableRecord
100
AcDbLayerTableRecord
  2
0
 70
     0
 62
     7
  6
Continuous
370
    -3
390
F
  0
ENDTAB
  0
TABLE
  2
STYLE
  5
3
330
0
100
AcDbSymbolTable
 70
     2
  0
STYLE
  5
11
330
3
100
AcDbSymbolTableRecord
100
AcDbTextStyleTableRecord
  2
Standard
 70
     0
 40
0.0
 41
1.0
 50
0.0
 71
     0
 42
3.5
  3
txt
  4
bigfont
  0
STYLE
  5
63
330
3
100
AcDbSymbolTableRecord
100
AcDbTextStyleTableRecord
  2
SLDTEXTSTYLE0
 70
     0
 40
0.0
 41
0.7
 50
0.0
 71
     0
 42
3.5
  3
TXT
  4
bigfont
  0
ENDTAB
  0
TABLE
  2
VIEW
  5
6
330
0
100
AcDbSymbolTable
 70
     0
  0
ENDTAB
  0
TABLE
  2
UCS
  5
7
330
0
100
AcDbSymbolTable
 70
     0
  0
ENDTAB
  0
TABLE
  2
APPID
  5
9
330
0
100
AcDbSymbolTable
 70
     1
  0
APPID
  5
12
330
9
100
AcDbSymbolTableRecord
100
AcDbRegAppTableRecord
  2
ACAD
 70
     0
  0
ENDTAB
  0
TABLE
  2
DIMSTYLE
  5
A
330
0
100
AcDbSymbolTable
 70
     1
100
AcDbDimStyleTable
  0
DIMSTYLE
105
27
330
A
100
AcDbSymbolTableRecord
100
AcDbDimStyleTableRecord
  2
ISO-25
 70
     0
 41
2.5
 42
0.625
 43
3.75
 44
1.25
 73
     0
 74
     0
 77
     1
 78
     8
140
2.5
141
2.5
143
0.0393700787
147
0.625
171
     3
172
     1
178
     0
271
     2
272
     2
274
     3
278
    44
283
     0
284
     8
340
11
  0
ENDTAB
  0
TABLE
  2
BLOCK_RECORD
  5
1
330
0
100
AcDbSymbolTable
 70
     3
  0
BLOCK_RECORD
  5
1F
330
1
100
AcDbSymbolTableRecord
100
AcDbBlockTableRecord
  2
*Model_Space
340
22
  0
BLOCK_RECORD
  5
1B
330
1
100
AcDbSymbolTableRecord
100
AcDbBlockTableRecord
  2
*Paper_Space
340
1E
  0
BLOCK_RECORD
  5
23
330
1
100
AcDbSymbolTableRecord
100
AcDbBlockTableRecord
  2
*Paper_Space0
340
26
  0
BLOCK_RECORD
  5
1FB
330
1
100
AcDbSymbolTableRecord
100
AcDbBlockTableRecord
  2
SW_CENTERMARKSYMBOL_0
340
0
102
{BLKREFS
331
206
102
}
  0
BLOCK_RECORD
  5
2F3
330
1
100
AcDbSymbolTableRecord
100
AcDbBlockTableRecord
  2
SW_CENTERMARKSYMBOL_1
340
0
102
{BLKREFS
331
2FE
102
}
  0
ENDTAB
  0
ENDSEC
  0
SECTION
  2
BLOCKS
  0
BLOCK
  5
20
330
1F
100
AcDbEntity
  8
0
100
AcDbBlockBegin
  2
*Model_Space
 70
     0
 10
0.0
 20
0.0
 30
0.0
  3
*Model_Space
  1

  0
ENDBLK
  5
21
330
1F
100
AcDbEntity
  8
0
100
AcDbBlockEnd
  0
BLOCK
  5
1C
330
1B
100
AcDbEntity
 67
     1
  8
0
100
AcDbBlockBegin
  2
*Paper_Space
 70
     0
 10
0.0
 20
0.0
 30
0.0
  3
*Paper_Space
  1

  0
ENDBLK
  5
1D
330
1B
100
AcDbEntity
 67
     1
  8
0
100
AcDbBlockEnd
  0
BLOCK
  5
24
330
23
100
AcDbEntity
  8
0
100
AcDbBlockBegin
  2
*Paper_Space0
 70
     0
 10
0.0
 20
0.0
 30
0.0
  3
*Paper_Space0
  1

  0
ENDBLK
  5
25
330
23
100
AcDbEntity
  8
0
100
AcDbBlockEnd
  0
BLOCK
  5
1FC
330
1FB
100
AcDbEntity
  8
0
100
AcDbBlockBegin
  2
SW_CENTERMARKSYMBOL_0
 70
     0
 10
0.0
 20
0.0
 30
0.0
  3
SW_CENTERMARKSYMBOL_0
  1

  0
LINE
  5
1FE
330
1FB
100
AcDbEntity
  8
0
  6
Continuous
 62
     0
370
    18
100
AcDbLine
 10
0.0
 20
0.0
 30
0.0
 11
0.0
 21
2.5
 31
0.0
  0
LINE
  5
1FF
330
1FB
100
AcDbEntity
  8
0
  6
Continuous
 62
     0
370
    18
100
AcDbLine
 10
0.0
 20
0.0
 30
0.0
 11
-2.5
 21
0.0
 31
0.0
  0
LINE
  5
200
330
1FB
100
AcDbEntity
  8
0
  6
Continuous
 62
     0
370
    18
100
AcDbLine
 10
0.0
 20
0.0
 30
0.0
 11
0.0
 21
-2.5
 31
0.0
  0
LINE
  5
201
330
1FB
100
AcDbEntity
  8
0
  6
Continuous
 62
     0
370
    18
100
AcDbLine
 10
0.0
 20
0.0
 30
0.0
 11
2.5
 21
0.0
 31
0.0
  0
LINE
  5
202
330
1FB
100
AcDbEntity
  8
0
  6
Continuous
 62
     0
370
    18
100
AcDbLine
 10
0.0
 20
5.0
 30
0.0
 11
0.0
 21
40.7614408901
 31
0.0
  0
LINE
  5
203
330
1FB
100
AcDbEntity
  8
0
  6
Continuous
 62
     0
370
    18
100
AcDbLine
 10
-5.0
 20
0.0
 30
0.0
 11
-15.0
 21
0.0
 31
0.0
  0
LINE
  5
204
330
1FB
100
AcDbEntity
  8
0
  6
Continuous
 62
     0
370
    18
100
AcDbLine
 10
0.0
 20
-5.0
 30
0.0
 11
0.0
 21
-15.0
 31
0.0
  0
LINE
  5
205
330
1FB
100
AcDbEntity
  8
0
  6
Continuous
 62
     0
370
    18
100
AcDbLine
 10
5.0
 20
0.0
 30
0.0
 11
15.0
 21
0.0
 31
0.0
  0
ENDBLK
  5
1FD
330
1FB
100
AcDbEntity
  8
0
100
AcDbBlockEnd
  0
BLOCK
  5
2F4
330
2F3
100
AcDbEntity
  8
0
100
AcDbBlockBegin
  2
SW_CENTERMARKSYMBOL_1
 70
     0
 10
0.0
 20
0.0
 30
0.0
  3
SW_CENTERMARKSYMBOL_1
  1

  0
LINE
  5
2F6
330
2F3
100
AcDbEntity
  8
0
  6
Continuous
 62
     0
370
    18
100
AcDbLine
 10
0.0
 20
0.0
 30
0.0
 11
0.0
 21
2.5
 31
0.0
  0
LINE
  5
2F7
330
2F3
100
AcDbEntity
  8
0
  6
Continuous
 62
     0
370
    18
100
AcDbLine
 10
0.0
 20
0.0
 30
0.0
 11
-2.5
 21
0.0
 31
0.0
  0
LINE
  5
2F8
330
2F3
100
AcDbEntity
  8
0
  6
Continuous
 62
     0
370
    18
100
AcDbLine
 10
0.0
 20
0.0
 30
0.0
 11
0.0
 21
-2.5
 31
0.0
  0
LINE
  5
2F9
330
2F3
100
AcDbEntity
  8
0
  6
Continuous
 62
     0
370
    18
100
AcDbLine
 10
0.0
 20
0.0
 30
0.0
 11
2.5
 21
0.0
 31
0.0
  0
LINE
  5
2FA
330
2F3
100
AcDbEntity
  8
0
  6
Continuous
 62
     0
370
    18
100
AcDbLine
 10
0.0
 20
5.0
 30
0.0
 11
0.0
 21
14.5107749934
 31
0.0
  0
LINE
  5
2FB
330
2F3
100
AcDbEntity
  8
0
  6
Continuous
 62
     0
370
    18
100
AcDbLine
 10
-5.0
 20
0.0
 30
0.0
 11
-57.0702850669
 21
0.0
 31
0.0
  0
LINE
  5
2FC
330
2F3
100
AcDbEntity
  8
0
  6
Continuous
 62
     0
370
    18
100
AcDbLine
 10
0.0
 20
-5.0
 30
0.0
 11
0.0
 21
-14.1915107914
 31
0.0
  0
LINE
  5
2FD
330
2F3
100
AcDbEntity
  8
0
  6
Continuous
 62
     0
370
    18
100
AcDbLine
 10
5.0
 20
0.0
 30
0.0
 11
28.5866931997
 21
0.0
 31
0.0
  0
ENDBLK
  5
2F5
330
2F3
100
AcDbEntity
  8
0
100
AcDbBlockEnd
  0
ENDSEC
  0
SECTION
  2
ENTITIES
  0
MTEXT
  5
64
330
1F
100
AcDbEntity
  8
0
  6
Continuous
 62
     7
370
     0
100
AcDbMText
 10
168.336702799
 20
108.9794659333
 30
0.0
 40
4.2333333333
 41
0.0
 71
     1
 72
     1
  1
エースボールZERO　BH-0416
  7
SLDTEXTSTYLE0
 73
     1
 44
1.0
  0
LINE
  5
65
330
1F
100
AcDbEntity
  8
0
  6
Continuous
 62
     7
370
    25
100
AcDbLine
 10
138.8498509222
 20
66.6878208063
 30
0.0
 11
136.0998509222
 21
66.6878208063
 31
0.0
  0
LINE
  5
66
330
1F
100
AcDbEntity
  8
0
  6
Continuous
 62
     7
370
    25
100
AcDbLine
 10
136.0998509222
 20
42.6878208063
 30
0.0
 11
138.8498509222
 21
42.6878208063
 31
0.0
  0
LINE
  5
67
330
1F
100
AcDbEntity
  8
0
  6
Continuous
 62
     7
370
    25
100
AcDbLine
 10
136.0998509222
 20
66.6878208063
 30
0.0
 11
135.8498509222
 21
66.4378208063
 31
0.0
  0
LINE
  5
68
330
1F
100
AcDbEntity
  8
0
  6
Continuous
 62
     7
370
    25
100
AcDbLine
 10
135.8498509222
 20
42.9378208063
 30
0.0
 11
136.0998509222
 21
42.6878208063
 31
0.0
  0
LINE
  5
69
330
1F
100
AcDbEntity
  8
0
  6
Continuous
 62
     7
370
    25
100
AcDbLine
 10
129.3498509222
 20
46.6878208063
 30
0.0
 11
135.8498509222
 21
46.6878208063
 31
0.0
  0
LINE
  5
6A
330
1F
100
AcDbEntity
  8
0
  6
Continuous
 62
     7
370
    25
100
AcDbLine
 10
135.8498509222
 20
62.6878208063
 30
0.0
 11
129.3498509222
 21
62.6878208063
 31
0.0
  0
LINE
  5
6B
330
1F
100
AcDbEntity
  8
0
  6
Continuous
 62
     7
370
    25
100
AcDbLine
 10
129.3498509222
 20
62.6878208063
 30
0.0
 11
124.8498509222
 21
61.9378208063
 31
0.0
  0
LINE
  5
6C
330
1F
100
AcDbEntity
  8
0
  6
Continuous
 62
     7
370
    25
100
AcDbLine
 10
124.8498509222
 20
47.4378208063
 30
0.0
 11
129.3498509222
 21
46.6878208063
 31
0.0
  0
LINE
  5
6D
330
1F
100
AcDbEntity
  8
0
  6
Continuous
 62
     7
370
    25
100
AcDbLine
 10
111.3498509222
 20
62.6878208063
 30
0.0
 11
107.2676514285
 21
62.0074542241
 31
0.0
  0
LINE
  5
6E
330
1F
100
AcDbEntity
  8
0
  6
Continuous
 62
     7
370
    25
100
AcDbLine
 10
107.2676514285
 20
47.3681873886
 30
0.0
 11
111.3498509222
 21
46.6878208063
 31
0.0
  0
LINE
  5
6F
330
1F
100
AcDbEntity
  8
0
  6
Continuous
 62
     7
370
    25
100
AcDbLine
 10
120.3498509222
 20
62.6878208063
 30
0.0
 11
115.8498509222
 21
61.9378208063
 31
0.0
  0
LINE
  5
70
330
1F
100
AcDbEntity
  8
0
  6
Continuous
 62
     7
370
    25
100
AcDbLine
 10
115.8498509222
 20
47.4378208063
 30
0.0
 11
120.3498509222
 21
46.6878208063
 31
0.0
  0
LINE
  5
71
330
1F
100
AcDbEntity
  8
0
  6
Continuous
 62
     7
370
    25
100
AcDbLine
 10
115.8498509222
 20
62.6878208063
 30
0.0
 11
111.3498509222
 21
61.9378208063
 31
0.0
  0
LINE
  5
72
330
1F
100
AcDbEntity
  8
0
  6
Continuous
 62
     7
370
    25
100
AcDbLine
 10
111.3498509222
 20
47.4378208063
 30
0.0
 11
115.8498509222
 21
46.6878208063
 31
0.0
  0
LINE
  5
73
330
1F
100
AcDbEntity
  8
0
  6
Continuous
 62
     7
370
    25
100
AcDbLine
 10
124.8498509222
 20
62.6878208063
 30
0.0
 11
120.3498509222
 21
61.9378208063
 31
0.0
  0
LINE
  5
74
330
1F
100
AcDbEntity
  8
0
  6
Continuous
 62
     7
370
    25
100
AcDbLine
 10
120.3498509222
 20
47.4378208063
 30
0.0
 11
124.8498509222
 21
46.6878208063
 31
0.0
  0
ARC
  5
75
330
1F
100
AcDbEntity
  8
0
  6
Continuous
 62
     7
370
    25
100
AcDbCircle
 10
107.3498509222
 20
47.8613843505
 30
0.0
 40
0.5
100
AcDbArc
 50
180.0
 51
260.537677792
  0
ARC
  5
76
330
1F
100
AcDbEntity
  8
0
  6
Continuous
 62
     7
370
    25
100
AcDbCircle
 10
107.3498509222
 20
61.5142572621
 30
0.0
 40
0.5
100
AcDbArc
 50
99.462322208
 51
180.0
  0
ARC
  5
77
330
1F
100
AcDbEntity
  8
0
  6
Continuous
 62
     7
370
    25
100
AcDbCircle
 10
151.8498509222
 20
71.3878208063
 30
0.0
 40
20.59999999999999
100
AcDbArc
 50
90.54846352
 51
93.3558231766
  0
ARC
  5
78
330
1F
100
AcDbEntity
  8
0
  6
Continuous
 62
     7
370
    25
100
AcDbCircle
 10
151.8498509222
 20
71.3878208063
 30
0.0
 40
20.6
100
AcDbArc
 50
86.6441768145
 51
89.43957762
  0
ARC
  5
79
330
1F
100
AcDbEntity
  8
0
  6
Continuous
 62
     7
370
    25
100
AcDbCircle
 10
159.8436212905
 20
83.8754001111
 30
0.0
 40
1.000000000000005
100
AcDbArc
 50
354.2894068625
 51
7.1250163489
  0
LINE
  5
7A
330
1F
100
AcDbEntity
  8
0
  6
Continuous
 62
     7
370
    25
100
AcDbLine
 10
143.4432230655
 20
77.9540993726
 30
0.0
 11
143.6698509222
 21
75.6878208063
 31
0.0
  0
LINE
  5
7B
330
1F
100
AcDbEntity
  8
0
  6
Continuous
 62
     7
370
    25
100
AcDbLine
 10
159.8948757362
 20
74.3380689468
 30
0.0
 11
160.8386584807
 21
83.7758963921
 31
0.0
  0
LINE
  5
7C
330
1F
100
AcDbEntity
  8
0
  6
Continuous
 62
     7
370
    25
100
AcDbLine
 10
160.8358991672
 20
83.9994348457
 30
0.0
 11
159.9045987512
 21
91.4498381736
 31
0.0
  0
LINE
  5
7D
330
1F
100
AcDbEntity
  8
0
  6
Continuous
 62
     7
370
    25
100
AcDbLine
 10
143.7951030931
 20
91.4498381736
 30
0.0
 11
143.5998509222
 21
89.8878208063
 31
0.0
  0
ARC
  5
7E
330
1F
100
AcDbEntity
  8
0
  6
Continuous
 62
     7
370
    25
100
AcDbCircle
 10
144.2912420314
 20
91.3878208063
 30
0.0
 40
0.5000000000000299
100
AcDbArc
 50
90.0
 51
172.8749836511
  0
ARC
  5
7F
330
1F
100
AcDbEntity
  8
0
  6
Continuous
 62
     7
370
    25
100
AcDbCircle
 10
159.4084598129
 20
91.3878208063
 30
0.0
 40
0.5000000000000017
100
AcDbArc
 50
7.1250163489
 51
90.0
  0
ARC
  5
80
330
1F
100
AcDbEntity
  8
0
  6
Continuous
 62
     7
370
    25
100
AcDbCircle
 10
159.3973571411
 20
74.3878208063
 30
0.0
 40
0.5
100
AcDbArc
 50
270.0
 51
354.2894068625
  0
LINE
  5
81
330
1F
100
AcDbEntity
  8
0
  6
Continuous
 62
     7
370
    25
100
AcDbLine
 10
146.3498509222
 20
73.3878208063
 30
0.0
 11
146.3498509222
 21
73.8878208063
 31
0.0
  0
LINE
  5
82
330
1F
100
AcDbEntity
  8
0
  6
Continuous
 62
     7
370
    25
100
AcDbLine
 10
144.3498509222
 20
73.8910555383
 30
0.0
 11
144.3498509222
 21
73.3878208063
 31
0.0
  0
LINE
  5
83
330
1F
100
AcDbEntity
  8
0
  6
Continuous
 62
     7
370
    25
100
AcDbLine
 10
164.3498509222
 20
43.9965708063
 30
0.0
 11
176.6534596492
 21
44.3810585791
 31
0.0
  0
LINE
  5
84
330
1F
100
AcDbEntity
  8
0
  6
Continuous
 62
     7
370
    25
100
AcDbLine
 10
176.6534596492
 20
64.9945830336
 30
0.0
 11
164.3498509222
 21
65.3790708063
 31
0.0
  0
LINE
  5
85
330
1F
100
AcDbEntity
  8
0
  6
Continuous
 62
     7
370
    25
100
AcDbLine
 10
176.6534596492
 20
44.3810585791
 30
0.0
 11
179.3498509222
 21
45.9378208063
 31
0.0
  0
LINE
  5
86
330
1F
100
AcDbEntity
  8
0
  6
Continuous
 62
     7
370
    25
100
AcDbLine
 10
179.3498509222
 20
63.4378208063
 30
0.0
 11
176.6534596492
 21
64.9945830336
 31
0.0
  0
ARC
  5
87
330
1F
100
AcDbEntity
  8
0
  6
Continuous
 62
     7
370
    25
100
AcDbCircle
 10
160.3498509222
 20
67.4378208063
 30
0.0
 40
0.25
100
AcDbArc
 50
180.0
 51
270.0
  0
ARC
  5
88
330
1F
100
AcDbEntity
  8
0
  6
Continuous
 62
     7
370
    25
100
AcDbCircle
 10
143.3498509222
 20
67.4378208063
 30
0.0
 40
0.25
100
AcDbArc
 50
270.0
 51
0.0
  0
LINE
  5
89
330
1F
100
AcDbEntity
  8
0
  6
Continuous
 62
     7
370
    25
100
AcDbLine
 10
160.0998509222
 20
72.8878208063
 30
0.0
 11
159.5998509222
 21
73.3878208063
 31
0.0
  0
LINE
  5
8A
330
1F
100
AcDbEntity
  8
0
  6
Continuous
 62
     7
370
    25
100
AcDbLine
 10
144.0998509222
 20
73.3878208063
 30
0.0
 11
143.5998509222
 21
72.8878208063
 31
0.0
  0
LINE
  5
8B
330
1F
100
AcDbEntity
  8
0
  6
Continuous
 62
     7
370
    25
100
AcDbLine
 10
160.0998509222
 20
67.4378208063
 30
0.0
 11
160.0998509222
 21
72.8878208063
 31
0.0
  0
LINE
  5
8C
330
1F
100
AcDbEntity
  8
0
  6
Continuous
 62
     7
370
    25
100
AcDbLine
 10
143.5998509222
 20
72.8878208063
 30
0.0
 11
143.5998509222
 21
67.4378208063
 31
0.0
  0
LINE
  5
8D
330
1F
100
AcDbEntity
  8
0
  6
Continuous
 62
     7
370
    25
100
AcDbLine
 10
146.8498509222
 20
73.8878208063
 30
0.0
 11
146.8498509222
 21
73.3878208063
 31
0.0
  0
LINE
  5
8E
330
1F
100
AcDbEntity
  8
0
  6
Continuous
 62
     7
370
    25
100
AcDbLine
 10
156.8498509222
 20
73.3878208063
 30
0.0
 11
156.8498509222
 21
73.8878208063
 31
0.0
  0
LINE
  5
8F
330
1F
100
AcDbEntity
  8
0
  6
Continuous
 62
     7
370
    25
100
AcDbLine
 10
136.0998509222
 20
46.5681368884
 30
0.0
 11
136.0998509222
 21
42.6878208063
 31
0.0
  0
LINE
  5
90
330
1F
100
AcDbEntity
  8
0
  6
Continuous
 62
     7
370
    25
100
AcDbLine
 10
136.0998509222
 20
66.6878208063
 30
0.0
 11
136.0998509222
 21
46.5681368884
 31
0.0
  0
LINE
  5
91
330
1F
100
AcDbEntity
  8
0
  6
Continuous
 62
     7
370
    25
100
AcDbLine
 10
135.8498509222
 20
46.73729697
 30
0.0
 11
135.8498509222
 21
66.4378208063
 31
0.0
  0
LINE
  5
92
330
1F
100
AcDbEntity
  8
0
  6
Continuous
 62
     7
370
    25
100
AcDbLine
 10
135.8498509222
 20
42.9378208063
 30
0.0
 11
135.8498509222
 21
46.73729697
 31
0.0
  0
LINE
  5
93
330
1F
100
AcDbEntity
  8
0
  6
Continuous
 62
     7
370
    25
100
AcDbLine
 10
129.3498509222
 20
60.5783304267
 30
0.0
 11
129.3498509222
 21
62.6878208063
 31
0.0
  0
LINE
  5
94
330
1F
100
AcDbEntity
  8
0
  6
Continuous
 62
     7
370
    25
100
AcDbLine
 10
129.3498509222
 20
46.6878208063
 30
0.0
 11
129.3498509222
 21
60.5783304267
 31
0.0
  0
LINE
  5
95
330
1F
100
AcDbEntity
  8
0
  6
Continuous
 62
     7
370
    25
100
AcDbLine
 10
111.3498509222
 20
60.5783304267
 30
0.0
 11
111.3498509222
 21
62.6878208063
 31
0.0
  0
LINE
  5
96
330
1F
100
AcDbEntity
  8
0
  6
Continuous
 62
     7
370
    25
100
AcDbLine
 10
111.3498509222
 20
46.6878208063
 30
0.0
 11
111.3498509222
 21
60.5783304267
 31
0.0
  0
LINE
  5
97
330
1F
100
AcDbEntity
  8
0
  6
Continuous
 62
     7
370
    25
100
AcDbLine
 10
120.3498509222
 20
60.5783304267
 30
0.0
 11
120.3498509222
 21
62.6878208063
 31
0.0
  0
LINE
  5
98
330
1F
100
AcDbEntity
  8
0
  6
Continuous
 62
     7
370
    25
100
AcDbLine
 10
120.3498509222
 20
46.6878208063
 30
0.0
 11
120.3498509222
 21
60.5783304267
 31
0.0
  0
LINE
  5
99
330
1F
100
AcDbEntity
  8
0
  6
Continuous
 62
     7
370
    25
100
AcDbLine
 10
115.8498509222
 20
60.5783304267
 30
0.0
 11
115.8498509222
 21
62.6878208063
 31
0.0
  0
LINE
  5
9A
330
1F
100
AcDbEntity
  8
0
  6
Continuous
 62
     7
370
    25
100
AcDbLine
 10
115.8498509222
 20
46.6878208063
 30
0.0
 11
115.8498509222
 21
60.5783304267
 31
0.0
  0
LINE
  5
9B
330
1F
100
AcDbEntity
  8
0
  6
Continuous
 62
     7
370
    25
100
AcDbLine
 10
124.8498509222
 20
60.5783304267
 30
0.0
 11
124.8498509222
 21
62.6878208063
 31
0.0
  0
LINE
  5
9C
330
1F
100
AcDbEntity
  8
0
  6
Continuous
 62
     7
370
    25
100
AcDbLine
 10
124.8498509222
 20
46.6878208063
 30
0.0
 11
124.8498509222
 21
60.5783304267
 31
0.0
  0
LINE
  5
9D
330
1F
100
AcDbEntity
  8
0
  6
Continuous
 62
     7
370
    25
100
AcDbLine
 10
106.8498509222
 20
59.7142195083
 30
0.0
 11
106.8498509222
 21
61.5142572621
 31
0.0
  0
LINE
  5
9E
330
1F
100
AcDbEntity
  8
0
  6
Continuous
 62
     7
370
    25
100
AcDbLine
 10
106.8498509222
 20
47.8613843505
 30
0.0
 11
106.8498509222
 21
59.7142195083
 31
0.0
  0
ARC
  5
9F
330
1F
100
AcDbEntity
  8
0
  6
Continuous
 62
     7
370
    25
100
AcDbCircle
 10
150.782899253
 20
89.588896857
 30
0.0
 40
2.367678303693959
100
AcDbArc
 50
93.3632881503
 51
99.4868245015
  0
ARC
  5
A0
330
1F
100
AcDbEntity
  8
0
  6
Continuous
 62
     7
370
    25
100
AcDbCircle
 10
152.9168062779
 20
89.5889381078
 30
0.0
 40
2.367636907673742
100
AcDbArc
 50
80.5187694298
 51
86.6367422679
  0
SPLINE
  5
A1
330
1F
100
AcDbEntity
  8
0
  6
Continuous
 62
     7
370
    25
100
AcDbSpline
210
0.0
220
0.0
230
1.0
 70
     8
 71
     3
 72
    15
 73
    11
 74
     0
 42
0.00000001
 43
0.00000001
 40
0.0
 40
0.0
 40
0.0
 40
0.0
 40
0.1233867499278388
 40
0.2487396502211602
 40
0.3739317114754985
 40
0.4999973617625659
 40
0.6259591330513601
 40
0.7512551380600303
 40
0.8765613478174267
 40
1.0
 40
1.0
 40
1.0
 40
1.0
 10
151.7869680573554
 20
91.9877137036375
 30
0.0
 10
151.7898462585472
 20
91.98771436270964
 30
0.0
 10
151.7956485246589
 20
91.98771569135614
 30
0.0
 10
151.8111779293796
 20
91.98771964098327
 30
0.0
 10
151.8295325112531
 20
91.98772142333267
 30
0.0
 10
151.849845327736
 20
91.98772297691063
 30
0.0
 10
151.8701637454511
 20
91.98772142277566
 30
0.0
 10
151.8885166146152
 20
91.98771964589513
 30
0.0
 10
151.9040547190107
 20
91.98771567837697
 30
0.0
 10
151.909855281042
 20
91.98771435858102
 30
0.0
 10
151.9127337869676
 20
91.9877137036375
 30
0.0
  0
ARC
  5
A2
330
1F
100
AcDbEntity
  8
0
  6
Continuous
 62
     7
370
    25
100
AcDbCircle
 10
151.787862485
 20
89.4433642908
 30
0.0
 40
2.544349570059846
100
AcDbArc
 50
90.0201414662
 51
95.4127462174
  0
SPLINE
  5
A3
330
1F
100
AcDbEntity
  8
0
  6
Continuous
 62
     7
370
    25
100
AcDbSpline
210
0.0
220
0.0
230
1.0
 70
     8
 71
     3
 72
    15
 73
    11
 74
     0
 42
0.00000001
 43
0.00000001
 40
0.0
 40
0.0
 40
0.0
 40
0.0
 40
0.1261585224210644
 40
0.2513121451548802
 40
0.3762846848783791
 40
0.4993062783340883
 40
0.6261594278645745
 40
0.7521171342021309
 40
0.8758196922692798
 40
1.0
 40
1.0
 40
1.0
 40
1.0
 10
151.6107373964837
 20
91.97447057222676
 30
0.0
 10
151.605506299995
 20
91.97441964647629
 30
0.0
 10
151.5950857746523
 20
91.97431820061793
 30
0.0
 10
151.5802992241379
 20
91.97431401898069
 30
0.0
 10
151.5671088715125
 20
91.9744133578013
 30
0.0
 10
151.5562382966712
 20
91.97463390000438
 30
0.0
 10
151.5482307093426
 20
91.97495776740584
 30
0.0
 10
151.5440640823099
 20
91.97537763725332
 30
0.0
 10
151.5434430307983
 20
91.97585635431905
 30
0.0
 10
151.5463821431531
 20
91.97619764356463
 30
0.0
 10
151.5478545316358
 20
91.97636861707423
 30
0.0
  0
ARC
  5
A4
330
1F
100
AcDbEntity
  8
0
  6
Continuous
 62
     7
370
    25
100
AcDbCircle
 10
151.8498509222
 20
71.3878208063
 30
0.0
 40
20.58803836847345
100
AcDbArc
 50
89.3345405821
 51
90.66545941
  0
SPLINE
  5
A5
330
1F
100
AcDbEntity
  8
0
  6
Continuous
 62
     7
370
    25
100
AcDbSpline
210
0.0
220
0.0
230
1.0
 70
     8
 71
     3
 72
    15
 73
    11
 74
     0
 42
0.00000001
 43
0.00000001
 40
0.0
 40
0.0
 40
0.0
 40
0.0
 40
0.1241186784437694
 40
0.2478474916628981
 40
0.373657414947894
 40
0.5005082335853294
 40
0.6234527658309922
 40
0.7484986612277523
 40
0.8736976492452768
 40
1.0
 40
1.0
 40
1.0
 40
1.0
 10
152.151847315413
 20
91.97636861704093
 30
0.0
 10
152.1533183880219
 20
91.97619773676244
 30
0.0
 10
152.1562559125002
 20
91.97585651295206
 30
0.0
 10
152.1556391780001
 20
91.97537797666456
 30
0.0
 10
152.1514772164055
 20
91.97495818679268
 30
0.0
 10
152.1434784686072
 20
91.97463439894626
 30
0.0
 10
152.1326123770703
 20
91.97441370074058
 30
0.0
 10
152.1194246592457
 20
91.97431410883038
 30
0.0
 10
152.1046302126705
 20
91.97431802322902
 30
0.0
 10
152.0942016217631
 20
91.97441957403441
 30
0.0
 10
152.0889644506487
 20
91.97447057219414
 30
0.0
  0
ARC
  5
A6
330
1F
100
AcDbEntity
  8
0
  6
Continuous
 62
     7
370
    25
100
AcDbCircle
 10
151.9118393592
 20
89.4433642386
 30
0.0
 40
2.54434962229605
100
AcDbArc
 50
84.5872538302
 51
89.9798585321
  0
SPLINE
  5
A7
330
1F
100
AcDbEntity
  8
0
  6
Continuous
 62
     7
370
    25
100
AcDbSpline
210
0.0
220
0.0
230
1.0
 70
     8
 71
     3
 72
    13
 73
     9
 74
     0
 42
0.00000001
 43
0.00000001
 40
0.0
 40
0.0
 40
0.0
 40
0.0
 40
0.1374692963454099
 40
0.2749820892813126
 40
0.4163021045260215
 40
0.5576318202769774
 40
0.777008491451321
 40
1.0
 40
1.0
 40
1.0
 40
1.0
 10
132.3256501548054
 20
83.16419340835927
 30
0.0
 10
132.8109780461691
 20
83.07795299893037
 30
0.0
 10
133.7817873912491
 20
82.90544489278825
 30
0.0
 10
135.2024797590588
 20
82.50646281946526
 30
0.0
 10
136.5945760840749
 20
82.00615340799298
 30
0.0
 10
138.1989352683165
 20
81.27733293639027
 30
0.0
 10
139.9898031439489
 20
80.2611139861886
 30
0.0
 10
141.2264665071638
 20
79.27353069988506
 30
0.0
 10
141.8498509221615
 20
78.77570400952914
 30
0.0
  0
ELLIPSE
  5
A8
330
1F
100
AcDbEntity
  8
0
  6
Continuous
 62
     7
370
    25
100
AcDbEllipse
 10
254.3637463946
 20
76.5096435246
 30
0.0
 11
171.0000000000011
 21
0.0
 31
0.0
210
0.0
220
0.0
230
1.0
 40
0.0555555556
 41
2.292395939553285
 42
2.365524293035122
  0
LINE
  5
A9
330
1F
100
AcDbEntity
  8
0
  6
Continuous
 62
     7
370
    25
100
AcDbLine
 10
141.4034675672
 20
83.641768597
 30
0.0
 11
141.8498509222
 21
83.6043066311
 31
0.0
  0
LINE
  5
AA
330
1F
100
AcDbEntity
  8
0
  6
Continuous
 62
     7
370
    25
100
AcDbLine
 10
141.8498509222
 20
78.7757040095
 30
0.0
 11
141.8498509222
 21
83.6043066311
 31
0.0
  0
SPLINE
  5
AB
330
1F
100
AcDbEntity
  8
0
  6
Continuous
 62
     7
370
    25
100
AcDbSpline
210
0.0
220
0.0
230
1.0
 70
     8
 71
     3
 72
    11
 73
     7
 74
     0
 42
0.00000001
 43
0.00000001
 40
0.0
 40
0.0
 40
0.0
 40
0.0
 40
0.2795638428677817
 40
0.5590315779132448
 40
0.7794196683689383
 40
0.9999999999999999
 40
0.9999999999999999
 40
0.9999999999999999
 40
0.9999999999999999
 10
129.413522968084
 20
83.38782080633301
 30
0.0
 10
129.2899496223078
 20
83.4263396582811
 30
0.0
 10
129.0428454125194
 20
83.50336412025393
 30
0.0
 10
128.7890895045961
 20
84.03616201804363
 30
0.0
 10
128.6724710636156
 20
84.66389858491002
 30
0.0
 10
128.6989904496508
 20
85.06488140107865
 30
0.0
 10
128.7122559232614
 20
85.26546021384324
 30
0.0
  0
SPLINE
  5
AC
330
1F
100
AcDbEntity
  8
0
  6
Continuous
 62
     7
370
    25
100
AcDbSpline
210
0.0
220
0.0
230
1.0
 70
     8
 71
     3
 72
     9
 73
     5
 74
     0
 42
0.00000001
 43
0.00000001
 40
0.0
 40
0.0
 40
0.0
 40
0.0
 40
0.4986740982738612
 40
1.0
 40
1.0
 40
1.0
 40
1.0
 10
130.0038164643303
 20
85.2952612392737
 30
0.0
 10
129.7973428232605
 20
85.29672631853035
 30
0.0
 10
129.3832975745009
 20
85.29966426790794
 30
0.0
 10
128.936331472556
 20
85.27688098897623
 30
0.0
 10
128.7122557884575
 20
85.26545914112153
 30
0.0
  0
SPLINE
  5
AD
330
1F
100
AcDbEntity
  8
0
  6
Continuous
 62
     7
370
    25
100
AcDbSpline
210
0.0
220
0.0
230
1.0
 70
     8
 71
     3
 72
    13
 73
     9
 74
     0
 42
0.00000001
 43
0.00000001
 40
0.0
 40
0.0
 40
0.0
 40
0.0
 40
0.3327087167328941
 40
0.5628656559531299
 40
0.69871241253847
 40
0.8016200683166478
 40
0.9052998751809794
 40
1.0
 40
1.0
 40
1.0
 40
1.0
 10
131.994617204601
 20
83.21236784518388
 30
0.0
 10
131.6322263742738
 20
83.29815342010204
 30
0.0
 10
131.0191454955204
 20
83.44328263214004
 30
0.0
 10
130.369600170858
 20
83.89364932856732
 30
0.0
 10
130.0269031552599
 20
84.2933904771732
 30
0.0
 10
129.8779795441162
 20
84.64928272358475
 30
0.0
 10
129.8658068246895
 20
84.99671657061897
 30
0.0
 10
129.9592234185097
 20
85.19879544179807
 30
0.0
 10
130.0038174609608
 20
85.29526131998222
 30
0.0
  0
SPLINE
  5
AE
330
1F
100
AcDbEntity
  8
0
  6
Continuous
 62
     7
370
    25
100
AcDbSpline
210
0.0
220
0.0
230
1.0
 70
     8
 71
     3
 72
     9
 73
     5
 74
     0
 42
0.00000001
 43
0.00000001
 40
0.0
 40
0.0
 40
0.0
 40
0.0
 40
0.5551829690770672
 40
1.0
 40
1.0
 40
1.0
 40
1.0
 10
129.413522968084
 20
83.38782080633301
 30
0.0
 10
129.9435458418052
 20
83.37482178584195
 30
0.0
 10
130.8982272770126
 20
83.35140784626691
 30
0.0
 10
131.65707071817
 20
83.25517420691521
 30
0.0
 10
131.994617204601
 20
83.21236784518388
 30
0.0
  0
LINE
  5
AF
330
1F
100
AcDbEntity
  8
0
  6
Continuous
 62
     7
370
    25
100
AcDbLine
 10
141.8498509222
 20
88.8878208063
 30
0.0
 11
141.4034675672
 21
88.8878208063
 31
0.0
  0
ARC
  5
B0
330
1F
100
AcDbEntity
  8
0
  6
Continuous
 62
     7
370
    25
100
AcDbCircle
 10
148.2262799808
 20
89.2616669602
 30
0.0
 40
6.833046917558817
100
AcDbArc
 50
170.513808076
 51
183.1363032674
  0
ARC
  5
B1
330
1F
100
AcDbEntity
  8
0
  6
Continuous
 62
     7
370
    25
100
AcDbCircle
 10
141.4822830558
 20
89.5975708579
 30
0.0
 40
0.7902621394877224
100
AcDbArc
 50
62.2819181136
 51
89.6817467964
  0
LINE
  5
B2
330
1F
100
AcDbEntity
  8
0
  6
Continuous
 62
     7
370
    25
100
AcDbLine
 10
141.8498509222
 20
88.8878208063
 30
0.0
 11
141.8498509222
 21
90.2971479535
 31
0.0
  0
LINE
  5
B3
330
1F
100
AcDbEntity
  8
0
  6
Continuous
 62
     7
370
    25
100
AcDbLine
 10
141.4034675672
 20
88.8878208063
 30
0.0
 11
141.4034675672
 21
83.641768597
 31
0.0
  0
LINE
  5
B4
330
1F
100
AcDbEntity
  8
0
  6
Continuous
 62
     7
370
    25
100
AcDbLine
 10
141.8498509222
 20
83.6043066311
 30
0.0
 11
141.8498509222
 21
88.8878208063
 31
0.0
  0
LINE
  5
B5
330
1F
100
AcDbEntity
  8
0
  6
Continuous
 62
     7
370
    25
100
AcDbLine
 10
141.4866725967
 20
90.3878208063
 30
0.0
 11
130.0709433132
 21
90.3878208063
 31
0.0
  0
LINE
  5
B6
330
1F
100
AcDbEntity
  8
0
  6
Continuous
 62
     7
370
    25
100
AcDbLine
 10
132.0697895557
 20
88.8878208063
 30
0.0
 11
141.4034675672
 21
88.8878208063
 31
0.0
  0
SPLINE
  5
B7
330
1F
100
AcDbEntity
  8
0
  6
Continuous
 62
     7
370
    25
100
AcDbSpline
210
0.0
220
0.0
230
1.0
 70
     8
 71
     3
 72
    15
 73
    11
 74
     0
 42
0.00000001
 43
0.00000001
 40
0.0
 40
0.0
 40
0.0
 40
0.0
 40
0.2070474010410781
 40
0.417596863024684
 40
0.5931232720441638
 40
0.6923428991082528
 40
0.773099683107911
 40
0.8543284120985949
 40
0.9261475166372038
 40
1.0
 40
1.0
 40
1.0
 40
1.0
 10
130.068377026476
 20
90.38780608022701
 30
0.0
 10
130.2994662634408
 20
90.38395584138568
 30
0.0
 10
130.7655534490324
 20
90.37619023962517
 30
0.0
 10
131.3901512483395
 20
90.28954027688773
 30
0.0
 10
131.8518304387702
 20
90.11958976734512
 30
0.0
 10
132.113734137754
 20
89.89022490999658
 30
0.0
 10
132.2342007938851
 20
89.65243144471725
 30
0.0
 10
132.2529948320809
 20
89.390518467444
 30
0.0
 10
132.1919564400808
 20
89.12497606542863
 30
0.0
 10
132.110761346466
 20
88.9676784424149
 30
0.0
 10
132.0695971126802
 20
88.88793179961388
 30
0.0
  0
LINE
  5
B8
330
1F
100
AcDbEntity
  8
0
  6
Continuous
 62
     7
370
    25
100
AcDbLine
 10
130.0036433906
 20
85.2953617257
 30
0.0
 11
132.0695971255
 21
88.8879318123
 31
0.0
  0
ARC
  5
B9
330
1F
100
AcDbEntity
  8
0
  6
Continuous
 62
     7
370
    25
100
AcDbCircle
 10
129.4135229681
 20
64.3148135591
 30
0.0
 40
19.07300724724769
100
AcDbArc
 50
81.2175477188
 51
82.2224666688
  0
SPLINE
  5
BA
330
1F
100
AcDbEntity
  8
0
  6
Continuous
 62
     7
370
    25
100
AcDbSpline
210
0.0
220
0.0
230
1.0
 70
     8
 71
     3
 72
    11
 73
     7
 74
     0
 42
0.00000001
 43
0.00000001
 40
0.0
 40
0.0
 40
0.0
 40
0.0
 40
0.2491150002829079
 40
0.4989585322854286
 40
0.7493328274976518
 40
1.0
 40
1.0
 40
1.0
 40
1.0
 10
128.7122559232614
 20
85.26546021384324
 30
0.0
 10
128.286544641948
 20
85.2392071058744
 30
0.0
 10
127.4338770953921
 20
85.18662411325984
 30
0.0
 10
126.0703113341403
 20
85.10230308303332
 30
0.0
 10
124.6696387169281
 20
85.01556981422159
 30
0.0
 10
123.7188184814409
 20
84.95659224879401
 30
0.0
 10
123.2431304688803
 20
84.92708622879483
 30
0.0
  0
SPLINE
  5
BB
330
1F
100
AcDbEntity
  8
0
  6
Continuous
 62
     7
370
    25
100
AcDbSpline
210
0.0
220
0.0
230
1.0
 70
     8
 71
     3
 72
     9
 73
     5
 74
     0
 42
0.00000001
 43
0.00000001
 40
0.0
 40
0.0
 40
0.0
 40
0.0
 40
0.5599987526606142
 40
1.0
 40
1.0
 40
1.0
 40
1.0
 10
125.8070318365377
 20
89.90090928048683
 30
0.0
 10
125.3272655786505
 20
88.97306798063752
 30
0.0
 10
124.4705382098703
 20
87.31620482613752
 30
0.0
 10
123.6181724613976
 20
85.65709612622707
 30
0.0
 10
123.2431304688803
 20
84.92708622879483
 30
0.0
  0
SPLINE
  5
BC
330
1F
100
AcDbEntity
  8
0
  6
Continuous
 62
     7
370
    25
100
AcDbSpline
210
0.0
220
0.0
230
1.0
 70
     8
 71
     3
 72
     9
 73
     5
 74
     0
 42
0.00000001
 43
0.00000001
 40
0.0
 40
0.0
 40
0.0
 40
0.0
 40
0.5600000882143319
 40
1.0
 40
1.0
 40
1.0
 40
1.0
 10
126.3115189740898
 20
90.87473233217895
 30
0.0
 10
126.2173065585581
 20
90.69297346134717
 30
0.0
 10
126.0490701287531
 20
90.36840410027553
 30
0.0
 10
125.8809879710846
 20
90.04375489997872
 30
0.0
 10
125.8070318365377
 20
89.90090928048683
 30
0.0
  0
SPLINE
  5
BD
330
1F
100
AcDbEntity
  8
0
  6
Continuous
 62
     7
370
    25
100
AcDbSpline
210
0.0
220
0.0
230
1.0
 70
     8
 71
     3
 72
    10
 73
     6
 74
     0
 42
0.00000001
 43
0.00000001
 40
0.0
 40
0.0
 40
0.0
 40
0.0
 40
0.428349366631063
 40
0.7616603141144169
 40
1.0
 40
1.0
 40
1.0
 40
1.0
 10
126.31151897409
 20
90.87473233217916
 30
0.0
 10
126.7584461753731
 20
90.772936069356
 30
0.0
 10
127.5531402709726
 20
90.59192921010147
 30
0.0
 10
128.5896950719782
 20
90.41826682714837
 30
0.0
 10
129.1755604049786
 20
90.39677954925259
 30
0.0
 10
129.4198266600786
 20
90.38782080633293
 30
0.0
  0
LINE
  5
BE
330
1F
100
AcDbEntity
  8
0
  6
Continuous
 62
     7
370
    25
100
AcDbLine
 10
129.4177265
 20
90.3878208063
 30
0.0
 11
130.0683799661
 21
90.3878208063
 31
0.0
  0
LINE
  5
BF
330
1F
100
AcDbEntity
  8
0
  6
Continuous
 62
     7
370
    25
100
AcDbLine
 10
141.8498509222
 20
90.3878208063
 30
0.0
 11
141.4866725967
 21
90.3878208063
 31
0.0
  0
LINE
  5
C0
330
1F
100
AcDbEntity
  8
0
  6
Continuous
 62
     7
370
    25
100
AcDbLine
 10
141.8498509222
 20
90.2971479535
 30
0.0
 11
141.8498509222
 21
90.3878208063
 31
0.0
  0
SPLINE
  5
C1
330
1F
100
AcDbEntity
  8
0
  6
Continuous
 62
     7
370
    25
100
AcDbSpline
210
0.0
220
0.0
230
1.0
 70
    24
 71
     3
 72
    11
 73
     7
 74
     0
 42
0.00000001
 43
0.00000001
 40
0.0
 40
0.0
 40
0.0
 40
0.0
 40
0.2799857774483057
 40
0.5599458358671288
 40
0.779998565900937
 40
0.9999999999999999
 40
0.9999999999999999
 40
0.9999999999999999
 40
0.9999999999999999
 10
123.2823824360625
 20
83.38782080633301
 30
0.0
 10
123.8797064231465
 20
83.38782080633301
 30
0.0
 10
125.074299528123
 20
83.38782080633301
 30
0.0
 10
126.7016612836056
 20
83.38782080633301
 30
0.0
 10
128.1573908531037
 20
83.38782080633301
 30
0.0
 10
128.9948448030115
 20
83.387820806333
 30
0.0
 10
129.413522968084
 20
83.38782080633301
 30
0.0
  0
SPLINE
  5
C2
330
1F
100
AcDbEntity
  8
0
  6
Continuous
 62
     7
370
    25
100
AcDbSpline
210
0.0
220
0.0
230
1.0
 70
     8
 71
     3
 72
    11
 73
     7
 74
     0
 42
0.00000001
 43
0.00000001
 40
0.0
 40
0.0
 40
0.0
 40
0.0
 40
0.2500000000000001
 40
0.4999999999999997
 40
0.75
 40
1.0
 40
1.0
 40
1.0
 40
1.0
 10
123.2823824360625
 20
83.38782080633301
 30
0.0
 10
123.2771514023024
 20
83.41114233864131
 30
0.0
 10
123.2666893347821
 20
83.45778540325792
 30
0.0
 10
123.2535748469148
 20
83.81576647162461
 30
0.0
 10
123.2445505034209
 20
84.32595940966655
 30
0.0
 10
123.2436038137272
 20
84.72671062241875
 30
0.0
 10
123.2431304688803
 20
84.92708622879483
 30
0.0
  0
SPLINE
  5
C3
330
1F
100
AcDbEntity
  8
0
  6
Continuous
 62
     7
370
    25
100
AcDbSpline
210
0.0
220
0.0
230
1.0
 70
     8
 71
     3
 72
    11
 73
     7
 74
     0
 42
0.00000001
 43
0.00000001
 40
0.0
 40
0.0
 40
0.0
 40
0.0
 40
0.2499999999999989
 40
0.4999999999999996
 40
0.749999999999999
 40
1.0
 40
1.0
 40
1.0
 40
1.0
 10
138.8367803883804
 20
90.387820806333
 30
0.0
 10
138.8384668588843
 20
90.39508311598514
 30
0.0
 10
138.8418397998921
 20
90.40960773528943
 30
0.0
 10
138.8461196967934
 20
90.52157993888193
 30
0.0
 10
138.8491618176072
 20
90.6820915169069
 30
0.0
 10
138.8496301908298
 20
90.81051872708832
 30
0.0
 10
138.8498643774411
 20
90.87473233217906
 30
0.0
  0
SPLINE
  5
C4
330
1F
100
AcDbEntity
  8
0
  6
Continuous
 62
     7
370
    25
100
AcDbSpline
210
0.0
220
0.0
230
1.0
 70
     8
 71
     3
 72
    13
 73
     9
 74
     0
 42
0.00000001
 43
0.00000001
 40
0.0
 40
0.0
 40
0.0
 40
0.0
 40
0.2886949682914851
 40
0.554553683594315
 40
0.6780091910936104
 40
0.7888922083801199
 40
0.8964194071406489
 40
1.0
 40
1.0
 40
1.0
 40
1.0
 10
138.8498643774411
 20
90.87473233217906
 30
0.0
 10
139.1215895680173
 20
90.83610217830108
 30
0.0
 10
139.6435460338718
 20
90.76189758007882
 30
0.0
 10
140.241121441975
 20
90.67883486055021
 30
0.0
 10
140.6049756221545
 20
90.6298539299416
 30
0.0
 10
140.8015231137202
 20
90.60383697017011
 30
0.0
 10
140.9278064028264
 20
90.58847815982587
 30
0.0
 10
140.9425949047975
 20
90.58803717613841
 30
0.0
 10
140.9498509221615
 20
90.58782080633303
 30
0.0
  0
SPLINE
  5
C5
330
1F
100
AcDbEntity
  8
0
  6
Continuous
 62
     7
370
    25
100
AcDbSpline
210
0.0
220
0.0
230
1.0
 70
     8
 71
     3
 72
    11
 73
     7
 74
     0
 42
0.00000001
 43
0.00000001
 40
0.0
 40
0.0
 40
0.0
 40
0.0
 40
0.2500000000000007
 40
0.5000000000000022
 40
0.7500000000000036
 40
1.0
 40
1.0
 40
1.0
 40
1.0
 10
140.9498509221615
 20
90.58782080633301
 30
0.0
 10
140.9751108603656
 20
90.55844313650124
 30
0.0
 10
141.0256307367739
 20
90.4996877968377
 30
0.0
 10
141.1244893459743
 20
90.43709765395872
 30
0.0
 10
141.2338766257977
 20
90.39556485232579
 30
0.0
 10
141.3111928233735
 20
90.39040215499728
 30
0.0
 10
141.3498509221615
 20
90.38782080633302
 30
0.0
  0
LINE
  5
C6
330
1F
100
AcDbEntity
  8
0
  6
Continuous
 62
     7
370
    25
100
AcDbLine
 10
138.8498643774
 20
90.8747323322
 30
0.0
 11
126.3115189741
 21
90.8747323322
 31
0.0
  0
LINE
  5
C7
330
1F
100
AcDbEntity
  8
0
  6
Continuous
 62
     7
370
    25
100
AcDbLine
 10
140.9498509222
 20
90.5878208063
 30
0.0
 11
138.5498509222
 21
93.7878208063
 31
0.0
  0
LINE
  5
C8
330
1F
100
AcDbEntity
  8
0
  6
Continuous
 62
     7
370
    25
100
AcDbLine
 10
136.726305124
 20
93.7061446701
 30
0.0
 11
138.8498643774
 21
90.8747323322
 31
0.0
  0
ELLIPSE
  5
C9
330
1F
100
AcDbEntity
  8
0
  6
Continuous
 62
     7
370
    25
100
AcDbEllipse
 10
136.7498509222
 20
93.6878208063
 30
0.0
 11
1.56006363488487
 21
0.4198716740992979
 31
0.0
210
0.0
220
0.0
230
1.0
 40
0.0147408623
 41
0.9331929812044273
 42
1.581922327328497
  0
SPLINE
  5
CA
330
1F
100
AcDbEntity
  8
0
  6
Continuous
 62
     7
370
    25
100
AcDbSpline
210
0.0
220
0.0
230
1.0
 70
     8
 71
     3
 72
    11
 73
     7
 74
     0
 42
0.00000001
 43
0.00000001
 40
0.0
 40
0.0
 40
0.0
 40
0.0
 40
0.2307374805226512
 40
0.4903955403005855
 40
0.7438105520730652
 40
0.9999999999999999
 40
0.9999999999999999
 40
0.9999999999999999
 40
0.9999999999999999
 10
137.6735389257965
 20
93.95623680148634
 30
0.0
 10
137.765170930556
 20
93.97495265189077
 30
0.0
 10
137.9599200730926
 20
94.01473019280213
 30
0.0
 10
138.2074276403306
 20
93.99741020424354
 30
0.0
 10
138.4172363697247
 20
93.9264253119174
 30
0.0
 10
138.505485919205
 20
93.83418969411368
 30
0.0
 10
138.5498509221615
 20
93.787820806333
 30
0.0
  0
LINE
  5
CB
330
1F
100
AcDbEntity
  8
0
  6
Continuous
 62
     7
370
    25
100
AcDbLine
 10
123.2431304689
 20
84.9270862288
 30
0.0
 11
101.6155823001
 21
84.9270862288
 31
0.0
  0
LINE
  5
CC
330
1F
100
AcDbEntity
  8
0
  6
Continuous
 62
     7
370
    25
100
AcDbLine
 10
101.6155823001
 20
84.9270862288
 30
0.0
 11
101.8380272113
 21
93.4219146653
 31
0.0
  0
ARC
  5
CD
330
1F
100
AcDbEntity
  8
0
  6
Continuous
 62
     7
370
    25
100
AcDbCircle
 10
102.4495673262
 20
92.9061446701
 30
0.0
 40
0.7999999999999914
100
AcDbArc
 50
90.0
 51
139.8558773282
  0
LINE
  5
CE
330
1F
100
AcDbEntity
  8
0
  6
Continuous
 62
     7
370
    25
100
AcDbLine
 10
102.4495673262
 20
93.7061446701
 30
0.0
 11
136.726305124
 21
93.7061446701
 31
0.0
  0
SPLINE
  5
CF
330
1F
100
AcDbEntity
  8
0
  6
Continuous
 62
     7
370
    25
100
AcDbSpline
210
0.0
220
0.0
230
1.0
 70
     8
 71
     3
 72
    11
 73
     7
 74
     0
 42
0.00000001
 43
0.00000001
 40
0.0
 40
0.0
 40
0.0
 40
0.0
 40
0.249999999999998
 40
0.4999999999999973
 40
0.7500000000000001
 40
1.0
 40
1.0
 40
1.0
 40
1.0
 10
102.4495673262263
 20
93.70614467014852
 30
0.0
 10
102.4498951874821
 20
93.79604371727554
 30
0.0
 10
102.4505509099938
 20
93.97584181152956
 30
0.0
 10
102.454809879133
 20
94.20055802076452
 30
0.0
 10
102.4608017347948
 20
94.357319105794
 30
0.0
 10
102.4655238522058
 20
94.37765357282001
 30
0.0
 10
102.4678849109113
 20
94.38782080633301
 30
0.0
  0
LINE
  5
D0
330
1F
100
AcDbEntity
  8
0
  6
Continuous
 62
     7
370
    25
100
AcDbLine
 10
136.7446227086
 20
94.3878208063
 30
0.0
 11
102.4678849109
 21
94.3878208063
 31
0.0
  0
SPLINE
  5
D1
330
1F
100
AcDbEntity
  8
0
  6
Continuous
 62
     7
370
    25
100
AcDbSpline
210
0.0
220
0.0
230
1.0
 70
     8
 71
     3
 72
    11
 73
     7
 74
     0
 42
0.00000001
 43
0.00000001
 40
0.0
 40
0.0
 40
0.0
 40
0.0
 40
0.2499999999999988
 40
0.5000000000000004
 40
0.7499999999999976
 40
1.0
 40
1.0
 40
1.0
 40
1.0
 10
136.744622708649
 20
94.38782080633301
 30
0.0
 10
136.7422616499435
 20
94.37765357282002
 30
0.0
 10
136.7375395325325
 20
94.35731910579402
 30
0.0
 10
136.7315476768707
 20
94.20055802076449
 30
0.0
 10
136.7272887077314
 20
93.97584181152958
 30
0.0
 10
136.7266329852198
 20
93.79604371727554
 30
0.0
 10
136.726305123964
 20
93.70614467014852
 30
0.0
  0
LINE
  5
D2
330
1F
100
AcDbEntity
  8
0
  6
Continuous
 62
     7
370
    25
100
AcDbLine
 10
137.3498509222
 20
94.3878208063
 30
0.0
 11
136.7446227086
 21
94.3878208063
 31
0.0
  0
SPLINE
  5
D3
330
1F
100
AcDbEntity
  8
0
  6
Continuous
 62
     7
370
    25
100
AcDbSpline
210
0.0
220
0.0
230
1.0
 70
     8
 71
     3
 72
    10
 73
     6
 74
     0
 42
0.00000001
 43
0.00000001
 40
0.0
 40
0.0
 40
0.0
 40
0.0
 40
0.2808335173386708
 40
0.5616510917414125
 40
1.0
 40
1.0
 40
1.0
 40
1.0
 10
137.3498509221615
 20
94.38782080633301
 30
0.0
 10
137.3882013711239
 20
94.3802461980651
 30
0.0
 10
137.4649000918915
 20
94.36509741154023
 30
0.0
 10
137.5900544419334
 20
94.23146647848054
 30
0.0
 10
137.6419235082867
 20
94.06046576412231
 30
0.0
 10
137.6735389257965
 20
93.95623680148633
 30
0.0
  0
LINE
  5
D4
330
1F
100
AcDbEntity
  8
0
  6
Continuous
 62
     7
370
    25
100
AcDbLine
 10
101.6155823001
 20
84.9270862288
 30
0.0
 11
101.5725898727
 21
84.8641991439
 31
0.0
  0
ELLIPSE
  5
D5
330
1F
100
AcDbEntity
  8
0
  6
Continuous
 62
     7
370
    25
100
AcDbEllipse
 10
97.3498509222
 20
84.8878208063
 30
0.0
 11
0.5000325503427945
 21
1.499994860148007
 31
0.0
210
0.0
220
0.0
230
1.0
 40
0.0078530307
 41
2.363888000156533
 42
3.144210503885704
  0
SPLINE
  5
D6
330
1F
100
AcDbEntity
  8
0
  6
Continuous
 62
     7
370
    25
100
AcDbSpline
210
0.0
220
0.0
230
1.0
 70
     8
 71
     3
 72
    12
 73
     8
 74
     0
 42
0.00000001
 43
0.00000001
 40
0.0
 40
0.0
 40
0.0
 40
0.0
 40
0.0715202026166142
 40
0.1260836237049476
 40
0.3855387013103047
 40
0.8475626424815554
 40
1.0
 40
1.0
 40
1.0
 40
1.0
 10
97.32442230916087
 20
84.21612875598221
 30
0.0
 10
97.309968174382
 20
84.21302010811739
 30
0.0
 10
97.28448684709593
 20
84.20753984417406
 30
0.0
 10
97.21801511944977
 20
84.16795129875365
 30
0.0
 10
97.11331073231675
 20
84.06151716577138
 30
0.0
 10
97.0264821734704
 20
83.93101015006313
 30
0.0
 10
96.99348560676054
 20
83.8435004360998
 30
0.0
 10
96.98529972190961
 20
83.82179077011723
 30
0.0
  0
ELLIPSE
  5
D7
330
1F
100
AcDbEntity
  8
0
  6
Continuous
 62
     7
370
    25
100
AcDbEllipse
 10
65.4257140815
 20
84.8878208063
 30
0.0
 11
36.17607470647087
 21
0.04043410480178978
 31
0.0
210
0.0
220
0.0
230
1.0
 40
0.0414488012
 41
5.791928562280354
 42
6.243021298617577
  0
ELLIPSE
  5
D8
330
1F
100
AcDbEntity
  8
0
  6
Continuous
 62
     7
370
    25
100
AcDbEllipse
 10
101.6548342673
 20
84.8878208063
 30
0.0
 11
0.03725061189165047
 21
1.499998630535871
 31
0.0
210
0.0
220
0.0
230
1.0
 40
0.0544129722
 41
1.585352277991062
 42
1.587896030767889
  0
LINE
  5
D9
330
1F
100
AcDbEntity
  8
0
  6
Continuous
 62
     7
370
    25
100
AcDbLine
 10
96.8498509222
 20
83.3878208063
 30
0.0
 11
123.2823824361
 21
83.3878208063
 31
0.0
  0
SPLINE
  5
DA
330
1F
100
AcDbEntity
  8
0
  6
Continuous
 62
     7
370
    25
100
AcDbSpline
210
0.0
220
0.0
230
1.0
 70
     8
 71
     3
 72
    11
 73
     7
 74
     0
 42
0.00000001
 43
0.00000001
 40
0.0
 40
0.0
 40
0.0
 40
0.0
 40
0.2561894651307314
 40
0.509604493920692
 40
0.769274206655365
 40
1.0
 40
1.0
 40
1.0
 40
1.0
 10
138.5498509221615
 20
93.787820806333
 30
0.0
 10
138.4742547898676
 20
93.87583117132144
 30
0.0
 10
138.3238812031929
 20
94.05089878187606
 30
0.0
 10
138.0246684172376
 20
94.24108635157764
 30
0.0
 10
137.6971486823509
 20
94.3650851523033
 30
0.0
 10
137.4609703015371
 20
94.38054643818246
 30
0.0
 10
137.3498509221615
 20
94.38782080633301
 30
0.0
  0
LINE
  5
DB
330
1F
100
AcDbEntity
  8
0
  6
Continuous
 62
     7
370
    25
100
AcDbLine
 10
101.8227819872
 20
93.3806310409
 30
0.0
 11
101.7959116283
 21
93.3940662204
 31
0.0
  0
LINE
  5
DC
330
1F
100
AcDbEntity
  8
0
  6
Continuous
 62
     7
370
    25
100
AcDbLine
 10
101.8227819872
 20
93.3806310409
 30
0.0
 11
101.600853981
 21
84.9055424103
 31
0.0
  0
SPLINE
  5
DD
330
1F
100
AcDbEntity
  8
0
  6
Continuous
 62
     7
370
    25
100
AcDbSpline
210
0.0
220
0.0
230
1.0
 70
     8
 71
     3
 72
     9
 73
     5
 74
     0
 42
0.00000001
 43
0.00000001
 40
0.0
 40
0.0
 40
0.0
 40
0.0
 40
0.8673350121727758
 40
1.0
 40
1.0
 40
1.0
 40
1.0
 10
101.5734822458371
 20
84.89983080219557
 30
0.0
 10
101.5732448602072
 20
84.89063237882037
 30
0.0
 10
101.5729711647763
 20
84.8800269919213
 30
0.0
 10
101.5727152782677
 20
84.86942136731992
 30
0.0
 10
101.5726813310871
 20
84.86801437226127
 30
0.0
  0
LINE
  5
DE
330
1F
100
AcDbEntity
  8
0
  6
Continuous
 62
     7
370
    25
100
AcDbLine
 10
101.7959116283
 20
93.3940662204
 30
0.0
 11
101.5734822458
 21
84.8998308022
 31
0.0
  0
ARC
  5
DF
330
1F
100
AcDbEntity
  8
0
  6
Continuous
 62
     7
370
    25
100
AcDbCircle
 10
106.0485891444
 20
84.8928248542
 30
0.0
 40
8.75037168227411
100
AcDbArc
 50
182.878079786
 51
184.4353064954
  0
ELLIPSE
  5
E0
330
1F
100
AcDbEntity
  8
0
  6
Continuous
 62
     7
370
    25
100
AcDbEllipse
 10
65.3988437227
 20
84.9012559858
 30
0.0
 11
36.18915847374971
 21
0.02692057091445577
 31
0.0
210
0.0
220
0.0
230
1.0
 40
0.0276225703
 41
5.791964074121238
 42
6.254836299513471
  0
ARC
  5
E1
330
1F
100
AcDbEntity
  8
0
  6
Continuous
 62
     7
370
    25
100
AcDbCircle
 10
102.4302664085
 20
92.9066300575
 30
0.0
 40
0.7999999999999975
100
AcDbArc
 50
142.4614409777
 51
153.4349488229
  0
LINE
  5
E2
330
1F
100
AcDbEntity
  8
0
  6
Continuous
 62
     7
370
    25
100
AcDbLine
 10
97.3092548315
 20
84.4534612855
 30
0.0
 11
101.7147246557
 21
93.2644009339
 31
0.0
  0
SPLINE
  5
E3
330
1F
100
AcDbEntity
  8
0
  6
Continuous
 62
     7
370
    25
100
AcDbSpline
210
0.0
220
0.0
230
1.0
 70
     8
 71
     3
 72
    12
 73
     8
 74
     0
 42
0.00000001
 43
0.00000001
 40
0.0
 40
0.0
 40
0.0
 40
0.0
 40
0.139683458618249
 40
0.3831896274038307
 40
0.55131692930133
 40
0.8194729461607051
 40
0.9999999999999999
 40
0.9999999999999999
 40
0.9999999999999999
 40
0.9999999999999999
 10
96.54729398125625
 20
84.40074091327247
 30
0.0
 10
96.55753536200253
 20
84.41405328693342
 30
0.0
 10
96.58563024819085
 20
84.45057273994139
 30
0.0
 10
96.69278060954562
 20
84.48824480053277
 30
0.0
 10
96.87311769695863
 20
84.51261212129427
 30
0.0
 10
97.0815738415276
 20
84.5114950865303
 30
0.0
 10
97.24393074223153
 20
84.47011179815274
 30
0.0
 10
97.30925483147992
 20
84.45346128553733
 30
0.0
  0
LWPOLYLINE
  5
E4
330
1F
100
AcDbEntity
  8
0
  6
Continuous
 62
     7
370
    25
100
AcDbPolyline
 90
        9
 70
   128
 43
0.0
 10
96.5472939813
 20
84.4007409133
 10
96.5244434914
 20
84.3244104357
 10
96.5273486175
 20
84.2400104364
 10
96.5558501825
 20
84.1521653359
 10
96.608386537
 20
84.0656883175
 10
96.6820791241
 20
83.9853176052
 10
96.772890201
 20
83.9154568478
 10
96.8758440732
 20
83.8599338358
 10
96.9852997219
 20
83.8217907701
  0
SPLINE
  5
E5
330
1F
100
AcDbEntity
  8
0
  6
Continuous
 62
     7
370
    25
100
AcDbSpline
210
0.0
220
0.0
230
1.0
 70
    24
 71
     3
 72
    11
 73
     7
 74
     0
 42
0.00000001
 43
0.00000001
 40
0.0
 40
0.0
 40
0.0
 40
0.0
 40
0.2499999999999991
 40
0.4999999999999979
 40
0.7499999999999996
 40
1.0
 40
1.0
 40
1.0
 40
1.0
 10
101.7147246556845
 20
93.26440093394645
 30
0.0
 10
101.6364895473522
 20
93.30351848811259
 30
0.0
 10
101.4800193306877
 20
93.38175359644485
 30
0.0
 10
101.2866931792712
 20
93.47841667215307
 30
0.0
 10
101.1523167469923
 20
93.54560488829256
 30
0.0
 10
101.1349349986051
 20
93.55429576248616
 30
0.0
 10
101.1262441244115
 20
93.55864119958296
 30
0.0
  0
LINE
  5
E6
330
1F
100
AcDbEntity
  8
0
  6
Continuous
 62
     7
370
    25
100
AcDbLine
 10
101.1262441244
 20
93.5586411996
 30
0.0
 11
96.5472939813
 21
84.4007409133
 31
0.0
  0
LINE
  5
E7
330
1F
100
AcDbEntity
  8
0
  6
Continuous
 62
     7
370
    25
100
AcDbLine
 10
101.7034597673
 20
93.5325333002
 30
0.0
 11
101.3212471955
 21
93.8548895472
 31
0.0
  0
SPLINE
  5
E8
330
1F
100
AcDbEntity
  8
0
  6
Continuous
 62
     7
370
    25
100
AcDbSpline
210
0.0
220
0.0
230
1.0
 70
     8
 71
     3
 72
    12
 73
     8
 74
     0
 42
0.00000001
 43
0.00000001
 40
0.0
 40
0.0
 40
0.0
 40
0.0
 40
0.2198609600791294
 40
0.4397396970008148
 40
0.6583291451397767
 40
0.87912395168436
 40
1.0
 40
1.0
 40
1.0
 40
1.0
 10
101.8380272113204
 20
93.4219146652635
 30
0.0
 10
101.7781121485916
 20
93.47240288139139
 30
0.0
 10
101.6582771787056
 20
93.57338339586835
 30
0.0
 10
101.501542190431
 20
93.70504638881837
 30
0.0
 10
101.3849738666449
 20
93.80260771159146
 30
0.0
 10
101.3287171748506
 20
93.84926710306817
 30
0.0
 10
101.3231993036343
 20
93.8534202500695
 30
0.0
 10
101.3212471954628
 20
93.8548895471736
 30
0.0
  0
SPLINE
  5
E9
330
1F
100
AcDbEntity
  8
0
  6
Continuous
 62
     7
370
    25
100
AcDbSpline
210
0.0
220
0.0
230
1.0
 70
     8
 71
     3
 72
    12
 73
     8
 74
     0
 42
0.00000001
 43
0.00000001
 40
0.0
 40
0.0
 40
0.0
 40
0.0
 40
0.0006864401058021
 40
0.2840613788817195
 40
0.5703177902163796
 40
0.8469872112136485
 40
1.0
 40
1.0
 40
1.0
 40
1.0
 10
101.8007554466309
 20
93.45123835276115
 30
0.0
 10
101.8007147288738
 20
93.45127264739806
 30
0.0
 10
101.7838649817125
 20
93.4654643908094
 30
0.0
 10
101.7546360455993
 20
93.4899966706575
 30
0.0
 10
101.7213899999006
 20
93.51782625540456
 30
0.0
 10
101.7057077767907
 20
93.5308271183773
 30
0.0
 10
101.7041275489847
 20
93.53201993126336
 30
0.0
 10
101.7035648189996
 20
93.53244470013217
 30
0.0
  0
SPLINE
  5
EA
330
1F
100
AcDbEntity
  8
0
  6
Continuous
 62
     7
370
    25
100
AcDbSpline
210
0.0
220
0.0
230
1.0
 70
     8
 71
     3
 72
    12
 73
     8
 74
     0
 42
0.00000001
 43
0.00000001
 40
0.0
 40
0.0
 40
0.0
 40
0.0
 40
0.2225634137435274
 40
0.446206317369568
 40
0.6680851268158019
 40
0.8917990985569294
 40
1.0
 40
1.0
 40
1.0
 40
1.0
 10
101.278469698043
 20
93.8017636116536
 30
0.0
 10
101.2840562641455
 20
93.79633653903988
 30
0.0
 10
101.295256492635
 20
93.78545607111245
 30
0.0
 10
101.3893072703221
 20
93.71016264009215
 30
0.0
 10
101.5287983337201
 20
93.6006840953388
 30
0.0
 10
101.6740224335565
 20
93.48796945479235
 30
0.0
 10
101.7659456022865
 20
93.41715199734814
 30
0.0
 10
101.795911628288
 20
93.39406622038412
 30
0.0
  0
LINE
  5
EB
330
1F
100
AcDbEntity
  8
0
  6
Continuous
 62
     7
370
    25
100
AcDbLine
 10
101.6749414357
 20
93.4971160099
 30
0.0
 11
101.278469698
 21
93.8017636117
 31
0.0
  0
ARC
  5
EC
330
1F
100
AcDbEntity
  8
0
  6
Continuous
 62
     7
370
    25
100
AcDbCircle
 10
102.4678849109
 20
92.8878208063
 30
0.0
 40
1.500000000000001
100
AcDbArc
 50
90.0
 51
139.8558773282
  0
ARC
  5
ED
330
1F
100
AcDbEntity
  8
0
  6
Continuous
 62
     7
370
    25
100
AcDbCircle
 10
102.4678849109
 20
92.8878208063
 30
0.0
 40
1.500000000000014
100
AcDbArc
 50
142.4614409777
 51
153.4349488229
  0
LINE
  5
EE
330
1F
100
AcDbEntity
  8
0
  6
Continuous
 62
     7
370
    25
100
AcDbLine
 10
96.4026373267
 20
84.1114276041
 30
0.0
 11
96.5472939813
 21
84.4007409133
 31
0.0
  0
ARC
  5
EF
330
1F
100
AcDbEntity
  8
0
  6
Continuous
 62
     7
370
    25
100
AcDbCircle
 10
96.8498509222
 20
83.8878208063
 30
0.0
 40
0.5000000000000023
100
AcDbArc
 50
153.4349488229
 51
270.0
  0
SPLINE
  5
F0
330
1F
100
AcDbEntity
  8
0
  6
Continuous
 62
     7
370
    25
100
AcDbSpline
210
0.0
220
0.0
230
1.0
 70
     8
 71
     3
 72
     9
 73
     5
 74
     0
 42
0.00000001
 43
0.00000001
 40
0.0
 40
0.0
 40
0.0
 40
0.0
 40
0.5600029565045499
 40
1.0
 40
1.0
 40
1.0
 40
1.0
 10
101.3212471954628
 20
93.8548895471736
 30
0.0
 10
101.3130994361097
 20
93.84510308501363
 30
0.0
 10
101.2985499426499
 20
93.82762735199066
 30
0.0
 10
101.2846052997094
 20
93.80966638432486
 30
0.0
 10
101.278469698043
 20
93.8017636116536
 30
0.0
  0
LINE
  5
F1
330
1F
100
AcDbEntity
  8
0
  6
Continuous
 62
     7
370
    25
100
AcDbLine
 10
143.4437900671
 20
83.7758963921
 30
0.0
 11
143.4459301823
 21
83.9994348457
 31
0.0
  0
SPLINE
  5
F2
330
1F
100
AcDbEntity
  8
0
  6
Continuous
 62
     7
370
    25
100
AcDbSpline
210
0.0
220
0.0
230
1.0
 70
     8
 71
     3
 72
    10
 73
     6
 74
     0
 42
0.00000001
 43
0.00000001
 40
0.0
 40
0.0
 40
0.0
 40
0.0
 40
0.3536466237081646
 40
0.7182931081305524
 40
1.0
 40
1.0
 40
1.0
 40
1.0
 10
143.5950780309506
 20
81.82962774561878
 30
0.0
 10
143.5575709966414
 20
81.38609009550021
 30
0.0
 10
143.4813903053958
 20
80.48521895487964
 30
0.0
 10
143.519826708009
 20
79.1072096600684
 30
0.0
 10
143.582808827342
 20
78.18917562876351
 30
0.0
 10
143.6102589772622
 20
77.7890593408701
 30
0.0
  0
LINE
  5
F3
330
1F
100
AcDbEntity
  8
0
  6
Continuous
 62
     7
370
    25
100
AcDbLine
 10
143.4437900671
 20
83.7758963921
 30
0.0
 11
143.595078031
 21
81.8296277456
 31
0.0
  0
LINE
  5
F4
330
1F
100
AcDbEntity
  8
0
  6
Continuous
 62
     7
370
    25
100
AcDbLine
 10
143.6698509222
 20
75.6878208063
 30
0.0
 11
143.731205715
 21
75.6878208063
 31
0.0
  0
LWPOLYLINE
  5
F5
330
1F
100
AcDbEntity
  8
0
  6
Continuous
 62
     7
370
    25
100
AcDbPolyline
 90
        3
 70
   128
 43
0.0
 10
143.8672182575
 20
74.3380689468
 10
143.8259194853
 20
74.7478700914
 10
143.731205715
 20
75.6878208063
  0
SPLINE
  5
F6
330
1F
100
AcDbEntity
  8
0
  6
Continuous
 62
     7
370
    25
100
AcDbSpline
210
0.0
220
0.0
230
1.0
 70
     8
 71
     3
 72
    11
 73
     7
 74
     0
 42
0.00000001
 43
0.00000001
 40
0.0
 40
0.0
 40
0.0
 40
0.0
 40
0.2920574028183094
 40
0.5665622171831318
 40
0.8065682389915578
 40
1.0
 40
1.0
 40
1.0
 40
1.0
 10
143.7336453151081
 20
89.88782080633304
 30
0.0
 10
143.7653058514236
 20
89.87098901028435
 30
0.0
 10
143.8267241324842
 20
89.83833700558766
 30
0.0
 10
143.9066364917488
 20
89.58294511854669
 30
0.0
 10
143.9457353054763
 20
89.24722220197202
 30
0.0
 10
143.9303189425467
 20
88.99872050715095
 30
0.0
 10
143.9234390295625
 20
88.88782080632092
 30
0.0
  0
LINE
  5
F7
330
1F
100
AcDbEntity
  8
0
  6
Continuous
 62
     7
370
    25
100
AcDbLine
 10
143.9234390296
 20
88.8878208063
 30
0.0
 11
143.4459301823
 21
83.9994348457
 31
0.0
  0
LINE
  5
F8
330
1F
100
AcDbEntity
  8
0
  6
Continuous
 62
     7
370
    25
100
AcDbLine
 10
144.2912420314
 20
91.8878208063
 30
0.0
 11
159.4084598129
 21
91.8878208063
 31
0.0
  0
LINE
  5
F9
330
1F
100
AcDbEntity
  8
0
  6
Continuous
 62
     7
370
    25
100
AcDbLine
 10
159.3973571411
 20
73.8878208063
 30
0.0
 11
144.3688850671
 21
73.8878208063
 31
0.0
  0
SPLINE
  5
FA
330
1F
100
AcDbEntity
  8
0
  6
Continuous
 62
     7
370
    25
100
AcDbSpline
210
0.0
220
0.0
230
1.0
 70
     8
 71
     3
 72
    12
 73
     8
 74
     0
 42
0.00000001
 43
0.00000001
 40
0.0
 40
0.0
 40
0.0
 40
0.0
 40
0.2316347876629375
 40
0.46330664808196
 40
0.6939442291381526
 40
0.9227406525226395
 40
1.0
 40
1.0
 40
1.0
 40
1.0
 10
144.3688850670731
 20
73.88782080633301
 30
0.0
 10
144.3118317494244
 20
73.89341027136328
 30
0.0
 10
144.1977159828398
 20
73.90459009600825
 30
0.0
 10
144.0458626523617
 20
73.99191316196392
 30
0.0
 10
143.9316952694778
 20
74.12022333574598
 30
0.0
 10
143.8799409371106
 20
74.24490276244379
 30
0.0
 10
143.8697825861235
 20
74.31929077119709
 30
0.0
 10
143.867218257516
 20
74.33806894682252
 30
0.0
  0
SPLINE
  5
FB
330
1F
100
AcDbEntity
  8
0
  6
Continuous
 62
     7
370
    25
100
AcDbSpline
210
0.0
220
0.0
230
1.0
 70
     8
 71
     3
 72
     9
 73
     5
 74
     0
 42
0.00000001
 43
0.00000001
 40
0.0
 40
0.0
 40
0.0
 40
0.0
 40
0.4474581094010271
 40
1.0
 40
1.0
 40
1.0
 40
1.0
 10
141.8498509221615
 20
79.42013262551009
 30
0.0
 10
142.1235015238398
 20
79.1921996821432
 30
0.0
 10
142.7350684972144
 20
78.68280463805289
 30
0.0
 10
143.2987830644975
 20
78.10713882021271
 30
0.0
 10
143.6102589772622
 20
77.7890593408701
 30
0.0
  0
SPLINE
  5
FC
330
1F
100
AcDbEntity
  8
0
  6
Continuous
 62
     7
370
    25
100
AcDbSpline
210
0.0
220
0.0
230
1.0
 70
     8
 71
     3
 72
     9
 73
     5
 74
     0
 42
0.00000001
 43
0.00000001
 40
0.0
 40
0.0
 40
0.0
 40
0.0
 40
0.7210175706402088
 40
0.9999999999999999
 40
0.9999999999999999
 40
0.9999999999999999
 40
0.9999999999999999
 10
142.1937793778589
 20
83.5856209425679
 30
0.0
 10
142.1248461588627
 20
83.64887175547719
 30
0.0
 10
142.0292406954132
 20
83.73659612653952
 30
0.0
 10
141.8889809317654
 20
83.78140531288348
 30
0.0
 10
141.8498509221615
 20
83.79390628854735
 30
0.0
  0
ARC
  5
FD
330
1F
100
AcDbEntity
  8
0
  6
Continuous
 62
     7
370
    25
100
AcDbCircle
 10
135.1276245833
 20
76.5096435246
 30
0.0
 40
10.00000000000001
100
AcDbArc
 50
32.1405798582
 51
45.0397956095
  0
LINE
  5
FE
330
1F
100
AcDbEntity
  8
0
  6
Continuous
 62
     7
370
    25
100
AcDbLine
 10
142.1937793779
 20
88.8878208063
 30
0.0
 11
142.1937793779
 21
83.5856209426
 31
0.0
  0
LINE
  5
FF
330
1F
100
AcDbEntity
  8
0
  6
Continuous
 62
     7
370
    25
100
AcDbLine
 10
143.9234390296
 20
88.8878208063
 30
0.0
 11
142.1937793779
 21
88.8878208063
 31
0.0
  0
LINE
  5
100
330
1F
100
AcDbEntity
  8
0
  6
Continuous
 62
     7
370
    25
100
AcDbLine
 10
141.8498509222
 20
89.8878208063
 30
0.0
 11
143.7336453151
 21
89.8878208063
 31
0.0
  0
ARC
  5
101
330
1F
100
AcDbEntity
  8
0
  6
Continuous
 62
     7
370
    25
100
AcDbCircle
 10
104.2373102478
 20
96.5971660275
 30
0.0
 40
4.021945305541659
100
AcDbArc
 50
230.4243196696
 51
233.1058614851
  0
LINE
  5
102
330
1F
100
AcDbEntity
  8
0
  6
Continuous
 62
     7
370
    25
100
AcDbLine
 10
162.7621376819
 20
63.4235234112
 30
0.0
 11
140.4375641624
 21
63.4235234112
 31
0.0
  0
LINE
  5
103
330
1F
100
AcDbEntity
  8
0
  6
Continuous
 62
     7
370
    25
100
AcDbLine
 10
140.4375641624
 20
63.4235234112
 30
0.0
 11
140.4375641624
 21
67.1878208063
 31
0.0
  0
LINE
  5
104
330
1F
100
AcDbEntity
  8
0
  6
Continuous
 62
     7
370
    25
100
AcDbLine
 10
162.7621376819
 20
67.1878208063
 30
0.0
 11
140.4375641624
 21
67.1878208063
 31
0.0
  0
LINE
  5
105
330
1F
100
AcDbEntity
  8
0
  6
Continuous
 62
     7
370
    25
100
AcDbLine
 10
162.7621376819
 20
67.1878208063
 30
0.0
 11
162.7621376819
 21
63.4235234112
 31
0.0
  0
SPLINE
  5
106
330
1F
100
AcDbEntity
  8
0
  6
Continuous
 62
     7
370
    25
100
AcDbSpline
210
0.0
220
0.0
230
1.0
 70
     8
 71
     3
 72
    12
 73
     8
 74
     0
 42
0.00000001
 43
0.00000001
 40
0.0
 40
0.0
 40
0.0
 40
0.0
 40
0.2499999999999999
 40
0.2499999999999999
 40
0.4999999999999998
 40
0.4999999999999998
 40
1.0
 40
1.0
 40
1.0
 40
1.0
 10
162.76213768189
 20
45.95211820150495
 30
0.0
 10
162.9955886567414
 20
46.65799404905942
 30
0.0
 10
163.2124355258822
 20
47.37069574361914
 30
0.0
 10
163.6014191770859
 20
48.81447917796987
 30
0.0
 10
163.7717829772543
 20
49.53948675340177
 30
0.0
 10
164.1924348105931
 20
51.72508971994758
 30
0.0
 10
164.3498509221614
 20
53.19697529065013
 30
0.0
 10
164.3498509221614
 20
54.68782080633301
 30
0.0
  0
LINE
  5
107
330
1F
100
AcDbEntity
  8
0
  6
Continuous
 62
     7
370
    25
100
AcDbLine
 10
162.7621376819
 20
45.9521182015
 30
0.0
 11
140.4375641624
 21
45.9521182015
 31
0.0
  0
SPLINE
  5
108
330
1F
100
AcDbEntity
  8
0
  6
Continuous
 62
     7
370
    25
100
AcDbSpline
210
0.0
220
0.0
230
1.0
 70
     8
 71
     3
 72
    10
 73
     6
 74
     0
 42
0.00000001
 43
0.00000001
 40
0.0
 40
0.0
 40
0.0
 40
0.0
 40
0.5
 40
0.5
 40
1.0
 40
1.0
 40
1.0
 40
1.0
 10
140.4375641624329
 20
45.95211820150495
 30
0.0
 10
139.9705612635391
 20
47.36417513241672
 30
0.0
 10
139.5681575164126
 20
48.81095805629457
 30
0.0
 10
139.0073989458208
 20
51.72428770276976
 30
0.0
 10
138.8498509221615
 20
53.19624615862574
 30
0.0
 10
138.8498509221615
 20
54.68782080633301
 30
0.0
  0
SPLINE
  5
109
330
1F
100
AcDbEntity
  8
0
  6
Continuous
 62
     7
370
    25
100
AcDbSpline
210
0.0
220
0.0
230
1.0
 70
     8
 71
     3
 72
    12
 73
     8
 74
     0
 42
0.00000001
 43
0.00000001
 40
0.0
 40
0.0
 40
0.0
 40
0.0
 40
0.2500000000000001
 40
0.2500000000000001
 40
0.5000000000000001
 40
0.5000000000000001
 40
1.0
 40
1.0
 40
1.0
 40
1.0
 10
138.8498509221615
 20
54.68782080633301
 30
0.0
 10
138.8498509221615
 20
55.43316701860732
 30
0.0
 10
138.8892440075311
 20
56.18499386847635
 30
0.0
 10
139.0398754102964
 20
57.66569432965163
 30
0.0
 10
139.1507558394682
 20
58.39866593425366
 30
0.0
 10
139.5719432454326
 20
60.57921005520965
 30
0.0
 10
139.9696309909123
 20
62.00865365421887
 30
0.0
 10
140.4375641624329
 20
63.42352341116109
 30
0.0
  0
SPLINE
  5
10A
330
1F
100
AcDbEntity
  8
0
  6
Continuous
 62
     7
370
    25
100
AcDbSpline
210
0.0
220
0.0
230
1.0
 70
     8
 71
     3
 72
    12
 73
     8
 74
     0
 42
0.00000001
 43
0.00000001
 40
0.0
 40
0.0
 40
0.0
 40
0.0
 40
0.2500000000000001
 40
0.2500000000000001
 40
0.5
 40
0.5
 40
1.0
 40
1.0
 40
1.0
 40
1.0
 10
164.3498509221614
 20
54.68782080633301
 30
0.0
 10
164.3498509221614
 20
55.43264815478177
 30
0.0
 10
164.3105013966106
 20
56.18447263236354
 30
0.0
 10
164.159841887237
 20
57.66563543368984
 30
0.0
 10
164.0489337045322
 20
58.39875434413842
 30
0.0
 10
163.6276846795374
 20
60.57954327810603
 30
0.0
 10
163.229992190925
 20
62.00889150265242
 30
0.0
 10
162.76213768189
 20
63.42352341116107
 30
0.0
  0
LINE
  5
10B
330
1F
100
AcDbEntity
  8
0
  6
Continuous
 62
     7
370
    25
100
AcDbLine
 10
162.7621376819
 20
42.1878208063
 30
0.0
 11
140.4375641624
 21
42.1878208063
 31
0.0
  0
LINE
  5
10C
330
1F
100
AcDbEntity
  8
0
  6
Continuous
 62
     7
370
    25
100
AcDbLine
 10
140.4375641624
 20
42.1878208063
 30
0.0
 11
140.4375641624
 21
45.9521182015
 31
0.0
  0
LINE
  5
10D
330
1F
100
AcDbEntity
  8
0
  6
Continuous
 62
     7
370
    25
100
AcDbLine
 10
162.7621376819
 20
45.9521182015
 30
0.0
 11
162.7621376819
 21
42.1878208063
 31
0.0
  0
LINE
  5
10E
330
1F
100
AcDbEntity
  8
0
  6
Continuous
 62
     7
370
    25
100
AcDbLine
 10
164.3498509222
 20
54.6878208063
 30
0.0
 11
164.3498509222
 21
42.1878208063
 31
0.0
  0
SPLINE
  5
10F
330
1F
100
AcDbEntity
  8
0
  6
Continuous
 62
     7
370
    25
100
AcDbSpline
210
0.0
220
0.0
230
1.0
 70
    24
 71
     3
 72
    12
 73
     8
 74
     0
 42
0.00000001
 43
0.00000001
 40
0.0
 40
0.0
 40
0.0
 40
0.0
 40
0.25
 40
0.25
 40
0.5
 40
0.5
 40
1.0
 40
1.0
 40
1.0
 40
1.0
 10
164.3498509221614
 20
42.187820806333
 30
0.0
 10
164.3498509221614
 20
42.18782080633301
 30
0.0
 10
164.3105013966106
 20
42.187820806333
 30
0.0
 10
164.159841887237
 20
42.187820806333
 30
0.0
 10
164.0489337045322
 20
42.18782080633301
 30
0.0
 10
163.6276846795374
 20
42.187820806333
 30
0.0
 10
163.229992190925
 20
42.187820806333
 30
0.0
 10
162.76213768189
 20
42.187820806333
 30
0.0
  0
SPLINE
  5
110
330
1F
100
AcDbEntity
  8
0
  6
Continuous
 62
     7
370
    25
100
AcDbSpline
210
0.0
220
0.0
230
1.0
 70
    24
 71
     3
 72
    12
 73
     8
 74
     0
 42
0.00000001
 43
0.00000001
 40
0.0
 40
0.0
 40
0.0
 40
0.0
 40
0.2500000000000001
 40
0.2500000000000001
 40
0.5000000000000001
 40
0.5000000000000001
 40
1.0
 40
1.0
 40
1.0
 40
1.0
 10
138.8498509221615
 20
42.187820806333
 30
0.0
 10
138.8498509221615
 20
42.18782080633301
 30
0.0
 10
138.8892440075311
 20
42.187820806333
 30
0.0
 10
139.0398754102965
 20
42.187820806333
 30
0.0
 10
139.1507558394682
 20
42.187820806333
 30
0.0
 10
139.5719432454325
 20
42.18782080633299
 30
0.0
 10
139.9696309909122
 20
42.187820806333
 30
0.0
 10
140.4375641624329
 20
42.187820806333
 30
0.0
  0
LINE
  5
111
330
1F
100
AcDbEntity
  8
0
  6
Continuous
 62
     7
370
    25
100
AcDbLine
 10
138.8498509222
 20
42.1878208063
 30
0.0
 11
138.8498509222
 21
54.6878208063
 31
0.0
  0
LINE
  5
112
330
1F
100
AcDbEntity
  8
0
  6
Continuous
 62
     7
370
    25
100
AcDbLine
 10
138.8498509222
 20
54.6878208063
 30
0.0
 11
138.8498509222
 21
67.1878208063
 31
0.0
  0
SPLINE
  5
113
330
1F
100
AcDbEntity
  8
0
  6
Continuous
 62
     7
370
    25
100
AcDbSpline
210
0.0
220
0.0
230
1.0
 70
    24
 71
     3
 72
    12
 73
     8
 74
     0
 42
0.00000001
 43
0.00000001
 40
0.0
 40
0.0
 40
0.0
 40
0.0
 40
0.2500000000000001
 40
0.2500000000000001
 40
0.5000000000000001
 40
0.5000000000000001
 40
1.0
 40
1.0
 40
1.0
 40
1.0
 10
138.8498509221615
 20
67.18782080633301
 30
0.0
 10
138.8498509221615
 20
67.18782080633301
 30
0.0
 10
138.8892440075311
 20
67.18782080633301
 30
0.0
 10
139.0398754102964
 20
67.18782080633301
 30
0.0
 10
139.1507558394682
 20
67.18782080633301
 30
0.0
 10
139.5719432454326
 20
67.18782080633301
 30
0.0
 10
139.9696309909123
 20
67.18782080633301
 30
0.0
 10
140.4375641624329
 20
67.18782080633301
 30
0.0
  0
SPLINE
  5
114
330
1F
100
AcDbEntity
  8
0
  6
Continuous
 62
     7
370
    25
100
AcDbSpline
210
0.0
220
0.0
230
1.0
 70
    24
 71
     3
 72
    12
 73
     8
 74
     0
 42
0.00000001
 43
0.00000001
 40
0.0
 40
0.0
 40
0.0
 40
0.0
 40
0.2500000000000001
 40
0.2500000000000001
 40
0.5000000000000001
 40
0.5000000000000001
 40
1.0
 40
1.0
 40
1.0
 40
1.0
 10
164.3498509221614
 20
67.18782080633301
 30
0.0
 10
164.3498509221614
 20
67.18782080633301
 30
0.0
 10
164.3105013966106
 20
67.18782080633301
 30
0.0
 10
164.159841887237
 20
67.18782080633301
 30
0.0
 10
164.0489337045323
 20
67.18782080633301
 30
0.0
 10
163.6276846795374
 20
67.18782080633301
 30
0.0
 10
163.229992190925
 20
67.18782080633301
 30
0.0
 10
162.76213768189
 20
67.18782080633301
 30
0.0
  0
LINE
  5
115
330
1F
100
AcDbEntity
  8
0
  6
Continuous
 62
     7
370
    25
100
AcDbLine
 10
164.3498509222
 20
67.1878208063
 30
0.0
 11
164.3498509222
 21
54.6878208063
 31
0.0
  0
LINE
  5
116
330
1F
100
AcDbEntity
  8
0
  6
Continuous
 62
     7
370
    25
100
AcDbLine
 10
176.6534596492
 20
44.3810585791
 30
0.0
 11
176.6534596492
 21
64.9945830336
 31
0.0
  0
LINE
  5
117
330
1F
100
AcDbEntity
  8
0
  6
Continuous
 62
     7
370
    25
100
AcDbLine
 10
179.3498509222
 20
63.4378208063
 30
0.0
 11
179.3498509222
 21
45.9378208063
 31
0.0
  0
LINE
  5
118
330
1F
100
AcDbEntity
  8
0
  6
Continuous
 62
     7
370
    25
100
AcDbLine
 10
151.8498509222
 20
73.3878208063
 30
0.0
 11
159.5998509222
 21
73.3878208063
 31
0.0
  0
LINE
  5
119
330
1F
100
AcDbEntity
  8
0
  6
Continuous
 62
     7
370
    25
100
AcDbLine
 10
144.0998509222
 20
73.3878208063
 30
0.0
 11
151.8498509222
 21
73.3878208063
 31
0.0
  0
LINE
  5
11A
330
1F
100
AcDbEntity
  8
0
  6
Continuous
 62
     7
370
    25
100
AcDbLine
 10
151.8498509222
 20
72.8878208063
 30
0.0
 11
143.5998509222
 21
72.8878208063
 31
0.0
  0
LINE
  5
11B
330
1F
100
AcDbEntity
  8
0
  6
Continuous
 62
     7
370
    25
100
AcDbLine
 10
160.0998509222
 20
72.8878208063
 30
0.0
 11
151.8498509222
 21
72.8878208063
 31
0.0
  0
LINE
  5
11C
330
1F
100
AcDbEntity
  8
0
  6
Continuous
 62
     7
370
    25
100
AcDbLine
 10
107.2676514285
 20
60.0773671894
 30
0.0
 11
107.2676514285
 21
47.3681873886
 31
0.0
  0
LINE
  5
11D
330
1F
100
AcDbEntity
  8
0
  6
Continuous
 62
     7
370
    25
100
AcDbLine
 10
107.2676514285
 20
62.0074542241
 30
0.0
 11
107.2676514285
 21
60.0773671894
 31
0.0
  0
LINE
  5
11E
330
1F
100
AcDbEntity
  8
0
  6
Continuous
 62
     7
370
    25
100
AcDbLine
 10
151.7869680574
 20
91.9757631418
 30
0.0
 11
151.7869680574
 21
91.9877137036
 31
0.0
  0
LINE
  5
11F
330
1F
100
AcDbEntity
  8
0
  6
Continuous
 62
     7
370
    25
100
AcDbLine
 10
151.912733787
 20
91.9757631418
 30
0.0
 11
151.912733787
 21
91.9877137036
 31
0.0
  0
LINE
  5
120
330
1F
100
AcDbEntity
  8
0
  6
Continuous
 62
     7
370
    25
100
AcDbLine
 10
143.4459301823
 20
83.9994348457
 30
0.0
 11
160.8358991672
 21
83.9994348457
 31
0.0
  0
LINE
  5
121
330
1F
100
AcDbEntity
  8
0
  6
Continuous
 62
     7
370
    25
100
AcDbLine
 10
160.8386584807
 20
83.7758963921
 30
0.0
 11
143.4437900671
 21
83.7758963921
 31
0.0
  0
LINE
  5
122
330
1F
100
AcDbEntity
  8
0
  6
Continuous
 62
     7
370
    25
100
AcDbLine
 10
143.8672182575
 20
74.3380689468
 30
0.0
 11
159.8948757362
 21
74.3380689468
 31
0.0
  0
LINE
  5
123
330
1F
100
AcDbEntity
  8
0
  6
Continuous
 62
     7
370
    25
100
AcDbLine
 10
159.9045987512
 20
91.4498381736
 30
0.0
 11
143.7951030931
 21
91.4498381736
 31
0.0
  0
LINE
  5
124
330
1F
100
AcDbEntity
  8
0
  6
Continuous
 62
     7
370
    25
100
AcDbLine
 10
141.8498509222
 20
88.8878208063
 30
0.0
 11
142.1937793779
 21
88.8878208063
 31
0.0
  0
ARC
  5
125
330
1F
100
AcDbEntity
  8
0
  6
Continuous
 62
     7
370
    25
100
AcDbCircle
 10
141.087905659
 20
88.9424853894
 30
0.0
 40
1.107223960532922
100
AcDbArc
 50
357.1701084939
 51
46.5155082001
  0
LINE
  5
126
330
1F
100
AcDbEntity
  8
0
  6
Continuous
 62
     7
370
    25
100
AcDbLine
 10
101.600853981
 20
84.9055424103
 30
0.0
 11
101.8227814174
 21
93.3806092818
 31
0.0
  0
LINE
  5
127
330
1F
100
AcDbEntity
  8
0
  6
Continuous
 62
     7
370
    25
100
AcDbLine
 10
143.5998509222
 20
67.4378208063
 30
0.0
 11
160.0998509222
 21
67.4378208063
 31
0.0
  0
LINE
  5
128
330
1F
100
AcDbEntity
  8
0
  6
Continuous
 62
     7
370
    18
100
AcDbLine
 10
164.8498509222
 20
44.9191958063
 30
0.0
 11
178.3143268034
 21
45.3399606776
 31
0.0
  0
LINE
  5
129
330
1F
100
AcDbEntity
  8
0
  6
Continuous
 62
     7
370
    18
100
AcDbLine
 10
178.3143268034
 20
64.035680935
 30
0.0
 11
164.8498509222
 21
64.4564458063
 31
0.0
  0
LINE
  5
12A
330
1F
100
AcDbEntity
  8
0
  6
CENTERX2
 62
     7
370
    18
100
AcDbLine
 10
104.8498509222
 20
54.6878208063
 30
0.0
 11
180.8628880796
 21
54.6878208063
 31
0.0
  0
LINE
  5
12B
330
1F
100
AcDbEntity
  8
0
  6
CENTERX2
 62
     7
370
    18
100
AcDbLine
 10
151.8498509222
 20
40.5040667472
 30
0.0
 11
151.8498509222
 21
93.5210239788
 31
0.0
  0
LINE
  5
12C
330
1F
100
AcDbEntity
  8
0
  6
Continuous
 62
     7
370
    25
100
AcDbLine
 10
221.4577246155
 20
93.8365364733
 30
0.0
 11
221.4577246155
 21
93.8017538049
 31
0.0
  0
SPLINE
  5
12D
330
1F
100
AcDbEntity
  8
0
  6
Continuous
 62
     7
370
    25
100
AcDbSpline
210
0.0
220
0.0
230
1.0
 70
     8
 71
     3
 72
     9
 73
     5
 74
     0
 42
0.00000001
 43
0.00000001
 40
0.0
 40
0.0
 40
0.0
 40
0.0
 40
0.4993165458323629
 40
1.0
 40
1.0
 40
1.0
 40
1.0
 10
223.3370464750271
 20
94.37538823508473
 30
0.0
 10
223.3139158573799
 20
94.37873927073237
 30
0.0
 10
223.2675913006628
 20
94.3854505156843
 30
0.0
 10
223.2210319075345
 20
94.38112334637862
 30
0.0
 10
223.197720389759
 20
94.3789568043039
 30
0.0
  0
SPLINE
  5
12E
330
1F
100
AcDbEntity
  8
0
  6
Continuous
 62
     7
370
    25
100
AcDbSpline
210
0.0
220
0.0
230
1.0
 70
     8
 71
     3
 72
     9
 73
     5
 74
     0
 42
0.00000001
 43
0.00000001
 40
0.0
 40
0.0
 40
0.0
 40
0.0
 40
0.5006834545219033
 40
1.0
 40
1.0
 40
1.0
 40
1.0
 10
221.457786917879
 20
94.37895680423148
 30
0.0
 10
221.4344754032279
 20
94.38112334489678
 30
0.0
 10
221.3879160163729
 20
94.38545051138433
 30
0.0
 10
221.3415914661163
 20
94.37873926502967
 30
0.0
 10
221.3184608517114
 20
94.375388228684
 30
0.0
  0
LINE
  5
12F
330
1F
100
AcDbEntity
  8
0
  6
Continuous
 62
     7
370
    25
100
AcDbLine
 10
219.8518991618
 20
93.7198711958
 30
0.0
 11
219.7211218072
 21
90.8666097057
 31
0.0
  0
LINE
  5
130
330
1F
100
AcDbEntity
  8
0
  6
Continuous
 62
     7
370
    25
100
AcDbLine
 10
224.9343855531
 20
90.8666097057
 30
0.0
 11
224.8036081984
 21
93.7198711958
 31
0.0
  0
LINE
  5
131
330
1F
100
AcDbEntity
  8
0
  6
Continuous
 62
     7
370
    25
100
AcDbLine
 10
220.3747796999
 20
94.3649720868
 30
0.0
 11
220.3263487569
 21
94.3437675728
 31
0.0
  0
SPLINE
  5
132
330
1F
100
AcDbEntity
  8
0
  6
Continuous
 62
     7
370
    25
100
AcDbSpline
210
0.0
220
0.0
230
1.0
 70
     8
 71
     3
 72
     9
 73
     5
 74
     0
 42
0.00000001
 43
0.00000001
 40
0.0
 40
0.0
 40
0.0
 40
0.0
 40
0.0503631419175414
 40
1.0
 40
1.0
 40
1.0
 40
1.0
 10
219.9082614858966
 20
93.95837936427381
 30
0.0
 10
219.9063654053025
 20
93.95520930690981
 30
0.0
 10
219.8687172260602
 20
93.89226531169214
 30
0.0
 10
219.8621767830449
 20
93.81711771299825
 30
0.0
 10
219.8559657372894
 20
93.74575478348214
 30
0.0
  0
SPLINE
  5
133
330
1F
100
AcDbEntity
  8
0
  6
Continuous
 62
     7
370
    25
100
AcDbSpline
210
0.0
220
0.0
230
1.0
 70
     8
 71
     3
 72
    11
 73
     7
 74
     0
 42
0.00000001
 43
0.00000001
 40
0.0
 40
0.0
 40
0.0
 40
0.0
 40
0.2436788845968631
 40
0.491588446668192
 40
0.7437897073051962
 40
0.9999999999999999
 40
0.9999999999999999
 40
0.9999999999999999
 40
0.9999999999999999
 10
224.7995416229662
 20
93.74575478348214
 30
0.0
 10
224.7882376661377
 20
93.81487413537896
 30
0.0
 10
224.7654334966763
 20
93.95431286799582
 30
0.0
 10
224.6522686977718
 20
94.13896676053577
 30
0.0
 10
224.4899851049615
 20
94.28959526634497
 30
0.0
 10
224.350845865043
 20
94.33971474250781
 30
0.0
 10
224.2807276603106
 20
94.36497208682509
 30
0.0
  0
SPLINE
  5
134
330
1F
100
AcDbEntity
  8
0
  6
Continuous
 62
     7
370
    25
100
AcDbSpline
210
0.0
220
0.0
230
1.0
 70
     8
 71
     3
 72
    10
 73
     6
 74
     0
 42
0.00000001
 43
0.00000001
 40
0.0
 40
0.0
 40
0.0
 40
0.0
 40
0.2663464296502981
 40
0.5214744039517447
 40
1.0
 40
1.0
 40
1.0
 40
1.0
 10
225.2825208770427
 20
90.41106658439931
 30
0.0
 10
225.2373394131262
 20
90.43005265013883
 30
0.0
 10
225.1488795190083
 20
90.46722509253988
 30
0.0
 10
225.0022951796088
 20
90.59679221065579
 30
0.0
 10
224.9482710628318
 20
90.72727160209867
 30
0.0
 10
224.9130338286296
 20
90.81237679491119
 30
0.0
  0
SPLINE
  5
135
330
1F
100
AcDbEntity
  8
0
  6
Continuous
 62
     7
370
    25
100
AcDbSpline
210
0.0
220
0.0
230
1.0
 70
     8
 71
     3
 72
    10
 73
     6
 74
     0
 42
0.00000001
 43
0.00000001
 40
0.0
 40
0.0
 40
0.0
 40
0.0
 40
0.4785255960482541
 40
0.7336535703497082
 40
1.0
 40
1.0
 40
1.0
 40
1.0
 10
219.742473531626
 20
90.81237679491117
 30
0.0
 10
219.7072362974238
 20
90.72727160209867
 30
0.0
 10
219.6532121806468
 20
90.59679221065579
 30
0.0
 10
219.5066278412473
 20
90.46722509253986
 30
0.0
 10
219.4181679471294
 20
90.43005265013883
 30
0.0
 10
219.3729864832129
 20
90.41106658439931
 30
0.0
  0
ARC
  5
136
330
1F
100
AcDbEntity
  8
0
  6
Continuous
 62
     7
370
    25
100
AcDbCircle
 10
218.6010152559
 20
88.8878208063
 30
0.0
 40
1.500000000000028
100
AcDbArc
 50
90.0
 51
180.0
  0
LINE
  5
137
330
1F
100
AcDbEntity
  8
0
  6
Continuous
 62
     7
370
    25
100
AcDbLine
 10
217.1010152559
 20
88.8878208063
 30
0.0
 11
217.1010152559
 21
83.6348661741
 31
0.0
  0
ARC
  5
138
330
1F
100
AcDbEntity
  8
0
  6
Continuous
 62
     7
370
    25
100
AcDbCircle
 10
226.0544921044
 20
88.8878208063
 30
0.0
 40
1.5
100
AcDbArc
 50
0.0
 51
90.0
  0
LINE
  5
139
330
1F
100
AcDbEntity
  8
0
  6
Continuous
 62
     7
370
    25
100
AcDbLine
 10
227.5544921044
 20
83.6348661741
 30
0.0
 11
227.5544921044
 21
88.8878208063
 31
0.0
  0
LINE
  5
13A
330
1F
100
AcDbEntity
  8
0
  6
Continuous
 62
     7
370
    25
100
AcDbLine
 10
213.3389461216
 20
83.7758963921
 30
0.0
 11
214.1477536801
 21
75.6878208063
 31
0.0
  0
LINE
  5
13B
330
1F
100
AcDbEntity
  8
0
  6
Continuous
 62
     7
370
    25
100
AcDbLine
 10
230.3727784942
 20
74.3380689468
 30
0.0
 11
231.3165612387
 21
83.7758963921
 31
0.0
  0
ARC
  5
13C
330
1F
100
AcDbEntity
  8
0
  6
Continuous
 62
     7
370
    25
100
AcDbCircle
 10
230.3215240485
 20
83.8754001111
 30
0.0
 40
0.9999999999999957
100
AcDbArc
 50
354.2894068625
 51
7.1250163489
  0
ARC
  5
13D
330
1F
100
AcDbEntity
  8
0
  6
Continuous
 62
     7
370
    25
100
AcDbCircle
 10
214.3339833118
 20
83.8754001111
 30
0.0
 40
1.000000000000005
100
AcDbArc
 50
172.8749836511
 51
185.7105931375
  0
LINE
  5
13E
330
1F
100
AcDbEntity
  8
0
  6
Continuous
 62
     7
370
    25
100
AcDbLine
 10
231.3138019252
 20
83.9994348457
 30
0.0
 11
230.3825015092
 21
91.4498381736
 31
0.0
  0
LINE
  5
13F
330
1F
100
AcDbEntity
  8
0
  6
Continuous
 62
     7
370
    25
100
AcDbLine
 10
214.273005851
 20
91.4498381736
 30
0.0
 11
213.341705435
 21
83.9994348457
 31
0.0
  0
ARC
  5
140
330
1F
100
AcDbEntity
  8
0
  6
Continuous
 62
     7
370
    25
100
AcDbCircle
 10
214.7691447894
 20
91.3878208063
 30
0.0
 40
0.5
100
AcDbArc
 50
90.0
 51
172.8749836511
  0
ARC
  5
141
330
1F
100
AcDbEntity
  8
0
  6
Continuous
 62
     7
370
    25
100
AcDbCircle
 10
229.8863625709
 20
91.3878208063
 30
0.0
 40
0.5000000000000017
100
AcDbArc
 50
7.1250163489
 51
90.0
  0
ARC
  5
142
330
1F
100
AcDbEntity
  8
0
  6
Continuous
 62
     7
370
    25
100
AcDbCircle
 10
229.8752598991
 20
74.3878208063
 30
0.0
 40
0.5
100
AcDbArc
 50
270.0
 51
354.2894068625
  0
LINE
  5
143
330
1F
100
AcDbEntity
  8
0
  6
Continuous
 62
     7
370
    25
100
AcDbLine
 10
223.3277536801
 20
73.3878208063
 30
0.0
 11
223.3277536801
 21
73.8590296527
 31
0.0
  0
LINE
  5
144
330
1F
100
AcDbEntity
  8
0
  6
Continuous
 62
     7
370
    25
100
AcDbLine
 10
221.3277536801
 20
75.1878208063
 30
0.0
 11
221.3277536801
 21
73.3878208063
 31
0.0
  0
ARC
  5
145
330
1F
100
AcDbEntity
  8
0
  6
Continuous
 62
     7
370
    25
100
AcDbCircle
 10
221.5277536801
 20
75.1878208063
 30
0.0
 40
0.2000000000000028
100
AcDbArc
 50
90.0
 51
180.0
  0
ARC
  5
146
330
1F
100
AcDbEntity
  8
0
  6
Continuous
 62
     7
370
    25
100
AcDbCircle
 10
223.1277536801
 20
75.1878208063
 30
0.0
 40
0.2000000000000171
100
AcDbArc
 50
0.0
 51
90.0
  0
ARC
  5
147
330
1F
100
AcDbEntity
  8
0
  6
Continuous
 62
     7
370
    25
100
AcDbCircle
 10
230.8277536801
 20
67.4378208063
 30
0.0
 40
0.25
100
AcDbArc
 50
180.0
 51
270.0
  0
ARC
  5
148
330
1F
100
AcDbEntity
  8
0
  6
Continuous
 62
     7
370
    25
100
AcDbCircle
 10
213.8277536801
 20
67.4378208063
 30
0.0
 40
0.25
100
AcDbArc
 50
270.0
 51
0.0
  0
LINE
  5
149
330
1F
100
AcDbEntity
  8
0
  6
Continuous
 62
     7
370
    25
100
AcDbLine
 10
230.5777536801
 20
67.4378208063
 30
0.0
 11
230.5777536801
 21
72.8878208063
 31
0.0
  0
LINE
  5
14A
330
1F
100
AcDbEntity
  8
0
  6
Continuous
 62
     7
370
    25
100
AcDbLine
 10
214.0777536801
 20
72.8878208063
 30
0.0
 11
214.0777536801
 21
67.4378208063
 31
0.0
  0
LINE
  5
14B
330
1F
100
AcDbEntity
  8
0
  6
Continuous
 62
     7
370
    25
100
AcDbLine
 10
230.5777536801
 20
72.8878208063
 30
0.0
 11
230.0777536801
 21
73.3878208063
 31
0.0
  0
LINE
  5
14C
330
1F
100
AcDbEntity
  8
0
  6
Continuous
 62
     7
370
    25
100
AcDbLine
 10
214.5777536801
 20
73.3878208063
 30
0.0
 11
214.0777536801
 21
72.8878208063
 31
0.0
  0
LINE
  5
14D
330
1F
100
AcDbEntity
  8
0
  6
Continuous
 62
     7
370
    25
100
AcDbLine
 10
217.3277536801
 20
75.6878208063
 30
0.0
 11
217.3277536801
 21
73.3878208063
 31
0.0
  0
LINE
  5
14E
330
1F
100
AcDbEntity
  8
0
  6
Continuous
 62
     7
370
    25
100
AcDbLine
 10
227.3277536801
 20
73.3878208063
 30
0.0
 11
227.3277536801
 21
73.8878208063
 31
0.0
  0
CIRCLE
  5
14F
330
1F
100
AcDbEntity
  8
0
  6
Continuous
 62
     7
370
    25
100
AcDbCircle
 10
222.3277536801
 20
54.6878208063
 30
0.0
 40
6.826436455808476
  0
CIRCLE
  5
150
330
1F
100
AcDbEntity
  8
0
  6
Continuous
 62
     7
370
    25
100
AcDbCircle
 10
222.3277536801
 20
54.6878208063
 30
0.0
 40
7.319633417724556
  0
CIRCLE
  5
151
330
1F
100
AcDbEntity
  8
0
  6
Continuous
 62
     7
370
    25
100
AcDbCircle
 10
222.3277536801
 20
54.6878208063
 30
0.0
 40
5.09999999999999
  0
CIRCLE
  5
152
330
1F
100
AcDbEntity
  8
0
  6
Continuous
 62
     7
370
    25
100
AcDbCircle
 10
222.3277536801
 20
54.6878208063
 30
0.0
 40
5.000000000000009
  0
CIRCLE
  5
153
330
1F
100
AcDbEntity
  8
0
  6
Continuous
 62
     7
370
    25
100
AcDbCircle
 10
222.3277536801
 20
54.6878208063
 30
0.0
 40
7.999999999999991
  0
CIRCLE
  5
154
330
1F
100
AcDbEntity
  8
0
  6
Continuous
 62
     7
370
    25
100
AcDbCircle
 10
222.3277536801
 20
54.6878208063
 30
0.0
 40
11.75000000000001
  0
CIRCLE
  5
155
330
1F
100
AcDbEntity
  8
0
  6
Continuous
 62
     7
370
    25
100
AcDbCircle
 10
222.3277536801
 20
54.6878208063
 30
0.0
 40
12.00000000000001
  0
ELLIPSE
  5
156
330
1F
100
AcDbEntity
  8
0
  6
Continuous
 62
     7
370
    25
100
AcDbEllipse
 10
222.153215125
 20
85.1114276041
 30
0.0
 11
0.7234244958980014
 21
-0.7001325129304661
 31
0.0
210
0.0
220
0.0
230
1.0
 40
0.9869902583
 41
4.707649545362589
 42
5.487972049091464
  0
LINE
  5
157
330
1F
100
AcDbEntity
  8
0
  6
Continuous
 62
     7
370
    25
100
AcDbLine
 10
222.1663080858
 20
84.1114276041
 30
0.0
 11
222.1663080858
 21
83.3878208063
 31
0.0
  0
ELLIPSE
  5
158
330
1F
100
AcDbEntity
  8
0
  6
Continuous
 62
     7
370
    25
100
AcDbEllipse
 10
222.153215125
 20
84.8878208063
 30
0.0
 11
1.074619436156752
 21
-1.056020081253664
 31
0.0
210
0.0
220
0.0
230
1.0
 40
0.9913091236
 41
4.71309943438346
 42
5.493421938112316
  0
LWPOLYLINE
  5
159
330
1F
100
AcDbEntity
  8
0
  6
Continuous
 62
     7
370
    25
100
AcDbPolyline
 90
        9
 70
   128
 43
0.0
 10
221.4587703056
 20
84.4007409133
 10
221.3730414235
 20
84.3244104357
 10
221.2920097737
 20
84.2400104364
 10
221.2201152188
 20
84.1521653359
 10
221.1612969846
 20
84.0656883175
 10
221.1187778228
 20
83.9853176052
 10
221.0948874311
 20
83.9154568478
 10
221.090934805
 20
83.8599338358
 10
221.1071365156
 20
83.8217907701
  0
ELLIPSE
  5
15A
330
1F
100
AcDbEntity
  8
0
  6
Continuous
 62
     7
370
    25
100
AcDbEllipse
 10
222.5022922352
 20
85.1114276041
 30
0.0
 11
0.7234244958980298
 21
0.7001325129304519
 31
0.0
210
0.0
220
0.0
230
1.0
 40
0.9869902583
 41
3.936805911678006
 42
4.717128415406846
  0
LWPOLYLINE
  5
15B
330
1F
100
AcDbEntity
  8
0
  6
Continuous
 62
     7
370
    25
100
AcDbPolyline
 90
        9
 70
   128
 43
0.0
 10
223.1967370546
 20
84.4007409133
 10
223.2824659367
 20
84.3244104357
 10
223.3634975866
 20
84.2400104364
 10
223.4353921415
 20
84.1521653359
 10
223.4942103757
 20
84.0656883175
 10
223.5367295374
 20
83.9853176052
 10
223.5606199291
 20
83.9154568478
 10
223.5645725552
 20
83.8599338358
 10
223.5483708447
 20
83.8217907701
  0
ELLIPSE
  5
15C
330
1F
100
AcDbEntity
  8
0
  6
Continuous
 62
     7
370
    25
100
AcDbEllipse
 10
222.5022922352
 20
84.8878208063
 30
0.0
 11
1.074619436156752
 21
1.056020081253678
 31
0.0
210
0.0
220
0.0
230
0.9999999999999999
 40
0.9913091236
 41
3.931356022657103
 42
4.711678526385933
  0
LINE
  5
15D
330
1F
100
AcDbEntity
  8
0
  6
Continuous
 62
     7
370
    25
100
AcDbLine
 10
222.4891992745
 20
84.1114276041
 30
0.0
 11
222.4891992745
 21
83.3878208063
 31
0.0
  0
LINE
  5
15E
330
1F
100
AcDbEntity
  8
0
  6
Continuous
 62
     7
370
    25
100
AcDbLine
 10
222.1663080858
 20
84.1114276041
 30
0.0
 11
222.4891992745
 21
84.1114276041
 31
0.0
  0
LINE
  5
15F
330
1F
100
AcDbEntity
  8
0
  6
Continuous
 62
     7
370
    25
100
AcDbLine
 10
222.4891992745
 20
83.3878208063
 30
0.0
 11
222.1663080858
 21
83.3878208063
 31
0.0
  0
LINE
  5
160
330
1F
100
AcDbEntity
  8
0
  6
Continuous
 62
     7
370
    25
100
AcDbLine
 10
221.4587703056
 20
84.4007409133
 30
0.0
 11
221.4587703056
 21
93.5586411996
 31
0.0
  0
LINE
  5
161
330
1F
100
AcDbEntity
  8
0
  6
Continuous
 62
     7
370
    25
100
AcDbLine
 10
221.4587703056
 20
93.5586411996
 30
0.0
 11
223.1967370546
 21
93.5586411996
 31
0.0
  0
LINE
  5
162
330
1F
100
AcDbEntity
  8
0
  6
Continuous
 62
     7
370
    25
100
AcDbLine
 10
223.1967370546
 20
93.5586411996
 30
0.0
 11
223.1967370546
 21
84.4007409133
 31
0.0
  0
SPLINE
  5
163
330
1F
100
AcDbEntity
  8
0
  6
Continuous
 62
     7
370
    25
100
AcDbSpline
210
0.0
220
0.0
230
1.0
 70
     8
 71
     3
 72
    11
 73
     7
 74
     0
 42
0.00000001
 43
0.00000001
 40
0.0
 40
0.0
 40
0.0
 40
0.0
 40
0.2499999999999991
 40
0.4999999999999979
 40
0.7499999999999996
 40
1.0
 40
1.0
 40
1.0
 40
1.0
 10
223.8954723838978
 20
93.26440093394645
 30
0.0
 10
223.8804730787312
 20
93.30351848811259
 30
0.0
 10
223.8504744683981
 20
93.38175359644485
 30
0.0
 10
223.6869547656014
 20
93.47841667215307
 30
0.0
 10
223.461375151519
 20
93.54560488829256
 30
0.0
 10
223.284949753604
 20
93.55429576248616
 30
0.0
 10
223.1967370546465
 20
93.55864119958296
 30
0.0
  0
LINE
  5
164
330
1F
100
AcDbEntity
  8
0
  6
Continuous
 62
     7
370
    25
100
AcDbLine
 10
223.8954723839
 20
84.4534612855
 30
0.0
 11
223.8954723839
 21
93.2644009339
 31
0.0
  0
SPLINE
  5
165
330
1F
100
AcDbEntity
  8
0
  6
Continuous
 62
     7
370
    25
100
AcDbSpline
210
0.0
220
0.0
230
1.0
 70
     8
 71
     3
 72
    12
 73
     8
 74
     0
 42
0.00000001
 43
0.00000001
 40
0.0
 40
0.0
 40
0.0
 40
0.0
 40
0.139683458618249
 40
0.3831896274038307
 40
0.55131692930133
 40
0.8194729461607051
 40
0.9999999999999999
 40
0.9999999999999999
 40
0.9999999999999999
 40
0.9999999999999999
 10
223.1967370546465
 20
84.40074091327247
 30
0.0
 10
223.2464519751249
 20
84.41405328693342
 30
0.0
 10
223.3828334911828
 20
84.45057273994139
 30
0.0
 10
223.5627496003949
 20
84.48824480053277
 30
0.0
 10
223.7410910287798
 20
84.51261212129427
 30
0.0
 10
223.8616112533313
 20
84.5114950865303
 30
0.0
 10
223.8857572666381
 20
84.47011179815274
 30
0.0
 10
223.8954723838978
 20
84.45346128553733
 30
0.0
  0
ARC
  5
166
330
1F
100
AcDbEntity
  8
0
  6
Continuous
 62
     7
370
    25
100
AcDbCircle
 10
223.3972182032
 20
84.4386082998
 30
0.0
 40
0.4984755156835605
100
AcDbArc
 50
333.4921832491
 51
1.7074848132
  0
SPLINE
  5
167
330
1F
100
AcDbEntity
  8
0
  6
Continuous
 62
     7
370
    25
100
AcDbSpline
210
0.0
220
0.0
230
1.0
 70
     8
 71
     3
 72
    12
 73
     8
 74
     0
 42
0.00000001
 43
0.00000001
 40
0.0
 40
0.0
 40
0.0
 40
0.0
 40
0.0715202026166142
 40
0.1260836237049476
 40
0.3855387013103047
 40
0.8475626424815554
 40
1.0
 40
1.0
 40
1.0
 40
1.0
 10
223.8432907223367
 20
84.21612875598221
 30
0.0
 10
223.8413546766315
 20
84.21302010811739
 30
0.0
 10
223.837941603832
 20
84.20753984417406
 30
0.0
 10
223.8157591533267
 20
84.16795129875365
 30
0.0
 10
223.7527456785604
 20
84.06151716577138
 30
0.0
 10
223.6556993530884
 20
83.93101015006313
 30
0.0
 10
223.5697046598702
 20
83.8435004360998
 30
0.0
 10
223.5483708446686
 20
83.82179077011723
 30
0.0
  0
SPLINE
  5
168
330
1F
100
AcDbEntity
  8
0
  6
Continuous
 62
     7
370
    25
100
AcDbSpline
210
0.0
220
0.0
230
1.0
 70
     8
 71
     3
 72
    11
 73
     7
 74
     0
 42
0.00000001
 43
0.00000001
 40
0.0
 40
0.0
 40
0.0
 40
0.0
 40
0.249999999999999
 40
0.4999999999999998
 40
0.7499999999999988
 40
1.0
 40
1.0
 40
1.0
 40
1.0
 10
220.7600349763578
 20
93.26440093394643
 30
0.0
 10
220.7750342815243
 20
93.30351848811257
 30
0.0
 10
220.8050328918575
 20
93.38175359644482
 30
0.0
 10
220.9685525946541
 20
93.47841667215305
 30
0.0
 10
221.1941322087365
 20
93.54560488829257
 30
0.0
 10
221.3705576066515
 20
93.55429576248616
 30
0.0
 10
221.4587703056091
 20
93.55864119958296
 30
0.0
  0
SPLINE
  5
169
330
1F
100
AcDbEntity
  8
0
  6
Continuous
 62
     7
370
    25
100
AcDbSpline
210
0.0
220
0.0
230
1.0
 70
     8
 71
     3
 72
    13
 73
     9
 74
     0
 42
0.00000001
 43
0.00000001
 40
0.0
 40
0.0
 40
0.0
 40
0.0
 40
0.1143463544469914
 40
0.2890454840074685
 40
0.5294852105593209
 40
0.7014879056604271
 40
0.9335094878266192
 40
1.0
 40
1.0
 40
1.0
 40
1.0
 10
220.7600349763578
 20
84.45346128553733
 30
0.0
 10
220.7648695678629
 20
84.46484811729532
 30
0.0
 10
220.7770904807929
 20
84.49363182721518
 30
0.0
 10
220.849738575834
 20
84.51388200466405
 30
0.0
 10
220.9802508422408
 20
84.50602467791845
 30
0.0
 10
221.1671184414103
 20
84.47349726159048
 30
0.0
 10
221.328491846167
 20
84.4363759066386
 30
0.0
 10
221.4350381970189
 20
84.40723234351962
 30
0.0
 10
221.4587703056091
 20
84.40074091327247
 30
0.0
  0
LINE
  5
16A
330
1F
100
AcDbEntity
  8
0
  6
Continuous
 62
     7
370
    25
100
AcDbLine
 10
220.7600349764
 20
93.2644009339
 30
0.0
 11
220.7600349764
 21
84.4534612855
 31
0.0
  0
SPLINE
  5
16B
330
1F
100
AcDbEntity
  8
0
  6
Continuous
 62
     7
370
    25
100
AcDbSpline
210
0.0
220
0.0
230
1.0
 70
     8
 71
     3
 72
    11
 73
     7
 74
     0
 42
0.00000001
 43
0.00000001
 40
0.0
 40
0.0
 40
0.0
 40
0.0
 40
0.3325271082490199
 40
0.7778992719027311
 40
0.9254453528959206
 40
1.0
 40
1.0
 40
1.0
 40
1.0
 10
221.107136515587
 20
83.82179077011725
 30
0.0
 10
221.0619056924407
 20
83.86972731824542
 30
0.0
 10
220.9560946968251
 20
83.98186796771849
 30
0.0
 10
220.8683347223476
 20
84.1172281857357
 30
0.0
 10
220.8207218304098
 20
84.20222881951416
 30
0.0
 10
220.8143541404815
 20
84.2126354605803
 30
0.0
 10
220.8122166379189
 20
84.21612875598221
 30
0.0
  0
ARC
  5
16C
330
1F
100
AcDbEntity
  8
0
  6
Continuous
 62
     7
370
    25
100
AcDbCircle
 10
221.258289157
 20
84.4386082998
 30
0.0
 40
0.4984755156849103
100
AcDbArc
 50
178.2925151868
 51
206.5078167509
  0
LINE
  5
16D
330
1F
100
AcDbEntity
  8
0
  6
Continuous
 62
     7
370
    25
100
AcDbLine
 10
221.4741478887
 20
83.3878208063
 30
0.0
 11
222.1663080858
 21
83.3878208063
 31
0.0
  0
SPLINE
  5
16E
330
1F
100
AcDbEntity
  8
0
  6
Continuous
 62
     7
370
    25
100
AcDbSpline
210
0.0
220
0.0
230
1.0
 70
     8
 71
     3
 72
    11
 73
     7
 74
     0
 42
0.00000001
 43
0.00000001
 40
0.0
 40
0.0
 40
0.0
 40
0.0
 40
0.2500000000000002
 40
0.4999999999999996
 40
0.7499999999999999
 40
1.0
 40
1.0
 40
1.0
 40
1.0
 10
219.9751757376307
 20
84.92708622879483
 30
0.0
 10
219.9932520480487
 20
84.72671062241874
 30
0.0
 10
220.0294046688848
 20
84.32595940966657
 30
0.0
 10
220.3740304430853
 20
83.81576647162461
 30
0.0
 10
220.8748525292054
 20
83.45778540325793
 30
0.0
 10
221.2743827688662
 20
83.41114233864133
 30
0.0
 10
221.4741478886966
 20
83.38782080633301
 30
0.0
  0
LINE
  5
16F
330
1F
100
AcDbEntity
  8
0
  6
Continuous
 62
     7
370
    25
100
AcDbLine
 10
220.5415130177
 20
84.9270862288
 30
0.0
 11
219.9751757376
 21
84.9270862288
 31
0.0
  0
SPLINE
  5
170
330
1F
100
AcDbEntity
  8
0
  6
Continuous
 62
     7
370
    25
100
AcDbSpline
210
0.0
220
0.0
230
1.0
 70
     8
 71
     3
 72
     9
 73
     5
 74
     0
 42
0.00000001
 43
0.00000001
 40
0.0
 40
0.0
 40
0.0
 40
0.0
 40
0.5407747560677784
 40
1.0
 40
1.0
 40
1.0
 40
1.0
 10
220.5415130177111
 20
84.92708622879483
 30
0.0
 10
220.5414835172983
 20
84.91575227499413
 30
0.0
 10
220.5414289651719
 20
84.8947935418552
 30
0.0
 10
220.5420332103068
 20
84.87382734898723
 30
0.0
 10
220.5423106949263
 20
84.86419914395313
 30
0.0
  0
ELLIPSE
  5
171
330
1F
100
AcDbEntity
  8
0
  6
Continuous
 62
     7
370
    25
100
AcDbEllipse
 10
222.0404851688
 20
84.8878208063
 30
0.0
 11
-0.3999861399326505
 21
1.445826639360064
 31
0.0
210
0.0
220
0.0
230
0.9999999999999999
 40
0.9987379186
 41
1.314426961368752
 42
1.316970714136508
  0
ELLIPSE
  5
172
330
1F
100
AcDbEntity
  8
0
  6
Continuous
 62
     7
370
    25
100
AcDbEllipse
 10
222.9891780685
 20
84.8878208063
 30
0.0
 11
2.447559743736974
 21
-0.02501587584978892
 31
0.0
210
0.0
220
0.0
230
1.0
 40
0.6127700831
 41
3.171475350442034
 42
3.622568086779192
  0
LINE
  5
173
330
1F
100
AcDbEntity
  8
0
  6
Continuous
 62
     7
370
    25
100
AcDbLine
 10
224.1139943425
 20
84.9270862288
 30
0.0
 11
224.1131966653
 21
84.8641991439
 31
0.0
  0
LINE
  5
174
330
1F
100
AcDbEntity
  8
0
  6
Continuous
 62
     7
370
    25
100
AcDbLine
 10
224.6803316226
 20
84.9270862288
 30
0.0
 11
224.1139943425
 21
84.9270862288
 31
0.0
  0
SPLINE
  5
175
330
1F
100
AcDbEntity
  8
0
  6
Continuous
 62
     7
370
    25
100
AcDbSpline
210
0.0
220
0.0
230
1.0
 70
     8
 71
     3
 72
    11
 73
     7
 74
     0
 42
0.00000001
 43
0.00000001
 40
0.0
 40
0.0
 40
0.0
 40
0.0
 40
0.2500000000000001
 40
0.4999999999999997
 40
0.75
 40
1.0
 40
1.0
 40
1.0
 40
1.0
 10
223.181359471559
 20
83.38782080633301
 30
0.0
 10
223.3811245913894
 20
83.41114233864131
 30
0.0
 10
223.7806548310501
 20
83.45778540325792
 30
0.0
 10
224.2814769171703
 20
83.81576647162461
 30
0.0
 10
224.6261026913708
 20
84.32595940966655
 30
0.0
 10
224.6622553122068
 20
84.72671062241875
 30
0.0
 10
224.6803316226249
 20
84.92708622879483
 30
0.0
  0
LINE
  5
176
330
1F
100
AcDbEntity
  8
0
  6
Continuous
 62
     7
370
    25
100
AcDbLine
 10
222.4891992745
 20
83.3878208063
 30
0.0
 11
223.1813594716
 21
83.3878208063
 31
0.0
  0
ELLIPSE
  5
177
330
1F
100
AcDbEntity
  8
0
  6
Continuous
 62
     7
370
    25
100
AcDbEllipse
 10
221.6663292918
 20
84.8878208063
 30
0.0
 11
2.447559743736946
 21
0.02501587584978893
 31
0.0
210
0.0
220
0.0
230
1.0
 40
0.6127700831
 41
5.802209873990226
 42
6.253302610327371
  0
ELLIPSE
  5
178
330
1F
100
AcDbEntity
  8
0
  6
Continuous
 62
     7
370
    25
100
AcDbEllipse
 10
222.6150221915
 20
84.8878208063
 30
0.0
 11
0.3999861399325653
 21
1.445826639360092
 31
0.0
210
0.0
220
0.0
230
1.0
 40
0.9987379186
 41
4.96621459303394
 42
4.96875834581077
  0
ELLIPSE
  5
179
330
1F
100
AcDbEntity
  8
0
  6
Continuous
 62
     7
370
    25
100
AcDbEllipse
 10
220.7118808183
 20
92.9066300575
 30
0.0
 11
0.02159772760037981
 21
0.7999991561933228
 31
0.0
210
0.0
220
0.0
230
1.0
 40
0.0537988877
 41
5.177489007048953
 42
5.369012849440518
  0
ELLIPSE
  5
17A
330
1F
100
AcDbEntity
  8
0
  6
Continuous
 62
     7
370
    25
100
AcDbEllipse
 10
222.4900814047
 20
84.9012559858
 30
0.0
 11
1.947791790405574
 21
-0.0177698114313074
 31
0.0
210
0.0
220
0.0
230
1.0
 40
0.513320833
 41
3.160788584408923
 42
3.623660809788553
  0
LINE
  5
17B
330
1F
100
AcDbEntity
  8
0
  6
Continuous
 62
     7
370
    25
100
AcDbLine
 10
220.542473381
 20
84.8998308022
 30
0.0
 11
220.7591544922
 21
93.3940662204
 31
0.0
  0
ELLIPSE
  5
17C
330
1F
100
AcDbEntity
  8
0
  6
Continuous
 62
     7
370
    25
100
AcDbEllipse
 10
223.9436265419
 20
92.9066300575
 30
0.0
 11
-0.02159772760037981
 21
0.7999991561933228
 31
0.0
210
0.0
220
0.0
230
1.0
 40
0.0537988877
 41
0.9141724577395631
 42
1.105696300131252
  0
LINE
  5
17D
330
1F
100
AcDbEntity
  8
0
  6
Continuous
 62
     7
370
    25
100
AcDbLine
 10
223.896352868
 20
93.3940662204
 30
0.0
 11
224.1130339793
 21
84.8998308022
 31
0.0
  0
ELLIPSE
  5
17E
330
1F
100
AcDbEntity
  8
0
  6
Continuous
 62
     7
370
    25
100
AcDbEllipse
 10
222.1654259555
 20
84.9012559858
 30
0.0
 11
1.947791790405546
 21
0.01776981143129319
 31
0.0
210
0.0
220
0.0
230
1.0
 40
0.513320833
 41
5.801117150980876
 42
6.263989376373016
  0
LINE
  5
17F
330
1F
100
AcDbEntity
  8
0
  6
Continuous
 62
     7
370
    25
100
AcDbLine
 10
220.5422530459
 20
84.8680143723
 30
0.0
 11
220.542473381
 21
84.8998308022
 31
0.0
  0
SPLINE
  5
180
330
1F
100
AcDbEntity
  8
0
  6
Continuous
 62
     7
370
    25
100
AcDbSpline
210
0.0
220
0.0
230
1.0
 70
     8
 71
     3
 72
     9
 73
     5
 74
     0
 42
0.00000001
 43
0.00000001
 40
0.0
 40
0.0
 40
0.0
 40
0.0
 40
0.8673350121727758
 40
1.0
 40
1.0
 40
1.0
 40
1.0
 10
224.1130339792532
 20
84.89983080219557
 30
0.0
 10
224.1132047114404
 20
84.89063237882037
 30
0.0
 10
224.113401558316
 20
84.8800269919213
 30
0.0
 10
224.1132715605508
 20
84.86942136731992
 30
0.0
 10
224.1132543143988
 20
84.86801437226127
 30
0.0
  0
ELLIPSE
  5
181
330
1F
100
AcDbEntity
  8
0
  6
Continuous
 62
     7
370
    25
100
AcDbEllipse
 10
221.4282053097
 20
92.8878208063
 30
0.0
 11
0.0209600052571659
 21
1.499999971448759
 31
0.0
210
0.0
220
0.0
230
1.0
 40
0.013963099
 41
5.413231207420234
 42
6.283380418268021
  0
LINE
  5
182
330
1F
100
AcDbEntity
  8
0
  6
Continuous
 62
     7
370
    25
100
AcDbLine
 10
223.2063461323
 20
94.3878208063
 30
0.0
 11
221.449161228
 21
94.3878208063
 31
0.0
  0
ELLIPSE
  5
183
330
1F
100
AcDbEntity
  8
0
  6
Continuous
 62
     7
370
    25
100
AcDbEllipse
 10
223.2273020506
 20
92.8878208063
 30
0.0
 11
-0.0209600052571659
 21
1.499999971448759
 31
0.0
210
0.0
220
0.0
230
1.0
 40
0.013963099
 41
6.282990196092133
 42
7.153139406940047
  0
SPLINE
  5
184
330
1F
100
AcDbEntity
  8
0
  6
Continuous
 62
     7
370
    25
100
AcDbSpline
210
0.0
220
0.0
230
1.0
 70
     8
 71
     3
 72
     9
 73
     5
 74
     0
 42
0.00000001
 43
0.00000001
 40
0.0
 40
0.0
 40
0.0
 40
0.0
 40
0.5600029565045499
 40
1.0
 40
1.0
 40
1.0
 40
1.0
 10
223.1977777667517
 20
93.8548895471736
 30
0.0
 10
223.1977834048179
 20
93.84510308501363
 30
0.0
 10
223.1977934727402
 20
93.82762735199066
 30
0.0
 10
223.1976712961368
 20
93.80966638432486
 30
0.0
 10
223.1976175387925
 20
93.8017636116536
 30
0.0
  0
ELLIPSE
  5
185
330
1F
100
AcDbEntity
  8
0
  6
Continuous
 62
     7
370
    25
100
AcDbEllipse
 10
223.2448912127
 20
92.8878208063
 30
0.0
 11
-0.02155295842283067
 21
1.499999872388912
 31
0.0
210
0.0
220
0.0
230
1.0
 40
0.0287076702
 41
0.9152123852433512
 42
1.106736227634798
  0
ELLIPSE
  5
186
330
1F
100
AcDbEntity
  8
0
  6
Continuous
 62
     7
370
    25
100
AcDbEllipse
 10
221.4106161476
 20
92.8878208063
 30
0.0
 11
0.02155295842283067
 21
1.499999872388912
 31
0.0
210
0.0
220
0.0
230
1.0
 40
0.0287076702
 41
5.17644907954489
 42
5.367972921936415
  0
SPLINE
  5
187
330
1F
100
AcDbEntity
  8
0
  6
Continuous
 62
     7
370
    25
100
AcDbSpline
210
0.0
220
0.0
230
1.0
 70
     8
 71
     3
 72
     9
 73
     5
 74
     0
 42
0.00000001
 43
0.00000001
 40
0.0
 40
0.0
 40
0.0
 40
0.0
 40
0.5599925069633377
 40
1.0
 40
1.0
 40
1.0
 40
1.0
 10
221.4578898214631
 20
93.8017636116536
 30
0.0
 10
221.4578240763117
 20
93.81181120595646
 30
0.0
 10
221.4577066726847
 20
93.82975357871669
 30
0.0
 10
221.4577225898374
 20
93.84720902153796
 30
0.0
 10
221.4577295935038
 20
93.85488954717361
 30
0.0
  0
SPLINE
  5
188
330
1F
100
AcDbEntity
  8
0
  6
Continuous
 62
     7
370
    25
100
AcDbSpline
210
0.0
220
0.0
230
1.0
 70
     8
 71
     3
 72
    12
 73
     8
 74
     0
 42
0.00000001
 43
0.00000001
 40
0.0
 40
0.0
 40
0.0
 40
0.0
 40
0.2225634137434379
 40
0.4462063173695244
 40
0.6680851268156933
 40
0.8917990985568367
 40
1.0
 40
1.0
 40
1.0
 40
1.0
 10
220.7591544922118
 20
93.39406622038412
 30
0.0
 10
220.7715075997785
 20
93.44165216369045
 30
0.0
 10
220.7962737306655
 20
93.5370548543849
 30
0.0
 10
220.9288576586634
 20
93.66127358695788
 30
0.0
 10
221.115215062158
 20
93.75316338806232
 30
0.0
 10
221.3033058735113
 20
93.79561896707241
 30
0.0
 10
221.4198859063996
 20
93.80025297258756
 30
0.0
 10
221.4578898214631
 20
93.8017636116536
 30
0.0
  0
SPLINE
  5
189
330
1F
100
AcDbEntity
  8
0
  6
Continuous
 62
     7
370
    25
100
AcDbSpline
210
0.0
220
0.0
230
1.0
 70
     8
 71
     3
 72
    12
 73
     8
 74
     0
 42
0.00000001
 43
0.00000001
 40
0.0
 40
0.0
 40
0.0
 40
0.0
 40
0.2225634137435274
 40
0.446206317369568
 40
0.6680851268158019
 40
0.8917990985569294
 40
1.0
 40
1.0
 40
1.0
 40
1.0
 10
223.1976175387925
 20
93.8017636116536
 30
0.0
 10
223.2761211988351
 20
93.79633653903988
 30
0.0
 10
223.4335092818917
 20
93.78545607111245
 30
0.0
 10
223.6428608195191
 20
93.71016264009215
 30
0.0
 10
223.8016201139891
 20
93.6006840953388
 30
0.0
 10
223.8794689843058
 20
93.48796945479235
 30
0.0
 10
223.8922020251392
 20
93.41715199734814
 30
0.0
 10
223.8963528680438
 20
93.39406622038412
 30
0.0
  0
SPLINE
  5
18A
330
1F
100
AcDbEntity
  8
0
  6
Continuous
 62
     7
370
    25
100
AcDbSpline
210
0.0
220
0.0
230
1.0
 70
     8
 71
     3
 72
    12
 73
     8
 74
     0
 42
0.00000001
 43
0.00000001
 40
0.0
 40
0.0
 40
0.0
 40
0.0
 40
0.2198609600791294
 40
0.4397396970008148
 40
0.6583291451397767
 40
0.87912395168436
 40
1.0
 40
1.0
 40
1.0
 40
1.0
 10
223.8972981039158
 20
93.4219146652635
 30
0.0
 10
223.8866261092717
 20
93.47240288139139
 30
0.0
 10
223.8652812571002
 20
93.57338339586835
 30
0.0
 10
223.7371628618332
 20
93.70504638881837
 30
0.0
 10
223.5542249257681
 20
93.80260771159146
 30
0.0
 10
223.3626757538809
 20
93.84926710306817
 30
0.0
 10
223.2408700821959
 20
93.8534202500695
 30
0.0
 10
223.1977777667517
 20
93.8548895471736
 30
0.0
  0
SPLINE
  5
18B
330
1F
100
AcDbEntity
  8
0
  6
Continuous
 62
     7
370
    25
100
AcDbSpline
210
0.0
220
0.0
230
1.0
 70
     8
 71
     3
 72
    12
 73
     8
 74
     0
 42
0.00000001
 43
0.00000001
 40
0.0
 40
0.0
 40
0.0
 40
0.0
 40
0.2198610998683202
 40
0.4397399767664986
 40
0.6583294271823332
 40
0.8791242261983154
 40
1.0
 40
1.0
 40
1.0
 40
1.0
 10
221.4577295935038
 20
93.85488954717361
 30
0.0
 10
221.3790386837847
 20
93.85006575382398
 30
0.0
 10
221.2216505017354
 20
93.8404177770934
 30
0.0
 10
221.0123687532504
 20
93.76324363943165
 30
0.0
 10
220.853719432586
 20
93.64937613021951
 30
0.0
 10
220.7736193698708
 20
93.52789556071588
 30
0.0
 10
220.7622363325691
 20
93.4496103174714
 30
0.0
 10
220.7582092563397
 20
93.4219146652635
 30
0.0
  0
LINE
  5
18C
330
1F
100
AcDbEntity
  8
0
  6
Continuous
 62
     7
370
    25
100
AcDbLine
 10
223.3338357898
 20
94.362886428
 30
0.0
 11
223.2063461323
 21
94.3878208063
 31
0.0
  0
ELLIPSE
  5
18D
330
1F
100
AcDbEntity
  8
0
  6
Continuous
 62
     7
370
    25
100
AcDbEllipse
 10
223.9268223878
 20
92.9061446701
 30
0.0
 11
-0.02097028290367575
 21
0.7999998117962832
 31
0.0
210
0.0
220
0.0
230
1.0
 40
0.0261679535
 41
6.282499370390492
 42
7.152648581237709
  0
ELLIPSE
  5
18E
330
1F
100
AcDbEntity
  8
0
  6
Continuous
 62
     7
370
    25
100
AcDbEllipse
 10
220.7286849725
 20
92.9061446701
 30
0.0
 11
0.02097028290364733
 21
0.7999998117962832
 31
0.0
210
0.0
220
0.0
230
0.9999999999999999
 40
0.0261679535
 41
5.413722033122003
 42
6.283871243969204
  0
SPLINE
  5
18F
330
1F
100
AcDbEntity
  8
0
  6
Continuous
 62
     7
370
    25
100
AcDbSpline
210
0.0
220
0.0
230
1.0
 70
     8
 71
     3
 72
    11
 73
     7
 74
     0
 42
0.00000001
 43
0.00000001
 40
0.0
 40
0.0
 40
0.0
 40
0.0
 40
0.2499999999999963
 40
0.4999999999999995
 40
0.7500000000000014
 40
1.0
 40
1.0
 40
1.0
 40
1.0
 10
220.7496408908143
 20
93.70614467014852
 30
0.0
 10
220.7621614070369
 20
93.79604371727552
 30
0.0
 10
220.7872024394821
 20
93.97584181152955
 30
0.0
 10
220.9498459091046
 20
94.20055802076452
 30
0.0
 10
221.1786656451591
 20
94.357319105794
 30
0.0
 10
221.3589960337053
 20
94.37765357282001
 30
0.0
 10
221.4491612279784
 20
94.38782080633301
 30
0.0
  0
LINE
  5
190
330
1F
100
AcDbEntity
  8
0
  6
Continuous
 62
     7
370
    25
100
AcDbLine
 10
224.1123398208
 20
84.9270428888
 30
0.0
 11
224.1139943425
 21
84.9270862288
 31
0.0
  0
LINE
  5
191
330
1F
100
AcDbEntity
  8
0
  6
Continuous
 62
     7
370
    25
100
AcDbLine
 10
220.5431675394
 20
84.9270428888
 30
0.0
 11
220.5415130177
 21
84.9270862288
 31
0.0
  0
SPLINE
  5
192
330
1F
100
AcDbEntity
  8
0
  6
Continuous
 62
     7
370
    25
100
AcDbSpline
210
0.0
220
0.0
230
1.0
 70
     8
 71
     3
 72
     9
 73
     5
 74
     0
 42
0.00000001
 43
0.00000001
 40
0.0
 40
0.0
 40
0.0
 40
0.0
 40
0.5600012771711205
 40
0.9999999999999999
 40
0.9999999999999999
 40
0.9999999999999999
 40
0.9999999999999999
 10
219.9751757376307
 20
84.92708622879483
 30
0.0
 10
219.9870101499757
 20
85.85613586822299
 30
0.0
 10
220.0081429809665
 20
87.51514929783752
 30
0.0
 10
220.0291037103789
 20
89.17192853300412
 30
0.0
 10
220.03832640455
 20
89.90090928048683
 30
0.0
  0
SPLINE
  5
193
330
1F
100
AcDbEntity
  8
0
  6
Continuous
 62
     7
370
    25
100
AcDbSpline
210
0.0
220
0.0
230
1.0
 70
     8
 71
     3
 72
     9
 73
     5
 74
     0
 42
0.00000001
 43
0.00000001
 40
0.0
 40
0.0
 40
0.0
 40
0.0
 40
0.5599999095971039
 40
1.0
 40
1.0
 40
1.0
 40
1.0
 10
220.03832640455
 20
89.90090928048683
 30
0.0
 10
220.0406238144472
 20
90.08271099523564
 30
0.0
 10
220.0447263327831
 20
90.40735696683876
 30
0.0
 10
220.0488227259762
 20
90.73192317239324
 30
0.0
 10
220.0506251393514
 20
90.87473233217895
 30
0.0
  0
LINE
  5
194
330
1F
100
AcDbEntity
  8
0
  6
Continuous
 62
     7
370
    25
100
AcDbLine
 10
220.0506251394
 20
90.8747323322
 30
0.0
 11
219.72229701
 21
90.8747323322
 31
0.0
  0
LINE
  5
195
330
1F
100
AcDbEntity
  8
0
  6
Continuous
 62
     7
370
    25
100
AcDbLine
 10
219.72229701
 20
90.8747323322
 30
0.0
 11
219.8520729232
 21
93.7061446701
 31
0.0
  0
LINE
  5
196
330
1F
100
AcDbEntity
  8
0
  6
Continuous
 62
     7
370
    25
100
AcDbLine
 10
219.8520729232
 20
93.7061446701
 30
0.0
 11
220.7496408908
 21
93.7061446701
 31
0.0
  0
LINE
  5
197
330
1F
100
AcDbEntity
  8
0
  6
Continuous
 62
     7
370
    25
100
AcDbLine
 10
220.7582092563
 20
93.4219146653
 30
0.0
 11
220.5415130177
 21
84.9270862288
 31
0.0
  0
LINE
  5
198
330
1F
100
AcDbEntity
  8
0
  6
Continuous
 62
     7
370
    25
100
AcDbLine
 10
224.9332103502
 20
90.8747323322
 30
0.0
 11
224.6048822209
 21
90.8747323322
 31
0.0
  0
SPLINE
  5
199
330
1F
100
AcDbEntity
  8
0
  6
Continuous
 62
     7
370
    25
100
AcDbSpline
210
0.0
220
0.0
230
1.0
 70
     8
 71
     3
 72
     9
 73
     5
 74
     0
 42
0.00000001
 43
0.00000001
 40
0.0
 40
0.0
 40
0.0
 40
0.0
 40
0.5600000882143319
 40
1.0
 40
1.0
 40
1.0
 40
1.0
 10
224.6048822209042
 20
90.87473233217895
 30
0.0
 10
224.6071763370452
 20
90.69297346134717
 30
0.0
 10
224.6112729723661
 20
90.36840410027553
 30
0.0
 10
224.6153757388254
 20
90.04375489997872
 30
0.0
 10
224.6171809557056
 20
89.90090928048683
 30
0.0
  0
SPLINE
  5
19A
330
1F
100
AcDbEntity
  8
0
  6
Continuous
 62
     7
370
    25
100
AcDbSpline
210
0.0
220
0.0
230
1.0
 70
     8
 71
     3
 72
     9
 73
     5
 74
     0
 42
0.00000001
 43
0.00000001
 40
0.0
 40
0.0
 40
0.0
 40
0.0
 40
0.5599987526606142
 40
1.0
 40
1.0
 40
1.0
 40
1.0
 10
224.6171809557056
 20
89.90090928048683
 30
0.0
 10
224.628922542228
 20
88.97306798063752
 30
0.0
 10
224.64988970772
 20
87.31620482613752
 30
0.0
 10
224.6710299080922
 20
85.65709612622707
 30
0.0
 10
224.6803316226249
 20
84.92708622879483
 30
0.0
  0
LINE
  5
19B
330
1F
100
AcDbEntity
  8
0
  6
Continuous
 62
     7
370
    25
100
AcDbLine
 10
224.1139943425
 20
84.9270862288
 30
0.0
 11
223.8972981039
 21
93.4219146653
 31
0.0
  0
LINE
  5
19C
330
1F
100
AcDbEntity
  8
0
  6
Continuous
 62
     7
370
    25
100
AcDbLine
 10
223.9058664694
 20
93.7061446701
 30
0.0
 11
224.8034344371
 21
93.7061446701
 31
0.0
  0
LINE
  5
19D
330
1F
100
AcDbEntity
  8
0
  6
Continuous
 62
     7
370
    25
100
AcDbLine
 10
224.8034344371
 20
93.7061446701
 30
0.0
 11
224.9332103502
 21
90.8747323322
 31
0.0
  0
LINE
  5
19E
330
1F
100
AcDbEntity
  8
0
  6
Continuous
 62
     7
370
    25
100
AcDbLine
 10
221.449161228
 20
94.3878208063
 30
0.0
 11
220.5515932604
 21
94.3878208063
 31
0.0
  0
SPLINE
  5
19F
330
1F
100
AcDbEntity
  8
0
  6
Continuous
 62
     7
370
    25
100
AcDbSpline
210
0.0
220
0.0
230
1.0
 70
     8
 71
     3
 72
    11
 73
     7
 74
     0
 42
0.00000001
 43
0.00000001
 40
0.0
 40
0.0
 40
0.0
 40
0.0
 40
0.2499999999999982
 40
0.4999999999999978
 40
0.750000000000001
 40
1.0
 40
1.0
 40
1.0
 40
1.0
 10
219.8520729231952
 20
93.70614467014852
 30
0.0
 10
219.8645934394177
 20
93.79604371727554
 30
0.0
 10
219.8896344718629
 20
93.97584181152956
 30
0.0
 10
220.0522779414855
 20
94.20055802076452
 30
0.0
 10
220.2810976775399
 20
94.35731910579402
 30
0.0
 10
220.4614280660861
 20
94.37765357282002
 30
0.0
 10
220.5515932603593
 20
94.38782080633301
 30
0.0
  0
LINE
  5
1A0
330
1F
100
AcDbEntity
  8
0
  6
Continuous
 62
     7
370
    25
100
AcDbLine
 10
224.1039140999
 20
94.3878208063
 30
0.0
 11
223.2063461323
 21
94.3878208063
 31
0.0
  0
SPLINE
  5
1A1
330
1F
100
AcDbEntity
  8
0
  6
Continuous
 62
     7
370
    25
100
AcDbSpline
210
0.0
220
0.0
230
1.0
 70
     8
 71
     3
 72
    11
 73
     7
 74
     0
 42
0.00000001
 43
0.00000001
 40
0.0
 40
0.0
 40
0.0
 40
0.0
 40
0.2499999999999988
 40
0.5000000000000004
 40
0.7499999999999976
 40
1.0
 40
1.0
 40
1.0
 40
1.0
 10
224.1039140998963
 20
94.38782080633301
 30
0.0
 10
224.1940792941694
 20
94.37765357282002
 30
0.0
 10
224.3744096827157
 20
94.35731910579402
 30
0.0
 10
224.6032294187701
 20
94.20055802076449
 30
0.0
 10
224.7658728883927
 20
93.97584181152958
 30
0.0
 10
224.7909139208378
 20
93.79604371727554
 30
0.0
 10
224.8034344370604
 20
93.70614467014852
 30
0.0
  0
LINE
  5
1A2
330
1F
100
AcDbEntity
  8
0
  6
Continuous
 62
     7
370
    25
100
AcDbLine
 10
219.462805268
 20
90.3878208063
 30
0.0
 11
219.2287101341
 21
90.3878208063
 31
0.0
  0
SPLINE
  5
1A3
330
1F
100
AcDbEntity
  8
0
  6
Continuous
 62
     7
370
    25
100
AcDbSpline
210
0.0
220
0.0
230
1.0
 70
     8
 71
     3
 72
    10
 73
     6
 74
     0
 42
0.00000001
 43
0.00000001
 40
0.0
 40
0.0
 40
0.0
 40
0.0
 40
0.2383396858856107
 40
0.571650633368965
 40
1.0
 40
1.0
 40
1.0
 40
1.0
 10
219.469231238073
 20
90.38782080633293
 30
0.0
 10
219.5438294404999
 20
90.39677954925257
 30
0.0
 10
219.7227510057738
 20
90.41826682714829
 30
0.0
 10
219.9590951180288
 20
90.5919292101014
 30
0.0
 10
220.0176784942143
 20
90.77293606935596
 30
0.0
 10
220.0506251393514
 20
90.87473233217915
 30
0.0
  0
SPLINE
  5
1A4
330
1F
100
AcDbEntity
  8
0
  6
Continuous
 62
     7
370
    25
100
AcDbSpline
210
0.0
220
0.0
230
1.0
 70
     8
 71
     3
 72
    11
 73
     7
 74
     0
 42
0.00000001
 43
0.00000001
 40
0.0
 40
0.0
 40
0.0
 40
0.0
 40
0.2506671725023492
 40
0.5010414677145718
 40
0.7508849997170933
 40
1.0
 40
1.0
 40
1.0
 40
1.0
 10
219.9751757376307
 20
84.92708622879483
 30
0.0
 10
219.9483011709755
 20
84.95659224879401
 30
0.0
 10
219.8945834376693
 20
85.0155698142216
 30
0.0
 10
219.6091179740154
 20
85.10230308303332
 30
0.0
 10
219.1875898273958
 20
85.18662411325984
 30
0.0
 10
218.7712327496988
 20
85.2392071058744
 30
0.0
 10
218.5633581733223
 20
85.26546021384324
 30
0.0
  0
SPLINE
  5
1A5
330
1F
100
AcDbEntity
  8
0
  6
Continuous
 62
     7
370
    25
100
AcDbSpline
210
0.0
220
0.0
230
1.0
 70
     8
 71
     3
 72
     9
 73
     5
 74
     0
 42
0.00000001
 43
0.00000001
 40
0.0
 40
0.0
 40
0.0
 40
0.0
 40
0.501325902198991
 40
1.0
 40
1.0
 40
1.0
 40
1.0
 10
218.5633581199581
 20
85.26545997955601
 30
0.0
 10
218.438315462488
 20
85.27688182666863
 30
0.0
 10
218.1888915709204
 20
85.29966510409858
 30
0.0
 10
217.8871234624992
 20
85.29672715019109
 30
0.0
 10
217.7366395232871
 20
85.29526206867688
 30
0.0
  0
LINE
  5
1A6
330
1F
100
AcDbEntity
  8
0
  6
Continuous
 62
     7
370
    25
100
AcDbLine
 10
217.621873084
 20
88.8879318122
 30
0.0
 11
217.7366482915
 21
85.2953617257
 31
0.0
  0
SPLINE
  5
1A7
330
1F
100
AcDbEntity
  8
0
  6
Continuous
 62
     7
370
    25
100
AcDbSpline
210
0.0
220
0.0
230
1.0
 70
     8
 71
     3
 72
    14
 73
    10
 74
     0
 42
0.00000001
 43
0.00000001
 40
0.0
 40
0.0
 40
0.0
 40
0.0
 40
0.0829413618596714
 40
0.1664594845668882
 40
0.2437726390188662
 40
0.3161479456895724
 40
0.4353725718192331
 40
0.6486290670514194
 40
1.0
 40
1.0
 40
1.0
 40
1.0
 10
217.6218730887904
 20
88.88793179959372
 30
0.0
 10
217.6236882783728
 20
88.97779570718359
 30
0.0
 10
217.6273312800731
 20
89.15814842147691
 30
0.0
 10
217.7089924125607
 20
89.44603313226281
 30
0.0
 10
217.8422758928455
 20
89.69755915968955
 30
0.0
 10
218.0306023490831
 20
89.93150848959058
 30
0.0
 10
218.3288694287454
 20
90.17231946009856
 30
0.0
 10
218.7868965875307
 20
90.36426106333795
 30
0.0
 10
219.0592321162086
 20
90.37877436696083
 30
0.0
 10
219.2287080998584
 20
90.38780608022805
 30
0.0
  0
LINE
  5
1A8
330
1F
100
AcDbEntity
  8
0
  6
Continuous
 62
     7
370
    25
100
AcDbLine
 10
226.9188590688
 20
85.2953617257
 30
0.0
 11
227.0336342763
 21
88.8879318123
 31
0.0
  0
SPLINE
  5
1A9
330
1F
100
AcDbEntity
  8
0
  6
Continuous
 62
     7
370
    25
100
AcDbSpline
210
0.0
220
0.0
230
1.0
 70
     8
 71
     3
 72
     9
 73
     5
 74
     0
 42
0.00000001
 43
0.00000001
 40
0.0
 40
0.0
 40
0.0
 40
0.0
 40
0.4986740982738612
 40
1.0
 40
1.0
 40
1.0
 40
1.0
 10
226.9188680188037
 20
85.2952612392737
 30
0.0
 10
226.7683840825247
 20
85.29672631853035
 30
0.0
 10
226.4666159802713
 20
85.29966426790794
 30
0.0
 10
226.2171920886491
 20
85.27688098897623
 30
0.0
 10
226.0921494312695
 20
85.26545914112153
 30
0.0
  0
SPLINE
  5
1AA
330
1F
100
AcDbEntity
  8
0
  6
Continuous
 62
     7
370
    25
100
AcDbSpline
210
0.0
220
0.0
230
1.0
 70
     8
 71
     3
 72
    11
 73
     7
 74
     0
 42
0.00000001
 43
0.00000001
 40
0.0
 40
0.0
 40
0.0
 40
0.0
 40
0.2491150002829079
 40
0.4989585322854286
 40
0.7493328274976518
 40
1.0
 40
1.0
 40
1.0
 40
1.0
 10
226.0921491869333
 20
85.26546021384324
 30
0.0
 10
225.8842746105568
 20
85.2392071058744
 30
0.0
 10
225.4679175328598
 20
85.18662411325984
 30
0.0
 10
225.0463893862402
 20
85.10230308303332
 30
0.0
 10
224.7609239225863
 20
85.01556981422159
 30
0.0
 10
224.70720618928
 20
84.95659224879401
 30
0.0
 10
224.6803316226249
 20
84.92708622879483
 30
0.0
  0
SPLINE
  5
1AB
330
1F
100
AcDbEntity
  8
0
  6
Continuous
 62
     7
370
    25
100
AcDbSpline
210
0.0
220
0.0
230
1.0
 70
     8
 71
     3
 72
    10
 73
     6
 74
     0
 42
0.00000001
 43
0.00000001
 40
0.0
 40
0.0
 40
0.0
 40
0.0
 40
0.428349366631063
 40
0.7616603141144169
 40
1.0
 40
1.0
 40
1.0
 40
1.0
 10
224.6048822209042
 20
90.87473233217916
 30
0.0
 10
224.6378288660413
 20
90.772936069356
 30
0.0
 10
224.6964122422268
 20
90.59192921010147
 30
0.0
 10
224.9327563544817
 20
90.41826682714837
 30
0.0
 10
225.1116779197555
 20
90.39677954925259
 30
0.0
 10
225.1862761221824
 20
90.38782080633293
 30
0.0
  0
LINE
  5
1AC
330
1F
100
AcDbEntity
  8
0
  6
Continuous
 62
     7
370
    25
100
AcDbLine
 10
225.1927020926
 20
90.3878208063
 30
0.0
 11
225.4267972264
 21
90.3878208063
 31
0.0
  0
SPLINE
  5
1AD
330
1F
100
AcDbEntity
  8
0
  6
Continuous
 62
     7
370
    25
100
AcDbSpline
210
0.0
220
0.0
230
1.0
 70
     8
 71
     3
 72
    15
 73
    11
 74
     0
 42
0.00000001
 43
0.00000001
 40
0.0
 40
0.0
 40
0.0
 40
0.0
 40
0.2091652517822448
 40
0.4176299509274911
 40
0.5931463878153098
 40
0.6923603779431111
 40
0.7731125739307029
 40
0.8543366880968446
 40
0.9261517123972134
 40
1.0
 40
1.0
 40
1.0
 40
1.0
 10
225.4267992606286
 20
90.38780608022701
 30
0.0
 10
225.524496893118
 20
90.38471458972853
 30
0.0
 10
225.7195649415373
 20
90.3785419629936
 30
0.0
 10
226.0688447948898
 20
90.28826850318339
 30
0.0
 10
226.4017349818332
 20
90.11966205107998
 30
0.0
 10
226.6633530678692
 20
89.89021334302701
 30
0.0
 10
226.843947080783
 20
89.6524342997707
 30
0.0
 10
226.9660412440933
 20
89.3905178029322
 30
0.0
 10
227.0300912334118
 20
89.1249762281942
 30
0.0
 10
227.0324423194497
 20
88.96767849717263
 30
0.0
 10
227.0336342714632
 20
88.88793179961388
 30
0.0
  0
SPLINE
  5
1AE
330
1F
100
AcDbEntity
  8
0
  6
Continuous
 62
     7
370
    25
100
AcDbSpline
210
0.0
220
0.0
230
1.0
 70
     8
 71
     3
 72
    11
 73
     7
 74
     0
 42
0.00000001
 43
0.00000001
 40
0.0
 40
0.0
 40
0.0
 40
0.0
 40
0.279563842830426
 40
0.5590315778757569
 40
0.7794196683313495
 40
1.0
 40
1.0
 40
1.0
 40
1.0
 10
218.5633581733223
 20
85.26546021384324
 30
0.0
 10
218.5396089971954
 20
85.00819460366239
 30
0.0
 10
218.4921188093761
 20
84.49375182545307
 30
0.0
 10
218.8278058907943
 20
83.85123762621393
 30
0.0
 10
219.3065207800577
 20
83.45956432502
 30
0.0
 10
219.658406350727
 20
83.41174226194202
 30
0.0
 10
219.8344258387297
 20
83.38782080633301
 30
0.0
  0
SPLINE
  5
1AF
330
1F
100
AcDbEntity
  8
0
  6
Continuous
 62
     7
370
    25
100
AcDbSpline
210
0.0
220
0.0
230
1.0
 70
    24
 71
     3
 72
    11
 73
     7
 74
     0
 42
0.00000001
 43
0.00000001
 40
0.0
 40
0.0
 40
0.0
 40
0.0
 40
0.2799317596299056
 40
0.5599103390525024
 40
0.7799480709991913
 40
1.0
 40
1.0
 40
1.0
 40
1.0
 10
219.8344258387297
 20
83.38782080633301
 30
0.0
 10
220.1019937961692
 20
83.38782080633301
 30
0.0
 10
220.6371744629418
 20
83.387820806333
 30
0.0
 10
221.1110412566042
 20
83.38782080633301
 30
0.0
 10
221.396291014153
 20
83.387820806333
 30
0.0
 10
221.4481950390501
 20
83.387820806333
 30
0.0
 10
221.4741478886966
 20
83.38782080633301
 30
0.0
  0
SPLINE
  5
1B0
330
1F
100
AcDbEntity
  8
0
  6
Continuous
 62
     7
370
    25
100
AcDbSpline
210
0.0
220
0.0
230
1.0
 70
     8
 71
     3
 72
    11
 73
     7
 74
     0
 42
0.00000001
 43
0.00000001
 40
0.0
 40
0.0
 40
0.0
 40
0.0
 40
0.2795638428677817
 40
0.5590315779132448
 40
0.7794196683689383
 40
0.9999999999999999
 40
0.9999999999999999
 40
0.9999999999999999
 40
0.9999999999999999
 10
224.8210815215259
 20
83.38782080633301
 30
0.0
 10
225.0450619370922
 20
83.4263396582811
 30
0.0
 10
225.4929457687466
 20
83.50336412025393
 30
0.0
 10
225.9528860038521
 20
84.03616201804363
 30
0.0
 10
226.1642604447514
 20
84.66389858491002
 30
0.0
 10
226.1161932578721
 20
85.06488140107865
 30
0.0
 10
226.0921491869333
 20
85.26546021384324
 30
0.0
  0
SPLINE
  5
1B1
330
1F
100
AcDbEntity
  8
0
  6
Continuous
 62
     7
370
    25
100
AcDbSpline
210
0.0
220
0.0
230
1.0
 70
    24
 71
     3
 72
    11
 73
     7
 74
     0
 42
0.00000001
 43
0.00000001
 40
0.0
 40
0.0
 40
0.0
 40
0.0
 40
0.2799857774483057
 40
0.5599458358671288
 40
0.779998565900937
 40
0.9999999999999999
 40
0.9999999999999999
 40
0.9999999999999999
 40
0.9999999999999999
 10
223.1813594715589
 20
83.38782080633301
 30
0.0
 10
223.2191131911668
 20
83.38782080633301
 30
0.0
 10
223.2946171623885
 20
83.38782080633301
 30
0.0
 10
223.6761703126973
 20
83.38782080633301
 30
0.0
 10
224.1796009945104
 20
83.38782080633301
 30
0.0
 10
224.6072712966478
 20
83.387820806333
 30
0.0
 10
224.8210815215259
 20
83.38782080633301
 30
0.0
  0
SPLINE
  5
1B2
330
1F
100
AcDbEntity
  8
0
  6
Continuous
 62
     7
370
    25
100
AcDbSpline
210
0.0
220
0.0
230
1.0
 70
     8
 71
     3
 72
    11
 73
     7
 74
     0
 42
0.00000001
 43
0.00000001
 40
0.0
 40
0.0
 40
0.0
 40
0.0
 40
0.2499999999999989
 40
0.4999999999999996
 40
0.749999999999999
 40
1.0
 40
1.0
 40
1.0
 40
1.0
 10
225.4328677339323
 20
90.387820806333
 30
0.0
 10
225.3684640237373
 20
90.39508311598514
 30
0.0
 10
225.2396566033471
 20
90.40960773528943
 30
0.0
 10
225.0762139347368
 20
90.52157993888193
 30
0.0
 10
224.9600400278635
 20
90.6820915169069
 30
0.0
 10
224.942153576117
 20
90.81051872708832
 30
0.0
 10
224.9332103502437
 20
90.87473233217906
 30
0.0
  0
SPLINE
  5
1B3
330
1F
100
AcDbEntity
  8
0
  6
Continuous
 62
     7
370
    25
100
AcDbSpline
210
0.0
220
0.0
230
1.0
 70
     8
 71
     3
 72
    11
 73
     7
 74
     0
 42
0.00000001
 43
0.00000001
 40
0.0
 40
0.0
 40
0.0
 40
0.0
 40
0.2500000000000009
 40
0.5000000000000002
 40
0.7500000000000007
 40
0.9999999999999999
 40
0.9999999999999999
 40
0.9999999999999999
 40
0.9999999999999999
 10
219.7222970100119
 20
90.87473233217906
 30
0.0
 10
219.7133537841386
 20
90.81051872708832
 30
0.0
 10
219.6954673323921
 20
90.68209151690688
 30
0.0
 10
219.5792934255188
 20
90.52157993888193
 30
0.0
 10
219.4158507569085
 20
90.40960773528943
 30
0.0
 10
219.2870433365183
 20
90.39508311598514
 30
0.0
 10
219.2226396263232
 20
90.387820806333
 30
0.0
  0
SPLINE
  5
1B4
330
1F
100
AcDbEntity
  8
0
  6
Continuous
 62
     7
370
    25
100
AcDbSpline
210
0.0
220
0.0
230
1.0
 70
     8
 71
     3
 72
     9
 73
     5
 74
     0
 42
0.00000001
 43
0.00000001
 40
0.0
 40
0.0
 40
0.0
 40
0.0
 40
0.5642319118445199
 40
1.0
 40
1.0
 40
1.0
 40
1.0
 10
217.6260386351284
 20
83.21236784518388
 30
0.0
 10
218.1014702464019
 20
83.26594981391119
 30
0.0
 10
218.9440876193173
 20
83.36091425601828
 30
0.0
 10
219.5642004542224
 20
83.37965443455874
 30
0.0
 10
219.8344258387297
 20
83.38782080633301
 30
0.0
  0
SPLINE
  5
1B5
330
1F
100
AcDbEntity
  8
0
  6
Continuous
 62
     7
370
    25
100
AcDbSpline
210
0.0
220
0.0
230
1.0
 70
     8
 71
     3
 72
    13
 73
     9
 74
     0
 42
0.00000001
 43
0.00000001
 40
0.0
 40
0.0
 40
0.0
 40
0.0
 40
0.0926677825201017
 40
0.1856533156297215
 40
0.2733112842947874
 40
0.413548892575832
 40
0.6528449691515644
 40
1.0
 40
1.0
 40
1.0
 40
1.0
 10
217.7366386208862
 20
85.29526131998222
 30
0.0
 10
217.7390732883373
 20
85.20102660286342
 30
0.0
 10
217.743950971524
 20
85.01223404513995
 30
0.0
 10
217.7438764843779
 20
84.6990236409191
 30
0.0
 10
217.7374894273217
 20
84.35728950612602
 30
0.0
 10
217.7195747812248
 20
83.94043534922262
 30
0.0
 10
217.6825130404583
 20
83.45720670355976
 30
0.0
 10
217.6470382549046
 20
83.3034094932065
 30
0.0
 10
217.6260386351284
 20
83.21236784518388
 30
0.0
  0
SPLINE
  5
1B6
330
1F
100
AcDbEntity
  8
0
  6
Continuous
 62
     7
370
    25
100
AcDbSpline
210
0.0
220
0.0
230
1.0
 70
     8
 71
     3
 72
     9
 73
     5
 74
     0
 42
0.00000001
 43
0.00000001
 40
0.0
 40
0.0
 40
0.0
 40
0.0
 40
0.5551829690770672
 40
1.0
 40
1.0
 40
1.0
 40
1.0
 10
224.8210815215259
 20
83.38782080633301
 30
0.0
 10
225.171335980274
 20
83.37482178584195
 30
0.0
 10
225.8022171100218
 20
83.35140784626691
 30
0.0
 10
226.6516337412207
 20
83.25517420691521
 30
0.0
 10
227.0294687251272
 20
83.21236784518388
 30
0.0
  0
SPLINE
  5
1B7
330
1F
100
AcDbEntity
  8
0
  6
Continuous
 62
     7
370
    25
100
AcDbSpline
210
0.0
220
0.0
230
1.0
 70
     8
 71
     3
 72
    13
 73
     9
 74
     0
 42
0.00000001
 43
0.00000001
 40
0.0
 40
0.0
 40
0.0
 40
0.0
 40
0.3327087167328941
 40
0.5628656559531299
 40
0.69871241253847
 40
0.8016200683166478
 40
0.9052998751809794
 40
1.0
 40
1.0
 40
1.0
 40
1.0
 10
227.0294687251272
 20
83.21236784518388
 30
0.0
 10
227.0093359012201
 20
83.29815342010204
 30
0.0
 10
226.9752758524005
 20
83.44328263214004
 30
0.0
 10
226.9391900010303
 20
83.89364932856732
 30
0.0
 10
226.9201512779416
 20
84.2933904771732
 30
0.0
 10
226.9118777439891
 20
84.64928272358475
 30
0.0
 10
226.9112014817987
 20
84.99671657061897
 30
0.0
 10
226.9163912925665
 20
85.19879544179807
 30
0.0
 10
226.9188687393694
 20
85.29526131998222
 30
0.0
  0
SPLINE
  5
1B8
330
1F
100
AcDbEntity
  8
0
  6
Continuous
 62
     7
370
    25
100
AcDbSpline
210
0.0
220
0.0
230
1.0
 70
     8
 71
     3
 72
    13
 73
     9
 74
     0
 42
0.00000001
 43
0.00000001
 40
0.0
 40
0.0
 40
0.0
 40
0.0
 40
0.1400312919410834
 40
0.2800978778503041
 40
0.4240602241121907
 40
0.5680316995452359
 40
0.7822812815056388
 40
0.9999999999999999
 40
0.9999999999999999
 40
0.9999999999999999
 40
0.9999999999999999
 10
220.0535311486229
 20
78.77570400526156
 30
0.0
 10
219.9646855283137
 20
79.09382962540218
 30
0.0
 10
219.7869718947396
 20
79.73016104715818
 30
0.0
 10
219.4327558757412
 20
80.56326913858162
 30
0.0
 10
219.0415799499281
 20
81.30556591328448
 30
0.0
 10
218.5668071866605
 20
82.04402428508065
 30
0.0
 10
218.0264570031394
 20
82.72717890976291
 30
0.0
 10
217.7479963837158
 20
83.01774406610251
 30
0.0
 10
217.6076479156726
 20
83.16419340835927
 30
0.0
  0
ELLIPSE
  5
1B9
330
1F
100
AcDbEntity
  8
0
  6
Continuous
 62
     7
370
    25
100
AcDbEllipse
 10
217.7694327594
 20
64.3148135591
 30
0.0
 11
0.0
 21
19.07300724724768
 31
0.0
210
0.0
220
0.0
230
1.0
 40
0.0555555556
 41
0.1357435643135846
 42
0.1532827087060913
  0
ELLIPSE
  5
1BA
330
1F
100
AcDbEntity
  8
0
  6
Continuous
 62
     7
370
    25
100
AcDbEllipse
 10
226.8860746009
 20
64.3148135591
 30
0.0
 11
0.0
 21
19.07300724724768
 31
0.0
210
0.0
220
0.0
230
1.0
 40
0.0555555556
 41
6.129902598473738
 42
6.147441742866246
  0
SPLINE
  5
1BB
330
1F
100
AcDbEntity
  8
0
  6
Continuous
 62
     7
370
    25
100
AcDbSpline
210
0.0
220
0.0
230
1.0
 70
     8
 71
     3
 72
    13
 73
     9
 74
     0
 42
0.00000001
 43
0.00000001
 40
0.0
 40
0.0
 40
0.0
 40
0.0
 40
0.1374692963454099
 40
0.2749820892813126
 40
0.4163021045260215
 40
0.5576318202769774
 40
0.777008491451321
 40
1.0
 40
1.0
 40
1.0
 40
1.0
 10
227.047859444583
 20
83.16419340835927
 30
0.0
 10
226.9645809649671
 20
83.07795299893037
 30
0.0
 10
226.7979976556337
 20
82.90544489278825
 30
0.0
 10
226.4522974824049
 20
82.50646281946526
 30
0.0
 10
226.0687331677135
 20
82.00615340799298
 30
0.0
 10
225.593475452115
 20
81.27733293639027
 30
0.0
 10
225.0473726841963
 20
80.2611139861886
 30
0.0
 10
224.7512483024034
 20
79.27353069988506
 30
0.0
 10
224.6019762126808
 20
78.77570400952914
 30
0.0
  0
LINE
  5
1BC
330
1F
100
AcDbEntity
  8
0
  6
Continuous
 62
     7
370
    25
100
AcDbLine
 10
220.0535311486
 20
78.7757040053
 30
0.0
 11
224.6019762127
 21
78.7757040095
 31
0.0
  0
LINE
  5
1BD
330
1F
100
AcDbEntity
  8
0
  6
Continuous
 62
     7
370
    25
100
AcDbLine
 10
217.1033247261
 20
88.8878208063
 30
0.0
 11
217.6218623934
 21
88.8878208063
 31
0.0
  0
ARC
  5
1BE
330
1F
100
AcDbEntity
  8
0
  6
Continuous
 62
     7
370
    25
100
AcDbCircle
 10
210.8277536801
 20
76.5096435246
 30
0.0
 40
9.499999999999995
100
AcDbArc
 50
44.4654416734
 51
48.6553876907
  0
LINE
  5
1BF
330
1F
100
AcDbEntity
  8
0
  6
Continuous
 62
     7
370
    25
100
AcDbLine
 10
217.1033247261
 20
83.641768597
 30
0.0
 11
217.1033247261
 21
88.8878208063
 31
0.0
  0
LINE
  5
1C0
330
1F
100
AcDbEntity
  8
0
  6
Continuous
 62
     7
370
    25
100
AcDbLine
 10
227.5521826342
 20
88.8878208063
 30
0.0
 11
227.5521826342
 21
83.641768597
 31
0.0
  0
ARC
  5
1C1
330
1F
100
AcDbEntity
  8
0
  6
Continuous
 62
     7
370
    25
100
AcDbCircle
 10
233.8277536801
 20
76.5096435246
 30
0.0
 40
9.50000000000001
100
AcDbArc
 50
131.3446123093
 51
135.5345583266
  0
LINE
  5
1C2
330
1F
100
AcDbEntity
  8
0
  6
Continuous
 62
     7
370
    25
100
AcDbLine
 10
227.0336449669
 20
88.8878208063
 30
0.0
 11
227.5521826342
 21
88.8878208063
 31
0.0
  0
ARC
  5
1C3
330
1F
100
AcDbEntity
  8
0
  6
Continuous
 62
     7
370
    25
100
AcDbCircle
 10
226.0533364789
 20
88.8889746525
 30
0.0
 40
1.498846599345466
100
AcDbArc
 50
359.9558924033
 51
89.9558243884
  0
LINE
  5
1C4
330
1F
100
AcDbEntity
  8
0
  6
Continuous
 62
     7
370
    25
100
AcDbLine
 10
226.0544921044
 20
90.3878208063
 30
0.0
 11
225.4202849219
 21
90.3878208063
 31
0.0
  0
ARC
  5
1C5
330
1F
100
AcDbEntity
  8
0
  6
Continuous
 62
     7
370
    25
100
AcDbCircle
 10
218.6021708813
 20
88.8889746525
 30
0.0
 40
1.49884659934552
100
AcDbArc
 50
90.0441756116
 51
180.0441075967
  0
LINE
  5
1C6
330
1F
100
AcDbEntity
  8
0
  6
Continuous
 62
     7
370
    25
100
AcDbLine
 10
219.2352224383
 20
90.3878208063
 30
0.0
 11
218.6010152559
 21
90.3878208063
 31
0.0
  0
LINE
  5
1C7
330
1F
100
AcDbEntity
  8
0
  6
Continuous
 62
     7
370
    25
100
AcDbLine
 10
219.7675528794
 20
90.8178858348
 30
0.0
 11
219.7297677954
 21
90.8653481797
 31
0.0
  0
LINE
  5
1C8
330
1F
100
AcDbEntity
  8
0
  6
Continuous
 62
     7
370
    25
100
AcDbLine
 10
224.9257395649
 20
90.8653481797
 30
0.0
 11
224.8879544809
 21
90.8178858348
 31
0.0
  0
ELLIPSE
  5
1C9
330
1F
100
AcDbEntity
  8
0
  6
Continuous
 62
     7
370
    25
100
AcDbEllipse
 10
223.3035024435
 20
93.6878208063
 30
0.0
 11
1.500207016110437
 21
0.02894030982645291
 31
0.0
210
0.0
220
0.0
230
1.0
 40
0.2796306798
 41
6.257897524076023
 42
6.352579583335827
  0
LINE
  5
1CA
330
1F
100
AcDbEntity
  8
0
  6
Continuous
 62
     7
370
    25
100
AcDbLine
 10
217.1111223676
 20
83.6348661741
 30
0.0
 11
217.1033247261
 21
83.641768597
 31
0.0
  0
LINE
  5
1CB
330
1F
100
AcDbEntity
  8
0
  6
Continuous
 62
     7
370
    25
100
AcDbLine
 10
227.5521826342
 20
83.641768597
 30
0.0
 11
227.5443849927
 21
83.6348661741
 31
0.0
  0
SPLINE
  5
1CC
330
1F
100
AcDbEntity
  8
0
  6
Continuous
 62
     7
370
    25
100
AcDbSpline
210
0.0
220
0.0
230
1.0
 70
     8
 71
     3
 72
     9
 73
     5
 74
     0
 42
0.00000001
 43
0.00000001
 40
0.0
 40
0.0
 40
0.0
 40
0.0
 40
0.0576289627817999
 40
1.0
 40
1.0
 40
1.0
 40
1.0
 10
224.0902672306557
 20
78.77570400904902
 30
0.0
 10
224.0854111585599
 20
78.75820073603066
 30
0.0
 10
224.0011467216977
 20
78.45447718846934
 30
0.0
 10
223.9541885985265
 20
78.11189699403222
 30
0.0
 10
223.9099366232878
 20
77.7890593408701
 30
0.0
  0
SPLINE
  5
1CD
330
1F
100
AcDbEntity
  8
0
  6
Continuous
 62
     7
370
    25
100
AcDbSpline
210
0.0
220
0.0
230
1.0
 70
     8
 71
     3
 72
    10
 73
     6
 74
     0
 42
0.00000001
 43
0.00000001
 40
0.0
 40
0.0
 40
0.0
 40
0.0
 40
0.2746918501531821
 40
0.5573359346812419
 40
1.0
 40
1.0
 40
1.0
 40
1.0
 10
223.9099366232878
 20
77.7890593408701
 30
0.0
 10
223.6253158649335
 20
77.84228338403321
 30
0.0
 10
223.04783467538
 20
77.95027228806251
 30
0.0
 10
221.9688167322133
 20
77.99205836130105
 30
0.0
 10
221.2091836877806
 20
77.86599642077054
 30
0.0
 10
220.7455707369678
 20
77.78905934087008
 30
0.0
  0
LINE
  5
1CE
330
1F
100
AcDbEntity
  8
0
  6
Continuous
 62
     7
370
    25
100
AcDbLine
 10
220.745570737
 20
77.7890593409
 30
0.0
 11
220.5303359512
 21
78.7757040057
 31
0.0
  0
LINE
  5
1CF
330
1F
100
AcDbEntity
  8
0
  6
Continuous
 62
     7
370
    25
100
AcDbLine
 10
214.1477536801
 20
75.6878208063
 30
0.0
 11
223.3277536801
 21
75.6878208063
 31
0.0
  0
LWPOLYLINE
  5
1D0
330
1F
100
AcDbEntity
  8
0
  6
Continuous
 62
     7
370
    25
100
AcDbPolyline
 90
        3
 70
   128
 43
0.0
 10
214.209108473
 20
75.6878208063
 10
214.3025921491
 20
74.7600766169
 10
214.3451210155
 20
74.3380689468
  0
LINE
  5
1D1
330
1F
100
AcDbEntity
  8
0
  6
Continuous
 62
     7
370
    25
100
AcDbLine
 10
223.3277536801
 20
74.3380689468
 30
0.0
 11
223.3277536801
 21
75.6878208063
 31
0.0
  0
LINE
  5
1D2
330
1F
100
AcDbEntity
  8
0
  6
Continuous
 62
     7
370
    25
100
AcDbLine
 10
214.7691447894
 20
91.8878208063
 30
0.0
 11
219.7679283431
 21
91.8878208063
 31
0.0
  0
LINE
  5
1D3
330
1F
100
AcDbEntity
  8
0
  6
Continuous
 62
     7
370
    25
100
AcDbLine
 10
224.8875790172
 20
91.8878208063
 30
0.0
 11
229.8863625704
 21
91.8878208063
 31
0.0
  0
SPLINE
  5
1D4
330
1F
100
AcDbEntity
  8
0
  6
Continuous
 62
     7
370
    25
100
AcDbSpline
210
0.0
220
0.0
230
1.0
 70
     8
 71
     3
 72
    12
 73
     8
 74
     0
 42
0.00000001
 43
0.00000001
 40
0.0
 40
0.0
 40
0.0
 40
0.0
 40
0.2271543139929597
 40
0.4542742953683958
 40
0.6823371405829708
 40
0.9121899191033218
 40
1.0
 40
1.0
 40
1.0
 40
1.0
 10
214.3451210154824
 20
74.33806894682252
 30
0.0
 10
214.3562249606807
 20
74.28294913992814
 30
0.0
 10
214.378431172802
 20
74.17271785707187
 30
0.0
 10
214.4789273843406
 20
74.03286379748346
 30
0.0
 10
214.616389659171
 20
73.9326154083979
 30
0.0
 10
214.7473632425272
 20
73.89168671782315
 30
0.0
 10
214.825256226342
 20
73.88865801633382
 30
0.0
 10
214.8467878250394
 20
73.88782080633301
 30
0.0
  0
LINE
  5
1D5
330
1F
100
AcDbEntity
  8
0
  6
Continuous
 62
     7
370
    25
100
AcDbLine
 10
229.8752598991
 20
73.8878208063
 30
0.0
 11
223.3277536801
 21
73.8878208063
 31
0.0
  0
SPLINE
  5
1D6
330
1F
100
AcDbEntity
  8
0
  6
Continuous
 62
     7
370
    25
100
AcDbSpline
210
0.0
220
0.0
230
1.0
 70
    24
 71
     3
 72
    12
 73
     8
 74
     0
 42
0.00000001
 43
0.00000001
 40
0.0
 40
0.0
 40
0.0
 40
0.0
 40
0.2316347876629375
 40
0.46330664808196
 40
0.6939442291381526
 40
0.9227406525226395
 40
1.0
 40
1.0
 40
1.0
 40
1.0
 10
223.3277536801278
 20
73.88782080633301
 30
0.0
 10
223.3277536801278
 20
73.89341027136328
 30
0.0
 10
223.3277536801278
 20
73.90459009600825
 30
0.0
 10
223.3277536801278
 20
73.99191316196392
 30
0.0
 10
223.3277536801278
 20
74.12022333574598
 30
0.0
 10
223.3277536801278
 20
74.24490276244379
 30
0.0
 10
223.3277536801278
 20
74.31929077119709
 30
0.0
 10
223.3277536801278
 20
74.33806894682252
 30
0.0
  0
SPLINE
  5
1D7
330
1F
100
AcDbEntity
  8
0
  6
Continuous
 62
     7
370
    25
100
AcDbSpline
210
0.0
220
0.0
230
1.0
 70
     8
 71
     3
 72
    11
 73
     7
 74
     0
 42
0.00000001
 43
0.00000001
 40
0.0
 40
0.0
 40
0.0
 40
0.0
 40
0.2981995125517625
 40
0.5964325929955623
 40
0.8933636912282922
 40
1.0
 40
1.0
 40
1.0
 40
1.0
 10
216.4116738970282
 20
73.88782080633301
 30
0.0
 10
216.5276963886365
 20
73.89901757193863
 30
0.0
 10
216.759754432339
 20
73.92141236355374
 30
0.0
 10
217.0616582825072
 20
74.10076128969786
 30
0.0
 10
217.2616054109271
 20
74.29890798326716
 30
0.0
 10
217.3139282079858
 20
74.44652440511868
 30
0.0
 10
217.3277536801278
 20
74.48552971146185
 30
0.0
  0
LINE
  5
1D8
330
1F
100
AcDbEntity
  8
0
  6
Continuous
 62
     7
370
    25
100
AcDbLine
 10
217.3277536801
 20
73.8878208063
 30
0.0
 11
216.411673897
 21
73.8878208063
 31
0.0
  0
LINE
  5
1D9
330
1F
100
AcDbEntity
  8
0
  6
Continuous
 62
     7
370
    25
100
AcDbLine
 10
214.846787825
 20
73.8878208063
 30
0.0
 11
216.411673897
 21
73.8878208063
 31
0.0
  0
LINE
  5
1DA
330
1F
100
AcDbEntity
  8
0
  6
Continuous
 62
     7
370
    25
100
AcDbLine
 10
221.5277536801
 20
75.3878208063
 30
0.0
 11
223.1277536801
 21
75.3878208063
 31
0.0
  0
ARC
  5
1DB
330
1F
100
AcDbEntity
  8
0
  6
Continuous
 62
     7
370
    25
100
AcDbCircle
 10
222.3277536801
 20
54.6878208063
 30
0.0
 40
15.25
100
AcDbArc
 50
124.9480137199
 51
145.0519862801
  0
SPLINE
  5
1DC
330
1F
100
AcDbEntity
  8
0
  6
Continuous
 62
     7
370
    25
100
AcDbSpline
210
0.0
220
0.0
230
1.0
 70
    24
 71
     3
 72
    10
 73
     6
 74
     0
 42
0.00000001
 43
0.00000001
 40
0.0
 40
0.0
 40
0.0
 40
0.0
 40
0.5
 40
0.5
 40
1.0
 40
1.0
 40
1.0
 40
1.0
 10
213.5920510752997
 20
67.18782080633301
 30
0.0
 10
215.0041080062115
 20
67.18782080633301
 30
0.0
 10
216.4508909300893
 20
67.18782080633301
 30
0.0
 10
219.3642205765645
 20
67.18782080633301
 30
0.0
 10
220.8361790324205
 20
67.18782080633301
 30
0.0
 10
222.3277536801278
 20
67.18782080633301
 30
0.0
  0
ARC
  5
1DD
330
1F
100
AcDbEntity
  8
0
  6
Continuous
 62
     7
370
    25
100
AcDbCircle
 10
222.3277536801
 20
54.6878208063
 30
0.0
 40
12.50000000000003
100
AcDbArc
 50
90.0
 51
180.0
  0
SPLINE
  5
1DE
330
1F
100
AcDbEntity
  8
0
  6
Continuous
 62
     7
370
    25
100
AcDbSpline
210
0.0
220
0.0
230
1.0
 70
    24
 71
     3
 72
    12
 73
     8
 74
     0
 42
0.00000001
 43
0.00000001
 40
0.0
 40
0.0
 40
0.0
 40
0.0
 40
0.25
 40
0.25
 40
0.5
 40
0.5
 40
1.0
 40
1.0
 40
1.0
 40
1.0
 10
209.8277536801278
 20
54.68782080633301
 30
0.0
 10
209.8277536801278
 20
55.43316701860733
 30
0.0
 10
209.8277536801278
 20
56.18499386847635
 30
0.0
 10
209.8277536801278
 20
57.66569432965163
 30
0.0
 10
209.8277536801278
 20
58.39866593425366
 30
0.0
 10
209.8277536801278
 20
60.57921005520965
 30
0.0
 10
209.8277536801278
 20
62.00865365421887
 30
0.0
 10
209.8277536801278
 20
63.42352341116109
 30
0.0
  0
ARC
  5
1DF
330
1F
100
AcDbEntity
  8
0
  6
Continuous
 62
     7
370
    25
100
AcDbCircle
 10
222.3277536801
 20
54.6878208063
 30
0.0
 40
15.25
100
AcDbArc
 50
214.9480137199
 51
235.0519862801
  0
SPLINE
  5
1E0
330
1F
100
AcDbEntity
  8
0
  6
Continuous
 62
     7
370
    25
100
AcDbSpline
210
0.0
220
0.0
230
1.0
 70
    24
 71
     3
 72
    10
 73
     6
 74
     0
 42
0.00000001
 43
0.00000001
 40
0.0
 40
0.0
 40
0.0
 40
0.0
 40
0.4999999999999999
 40
0.4999999999999999
 40
1.0
 40
1.0
 40
1.0
 40
1.0
 10
209.8277536801278
 20
45.95211820150495
 30
0.0
 10
209.8277536801278
 20
47.36417513241672
 30
0.0
 10
209.8277536801278
 20
48.81095805629457
 30
0.0
 10
209.8277536801278
 20
51.72428770276976
 30
0.0
 10
209.8277536801278
 20
53.19624615862574
 30
0.0
 10
209.8277536801278
 20
54.68782080633301
 30
0.0
  0
ARC
  5
1E1
330
1F
100
AcDbEntity
  8
0
  6
Continuous
 62
     7
370
    25
100
AcDbCircle
 10
222.3277536801
 20
54.6878208063
 30
0.0
 40
12.50000000000003
100
AcDbArc
 50
180.0
 51
270.0
  0
SPLINE
  5
1E2
330
1F
100
AcDbEntity
  8
0
  6
Continuous
 62
     7
370
    25
100
AcDbSpline
210
0.0
220
0.0
230
1.0
 70
    24
 71
     3
 72
    10
 73
     6
 74
     0
 42
0.00000001
 43
0.00000001
 40
0.0
 40
0.0
 40
0.0
 40
0.0
 40
0.5
 40
0.5
 40
1.0
 40
1.0
 40
1.0
 40
1.0
 10
213.5920510752997
 20
42.18782080633301
 30
0.0
 10
215.0041080062111
 20
42.18782080633301
 30
0.0
 10
216.4508909300886
 20
42.18782080633301
 30
0.0
 10
219.3642205765638
 20
42.18782080633301
 30
0.0
 10
220.83617903242
 20
42.187820806333
 30
0.0
 10
222.3277536801278
 20
42.187820806333
 30
0.0
  0
ARC
  5
1E3
330
1F
100
AcDbEntity
  8
0
  6
Continuous
 62
     7
370
    25
100
AcDbCircle
 10
222.3277536801
 20
54.6878208063
 30
0.0
 40
12.5
100
AcDbArc
 50
0.0
 51
90.0
  0
ARC
  5
1E4
330
1F
100
AcDbEntity
  8
0
  6
Continuous
 62
     7
370
    25
100
AcDbCircle
 10
222.3277536801
 20
54.6878208063
 30
0.0
 40
12.50000000000001
100
AcDbArc
 50
270.0
 51
0.0
  0
ARC
  5
1E5
330
1F
100
AcDbEntity
  8
0
  6
Continuous
 62
     7
370
    25
100
AcDbCircle
 10
222.3277536801
 20
54.6878208063
 30
0.0
 40
15.25
100
AcDbArc
 50
34.9480137199
 51
55.0519862801
  0
SPLINE
  5
1E6
330
1F
100
AcDbEntity
  8
0
  6
Continuous
 62
     7
370
    25
100
AcDbSpline
210
0.0
220
0.0
230
1.0
 70
    24
 71
     3
 72
    12
 73
     8
 74
     0
 42
0.00000001
 43
0.00000001
 40
0.0
 40
0.0
 40
0.0
 40
0.0
 40
0.2500000000000001
 40
0.2500000000000001
 40
0.5000000000000001
 40
0.5000000000000001
 40
1.0
 40
1.0
 40
1.0
 40
1.0
 10
234.8277536801278
 20
54.68782080633301
 30
0.0
 10
234.8277536801278
 20
55.43316701860732
 30
0.0
 10
234.8277536801278
 20
56.18499386847635
 30
0.0
 10
234.8277536801278
 20
57.66569432965163
 30
0.0
 10
234.8277536801278
 20
58.39866593425366
 30
0.0
 10
234.8277536801278
 20
60.57921005520965
 30
0.0
 10
234.8277536801278
 20
62.00865365421887
 30
0.0
 10
234.8277536801278
 20
63.42352341116109
 30
0.0
  0
SPLINE
  5
1E7
330
1F
100
AcDbEntity
  8
0
  6
Continuous
 62
     7
370
    25
100
AcDbSpline
210
0.0
220
0.0
230
1.0
 70
    24
 71
     3
 72
    12
 73
     8
 74
     0
 42
0.00000001
 43
0.00000001
 40
0.0
 40
0.0
 40
0.0
 40
0.0
 40
0.2500000000000001
 40
0.2500000000000001
 40
0.5000000000000001
 40
0.5000000000000001
 40
1.0
 40
1.0
 40
1.0
 40
1.0
 10
222.3277536801278
 20
67.18782080633301
 30
0.0
 10
223.0730998924021
 20
67.18782080633301
 30
0.0
 10
223.8249267422711
 20
67.18782080633301
 30
0.0
 10
225.3056272034464
 20
67.18782080633301
 30
0.0
 10
226.0385988080484
 20
67.18782080633301
 30
0.0
 10
228.2191429290044
 20
67.18782080633301
 30
0.0
 10
229.6485865280137
 20
67.18782080633301
 30
0.0
 10
231.0634562849559
 20
67.18782080633301
 30
0.0
  0
SPLINE
  5
1E8
330
1F
100
AcDbEntity
  8
0
  6
Continuous
 62
     7
370
    25
100
AcDbSpline
210
0.0
220
0.0
230
1.0
 70
    24
 71
     3
 72
    10
 73
     6
 74
     0
 42
0.00000001
 43
0.00000001
 40
0.0
 40
0.0
 40
0.0
 40
0.0
 40
0.5
 40
0.5
 40
1.0
 40
1.0
 40
1.0
 40
1.0
 10
234.8277536801278
 20
45.95211820150495
 30
0.0
 10
234.8277536801278
 20
47.36417513241672
 30
0.0
 10
234.8277536801278
 20
48.81095805629457
 30
0.0
 10
234.8277536801278
 20
51.72428770276976
 30
0.0
 10
234.8277536801278
 20
53.19624615862574
 30
0.0
 10
234.8277536801278
 20
54.68782080633301
 30
0.0
  0
ARC
  5
1E9
330
1F
100
AcDbEntity
  8
0
  6
Continuous
 62
     7
370
    25
100
AcDbCircle
 10
222.3277536801
 20
54.6878208063
 30
0.0
 40
15.25
100
AcDbArc
 50
304.9480137199
 51
325.0519862801
  0
SPLINE
  5
1EA
330
1F
100
AcDbEntity
  8
0
  6
Continuous
 62
     7
370
    25
100
AcDbSpline
210
0.0
220
0.0
230
1.0
 70
    24
 71
     3
 72
    12
 73
     8
 74
     0
 42
0.00000001
 43
0.00000001
 40
0.0
 40
0.0
 40
0.0
 40
0.0
 40
0.2500000000000001
 40
0.2500000000000001
 40
0.5000000000000001
 40
0.5000000000000001
 40
1.0
 40
1.0
 40
1.0
 40
1.0
 10
222.3277536801278
 20
42.187820806333
 30
0.0
 10
223.0730998924028
 20
42.18782080633301
 30
0.0
 10
223.8249267422718
 20
42.187820806333
 30
0.0
 10
225.3056272034465
 20
42.187820806333
 30
0.0
 10
226.0385988080484
 20
42.187820806333
 30
0.0
 10
228.2191429290041
 20
42.18782080633299
 30
0.0
 10
229.6485865280134
 20
42.187820806333
 30
0.0
 10
231.0634562849558
 20
42.187820806333
 30
0.0
  0
LINE
  5
1EB
330
1F
100
AcDbEntity
  8
0
  6
Continuous
 62
     7
370
    25
100
AcDbLine
 10
230.5777536801
 20
72.8878208063
 30
0.0
 11
214.0777536801
 21
72.8878208063
 31
0.0
  0
LINE
  5
1EC
330
1F
100
AcDbEntity
  8
0
  6
Continuous
 62
     7
370
    25
100
AcDbLine
 10
214.5777536801
 20
73.3878208063
 30
0.0
 11
230.0777536801
 21
73.3878208063
 31
0.0
  0
SPLINE
  5
1ED
330
1F
100
AcDbEntity
  8
0
  6
Continuous
 62
     7
370
    25
100
AcDbSpline
210
0.0
220
0.0
230
1.0
 70
     8
 71
     3
 72
    11
 73
     7
 74
     0
 42
0.00000001
 43
0.00000001
 40
0.0
 40
0.0
 40
0.0
 40
0.0
 40
0.2843931288920266
 40
0.5687862577840547
 40
0.8531793866760868
 40
0.9999999999999999
 40
0.9999999999999999
 40
0.9999999999999999
 40
0.9999999999999999
 10
223.9058664694412
 20
93.70614467014852
 30
0.0
 10
223.8933999458258
 20
93.79620729099695
 30
0.0
 10
223.868466898595
 20
93.9763325326938
 30
0.0
 10
223.7050135398649
 20
94.19859513610749
 30
0.0
 10
223.5156716013586
 20
94.33789926924457
 30
0.0
 10
223.3800220503799
 20
94.35653969458401
 30
0.0
 10
223.3338357897809
 20
94.36288642803201
 30
0.0
  0
LINE
  5
1EE
330
1F
100
AcDbEntity
  8
0
  6
Continuous
 62
     7
370
    25
100
AcDbLine
 10
219.7297677954
 20
90.8653481797
 30
0.0
 11
219.72229701
 21
90.8747323322
 31
0.0
  0
ELLIPSE
  5
1EF
330
1F
100
AcDbEntity
  8
0
  6
Continuous
 62
     7
370
    25
100
AcDbEllipse
 10
221.3520049168
 20
93.6878208063
 30
0.0
 11
1.500207016110437
 21
-0.02894030982646712
 31
0.0
210
0.0
220
0.0
230
1.0
 40
0.2796306798
 41
3.07223995622083
 42
3.16688043669349
  0
LINE
  5
1F0
330
1F
100
AcDbEntity
  8
0
  6
Continuous
 62
     7
370
    25
100
AcDbLine
 10
217.1033247261
 20
88.8878208063
 30
0.0
 11
217.1010152559
 21
88.8878208063
 31
0.0
  0
LINE
  5
1F1
330
1F
100
AcDbEntity
  8
0
  6
Continuous
 62
     7
370
    25
100
AcDbLine
 10
227.5544921044
 20
88.8878208063
 30
0.0
 11
227.5521826342
 21
88.8878208063
 31
0.0
  0
LINE
  5
1F2
330
1F
100
AcDbEntity
  8
0
  6
Continuous
 62
     7
370
    25
100
AcDbLine
 10
217.1010152559
 20
83.7758963921
 30
0.0
 11
213.3389461216
 21
83.7758963921
 31
0.0
  0
LINE
  5
1F3
330
1F
100
AcDbEntity
  8
0
  6
Continuous
 62
     7
370
    25
100
AcDbLine
 10
231.3165612387
 20
83.7758963921
 30
0.0
 11
227.5544921044
 21
83.7758963921
 31
0.0
  0
LINE
  5
1F4
330
1F
100
AcDbEntity
  8
0
  6
Continuous
 62
     7
370
    25
100
AcDbLine
 10
223.3277536801
 20
74.3380689468
 30
0.0
 11
230.3727784942
 21
74.3380689468
 31
0.0
  0
LINE
  5
1F5
330
1F
100
AcDbEntity
  8
0
  6
Continuous
 62
     7
370
    25
100
AcDbLine
 10
227.5544921044
 20
83.9994348457
 30
0.0
 11
231.3138019252
 21
83.9994348457
 31
0.0
  0
LINE
  5
1F6
330
1F
100
AcDbEntity
  8
0
  6
Continuous
 62
     7
370
    25
100
AcDbLine
 10
213.341705435
 20
83.9994348457
 30
0.0
 11
217.1010152559
 21
83.9994348457
 31
0.0
  0
LINE
  5
1F7
330
1F
100
AcDbEntity
  8
0
  6
Continuous
 62
     7
370
    25
100
AcDbLine
 10
230.3825015092
 20
91.4498381736
 30
0.0
 11
224.9076536617
 21
91.4498381736
 31
0.0
  0
LINE
  5
1F8
330
1F
100
AcDbEntity
  8
0
  6
Continuous
 62
     7
370
    25
100
AcDbLine
 10
219.7478536986
 20
91.4498381736
 30
0.0
 11
214.273005851
 21
91.4498381736
 31
0.0
  0
LINE
  5
1F9
330
1F
100
AcDbEntity
  8
0
  6
Continuous
 62
     7
370
    25
100
AcDbLine
 10
223.3277536801
 20
75.1878208063
 30
0.0
 11
221.3277536801
 21
75.1878208063
 31
0.0
  0
LINE
  5
1FA
330
1F
100
AcDbEntity
  8
0
  6
Continuous
 62
     7
370
    25
100
AcDbLine
 10
214.0777536801
 20
67.4378208063
 30
0.0
 11
230.5777536801
 21
67.4378208063
 31
0.0
  0
INSERT
  5
206
330
1F
100
AcDbEntity
  8
0
  6
Continuous
 62
     7
370
    18
100
AcDbBlockReference
  2
SW_CENTERMARKSYMBOL_0
 10
222.3277536801
 20
54.6878208063
 30
0.0
  0
LINE
  5
207
330
1F
100
AcDbEntity
  8
0
  6
Continuous
 62
     7
370
    25
100
AcDbLine
 10
136.0998509222
 20
145.8442673971
 30
0.0
 11
135.8498509222
 21
145.5942673971
 31
0.0
  0
LINE
  5
208
330
1F
100
AcDbEntity
  8
0
  6
Continuous
 62
     7
370
    25
100
AcDbLine
 10
135.8498509222
 20
122.0942673971
 30
0.0
 11
136.0998509222
 21
121.8442673971
 31
0.0
  0
LINE
  5
209
330
1F
100
AcDbEntity
  8
0
  6
Continuous
 62
     7
370
    25
100
AcDbLine
 10
138.8498509222
 20
145.8442673971
 30
0.0
 11
136.0998509222
 21
145.8442673971
 31
0.0
  0
LINE
  5
20A
330
1F
100
AcDbEntity
  8
0
  6
Continuous
 62
     7
370
    25
100
AcDbLine
 10
136.0998509222
 20
121.8442673971
 30
0.0
 11
138.8498509222
 21
121.8442673971
 31
0.0
  0
LINE
  5
20B
330
1F
100
AcDbEntity
  8
0
  6
Continuous
 62
     7
370
    25
100
AcDbLine
 10
129.3498509222
 20
141.8442673971
 30
0.0
 11
124.8498509222
 21
141.0942673971
 31
0.0
  0
LINE
  5
20C
330
1F
100
AcDbEntity
  8
0
  6
Continuous
 62
     7
370
    25
100
AcDbLine
 10
124.8498509222
 20
126.5942673971
 30
0.0
 11
129.3498509222
 21
125.8442673971
 31
0.0
  0
LINE
  5
20D
330
1F
100
AcDbEntity
  8
0
  6
Continuous
 62
     7
370
    25
100
AcDbLine
 10
129.3498509222
 20
125.8442673971
 30
0.0
 11
135.8498509222
 21
125.8442673971
 31
0.0
  0
LINE
  5
20E
330
1F
100
AcDbEntity
  8
0
  6
Continuous
 62
     7
370
    25
100
AcDbLine
 10
135.8498509222
 20
141.8442673971
 30
0.0
 11
129.3498509222
 21
141.8442673971
 31
0.0
  0
LINE
  5
20F
330
1F
100
AcDbEntity
  8
0
  6
Continuous
 62
     7
370
    25
100
AcDbLine
 10
115.8498509222
 20
141.8442673971
 30
0.0
 11
111.3498509222
 21
141.0942673971
 31
0.0
  0
LINE
  5
210
330
1F
100
AcDbEntity
  8
0
  6
Continuous
 62
     7
370
    25
100
AcDbLine
 10
111.3498509222
 20
126.5942673971
 30
0.0
 11
115.8498509222
 21
125.8442673971
 31
0.0
  0
LINE
  5
211
330
1F
100
AcDbEntity
  8
0
  6
Continuous
 62
     7
370
    25
100
AcDbLine
 10
111.3498509222
 20
141.8442673971
 30
0.0
 11
107.2676514285
 21
141.1639008149
 31
0.0
  0
LINE
  5
212
330
1F
100
AcDbEntity
  8
0
  6
Continuous
 62
     7
370
    25
100
AcDbLine
 10
107.2676514285
 20
126.5246339794
 30
0.0
 11
111.3498509222
 21
125.8442673971
 31
0.0
  0
LINE
  5
213
330
1F
100
AcDbEntity
  8
0
  6
Continuous
 62
     7
370
    25
100
AcDbLine
 10
120.3498509222
 20
141.8442673971
 30
0.0
 11
115.8498509222
 21
141.0942673971
 31
0.0
  0
LINE
  5
214
330
1F
100
AcDbEntity
  8
0
  6
Continuous
 62
     7
370
    25
100
AcDbLine
 10
115.8498509222
 20
126.5942673971
 30
0.0
 11
120.3498509222
 21
125.8442673971
 31
0.0
  0
LINE
  5
215
330
1F
100
AcDbEntity
  8
0
  6
Continuous
 62
     7
370
    25
100
AcDbLine
 10
124.8498509222
 20
141.8442673971
 30
0.0
 11
120.3498509222
 21
141.0942673971
 31
0.0
  0
LINE
  5
216
330
1F
100
AcDbEntity
  8
0
  6
Continuous
 62
     7
370
    25
100
AcDbLine
 10
120.3498509222
 20
126.5942673971
 30
0.0
 11
124.8498509222
 21
125.8442673971
 31
0.0
  0
ARC
  5
217
330
1F
100
AcDbEntity
  8
0
  6
Continuous
 62
     7
370
    25
100
AcDbCircle
 10
107.3498509222
 20
127.0178309413
 30
0.0
 40
0.5
100
AcDbArc
 50
180.0
 51
260.537677792
  0
ARC
  5
218
330
1F
100
AcDbEntity
  8
0
  6
Continuous
 62
     7
370
    25
100
AcDbCircle
 10
107.3498509222
 20
140.6707038529
 30
0.0
 40
0.5000000000000121
100
AcDbArc
 50
99.462322208
 51
180.0
  0
LINE
  5
219
330
1F
100
AcDbEntity
  8
0
  6
Continuous
 62
     7
370
    25
100
AcDbLine
 10
101.30602553
 20
132.9742383147
 30
0.0
 11
101.3234445204
 21
132.9742383147
 31
0.0
  0
LINE
  5
21A
330
1F
100
AcDbEntity
  8
0
  6
Continuous
 62
     7
370
    25
100
AcDbLine
 10
129.8841985996
 20
138.4394257566
 30
0.0
 11
128.6919585427
 21
137.6454525182
 31
0.0
  0
LINE
  5
21B
330
1F
100
AcDbEntity
  8
0
  6
Continuous
 62
     7
370
    25
100
AcDbLine
 10
128.6919584834
 20
130.0430821686
 30
0.0
 11
129.8885777555
 21
129.246192646
 31
0.0
  0
SPLINE
  5
21C
330
1F
100
AcDbEntity
  8
0
  6
Continuous
 62
     7
370
    25
100
AcDbSpline
210
0.0
220
0.0
230
1.0
 70
     8
 71
     3
 72
    11
 73
     7
 74
     0
 42
0.00000001
 43
0.00000001
 40
0.0
 40
0.0
 40
0.0
 40
0.0
 40
0.2485427336868735
 40
0.4982459407376401
 40
0.7488347621401439
 40
1.0
 40
1.0
 40
1.0
 40
1.0
 10
128.6918787007097
 20
137.6455972342897
 30
0.0
 10
128.2705985576536
 20
137.4318320008345
 30
0.0
 10
127.4260712682116
 20
137.0033034405344
 30
0.0
 10
126.0694657009775
 20
136.5646094789211
 30
0.0
 10
124.6713685948511
 20
136.263680534427
 30
0.0
 10
123.7200126958704
 20
136.2023998503143
 30
0.0
 10
123.24378828623
 20
136.1717243085479
 30
0.0
  0
SPLINE
  5
21D
330
1F
100
AcDbEntity
  8
0
  6
Continuous
 62
     7
370
    25
100
AcDbSpline
210
0.0
220
0.0
230
1.0
 70
     8
 71
     3
 72
    10
 73
     6
 74
     0
 42
0.00000001
 43
0.00000001
 40
0.0
 40
0.0
 40
0.0
 40
0.0
 40
0.0711023749285984
 40
0.5366329433438182
 40
0.9999999999999999
 40
0.9999999999999999
 40
0.9999999999999999
 40
0.9999999999999999
 10
125.8523636133664
 20
131.1443614399383
 30
0.0
 10
125.9233380057198
 20
131.1301350863357
 30
0.0
 10
126.4590050225934
 20
131.0227641298169
 30
0.0
 10
127.4242802378773
 20
130.6762744301361
 30
0.0
 10
128.2700024752669
 20
130.2537217917775
 30
0.0
 10
128.6918787007097
 20
130.0429375599808
 30
0.0
  0
LINE
  5
21E
330
1F
100
AcDbEntity
  8
0
  6
Continuous
 62
     7
370
    25
100
AcDbLine
 10
123.2431170136
 20
136.197359176
 30
0.0
 11
101.5887259838
 21
135.6303189909
 31
0.0
  0
LINE
  5
21F
330
1F
100
AcDbEntity
  8
0
  6
Continuous
 62
     7
370
    25
100
AcDbLine
 10
101.5887295024
 20
132.0582157112
 30
0.0
 11
123.2431170136
 21
131.4911756182
 31
0.0
  0
SPLINE
  5
220
330
1F
100
AcDbEntity
  8
0
  6
Continuous
 62
     7
370
    25
100
AcDbSpline
210
0.0
220
0.0
230
1.0
 70
     8
 71
     3
 72
    12
 73
     8
 74
     0
 42
0.00000001
 43
0.00000001
 40
0.0
 40
0.0
 40
0.0
 40
0.0
 40
0.1115150608921325
 40
0.331217453687036
 40
0.5916327686929416
 40
0.8470074943174006
 40
1.0
 40
1.0
 40
1.0
 40
1.0
 10
96.55035774752918
 20
132.7593725703115
 30
0.0
 10
96.56521189161882
 20
132.7271147932918
 30
0.0
 10
96.60933106030066
 20
132.6313040688873
 30
0.0
 10
96.74053119177158
 20
132.4971065229741
 30
0.0
 10
96.92862444646768
 20
132.3736853185432
 30
0.0
 10
97.12643376681419
 20
132.2947399663064
 30
0.0
 10
97.26030069603934
 20
132.284627456212
 30
0.0
 10
97.31045319447718
 20
132.2808388607041
 30
0.0
  0
SPLINE
  5
221
330
1F
100
AcDbEntity
  8
0
  6
Continuous
 62
     7
370
    25
100
AcDbSpline
210
0.0
220
0.0
230
1.0
 70
     8
 71
     3
 72
    12
 73
     8
 74
     0
 42
0.00000001
 43
0.00000001
 40
0.0
 40
0.0
 40
0.0
 40
0.0
 40
0.0693246477020334
 40
0.2377839840805168
 40
0.4636706813782254
 40
0.7622846516911428
 40
1.0
 40
1.0
 40
1.0
 40
1.0
 10
97.3103202661336
 20
135.4078176011265
 30
0.0
 10
97.28763625932488
 20
135.4077218353704
 30
0.0
 10
97.20982997119091
 20
135.4073933582158
 30
0.0
 10
97.06396542294327
 20
135.367248482262
 30
0.0
 10
96.86772449866324
 20
135.2832882629484
 30
0.0
 10
96.67412361246517
 20
135.1429609221047
 30
0.0
 10
96.5863008518586
 20
134.9973995816075
 30
0.0
 10
96.54737548007269
 20
134.932882943126
 30
0.0
  0
SPLINE
  5
222
330
1F
100
AcDbEntity
  8
0
  6
Continuous
 62
     7
370
    25
100
AcDbSpline
210
0.0
220
0.0
230
1.0
 70
     8
 71
     3
 72
    10
 73
     6
 74
     0
 42
0.00000001
 43
0.00000001
 40
0.0
 40
0.0
 40
0.0
 40
0.0
 40
0.2238703738840361
 40
0.6229774396097713
 40
1.0
 40
1.0
 40
1.0
 40
1.0
 10
96.54523794120858
 20
134.9326973359354
 30
0.0
 10
96.51875048721855
 20
134.8726632189067
 30
0.0
 10
96.44504226945743
 20
134.7056027013985
 30
0.0
 10
96.36756522240917
 20
134.3938341789943
 30
0.0
 10
96.35564260422478
 20
134.132609029628
 30
0.0
 10
96.34985092216142
 20
134.0057129914683
 30
0.0
  0
SPLINE
  5
223
330
1F
100
AcDbEntity
  8
0
  6
Continuous
 62
     7
370
    25
100
AcDbSpline
210
0.0
220
0.0
230
1.0
 70
     8
 71
     3
 72
    10
 73
     6
 74
     0
 42
0.00000001
 43
0.00000001
 40
0.0
 40
0.0
 40
0.0
 40
0.0
 40
0.1995653511169991
 40
0.581029349357288
 40
1.0
 40
1.0
 40
1.0
 40
1.0
 10
96.34985092216142
 20
133.6828218028021
 30
0.0
 10
96.35155543144307
 20
133.6158077383104
 30
0.0
 10
96.35651806605546
 20
133.4206980257701
 30
0.0
 10
96.4082195614617
 20
133.0917966803561
 30
0.0
 10
96.4981603372857
 20
132.8712683605087
 30
0.0
 10
96.5452379412086
 20
132.7558374583351
 30
0.0
  0
LINE
  5
224
330
1F
100
AcDbEntity
  8
0
  6
Continuous
 62
     7
370
    25
100
AcDbLine
 10
96.3498509222
 20
134.0057129915
 30
0.0
 11
96.3498509222
 21
133.6828218028
 31
0.0
  0
ARC
  5
225
330
1F
100
AcDbEntity
  8
0
  6
Continuous
 62
     7
370
    25
100
AcDbCircle
 10
151.8498509222
 20
133.8442673971
 30
0.0
 40
8.993770368365603
100
AcDbArc
 50
200.7386108881
 51
90.0
  0
ARC
  5
226
330
1F
100
AcDbEntity
  8
0
  6
Continuous
 62
     7
370
    25
100
AcDbCircle
 10
151.8498509222
 20
133.8442673971
 30
0.0
 40
8.993770368365603
100
AcDbArc
 50
90.0
 51
159.2559341391
  0
LINE
  5
227
330
1F
100
AcDbEntity
  8
0
  6
Continuous
 62
     7
370
    25
100
AcDbLine
 10
164.3498509222
 20
123.1530173971
 30
0.0
 11
176.6534596492
 21
123.5375051699
 31
0.0
  0
LINE
  5
228
330
1F
100
AcDbEntity
  8
0
  6
Continuous
 62
     7
370
    25
100
AcDbLine
 10
176.6534596492
 20
144.1510296244
 30
0.0
 11
164.3498509222
 21
144.5355173971
 31
0.0
  0
LINE
  5
229
330
1F
100
AcDbEntity
  8
0
  6
Continuous
 62
     7
370
    25
100
AcDbLine
 10
176.6534596492
 20
123.5375051699
 30
0.0
 11
179.3498509222
 21
125.0942673971
 31
0.0
  0
LINE
  5
22A
330
1F
100
AcDbEntity
  8
0
  6
Continuous
 62
     7
370
    25
100
AcDbLine
 10
179.3498509222
 20
142.5942673971
 30
0.0
 11
176.6534596492
 21
144.1510296244
 31
0.0
  0
LINE
  5
22B
330
1F
100
AcDbEntity
  8
0
  6
Continuous
 62
     7
370
    25
100
AcDbLine
 10
135.8498509222
 20
122.0942673971
 30
0.0
 11
135.8498509222
 21
128.9283727012
 31
0.0
  0
LINE
  5
22C
330
1F
100
AcDbEntity
  8
0
  6
Continuous
 62
     7
370
    25
100
AcDbLine
 10
135.8498509222
 20
138.7601620931
 30
0.0
 11
135.8498509222
 21
145.5942673971
 31
0.0
  0
LINE
  5
22D
330
1F
100
AcDbEntity
  8
0
  6
Continuous
 62
     7
370
    25
100
AcDbLine
 10
136.0998509222
 20
145.8442673971
 30
0.0
 11
136.0998509222
 21
138.774050982
 31
0.0
  0
LINE
  5
22E
330
1F
100
AcDbEntity
  8
0
  6
Continuous
 62
     7
370
    25
100
AcDbLine
 10
136.0998509222
 20
128.9144838123
 30
0.0
 11
136.0998509222
 21
121.8442673971
 31
0.0
  0
LINE
  5
22F
330
1F
100
AcDbEntity
  8
0
  6
Continuous
 62
     7
370
    25
100
AcDbLine
 10
129.3498509222
 20
128.4311447852
 30
0.0
 11
129.3498509222
 21
129.5788913117
 31
0.0
  0
LINE
  5
230
330
1F
100
AcDbEntity
  8
0
  6
Continuous
 62
     7
370
    25
100
AcDbLine
 10
129.3498509222
 20
138.1133468178
 30
0.0
 11
129.3498509222
 21
141.8442673971
 31
0.0
  0
LINE
  5
231
330
1F
100
AcDbEntity
  8
0
  6
Continuous
 62
     7
370
    25
100
AcDbLine
 10
129.3498509222
 20
125.8442673971
 30
0.0
 11
129.3498509222
 21
128.4311447852
 31
0.0
  0
LINE
  5
232
330
1F
100
AcDbEntity
  8
0
  6
Continuous
 62
     7
370
    25
100
AcDbLine
 10
115.8498509222
 20
128.4311447852
 30
0.0
 11
115.8498509222
 21
131.6847751043
 31
0.0
  0
LINE
  5
233
330
1F
100
AcDbEntity
  8
0
  6
Continuous
 62
     7
370
    25
100
AcDbLine
 10
115.8498509222
 20
136.00375969
 30
0.0
 11
115.8498509222
 21
141.8442673971
 31
0.0
  0
LINE
  5
234
330
1F
100
AcDbEntity
  8
0
  6
Continuous
 62
     7
370
    25
100
AcDbLine
 10
115.8498509222
 20
125.8442673971
 30
0.0
 11
115.8498509222
 21
128.4311447852
 31
0.0
  0
LINE
  5
235
330
1F
100
AcDbEntity
  8
0
  6
Continuous
 62
     7
370
    25
100
AcDbLine
 10
111.3498509222
 20
128.4311447852
 30
0.0
 11
111.3498509222
 21
131.8026117513
 31
0.0
  0
LINE
  5
236
330
1F
100
AcDbEntity
  8
0
  6
Continuous
 62
     7
370
    25
100
AcDbLine
 10
111.3498509222
 20
135.885923043
 30
0.0
 11
111.3498509222
 21
141.8442673971
 31
0.0
  0
LINE
  5
237
330
1F
100
AcDbEntity
  8
0
  6
Continuous
 62
     7
370
    25
100
AcDbLine
 10
111.3498509222
 20
125.8442673971
 30
0.0
 11
111.3498509222
 21
128.4311447852
 31
0.0
  0
LINE
  5
238
330
1F
100
AcDbEntity
  8
0
  6
Continuous
 62
     7
370
    25
100
AcDbLine
 10
120.3498509222
 20
128.4311447852
 30
0.0
 11
120.3498509222
 21
131.5669384572
 31
0.0
  0
LINE
  5
239
330
1F
100
AcDbEntity
  8
0
  6
Continuous
 62
     7
370
    25
100
AcDbLine
 10
120.3498509222
 20
136.1215963371
 30
0.0
 11
120.3498509222
 21
141.8442673971
 31
0.0
  0
LINE
  5
23A
330
1F
100
AcDbEntity
  8
0
  6
Continuous
 62
     7
370
    25
100
AcDbLine
 10
120.3498509222
 20
125.8442673971
 30
0.0
 11
120.3498509222
 21
128.4311447852
 31
0.0
  0
LINE
  5
23B
330
1F
100
AcDbEntity
  8
0
  6
Continuous
 62
     7
370
    25
100
AcDbLine
 10
124.8498509222
 20
128.4311447852
 30
0.0
 11
124.8498509222
 21
131.3358013724
 31
0.0
  0
LINE
  5
23C
330
1F
100
AcDbEntity
  8
0
  6
Continuous
 62
     7
370
    25
100
AcDbLine
 10
124.8498509222
 20
136.3546363183
 30
0.0
 11
124.8498509222
 21
141.8442673971
 31
0.0
  0
LINE
  5
23D
330
1F
100
AcDbEntity
  8
0
  6
Continuous
 62
     7
370
    25
100
AcDbLine
 10
124.8498509222
 20
125.8442673971
 30
0.0
 11
124.8498509222
 21
128.4311447852
 31
0.0
  0
LINE
  5
23E
330
1F
100
AcDbEntity
  8
0
  6
Continuous
 62
     7
370
    25
100
AcDbLine
 10
106.8498509222
 20
129.2252252049
 30
0.0
 11
106.8498509222
 21
131.9204483984
 31
0.0
  0
LINE
  5
23F
330
1F
100
AcDbEntity
  8
0
  6
Continuous
 62
     7
370
    25
100
AcDbLine
 10
106.8498509222
 20
135.7680863959
 30
0.0
 11
106.8498509222
 21
140.6707038529
 31
0.0
  0
LINE
  5
240
330
1F
100
AcDbEntity
  8
0
  6
Continuous
 62
     7
370
    25
100
AcDbLine
 10
106.8498509222
 20
127.0178309413
 30
0.0
 11
106.8498509222
 21
129.2252252049
 31
0.0
  0
LINE
  5
241
330
1F
100
AcDbEntity
  8
0
  6
Continuous
 62
     7
370
    25
100
AcDbLine
 10
149.6123669006
 20
132.8689948521
 30
0.0
 11
149.5795713736
 21
132.8877388914
 31
0.0
  0
SPLINE
  5
242
330
1F
100
AcDbEntity
  8
0
  6
Continuous
 62
     7
370
    25
100
AcDbSpline
210
0.0
220
0.0
230
1.0
 70
     8
 71
     3
 72
    15
 73
    11
 74
     0
 42
0.00000001
 43
0.00000001
 40
0.0
 40
0.0
 40
0.0
 40
0.0
 40
0.1241930067305288
 40
0.2496556654892296
 40
0.3743703853151211
 40
0.4998404796364202
 40
0.6240146704162363
 40
0.7475381382242062
 40
0.8745858500551816
 40
1.0
 40
1.0
 40
1.0
 40
1.0
 10
150.392656622292
 20
133.141434502721
 30
0.0
 10
150.3770962271822
 20
133.1055872999771
 30
0.0
 10
150.3458163596707
 20
133.0335264207653
 30
0.0
 10
150.2683800001824
 20
132.9436509074224
 30
0.0
 10
150.1750259964435
 20
132.8713271296281
 30
0.0
 10
150.0678003904225
 20
132.8223997111235
 30
0.0
 10
149.9534144797015
 20
132.7960716576687
 30
0.0
 10
149.8357437168162
 20
132.7952125636661
 30
0.0
 10
149.718859991591
 20
132.8165953242957
 30
0.0
 10
149.6477111406963
 20
132.8516038507565
 30
0.0
 10
149.6123669006129
 20
132.8689948521379
 30
0.0
  0
LINE
  5
243
330
1F
100
AcDbEntity
  8
0
  6
Continuous
 62
     7
370
    25
100
AcDbLine
 10
151.384510667
 20
135.9150137186
 30
0.0
 11
150.3926566223
 21
133.1414345027
 31
0.0
  0
SPLINE
  5
244
330
1F
100
AcDbEntity
  8
0
  6
Continuous
 62
     7
370
    25
100
AcDbSpline
210
0.0
220
0.0
230
1.0
 70
     8
 71
     3
 72
    15
 73
    11
 74
     0
 42
0.00000001
 43
0.00000001
 40
0.0
 40
0.0
 40
0.0
 40
0.0
 40
0.1233025178081761
 40
0.2485158700387114
 40
0.3756924668130948
 40
0.4999990880429331
 40
0.6243057092728396
 40
0.7514823060473044
 40
0.8766757256079959
 40
1.0
 40
1.0
 40
1.0
 40
1.0
 10
152.3151911805131
 20
135.9150137186344
 30
0.0
 10
152.2910402085507
 20
135.9556588545701
 30
0.0
 10
152.242363994016
 20
136.037579009158
 30
0.0
 10
152.1270133358109
 20
136.1273979649705
 30
0.0
 10
151.993853713549
 20
136.1849721131316
 30
0.0
 10
151.8498510701802
 20
136.2041308088017
 30
0.0
 10
151.7058475414817
 20
136.1849727059166
 30
0.0
 10
151.5726976685162
 20
136.1273985921781
 30
0.0
 10
151.4573353109818
 20
136.0375930300314
 30
0.0
 10
151.4086635253106
 20
135.9556680985066
 30
0.0
 10
151.3845106669938
 20
135.9150137186345
 30
0.0
  0
LINE
  5
245
330
1F
100
AcDbEntity
  8
0
  6
Continuous
 62
     7
370
    25
100
AcDbLine
 10
153.3068140869
 20
133.1420808483
 30
0.0
 11
152.3151911805
 21
135.9150137186
 31
0.0
  0
SPLINE
  5
246
330
1F
100
AcDbEntity
  8
0
  6
Continuous
 62
     7
370
    25
100
AcDbSpline
210
0.0
220
0.0
230
1.0
 70
     8
 71
     3
 72
    15
 73
    11
 74
     0
 42
0.00000001
 43
0.00000001
 40
0.0
 40
0.0
 40
0.0
 40
0.0
 40
0.1253320172137755
 40
0.2522975129251765
 40
0.3758847553984062
 40
0.5001929511416483
 40
0.6255758307380151
 40
0.7502289462456482
 40
0.8757444935777828
 40
1.0
 40
1.0
 40
1.0
 40
1.0
 10
154.0795158514269
 20
132.8653849976801
 30
0.0
 10
154.0442649347989
 20
132.8487106891973
 30
0.0
 10
153.9733036689445
 20
132.815144752468
 30
0.0
 10
153.8573167781562
 20
132.7953631362139
 30
0.0
 10
153.7407204119158
 20
132.7974359165605
 30
0.0
 10
153.6275998053343
 20
132.8245139429111
 30
0.0
 10
153.5217240909948
 20
132.8737267586182
 30
0.0
 10
153.4296150063757
 20
132.9458125224921
 30
0.0
 10
153.3531833425073
 20
133.0351000439915
 30
0.0
 10
153.322218435008
 20
133.1065407144286
 30
0.0
 10
153.3068140868868
 20
133.1420808482866
 30
0.0
  0
LINE
  5
247
330
1F
100
AcDbEntity
  8
0
  6
Continuous
 62
     7
370
    25
100
AcDbLine
 10
154.1201304739
 20
132.8877388914
 30
0.0
 11
154.0795158514
 21
132.8653849977
 31
0.0
  0
LINE
  5
248
330
1F
100
AcDbEntity
  8
0
  6
Continuous
 62
     7
370
    25
100
AcDbLine
 10
153.4931472774
 20
131.6923277879
 30
0.0
 11
154.1201304739
 21
132.8877388914
 31
0.0
  0
SPLINE
  5
249
330
1F
100
AcDbEntity
  8
0
  6
Continuous
 62
     7
370
    25
100
AcDbSpline
210
0.0
220
0.0
230
1.0
 70
     8
 71
     3
 72
    15
 73
    11
 74
     0
 42
0.00000001
 43
0.00000001
 40
0.0
 40
0.0
 40
0.0
 40
0.0
 40
0.1246332186438571
 40
0.2519059530189798
 40
0.3765391000744966
 40
0.4994035903146521
 40
0.6264494152300174
 40
0.7526064410610431
 40
0.8746804377363274
 40
1.0
 40
1.0
 40
1.0
 40
1.0
 10
153.3879187886179
 20
131.6742106211826
 30
0.0
 10
153.3919332642861
 20
131.6711053863299
 30
0.0
 10
153.4000472352647
 20
131.6648291531281
 30
0.0
 10
153.4144858271013
 20
131.6592161396483
 30
0.0
 10
153.4296192770343
 20
131.6566797870215
 30
0.0
 10
153.4449818193161
 20
131.6575651905893
 30
0.0
 10
153.4599123981528
 20
131.661696261105
 30
0.0
 10
153.4734142981821
 20
131.6691869610509
 30
0.0
 10
153.4850999530685
 20
131.6793255429652
 30
0.0
 10
153.4904414774093
 20
131.687955965308
 30
0.0
 10
153.493147277411
 20
131.6923277879002
 30
0.0
  0
SPLINE
  5
24A
330
1F
100
AcDbEntity
  8
0
  6
Continuous
 62
     7
370
    25
100
AcDbSpline
210
0.0
220
0.0
230
1.0
 70
     8
 71
     3
 72
    11
 73
     7
 74
     0
 42
0.00000001
 43
0.00000001
 40
0.0
 40
0.0
 40
0.0
 40
0.0
 40
0.2506252605986011
 40
0.4999999999996215
 40
0.7493747394010042
 40
1.0
 40
1.0
 40
1.0
 40
1.0
 10
150.311783058889
 20
131.6742106211825
 30
0.0
 10
150.5415107530623
 20
131.8370649131435
 30
0.0
 10
150.9998198908253
 20
132.1619609183824
 30
0.0
 10
151.8498509237614
 20
132.2956928653195
 30
0.0
 10
152.6998819566917
 20
132.1619609183772
 30
0.0
 10
153.1581910944479
 20
131.8370649131418
 30
0.0
 10
153.3879187886179
 20
131.6742106211826
 30
0.0
  0
SPLINE
  5
24B
330
1F
100
AcDbEntity
  8
0
  6
Continuous
 62
     7
370
    25
100
AcDbSpline
210
0.0
220
0.0
230
1.0
 70
     8
 71
     3
 72
    15
 73
    11
 74
     0
 42
0.00000001
 43
0.00000001
 40
0.0
 40
0.0
 40
0.0
 40
0.0
 40
0.125319195797913
 40
0.2473928354984057
 40
0.3734492416489697
 40
0.5005950046079961
 40
0.6235484391777629
 40
0.7480947836179478
 40
0.875367145815393
 40
1.0
 40
1.0
 40
1.0
 40
1.0
 10
150.2065545700958
 20
131.6923277879002
 30
0.0
 10
150.2092603664282
 20
131.6879559596163
 30
0.0
 10
150.2146018835254
 20
131.6793255260375
 30
0.0
 10
150.2262844561145
 20
131.6691897485377
 30
0.0
 10
150.2397854361018
 20
131.6616976326641
 30
0.0
 10
150.2547194649518
 20
131.6575651873719
 30
0.0
 10
150.2700864761409
 20
131.6566772455984
 30
0.0
 10
150.2852192125791
 20
131.659218187856
 30
0.0
 10
150.2996546423608
 20
131.6648289661232
 30
0.0
 10
150.30776859319
 20
131.6711053244319
 30
0.0
 10
150.311783058889
 20
131.6742106211826
 30
0.0
  0
LINE
  5
24C
330
1F
100
AcDbEntity
  8
0
  6
Continuous
 62
     7
370
    25
100
AcDbLine
 10
149.5795713736
 20
132.8877388914
 30
0.0
 11
150.2065545701
 21
131.6923277879
 31
0.0
  0
SPLINE
  5
24D
330
1F
100
AcDbEntity
  8
0
  6
Continuous
 62
     7
370
    25
100
AcDbSpline
210
0.0
220
0.0
230
1.0
 70
     8
 71
     3
 72
    15
 73
    11
 74
     0
 42
0.00000001
 43
0.00000001
 40
0.0
 40
0.0
 40
0.0
 40
0.0
 40
0.1233867499278388
 40
0.2487396502211602
 40
0.3739317114754985
 40
0.4999973617625659
 40
0.6259591330513601
 40
0.7512551380600303
 40
0.8765613478174267
 40
1.0
 40
1.0
 40
1.0
 40
1.0
 10
151.7869680573553
 20
133.865676855278
 30
0.0
 10
151.7898462585472
 20
133.871691651361
 30
0.0
 10
151.7956485246588
 20
133.8838170884497
 30
0.0
 10
151.8111779293796
 20
133.8972083487998
 30
0.0
 10
151.829532511253
 20
133.9060860603797
 30
0.0
 10
151.8498453277359
 20
133.9088427236761
 30
0.0
 10
151.8701637454511
 20
133.9060880424755
 30
0.0
 10
151.8885166146152
 20
133.8972123441861
 30
0.0
 10
151.9040547190107
 20
133.8838219769324
 30
0.0
 10
151.909855281042
 20
133.8716948793863
 30
0.0
 10
151.9127337869675
 20
133.865676855278
 30
0.0
  0
LINE
  5
24E
330
1F
100
AcDbEntity
  8
0
  6
Continuous
 62
     7
370
    25
100
AcDbLine
 10
151.5478545316
 20
133.227422826
 30
0.0
 11
151.7869680574
 21
133.8656768553
 31
0.0
  0
SPLINE
  5
24F
330
1F
100
AcDbEntity
  8
0
  6
Continuous
 62
     7
370
    25
100
AcDbSpline
210
0.0
220
0.0
230
1.0
 70
     8
 71
     3
 72
    15
 73
    11
 74
     0
 42
0.00000001
 43
0.00000001
 40
0.0
 40
0.0
 40
0.0
 40
0.0
 40
0.1261585224210644
 40
0.2513121451548802
 40
0.3762846848783791
 40
0.4993062783340883
 40
0.6261594278645745
 40
0.7521171342021309
 40
0.8758196922692798
 40
1.0
 40
1.0
 40
1.0
 40
1.0
 10
151.6107373964836
 20
133.1423584726555
 30
0.0
 10
151.605506299995
 20
133.1426807792479
 30
0.0
 10
151.5950857746523
 20
133.1433228251403
 30
0.0
 10
151.5802992241379
 20
133.1487710655155
 30
0.0
 10
151.5671088715124
 20
133.1569936681011
 30
0.0
 10
151.5562382966712
 20
133.1682502744137
 30
0.0
 10
151.5482307093426
 20
133.1817710197548
 30
0.0
 10
151.5440640823099
 20
133.1969079073316
 30
0.0
 10
151.5434430307983
 20
133.2125970389028
 30
0.0
 10
151.5463821431531
 20
133.2224745512614
 30
0.0
 10
151.5478545316358
 20
133.2274228260054
 30
0.0
  0
LINE
  5
250
330
1F
100
AcDbEntity
  8
0
  6
Continuous
 62
     7
370
    25
100
AcDbLine
 10
152.0889644506
 20
133.1423584727
 30
0.0
 11
151.6107373965
 21
133.1423584727
 31
0.0
  0
SPLINE
  5
251
330
1F
100
AcDbEntity
  8
0
  6
Continuous
 62
     7
370
    25
100
AcDbSpline
210
0.0
220
0.0
230
1.0
 70
     8
 71
     3
 72
    15
 73
    11
 74
     0
 42
0.00000001
 43
0.00000001
 40
0.0
 40
0.0
 40
0.0
 40
0.0
 40
0.1241186784437694
 40
0.2478474916628981
 40
0.373657414947894
 40
0.5005082335853294
 40
0.6234527658309922
 40
0.7484986612277523
 40
0.8736976492452768
 40
1.0
 40
1.0
 40
1.0
 40
1.0
 10
152.151847315413
 20
133.2274228262285
 30
0.0
 10
152.1533183880218
 20
133.2224769805704
 30
0.0
 10
152.1562559125002
 20
133.2126008244923
 30
0.0
 10
152.1556391780001
 20
133.1969194288666
 30
0.0
 10
152.1514772164055
 20
133.1817868967863
 30
0.0
 10
152.1434784686071
 20
133.1682719891719
 30
0.0
 10
152.1326123770703
 20
133.1570119279758
 30
0.0
 10
152.1194246592457
 20
133.1487822155424
 30
0.0
 10
152.1046302126705
 20
133.1433226451574
 30
0.0
 10
152.0942016217631
 20
133.1426808021004
 30
0.0
 10
152.0889644506487
 20
133.1423584726555
 30
0.0
  0
LINE
  5
252
330
1F
100
AcDbEntity
  8
0
  6
Continuous
 62
     7
370
    25
100
AcDbLine
 10
151.912733787
 20
133.8656768553
 30
0.0
 11
152.1518473154
 21
133.2274228262
 31
0.0
  0
CIRCLE
  5
253
330
1F
100
AcDbEntity
  8
0
  6
Continuous
 62
     7
370
    25
100
AcDbCircle
 10
151.8498509222
 20
133.8442673971
 30
0.0
 40
4.5
  0
LINE
  5
254
330
1F
100
AcDbEntity
  8
0
  6
Continuous
 62
     7
370
    25
100
AcDbLine
 10
102.4678849109
 20
134.7228598493
 30
0.0
 11
136.7446227086
 21
135.6204278169
 31
0.0
  0
SPLINE
  5
255
330
1F
100
AcDbEntity
  8
0
  6
Continuous
 62
     7
370
    25
100
AcDbSpline
210
0.0
220
0.0
230
1.0
 70
    24
 71
     3
 72
    11
 73
     7
 74
     0
 42
0.00000001
 43
0.00000001
 40
0.0
 40
0.0
 40
0.0
 40
0.0
 40
0.2499999999999963
 40
0.4999999999999995
 40
0.7500000000000014
 40
1.0
 40
1.0
 40
1.0
 40
1.0
 10
102.4495673262263
 20
135.4223801864487
 30
0.0
 10
102.4498951874821
 20
135.4098596702261
 30
0.0
 10
102.4505509099937
 20
135.384818637781
 30
0.0
 10
102.454809879133
 20
135.2221751681584
 30
0.0
 10
102.4608017347948
 20
134.993355432104
 30
0.0
 10
102.4655238522058
 20
134.8130250435577
 30
0.0
 10
102.4678849109113
 20
134.7228598492846
 30
0.0
  0
LINE
  5
256
330
1F
100
AcDbEntity
  8
0
  6
Continuous
 62
     7
370
    25
100
AcDbLine
 10
136.726305124
 20
136.3199481541
 30
0.0
 11
102.4495673262
 21
135.4223801864
 31
0.0
  0
SPLINE
  5
257
330
1F
100
AcDbEntity
  8
0
  6
Continuous
 62
     7
370
    25
100
AcDbSpline
210
0.0
220
0.0
230
1.0
 70
    24
 71
     3
 72
    11
 73
     7
 74
     0
 42
0.00000001
 43
0.00000001
 40
0.0
 40
0.0
 40
0.0
 40
0.0
 40
0.2499999999999982
 40
0.4999999999999978
 40
0.750000000000001
 40
1.0
 40
1.0
 40
1.0
 40
1.0
 10
136.726305123964
 20
136.3199481540679
 30
0.0
 10
136.7266329852198
 20
136.3074276378453
 30
0.0
 10
136.7272887077314
 20
136.2823866054001
 30
0.0
 10
136.7315476768707
 20
136.1197431357776
 30
0.0
 10
136.7375395325325
 20
135.8909233997231
 30
0.0
 10
136.7422616499435
 20
135.7105930111769
 30
0.0
 10
136.744622708649
 20
135.6204278169037
 30
0.0
  0
LINE
  5
258
330
1F
100
AcDbEntity
  8
0
  6
Continuous
 62
     7
370
    25
100
AcDbLine
 10
136.7446227086
 20
132.0681069774
 30
0.0
 11
102.4678849109
 21
132.965674945
 31
0.0
  0
LINE
  5
259
330
1F
100
AcDbEntity
  8
0
  6
Continuous
 62
     7
370
    25
100
AcDbLine
 10
102.4678849109
 20
132.965674945
 30
0.0
 11
102.4678849109
 21
134.7228598493
 31
0.0
  0
ELLIPSE
  5
25A
330
1F
100
AcDbEntity
  8
0
  6
Continuous
 62
     7
370
    25
100
AcDbEllipse
 10
136.7498509222
 20
134.8200161605
 30
0.0
 11
0.9988086229566305
 21
0.06103964413861718
 31
0.0
210
0.0
220
0.0
230
0.9999999999999999
 40
0.7994627403
 41
0.8784769082856015
 42
1.527206254409844
  0
LINE
  5
25B
330
1F
100
AcDbEntity
  8
0
  6
Continuous
 62
     7
370
    25
100
AcDbLine
 10
137.3498509222
 20
135.4736465467
 30
0.0
 11
137.3498509222
 21
132.2148882475
 31
0.0
  0
ELLIPSE
  5
25C
330
1F
100
AcDbEntity
  8
0
  6
Continuous
 62
     7
370
    25
100
AcDbEllipse
 10
136.7498509222
 20
132.8685186338
 30
0.0
 11
0.9988086229566022
 21
-0.06103964413861718
 31
0.0
210
0.0
220
0.0
230
1.0
 40
0.7994627403
 41
4.755979052769757
 42
5.404708398893991
  0
LINE
  5
25D
330
1F
100
AcDbEntity
  8
0
  6
Continuous
 62
     7
370
    25
100
AcDbLine
 10
138.5498509222
 20
132.8318511625
 30
0.0
 11
138.5498509222
 21
134.8566836318
 31
0.0
  0
SPLINE
  5
25E
330
1F
100
AcDbEntity
  8
0
  6
Continuous
 62
     7
370
    25
100
AcDbSpline
210
0.0
220
0.0
230
1.0
 70
     8
 71
     3
 72
    11
 73
     7
 74
     0
 42
0.00000001
 43
0.00000001
 40
0.0
 40
0.0
 40
0.0
 40
0.0
 40
0.2561894651307314
 40
0.509604493920692
 40
0.769274206655365
 40
1.0
 40
1.0
 40
1.0
 40
1.0
 10
138.5498509221614
 20
132.8318511625018
 30
0.0
 10
138.4742547898676
 20
132.7723391218534
 30
0.0
 10
138.3238812031929
 20
132.653959533757
 30
0.0
 10
138.0246684172376
 20
132.4833219916216
 30
0.0
 10
137.6971486823509
 20
132.3316980807209
 30
0.0
 10
137.460970301537
 20
132.2522620450498
 30
0.0
 10
137.3498509221614
 20
132.2148882475268
 30
0.0
  0
SPLINE
  5
25F
330
1F
100
AcDbEntity
  8
0
  6
Continuous
 62
     7
370
    25
100
AcDbSpline
210
0.0
220
0.0
230
1.0
 70
     8
 71
     3
 72
    11
 73
     7
 74
     0
 42
0.00000001
 43
0.00000001
 40
0.0
 40
0.0
 40
0.0
 40
0.0
 40
0.2307374805224083
 40
0.4903955403005851
 40
0.7438105520730633
 40
1.0
 40
1.0
 40
1.0
 40
1.0
 10
137.3498509221614
 20
135.4736465467437
 30
0.0
 10
137.4609761559178
 20
135.4362713558307
 30
0.0
 10
137.6971550329933
 20
135.3568363767361
 30
0.0
 10
138.0246726739445
 20
135.2052096969724
 30
0.0
 10
138.3238812706069
 20
135.0345753920241
 30
0.0
 10
138.4742548124203
 20
134.9161957164127
 30
0.0
 10
138.5498509221614
 20
134.8566836317687
 30
0.0
  0
LINE
  5
260
330
1F
100
AcDbEntity
  8
0
  6
Continuous
 62
     7
370
    25
100
AcDbLine
 10
102.4495673262
 20
132.2661546078
 30
0.0
 11
136.726305124
 21
131.3685866402
 31
0.0
  0
SPLINE
  5
261
330
1F
100
AcDbEntity
  8
0
  6
Continuous
 62
     7
370
    25
100
AcDbSpline
210
0.0
220
0.0
230
1.0
 70
    24
 71
     3
 72
    11
 73
     7
 74
     0
 42
0.00000001
 43
0.00000001
 40
0.0
 40
0.0
 40
0.0
 40
0.0
 40
0.249999999999998
 40
0.4999999999999973
 40
0.7500000000000001
 40
1.0
 40
1.0
 40
1.0
 40
1.0
 10
102.4495673262263
 20
132.2661546078218
 30
0.0
 10
102.4498951874821
 20
132.2786751240444
 30
0.0
 10
102.4505509099937
 20
132.3037161564895
 30
0.0
 10
102.454809879133
 20
132.4663596261121
 30
0.0
 10
102.4608017347948
 20
132.6951793621666
 30
0.0
 10
102.4655238522058
 20
132.8755097507128
 30
0.0
 10
102.4678849109113
 20
132.9656749449859
 30
0.0
  0
SPLINE
  5
262
330
1F
100
AcDbEntity
  8
0
  6
Continuous
 62
     7
370
    25
100
AcDbSpline
210
0.0
220
0.0
230
1.0
 70
    24
 71
     3
 72
    11
 73
     7
 74
     0
 42
0.00000001
 43
0.00000001
 40
0.0
 40
0.0
 40
0.0
 40
0.0
 40
0.2499999999999988
 40
0.5000000000000004
 40
0.7499999999999976
 40
1.0
 40
1.0
 40
1.0
 40
1.0
 10
136.744622708649
 20
132.0681069773667
 30
0.0
 10
136.7422616499435
 20
131.9779417830936
 30
0.0
 10
136.7375395325325
 20
131.7976113945474
 30
0.0
 10
136.7315476768707
 20
131.5687916584929
 30
0.0
 10
136.7272887077314
 20
131.4061481888703
 30
0.0
 10
136.7266329852198
 20
131.3811071564252
 30
0.0
 10
136.726305123964
 20
131.3685866402026
 30
0.0
  0
ELLIPSE
  5
263
330
1F
100
AcDbEntity
  8
0
  6
Continuous
 62
     7
370
    25
100
AcDbEllipse
 10
102.4678849109
 20
134.7438157676
 30
0.0
 11
1.49999997144873
 21
0.02095282558968847
 31
0.0
210
0.0
220
0.0
230
0.9999999999999998
 40
0.0139678873
 41
3.842044658396999
 42
4.712193869245414
  0
ELLIPSE
  5
264
330
1F
100
AcDbEntity
  8
0
  6
Continuous
 62
     7
370
    25
100
AcDbEllipse
 10
102.4678849109
 20
132.9447190267
 30
0.0
 11
1.49999997144873
 21
-0.02095282558966005
 31
0.0
210
0.0
220
0.0
230
1.0
 40
0.0139678873
 41
1.570991437934171
 42
2.441140648780705
  0
SPLINE
  5
265
330
1F
100
AcDbEntity
  8
0
  6
Continuous
 62
     7
370
    25
100
AcDbSpline
210
0.0
220
0.0
230
1.0
 70
     8
 71
     3
 72
     9
 73
     5
 74
     0
 42
0.00000001
 43
0.00000001
 40
0.0
 40
0.0
 40
0.0
 40
0.0
 40
0.5600029565045499
 40
1.0
 40
1.0
 40
1.0
 40
1.0
 10
101.3212471954628
 20
132.9742433105113
 30
0.0
 10
101.3130994361097
 20
132.9742376724451
 30
0.0
 10
101.2985499426499
 20
132.9742276045228
 30
0.0
 10
101.2846052997094
 20
132.9743497811263
 30
0.0
 10
101.2784696980429
 20
132.9744035384706
 30
0.0
  0
ELLIPSE
  5
266
330
1F
100
AcDbEntity
  8
0
  6
Continuous
 62
     7
370
    25
100
AcDbEllipse
 10
102.4678849109
 20
132.9271298646
 30
0.0
 11
1.499999872704151
 21
-0.0430792567095466
 31
0.0
210
0.0
220
0.0
230
1.0
 40
0.0143449667
 41
2.486833182542666
 42
2.678357024935001
  0
LINE
  5
267
330
1F
100
AcDbEntity
  8
0
  6
Continuous
 62
     7
370
    25
100
AcDbLine
 10
101.1262441244
 20
134.7132507717
 30
0.0
 11
101.1262441244
 21
132.9752840226
 31
0.0
  0
ELLIPSE
  5
268
330
1F
100
AcDbEntity
  8
0
  6
Continuous
 62
     7
370
    25
100
AcDbEllipse
 10
102.4678849109
 20
134.7614049297
 30
0.0
 11
1.499999872704151
 21
0.0430792567095466
 31
0.0
210
0.0
220
0.0
230
1.0
 40
0.0143449667
 41
3.604828282245899
 42
3.79635212463818
  0
SPLINE
  5
269
330
1F
100
AcDbEntity
  8
0
  6
Continuous
 62
     7
370
    25
100
AcDbSpline
210
0.0
220
0.0
230
1.0
 70
     8
 71
     3
 72
     9
 73
     5
 74
     0
 42
0.00000001
 43
0.00000001
 40
0.0
 40
0.0
 40
0.0
 40
0.0
 40
0.5599925069633377
 40
1.0
 40
1.0
 40
1.0
 40
1.0
 10
101.2784696980429
 20
134.7141312557999
 30
0.0
 10
101.2862925078999
 20
134.7141970009513
 30
0.0
 10
101.3002619981335
 20
134.7143144045783
 30
0.0
 10
101.314834976004
 20
134.7142984874256
 30
0.0
 10
101.3212471954628
 20
134.7142914837592
 30
0.0
  0
ELLIPSE
  5
26A
330
1F
100
AcDbEntity
  8
0
  6
Continuous
 62
     7
370
    25
100
AcDbEllipse
 10
102.4495673262
 20
132.2451986895
 30
0.0
 11
0.7999998117959422
 21
-0.02096310677478641
 31
0.0
210
0.0
220
0.0
230
1.0
 40
0.026176936
 41
1.571482264229188
 42
2.441631475078127
  0
SPLINE
  5
26B
330
1F
100
AcDbEntity
  8
0
  6
Continuous
 62
     7
370
    25
100
AcDbSpline
210
0.0
220
0.0
230
1.0
 70
     8
 71
     3
 72
    12
 73
     8
 74
     0
 42
0.00000001
 43
0.00000001
 40
0.0
 40
0.0
 40
0.0
 40
0.0
 40
0.2198609600791294
 40
0.4397396970008148
 40
0.6583291451397767
 40
0.87912395168436
 40
1.0
 40
1.0
 40
1.0
 40
1.0
 10
101.8380272113204
 20
132.2747229733472
 30
0.0
 10
101.7781121485915
 20
132.2853949679913
 30
0.0
 10
101.6582771787055
 20
132.3067398201629
 30
0.0
 10
101.501542190431
 20
132.4348582154299
 30
0.0
 10
101.3849738666449
 20
132.617796151495
 30
0.0
 10
101.3287171748506
 20
132.8093453233821
 30
0.0
 10
101.3231993036343
 20
132.9311509950671
 30
0.0
 10
101.3212471954628
 20
132.9742433105113
 30
0.0
  0
ELLIPSE
  5
26C
330
1F
100
AcDbEntity
  8
0
  6
Continuous
 62
     7
370
    25
100
AcDbEllipse
 10
102.4495673262
 20
135.4433361048
 30
0.0
 11
0.7999998117959422
 21
0.02096310677475799
 31
0.0
210
0.0
220
0.0
230
1.0
 40
0.026176936
 41
3.841553832104682
 42
4.7117030429504
  0
SPLINE
  5
26D
330
1F
100
AcDbEntity
  8
0
  6
Continuous
 62
     7
370
    25
100
AcDbSpline
210
0.0
220
0.0
230
1.0
 70
     8
 71
     3
 72
    12
 73
     8
 74
     0
 42
0.00000001
 43
0.00000001
 40
0.0
 40
0.0
 40
0.0
 40
0.0
 40
0.2198610998683202
 40
0.4397399767664986
 40
0.6583294271823332
 40
0.8791242261983154
 40
1.0
 40
1.0
 40
1.0
 40
1.0
 10
101.3212471954628
 20
134.7142914837592
 30
0.0
 10
101.3273501453582
 20
134.7929823934783
 30
0.0
 10
101.3395565386073
 20
134.9503705755276
 30
0.0
 10
101.4320804797056
 20
135.1596523240126
 30
0.0
 10
101.5678644271274
 20
135.318301644677
 30
0.0
 10
101.7122922904908
 20
135.3984017073923
 30
0.0
 10
101.8051693021395
 20
135.409784744694
 30
0.0
 10
101.8380272113204
 20
135.4138118209233
 30
0.0
  0
SPLINE
  5
26E
330
1F
100
AcDbEntity
  8
0
  6
Continuous
 62
     7
370
    25
100
AcDbSpline
210
0.0
220
0.0
230
1.0
 70
     8
 71
     3
 72
    11
 73
     7
 74
     0
 42
0.00000001
 43
0.00000001
 40
0.0
 40
0.0
 40
0.0
 40
0.0
 40
0.2561894651307129
 40
0.5096044939206584
 40
0.7692742066444705
 40
1.0
 40
1.0
 40
1.0
 40
1.0
 10
138.5498509221614
 20
134.8566836317687
 30
0.0
 10
138.5054859315446
 20
134.97019116709
 30
0.0
 10
138.4172364066099
 20
135.1959769934667
 30
0.0
 10
138.2074243196855
 20
135.5211793292262
 30
0.0
 10
137.9599164501939
 20
135.8111356871555
 30
0.0
 10
137.7651666194557
 20
135.9621975083338
 30
0.0
 10
137.6735389257965
 20
136.0332704649679
 30
0.0
  0
SPLINE
  5
26F
330
1F
100
AcDbEntity
  8
0
  6
Continuous
 62
     7
370
    25
100
AcDbSpline
210
0.0
220
0.0
230
1.0
 70
    24
 71
     3
 72
    10
 73
     6
 74
     0
 42
0.00000001
 43
0.00000001
 40
0.0
 40
0.0
 40
0.0
 40
0.0
 40
0.2808335173386709
 40
0.5616510917414143
 40
0.9999999999999999
 40
0.9999999999999999
 40
0.9999999999999999
 40
0.9999999999999999
 10
137.6735389257965
 20
136.0332704649679
 30
0.0
 10
137.6553308061516
 20
136.0017904621729
 30
0.0
 10
137.618915600538
 20
135.9388322437046
 30
0.0
 10
137.5091325157376
 20
135.7490283603948
 30
0.0
 10
137.4101705630038
 20
135.5779331232464
 30
0.0
 10
137.3498509221614
 20
135.4736465467437
 30
0.0
  0
ELLIPSE
  5
270
330
1F
100
AcDbEntity
  8
0
  6
Continuous
 62
     7
370
    25
100
AcDbEllipse
 10
136.7498509222
 20
134.8200161605
 30
0.0
 11
1.557390436637263
 21
0.09517594847733335
 31
0.0
210
0.0
220
0.0
230
0.9999999999999999
 40
0.9613560848
 41
0.8784769082855974
 42
1.527206254409824
  0
SPLINE
  5
271
330
1F
100
AcDbEntity
  8
0
  6
Continuous
 62
     7
370
    25
100
AcDbSpline
210
0.0
220
0.0
230
1.0
 70
    24
 71
     3
 72
    10
 73
     6
 74
     0
 42
0.00000001
 43
0.00000001
 40
0.0
 40
0.0
 40
0.0
 40
0.0
 40
0.2808335173386708
 40
0.5616510917414125
 40
1.0
 40
1.0
 40
1.0
 40
1.0
 10
137.3498509221614
 20
132.2148882475268
 30
0.0
 10
137.3882013711239
 20
132.1485841884545
 30
0.0
 10
137.4649000918914
 20
132.0159798343953
 30
0.0
 10
137.5900544419334
 20
131.7996005834909
 30
0.0
 10
137.6419235082867
 20
131.7099241981405
 30
0.0
 10
137.6735389257965
 20
131.6552643293026
 30
0.0
  0
ELLIPSE
  5
272
330
1F
100
AcDbEntity
  8
0
  6
Continuous
 62
     7
370
    25
100
AcDbEllipse
 10
136.7498509222
 20
132.8685186338
 30
0.0
 11
1.557390436637235
 21
-0.09517594847733335
 31
0.0
210
0.0
220
0.0
230
1.0
 40
0.9613560848
 41
4.755979052769759
 42
5.404708398893998
  0
SPLINE
  5
273
330
1F
100
AcDbEntity
  8
0
  6
Continuous
 62
     7
370
    25
100
AcDbSpline
210
0.0
220
0.0
230
1.0
 70
     8
 71
     3
 72
    11
 73
     7
 74
     0
 42
0.00000001
 43
0.00000001
 40
0.0
 40
0.0
 40
0.0
 40
0.0
 40
0.2307374805226512
 40
0.4903955403005855
 40
0.7438105520730652
 40
0.9999999999999999
 40
0.9999999999999999
 40
0.9999999999999999
 40
0.9999999999999999
 10
137.6735389257965
 20
131.6552643293026
 30
0.0
 10
137.765170930556
 20
131.7263413474927
 30
0.0
 10
137.9599200730926
 20
131.877404159912
 30
0.0
 10
138.2074276403306
 20
132.1673601890676
 30
0.0
 10
138.4172363697246
 20
132.4925578496162
 30
0.0
 10
138.505485919205
 20
132.7183436435103
 30
0.0
 10
138.5498509221614
 20
132.8318511625018
 30
0.0
  0
LINE
  5
274
330
1F
100
AcDbEntity
  8
0
  6
Continuous
 62
     7
370
    25
100
AcDbLine
 10
138.8498643774
 20
136.4497240673
 30
0.0
 11
136.726305124
 21
136.3199481541
 31
0.0
  0
SPLINE
  5
275
330
1F
100
AcDbEntity
  8
0
  6
Continuous
 62
     7
370
    25
100
AcDbSpline
210
0.0
220
0.0
230
1.0
 70
     8
 71
     3
 72
    13
 73
     9
 74
     0
 42
0.00000001
 43
0.00000001
 40
0.0
 40
0.0
 40
0.0
 40
0.0
 40
0.1035746466401555
 40
0.2111076158583393
 40
0.3219769626223817
 40
0.4454462032504118
 40
0.7113049728010379
 40
1.0
 40
1.0
 40
1.0
 40
1.0
 10
140.9498509221614
 20
135.0033535168354
 30
0.0
 10
140.942594757401
 20
135.1016962952842
 30
0.0
 10
140.9278051183094
 20
135.3021402279326
 30
0.0
 10
140.8015325087475
 20
135.5850822781625
 30
0.0
 10
140.6049851206167
 20
135.8433405031815
 30
0.0
 10
140.2411334475294
 20
136.1464358529365
 30
0.0
 10
139.6435460607942
 20
136.41196551922
 30
0.0
 10
139.1215895772344
 20
136.4367970346349
 30
0.0
 10
138.849864377441
 20
136.4497240672512
 30
0.0
  0
LINE
  5
276
330
1F
100
AcDbEntity
  8
0
  6
Continuous
 62
     7
370
    25
100
AcDbLine
 10
138.5498509222
 20
134.8566836318
 30
0.0
 11
140.9498509222
 21
135.0033535168
 31
0.0
  0
LINE
  5
277
330
1F
100
AcDbEntity
  8
0
  6
Continuous
 62
     7
370
    25
100
AcDbLine
 10
140.9498509222
 20
132.6851812774
 30
0.0
 11
138.5498509222
 21
132.8318511625
 31
0.0
  0
SPLINE
  5
278
330
1F
100
AcDbEntity
  8
0
  6
Continuous
 62
     7
370
    25
100
AcDbSpline
210
0.0
220
0.0
230
1.0
 70
     8
 71
     3
 72
    13
 73
     9
 74
     0
 42
0.00000001
 43
0.00000001
 40
0.0
 40
0.0
 40
0.0
 40
0.0
 40
0.2886949682914851
 40
0.554553683594315
 40
0.6780091910936104
 40
0.7888922083801199
 40
0.8964194071406489
 40
1.0
 40
1.0
 40
1.0
 40
1.0
 10
138.849864377441
 20
131.2388107270193
 30
0.0
 10
139.1215895680172
 20
131.2517377325021
 30
0.0
 10
139.6435460338717
 20
131.2765691957961
 30
0.0
 10
140.2411214419749
 20
131.5420937972286
 30
0.0
 10
140.6049756221545
 20
131.8451847938329
 30
0.0
 10
140.8015231137202
 20
132.1034365479535
 30
0.0
 10
140.9278064028263
 20
132.3863879141217
 30
0.0
 10
140.9425949047974
 20
132.5868325768129
 30
0.0
 10
140.9498509221614
 20
132.685181277435
 30
0.0
  0
LINE
  5
279
330
1F
100
AcDbEntity
  8
0
  6
Continuous
 62
     7
370
    25
100
AcDbLine
 10
136.726305124
 20
131.3685866402
 30
0.0
 11
138.8498643774
 21
131.238810727
 31
0.0
  0
SPLINE
  5
27A
330
1F
100
AcDbEntity
  8
0
  6
Continuous
 62
     7
370
    25
100
AcDbSpline
210
0.0
220
0.0
230
1.0
 70
     8
 71
     3
 72
    12
 73
     8
 74
     0
 42
0.00000001
 43
0.00000001
 40
0.0
 40
0.0
 40
0.0
 40
0.0
 40
0.2225634137434379
 40
0.4462063173695244
 40
0.6680851268156933
 40
0.8917990985568367
 40
1.0
 40
1.0
 40
1.0
 40
1.0
 10
101.7959116282879
 20
135.4128665850512
 30
0.0
 10
101.734215062653
 20
135.4005134774845
 30
0.0
 10
101.6105226871487
 20
135.3757473465974
 30
0.0
 10
101.4513563453552
 20
135.2431634185996
 30
0.0
 10
101.3352744573382
 20
135.056806015105
 30
0.0
 10
101.2835594066104
 20
134.8687152037518
 30
0.0
 10
101.2797209848334
 20
134.7521351708634
 30
0.0
 10
101.2784696980429
 20
134.7141312557999
 30
0.0
  0
SPLINE
  5
27B
330
1F
100
AcDbEntity
  8
0
  6
Continuous
 62
     7
370
    25
100
AcDbSpline
210
0.0
220
0.0
230
1.0
 70
     8
 71
     3
 72
    12
 73
     8
 74
     0
 42
0.00000001
 43
0.00000001
 40
0.0
 40
0.0
 40
0.0
 40
0.0
 40
0.2225634137435274
 40
0.446206317369568
 40
0.6680851268158019
 40
0.8917990985569294
 40
1.0
 40
1.0
 40
1.0
 40
1.0
 10
101.2784696980429
 20
132.9744035384706
 30
0.0
 10
101.2840562641454
 20
132.895899878428
 30
0.0
 10
101.295256492635
 20
132.7385117953713
 30
0.0
 10
101.3893072703221
 20
132.5291602577439
 30
0.0
 10
101.5287983337201
 20
132.3704009632739
 30
0.0
 10
101.6740224335564
 20
132.2925520929572
 30
0.0
 10
101.7659456022865
 20
132.2798190521238
 30
0.0
 10
101.7959116282879
 20
132.2756682092192
 30
0.0
  0
ELLIPSE
  5
27C
330
1F
100
AcDbEntity
  8
0
  6
Continuous
 62
     7
370
    25
100
AcDbEllipse
 10
102.4302664085
 20
132.2283945354
 30
0.0
 11
0.7999991634988818
 21
-0.04310148564323413
 31
0.0
210
0.0
220
0.0
230
1.0
 40
0.0268411366
 41
2.487867318782573
 42
2.679391161175069
  0
SPLINE
  5
27D
330
1F
100
AcDbEntity
  8
0
  6
Continuous
 62
     7
370
    25
100
AcDbSpline
210
0.0
220
0.0
230
1.0
 70
     8
 71
     3
 72
    11
 73
     7
 74
     0
 42
0.00000001
 43
0.00000001
 40
0.0
 40
0.0
 40
0.0
 40
0.0
 40
0.2499999999999991
 40
0.4999999999999979
 40
0.7499999999999996
 40
1.0
 40
1.0
 40
1.0
 40
1.0
 10
101.7147246556845
 20
132.2765486933652
 30
0.0
 10
101.6364895473522
 20
132.2915479985318
 30
0.0
 10
101.4800193306877
 20
132.3215466088649
 30
0.0
 10
101.2866931792712
 20
132.4850663116616
 30
0.0
 10
101.1523167469923
 20
132.710645925744
 30
0.0
 10
101.134934998605
 20
132.887071323659
 30
0.0
 10
101.1262441244114
 20
132.9752840226165
 30
0.0
  0
SPLINE
  5
27E
330
1F
100
AcDbEntity
  8
0
  6
Continuous
 62
     7
370
    25
100
AcDbSpline
210
0.0
220
0.0
230
1.0
 70
     8
 71
     3
 72
    11
 73
     7
 74
     0
 42
0.00000001
 43
0.00000001
 40
0.0
 40
0.0
 40
0.0
 40
0.0
 40
0.249999999999999
 40
0.4999999999999998
 40
0.7499999999999988
 40
1.0
 40
1.0
 40
1.0
 40
1.0
 10
101.7147246556845
 20
135.4119861009052
 30
0.0
 10
101.6364895473522
 20
135.3969867957387
 30
0.0
 10
101.4800193306877
 20
135.3669881854055
 30
0.0
 10
101.2866931792712
 20
135.2034684826089
 30
0.0
 10
101.1523167469922
 20
134.9778888685265
 30
0.0
 10
101.134934998605
 20
134.8014634706115
 30
0.0
 10
101.1262441244114
 20
134.7132507716539
 30
0.0
  0
ELLIPSE
  5
27F
330
1F
100
AcDbEntity
  8
0
  6
Continuous
 62
     7
370
    25
100
AcDbEllipse
 10
102.4302664085
 20
135.4601402589
 30
0.0
 11
0.7999991634988818
 21
0.04310148564320571
 31
0.0
210
0.0
220
0.0
230
0.9999999999999999
 40
0.0268411366
 41
3.603794146007254
 42
3.795317988398174
  0
LINE
  5
280
330
1F
100
AcDbEntity
  8
0
  6
Continuous
 62
     7
370
    25
100
AcDbLine
 10
140.9498509222
 20
135.0033535168
 30
0.0
 11
140.9498509222
 21
132.6851812774
 31
0.0
  0
LINE
  5
281
330
1F
100
AcDbEntity
  8
0
  6
Continuous
 62
     7
370
    25
100
AcDbLine
 10
101.6155823001
 20
135.6305080596
 30
0.0
 11
123.2431304689
 21
136.1968453396
 31
0.0
  0
SPLINE
  5
282
330
1F
100
AcDbEntity
  8
0
  6
Continuous
 62
     7
370
    25
100
AcDbSpline
210
0.0
220
0.0
230
1.0
 70
     8
 71
     3
 72
     9
 73
     5
 74
     0
 42
0.00000001
 43
0.00000001
 40
0.0
 40
0.0
 40
0.0
 40
0.0
 40
0.5600012771711205
 40
0.9999999999999999
 40
0.9999999999999999
 40
0.9999999999999999
 40
0.9999999999999999
 10
123.2431304688803
 20
136.1968453396323
 30
0.0
 10
123.7205606054053
 20
136.1850109272873
 30
0.0
 10
124.5731124762453
 20
136.1638780962966
 30
0.0
 10
125.4300016808887
 20
136.1429173668841
 30
0.0
 10
125.8070318365376
 20
136.1336946727131
 30
0.0
  0
SPLINE
  5
283
330
1F
100
AcDbEntity
  8
0
  6
Continuous
 62
     7
370
    25
100
AcDbSpline
210
0.0
220
0.0
230
1.0
 70
     8
 71
     3
 72
     9
 73
     5
 74
     0
 42
0.00000001
 43
0.00000001
 40
0.0
 40
0.0
 40
0.0
 40
0.0
 40
0.5599999095971039
 40
1.0
 40
1.0
 40
1.0
 40
1.0
 10
125.8070318365376
 20
136.1336946727131
 30
0.0
 10
125.9011613272001
 20
136.1313972628159
 30
0.0
 10
126.0692497305183
 20
136.1272947444799
 30
0.0
 10
126.237492250214
 20
136.1231983512869
 30
0.0
 10
126.3115189740898
 20
136.1213959379116
 30
0.0
  0
LINE
  5
284
330
1F
100
AcDbEntity
  8
0
  6
Continuous
 62
     7
370
    25
100
AcDbLine
 10
126.3115189741
 20
136.1213959379
 30
0.0
 11
138.8498643774
 21
136.4497240673
 31
0.0
  0
LINE
  5
285
330
1F
100
AcDbEntity
  8
0
  6
Continuous
 62
     7
370
    25
100
AcDbLine
 10
101.8380272113
 20
135.4138118209
 30
0.0
 11
101.6155823001
 21
135.6305080596
 31
0.0
  0
LINE
  5
286
330
1F
100
AcDbEntity
  8
0
  6
Continuous
 62
     7
370
    25
100
AcDbLine
 10
138.8498643774
 20
131.238810727
 30
0.0
 11
126.3115189741
 21
131.5671388564
 31
0.0
  0
SPLINE
  5
287
330
1F
100
AcDbEntity
  8
0
  6
Continuous
 62
     7
370
    25
100
AcDbSpline
210
0.0
220
0.0
230
1.0
 70
     8
 71
     3
 72
     9
 73
     5
 74
     0
 42
0.00000001
 43
0.00000001
 40
0.0
 40
0.0
 40
0.0
 40
0.0
 40
0.5600000882143319
 40
1.0
 40
1.0
 40
1.0
 40
1.0
 10
126.3115189740898
 20
131.5671388563589
 30
0.0
 10
126.2173065585581
 20
131.5648447402178
 30
0.0
 10
126.049070128753
 20
131.5607481048969
 30
0.0
 10
125.8809879710846
 20
131.5566453384376
 30
0.0
 10
125.8070318365377
 20
131.5548401215574
 30
0.0
  0
SPLINE
  5
288
330
1F
100
AcDbEntity
  8
0
  6
Continuous
 62
     7
370
    25
100
AcDbSpline
210
0.0
220
0.0
230
1.0
 70
     8
 71
     3
 72
     9
 73
     5
 74
     0
 42
0.00000001
 43
0.00000001
 40
0.0
 40
0.0
 40
0.0
 40
0.0
 40
0.5599987526606142
 40
1.0
 40
1.0
 40
1.0
 40
1.0
 10
125.8070318365377
 20
131.5548401215574
 30
0.0
 10
125.3272655786505
 20
131.543098535035
 30
0.0
 10
124.4705382098702
 20
131.522131369543
 30
0.0
 10
123.6181724613976
 20
131.5009911691708
 30
0.0
 10
123.2431304688803
 20
131.4916894546381
 30
0.0
  0
LINE
  5
289
330
1F
100
AcDbEntity
  8
0
  6
Continuous
 62
     7
370
    25
100
AcDbLine
 10
123.2431304689
 20
131.4916894546
 30
0.0
 11
101.6155823001
 21
132.0580267347
 31
0.0
  0
LINE
  5
28A
330
1F
100
AcDbEntity
  8
0
  6
Continuous
 62
     7
370
    25
100
AcDbLine
 10
101.6155823001
 20
132.0580267347
 30
0.0
 11
101.8380272113
 21
132.2747229733
 31
0.0
  0
LINE
  5
28B
330
1F
100
AcDbEntity
  8
0
  6
Continuous
 62
     7
370
    25
100
AcDbLine
 10
96.5472939813
 20
134.7132507717
 30
0.0
 11
101.1262441244
 21
134.7132507717
 31
0.0
  0
SPLINE
  5
28C
330
1F
100
AcDbEntity
  8
0
  6
Continuous
 62
     7
370
    25
100
AcDbSpline
210
0.0
220
0.0
230
1.0
 70
     8
 71
     3
 72
    13
 73
     9
 74
     0
 42
0.00000001
 43
0.00000001
 40
0.0
 40
0.0
 40
0.0
 40
0.0
 40
0.1143463544469914
 40
0.2890454840074685
 40
0.5294852105593209
 40
0.7014879056604271
 40
0.9335094878266192
 40
1.0
 40
1.0
 40
1.0
 40
1.0
 10
97.3092548314799
 20
135.4119861009052
 30
0.0
 10
97.26805363077095
 20
135.4071515094002
 30
0.0
 10
97.16390495844811
 20
135.3949305964701
 30
0.0
 10
96.97654546406825
 20
135.3222825014291
 30
0.0
 10
96.79451773405948
 20
135.1917702350223
 30
0.0
 10
96.64223415284512
 20
135.0049026358527
 30
0.0
 10
96.56973087596512
 20
134.8435292310961
 30
0.0
 10
96.55138118664641
 20
134.7369828802441
 30
0.0
 10
96.54729398125622
 20
134.7132507716539
 30
0.0
  0
LINE
  5
28D
330
1F
100
AcDbEntity
  8
0
  6
Continuous
 62
     7
370
    25
100
AcDbLine
 10
101.7147246557
 20
135.4119861009
 30
0.0
 11
97.3092548315
 21
135.4119861009
 31
0.0
  0
ELLIPSE
  5
28E
330
1F
100
AcDbEntity
  8
0
  6
Continuous
 62
     7
370
    25
100
AcDbEllipse
 10
96.9026373267
 20
134.0188059523
 30
0.0
 11
0.008721666502694349
 21
1.000418978703721
 31
0.0
210
0.0
220
0.0
230
0.9999999999999999
 40
0.499714557
 41
0.8079180407726554
 42
1.588240544501515
  0
LINE
  5
28F
330
1F
100
AcDbEntity
  8
0
  6
Continuous
 62
     7
370
    25
100
AcDbLine
 10
101.1262441244
 20
132.9752840226
 30
0.0
 11
96.5472939813
 21
132.9752840226
 31
0.0
  0
ELLIPSE
  5
290
330
1F
100
AcDbEntity
  8
0
  6
Continuous
 62
     7
370
    25
100
AcDbEllipse
 10
96.9026373267
 20
133.669728842
 30
0.0
 11
-0.008721666502694349
 21
1.000418978703749
 31
0.0
210
0.0
220
0.0
230
0.9999999999999999
 40
0.499714557
 41
1.553352109088308
 42
2.333674612817124
  0
LINE
  5
291
330
1F
100
AcDbEntity
  8
0
  6
Continuous
 62
     7
370
    25
100
AcDbLine
 10
96.4026373267
 20
134.0057129915
 30
0.0
 11
96.4026373267
 21
133.6828218028
 31
0.0
  0
LINE
  5
292
330
1F
100
AcDbEntity
  8
0
  6
Continuous
 62
     7
370
    25
100
AcDbLine
 10
97.3092548315
 20
132.2765486934
 30
0.0
 11
101.7147246557
 21
132.2765486934
 31
0.0
  0
SPLINE
  5
293
330
1F
100
AcDbEntity
  8
0
  6
Continuous
 62
     7
370
    25
100
AcDbSpline
210
0.0
220
0.0
230
1.0
 70
     8
 71
     3
 72
    12
 73
     8
 74
     0
 42
0.00000001
 43
0.00000001
 40
0.0
 40
0.0
 40
0.0
 40
0.0
 40
0.139683458618249
 40
0.3831896274038307
 40
0.55131692930133
 40
0.8194729461607051
 40
0.9999999999999999
 40
0.9999999999999999
 40
0.9999999999999999
 40
0.9999999999999999
 10
96.54729398125622
 20
132.9752840226165
 30
0.0
 10
96.5575353620025
 20
132.9255691021381
 30
0.0
 10
96.58563024819082
 20
132.7891875860803
 30
0.0
 10
96.6927806095456
 20
132.6092714768681
 30
0.0
 10
96.8731176969586
 20
132.4309300484832
 30
0.0
 10
97.08157384152757
 20
132.3104098239318
 30
0.0
 10
97.2439307422315
 20
132.2862638106249
 30
0.0
 10
97.30925483147989
 20
132.2765486933652
 30
0.0
  0
LINE
  5
294
330
1F
100
AcDbEntity
  8
0
  6
Continuous
 62
     7
370
    25
100
AcDbLine
 10
101.6167101574
 20
135.5874369292
 30
0.0
 11
101.6155823001
 21
135.6305080596
 31
0.0
  0
LINE
  5
295
330
1F
100
AcDbEntity
  8
0
  6
Continuous
 62
     7
370
    25
100
AcDbLine
 10
101.6167101574
 20
132.1010978651
 30
0.0
 11
101.6155823001
 21
132.0580267347
 31
0.0
  0
ELLIPSE
  5
296
330
1F
100
AcDbEntity
  8
0
  6
Continuous
 62
     7
370
    25
100
AcDbEllipse
 10
65.3988437227
 20
133.6819396725
 30
0.0
 11
36.18915845259204
 21
1.947628334984217
 31
0.0
210
0.0
220
0.0
230
1.0
 40
0.0007414247
 41
0.0282885576629745
 42
0.4911607830429631
  0
LINE
  5
297
330
1F
100
AcDbEntity
  8
0
  6
Continuous
 62
     7
370
    25
100
AcDbLine
 10
101.5734822458
 20
135.6295476963
 30
0.0
 11
101.7959116283
 21
135.4128665851
 31
0.0
  0
LINE
  5
298
330
1F
100
AcDbEntity
  8
0
  6
Continuous
 62
     7
370
    25
100
AcDbLine
 10
101.7959116283
 20
132.2756682092
 30
0.0
 11
101.5734822458
 21
132.058987098
 31
0.0
  0
ELLIPSE
  5
299
330
1F
100
AcDbEntity
  8
0
  6
Continuous
 62
     7
370
    25
100
AcDbEllipse
 10
65.3988437227
 20
134.0065951217
 30
0.0
 11
36.18915845257634
 21
-1.947628334983392
 31
0.0
210
0.0
220
0.0
230
1.0
 40
0.0007414247
 41
5.792024524149832
 42
6.254896749547981
  0
LINE
  5
29A
330
1F
100
AcDbEntity
  8
0
  6
Continuous
 62
     7
370
    25
100
AcDbLine
 10
129.4177265001
 20
136.7092158093
 30
0.0
 11
130.0683799662
 21
136.9433109431
 31
0.0
  0
SPLINE
  5
29B
330
1F
100
AcDbEntity
  8
0
  6
Continuous
 62
     7
370
    25
100
AcDbSpline
210
0.0
220
0.0
230
1.0
 70
     8
 71
     3
 72
    10
 73
     6
 74
     0
 42
0.00000001
 43
0.00000001
 40
0.0
 40
0.0
 40
0.0
 40
0.0
 40
0.2383396858856107
 40
0.571650633368965
 40
1.0
 40
1.0
 40
1.0
 40
1.0
 10
129.4198266600785
 20
136.70278983919
 30
0.0
 10
129.1755604049785
 20
136.6281916367631
 30
0.0
 10
128.5896950719781
 20
136.4492700714893
 30
0.0
 10
127.5531402709725
 20
136.2129259592342
 30
0.0
 10
126.758446175373
 20
136.1543425830488
 30
0.0
 10
126.31151897409
 20
136.1213959379116
 30
0.0
  0
SPLINE
  5
29C
330
1F
100
AcDbEntity
  8
0
  6
Continuous
 62
     7
370
    25
100
AcDbSpline
210
0.0
220
0.0
230
1.0
 70
     8
 71
     3
 72
    11
 73
     7
 74
     0
 42
0.00000001
 43
0.00000001
 40
0.0
 40
0.0
 40
0.0
 40
0.0
 40
0.2506671725023492
 40
0.5010414677145718
 40
0.7508849997170933
 40
1.0
 40
1.0
 40
1.0
 40
1.0
 10
123.2431304688803
 20
136.1968453396323
 30
0.0
 10
123.7188184814409
 20
136.2237199062875
 30
0.0
 10
124.669638716928
 20
136.2774376395937
 30
0.0
 10
126.0703113341403
 20
136.5629031032476
 30
0.0
 10
127.4338770953921
 20
136.9844312498673
 30
0.0
 10
128.286544641948
 20
137.4007883275642
 30
0.0
 10
128.7122559232614
 20
137.6086629039407
 30
0.0
  0
SPLINE
  5
29D
330
1F
100
AcDbEntity
  8
0
  6
Continuous
 62
     7
370
    25
100
AcDbSpline
210
0.0
220
0.0
230
1.0
 70
     8
 71
     3
 72
     9
 73
     5
 74
     0
 42
0.00000001
 43
0.00000001
 40
0.0
 40
0.0
 40
0.0
 40
0.0
 40
0.501325902198991
 40
1.0
 40
1.0
 40
1.0
 40
1.0
 10
128.7122558938196
 20
137.6086629573049
 30
0.0
 10
128.9363315946536
 20
137.733705614775
 30
0.0
 10
129.3832977295594
 20
137.9831295063426
 30
0.0
 10
129.7973430092549
 20
138.2848976147638
 30
0.0
 10
130.0038166655559
 20
138.4353815539759
 30
0.0
  0
LINE
  5
29E
330
1F
100
AcDbEntity
  8
0
  6
Continuous
 62
     7
370
    25
100
AcDbLine
 10
132.0695971256
 20
138.5501479933
 30
0.0
 11
130.0036433907
 21
138.4353727858
 31
0.0
  0
SPLINE
  5
29F
330
1F
100
AcDbEntity
  8
0
  6
Continuous
 62
     7
370
    25
100
AcDbSpline
210
0.0
220
0.0
230
1.0
 70
     8
 71
     3
 72
    14
 73
    10
 74
     0
 42
0.00000001
 43
0.00000001
 40
0.0
 40
0.0
 40
0.0
 40
0.0
 40
0.0829413618596714
 40
0.1664594845668882
 40
0.2437726390188662
 40
0.3161479456895724
 40
0.4353725718192331
 40
0.6486290670514194
 40
1.0
 40
1.0
 40
1.0
 40
1.0
 10
132.0695971127151
 20
138.5501479884726
 30
0.0
 10
132.1153964139901
 20
138.5483327988902
 30
0.0
 10
132.2073134974911
 20
138.5446897971899
 30
0.0
 10
132.2578585300274
 20
138.4630286647023
 30
0.0
 10
132.2169536335872
 20
138.3297451844175
 30
0.0
 10
132.0813525874827
 20
138.1414187281799
 30
0.0
 10
131.7644443167379
 20
137.8431516485176
 30
0.0
 10
131.0874557065047
 20
137.3851244897323
 30
0.0
 10
130.4592888902913
 20
137.1127889610544
 30
0.0
 10
130.0683770265665
 20
136.9433129774046
 30
0.0
  0
LINE
  5
2A0
330
1F
100
AcDbEntity
  8
0
  6
Continuous
 62
     7
370
    25
100
AcDbLine
 10
130.0036433906
 20
129.2531620085
 30
0.0
 11
132.0695971255
 21
129.138386801
 31
0.0
  0
SPLINE
  5
2A1
330
1F
100
AcDbEntity
  8
0
  6
Continuous
 62
     7
370
    25
100
AcDbSpline
210
0.0
220
0.0
230
1.0
 70
     8
 71
     3
 72
     9
 73
     5
 74
     0
 42
0.00000001
 43
0.00000001
 40
0.0
 40
0.0
 40
0.0
 40
0.0
 40
0.4986740982738612
 40
1.0
 40
1.0
 40
1.0
 40
1.0
 10
130.0038164643303
 20
129.2531530584593
 30
0.0
 10
129.7973428232605
 20
129.4036369947383
 30
0.0
 10
129.3832975745009
 20
129.7054050969917
 30
0.0
 10
128.936331472556
 20
129.954828988614
 30
0.0
 10
128.7122557884575
 20
130.0798716459936
 30
0.0
  0
SPLINE
  5
2A2
330
1F
100
AcDbEntity
  8
0
  6
Continuous
 62
     7
370
    25
100
AcDbSpline
210
0.0
220
0.0
230
1.0
 70
     8
 71
     3
 72
    11
 73
     7
 74
     0
 42
0.00000001
 43
0.00000001
 40
0.0
 40
0.0
 40
0.0
 40
0.0
 40
0.2491150002829079
 40
0.4989585322854286
 40
0.7493328274976518
 40
1.0
 40
1.0
 40
1.0
 40
1.0
 10
128.7122559232614
 20
130.0798718903297
 30
0.0
 10
128.286544641948
 20
130.2877464667062
 30
0.0
 10
127.4338770953921
 20
130.7041035444032
 30
0.0
 10
126.0703113341403
 20
131.1256316910229
 30
0.0
 10
124.669638716928
 20
131.4110971546768
 30
0.0
 10
123.7188184814409
 20
131.464814887983
 30
0.0
 10
123.2431304688803
 20
131.4916894546381
 30
0.0
  0
SPLINE
  5
2A3
330
1F
100
AcDbEntity
  8
0
  6
Continuous
 62
     7
370
    25
100
AcDbSpline
210
0.0
220
0.0
230
1.0
 70
     8
 71
     3
 72
    10
 73
     6
 74
     0
 42
0.00000001
 43
0.00000001
 40
0.0
 40
0.0
 40
0.0
 40
0.0
 40
0.428349366631063
 40
0.7616603141144169
 40
1.0
 40
1.0
 40
1.0
 40
1.0
 10
126.31151897409
 20
131.5671388563589
 30
0.0
 10
126.758446175373
 20
131.5341922112218
 30
0.0
 10
127.5531402709726
 20
131.4756088350363
 30
0.0
 10
128.5896950719782
 20
131.2392647227813
 30
0.0
 10
129.1755604049786
 20
131.0603431575076
 30
0.0
 10
129.4198266600786
 20
130.9857449550807
 30
0.0
  0
LINE
  5
2A4
330
1F
100
AcDbEntity
  8
0
  6
Continuous
 62
     7
370
    25
100
AcDbLine
 10
129.4177265
 20
130.9793189847
 30
0.0
 11
130.0683799661
 21
130.7452238509
 31
0.0
  0
SPLINE
  5
2A5
330
1F
100
AcDbEntity
  8
0
  6
Continuous
 62
     7
370
    25
100
AcDbSpline
210
0.0
220
0.0
230
1.0
 70
     8
 71
     3
 72
    15
 73
    11
 74
     0
 42
0.00000001
 43
0.00000001
 40
0.0
 40
0.0
 40
0.0
 40
0.0
 40
0.2091652517822448
 40
0.4176299509274911
 40
0.5931463878153098
 40
0.6923603779431111
 40
0.7731125739307029
 40
0.8543366880968446
 40
0.9261517123972134
 40
1.0
 40
1.0
 40
1.0
 40
1.0
 10
130.068377026476
 20
130.7452218166344
 30
0.0
 10
130.3019612385713
 20
130.647524184145
 30
0.0
 10
130.7683473242315
 20
130.4524561357257
 30
0.0
 10
131.3919974714106
 20
130.1031762823732
 30
0.0
 10
131.8518471007112
 20
129.7702860954298
 30
0.0
 10
132.113731471481
 20
129.5086680093938
 30
0.0
 10
132.2342014519963
 20
129.32807399648
 30
0.0
 10
132.2529946789059
 20
129.2059798331697
 30
0.0
 10
132.1919564775995
 20
129.1419298438512
 30
0.0
 10
132.1107613590881
 20
129.1395787578133
 30
0.0
 10
132.0695971126802
 20
129.1383868057999
 30
0.0
  0
SPLINE
  5
2A6
330
1F
100
AcDbEntity
  8
0
  6
Continuous
 62
     7
370
    25
100
AcDbSpline
210
0.0
220
0.0
230
1.0
 70
    24
 71
     3
 72
    11
 73
     7
 74
     0
 42
0.00000001
 43
0.00000001
 40
0.0
 40
0.0
 40
0.0
 40
0.0
 40
0.2499999999999989
 40
0.4999999999999996
 40
0.749999999999999
 40
1.0
 40
1.0
 40
1.0
 40
1.0
 10
138.8367803883803
 20
130.7391533433307
 30
0.0
 10
138.8384668588843
 20
130.8035570535258
 30
0.0
 10
138.8418397998921
 20
130.9323644739159
 30
0.0
 10
138.8461196967934
 20
131.0958071425262
 30
0.0
 10
138.8491618176072
 20
131.2119810493996
 30
0.0
 10
138.8496301908298
 20
131.2298675011461
 30
0.0
 10
138.849864377441
 20
131.2388107270193
 30
0.0
  0
LINE
  5
2A7
330
1F
100
AcDbEntity
  8
0
  6
Continuous
 62
     7
370
    25
100
AcDbLine
 10
129.4198266601
 20
130.9857449551
 30
0.0
 11
138.8367803884
 21
130.7391533433
 31
0.0
  0
LINE
  5
2A8
330
1F
100
AcDbEntity
  8
0
  6
Continuous
 62
     7
370
    25
100
AcDbLine
 10
138.8367803884
 20
136.9493814509
 30
0.0
 11
129.4198266601
 21
136.7027898392
 31
0.0
  0
SPLINE
  5
2A9
330
1F
100
AcDbEntity
  8
0
  6
Continuous
 62
     7
370
    25
100
AcDbSpline
210
0.0
220
0.0
230
1.0
 70
    24
 71
     3
 72
    11
 73
     7
 74
     0
 42
0.00000001
 43
0.00000001
 40
0.0
 40
0.0
 40
0.0
 40
0.0
 40
0.2500000000000009
 40
0.5000000000000002
 40
0.7500000000000007
 40
0.9999999999999999
 40
0.9999999999999999
 40
0.9999999999999999
 40
0.9999999999999999
 10
138.849864377441
 20
136.4497240672511
 30
0.0
 10
138.8496301908297
 20
136.4586672931244
 30
0.0
 10
138.8491618176072
 20
136.476553744871
 30
0.0
 10
138.8461196967934
 20
136.5927276517442
 30
0.0
 10
138.8418397998921
 20
136.7561703203546
 30
0.0
 10
138.8384668588842
 20
136.8849777407447
 30
0.0
 10
138.8367803883803
 20
136.9493814509398
 30
0.0
  0
ELLIPSE
  5
2AA
330
1F
100
AcDbEntity
  8
0
  6
Continuous
 62
     7
370
    25
100
AcDbEllipse
 10
138.8498509222
 20
132.7401824843
 30
0.0
 11
2.497021557391548
 21
-0.152599110346614
 31
2.131628207280301E-14
210
-8.504919643681506E-15
220
5.197564944336037E-16
230
1.0
 40
0.7994627403
 41
4.755979052769789
 42
6.332003616895594
  0
SPLINE
  5
2AB
330
1F
100
AcDbEntity
  8
0
  6
Continuous
 62
     7
370
    25
100
AcDbSpline
210
0.0
220
0.0
230
1.0
 70
    24
 71
     3
 72
    11
 73
     7
 74
     0
 42
0.00000001
 43
0.00000001
 40
0.0
 40
0.0
 40
0.0
 40
0.0
 40
0.2500000000000007
 40
0.5000000000000022
 40
0.7500000000000036
 40
1.0
 40
1.0
 40
1.0
 40
1.0
 10
140.9498509221614
 20
132.685181277435
 30
0.0
 10
140.9751108603656
 20
132.685181277435
 30
0.0
 10
141.0256307367739
 20
132.685181277435
 30
0.0
 10
141.1244893459743
 20
132.685181277435
 30
0.0
 10
141.2338766257977
 20
132.685181277435
 30
0.0
 10
141.3111928233735
 20
132.685181277435
 30
0.0
 10
141.3498509221614
 20
132.685181277435
 30
0.0
  0
ELLIPSE
  5
2AC
330
1F
100
AcDbEntity
  8
0
  6
Continuous
 62
     7
370
    25
100
AcDbEllipse
 10
138.8498509222
 20
134.9483523099
 30
0.0
 11
2.497021557391548
 21
0.1525991103465856
 31
2.131628207280301E-14
210
-8.504919643681509E-15
220
-5.197564944336039E-16
230
0.9999999999999998
 40
0.7994627403
 41
6.234366997463597
 42
7.810391561589404
  0
SPLINE
  5
2AD
330
1F
100
AcDbEntity
  8
0
  6
Continuous
 62
     7
370
    25
100
AcDbSpline
210
0.0
220
0.0
230
1.0
 70
    24
 71
     3
 72
    11
 73
     7
 74
     0
 42
0.00000001
 43
0.00000001
 40
0.0
 40
0.0
 40
0.0
 40
0.0
 40
0.2500000000000002
 40
0.500000000000003
 40
0.7499999999999994
 40
1.0
 40
1.0
 40
1.0
 40
1.0
 10
141.3498509221614
 20
135.0033535168354
 30
0.0
 10
141.3111928233735
 20
135.0033535168354
 30
0.0
 10
141.2338766257977
 20
135.0033535168354
 30
0.0
 10
141.1244893459743
 20
135.0033535168354
 30
0.0
 10
141.0256307367739
 20
135.0033535168354
 30
0.0
 10
140.9751108603656
 20
135.0033535168354
 30
0.0
 10
140.9498509221614
 20
135.0033535168354
 30
0.0
  0
LINE
  5
2AE
330
1F
100
AcDbEntity
  8
0
  6
Continuous
 62
     7
370
    25
100
AcDbLine
 10
141.4866725967
 20
130.1175289729
 30
0.0
 11
130.0709433132
 21
130.7517361553
 31
0.0
  0
LINE
  5
2AF
330
1F
100
AcDbEntity
  8
0
  6
Continuous
 62
     7
370
    25
100
AcDbLine
 10
141.4034675672
 20
128.6198384431
 30
0.0
 11
141.4866725967
 21
130.1175289729
 31
0.0
  0
LINE
  5
2B0
330
1F
100
AcDbEntity
  8
0
  6
Continuous
 62
     7
370
    25
100
AcDbLine
 10
132.0697895557
 20
129.1383761104
 30
0.0
 11
141.4034675672
 21
128.6198384431
 31
0.0
  0
LINE
  5
2B1
330
1F
100
AcDbEntity
  8
0
  6
Continuous
 62
     7
370
    25
100
AcDbLine
 10
141.3498509222
 20
132.6851812774
 30
0.0
 11
141.3498509222
 21
135.0033535168
 31
0.0
  0
LINE
  5
2B2
330
1F
100
AcDbEntity
  8
0
  6
Continuous
 62
     7
370
    25
100
AcDbLine
 10
141.4034675672
 20
139.0686963512
 30
0.0
 11
132.0697895557
 21
138.5501586839
 31
0.0
  0
LINE
  5
2B3
330
1F
100
AcDbEntity
  8
0
  6
Continuous
 62
     7
370
    25
100
AcDbLine
 10
141.4866725967
 20
137.5710058214
 30
0.0
 11
141.4034675672
 21
139.0686963512
 31
0.0
  0
LINE
  5
2B4
330
1F
100
AcDbEntity
  8
0
  6
Continuous
 62
     7
370
    25
100
AcDbLine
 10
130.0709433132
 20
136.9367986389
 30
0.0
 11
141.4866725967
 21
137.5710058214
 31
0.0
  0
LINE
  5
2B5
330
1F
100
AcDbEntity
  8
0
  6
Continuous
 62
     7
370
    25
100
AcDbLine
 10
141.8498509222
 20
130.4807072984
 30
0.0
 11
141.4866725967
 21
130.1175289729
 31
0.0
  0
LINE
  5
2B6
330
1F
100
AcDbEntity
  8
0
  6
Continuous
 62
     7
370
    25
100
AcDbLine
 10
141.4866725967
 20
137.5710058214
 30
0.0
 11
141.8498509222
 21
137.2078274959
 31
0.0
  0
LINE
  5
2B7
330
1F
100
AcDbEntity
  8
0
  6
Continuous
 62
     7
370
    25
100
AcDbLine
 10
141.8498509222
 20
130.4807072984
 30
0.0
 11
141.8498509222
 21
137.2078274959
 31
0.0
  0
LINE
  5
2B8
330
1F
100
AcDbEntity
  8
0
  6
Continuous
 62
     7
370
    25
100
AcDbLine
 10
141.8498509222
 20
137.9341841469
 30
0.0
 11
141.4866725967
 21
137.5710058214
 31
0.0
  0
ARC
  5
2B9
330
1F
100
AcDbEntity
  8
0
  6
Continuous
 62
     7
370
    25
100
AcDbCircle
 10
141.4866725967
 20
137.5710058214
 30
0.0
 40
1.500000000000011
100
AcDbArc
 50
75.9883675978
 51
93.1798301199
  0
LINE
  5
2BA
330
1F
100
AcDbEntity
  8
0
  6
Continuous
 62
     7
370
    25
100
AcDbLine
 10
141.8498509222
 20
137.9341841469
 30
0.0
 11
141.8498509222
 21
139.026375707
 31
0.0
  0
LINE
  5
2BB
330
1F
100
AcDbEntity
  8
0
  6
Continuous
 62
     7
370
    25
100
AcDbLine
 10
141.8498509222
 20
137.2078274959
 30
0.0
 11
141.8498509222
 21
137.9341841469
 31
0.0
  0
LINE
  5
2BC
330
1F
100
AcDbEntity
  8
0
  6
Continuous
 62
     7
370
    25
100
AcDbLine
 10
141.4866725967
 20
130.1175289729
 30
0.0
 11
141.8498509222
 21
129.7543506474
 31
0.0
  0
LINE
  5
2BD
330
1F
100
AcDbEntity
  8
0
  6
Continuous
 62
     7
370
    25
100
AcDbLine
 10
141.8498509222
 20
129.7543506474
 30
0.0
 11
141.8498509222
 21
130.4807072984
 31
0.0
  0
ARC
  5
2BE
330
1F
100
AcDbEntity
  8
0
  6
Continuous
 62
     7
370
    25
100
AcDbCircle
 10
141.4866725967
 20
130.1175289729
 30
0.0
 40
1.500000000000006
100
AcDbArc
 50
266.8201698801
 51
284.0116324022
  0
LINE
  5
2BF
330
1F
100
AcDbEntity
  8
0
  6
Continuous
 62
     7
370
    25
100
AcDbLine
 10
141.8498509222
 20
128.6621590873
 30
0.0
 11
141.8498509222
 21
129.7543506474
 31
0.0
  0
SPLINE
  5
2C0
330
1F
100
AcDbEntity
  8
0
  6
Continuous
 62
     7
370
    25
100
AcDbSpline
210
0.0
220
0.0
230
1.0
 70
    24
 71
     3
 72
     9
 73
     5
 74
     0
 42
0.00000001
 43
0.00000001
 40
0.0
 40
0.0
 40
0.0
 40
0.0
 40
0.5389665913333133
 40
0.9999999999999999
 40
0.9999999999999999
 40
0.9999999999999999
 40
0.9999999999999999
 10
130.0038174609607
 20
138.4353824563769
 30
0.0
 10
129.9578915191832
 20
138.432831015167
 30
0.0
 10
129.8726804086692
 20
138.4280970645829
 30
0.0
 10
129.8852616008323
 20
138.428796019703
 30
0.0
 10
129.8910619507403
 20
138.4291182613646
 30
0.0
  0
SPLINE
  5
2C1
330
1F
100
AcDbEntity
  8
0
  6
Continuous
 62
     7
370
    25
100
AcDbSpline
210
0.0
220
0.0
230
1.0
 70
    24
 71
     3
 72
     9
 73
     5
 74
     0
 42
0.00000001
 43
0.00000001
 40
0.0
 40
0.0
 40
0.0
 40
0.0
 40
0.449000901028251
 40
1.0
 40
1.0
 40
1.0
 40
1.0
 10
129.8971600219056
 20
129.2590777511745
 30
0.0
 10
129.888774469314
 20
129.2595436152073
 30
0.0
 10
129.8700984431133
 20
129.2605811722185
 30
0.0
 10
129.9563132048988
 20
129.2557914632304
 30
0.0
 10
130.0038174609607
 20
129.2531523378937
 30
0.0
  0
SPLINE
  5
2C2
330
1F
100
AcDbEntity
  8
0
  6
Continuous
 62
     7
370
    25
100
AcDbSpline
210
0.0
220
0.0
230
1.0
 70
     8
 71
     3
 72
     9
 73
     5
 74
     0
 42
0.00000001
 43
0.00000001
 40
0.0
 40
0.0
 40
0.0
 40
0.0
 40
0.5407747560677784
 40
1.0
 40
1.0
 40
1.0
 40
1.0
 10
101.6155823001393
 20
135.6305080595519
 30
0.0
 10
101.6078262580919
 20
135.6305375599648
 30
0.0
 10
101.5934837948751
 20
135.6305921120911
 30
0.0
 10
101.5791652910672
 20
135.6299878669562
 30
0.0
 10
101.5725898726632
 20
135.6297103823367
 30
0.0
  0
LINE
  5
2C3
330
1F
100
AcDbEntity
  8
0
  6
Continuous
 62
     7
370
    25
100
AcDbLine
 10
101.6155823001
 20
132.0580267347
 30
0.0
 11
101.5725898727
 21
132.0588244119
 31
0.0
  0
CIRCLE
  5
2C4
330
1F
100
AcDbEntity
  8
0
  6
Continuous
 62
     7
370
    25
100
AcDbCircle
 10
151.8498509222
 20
133.8442673971
 30
0.0
 40
7.558608890731335
  0
CIRCLE
  5
2C5
330
1F
100
AcDbEntity
  8
0
  6
Continuous
 62
     7
370
    25
100
AcDbCircle
 10
151.8498509222
 20
133.8442673971
 30
0.0
 40
5.5
  0
CIRCLE
  5
2C6
330
1F
100
AcDbEntity
  8
0
  6
Continuous
 62
     7
370
    25
100
AcDbCircle
 10
151.8498509222
 20
133.8442673971
 30
0.0
 40
8.054747829088171
  0
SPLINE
  5
2C7
330
1F
100
AcDbEntity
  8
0
  6
Continuous
 62
     7
370
    25
100
AcDbSpline
210
0.0
220
0.0
230
1.0
 70
     8
 71
     3
 72
    11
 73
     7
 74
     0
 42
0.00000001
 43
0.00000001
 40
0.0
 40
0.0
 40
0.0
 40
0.0
 40
0.2920574028183094
 40
0.5665622171831318
 40
0.8065682389915578
 40
1.0
 40
1.0
 40
1.0
 40
1.0
 10
143.733645315108
 20
132.3645016913443
 30
0.0
 10
143.7653058514236
 20
132.1969011559206
 30
0.0
 10
143.8267241324842
 20
131.8717728419851
 30
0.0
 10
143.9066364917487
 20
131.4711691761188
 30
0.0
 10
143.9457353054762
 20
131.2133289801137
 30
0.0
 10
143.9303189425466
 20
131.162683551832
 30
0.0
 10
143.9234390295625
 20
131.1400818434256
 30
0.0
  0
ARC
  5
2C8
330
1F
100
AcDbEntity
  8
0
  6
Continuous
 62
     7
370
    25
100
AcDbCircle
 10
151.8498509222
 20
133.8442673971
 30
0.0
 40
8.249999999999968
100
AcDbArc
 50
169.6671934996
 51
190.3328065004
  0
SPLINE
  5
2C9
330
1F
100
AcDbEntity
  8
0
  6
Continuous
 62
     7
370
    25
100
AcDbSpline
210
0.0
220
0.0
230
1.0
 70
     8
 71
     3
 72
    12
 73
     8
 74
     0
 42
0.00000001
 43
0.00000001
 40
0.0
 40
0.0
 40
0.0
 40
0.0
 40
0.1882084234719069
 40
0.3759134198095928
 40
0.5768476463044282
 40
0.8018243756979397
 40
1.0
 40
1.0
 40
1.0
 40
1.0
 10
143.9234390295659
 20
136.5484529508415
 30
0.0
 10
143.9303106209354
 20
136.5268497563288
 30
0.0
 10
143.9440354232773
 20
136.4837011523597
 30
0.0
 10
143.9182107233192
 20
136.2901612945771
 30
0.0
 10
143.8671309286776
 20
136.015332236538
 30
0.0
 10
143.7998909270094
 20
135.6795920991687
 30
0.0
 10
143.7547746798892
 20
135.4374403991559
 30
0.0
 10
143.733645315108
 20
135.3240331029262
 30
0.0
  0
ARC
  5
2CA
330
1F
100
AcDbEntity
  8
0
  6
Continuous
 62
     7
370
    25
100
AcDbCircle
 10
151.8498509222
 20
133.8442673971
 30
0.0
 40
8.986048245081998
100
AcDbArc
 50
200.7364869057
 51
159.2635130943
  0
LINE
  5
2CB
330
1F
100
AcDbEntity
  8
0
  6
Continuous
 62
     7
370
    25
100
AcDbLine
 10
143.9234390296
 20
131.1400818434
 30
0.0
 11
142.1937793779
 21
129.4104221917
 31
0.0
  0
LINE
  5
2CC
330
1F
100
AcDbEntity
  8
0
  6
Continuous
 62
     7
370
    25
100
AcDbLine
 10
142.1937793779
 20
138.2781126025
 30
0.0
 11
143.9234390296
 21
136.5484529508
 31
0.0
  0
ARC
  5
2CD
330
1F
100
AcDbEntity
  8
0
  6
Continuous
 62
     7
370
    25
100
AcDbCircle
 10
141.4866725967
 20
137.5710058214
 30
0.0
 40
1.000000000000016
100
AcDbArc
 50
45.0
 51
68.7044833353
  0
ARC
  5
2CE
330
1F
100
AcDbEntity
  8
0
  6
Continuous
 62
     7
370
    25
100
AcDbCircle
 10
141.4866725967
 20
130.1175289729
 30
0.0
 40
1.000000000000016
100
AcDbArc
 50
291.2955166647
 51
315.0
  0
SPLINE
  5
2CF
330
1F
100
AcDbEntity
  8
0
  6
Continuous
 62
     7
370
    25
100
AcDbSpline
210
0.0
220
0.0
230
1.0
 70
     8
 71
     3
 72
    12
 73
     8
 74
     0
 42
0.00000001
 43
0.00000001
 40
0.0
 40
0.0
 40
0.0
 40
0.0
 40
0.2500000000000001
 40
0.2500000000000001
 40
0.5000000000000001
 40
0.5000000000000001
 40
1.0
 40
1.0
 40
1.0
 40
1.0
 10
162.76213768189
 20
142.5799700019633
 30
0.0
 10
162.9955886567414
 20
141.8740941544089
 30
0.0
 10
163.2124355258822
 20
141.1613924598491
 30
0.0
 10
163.6014191770859
 20
139.7176090254984
 30
0.0
 10
163.7717829772543
 20
138.9926014500665
 30
0.0
 10
164.1924348105931
 20
136.8069984835207
 30
0.0
 10
164.3498509221614
 20
135.3351129128181
 30
0.0
 10
164.3498509221614
 20
133.8442673971352
 30
0.0
  0
LINE
  5
2D0
330
1F
100
AcDbEntity
  8
0
  6
Continuous
 62
     7
370
    25
100
AcDbLine
 10
162.7621376819
 20
146.3442673971
 30
0.0
 11
162.7621376819
 21
142.579970002
 31
0.0
  0
SPLINE
  5
2D1
330
1F
100
AcDbEntity
  8
0
  6
Continuous
 62
     7
370
    25
100
AcDbSpline
210
0.0
220
0.0
230
1.0
 70
    24
 71
     3
 72
    12
 73
     8
 74
     0
 42
0.00000001
 43
0.00000001
 40
0.0
 40
0.0
 40
0.0
 40
0.0
 40
0.25
 40
0.25
 40
0.5
 40
0.5
 40
1.0
 40
1.0
 40
1.0
 40
1.0
 10
164.3498509221614
 20
146.3442673971352
 30
0.0
 10
164.3498509221614
 20
146.3442673971352
 30
0.0
 10
164.3105013966106
 20
146.3442673971352
 30
0.0
 10
164.159841887237
 20
146.3442673971352
 30
0.0
 10
164.0489337045322
 20
146.3442673971352
 30
0.0
 10
163.6276846795374
 20
146.3442673971352
 30
0.0
 10
163.229992190925
 20
146.3442673971352
 30
0.0
 10
162.76213768189
 20
146.3442673971352
 30
0.0
  0
LINE
  5
2D2
330
1F
100
AcDbEntity
  8
0
  6
Continuous
 62
     7
370
    25
100
AcDbLine
 10
164.3498509222
 20
146.3442673971
 30
0.0
 11
164.3498509222
 21
133.8442673971
 31
0.0
  0
LINE
  5
2D3
330
1F
100
AcDbEntity
  8
0
  6
Continuous
 62
     7
370
    25
100
AcDbLine
 10
140.4375641624
 20
142.579970002
 30
0.0
 11
140.4375641624
 21
146.3442673971
 31
0.0
  0
SPLINE
  5
2D4
330
1F
100
AcDbEntity
  8
0
  6
Continuous
 62
     7
370
    25
100
AcDbSpline
210
0.0
220
0.0
230
1.0
 70
     8
 71
     3
 72
     9
 73
     5
 74
     0
 42
0.00000001
 43
0.00000001
 40
0.0
 40
0.0
 40
0.0
 40
0.0
 40
0.4287809552668792
 40
0.9999999999999999
 40
0.9999999999999999
 40
0.9999999999999999
 40
0.9999999999999999
 10
139.4824958166121
 20
138.9619756983574
 30
0.0
 10
139.5850424317684
 20
139.4878333877036
 30
0.0
 10
139.8242009435835
 20
140.7142350804255
 30
0.0
 10
140.214575042539
 20
141.9016792676583
 30
0.0
 10
140.4375641624329
 20
142.5799700019633
 30
0.0
  0
LINE
  5
2D5
330
1F
100
AcDbEntity
  8
0
  6
Continuous
 62
     7
370
    25
100
AcDbLine
 10
138.8498509222
 20
138.9268287598
 30
0.0
 11
138.8498509222
 21
146.3442673971
 31
0.0
  0
SPLINE
  5
2D6
330
1F
100
AcDbEntity
  8
0
  6
Continuous
 62
     7
370
    25
100
AcDbSpline
210
0.0
220
0.0
230
1.0
 70
    24
 71
     3
 72
    12
 73
     8
 74
     0
 42
0.00000001
 43
0.00000001
 40
0.0
 40
0.0
 40
0.0
 40
0.0
 40
0.25
 40
0.25
 40
0.5
 40
0.5
 40
1.0
 40
1.0
 40
1.0
 40
1.0
 10
138.8498509221614
 20
146.3442673971352
 30
0.0
 10
138.8498509221614
 20
146.3442673971352
 30
0.0
 10
138.889244007531
 20
146.3442673971352
 30
0.0
 10
139.0398754102964
 20
146.3442673971352
 30
0.0
 10
139.1507558394682
 20
146.3442673971352
 30
0.0
 10
139.5719432454326
 20
146.3442673971352
 30
0.0
 10
139.9696309909123
 20
146.3442673971352
 30
0.0
 10
140.4375641624329
 20
146.3442673971352
 30
0.0
  0
LINE
  5
2D7
330
1F
100
AcDbEntity
  8
0
  6
Continuous
 62
     7
370
    25
100
AcDbLine
 10
162.7621376819
 20
142.579970002
 30
0.0
 11
153.98887066
 21
142.579970002
 31
0.0
  0
LINE
  5
2D8
330
1F
100
AcDbEntity
  8
0
  6
Continuous
 62
     7
370
    25
100
AcDbLine
 10
149.7108311843
 20
142.579970002
 30
0.0
 11
140.4375641624
 21
142.579970002
 31
0.0
  0
LINE
  5
2D9
330
1F
100
AcDbEntity
  8
0
  6
Continuous
 62
     7
370
    25
100
AcDbLine
 10
162.7621376819
 20
146.3442673971
 30
0.0
 11
140.4375641624
 21
146.3442673971
 31
0.0
  0
SPLINE
  5
2DA
330
1F
100
AcDbEntity
  8
0
  6
Continuous
 62
     7
370
    25
100
AcDbSpline
210
0.0
220
0.0
230
1.0
 70
     8
 71
     3
 72
    12
 73
     8
 74
     0
 42
0.00000001
 43
0.00000001
 40
0.0
 40
0.0
 40
0.0
 40
0.0
 40
0.2500000000000001
 40
0.2500000000000001
 40
0.5000000000000001
 40
0.5000000000000001
 40
1.0
 40
1.0
 40
1.0
 40
1.0
 10
164.3498509221614
 20
133.8442673971352
 30
0.0
 10
164.3498509221614
 20
133.0994400486865
 30
0.0
 10
164.3105013966106
 20
132.3476155711047
 30
0.0
 10
164.159841887237
 20
130.8664527697784
 30
0.0
 10
164.0489337045322
 20
130.1333338593298
 30
0.0
 10
163.6276846795374
 20
127.9525449253622
 30
0.0
 10
163.229992190925
 20
126.5231967008158
 30
0.0
 10
162.76213768189
 20
125.1085647923072
 30
0.0
  0
LINE
  5
2DB
330
1F
100
AcDbEntity
  8
0
  6
Continuous
 62
     7
370
    25
100
AcDbLine
 10
162.7621376819
 20
125.1085647923
 30
0.0
 11
153.98887066
 21
125.1085647923
 31
0.0
  0
LINE
  5
2DC
330
1F
100
AcDbEntity
  8
0
  6
Continuous
 62
     7
370
    25
100
AcDbLine
 10
149.7108311843
 20
125.1085647923
 30
0.0
 11
140.4375641624
 21
125.1085647923
 31
0.0
  0
SPLINE
  5
2DD
330
1F
100
AcDbEntity
  8
0
  6
Continuous
 62
     7
370
    25
100
AcDbSpline
210
0.0
220
0.0
230
1.0
 70
     8
 71
     3
 72
     9
 73
     5
 74
     0
 42
0.00000001
 43
0.00000001
 40
0.0
 40
0.0
 40
0.0
 40
0.0
 40
0.5268904349897643
 40
0.9999999999999999
 40
0.9999999999999999
 40
0.9999999999999999
 40
0.9999999999999999
 10
140.4375641624329
 20
125.1085647923072
 30
0.0
 10
140.2357708715719
 20
125.737294918813
 30
0.0
 10
139.8527817765717
 20
126.9305792996882
 30
0.0
 10
139.5702869847201
 20
128.1514847956002
 30
0.0
 10
139.4366359966295
 20
128.7291068636898
 30
0.0
  0
SPLINE
  5
2DE
330
1F
100
AcDbEntity
  8
0
  6
Continuous
 62
     7
370
    25
100
AcDbSpline
210
0.0
220
0.0
230
1.0
 70
    24
 71
     3
 72
    12
 73
     8
 74
     0
 42
0.00000001
 43
0.00000001
 40
0.0
 40
0.0
 40
0.0
 40
0.0
 40
0.2500000000000001
 40
0.2500000000000001
 40
0.5
 40
0.5
 40
1.0
 40
1.0
 40
1.0
 40
1.0
 10
164.3498509221614
 20
121.3442673971352
 30
0.0
 10
164.3498509221614
 20
121.3442673971352
 30
0.0
 10
164.3105013966106
 20
121.3442673971352
 30
0.0
 10
164.159841887237
 20
121.3442673971352
 30
0.0
 10
164.0489337045322
 20
121.3442673971352
 30
0.0
 10
163.6276846795374
 20
121.3442673971352
 30
0.0
 10
163.229992190925
 20
121.3442673971352
 30
0.0
 10
162.76213768189
 20
121.3442673971352
 30
0.0
  0
LINE
  5
2DF
330
1F
100
AcDbEntity
  8
0
  6
Continuous
 62
     7
370
    25
100
AcDbLine
 10
162.7621376819
 20
125.1085647923
 30
0.0
 11
162.7621376819
 21
121.3442673971
 31
0.0
  0
LINE
  5
2E0
330
1F
100
AcDbEntity
  8
0
  6
Continuous
 62
     7
370
    25
100
AcDbLine
 10
164.3498509222
 20
133.8442673971
 30
0.0
 11
164.3498509222
 21
121.3442673971
 31
0.0
  0
LINE
  5
2E1
330
1F
100
AcDbEntity
  8
0
  6
Continuous
 62
     7
370
    25
100
AcDbLine
 10
140.4375641624
 20
121.3442673971
 30
0.0
 11
140.4375641624
 21
125.1085647923
 31
0.0
  0
SPLINE
  5
2E2
330
1F
100
AcDbEntity
  8
0
  6
Continuous
 62
     7
370
    25
100
AcDbSpline
210
0.0
220
0.0
230
1.0
 70
    24
 71
     3
 72
    12
 73
     8
 74
     0
 42
0.00000001
 43
0.00000001
 40
0.0
 40
0.0
 40
0.0
 40
0.0
 40
0.2500000000000001
 40
0.2500000000000001
 40
0.5000000000000001
 40
0.5000000000000001
 40
1.0
 40
1.0
 40
1.0
 40
1.0
 10
138.8498509221614
 20
121.3442673971352
 30
0.0
 10
138.8498509221614
 20
121.3442673971352
 30
0.0
 10
138.889244007531
 20
121.3442673971352
 30
0.0
 10
139.0398754102964
 20
121.3442673971352
 30
0.0
 10
139.1507558394682
 20
121.3442673971352
 30
0.0
 10
139.5719432454326
 20
121.3442673971352
 30
0.0
 10
139.9696309909123
 20
121.3442673971352
 30
0.0
 10
140.4375641624329
 20
121.3442673971352
 30
0.0
  0
LINE
  5
2E3
330
1F
100
AcDbEntity
  8
0
  6
Continuous
 62
     7
370
    25
100
AcDbLine
 10
138.8498509222
 20
121.3442673971
 30
0.0
 11
138.8498509222
 21
128.7617060345
 31
0.0
  0
LINE
  5
2E4
330
1F
100
AcDbEntity
  8
0
  6
Continuous
 62
     7
370
    25
100
AcDbLine
 10
162.7621376819
 20
121.3442673971
 30
0.0
 11
140.4375641624
 21
121.3442673971
 31
0.0
  0
LINE
  5
2E5
330
1F
100
AcDbEntity
  8
0
  6
Continuous
 62
     7
370
    25
100
AcDbLine
 10
176.6534596492
 20
123.5375051699
 30
0.0
 11
176.6534596492
 21
144.1510296244
 31
0.0
  0
LINE
  5
2E6
330
1F
100
AcDbEntity
  8
0
  6
Continuous
 62
     7
370
    25
100
AcDbLine
 10
179.3498509222
 20
142.5942673971
 30
0.0
 11
179.3498509222
 21
125.0942673971
 31
0.0
  0
LINE
  5
2E7
330
1F
100
AcDbEntity
  8
0
  6
Continuous
 62
     7
370
    25
100
AcDbLine
 10
107.2676514285
 20
128.8915082516
 30
0.0
 11
107.2676514285
 21
126.5246339794
 31
0.0
  0
LINE
  5
2E8
330
1F
100
AcDbEntity
  8
0
  6
Continuous
 62
     7
370
    25
100
AcDbLine
 10
107.2676514285
 20
141.1639008149
 30
0.0
 11
107.2676514285
 21
135.7790268872
 31
0.0
  0
LINE
  5
2E9
330
1F
100
AcDbEntity
  8
0
  6
Continuous
 62
     7
370
    25
100
AcDbLine
 10
107.2676514285
 20
131.9095079071
 30
0.0
 11
107.2676514285
 21
128.8915082516
 31
0.0
  0
LINE
  5
2EA
330
1F
100
AcDbEntity
  8
0
  6
Continuous
 62
     7
370
    25
100
AcDbLine
 10
128.699179619
 20
130.0561706945
 30
0.0
 11
128.7122559233
 21
130.0798718903
 31
0.0
  0
ARC
  5
2EB
330
1F
100
AcDbEntity
  8
0
  6
Continuous
 62
     7
370
    25
100
AcDbCircle
 10
96.785728784
 20
132.8632725781
 30
0.0
 40
0.263434467851294
100
AcDbArc
 50
154.8368907458
 51
203.8328861643
  0
ARC
  5
2EC
330
1F
100
AcDbEntity
  8
0
  6
Continuous
 62
     7
370
    25
100
AcDbCircle
 10
96.7854723293
 20
134.8252102905
 30
0.0
 40
0.2631802791688401
100
AcDbArc
 50
155.8684497843
 51
205.1766169394
  0
LINE
  5
2ED
330
1F
100
AcDbEntity
  8
0
  6
Continuous
 62
     7
370
    25
100
AcDbLine
 10
96.4026373267
 20
134.0057129915
 30
0.0
 11
96.3498510108
 21
134.0057129915
 31
0.0
  0
LINE
  5
2EE
330
1F
100
AcDbEntity
  8
0
  6
Continuous
 62
     7
370
    25
100
AcDbLine
 10
96.4026373267
 20
133.6828218028
 30
0.0
 11
96.3498509894
 21
133.6828218028
 31
0.0
  0
LINE
  5
2EF
330
1F
100
AcDbEntity
  8
0
  6
Continuous
 62
     7
370
    25
100
AcDbLine
 10
142.1937793779
 20
129.4104221917
 30
0.0
 11
141.8498509222
 21
129.7543506474
 31
0.0
  0
LINE
  5
2F0
330
1F
100
AcDbEntity
  8
0
  6
Continuous
 62
     7
370
    25
100
AcDbLine
 10
141.8498509222
 20
130.4807072984
 30
0.0
 11
143.7336453151
 21
132.3645016913
 31
0.0
  0
LINE
  5
2F1
330
1F
100
AcDbEntity
  8
0
  6
Continuous
 62
     7
370
    25
100
AcDbLine
 10
143.7336453151
 20
135.3240331029
 30
0.0
 11
141.8498509222
 21
137.2078274959
 31
0.0
  0
LINE
  5
2F2
330
1F
100
AcDbEntity
  8
0
  6
Continuous
 62
     7
370
    25
100
AcDbLine
 10
142.1937793779
 20
138.2781126025
 30
0.0
 11
141.8498509222
 21
137.9341841469
 31
0.0
  0
INSERT
  5
2FE
330
1F
100
AcDbEntity
  8
0
  6
Continuous
 62
     7
370
    18
100
AcDbBlockReference
  2
SW_CENTERMARKSYMBOL_1
 10
151.8498509222
 20
133.8442673971
 30
0.0
  0
LINE
  5
2FF
330
1F
100
AcDbEntity
  8
0
  6
Continuous
 62
     7
370
    18
100
AcDbLine
 10
164.8498509222
 20
124.0756423971
 30
0.0
 11
178.3143268034
 21
124.4964072684
 31
0.0
  0
LINE
  5
300
330
1F
100
AcDbEntity
  8
0
  6
Continuous
 62
     7
370
    18
100
AcDbLine
 10
178.3143268034
 20
143.1921275258
 30
0.0
 11
164.8498509222
 21
143.6128923971
 31
0.0
  0
ENDSEC
  0
SECTION
  2
OBJECTS
  0
DICTIONARY
  5
C
330
0
100
AcDbDictionary
281
     1
  3
ACAD_GROUP
350
D
  3
ACAD_LAYOUT
350
1A
  3
ACAD_MLINESTYLE
350
17
  3
ACAD_PLOTSETTINGS
350
19
  3
ACAD_PLOTSTYLENAME
350
E
  3
ACAD_SCALELIST
350
47
  3
DWGPROPS
350
301
  0
DICTIONARY
  5
D
102
{ACAD_REACTORS
330
C
102
}
330
C
100
AcDbDictionary
281
     1
  0
DICTIONARY
  5
1A
102
{ACAD_REACTORS
330
C
102
}
330
C
100
AcDbDictionary
281
     1
  3
Layout1
350
1E
  3
Layout2
350
26
  3
Model
350
22
  0
DICTIONARY
  5
17
102
{ACAD_REACTORS
330
C
102
}
330
C
100
AcDbDictionary
281
     1
  3
Standard
350
18
  0
DICTIONARY
  5
19
102
{ACAD_REACTORS
330
C
102
}
330
C
100
AcDbDictionary
281
     1
  0
ACDBDICTIONARYWDFLT
  5
E
102
{ACAD_REACTORS
330
C
102
}
330
C
100
AcDbDictionary
281
     1
  3
Normal
350
F
100
AcDbDictionaryWithDefault
340
F
  0
DICTIONARY
  5
47
102
{ACAD_REACTORS
330
C
102
}
330
C
100
AcDbDictionary
281
     1
  3
A0
350
48
  3
A1
350
49
  3
A2
350
4A
  3
A3
350
4B
  3
A4
350
4C
  3
A5
350
4D
  3
A6
350
4E
  3
A7
350
4F
  3
A8
350
50
  3
A9
350
51
  3
B0
350
52
  3
B1
350
53
  3
B2
350
54
  3
B3
350
55
  3
B4
350
56
  3
B5
350
57
  3
B6
350
58
  0
XRECORD
  5
301
102
{ACAD_REACTORS
330
C
102
}
330
C
100
AcDbXrecord
280
     1
  1
DWGPROPS COOKIE
  2

  3

  4

  6

  7

  8
user28
  9

300
=
301
=
302
=
303
=
304
=
305
=
306
=
307
=
308
=
309
=
 40
0.0
 41
2460299.03243515
 42
2460299.03243625
  1

 90
        0
  0
LAYOUT
  5
1E
102
{ACAD_REACTORS
330
1A
102
}
330
1A
100
AcDbPlotSettings
  1

  2
none_device
  4

  6

 40
0.0
 41
0.0
 42
0.0
 43
0.0
 44
0.0
 45
0.0
 46
0.0
 47
0.0
 48
0.0
 49
0.0
140
0.0
141
0.0
142
1.0
143
1.0
 70
   688
 72
     1
 73
     0
 74
     5
  7

 75
    16
147
1.0
148
0.0
149
0.0
100
AcDbLayout
  1
Layout1
 70
     1
 71
     1
 10
0.0
 20
0.0
 11
420.0
 21
297.0
 12
0.0
 22
0.0
 32
0.0
 14
1.0000000000E+20
 24
1.0000000000E+20
 34
1.0000000000E+20
 15
-1.0000000000E+20
 25
-1.0000000000E+20
 35
-1.0000000000E+20
146
0.0
 13
0.0
 23
0.0
 33
0.0
 16
1.0
 26
0.0
 36
0.0
 17
0.0
 27
1.0
 37
0.0
 76
     0
330
1B
  0
LAYOUT
  5
26
102
{ACAD_REACTORS
330
1A
102
}
330
1A
100
AcDbPlotSettings
  1

  2
none_device
  4

  6

 40
0.0
 41
0.0
 42
0.0
 43
0.0
 44
0.0
 45
0.0
 46
0.0
 47
0.0
 48
0.0
 49
0.0
140
0.0
141
0.0
142
1.0
143
1.0
 70
   688
 72
     1
 73
     0
 74
     5
  7

 75
    16
147
1.0
148
0.0
149
0.0
100
AcDbLayout
  1
Layout2
 70
     1
 71
     2
 10
0.0
 20
0.0
 11
0.0
 21
0.0
 12
0.0
 22
0.0
 32
0.0
 14
0.0
 24
0.0
 34
0.0
 15
0.0
 25
0.0
 35
0.0
146
0.0
 13
0.0
 23
0.0
 33
0.0
 16
1.0
 26
0.0
 36
0.0
 17
0.0
 27
1.0
 37
0.0
 76
     0
330
23
  0
LAYOUT
  5
22
102
{ACAD_REACTORS
330
1A
102
}
330
1A
100
AcDbPlotSettings
  1

  2
none_device
  4
Letter_(8.50_x_11.00_Inches)
  6

 40
6.35
 41
6.35
 42
6.35000508
 43
6.35000508
 44
215.9
 45
279.4
 46
0.0
 47
0.0
 48
0.0
 49
0.0
140
0.0
141
0.0
142
1.0
143
1.0
 70
  1712
 72
     1
 73
     0
 74
     0
  7

 75
     0
147
1.0
148
0.0
149
0.0
100
AcDbLayout
  1
Model
 70
     1
 71
     0
 10
0.0
 20
0.0
 11
431.8
 21
279.4
 12
0.0
 22
0.0
 32
0.0
 14
0.0
 24
0.0
 34
0.0
 15
431.8
 25
279.4
 35
0.0
146
0.0
 13
0.0
 23
0.0
 33
0.0
 16
1.0
 26
0.0
 36
0.0
 17
0.0
 27
1.0
 37
0.0
 76
     0
330
1F
331
29
  0
MLINESTYLE
  5
18
102
{ACAD_REACTORS
330
17
102
}
330
17
100
AcDbMlineStyle
  2
Standard
 70
     0
  3

 62
   256
 51
90.0
 52
90.0
 71
     2
 49
0.5
 62
   256
  6
BYLAYER
 49
-0.5
 62
   256
  6
BYLAYER
  0
ACDBPLACEHOLDER
  5
F
102
{ACAD_REACTORS
330
E
102
}
330
E
  0
SCALE
  5
48
102
{ACAD_REACTORS
330
47
102
}
330
47
100
AcDbScale
 70
     0
300
1:1
140
1.0
141
1.0
290
     1
  0
SCALE
  5
49
102
{ACAD_REACTORS
330
47
102
}
330
47
100
AcDbScale
 70
     0
300
1:2
140
1.0
141
2.0
290
     0
  0
SCALE
  5
4A
102
{ACAD_REACTORS
330
47
102
}
330
47
100
AcDbScale
 70
     0
300
1:4
140
1.0
141
4.0
290
     0
  0
SCALE
  5
4B
102
{ACAD_REACTORS
330
47
102
}
330
47
100
AcDbScale
 70
     0
300
1:5
140
1.0
141
5.0
290
     0
  0
SCALE
  5
4C
102
{ACAD_REACTORS
330
47
102
}
330
47
100
AcDbScale
 70
     0
300
1:8
140
1.0
141
8.0
290
     0
  0
SCALE
  5
4D
102
{ACAD_REACTORS
330
47
102
}
330
47
100
AcDbScale
 70
     0
300
1:10
140
1.0
141
10.0
290
     0
  0
SCALE
  5
4E
102
{ACAD_REACTORS
330
47
102
}
330
47
100
AcDbScale
 70
     0
300
1:16
140
1.0
141
16.0
290
     0
  0
SCALE
  5
4F
102
{ACAD_REACTORS
330
47
102
}
330
47
100
AcDbScale
 70
     0
300
1:20
140
1.0
141
20.0
290
     0
  0
SCALE
  5
50
102
{ACAD_REACTORS
330
47
102
}
330
47
100
AcDbScale
 70
     0
300
1:30
140
1.0
141
30.0
290
     0
  0
SCALE
  5
51
102
{ACAD_REACTORS
330
47
102
}
330
47
100
AcDbScale
 70
     0
300
1:40
140
1.0
141
40.0
290
     0
  0
SCALE
  5
52
102
{ACAD_REACTORS
330
47
102
}
330
47
100
AcDbScale
 70
     0
300
1:50
140
1.0
141
50.0
290
     0
  0
SCALE
  5
53
102
{ACAD_REACTORS
330
47
102
}
330
47
100
AcDbScale
 70
     0
300
1:100
140
1.0
141
100.0
290
     0
  0
SCALE
  5
54
102
{ACAD_REACTORS
330
47
102
}
330
47
100
AcDbScale
 70
     0
300
2:1
140
2.0
141
1.0
290
     0
  0
SCALE
  5
55
102
{ACAD_REACTORS
330
47
102
}
330
47
100
AcDbScale
 70
     0
300
4:1
140
4.0
141
1.0
290
     0
  0
SCALE
  5
56
102
{ACAD_REACTORS
330
47
102
}
330
47
100
AcDbScale
 70
     0
300
8:1
140
8.0
141
1.0
290
     0
  0
SCALE
  5
57
102
{ACAD_REACTORS
330
47
102
}
330
47
100
AcDbScale
 70
     0
300
10:1
140
10.0
141
1.0
290
     0
  0
SCALE
  5
58
102
{ACAD_REACTORS
330
47
102
}
330
47
100
AcDbScale
 70
     0
300
100:1
140
100.0
141
1.0
290
     0
  0
ENDSEC
  0
EOF
