  0
SECTION
  2
HEADER
  9
$ACADVER
  1
AC1015
  9
$ACADMAINTVER
 70
    20
  9
$DWGCODEPAGE
  3
ANSI_932
  9
$INSBASE
 10
0.0
 20
0.0
 30
0.0
  9
$EXTMIN
 10
259.6602927770523
 20
201.0352590169352
 30
0.0
  9
$EXTMAX
 10
313.4951281614947
 20
243.1370853942709
 30
0.0
  9
$LIMMIN
 10
222.770076765816
 20
167.1114176541369
  9
$LIMMAX
 10
371.2700767658159
 20
272.1114176541369
  9
$ORTHOMODE
 70
     0
  9
$REGENMODE
 70
     1
  9
$FILLMODE
 70
     1
  9
$QTEXTMODE
 70
     0
  9
$MIRRTEXT
 70
     1
  9
$LTSCALE
 40
0.5
  9
$ATTMODE
 70
     1
  9
$TEXTSIZE
 40
1.5
  9
$TRACEWID
 40
1.0
  9
$TEXTSTYLE
  7
STANDARD
  9
$CLAYER
  8
0
  9
$CELTYPE
  6
ByLayer
  9
$CECOLOR
 62
   256
  9
$CELTSCALE
 40
1.0
  9
$DISPSILH
 70
     0
  9
$DIMSCALE
 40
0.5
  9
$DIMASZ
 40
2.5
  9
$DIMEXO
 40
1.0
  9
$DIMDLI
 40
10.0
  9
$DIMRND
 40
0.0
  9
$DIMDLE
 40
0.0
  9
$DIMEXE
 40
1.0
  9
$DIMTP
 40
0.1
  9
$DIMTM
 40
0.1
  9
$DIMTXT
 40
3.5
  9
$DIMCEN
 40
0.0
  9
$DIMTSZ
 40
0.0
  9
$DIMTOL
 70
     0
  9
$DIMLIM
 70
     0
  9
$DIMTIH
 70
     0
  9
$DIMTOH
 70
     0
  9
$DIMSE1
 70
     0
  9
$DIMSE2
 70
     0
  9
$DIMTAD
 70
     3
  9
$DIMZIN
 70
     8
  9
$DIMBLK
  1
Open30
  9
$DIMASO
 70
     1
  9
$DIMSHO
 70
     1
  9
$DIMPOST
  1

  9
$DIMAPOST
  1
"
  9
$DIMALT
 70
     0
  9
$DIMALTD
 70
     2
  9
$DIMALTF
 40
0.0393701
  9
$DIMLFAC
 40
1.0
  9
$DIMTOFL
 70
     1
  9
$DIMTVP
 40
0.0
  9
$DIMTIX
 70
     0
  9
$DIMSOXD
 70
     0
  9
$DIMSAH
 70
     0
  9
$DIMBLK1
  1
Open30
  9
$DIMBLK2
  1
Open30
  9
$DIMSTYLE
  2
AM_JIS
  9
$DIMCLRD
 70
   256
  9
$DIMCLRE
 70
   256
  9
$DIMCLRT
 70
     2
  9
$DIMTFAC
 40
0.71
  9
$DIMGAP
 40
1.5
  9
$DIMJUST
 70
     0
  9
$DIMSD1
 70
     0
  9
$DIMSD2
 70
     0
  9
$DIMTOLJ
 70
     0
  9
$DIMTZIN
 70
     8
  9
$DIMALTZ
 70
     0
  9
$DIMALTTZ
 70
     0
  9
$DIMUPT
 70
     0
  9
$DIMDEC
 70
     2
  9
$DIMTDEC
 70
     3
  9
$DIMALTU
 70
     2
  9
$DIMALTTD
 70
     4
  9
$DIMTXSTY
  7
STANDARD
  9
$DIMAUNIT
 70
     0
  9
$DIMADEC
 70
     0
  9
$DIMALTRND
 40
0.0
  9
$DIMAZIN
 70
     2
  9
$DIMDSEP
 70
    46
  9
$DIMATFIT
 70
     3
  9
$DIMFRAC
 70
     0
  9
$DIMLDRBLK
  1
Open30
  9
$DIMLUNIT
 70
     2
  9
$DIMLWD
 70
    -1
  9
$DIMLWE
 70
    -1
  9
$DIMTMOVE
 70
     0
  9
$LUNITS
 70
     2
  9
$LUPREC
 70
     2
  9
$SKETCHINC
 40
1.0
  9
$FILLETRAD
 40
2.5
  9
$AUNITS
 70
     0
  9
$AUPREC
 70
     0
  9
$MENU
  1
.
  9
$ELEVATION
 40
0.0
  9
$PELEVATION
 40
0.0
  9
$THICKNESS
 40
0.0
  9
$LIMCHECK
 70
     0
  9
$CHAMFERA
 40
2.5
  9
$CHAMFERB
 40
2.5
  9
$CHAMFERC
 40
20.0
  9
$CHAMFERD
 40
0.0
  9
$SKPOLY
 70
     0
  9
$TDCREATE
 40
2454784.375539815
  9
$TDUCREATE
 40
2454784.000539814
  9
$TDUPDATE
 40
2455800.576716389
  9
$TDUUPDATE
 40
2455800.201716389
  9
$TDINDWG
 40
0.2287568519
  9
$TDUSRTIMER
 40
0.2287566782
  9
$USRTIMER
 70
     1
  9
$ANGBASE
 50
0.0
  9
$ANGDIR
 70
     0
  9
$PDMODE
 70
     0
  9
$PDSIZE
 40
0.0
  9
$PLINEWID
 40
0.0
  9
$SPLFRAME
 70
     0
  9
$SPLINETYPE
 70
     6
  9
$SPLINESEGS
 70
     8
  9
$HANDSEED
  5
4353
  9
$SURFTAB1
 70
     6
  9
$SURFTAB2
 70
     6
  9
$SURFTYPE
 70
     6
  9
$SURFU
 70
     6
  9
$SURFV
 70
     6
  9
$UCSBASE
  2

  9
$UCSNAME
  2

  9
$UCSORG
 10
0.0
 20
0.0
 30
0.0
  9
$UCSXDIR
 10
1.0
 20
0.0
 30
0.0
  9
$UCSYDIR
 10
0.0
 20
1.0
 30
0.0
  9
$UCSORTHOREF
  2

  9
$UCSORTHOVIEW
 70
     0
  9
$UCSORGTOP
 10
0.0
 20
0.0
 30
0.0
  9
$UCSORGBOTTOM
 10
0.0
 20
0.0
 30
0.0
  9
$UCSORGLEFT
 10
0.0
 20
0.0
 30
0.0
  9
$UCSORGRIGHT
 10
0.0
 20
0.0
 30
0.0
  9
$UCSORGFRONT
 10
0.0
 20
0.0
 30
0.0
  9
$UCSORGBACK
 10
0.0
 20
0.0
 30
0.0
  9
$PUCSBASE
  2

  9
$PUCSNAME
  2

  9
$PUCSORG
 10
0.0
 20
0.0
 30
0.0
  9
$PUCSXDIR
 10
1.0
 20
0.0
 30
0.0
  9
$PUCSYDIR
 10
0.0
 20
1.0
 30
0.0
  9
$PUCSORTHOREF
  2

  9
$PUCSORTHOVIEW
 70
     0
  9
$PUCSORGTOP
 10
0.0
 20
0.0
 30
0.0
  9
$PUCSORGBOTTOM
 10
0.0
 20
0.0
 30
0.0
  9
$PUCSORGLEFT
 10
0.0
 20
0.0
 30
0.0
  9
$PUCSORGRIGHT
 10
0.0
 20
0.0
 30
0.0
  9
$PUCSORGFRONT
 10
0.0
 20
0.0
 30
0.0
  9
$PUCSORGBACK
 10
0.0
 20
0.0
 30
0.0
  9
$USERI1
 70
     0
  9
$USERI2
 70
     0
  9
$USERI3
 70
     0
  9
$USERI4
 70
     0
  9
$USERI5
 70
     0
  9
$USERR1
 40
0.0
  9
$USERR2
 40
0.0
  9
$USERR3
 40
0.0
  9
$USERR4
 40
0.0
  9
$USERR5
 40
0.0
  9
$WORLDVIEW
 70
     1
  9
$SHADEDGE
 70
     3
  9
$SHADEDIF
 70
    70
  9
$TILEMODE
 70
     1
  9
$MAXACTVP
 70
    64
  9
$PINSBASE
 10
0.0
 20
0.0
 30
0.0
  9
$PLIMCHECK
 70
     0
  9
$PEXTMIN
 10
1.000000000000000E+20
 20
1.000000000000000E+20
 30
1.000000000000000E+20
  9
$PEXTMAX
 10
-1.000000000000000E+20
 20
-1.000000000000000E+20
 30
-1.000000000000000E+20
  9
$PLIMMIN
 10
0.0
 20
0.0
  9
$PLIMMAX
 10
420.0
 20
297.0
  9
$UNITMODE
 70
     0
  9
$VISRETAIN
 70
     1
  9
$PLINEGEN
 70
     0
  9
$PSLTSCALE
 70
     1
  9
$TREEDEPTH
 70
  3020
  9
$CMLSTYLE
  2
Standard
  9
$CMLJUST
 70
     0
  9
$CMLSCALE
 40
20.0
  9
$PROXYGRAPHICS
 70
     1
  9
$MEASUREMENT
 70
     1
  9
$CELWEIGHT
370
    -1
  9
$ENDCAPS
280
     0
  9
$JOINSTYLE
280
     0
  9
$LWDISPLAY
290
     0
  9
$INSUNITS
 70
     4
  9
$HYPERLINKBASE
  1

  9
$STYLESHEET
  1
IMAGIO.ctb
  9
$XEDIT
290
     1
  9
$CEPSNTYPE
380
     0
  9
$PSTYLEMODE
290
     1
  9
$FINGERPRINTGUID
  2
{195D72E8-7936-4A99-BEE5-8CE1A826B80A}
  9
$VERSIONGUID
  2
{D5F62E3C-0BE7-4B4E-B1B1-5F686FE9290F}
  9
$EXTNAMES
290
     1
  9
$PSVPSCALE
 40
0.0
  9
$OLESTARTUP
290
     0
  0
ENDSEC
  0
SECTION
  2
CLASSES
  0
CLASS
  1
ACDBDICTIONARYWDFLT
  2
AcDbDictionaryWithDefault
  3
ObjectDBX Classes
 90
        0
280
     0
281
     0
  0
CLASS
  1
ACDBPLACEHOLDER
  2
AcDbPlaceHolder
  3
ObjectDBX Classes
 90
        0
280
     0
281
     0
  0
CLASS
  1
LAYOUT
  2
AcDbLayout
  3
ObjectDBX Classes
 90
        0
280
     0
281
     0
  0
CLASS
  1
AMGSETTINGSOBJ
  2
AmgSettingsObj
  3
"AcadM|Product Description: AutoCAD Mechanical|Company: Autodesk, Inc."
 90
     1024
280
     0
281
     0
  0
CLASS
  1
ACME_DOCUMENT
  2
AcMeDbDoc
  3
AcMeServices
 90
     1024
280
     0
281
     0
  0
CLASS
  1
ACMESCOPE
  2
AcMeScope
  3
AcMeServices
 90
     1024
280
     0
281
     0
  0
CLASS
  1
ACMECOMMANDHISTORY
  2
AcMeCommandHistory
  3
AcMeServices
 90
     1024
280
     0
281
     0
  0
CLASS
  1
DICTIONARYVAR
  2
AcDbDictionaryVar
  3
ObjectDBX Classes
 90
        0
280
     0
281
     0
  0
CLASS
  1
ACIMSYSVARMAN
  2
AcImSysVarManager
  3
AcMeServices
 90
     1024
280
     0
281
     0
  0
CLASS
  1
ACIMREALSYSVAR
  2
AcImRealSysVar
  3
AcMeServices
 90
     1024
280
     0
281
     0
  0
CLASS
  1
ACIMINTSYSVAR
  2
AcImIntSysVar
  3
AcMeServices
 90
     1024
280
     0
281
     0
  0
CLASS
  1
ACMEDRAWINGMAN
  2
AcMeDrawingMan
  3
AcMeServices
 90
    33792
280
     0
281
     0
  0
CLASS
  1
ACMEVIEW
  2
AcMeView
  3
AcMeServices
 90
    33792
280
     0
281
     0
  0
CLASS
  1
ACDBENTITYCACHE
  2
AcMeEntityCache
  3
AcMeServices
 90
     1024
280
     0
281
     0
  0
CLASS
  1
GSMANAGER
  2
AcMeGSManager
  3
AcMeServices
 90
    32768
280
     0
281
     0
  0
CLASS
  1
AMDTINTERNALREACTOR
  2
AmdtInternalReactor
  3
AcMeServices
 90
     1024
280
     0
281
     0
  0
CLASS
  1
ACMESTATEMGR
  2
AcMeStateMgr
  3
AcMeServices
 90
     1024
280
     0
281
     0
  0
CLASS
  1
ACME_DATABASE
  2
AcMeDbDatabase
  3
AcMeServices
 90
     1024
280
     0
281
     0
  0
CLASS
  1
ACRFINSADJUSTERMGR
  2
AcRfInsAdjusterMgr
  3
AcMeServices
 90
     1024
280
     0
281
     0
  0
CLASS
  1
ACMDATADICTIONARY
  2
AcmDataDictionary
  3
"AcmSymBB|Product Description: AutoCAD Mechanical|Company: Autodesk, Inc."
 90
     1024
280
     0
281
     0
  0
CLASS
  1
ACMDATAENTRYBLOCK
  2
AcmDataEntryBlock
  3
AcmSymBB|Product Description: AutoCAD Mechanical|Company: Autodesk, Inc.
 90
     1024
280
     0
281
     0
  0
CLASS
  1
AMGOBJPROPCFG
  2
AmgObjPropCfg
  3
"AmgLay|Product Description: AutoCAD Mechanical|Company: Autodesk, Inc."
 90
     1025
280
     0
281
     0
  0
CLASS
  1
ACAMGFILTERDAT
  2
AcAmgFilterDat
  3
"AcadM|Product Description: AutoCAD Mechanical|Company: Autodesk, Inc."
 90
     1024
280
     0
281
     0
  0
CLASS
  1
LAYER_INDEX
  2
AcDbLayerIndex
  3
ObjectDBX Classes
 90
    32768
280
     0
281
     0
  0
CLASS
  1
IDBUFFER
  2
AcDbIdBuffer
  3
ObjectDBX Classes
 90
    32768
280
     0
281
     0
  0
CLASS
  1
ACIMSTRSYSVAR
  2
AcImStrSysVar
  3
AcMeServices
 90
     1024
280
     0
281
     0
  0
CLASS
  1
ACMSTANDARDJIS
  2
AcmStandardJIS
  3
"Amdt_StdImp|Product Description: AutoCAD Mechanical|Company: Autodesk, Inc."
 90
     1024
280
     0
281
     0
  0
CLASS
  1
ACMSURFSTANDARDJIS
  2
AcmSurfTextStdJIS
  3
"Amdt_StdImp|Product Description: AutoCAD Mechanical|Company: Autodesk, Inc."
 90
     1024
280
     0
281
     0
  0
CLASS
  1
ACMFCFSTANDARDJIS
  2
AcmFCFStdJIS
  3
"Amdt_StdImp|Product Description: AutoCAD Mechanical|Company: Autodesk, Inc."
 90
     1024
280
     0
281
     0
  0
CLASS
  1
ACMWELDSTANDARDJIS
  2
AcmWeldingStdJIS
  3
"Amdt_StdImp|Product Description: AutoCAD Mechanical|Company: Autodesk, Inc."
 90
     1024
280
     0
281
     0
  0
CLASS
  1
ACMIDSTANDARDJIS
  2
AcmIdStdJIS
  3
"Amdt_StdImp|Product Description: AutoCAD Mechanical|Company: Autodesk, Inc."
 90
     1024
280
     0
281
     0
  0
CLASS
  1
ACMDATUMSTANDARDJIS
  2
AcmDatumStdJIS
  3
"Amdt_StdImp|Product Description: AutoCAD Mechanical|Company: Autodesk, Inc."
 90
     1024
280
     0
281
     0
  0
CLASS
  1
ACMBOMSTANDARDJIS
  2
AcmBOMStdJIS
  3
"Amdt_StdImp|Product Description: AutoCAD Mechanical|Company: Autodesk, Inc."
 90
     1024
280
     0
281
     0
  0
CLASS
  1
MATERIAL
  2
AcDbMaterial
  3
ObjectDBX Classes
 90
     1153
280
     0
281
     0
  0
CLASS
  1
VISUALSTYLE
  2
AcDbVisualStyle
  3
ObjectDBX Classes
 90
     4095
280
     0
281
     0
  0
CLASS
  1
TABLESTYLE
  2
AcDbTableStyle
  3
ObjectDBX Classes
 90
     4095
280
     0
281
     0
  0
CLASS
  1
ACGREFMASTER
  2
AcGrefMaster
  3
AcAttribServices
 90
     1024
280
     0
281
     0
  0
CLASS
  1
AM_DRAWING_MGR
  2
AcDmDwgMgr
  3
AcMechDwgViewMgmt
 90
     1024
280
     0
281
     0
  0
CLASS
  1
AM_DWG_DOCUMENT
  2
AcDmDwgDocument
  3
AcMechDwgViewMgmt
 90
     1024
280
     0
281
     0
  0
CLASS
  1
AM_DWG_SHEET
  2
AcDmSheet
  3
AcMechDwgViewMgmt
 90
     1024
280
     0
281
     0
  0
CLASS
  1
AM_VIEWDIMPARMAP
  2
AcDmViewDimParMap
  3
AcMechDwgViewMgmt
 90
     1024
280
     0
281
     0
  0
CLASS
  1
AM_DWGMGR_NAME
  2
AcDmDwgMgrName
  3
AcMechDwgViewMgmt
 90
     1024
280
     0
281
     0
  0
CLASS
  1
ACGREFACADMASTER
  2
AcGrefacadMaster
  3
AcGrefServices
 90
     1024
280
     0
281
     0
  0
CLASS
  1
AMDTMENUSTATEMGR
  2
AmdtMenuStateMgr
  3
McadcomServices
 90
     1024
280
     0
281
     0
  0
CLASS
  1
AMDTMCOMMENUSTATE
  2
AmdtMcomMenuState
  3
McadcomServices
 90
     1024
280
     0
281
     0
  0
CLASS
  1
AMIMASTER
  2
AmiMaster
  3
AmiServices
 90
     1024
280
     0
281
     0
  0
CLASS
  1
MAPIAMMOUDLE
  2
MApiAmModule
  3
MApiAmServices
 90
     1024
280
     0
281
     0
  0
CLASS
  1
AMDTADMENUSTATE
  2
AmdtAdMenuState
  3
DesignerServices
 90
    32768
280
     0
281
     0
  0
CLASS
  1
ADAPPL
  2
AcAdAppl
  3
DesignerAssemblies
 90
    33792
280
     0
281
     0
  0
CLASS
  1
DEPMGR
  2
AcAdDepMgr
  3
DesignerAssemblies
 90
    33792
280
     0
281
     0
  0
CLASS
  1
PARAMMGR
  2
AcAdParamMgr
  3
DesignerAssemblies
 90
    33792
280
     0
281
     0
  0
CLASS
  1
PARAMSCOPE
  2
AcAdParamScope
  3
DesignerAssemblies
 90
    33792
280
     0
281
     0
  0
CLASS
  1
NAMEDAPPL
  2
AcAdNamedAppl
  3
DesignerAssemblies
 90
    33792
280
     0
281
     0
  0
CLASS
  1
AMDTDMMENUSTATE
  2
AmdtDmMenuState
  3
AcMechDwgViewMgmt
 90
     1024
280
     0
281
     0
  0
CLASS
  1
AMDTAMMENUSTATE
  2
AmdtAmMenuState
  3
DesignerAssemblies
 90
     1024
280
     0
281
     0
  0
CLASS
  1
ACAMPROJECT
  2
AcAmProject
  3
DesignerAssemblies
 90
     1024
280
     0
281
     0
  0
CLASS
  1
ACAMGRCOMPDEF
  2
AcAmGrCompDef
  3
DesignerAssemblies
 90
     1024
280
     0
281
     0
  0
CLASS
  1
ACCMCONTEXT
  2
AcCmContext
  3
DesignerAssemblies
 90
     1024
280
     0
281
     0
  0
CLASS
  1
ACAMCOMPDEF
  2
AcAmCompDef
  3
DesignerAssemblies
 90
     1024
280
     0
281
     0
  0
CLASS
  1
ACAMCOMPDEFMGR
  2
AcAmCompDefMgr
  3
DesignerAssemblies
 90
     1024
280
     0
281
     0
  0
CLASS
  1
AMCONTEXTMGR
  2
AcAmContextMgr
  3
DesignerAssemblies
 90
     1024
280
     0
281
     0
  0
CLASS
  1
ACAMCONTEXTMODELER
  2
AcAmContextModeler
  3
DesignerAssemblies
 90
     1024
280
     0
281
     0
  0
CLASS
  1
ACRFATTGENMGR
  2
AcRfAttGeneralMgr
  3
AcAttribServices
 90
     1024
280
     0
281
     0
  0
CLASS
  1
ACRFOBJATTMGR
  2
AcRfObjAttGroupMgr
  3
AcAttribServices
 90
     1024
280
     0
281
     0
  0
CLASS
  1
ACRFMCADAPIATTHOLDER
  2
AcRfMCADAPIAttHolder
  3
AcAttribServices
 90
     1024
280
     0
281
     0
  0
CLASS
  1
AMDTSYSATTR
  2
AmdtSystemAttribute
  3
AcAttribServices
 90
     1024
280
     0
281
     0
  0
CLASS
  1
ACAMGTITLESTD
  2
AcAmgTitleStd
  3
"AmgTitle|Product Description: AutoCAD Mechanical|Company: Autodesk, Inc."
 90
     4095
280
     0
281
     0
  0
CLASS
  1
ACMDETAILSTANDARDJIS
  2
AmdtDetailSymStdJIS
  3
"Amdt_StdImp|Product Description: AutoCAD Mechanical|Company: Autodesk, Inc."
 90
     1024
280
     0
281
     0
  0
CLASS
  1
ACMSECTIONSTANDARDJIS
  2
AmdtSectionSymStdJIS
  3
"Amdt_StdImp|Product Description: AutoCAD Mechanical|Company: Autodesk, Inc."
 90
     1024
280
     0
281
     0
  0
CLASS
  1
ACMCENTERLINESTANDARDJIS
  2
AmdtCenterLineStdJIS
  3
"Amdt_StdImp|Product Description: AutoCAD Mechanical|Company: Autodesk, Inc."
 90
     1024
280
     0
281
     0
  0
CLASS
  1
ACMTHREADLINESTANDARDJIS
  2
AmdtThreadLineStdJIS
  3
"Amdt_StdImp|Product Description: AutoCAD Mechanical|Company: Autodesk, Inc."
 90
     1024
280
     0
281
     0
  0
CLASS
  1
ACMNOTESTANDARDJIS
  2
AmdtNoteStdJIS
  3
"Amdt_StdImp|Product Description: AutoCAD Mechanical|Company: Autodesk, Inc."
 90
     1024
280
     0
281
     0
  0
CLASS
  1
AMDTNOTETEMPLATEDB
  2
AmdtNoteTemplateDB
  3
AcmSymBB|Product Description: AutoCAD Mechanical|Company: Autodesk, Inc.
 90
     1024
280
     0
281
     0
  0
CLASS
  1
ACMTAPERSTANDARDJIS
  2
AcmTaperStdJIS
  3
"Amdt_StdImp|Product Description: AutoCAD Mechanical|Company: Autodesk, Inc."
 90
     1024
280
     0
281
     0
  0
CLASS
  1
ACAMGLAYSTD
  2
AcAmgLayStd
  3
"AmgLay|Product Description: AutoCAD Mechanical|Company: Autodesk, Inc."
 90
     1024
280
     0
281
     0
  0
CLASS
  1
ACAMGDIMSTD
  2
AcAmgDimStd
  3
"AmgDim|Product Description: AutoCAD Mechanical|Company: Autodesk, Inc."
 90
     1024
280
     0
281
     0
  0
CLASS
  1
ACAMGHOLECHARTSTDJIS
  2
AcAmgHoleChartStdJIS
  3
AmgDim|Product Description: AutoCAD Mechanical|Company: Autodesk, Inc.
 90
     1024
280
     0
281
     0
  0
CLASS
  1
CATALOGSTATE
  2
AcAmCatalogState
  3
DesignerAssemblies
 90
    33792
280
     0
281
     0
  0
CLASS
  1
ACAMGRCOMPDEFSET
  2
AcAmGrCompDefSet
  3
DesignerAssemblies
 90
     1024
280
     0
281
     0
  0
CLASS
  1
AMDTBROWSERDBTAB
  2
AmdtBrowserDbTab
  3
McadcomServices
 90
     1024
280
     0
281
     0
  0
CLASS
  1
CBROWSERAPPOBJECT
  2
CBrowserAppObject
  3
McadcomServices
 90
     1024
280
     0
281
     0
  0
CLASS
  1
DM_PLACEHOLDER
  2
AcDmSelsetPlaceholder
  3
AcMechDwgViewMgmt
 90
     1024
280
     0
281
     0
  0
CLASS
  1
CAMSSTRUCTBTNSTATE
  2
StructBtnState
  3
DesignerAssemblies
 90
    33792
280
     0
281
     0
  0
CLASS
  1
EXACXREFPANELOBJECT
  2
ExAcXREFPanelObject
  3
EXAC_ESW
 90
    33793
280
     0
281
     0
  0
CLASS
  1
NPOCOLLECTION
  2
AcDbImpNonPersistentObjectsCollection
  3
ObjectDBX Classes
 90
    33921
280
     0
281
     0
  0
CLASS
  1
DIMASSOC
  2
AcDbDimAssoc
  3
"AcDbDimAssoc|Product Desc:     AcDim ARX App For Dimension|Company:          Autodesk, Inc.|WEB Address:      www.autodesk.com"
 90
    32768
280
     0
281
     0
  0
CLASS
  1
ACMPARTREF
  2
AcmPartRef
  3
"AcmSymBB|Product Description: AutoCAD Mechanical|Company: Autodesk, Inc."
 90
    36863
280
     0
281
     1
  0
CLASS
  1
ACDBLINERES
  2
AcDbLineRes
  3
AcGrefServices
 90
     1024
280
     0
281
     0
  0
CLASS
  1
NEWSTDPARTPARLIST
  2
AmgNewParListFiler
  3
"AmgParList|Product Description: AutoCAD Mechanical|Company: Autodesk, Inc."
 90
    36863
280
     0
281
     0
  0
CLASS
  1
SORTENTSTABLE
  2
AcDbSortentsTable
  3
ObjectDBX Classes
 90
        0
280
     0
281
     0
  0
CLASS
  1
ACMDATAENTRYPART
  2
AcmDataEntryPart
  3
AcmSymBB|Product Description: AutoCAD Mechanical|Company: Autodesk, Inc.
 90
    33792
280
     0
281
     0
  0
CLASS
  1
AMDTNOTE
  2
AmdtNote
  3
"AcmSymBB|Product Description: AutoCAD Mechanical|Company: Autodesk, Inc."
 90
    36863
280
     0
281
     1
  0
CLASS
  1
AMDTFORMULAUPDATEDISPATCHER
  2
AmdtFormulaUpdateDispatcher
  3
AcMeServices
 90
     1024
280
     0
281
     0
  0
CLASS
  1
ACMSTANDARDISO
  2
AcmStandardISO
  3
"Amdt_StdImp|Product Description: AutoCAD Mechanical|Company: Autodesk, Inc."
 90
     1024
280
     0
281
     0
  0
CLASS
  1
AMDTEDGESTANDARDISO13715
  2
AmdtEdgeStdISO13715
  3
"Amdt_StdImp|Product Description: AutoCAD Mechanical|Company: Autodesk, Inc."
 90
     1024
280
     0
281
     0
  0
CLASS
  1
ACMSURFSTANDARDISO
  2
AcmSurfTextStdISO
  3
"Amdt_StdImp|Product Description: AutoCAD Mechanical|Company: Autodesk, Inc."
 90
     1024
280
     0
281
     0
  0
CLASS
  1
ACMFCFSTANDARDISO
  2
AcmFCFStdISO
  3
"Amdt_StdImp|Product Description: AutoCAD Mechanical|Company: Autodesk, Inc."
 90
     1024
280
     0
281
     0
  0
CLASS
  1
ACMWELDSTANDARDISO
  2
AcmWeldingStdISO
  3
"Amdt_StdImp|Product Description: AutoCAD Mechanical|Company: Autodesk, Inc."
 90
     1024
280
     0
281
     0
  0
CLASS
  1
ACMIDSTANDARDISO
  2
AcmIdStdISO
  3
"Amdt_StdImp|Product Description: AutoCAD Mechanical|Company: Autodesk, Inc."
 90
     1024
280
     0
281
     0
  0
CLASS
  1
ACMDATUMSTANDARDISO
  2
AcmDatumStdISO
  3
"Amdt_StdImp|Product Description: AutoCAD Mechanical|Company: Autodesk, Inc."
 90
     1024
280
     0
281
     0
  0
CLASS
  1
ACMBOMSTANDARDISO
  2
AcmBOMStdISO
  3
"Amdt_StdImp|Product Description: AutoCAD Mechanical|Company: Autodesk, Inc."
 90
     1024
280
     0
281
     0
  0
CLASS
  1
ACMDETAILSTANDARDISO
  2
AmdtDetailSymStdISO
  3
"Amdt_StdImp|Product Description: AutoCAD Mechanical|Company: Autodesk, Inc."
 90
     1024
280
     0
281
     0
  0
CLASS
  1
ACMSECTIONSTANDARDISO
  2
AmdtSectionSymStdISO
  3
"Amdt_StdImp|Product Description: AutoCAD Mechanical|Company: Autodesk, Inc."
 90
     1024
280
     0
281
     0
  0
CLASS
  1
ACMCENTERLINESTANDARDISO
  2
AmdtCenterLineStdISO
  3
"Amdt_StdImp|Product Description: AutoCAD Mechanical|Company: Autodesk, Inc."
 90
     1024
280
     0
281
     0
  0
CLASS
  1
ACMTHREADLINESTANDARDISO
  2
AmdtThreadLineStdISO
  3
"Amdt_StdImp|Product Description: AutoCAD Mechanical|Company: Autodesk, Inc."
 90
     1024
280
     0
281
     0
  0
CLASS
  1
ACMNOTESTANDARDISO
  2
AmdtNoteStdISO
  3
"Amdt_StdImp|Product Description: AutoCAD Mechanical|Company: Autodesk, Inc."
 90
     1024
280
     0
281
     0
  0
CLASS
  1
ACMTAPERSTANDARDISO
  2
AcmTaperStdISO
  3
"Amdt_StdImp|Product Description: AutoCAD Mechanical|Company: Autodesk, Inc."
 90
     1024
280
     0
281
     0
  0
CLASS
  1
ACAMGHOLECHARTSTDISO
  2
AcAmgHoleChartStdISO
  3
AmgDim|Product Description: AutoCAD Mechanical|Company: Autodesk, Inc.
 90
     1024
280
     0
281
     0
  0
CLASS
  1
ACMDATAENTRY
  2
AcmDataEntry
  3
AcmSymBB|Product Description: AutoCAD Mechanical|Company: Autodesk, Inc.
 90
     1024
280
     0
281
     0
  0
CLASS
  1
ACMBOM
  2
AcmBom
  3
"AcmSymBB|Product Description: AutoCAD Mechanical|Company: Autodesk, Inc."
 90
     1024
280
     0
281
     0
  0
CLASS
  1
ACMBOMROW
  2
AcmBomRow
  3
"AcmSymBB|Product Description: AutoCAD Mechanical|Company: Autodesk, Inc."
 90
    33792
280
     0
281
     0
  0
CLASS
  1
ACMPARTLIST
  2
AcmPartList
  3
"AcmSymBB|Product Description: AutoCAD Mechanical|Company: Autodesk, Inc."
 90
    36863
280
     0
281
     1
  0
CLASS
  1
ACDBOPPOLYLINERES
  2
AcDbOpPolylineRes
  3
AcGrefServices
 90
    33792
280
     0
281
     0
  0
CLASS
  1
ACRFINSADJ
  2
AcRfInsAdjuster
  3
AcMeServices
 90
    33792
280
     0
281
     0
  0
CLASS
  1
ACMPICKOBJ
  2
AcmPickEnt
  3
"AcmSymBB|Product Description: AutoCAD Mechanical|Company: Autodesk, Inc."
 90
    33792
280
     0
281
     1
  0
CLASS
  1
ACMBALLOON
  2
AcmBalloon
  3
"AcmSymBB|Product Description: AutoCAD Mechanical|Company: Autodesk, Inc."
 90
    36863
280
     0
281
     1
  0
CLASS
  1
ACDBDIMENSIONRES
  2
AcDbDimensionRes
  3
AcmSymBB|Product Description: AutoCAD Mechanical|Company: Autodesk, Inc.
 90
    33792
280
     0
281
     0
  0
CLASS
  1
ACDBCIRCARCRES
  2
AcDbCircArcRes
  3
AcGrefServices
 90
     1024
280
     0
281
     0
  0
CLASS
  1
SCALE
  2
AcDbScale
  3
ObjectDBX Classes
 90
     1153
280
     0
281
     0
  0
CLASS
  1
MLEADERSTYLE
  2
AcDbMLeaderStyle
  3
ACDB_MLEADERSTYLE_CLASS
 90
     4095
280
     0
281
     0
  0
CLASS
  1
ACMANOOTATIONVIEWSTANDARDJIS
  2
AmdtAnViewStdJIS
  3
"Amdt_StdImp|Product Description: AutoCAD Mechanical|Company: Autodesk, Inc."
 90
     1024
280
     0
281
     0
  0
CLASS
  1
AMDTEDGESTANDARDJIS
  2
AmdtEdgeStdJIS
  3
"Amdt_StdImp|Product Description: AutoCAD Mechanical|Company: Autodesk, Inc."
 90
     1024
280
     0
281
     0
  0
CLASS
  1
ACMANOOTATIONVIEWSTANDARDISO
  2
AmdtAnViewStdISO
  3
"Amdt_StdImp|Product Description: AutoCAD Mechanical|Company: Autodesk, Inc."
 90
     1024
280
     0
281
     0
  0
CLASS
  1
CELLSTYLEMAP
  2
AcDbCellStyleMap
  3
ObjectDBX Classes
 90
     1152
280
     0
281
     0
  0
CLASS
  1
AMDTACMWBLOCKBOMENTITY
  2
AmdtAcmWblockBomEntity
  3
"AcmSymBB|Product Description: AutoCAD Mechanical|Company: Autodesk, Inc."
 90
    36863
280
     0
281
     1
  0
CLASS
  1
PLOTSETTINGS
  2
AcDbPlotSettings
  3
ObjectDBX Classes
 90
        0
280
     0
281
     0
  0
ENDSEC
  0
SECTION
  2
TABLES
  0
TABLE
  2
VPORT
  5
8
102
{ACAD_XDICTIONARY
360
CA7
102
}
330
0
100
AcDbSymbolTable
 70
     1
  0
VPORT
  5
230
330
8
100
AcDbSymbolTableRecord
100
AcDbViewportTableRecord
  2
*Active
 70
     0
 10
0.0
 20
0.0
 11
1.0
 21
1.0
 12
290.8032998140397
 22
221.1017591398667
 13
0.0
 23
0.0
 14
1.25
 24
1.25
 15
5.0
 25
5.0
 16
0.0
 26
0.0
 36
1.0
 17
0.0
 27
0.0
 37
0.0
 40
67.78022081847328
 41
1.876940133037694
 42
50.0
 43
0.0
 44
0.0
 50
0.0
 51
0.0
 71
     0
 72
   100
 73
     1
 74
     3
 75
     0
 76
     0
 77
     0
 78
     0
281
     0
 65
     1
110
0.0
120
0.0
130
0.0
111
1.0
121
0.0
131
0.0
112
0.0
122
1.0
132
0.0
 79
     0
146
0.0
  0
ENDTAB
  0
TABLE
  2
LTYPE
  5
5
330
0
100
AcDbSymbolTable
 70
    16
  0
LTYPE
  5
14
330
5
100
AcDbSymbolTableRecord
100
AcDbLinetypeTableRecord
  2
ByBlock
 70
     0
  3

 72
    65
 73
     0
 40
0.0
  0
LTYPE
  5
15
330
5
100
AcDbSymbolTableRecord
100
AcDbLinetypeTableRecord
  2
ByLayer
 70
     0
  3

 72
    65
 73
     0
 40
0.0
  0
LTYPE
  5
16
330
5
100
AcDbSymbolTableRecord
100
AcDbLinetypeTableRecord
  2
Continuous
 70
     0
  3
Solid line
 72
    65
 73
     0
 40
0.0
  0
LTYPE
  5
4B
330
5
100
AcDbSymbolTableRecord
100
AcDbLinetypeTableRecord
  2
AM_ISO02W050
 70
     0
  3
__ __ __ __ __ __ __ __ __ __ __ __ __ __ __
 72
    65
 73
     2
 40
7.5
 49
6.0
 74
     0
 49
-1.5
 74
     0
  0
LTYPE
  5
4C
330
5
100
AcDbSymbolTableRecord
100
AcDbLinetypeTableRecord
  2
AM_ISO08W050
 70
     0
  3
____ . ____ . ____ . ____ . ____ . ____ . ____
 72
    65
 73
     4
 40
18.0
 49
12.0
 74
     0
 49
-1.5
 74
     0
 49
3.0
 74
     0
 49
-1.5
 74
     0
  0
LTYPE
  5
4D
330
5
100
AcDbSymbolTableRecord
100
AcDbLinetypeTableRecord
  2
AM_ISO09W050
 70
     0
  3
_____ . . _____ . . _____ . . ____ .. ____
 72
    65
 73
     6
 40
22.5
 49
12.0
 74
     0
 49
-1.5
 74
     0
 49
3.0
 74
     0
 49
-1.5
 74
     0
 49
3.0
 74
     0
 49
-1.5
 74
     0
  0
LTYPE
  5
4E
330
5
100
AcDbSymbolTableRecord
100
AcDbLinetypeTableRecord
  2
Amconstr
 70
     0
  3
_______________________
 72
    65
 73
     2
 40
9999.0
 49
9999.0
 74
     0
 49
0.0
 74
     0
  0
LTYPE
  5
4F
330
5
100
AcDbSymbolTableRecord
100
AcDbLinetypeTableRecord
  2
AM_ISO02W050x2
 70
     0
  3
 _ _ _ _ _ _ _ _ _ _ _ _
 72
    65
 73
     2
 40
3.75
 49
3.0
 74
     0
 49
-0.75
 74
     0
  0
LTYPE
  5
50
330
5
100
AcDbSymbolTableRecord
100
AcDbLinetypeTableRecord
  2
AM_ISO08W050x2
 70
     0
  3
__ . __ . __ . __ . __ . __
 72
    65
 73
     4
 40
9.0
 49
6.0
 74
     0
 49
-0.75
 74
     0
 49
1.5
 74
     0
 49
-0.75
 74
     0
  0
LTYPE
  5
53
330
5
100
AcDbSymbolTableRecord
100
AcDbLinetypeTableRecord
  2
Amzigzag
 70
     0
  3
/\/-/\/-/\/-/\/-/\/-/\/
 72
    65
 73
     2
 40
11.0001
 49
0.0001
 74
     4
 75
   135
340
52
 46
0.04
 50
0.0
 44
0.0
 45
0.0
 49
-11.0
 74
     0
  0
LTYPE
  5
169
330
5
100
AcDbSymbolTableRecord
100
AcDbLinetypeTableRecord
  2
ACJISTGB
 70
     0
  3
__ . . __ . .
 72
    65
 73
     6
 40
9.0
 49
4.0
 74
     0
 49
-1.0
 74
     0
 49
1.0
 74
     0
 49
-1.0
 74
     0
 49
1.0
 74
     0
 49
-1.0
 74
     0
  0
LTYPE
  5
16A
330
5
100
AcDbSymbolTableRecord
100
AcDbLinetypeTableRecord
  2
ACJISTGL
 70
     0
  3
_ _ _ _ _
 72
    65
 73
     2
 40
3.0
 49
2.0
 74
     0
 49
-1.0
 74
     0
  0
LTYPE
  5
27A
330
5
100
AcDbSymbolTableRecord
100
AcDbLinetypeTableRecord
  2
HIDDEN
 70
     0
  3
Hidden __ __ __ __ __ __ __ __ __ __ __ __ __ _
 72
    65
 73
     2
 40
9.524999999999998
 49
6.349999999999999
 74
     0
 49
-3.174999999999999
 74
     0
  0
LTYPE
  5
27B
330
5
100
AcDbSymbolTableRecord
100
AcDbLinetypeTableRecord
  2
PHANTOM2
 70
     0
  3
Phantom (.5x) ___ _ _ ___ _ _ ___ _ _ ___ _ _
 72
    65
 73
     6
 40
31.75
 49
15.875
 74
     0
 49
-3.174999999999999
 74
     0
 49
3.174999999999999
 74
     0
 49
-3.174999999999999
 74
     0
 49
3.174999999999999
 74
     0
 49
-3.174999999999999
 74
     0
  0
LTYPE
  5
27C
330
5
100
AcDbSymbolTableRecord
100
AcDbLinetypeTableRecord
  2
CENTER
 70
     0
  3
Center ____ _ ____ _ ____ _ ____ _ ____ _ ____
 72
    65
 73
     4
 40
50.8
 49
31.75
 74
     0
 49
-6.349999999999999
 74
     0
 49
6.349999999999999
 74
     0
 49
-6.349999999999999
 74
     0
  0
LTYPE
  5
BB2
330
5
100
AcDbSymbolTableRecord
100
AcDbLinetypeTableRecord
  2
ACISOWELD
 70
     0
  3
_ _ _ _ _
 72
    65
 73
     2
 40
2.0
 49
2.0
 74
     0
 49
-1.0
 74
     0
  0
LTYPE
  5
BB3
330
5
100
AcDbSymbolTableRecord
100
AcDbLinetypeTableRecord
  2
ACISOTGB
 70
     0
  3
__ . . __ . .
 72
    65
 73
     6
 40
9.0
 49
4.0
 74
     0
 49
-1.0
 74
     0
 49
1.0
 74
     0
 49
-1.0
 74
     0
 49
1.0
 74
     0
 49
-1.0
 74
     0
  0
LTYPE
  5
BB4
330
5
100
AcDbSymbolTableRecord
100
AcDbLinetypeTableRecord
  2
ACISOTGL
 70
     0
  3
_ _ _ _ _
 72
    65
 73
     2
 40
3.0
 49
2.0
 74
     0
 49
-1.0
 74
     0
  0
ENDTAB
  0
TABLE
  2
LAYER
  5
2
102
{ACAD_XDICTIONARY
360
971
102
}
330
0
100
AcDbSymbolTable
 70
    15
  0
LAYER
  5
10
102
{ACAD_XDICTIONARY
360
227D
102
}
330
2
100
AcDbSymbolTableRecord
100
AcDbLayerTableRecord
  2
0
 70
     0
 62
     7
  6
Continuous
370
    -3
390
F
  0
LAYER
  5
59
102
{ACAD_XDICTIONARY
360
227F
102
}
330
2
100
AcDbSymbolTableRecord
100
AcDbLayerTableRecord
  2
AM_0
 70
     0
 62
     7
  6
Continuous
370
    50
390
F
  0
LAYER
  5
5A
102
{ACAD_XDICTIONARY
360
2281
102
}
330
2
100
AcDbSymbolTableRecord
100
AcDbLayerTableRecord
  2
AM_BOR
 70
     0
 62
     7
  6
Continuous
370
    50
390
F
  0
LAYER
  5
31B
102
{ACAD_XDICTIONARY
360
2283
102
}
330
2
100
AcDbSymbolTableRecord
100
AcDbLayerTableRecord
  2
AM_5
 70
     0
 62
     3
  6
Continuous
370
    25
390
F
1001
AcAecLayerStandard
1000

1000

  0
LAYER
  5
414
330
2
100
AcDbSymbolTableRecord
100
AcDbLayerTableRecord
  2
Defpoints
 70
     0
 62
     7
  6
Continuous
290
     0
370
    -3
390
F
  0
LAYER
  5
7C0
102
{ACAD_XDICTIONARY
360
2285
102
}
330
2
100
AcDbSymbolTableRecord
100
AcDbLayerTableRecord
  2
AM_7
 70
     0
 62
     4
  6
AM_ISO08W050
370
    25
390
F
  0
LAYER
  5
7C1
102
{ACAD_XDICTIONARY
360
2287
102
}
330
2
100
AcDbSymbolTableRecord
100
AcDbLayerTableRecord
  2
AM_8
 70
     0
 62
     1
  6
Continuous
370
    25
390
F
  0
LAYER
  5
7C2
102
{ACAD_XDICTIONARY
360
2289
102
}
330
2
100
AcDbSymbolTableRecord
100
AcDbLayerTableRecord
  2
AM_4
 70
     0
 62
     3
  6
Continuous
370
    25
390
F
  0
LAYER
  5
7C3
102
{ACAD_XDICTIONARY
360
228B
102
}
330
2
100
AcDbSymbolTableRecord
100
AcDbLayerTableRecord
  2
AM_11
 70
     0
 62
     3
  6
AM_ISO09W050
370
    25
390
F
  0
LAYER
  5
7C4
102
{ACAD_XDICTIONARY
360
228D
102
}
330
2
100
AcDbSymbolTableRecord
100
AcDbLayerTableRecord
  2
AM_12
 70
     0
 62
     7
  6
Continuous
290
     0
370
    50
390
F
  0
LAYER
  5
7C5
102
{ACAD_XDICTIONARY
360
228F
102
}
330
2
100
AcDbSymbolTableRecord
100
AcDbLayerTableRecord
  2
AM_PAREF
 70
     0
 62
     4
  6
Continuous
290
     0
370
    25
390
F
  0
LAYER
  5
1264
102
{ACAD_XDICTIONARY
360
2291
102
}
330
2
100
AcDbSymbolTableRecord
100
AcDbLayerTableRecord
  2
AM_12N
 70
     0
 62
     7
  6
Continuous
290
     0
370
    50
390
F
  0
LAYER
  5
2276
102
{ACAD_XDICTIONARY
360
2293
102
}
330
2
100
AcDbSymbolTableRecord
100
AcDbLayerTableRecord
  2
AM_CL
 70
     0
 62
     1
  6
Amconstr
370
    25
390
F
1001
AcAecLayerStandard
1000

1000

  0
LAYER
  5
3620
330
2
100
AcDbSymbolTableRecord
100
AcDbLayerTableRecord
  2
6
 70
     0
 62
     2
  6
Continuous
370
    -3
390
F
  0
LAYER
  5
3621
330
2
100
AcDbSymbolTableRecord
100
AcDbLayerTableRecord
  2
1
 70
     0
 62
     9
  6
Continuous
370
    -3
390
F
  0
ENDTAB
  0
TABLE
  2
STYLE
  5
3
330
0
100
AcDbSymbolTable
 70
    10
  0
STYLE
  5
11
330
3
100
AcDbSymbolTableRecord
100
AcDbTextStyleTableRecord
  2
STANDARD
 70
     0
 40
0.0
 41
1.0
 50
0.0
 71
     0
 42
1.5
  3
ISOCP.SHX
  4
EXTFONT.SHX
  0
STYLE
  5
52
330
3
100
AcDbSymbolTableRecord
100
AcDbTextStyleTableRecord
  2

 70
     1
 40
0.0
 41
1.0
 50
0.0
 71
     0
 42
2.5
  3
ltypeshp.shx
  4

  0
STYLE
  5
161
330
3
100
AcDbSymbolTableRecord
100
AcDbTextStyleTableRecord
  2
ACJISTS
 70
     0
 40
1.0
 41
1.0
 50
0.0
 71
     0
 42
2.5
  3
isocp.shx
  4
bigfont.shx
  0
STYLE
  5
168
330
3
100
AcDbSymbolTableRecord
100
AcDbTextStyleTableRecord
  2
ACJISGDT
 70
     0
 40
0.0
 41
1.0
 50
0.0
 71
     0
 42
2.5
  3
amgdt.shx
  4

  0
STYLE
  5
7C6
330
3
100
AcDbSymbolTableRecord
100
AcDbTextStyleTableRecord
  2
ｽﾀｲﾙ1
 70
     0
 40
0.0
 41
1.0
 50
0.0
 71
     0
 42
44.62462130138407
  3

  4

1001
ACAD
1000
HGPSoeiKakugothicUB
1071
    32818
  0
STYLE
  5
BB6
330
3
100
AcDbSymbolTableRecord
100
AcDbTextStyleTableRecord
  2
ACISOTS
 70
     0
 40
1.0
 41
1.0
 50
0.0
 71
     0
 42
5.0
  3
isocp.shx
  4
extfont.shx
  0
STYLE
  5
BB7
330
3
100
AcDbSymbolTableRecord
100
AcDbTextStyleTableRecord
  2
ACISOGDT
 70
     0
 40
0.0
 41
1.0
 50
0.0
 71
     0
 42
5.0
  3
amgdt.shx
  4

  0
STYLE
  5
17C7
330
3
100
AcDbSymbolTableRecord
100
AcDbTextStyleTableRecord
  2
USER1
 70
     0
 40
0.0
 41
1.0
 50
0.0
 71
     0
 42
2.5
  3
TXT.SHX
  4

  0
STYLE
  5
17C8
330
3
100
AcDbSymbolTableRecord
100
AcDbTextStyleTableRecord
  2
USER2
 70
     0
 40
0.0
 41
1.0
 50
0.0
 71
     0
 42
2.5
  3
SIMPLEX.SHX
  4

  0
STYLE
  5
17C9
330
3
100
AcDbSymbolTableRecord
100
AcDbTextStyleTableRecord
  2
USER3
 70
     0
 40
0.0
 41
1.0
 50
0.0
 71
     0
 42
2.5
  3
ITALIC.SHX
  4

  0
ENDTAB
  0
TABLE
  2
VIEW
  5
6
330
0
100
AcDbSymbolTable
 70
     6
  0
VIEW
  5
7C
330
6
100
AcDbSymbolTableRecord
100
AcDbViewTableRecord
  2
AM_VIEW1
 70
     0
 40
52.5
 10
277.100076765816
 20
245.861417654137
 41
108.66
 11
0.0
 21
0.0
 31
1.0
 12
0.0
 22
0.0
 32
0.0
 42
50.0
 43
0.0
 44
0.0
 50
0.0
 71
     0
281
     0
 72
     0
  0
VIEW
  5
7D
330
6
100
AcDbSymbolTableRecord
100
AcDbViewTableRecord
  2
AM_VIEW2
 70
     0
 40
52.5
 10
316.9400767658159
 20
245.861417654137
 41
108.66
 11
0.0
 21
0.0
 31
1.0
 12
0.0
 22
0.0
 32
0.0
 42
50.0
 43
0.0
 44
0.0
 50
0.0
 71
     0
281
     0
 72
     0
  0
VIEW
  5
7E
330
6
100
AcDbSymbolTableRecord
100
AcDbViewTableRecord
  2
AM_VIEW3
 70
     0
 40
52.5
 10
277.100076765816
 20
193.3614176541369
 41
108.66
 11
0.0
 21
0.0
 31
1.0
 12
0.0
 22
0.0
 32
0.0
 42
50.0
 43
0.0
 44
0.0
 50
0.0
 71
     0
281
     0
 72
     0
  0
VIEW
  5
7F
330
6
100
AcDbSymbolTableRecord
100
AcDbViewTableRecord
  2
AM_VIEW4
 70
     0
 40
52.5
 10
316.9400767658159
 20
193.3614176541369
 41
108.66
 11
0.0
 21
0.0
 31
1.0
 12
0.0
 22
0.0
 32
0.0
 42
50.0
 43
0.0
 44
0.0
 50
0.0
 71
     0
281
     0
 72
     0
  0
VIEW
  5
80
330
6
100
AcDbSymbolTableRecord
100
AcDbViewTableRecord
  2
AM_VIEW5
 70
     0
 40
52.5
 10
297.0200767658159
 20
219.611417654137
 41
108.66
 11
0.0
 21
0.0
 31
1.0
 12
0.0
 22
0.0
 32
0.0
 42
50.0
 43
0.0
 44
0.0
 50
0.0
 71
     0
281
     0
 72
     0
  0
VIEW
  5
81
330
6
100
AcDbSymbolTableRecord
100
AcDbViewTableRecord
  2
AM_VIEW6
 70
     0
 40
104.99895
 10
297.0200767658159
 20
219.611417654137
 41
217.3178268
 11
0.0
 21
0.0
 31
1.0
 12
0.0
 22
0.0
 32
0.0
 42
50.0
 43
0.0
 44
0.0
 50
0.0
 71
     0
281
     0
 72
     0
  0
ENDTAB
  0
TABLE
  2
UCS
  5
7
330
0
100
AcDbSymbolTable
 70
     0
  0
ENDTAB
  0
TABLE
  2
APPID
  5
9
330
0
100
AcDbSymbolTable
 70
    44
  0
APPID
  5
12
330
9
100
AcDbSymbolTableRecord
100
AcDbRegAppTableRecord
  2
ACAD
 70
     0
  0
APPID
  5
30
330
9
100
AcDbSymbolTableRecord
100
AcDbRegAppTableRecord
  2
MCAD_NO_VIS
 70
     0
  0
APPID
  5
31
330
9
100
AcDbSymbolTableRecord
100
AcDbRegAppTableRecord
  2
ACAD_TEMP_GRAPHIC
 70
     0
  0
APPID
  5
5B
330
9
100
AcDbSymbolTableRecord
100
AcDbRegAppTableRecord
  2
GENIUS_GENREC_14
 70
     0
  0
APPID
  5
5C
330
9
100
AcDbSymbolTableRecord
100
AcDbRegAppTableRecord
  2
GENIUS_GENODEF_13
 70
     0
  0
APPID
  5
5D
330
9
100
AcDbSymbolTableRecord
100
AcDbRegAppTableRecord
  2
GENIUS_GENOBJ-N-REC_13
 70
     0
  0
APPID
  5
96
330
9
100
AcDbSymbolTableRecord
100
AcDbRegAppTableRecord
  2
GENIUS_GENOBJ-N-CEN_13
 70
     0
  0
APPID
  5
C1
330
9
100
AcDbSymbolTableRecord
100
AcDbRegAppTableRecord
  2
GENIUS_GENOBJ-N-TIT_13
 70
     0
  0
APPID
  5
C2
330
9
100
AcDbSymbolTableRecord
100
AcDbRegAppTableRecord
  2
GENIUS_GENTITLE_13
 70
     0
  0
APPID
  5
C3
330
9
100
AcDbSymbolTableRecord
100
AcDbRegAppTableRecord
  2
GENIUS_GENOENT_13
 70
     0
  0
APPID
  5
C4
330
9
100
AcDbSymbolTableRecord
100
AcDbRegAppTableRecord
  2
GENIUS_GENOREF_13
 70
     0
  0
APPID
  5
C5
330
9
100
AcDbSymbolTableRecord
100
AcDbRegAppTableRecord
  2
GENIUS_GENOLIS_13
 70
     0
  0
APPID
  5
C6
330
9
100
AcDbSymbolTableRecord
100
AcDbRegAppTableRecord
  2
GENIUS_GENZVEED_13
 70
     0
  0
APPID
  5
C7
330
9
100
AcDbSymbolTableRecord
100
AcDbRegAppTableRecord
  2
GENIUS_GENSCREG_15
 70
     0
  0
APPID
  5
C8
330
9
100
AcDbSymbolTableRecord
100
AcDbRegAppTableRecord
  2
GENIUS_GENOBJ-N-SDF_13
 70
     0
  0
APPID
  5
27E
330
9
100
AcDbSymbolTableRecord
100
AcDbRegAppTableRecord
  2
AD_DRAW
 70
     0
  0
APPID
  5
281
330
9
100
AcDbSymbolTableRecord
100
AcDbRegAppTableRecord
  2
ACATTRIBSERVICES
 70
     0
  0
APPID
  5
2A0
330
9
100
AcDbSymbolTableRecord
100
AcDbRegAppTableRecord
  2
DESIGNERASSEMBLIES
 70
     0
  0
APPID
  5
2B9
330
9
100
AcDbSymbolTableRecord
100
AcDbRegAppTableRecord
  2
ACADM_DIM_EDIT
 70
     0
  0
APPID
  5
2BA
330
9
100
AcDbSymbolTableRecord
100
AcDbRegAppTableRecord
  2
AMDT_DM_ADJ
 70
     0
  0
APPID
  5
31C
330
9
100
AcDbSymbolTableRecord
100
AcDbRegAppTableRecord
  2
AcAecLayerStandard
 70
     0
  0
APPID
  5
37C
330
9
100
AcDbSymbolTableRecord
100
AcDbRegAppTableRecord
  2
ACAD_PSEXT
 70
     0
  0
APPID
  5
729
330
9
100
AcDbSymbolTableRecord
100
AcDbRegAppTableRecord
  2
GENIUS_GENDIMSH_14
 70
     0
  0
APPID
  5
72B
330
9
100
AcDbSymbolTableRecord
100
AcDbRegAppTableRecord
  2
ACAD_EXEMPT_FROM_CAD_STANDARDS
 70
     0
  0
APPID
  5
7C8
330
9
100
AcDbSymbolTableRecord
100
AcDbRegAppTableRecord
  2
GENIUS_GENOBJ-N-FIL_13
 70
     0
  0
APPID
  5
7C9
330
9
100
AcDbSymbolTableRecord
100
AcDbRegAppTableRecord
  2
GENIUS_GEFSH_13
 70
     0
  0
APPID
  5
7CA
330
9
100
AcDbSymbolTableRecord
100
AcDbRegAppTableRecord
  2
GENIUS_GENOBJ-F-SHS_13
 70
     0
  0
APPID
  5
7CB
330
9
100
AcDbSymbolTableRecord
100
AcDbRegAppTableRecord
  2
GENIUS_GENFIL_13
 70
     0
  0
APPID
  5
7CC
330
9
100
AcDbSymbolTableRecord
100
AcDbRegAppTableRecord
  2
GENIUS_GENOBJ-N-CHA_13
 70
     0
  0
APPID
  5
7CD
330
9
100
AcDbSymbolTableRecord
100
AcDbRegAppTableRecord
  2
GENIUS_GENOBJ-N-HTC_13
 70
     0
  0
APPID
  5
7CE
330
9
100
AcDbSymbolTableRecord
100
AcDbRegAppTableRecord
  2
GENIUS_GENHATCH_13
 70
     0
  0
APPID
  5
978
330
9
100
AcDbSymbolTableRecord
100
AcDbRegAppTableRecord
  2
GENIUS_GENCEN_19
 70
     0
  0
APPID
  5
CBC
330
9
100
AcDbSymbolTableRecord
100
AcDbRegAppTableRecord
  2
ACAD_DSTYLE_DIMARC_LENGTH_SYMBOL
 70
     0
  0
APPID
  5
170C
330
9
100
AcDbSymbolTableRecord
100
AcDbRegAppTableRecord
  2
GENIUS_GENOBJ-N-CRS_13
 70
     0
  0
APPID
  5
2248
330
9
100
AcDbSymbolTableRecord
100
AcDbRegAppTableRecord
  2
GENIUS_GENDTOL_13
 70
     0
  0
APPID
  5
2249
330
9
100
AcDbSymbolTableRecord
100
AcDbRegAppTableRecord
  2
ACAD_DSTYLE_DIMINSPECT
 70
     0
  0
APPID
  5
22EC
330
9
100
AcDbSymbolTableRecord
100
AcDbRegAppTableRecord
  2
ACAD_MLEADERVER
 70
     0
  0
APPID
  5
3506
330
9
100
AcDbSymbolTableRecord
100
AcDbRegAppTableRecord
  2
ACAD_DSTYLE_DIMANGULAR_EXTENSION
 70
     0
  0
APPID
  5
3622
330
9
100
AcDbSymbolTableRecord
100
AcDbRegAppTableRecord
  2
GENIUS_GENTRA_14
 70
     0
  0
APPID
  5
3623
330
9
100
AcDbSymbolTableRecord
100
AcDbRegAppTableRecord
  2
GENIUS_GENOBJ-N-RSBK_13
 70
     0
  0
APPID
  5
3624
330
9
100
AcDbSymbolTableRecord
100
AcDbRegAppTableRecord
  2
GENIUS_GENOBJ-N-LIB_13
 70
     0
  0
APPID
  5
3625
330
9
100
AcDbSymbolTableRecord
100
AcDbRegAppTableRecord
  2
GENIUS_GENSCALE_13
 70
     0
  0
APPID
  5
4106
330
9
100
AcDbSymbolTableRecord
100
AcDbRegAppTableRecord
  2
ACAD_DSTYLE_DIMJAG
 70
     0
  0
APPID
  5
4107
330
9
100
AcDbSymbolTableRecord
100
AcDbRegAppTableRecord
  2
ACAD_DSTYLE_DIMBREAK
 70
     0
  0
ENDTAB
  0
TABLE
  2
DIMSTYLE
  5
A
330
0
100
AcDbSymbolTable
 70
    18
100
AcDbDimStyleTable
 71
     1
340
8F
  0
DIMSTYLE
105
2C1
330
A
100
AcDbSymbolTableRecord
100
AcDbDimStyleTableRecord
  2
Standard
 70
     0
340
11
  0
DIMSTYLE
105
8F
330
A
100
AcDbSymbolTableRecord
100
AcDbDimStyleTableRecord
  2
AM_JIS
 70
     0
  4
"
 40
0.5
 41
2.5
 42
1.0
 43
10.0
 44
1.0
 47
0.1
 48
0.1
 73
     0
 74
     0
 77
     3
 78
     8
 79
     2
140
3.5
141
0.0
143
0.0393701
146
0.71
147
1.5
172
     1
176
   256
177
   256
178
     2
271
     2
272
     3
274
     4
283
     0
284
     8
340
11
341
84
342
84
343
84
344
84
371
    -1
372
    -1
1001
ACAD_DSTYLE_DIMARC_LENGTH_SYMBOL
1070
   379
1070
     1
  0
DIMSTYLE
105
90
330
A
100
AcDbSymbolTableRecord
100
AcDbDimStyleTableRecord
  2
AM_JIS$3
 70
     0
  4
"
 40
0.5
 41
2.5
 42
1.0
 43
10.0
 44
1.0
 47
0.1
 48
0.1
 73
     0
 77
     3
 78
     8
 79
     2
140
3.5
141
0.0
143
0.0393701
146
0.71
147
1.5
176
   256
177
   256
178
     2
271
     2
272
     3
274
     4
283
     0
284
     8
288
     1
289
     0
340
11
341
84
342
84
343
84
344
84
371
    -1
372
    -1
1001
ACAD_DSTYLE_DIMARC_LENGTH_SYMBOL
1070
   379
1070
     1
  0
DIMSTYLE
105
91
330
A
100
AcDbSymbolTableRecord
100
AcDbDimStyleTableRecord
  2
AM_JIS$4
 70
     0
  4
"
 40
0.5
 41
2.5
 42
1.0
 43
10.0
 44
1.0
 47
0.1
 48
0.1
 73
     0
 74
     0
 77
     3
 78
     8
 79
     2
140
3.5
141
0.0
143
0.0393701
146
0.71
147
1.5
172
     1
176
   256
177
   256
178
     2
271
     2
272
     3
274
     4
283
     0
284
     8
340
11
341
84
342
84
343
84
344
84
371
    -1
372
    -1
1001
ACAD_DSTYLE_DIMARC_LENGTH_SYMBOL
1070
   379
1070
     1
  0
DIMSTYLE
105
92
330
A
100
AcDbSymbolTableRecord
100
AcDbDimStyleTableRecord
  2
AM_JIS$6
 70
     0
  4
"
 40
0.5
 41
2.5
 42
1.0
 43
10.0
 44
1.0
 47
0.1
 48
0.1
 73
     0
 74
     0
 78
     8
 79
     2
140
3.5
141
0.0
143
0.0393701
146
0.71
147
1.5
172
     1
176
   256
177
   256
178
     2
271
     2
272
     3
274
     4
283
     0
284
     8
340
11
341
84
342
84
343
84
344
84
371
    -1
372
    -1
1001
ACAD_DSTYLE_DIMARC_LENGTH_SYMBOL
1070
   379
1070
     1
  0
DIMSTYLE
105
93
330
A
100
AcDbSymbolTableRecord
100
AcDbDimStyleTableRecord
  2
AM_JIS$7
 70
     0
  4
"
 40
0.5
 41
2.5
 42
1.0
 43
10.0
 44
1.0
 47
0.1
 48
0.1
 73
     0
 74
     0
 77
     3
 78
     8
 79
     2
140
5.0
141
0.0
143
0.0393701
146
0.71
147
1.5
172
     1
176
   256
177
   256
178
     2
271
     2
272
     3
274
     4
283
     0
284
     8
340
11
341
84
342
84
343
84
344
84
371
    -1
372
    -1
1001
ACAD_DSTYLE_DIMARC_LENGTH_SYMBOL
1070
   379
1070
     1
  0
DIMSTYLE
105
94
330
A
100
AcDbSymbolTableRecord
100
AcDbDimStyleTableRecord
  2
AM_JIS$SF
 70
     0
  4
"
 40
0.5
 41
2.5
 42
1.0
 43
10.0
 44
1.0
 47
0.1
 48
0.1
 73
     0
 74
     0
 75
     1
 76
     1
 77
     3
 78
     8
 79
     2
140
3.5
141
0.0
143
0.0393701
146
0.71
147
1.5
172
     1
176
   256
177
   256
178
     2
271
     2
272
     3
274
     4
283
     0
284
     8
340
11
341
84
342
84
343
84
344
84
371
    -1
372
    -1
1001
ACAD_DSTYLE_DIMARC_LENGTH_SYMBOL
1070
   379
1070
     1
  0
DIMSTYLE
105
95
330
A
100
AcDbSymbolTableRecord
100
AcDbDimStyleTableRecord
  2
AM_JIS$SH
 70
     0
  4
"
 40
0.5
 41
2.5
 42
1.0
 43
10.0
 44
1.0
 47
0.1
 48
0.1
 73
     0
 74
     0
 75
     1
 76
     1
 77
     3
 78
     8
 79
     2
140
3.5
141
0.0
143
0.0393701
144
2.0
146
0.71
147
1.5
172
     1
173
     1
176
   256
177
   256
178
     2
271
     2
272
     3
274
     4
283
     0
284
     8
340
11
341
84
342
84
343
8A
344
84
371
    -1
372
    -1
1001
ACAD_DSTYLE_DIMARC_LENGTH_SYMBOL
1070
   379
1070
     1
  0
DIMSTYLE
105
7C7
330
A
100
AcDbSymbolTableRecord
100
AcDbDimStyleTableRecord
  2
AM_JIS$0
 70
     0
  4
"
 40
0.5
 41
2.5
 42
1.0
 43
10.0
 44
1.0
 47
0.1
 48
0.1
 73
     0
 74
     0
 77
     3
 78
     8
 79
     2
140
3.5
141
0.0
143
0.0393701
146
0.71
147
1.5
172
     1
176
   256
177
   256
178
     2
271
     2
272
     3
274
     4
283
     0
340
11
341
84
342
84
343
84
344
84
371
    -1
372
    -1
  0
DIMSTYLE
105
BB8
330
A
100
AcDbSymbolTableRecord
100
AcDbDimStyleTableRecord
  2
AM_ISO
 70
     0
  4
"
 41
2.5
 42
1.0
 43
10.0
 44
1.0
 47
0.1
 48
0.1
 73
     0
 74
     0
 77
     1
 78
     8
 79
     2
140
3.5
141
0.0
143
0.0393701
146
0.71
147
1.5
172
     1
176
   256
177
   256
178
     2
271
     2
272
     3
274
     4
283
     0
284
     8
340
11
371
    -1
372
    -1
1001
ACAD_DSTYLE_DIMARC_LENGTH_SYMBOL
1070
   379
1070
     1
  0
DIMSTYLE
105
BB9
330
A
100
AcDbSymbolTableRecord
100
AcDbDimStyleTableRecord
  2
AM_ISO$3
 70
     0
  4
"
 41
2.5
 42
1.0
 43
10.0
 44
1.0
 47
0.1
 48
0.1
 73
     0
 77
     1
 78
     8
 79
     2
140
3.5
141
0.0
143
0.0393701
146
0.71
147
1.5
176
   256
177
   256
178
     2
271
     2
272
     3
274
     4
283
     0
284
     8
288
     1
289
     0
340
11
371
    -1
372
    -1
1001
ACAD_DSTYLE_DIMARC_LENGTH_SYMBOL
1070
   379
1070
     1
  0
DIMSTYLE
105
BBA
330
A
100
AcDbSymbolTableRecord
100
AcDbDimStyleTableRecord
  2
AM_ISO$4
 70
     0
  4
"
 41
2.5
 42
1.0
 43
10.0
 44
1.0
 47
0.1
 48
0.1
 73
     0
 77
     1
 78
     8
 79
     2
140
3.5
141
0.0
143
0.0393701
146
0.71
147
1.5
176
   256
177
   256
178
     2
271
     2
272
     3
274
     4
283
     0
284
     8
288
     1
289
     0
340
11
371
    -1
372
    -1
1001
ACAD_DSTYLE_DIMARC_LENGTH_SYMBOL
1070
   379
1070
     1
  0
DIMSTYLE
105
BBB
330
A
100
AcDbSymbolTableRecord
100
AcDbDimStyleTableRecord
  2
AM_ISO$6
 70
     0
  4
"
 41
2.5
 42
1.0
 43
10.0
 44
1.0
 47
0.1
 48
0.1
 73
     0
 74
     0
 78
     8
 79
     2
140
3.5
141
0.0
143
0.0393701
146
0.71
147
1.5
172
     1
176
   256
177
   256
178
     2
271
     2
272
     3
274
     4
283
     0
284
     8
340
11
371
    -1
372
    -1
1001
ACAD_DSTYLE_DIMARC_LENGTH_SYMBOL
1070
   379
1070
     1
  0
DIMSTYLE
105
BBC
330
A
100
AcDbSymbolTableRecord
100
AcDbDimStyleTableRecord
  2
AM_ISO$7
 70
     0
  4
"
 41
2.5
 42
1.0
 43
10.0
 44
1.0
 47
0.1
 48
0.1
 73
     0
 74
     0
 77
     1
 78
     8
 79
     2
140
5.0
141
0.0
143
0.0393701
146
0.71
147
1.5
172
     1
176
   256
177
   256
178
     2
271
     2
272
     3
274
     4
283
     0
284
     8
340
11
371
    -1
372
    -1
1001
ACAD_DSTYLE_DIMARC_LENGTH_SYMBOL
1070
   379
1070
     1
  0
DIMSTYLE
105
BBD
330
A
100
AcDbSymbolTableRecord
100
AcDbDimStyleTableRecord
  2
AM_ISO$SF
 70
     0
  4
"
 41
2.5
 42
1.0
 43
10.0
 44
1.0
 47
0.1
 48
0.1
 73
     0
 74
     0
 75
     1
 76
     1
 77
     1
 78
     8
 79
     2
140
3.5
141
0.0
143
0.0393701
146
0.71
147
1.5
172
     1
176
   256
177
   256
178
     2
271
     2
272
     3
274
     4
283
     0
284
     8
340
11
371
    -1
372
    -1
1001
ACAD_DSTYLE_DIMARC_LENGTH_SYMBOL
1070
   379
1070
     1
  0
DIMSTYLE
105
BBE
330
A
100
AcDbSymbolTableRecord
100
AcDbDimStyleTableRecord
  2
AM_ISO$SH
 70
     0
  4
"
 41
2.5
 42
1.0
 43
10.0
 44
1.0
 47
0.1
 48
0.1
 73
     0
 74
     0
 75
     1
 76
     1
 77
     1
 78
     8
 79
     2
140
3.5
141
0.0
143
0.0393701
144
2.0
146
0.71
147
1.5
172
     1
173
     1
176
   256
177
   256
178
     2
271
     2
272
     3
274
     4
283
     0
284
     8
340
11
343
8A
371
    -1
372
    -1
1001
ACAD_DSTYLE_DIMARC_LENGTH_SYMBOL
1070
   379
1070
     1
  0
DIMSTYLE
105
17CA
330
A
100
AcDbSymbolTableRecord
100
AcDbDimStyleTableRecord
  2
ISO-25
 70
     0
 41
2.5
 42
0.625
 43
3.75
 44
1.25
 73
     0
 74
     0
 77
     1
 78
     8
140
2.5
141
2.5
143
0.03937007874016
147
0.625
171
     3
172
     1
271
     2
272
     2
274
     3
283
     0
284
     8
340
11
  0
DIMSTYLE
105
26C6
330
A
100
AcDbSymbolTableRecord
100
AcDbDimStyleTableRecord
  2
AM_JIS$2
 70
     0
  4
"
 40
0.5
 41
2.5
 42
1.0
 43
10.0
 44
1.0
 47
0.1
 48
0.1
 73
     0
 74
     0
 77
     3
 78
     8
 79
     2
140
3.5
141
0.0
143
0.0393701
146
0.71
147
1.5
172
     1
176
   256
177
   256
178
     2
271
     2
272
     3
274
     4
283
     0
284
     8
340
11
341
84
342
84
343
84
344
84
371
    -1
372
    -1
1001
ACAD_DSTYLE_DIMARC_LENGTH_SYMBOL
1070
   379
1070
     1
  0
ENDTAB
  0
TABLE
  2
BLOCK_RECORD
  5
1
330
0
100
AcDbSymbolTable
 70
    20
  0
BLOCK_RECORD
  5
1F
102
{ACAD_XDICTIONARY
360
C9
102
}
330
1
100
AcDbSymbolTableRecord
100
AcDbBlockTableRecord
  2
*Model_Space
340
22
  0
BLOCK_RECORD
  5
1B
330
1
100
AcDbSymbolTableRecord
100
AcDbBlockTableRecord
  2
*Paper_Space
340
1E
  0
BLOCK_RECORD
  5
23
330
1
100
AcDbSymbolTableRecord
100
AcDbBlockTableRecord
  2
*Paper_Space0
340
26
  0
BLOCK_RECORD
  5
84
330
1
100
AcDbSymbolTableRecord
100
AcDbBlockTableRecord
  2
_Open30
340
0
102
{BLKREFS
331
3B96
331
3B97
331
3CEE
331
3CEF
331
3D09
331
3D0A
331
3D48
331
3D49
331
3FC2
102
}
  0
BLOCK_RECORD
  5
8A
330
1
100
AcDbSymbolTableRecord
100
AcDbBlockTableRecord
  2
GENAXEH
340
0
  0
BLOCK_RECORD
  5
BBF
102
{ACAD_XDICTIONARY
360
BCD
102
}
330
1
100
AcDbSymbolTableRecord
100
AcDbBlockTableRecord
  2
AA-3-BW
340
0
  0
BLOCK_RECORD
  5
176D
102
{ACAD_XDICTIONARY
360
179B
102
}
330
1
100
AcDbSymbolTableRecord
100
AcDbBlockTableRecord
  2
ASO1
340
0
  0
BLOCK_RECORD
  5
17A8
330
1
100
AcDbSymbolTableRecord
100
AcDbBlockTableRecord
  2
A$C2D292097
340
0
  0
BLOCK_RECORD
  5
17BD
102
{ACAD_XDICTIONARY
360
17BE
102
}
330
1
100
AcDbSymbolTableRecord
100
AcDbBlockTableRecord
  2
A$C676C2959
340
0
1001
ACAD
1000
DesignCenter Data
1002
{
1070
     1
1070
     4
1002
}
  0
BLOCK_RECORD
  5
17C2
102
{ACAD_XDICTIONARY
360
17C3
102
}
330
1
100
AcDbSymbolTableRecord
100
AcDbBlockTableRecord
  2
A$C1FED437B
340
0
1001
ACAD
1000
DesignCenter Data
1002
{
1070
     1
1070
     4
1002
}
  0
BLOCK_RECORD
  5
17CB
102
{ACAD_XDICTIONARY
360
17FE
102
}
330
1
100
AcDbSymbolTableRecord
100
AcDbBlockTableRecord
  2
ASO-A
340
0
  0
BLOCK_RECORD
  5
2338
102
{ACAD_XDICTIONARY
360
2346
102
}
330
1
100
AcDbSymbolTableRecord
100
AcDbBlockTableRecord
  2
AA-4-T
340
0
  0
BLOCK_RECORD
  5
26BB
102
{ACAD_XDICTIONARY
360
26C1
102
}
330
1
100
AcDbSymbolTableRecord
100
AcDbBlockTableRecord
  2
A$C5E5C0B32
340
0
1001
ACAD
1000
DesignCenter Data
1002
{
1070
     1
1070
     4
1002
}
  0
BLOCK_RECORD
  5
3086
330
1
100
AcDbSymbolTableRecord
100
AcDbBlockTableRecord
  2
_None
340
0
  0
BLOCK_RECORD
  5
35BB
330
1
100
AcDbSymbolTableRecord
100
AcDbBlockTableRecord
  2
xa
340
0
  0
ENDTAB
  0
ENDSEC
  0
SECTION
  2
BLOCKS
  0
BLOCK
  5
20
330
1F
100
AcDbEntity
  8
0
100
AcDbBlockBegin
  2
*Model_Space
 70
     0
 10
0.0
 20
0.0
 30
0.0
  3
*Model_Space
  1

  0
ENDBLK
  5
21
330
1F
100
AcDbEntity
  8
0
100
AcDbBlockEnd
  0
BLOCK
  5
1C
330
1B
100
AcDbEntity
 67
     1
  8
0
100
AcDbBlockBegin
  2
*Paper_Space
 70
     0
 10
0.0
 20
0.0
 30
0.0
  3
*Paper_Space
  1

  0
ENDBLK
  5
1D
330
1B
100
AcDbEntity
 67
     1
  8
0
100
AcDbBlockEnd
  0
BLOCK
  5
24
330
23
100
AcDbEntity
 67
     1
  8
0
100
AcDbBlockBegin
  2
*Paper_Space0
 70
     0
 10
0.0
 20
0.0
 30
0.0
  3
*Paper_Space0
  1

  0
ENDBLK
  5
25
330
23
100
AcDbEntity
 67
     1
  8
0
100
AcDbBlockEnd
  0
BLOCK
  5
88
330
84
100
AcDbEntity
  8
0
100
AcDbBlockBegin
  2
_Open30
 70
     0
 10
0.0
 20
0.0
 30
0.0
  3
_Open30
  1

  0
LINE
  5
85
330
84
100
AcDbEntity
  8
0
 62
     0
370
    -2
100
AcDbLine
 10
-1.0
 20
0.26794919
 30
0.0
 11
0.0
 21
0.0
 31
0.0
  0
LINE
  5
86
330
84
100
AcDbEntity
  8
0
 62
     0
370
    -2
100
AcDbLine
 10
0.0
 20
0.0
 30
0.0
 11
-1.0
 21
-0.26794919
 31
0.0
  0
LINE
  5
87
330
84
100
AcDbEntity
  8
0
 62
     0
370
    -2
100
AcDbLine
 10
0.0
 20
0.0
 30
0.0
 11
-1.0
 21
0.0
 31
0.0
  0
ENDBLK
  5
89
330
84
100
AcDbEntity
  8
0
100
AcDbBlockEnd
  0
BLOCK
  5
8C
330
8A
100
AcDbEntity
  8
0
100
AcDbBlockBegin
  2
GENAXEH
 70
     0
 10
0.0
 20
0.0
 30
0.0
  3
GENAXEH
  1

  0
LINE
  5
8B
330
8A
100
AcDbEntity
  8
0
100
AcDbLine
 10
-1.0
 20
0.0
 30
0.0
 11
1.0
 21
0.0
 31
0.0
  0
ENDBLK
  5
8D
330
8A
100
AcDbEntity
  8
0
100
AcDbBlockEnd
  0
BLOCK
  5
BCE
330
BBF
100
AcDbEntity
  8
0
100
AcDbBlockBegin
  2
AA-3-BW
 70
     0
 10
0.0
 20
0.0
 30
0.0
  3
AA-3-BW
  1

  0
LWPOLYLINE
  5
BC0
330
BBF
100
AcDbEntity
  8
AM_BOR
 62
   231
100
AcDbPolyline
 90
        4
 70
     1
 43
0.0
 10
11.31798825946299
 20
285.680442839147
 10
11.31798825946292
 20
11.31955716085312
 10
408.7322739737486
 20
11.31955716085296
 10
408.7322739737486
 20
285.680442839147
1001
GENIUS_GENREC_14
1002
{
1000
PYDIR
1011
408.7322739737486
1021
285.680442839147
1031
0.0
1002
}
1002
{
1000
PXDIR
1011
11.31798825946292
1021
11.31955716085312
1031
0.0
1002
}
1002
{
1000
PORI
1011
11.31798825946299
1021
285.680442839147
1031
0.0
1002
}
1002
{
1000
PINS
1011
11.31798825946299
1021
285.680442839147
1031
0.0
1002
}
1002
{
1000
HVAL
1000
281
1002
}
1002
{
1000
H
1070
     2
1002
}
1002
{
1000
WVAL
1000
183
1002
}
1002
{
1000
W
1070
     2
1002
}
1002
{
1000
C
1070
     1
1002
}
1001
GENIUS_GENODEF_13
1002
{
1000
HIER
1070
     0
1002
}
1002
{
1000
MANEDIT
1070
     0
1002
}
1002
{
1000
NOSEL
1070
     0
1002
}
1002
{
1000
BEHIND
1070
     0
1002
}
1002
{
1000
REACTOR
1002
}
1001
GENIUS_GENOBJ-N-REC_13
1002
{
1000
OWNER
1000
GEN
1002
}
  0
TEXT
  5
BC1
330
BBF
100
AcDbEntity
  8
AM_BOR
 60
     1
100
AcDbText
 10
420.0428571428571
 20
296.9999999999998
 30
0.0
 40
5.0
  1
!GENTITLE-MAX
100
AcDbText
  0
LINE
  5
BC2
330
BBF
100
AcDbEntity
  8
AM_BOR
100
AcDbLine
 10
0.0000000000000799
 20
297.0
 30
0.0
 11
0.0000000000000799
 21
275.7857142857142
 31
0.0
1001
GENIUS_GENREC_14
1002
{
1000
PYDIR
1011
420.0428571428571
1021
296.9999999999998
1031
0.0
1002
}
1002
{
1000
PXDIR
1011
0.0
1021
0.0
1031
0.0
1002
}
1002
{
1000
PORI
1011
0.0000000000000799
1021
297.0
1031
0.0
1002
}
1002
{
1000
PINS
1011
0.0000000000000799
1021
297.0
1031
0.0
1002
}
1002
{
1000
HVAL
1000
297
1002
}
1002
{
1000
H
1070
     2
1002
}
1002
{
1000
WVAL
1000
210
1002
}
1002
{
1000
W
1070
     2
1002
}
1002
{
1000
C
1070
     1
1002
}
1001
GENIUS_GENODEF_13
1002
{
1000
HIER
1070
     0
1002
}
1002
{
1000
MANEDIT
1070
     0
1002
}
1002
{
1000
NOSEL
1070
     0
1002
}
1002
{
1000
BEHIND
1070
     0
1002
}
1002
{
1000
REACTOR
1002
}
1001
GENIUS_GENOBJ-N-REC_13
1002
{
1000
OWNER
1000
GEN
1002
}
  0
LINE
  5
BC3
330
BBF
100
AcDbEntity
  8
AM_BOR
100
AcDbLine
 10
0.0
 20
0.0
 30
0.0
 11
21.21428571428571
 21
0.0
 31
0.0
1001
GENIUS_GENREC_14
1002
{
1000
PYDIR
1011
420.0428571428571
1021
296.9999999999998
1031
0.0
1002
}
1002
{
1000
PXDIR
1011
0.0
1021
0.0
1031
0.0
1002
}
1002
{
1000
PORI
1011
0.0000000000000799
1021
297.0
1031
0.0
1002
}
1002
{
1000
PINS
1011
0.0000000000000799
1021
297.0
1031
0.0
1002
}
1002
{
1000
HVAL
1000
297
1002
}
1002
{
1000
H
1070
     2
1002
}
1002
{
1000
WVAL
1000
210
1002
}
1002
{
1000
W
1070
     2
1002
}
1002
{
1000
C
1070
     1
1002
}
1001
GENIUS_GENODEF_13
1002
{
1000
HIER
1070
     0
1002
}
1002
{
1000
MANEDIT
1070
     0
1002
}
1002
{
1000
NOSEL
1070
     0
1002
}
1002
{
1000
BEHIND
1070
     0
1002
}
1002
{
1000
REACTOR
1002
}
1001
GENIUS_GENOBJ-N-REC_13
1002
{
1000
OWNER
1000
GEN
1002
}
  0
LINE
  5
BC4
330
BBF
100
AcDbEntity
  8
AM_BOR
100
AcDbLine
 10
420.0428571428571
 20
-0.0000000000000799
 30
0.0
 11
420.0428571428571
 21
21.21428571428563
 31
0.0
1001
GENIUS_GENREC_14
1002
{
1000
PYDIR
1011
420.0428571428571
1021
296.9999999999998
1031
0.0
1002
}
1002
{
1000
PXDIR
1011
0.0
1021
0.0
1031
0.0
1002
}
1002
{
1000
PORI
1011
0.0000000000000799
1021
297.0
1031
0.0
1002
}
1002
{
1000
PINS
1011
0.0000000000000799
1021
297.0
1031
0.0
1002
}
1002
{
1000
HVAL
1000
297
1002
}
1002
{
1000
H
1070
     2
1002
}
1002
{
1000
WVAL
1000
210
1002
}
1002
{
1000
W
1070
     2
1002
}
1002
{
1000
C
1070
     1
1002
}
1001
GENIUS_GENODEF_13
1002
{
1000
HIER
1070
     0
1002
}
1002
{
1000
MANEDIT
1070
     0
1002
}
1002
{
1000
NOSEL
1070
     0
1002
}
1002
{
1000
BEHIND
1070
     0
1002
}
1002
{
1000
REACTOR
1002
}
1001
GENIUS_GENOBJ-N-REC_13
1002
{
1000
OWNER
1000
GEN
1002
}
  0
LINE
  5
BC5
330
BBF
100
AcDbEntity
  8
AM_BOR
100
AcDbLine
 10
420.0428571428571
 20
296.9999999999998
 30
0.0
 11
398.8285714285715
 21
296.9999999999998
 31
0.0
1001
GENIUS_GENREC_14
1002
{
1000
PYDIR
1011
420.0428571428571
1021
296.9999999999998
1031
0.0
1002
}
1002
{
1000
PXDIR
1011
0.0
1021
0.0
1031
0.0
1002
}
1002
{
1000
PORI
1011
0.0000000000000799
1021
297.0
1031
0.0
1002
}
1002
{
1000
PINS
1011
0.0000000000000799
1021
297.0
1031
0.0
1002
}
1002
{
1000
HVAL
1000
297
1002
}
1002
{
1000
H
1070
     2
1002
}
1002
{
1000
WVAL
1000
210
1002
}
1002
{
1000
W
1070
     2
1002
}
1002
{
1000
C
1070
     1
1002
}
1001
GENIUS_GENODEF_13
1002
{
1000
HIER
1070
     0
1002
}
1002
{
1000
MANEDIT
1070
     0
1002
}
1002
{
1000
NOSEL
1070
     0
1002
}
1002
{
1000
BEHIND
1070
     0
1002
}
1002
{
1000
REACTOR
1002
}
1001
GENIUS_GENOBJ-N-REC_13
1002
{
1000
OWNER
1000
GEN
1002
}
  0
LINE
  5
BC6
330
BBF
100
AcDbEntity
  8
AM_BOR
100
AcDbLine
 10
21.2142857142858
 20
297.0
 30
0.0
 11
0.0000000000000799
 21
297.0
 31
0.0
1001
GENIUS_GENREC_14
1002
{
1000
PYDIR
1011
420.0428571428571
1021
296.9999999999998
1031
0.0
1002
}
1002
{
1000
PXDIR
1011
0.0
1021
0.0
1031
0.0
1002
}
1002
{
1000
PORI
1011
0.0000000000000799
1021
297.0
1031
0.0
1002
}
1002
{
1000
PINS
1011
0.0000000000000799
1021
297.0
1031
0.0
1002
}
1002
{
1000
HVAL
1000
297
1002
}
1002
{
1000
H
1070
     2
1002
}
1002
{
1000
WVAL
1000
210
1002
}
1002
{
1000
W
1070
     2
1002
}
1002
{
1000
C
1070
     1
1002
}
1001
GENIUS_GENODEF_13
1002
{
1000
HIER
1070
     0
1002
}
1002
{
1000
MANEDIT
1070
     0
1002
}
1002
{
1000
NOSEL
1070
     0
1002
}
1002
{
1000
BEHIND
1070
     0
1002
}
1002
{
1000
REACTOR
1002
}
1001
GENIUS_GENOBJ-N-REC_13
1002
{
1000
OWNER
1000
GEN
1002
}
  0
LINE
  5
BC7
330
BBF
100
AcDbEntity
  8
AM_BOR
100
AcDbLine
 10
420.0428571428571
 20
275.7857142857141
 30
0.0
 11
420.0428571428571
 21
296.9999999999998
 31
0.0
1001
GENIUS_GENREC_14
1002
{
1000
PYDIR
1011
420.0428571428571
1021
296.9999999999998
1031
0.0
1002
}
1002
{
1000
PXDIR
1011
0.0
1021
0.0
1031
0.0
1002
}
1002
{
1000
PORI
1011
0.0000000000000799
1021
297.0
1031
0.0
1002
}
1002
{
1000
PINS
1011
0.0000000000000799
1021
297.0
1031
0.0
1002
}
1002
{
1000
HVAL
1000
297
1002
}
1002
{
1000
H
1070
     2
1002
}
1002
{
1000
WVAL
1000
210
1002
}
1002
{
1000
W
1070
     2
1002
}
1002
{
1000
C
1070
     1
1002
}
1001
GENIUS_GENODEF_13
1002
{
1000
HIER
1070
     0
1002
}
1002
{
1000
MANEDIT
1070
     0
1002
}
1002
{
1000
NOSEL
1070
     0
1002
}
1002
{
1000
BEHIND
1070
     0
1002
}
1002
{
1000
REACTOR
1002
}
1001
GENIUS_GENOBJ-N-REC_13
1002
{
1000
OWNER
1000
GEN
1002
}
  0
LINE
  5
BC8
330
BBF
100
AcDbEntity
  8
AM_BOR
100
AcDbLine
 10
398.8285714285715
 20
-0.0000000000000799
 30
0.0
 11
420.0428571428571
 21
-0.0000000000000799
 31
0.0
1001
GENIUS_GENREC_14
1002
{
1000
PYDIR
1011
420.0428571428571
1021
296.9999999999998
1031
0.0
1002
}
1002
{
1000
PXDIR
1011
0.0
1021
0.0
1031
0.0
1002
}
1002
{
1000
PORI
1011
0.0000000000000799
1021
297.0
1031
0.0
1002
}
1002
{
1000
PINS
1011
0.0000000000000799
1021
297.0
1031
0.0
1002
}
1002
{
1000
HVAL
1000
297
1002
}
1002
{
1000
H
1070
     2
1002
}
1002
{
1000
WVAL
1000
210
1002
}
1002
{
1000
W
1070
     2
1002
}
1002
{
1000
C
1070
     1
1002
}
1001
GENIUS_GENODEF_13
1002
{
1000
HIER
1070
     0
1002
}
1002
{
1000
MANEDIT
1070
     0
1002
}
1002
{
1000
NOSEL
1070
     0
1002
}
1002
{
1000
BEHIND
1070
     0
1002
}
1002
{
1000
REACTOR
1002
}
1001
GENIUS_GENOBJ-N-REC_13
1002
{
1000
OWNER
1000
GEN
1002
}
  0
LINE
  5
BC9
330
BBF
100
AcDbEntity
  8
AM_BOR
100
AcDbLine
 10
0.0
 20
21.21428571428571
 30
0.0
 11
0.0
 21
0.0
 31
0.0
1001
GENIUS_GENREC_14
1002
{
1000
PYDIR
1011
420.0428571428571
1021
296.9999999999998
1031
0.0
1002
}
1002
{
1000
PXDIR
1011
0.0
1021
0.0
1031
0.0
1002
}
1002
{
1000
PORI
1011
0.0000000000000799
1021
297.0
1031
0.0
1002
}
1002
{
1000
PINS
1011
0.0000000000000799
1021
297.0
1031
0.0
1002
}
1002
{
1000
HVAL
1000
297
1002
}
1002
{
1000
H
1070
     2
1002
}
1002
{
1000
WVAL
1000
210
1002
}
1002
{
1000
W
1070
     2
1002
}
1002
{
1000
C
1070
     1
1002
}
1001
GENIUS_GENODEF_13
1002
{
1000
HIER
1070
     0
1002
}
1002
{
1000
MANEDIT
1070
     0
1002
}
1002
{
1000
NOSEL
1070
     0
1002
}
1002
{
1000
BEHIND
1070
     0
1002
}
1002
{
1000
REACTOR
1002
}
1001
GENIUS_GENOBJ-N-REC_13
1002
{
1000
OWNER
1000
GEN
1002
}
  0
TEXT
  5
BCA
330
BBF
100
AcDbEntity
  8
AM_0
 60
     1
100
AcDbText
 10
408.7322739737486
 20
285.680442839147
 30
0.0
 40
5.0
  1
!GENTITLE-RU
100
AcDbText
  0
TEXT
  5
BCB
330
BBF
100
AcDbEntity
  8
AM_0
 60
     1
100
AcDbText
 10
16.00523592247285
 20
16.0074545709034
 30
0.0
 40
5.0
  1
!GENTITLE-LL
100
AcDbText
  0
TEXT
  5
BCC
330
BBF
100
AcDbEntity
  8
AM_0
 60
     1
100
AcDbText
 10
408.7322739737486
 20
11.31955716085296
 30
0.0
 40
5.0
  1
!GENTITLE-INSERT
100
AcDbText
  0
ENDBLK
  5
BCF
330
BBF
100
AcDbEntity
  8
0
100
AcDbBlockEnd
  0
BLOCK
  5
179C
330
176D
100
AcDbEntity
  8
0
100
AcDbBlockBegin
  2
ASO1
 70
     2
 10
0.0
 20
0.0
 30
0.0
  3
ASO1
  1

  0
LINE
  5
176E
330
176D
100
AcDbEntity
  8
AM_BOR
 62
   211
100
AcDbLine
 10
-110.0
 20
0.0
 30
0.0
 11
0.0
 21
0.0
 31
0.0
1001
GENIUS_GENREC_14
1002
{
1000
PYDIR
1011
-110.0
1021
40.0
1031
0.0
1002
}
1002
{
1000
PXDIR
1011
0.0
1021
0.0
1031
0.0
1002
}
1002
{
1000
PORI
1011
-110.0
1021
0.0
1031
0.0
1002
}
1002
{
1000
PINS
1011
-110.0
1021
0.0
1031
0.0
1002
}
1002
{
1000
HVAL
1000
40
1002
}
1002
{
1000
H
1070
     2
1002
}
1002
{
1000
WVAL
1000
110
1002
}
1002
{
1000
W
1070
     2
1002
}
1002
{
1000
C
1070
     1
1002
}
1001
GENIUS_GENODEF_13
1002
{
1000
HIER
1070
     0
1002
}
1002
{
1000
MANEDIT
1070
     0
1002
}
1002
{
1000
NOSEL
1070
     0
1002
}
1002
{
1000
BEHIND
1070
     0
1002
}
1002
{
1000
REACTOR
1002
}
1001
GENIUS_GENOBJ-N-REC_13
1002
{
1000
OWNER
1000
GEN
1002
}
  0
LINE
  5
176F
330
176D
100
AcDbEntity
  8
AM_BOR
 62
   211
100
AcDbLine
 10
0.0
 20
0.0
 30
0.0
 11
0.0
 21
40.0
 31
0.0
1001
GENIUS_GENREC_14
1002
{
1000
PYDIR
1011
-110.0
1021
40.0
1031
0.0
1002
}
1002
{
1000
PXDIR
1011
0.0
1021
0.0
1031
0.0
1002
}
1002
{
1000
PORI
1011
-110.0
1021
0.0
1031
0.0
1002
}
1002
{
1000
PINS
1011
-110.0
1021
0.0
1031
0.0
1002
}
1002
{
1000
HVAL
1000
40
1002
}
1002
{
1000
H
1070
     2
1002
}
1002
{
1000
WVAL
1000
110
1002
}
1002
{
1000
W
1070
     2
1002
}
1002
{
1000
C
1070
     1
1002
}
1001
GENIUS_GENODEF_13
1002
{
1000
HIER
1070
     0
1002
}
1002
{
1000
MANEDIT
1070
     0
1002
}
1002
{
1000
NOSEL
1070
     0
1002
}
1002
{
1000
BEHIND
1070
     0
1002
}
1002
{
1000
REACTOR
1002
}
1001
GENIUS_GENOBJ-N-REC_13
1002
{
1000
OWNER
1000
GEN
1002
}
  0
LINE
  5
1770
330
176D
100
AcDbEntity
  8
AM_BOR
 62
   211
100
AcDbLine
 10
0.0
 20
40.0
 30
0.0
 11
-110.0
 21
40.00000000000001
 31
0.0
1001
GENIUS_GENREC_14
1002
{
1000
PYDIR
1011
-110.0
1021
40.0
1031
0.0
1002
}
1002
{
1000
PXDIR
1011
0.0
1021
0.0
1031
0.0
1002
}
1002
{
1000
PORI
1011
-110.0
1021
0.0
1031
0.0
1002
}
1002
{
1000
PINS
1011
-110.0
1021
0.0
1031
0.0
1002
}
1002
{
1000
HVAL
1000
40
1002
}
1002
{
1000
H
1070
     2
1002
}
1002
{
1000
WVAL
1000
110
1002
}
1002
{
1000
W
1070
     2
1002
}
1002
{
1000
C
1070
     1
1002
}
1001
GENIUS_GENODEF_13
1002
{
1000
HIER
1070
     0
1002
}
1002
{
1000
MANEDIT
1070
     0
1002
}
1002
{
1000
NOSEL
1070
     0
1002
}
1002
{
1000
BEHIND
1070
     0
1002
}
1002
{
1000
REACTOR
1002
}
1001
GENIUS_GENOBJ-N-REC_13
1002
{
1000
OWNER
1000
GEN
1002
}
  0
LINE
  5
1771
330
176D
100
AcDbEntity
  8
AM_BOR
 62
   211
100
AcDbLine
 10
-110.0
 20
40.00000000000001
 30
0.0
 11
-110.0
 21
0.0
 31
0.0
1001
GENIUS_GENREC_14
1002
{
1000
PYDIR
1011
-110.0
1021
40.0
1031
0.0
1002
}
1002
{
1000
PXDIR
1011
0.0
1021
0.0
1031
0.0
1002
}
1002
{
1000
PORI
1011
-110.0
1021
0.0
1031
0.0
1002
}
1002
{
1000
PINS
1011
-110.0
1021
0.0
1031
0.0
1002
}
1002
{
1000
HVAL
1000
40
1002
}
1002
{
1000
H
1070
     2
1002
}
1002
{
1000
WVAL
1000
110
1002
}
1002
{
1000
W
1070
     2
1002
}
1002
{
1000
C
1070
     1
1002
}
1001
GENIUS_GENODEF_13
1002
{
1000
HIER
1070
     0
1002
}
1002
{
1000
MANEDIT
1070
     0
1002
}
1002
{
1000
NOSEL
1070
     0
1002
}
1002
{
1000
BEHIND
1070
     0
1002
}
1002
{
1000
REACTOR
1002
}
1001
GENIUS_GENOBJ-N-REC_13
1002
{
1000
OWNER
1000
GEN
1002
}
  0
LINE
  5
1772
330
176D
100
AcDbEntity
  8
AM_BOR
 62
     5
100
AcDbLine
 10
-60.0
 20
9.999999999999992
 30
0.0
 11
0.0
 21
10.0
 31
0.0
1001
GENIUS_GENREC_14
1002
{
1000
PYDIR
1011
-110.0
1021
40.0
1031
0.0
1002
}
1002
{
1000
PXDIR
1011
0.0
1021
0.0
1031
0.0
1002
}
1002
{
1000
PORI
1011
-110.0
1021
0.0
1031
0.0
1002
}
1002
{
1000
PINS
1011
-110.0
1021
0.0
1031
0.0
1002
}
1002
{
1000
HVAL
1000
40
1002
}
1002
{
1000
H
1070
     2
1002
}
1002
{
1000
WVAL
1000
110
1002
}
1002
{
1000
W
1070
     2
1002
}
1002
{
1000
C
1070
     1
1002
}
  0
LINE
  5
1773
330
176D
100
AcDbEntity
  8
AM_BOR
 62
     5
100
AcDbLine
 10
-110.0
 20
19.0
 30
0.0
 11
0.0
 21
19.0
 31
0.0
1001
GENIUS_GENREC_14
1002
{
1000
PYDIR
1011
-110.0
1021
40.0
1031
0.0
1002
}
1002
{
1000
PXDIR
1011
0.0
1021
0.0
1031
0.0
1002
}
1002
{
1000
PORI
1011
-110.0
1021
0.0
1031
0.0
1002
}
1002
{
1000
PINS
1011
-110.0
1021
0.0
1031
0.0
1002
}
1002
{
1000
HVAL
1000
40
1002
}
1002
{
1000
H
1070
     2
1002
}
1002
{
1000
WVAL
1000
110
1002
}
1002
{
1000
W
1070
     2
1002
}
1002
{
1000
C
1070
     1
1002
}
1001
GENIUS_GENODEF_13
1002
{
1000
HIER
1070
     0
1002
}
1002
{
1000
MANEDIT
1070
     0
1002
}
1002
{
1000
NOSEL
1070
     0
1002
}
1002
{
1000
BEHIND
1070
     0
1002
}
1002
{
1000
REACTOR
1002
}
1001
GENIUS_GENOBJ-N-REC_13
1002
{
1000
OWNER
1000
GEN
1002
}
  0
LINE
  5
1774
330
176D
100
AcDbEntity
  8
AM_BOR
 62
     5
100
AcDbLine
 10
-110.0
 20
26.0
 30
0.0
 11
0.0
 21
26.0
 31
0.0
1001
GENIUS_GENREC_14
1002
{
1000
PYDIR
1011
-110.0
1021
40.0
1031
0.0
1002
}
1002
{
1000
PXDIR
1011
0.0
1021
0.0
1031
0.0
1002
}
1002
{
1000
PORI
1011
-110.0
1021
0.0
1031
0.0
1002
}
1002
{
1000
PINS
1011
-110.0
1021
0.0
1031
0.0
1002
}
1002
{
1000
HVAL
1000
40
1002
}
1002
{
1000
H
1070
     2
1002
}
1002
{
1000
WVAL
1000
110
1002
}
1002
{
1000
W
1070
     2
1002
}
1002
{
1000
C
1070
     1
1002
}
1001
GENIUS_GENODEF_13
1002
{
1000
HIER
1070
     0
1002
}
1002
{
1000
MANEDIT
1070
     0
1002
}
1002
{
1000
NOSEL
1070
     0
1002
}
1002
{
1000
BEHIND
1070
     0
1002
}
1002
{
1000
REACTOR
1002
}
1001
GENIUS_GENOBJ-N-REC_13
1002
{
1000
OWNER
1000
GEN
1002
}
  0
LINE
  5
1775
330
176D
100
AcDbEntity
  8
AM_BOR
 62
     5
100
AcDbLine
 10
-110.0
 20
33.0
 30
0.0
 11
0.0
 21
33.0
 31
0.0
1001
GENIUS_GENREC_14
1002
{
1000
PYDIR
1011
-110.0
1021
40.0
1031
0.0
1002
}
1002
{
1000
PXDIR
1011
0.0
1021
0.0
1031
0.0
1002
}
1002
{
1000
PORI
1011
-110.0
1021
0.0
1031
0.0
1002
}
1002
{
1000
PINS
1011
-110.0
1021
0.0
1031
0.0
1002
}
1002
{
1000
HVAL
1000
40
1002
}
1002
{
1000
H
1070
     2
1002
}
1002
{
1000
WVAL
1000
110
1002
}
1002
{
1000
W
1070
     2
1002
}
1002
{
1000
C
1070
     1
1002
}
1001
GENIUS_GENODEF_13
1002
{
1000
HIER
1070
     0
1002
}
1002
{
1000
MANEDIT
1070
     0
1002
}
1002
{
1000
NOSEL
1070
     0
1002
}
1002
{
1000
BEHIND
1070
     0
1002
}
1002
{
1000
REACTOR
1002
}
1001
GENIUS_GENOBJ-N-REC_13
1002
{
1000
OWNER
1000
GEN
1002
}
  0
LINE
  5
1776
330
176D
100
AcDbEntity
  8
AM_BOR
 62
     5
100
AcDbLine
 10
-85.0
 20
33.0
 30
0.0
 11
-85.0
 21
18.99999999999998
 31
0.0
1001
GENIUS_GENREC_14
1002
{
1000
PYDIR
1011
-110.0
1021
40.0
1031
0.0
1002
}
1002
{
1000
PXDIR
1011
0.0
1021
0.0
1031
0.0
1002
}
1002
{
1000
PORI
1011
-110.0
1021
0.0
1031
0.0
1002
}
1002
{
1000
PINS
1011
-110.0
1021
0.0
1031
0.0
1002
}
1002
{
1000
HVAL
1000
40
1002
}
1002
{
1000
H
1070
     2
1002
}
1002
{
1000
WVAL
1000
110
1002
}
1002
{
1000
W
1070
     2
1002
}
1002
{
1000
C
1070
     1
1002
}
1001
GENIUS_GENODEF_13
1002
{
1000
HIER
1070
     0
1002
}
1002
{
1000
MANEDIT
1070
     0
1002
}
1002
{
1000
NOSEL
1070
     0
1002
}
1002
{
1000
BEHIND
1070
     0
1002
}
1002
{
1000
REACTOR
1002
}
1001
GENIUS_GENOBJ-N-REC_13
1002
{
1000
OWNER
1000
GEN
1002
}
  0
LINE
  5
1777
330
176D
100
AcDbEntity
  8
AM_BOR
 62
     5
100
AcDbLine
 10
-60.0
 20
40.00000000000001
 30
0.0
 11
-60.0
 21
0.0
 31
0.0
1001
GENIUS_GENREC_14
1002
{
1000
PYDIR
1011
-110.0
1021
40.0
1031
0.0
1002
}
1002
{
1000
PXDIR
1011
0.0
1021
0.0
1031
0.0
1002
}
1002
{
1000
PORI
1011
-110.0
1021
0.0
1031
0.0
1002
}
1002
{
1000
PINS
1011
-110.0
1021
0.0
1031
0.0
1002
}
1002
{
1000
HVAL
1000
40
1002
}
1002
{
1000
H
1070
     2
1002
}
1002
{
1000
WVAL
1000
110
1002
}
1002
{
1000
W
1070
     2
1002
}
1002
{
1000
C
1070
     1
1002
}
1001
GENIUS_GENODEF_13
1002
{
1000
HIER
1070
     0
1002
}
1002
{
1000
MANEDIT
1070
     0
1002
}
1002
{
1000
NOSEL
1070
     0
1002
}
1002
{
1000
BEHIND
1070
     0
1002
}
1002
{
1000
REACTOR
1002
}
1001
GENIUS_GENOBJ-N-REC_13
1002
{
1000
OWNER
1000
GEN
1002
}
  0
LINE
  5
1778
330
176D
100
AcDbEntity
  8
AM_BOR
 62
     5
100
AcDbLine
 10
-20.0
 20
33.0
 30
0.0
 11
-20.0
 21
40.0
 31
0.0
1001
GENIUS_GENREC_14
1002
{
1000
PYDIR
1011
-110.0
1021
40.0
1031
0.0
1002
}
1002
{
1000
PXDIR
1011
0.0
1021
0.0
1031
0.0
1002
}
1002
{
1000
PORI
1011
-110.0
1021
0.0
1031
0.0
1002
}
1002
{
1000
PINS
1011
-110.0
1021
0.0
1031
0.0
1002
}
1002
{
1000
HVAL
1000
40
1002
}
1002
{
1000
H
1070
     2
1002
}
1002
{
1000
WVAL
1000
110
1002
}
1002
{
1000
W
1070
     2
1002
}
1002
{
1000
C
1070
     1
1002
}
1001
GENIUS_GENODEF_13
1002
{
1000
HIER
1070
     0
1002
}
1002
{
1000
MANEDIT
1070
     0
1002
}
1002
{
1000
NOSEL
1070
     0
1002
}
1002
{
1000
BEHIND
1070
     0
1002
}
1002
{
1000
REACTOR
1002
}
1001
GENIUS_GENOBJ-N-REC_13
1002
{
1000
OWNER
1000
GEN
1002
}
  0
LINE
  5
1779
330
176D
100
AcDbEntity
  8
AM_BOR
 62
     5
100
AcDbLine
 10
-40.0
 20
33.0
 30
0.0
 11
-40.0
 21
40.0
 31
0.0
1001
GENIUS_GENREC_14
1002
{
1000
PYDIR
1011
-110.0
1021
40.0
1031
0.0
1002
}
1002
{
1000
PXDIR
1011
0.0
1021
0.0
1031
0.0
1002
}
1002
{
1000
PORI
1011
-110.0
1021
0.0
1031
0.0
1002
}
1002
{
1000
PINS
1011
-110.0
1021
0.0
1031
0.0
1002
}
1002
{
1000
HVAL
1000
40
1002
}
1002
{
1000
H
1070
     2
1002
}
1002
{
1000
WVAL
1000
110
1002
}
1002
{
1000
W
1070
     2
1002
}
1002
{
1000
C
1070
     1
1002
}
1001
GENIUS_GENODEF_13
1002
{
1000
HIER
1070
     0
1002
}
1002
{
1000
MANEDIT
1070
     0
1002
}
1002
{
1000
NOSEL
1070
     0
1002
}
1002
{
1000
BEHIND
1070
     0
1002
}
1002
{
1000
REACTOR
1002
}
1001
GENIUS_GENOBJ-N-REC_13
1002
{
1000
OWNER
1000
GEN
1002
}
  0
LINE
  5
177A
330
176D
100
AcDbEntity
  8
AM_BOR
 62
     5
100
AcDbLine
 10
-80.0
 20
33.0
 30
0.0
 11
-80.0
 21
40.0
 31
0.0
1001
GENIUS_GENREC_14
1002
{
1000
PYDIR
1011
-110.0
1021
40.0
1031
0.0
1002
}
1002
{
1000
PXDIR
1011
0.0
1021
0.0
1031
0.0
1002
}
1002
{
1000
PORI
1011
-110.0
1021
0.0
1031
0.0
1002
}
1002
{
1000
PINS
1011
-110.0
1021
0.0
1031
0.0
1002
}
1002
{
1000
HVAL
1000
40
1002
}
1002
{
1000
H
1070
     2
1002
}
1002
{
1000
WVAL
1000
110
1002
}
1002
{
1000
W
1070
     2
1002
}
1002
{
1000
C
1070
     1
1002
}
1001
GENIUS_GENODEF_13
1002
{
1000
HIER
1070
     0
1002
}
1002
{
1000
MANEDIT
1070
     0
1002
}
1002
{
1000
NOSEL
1070
     0
1002
}
1002
{
1000
BEHIND
1070
     0
1002
}
1002
{
1000
REACTOR
1002
}
1001
GENIUS_GENOBJ-N-REC_13
1002
{
1000
OWNER
1000
GEN
1002
}
  0
TEXT
  5
177B
330
176D
100
AcDbEntity
  8
AM_BOR
 62
     2
100
AcDbText
 10
-57.4
 20
35.0
 30
0.0
 40
3.0
  1
単位 ｍｍ
 72
     4
 11
-50.0
 21
36.5
 31
0.0
100
AcDbText
  0
TEXT
  5
177C
330
176D
100
AcDbEntity
  8
AM_BOR
 62
     2
100
AcDbText
 10
-39.0
 20
35.0
 30
0.0
 40
3.0
  1
尺度
 41
0.9
 11
-39.0
 21
36.5
 31
0.0
100
AcDbText
 73
     2
  0
TEXT
  5
177D
330
176D
100
AcDbEntity
  8
AM_BOR
 62
     2
100
AcDbText
 10
-19.0
 20
35.0
 30
0.0
 40
3.0
  1
日付
 41
0.9
 11
-19.0
 21
36.5
 31
0.0
100
AcDbText
 73
     2
  0
TEXT
  5
177E
330
176D
100
AcDbEntity
  8
AM_BOR
 62
     2
100
AcDbText
 10
-75.75
 20
34.99999999999999
 30
0.0
 40
3.0
  1
第1角法
 72
     4
 11
-70.0
 21
36.49999999999999
 31
0.0
100
AcDbText
  0
TEXT
  5
177F
330
176D
100
AcDbEntity
  8
AM_BOR
 62
     2
100
AcDbText
 10
-59.0
 20
29.5
 30
0.0
 40
3.0
  1
材 質
 11
-59.0
 21
31.0
 31
0.0
100
AcDbText
 73
     2
  0
TEXT
  5
1780
330
176D
100
AcDbEntity
  8
AM_BOR
 62
     2
100
AcDbText
 10
-59.0
 20
22.5
 30
0.0
 40
3.0
  1
備 考
 11
-59.0
 21
24.0
 31
0.0
100
AcDbText
 73
     2
  0
TEXT
  5
1781
330
176D
100
AcDbEntity
  8
AM_BOR
 62
     2
100
AcDbText
 10
-59.0
 20
15.5
 30
0.0
 40
3.0
  1
品 名
 11
-59.0
 21
17.0
 31
0.0
100
AcDbText
 73
     2
  0
TEXT
  5
1782
330
176D
100
AcDbEntity
  8
AM_BOR
 62
     2
100
AcDbText
 10
-59.0
 20
6.499999999999992
 30
0.0
 40
3.0
  1
図 番
 11
-59.0
 21
7.999999999999992
 31
0.0
100
AcDbText
 73
     2
  0
TEXT
  5
1783
330
176D
100
AcDbEntity
  8
AM_BOR
 62
     2
100
AcDbText
 10
-109.0
 20
29.5
 30
0.0
 40
3.0
  1
承認
 11
-109.0
 21
31.0
 31
0.0
100
AcDbText
 73
     2
  0
TEXT
  5
1784
330
176D
100
AcDbEntity
  8
AM_BOR
 62
     2
100
AcDbText
 10
-109.0
 20
22.5
 30
0.0
 40
3.0
  1
設計
 11
-109.0
 21
24.0
 31
0.0
100
AcDbText
 73
     2
  0
TEXT
  5
1785
330
176D
100
AcDbEntity
  8
AM_BOR
 62
     2
100
AcDbText
 10
-84.0
 20
22.5
 30
0.0
 40
3.0
  1
製図
 11
-84.0
 21
24.0
 31
0.0
100
AcDbText
 73
     2
  0
TEXT
  5
1786
330
176D
100
AcDbEntity
  8
AM_BOR
 62
     2
100
AcDbText
 10
-84.0
 20
29.5
 30
0.0
 40
3.0
  1
検図
 11
-84.0
 21
31.0
 31
0.0
100
AcDbText
 73
     2
  0
ATTDEF
  5
1787
330
176D
100
AcDbEntity
  8
AM_BOR
100
AcDbText
 10
-49.48020001333898
 20
12.75
 30
0.0
 40
3.5
  1

 11
-49.48020001333898
 21
14.5
 31
0.0
100
AcDbAttributeDefinition
  3
品名
  2
HINMEI{14}
 70
     0
 74
     2
  0
ATTDEF
  5
1788
330
176D
100
AcDbEntity
  8
AM_BOR
100
AcDbText
 10
-49.48020001333898
 20
3.249999999999992
 30
0.0
 40
3.5
  1

 11
-49.48020001333898
 21
4.999999999999992
 31
0.0
100
AcDbAttributeDefinition
  3
図番
  2
ZUBAN{14}
 70
     0
 74
     2
  0
ATTDEF
  5
1789
330
176D
100
AcDbEntity
  8
AM_BOR
 62
     2
100
AcDbText
 10
-11.91705654530994
 20
35.0
 30
0.0
 40
3.0
  1

 41
0.8
 11
-11.91705654530994
 21
36.5
 31
0.0
100
AcDbAttributeDefinition
  3
日付
  2
GEN-TITLE-DAT{3.5}
 70
     0
 74
     2
  0
ATTDEF
  5
178A
330
176D
100
AcDbEntity
  8
AM_BOR
 62
     2
100
AcDbText
 10
-71.63012018472975
 20
20.00000000000001
 30
0.0
 40
3.0
  1
水 田
 72
     4
 11
-67.63012018472974
 21
21.50000000000002
 31
0.0
100
AcDbAttributeDefinition
  3
製図
  2
SEIZU
 70
     0
  0
ATTDEF
  5
178B
330
176D
100
AcDbEntity
  8
AM_BOR
 62
     2
100
AcDbText
 10
-31.91705654530995
 20
35.0
 30
0.0
 40
3.0
  1

 11
-31.91705654530995
 21
36.5
 31
0.0
100
AcDbAttributeDefinition
  3
尺度
  2
GEN-TITLE-SCA
 70
     0
 74
     2
  0
LINE
  5
178C
330
176D
100
AcDbEntity
  8
0
100
AcDbLine
 10
-106.9502221859465
 20
14.71456568209314
 30
0.0
 11
-107.7139711131768
 21
11.16237652835879
 31
0.0
  0
LINE
  5
178D
330
176D
100
AcDbEntity
  8
0
100
AcDbLine
 10
-107.7139711131768
 20
11.16237652835879
 30
0.0
 11
-107.6697551010107
 21
11.22470827233807
 31
0.0
  0
ELLIPSE
  5
178E
330
176D
100
AcDbEntity
  8
0
100
AcDbEllipse
 10
-106.5198686826232
 20
9.133166589319488
 30
0.0
 11
0.0200858413762701
 21
2.795177724472429
 31
0.0
210
0.0
220
0.0
230
1.0
 40
0.6250197778053533
 41
-1.051714224928873
 42
0.7298517778971401
1001
GENIUS_GENODEF_13
1002
{
1000
HIER
1070
     0
1002
}
1002
{
1000
MANEDIT
1070
     0
1002
}
1002
{
1000
NOSEL
1070
     0
1002
}
1002
{
1000
BEHIND
1070
     0
1002
}
1002
{
1000
REACTOR
1002
}
1001
GENIUS_GENOBJ-N-FIL_13
1002
{
1000
OWNER
1000
GEN
1002
}
  0
ELLIPSE
  5
178F
330
176D
100
AcDbEntity
  8
0
100
AcDbEllipse
 10
-105.2984958385996
 20
13.8219417489321
 30
0.0
 11
0.0200858413762916
 21
2.795177724472415
 31
0.0
210
0.0
220
0.0
230
1.0
 40
0.6250197778053527
 41
-1.051714224928867
 42
1.250253596044828
1001
GENIUS_GENODEF_13
1002
{
1000
HIER
1070
     0
1002
}
1002
{
1000
MANEDIT
1070
     0
1002
}
1002
{
1000
NOSEL
1070
     0
1002
}
1002
{
1000
BEHIND
1070
     0
1002
}
1002
{
1000
REACTOR
1002
}
1001
GENIUS_GENOBJ-N-FIL_13
1002
{
1000
OWNER
1000
GEN
1002
}
  0
LINE
  5
1790
330
176D
100
AcDbEntity
  8
0
100
AcDbLine
 10
-98.48721298302093
 20
8.077457208786752
 30
0.0
 11
-99.45177360188811
 21
4.065819878065248
 31
0.0
  0
ELLIPSE
  5
1791
330
176D
100
AcDbEntity
  8
0
100
AcDbEllipse
 10
-101.0818809708247
 20
5.053412867376919
 30
0.0
 11
0.0200858413762853
 21
2.795177724472413
 31
0.0
210
0.0
220
0.0
230
1.0
 40
0.6250197778053547
 41
2.089878428660925
 42
4.355766148231805
1001
GENIUS_GENODEF_13
1002
{
1000
HIER
1070
     0
1002
}
1002
{
1000
MANEDIT
1070
     0
1002
}
1002
{
1000
NOSEL
1070
     0
1002
}
1002
{
1000
BEHIND
1070
     0
1002
}
1002
{
1000
REACTOR
1002
}
1001
GENIUS_GENOBJ-N-FIL_13
1002
{
1000
OWNER
1000
GEN
1002
}
  0
LINE
  5
1792
330
176D
100
AcDbEntity
  8
0
100
AcDbLine
 10
-98.48721298302093
 20
8.077457208786752
 30
0.0
 11
-98.66382720839389
 21
7.801834007856294
 31
0.0
  0
ELLIPSE
  5
1793
330
176D
100
AcDbEntity
  8
0
100
AcDbEllipse
 10
-99.87931293102301
 20
9.796066964505511
 30
0.0
 11
0.0200858413762724
 21
2.795177724472415
 31
0.0
210
0.0
220
0.0
230
0.9999999999999998
 40
0.6250197778053552
 41
2.08987842866092
 42
3.922474143254961
1001
GENIUS_GENODEF_13
1002
{
1000
HIER
1070
     0
1002
}
1002
{
1000
MANEDIT
1070
     0
1002
}
1002
{
1000
NOSEL
1070
     0
1002
}
1002
{
1000
BEHIND
1070
     0
1002
}
1002
{
1000
REACTOR
1002
}
1001
GENIUS_GENOBJ-N-FIL_13
1002
{
1000
OWNER
1000
GEN
1002
}
  0
HATCH
  5
1794
330
176D
100
AcDbEntity
  8
AM_8
100
AcDbHatch
 10
0.0
 20
0.0
 30
0.0
210
0.0
220
0.0
230
1.0
  2
SOLID
 70
     1
 71
     0
 91
        1
 92
        1
 93
        2
 72
     3
 10
-106.7638987916396
 20
4.957358478318376
 11
0.0000000000000547
 21
2.56276973145977
 40
0.8333333333333941
 50
-77.14069946214277
 51
264.4007371808275
 73
     1
 72
     3
 10
-106.7638987916396
 20
4.957358478318376
 11
-0.0000000000003928
 21
2.562769731461267
 40
0.8333333333328997
 50
264.4007371808174
 51
282.8593005378472
 73
     1
 97
        0
 75
     0
 76
     1
 98
        1
 10
65.20293740923941
 20
-32.16820874956388
1001
GENIUS_GENODEF_13
1002
{
1000
HIER
1070
     0
1002
}
1002
{
1000
MANEDIT
1070
     0
1002
}
1002
{
1000
NOSEL
1070
     0
1002
}
1002
{
1000
BEHIND
1070
     0
1002
}
1002
{
1000
REACTOR
1002
}
1001
GENIUS_GENOBJ-N-HTC_13
1002
{
1000
OWNER
1000
GEN
1002
}
1001
GENIUS_GENHATCH_13
1002
{
1000
DATA
1040
0.0
1042
0.0015799698758396
1000
SOLID
1070
     0
1011
70.0136537122014
1021
-14.7540192633455
1031
0.0
1002
}
1002
{
1000
UCS
1010
0.0
1020
0.0
1030
0.0
1010
1.0
1020
0.0
1030
0.0
1010
0.0
1020
1.0
1030
0.0
1002
}
  0
ELLIPSE
  5
1795
330
176D
100
AcDbEntity
  8
0
100
AcDbEllipse
 10
-106.7638987916396
 20
4.957358478318417
 30
0.0
 11
0.0000000000000006
 21
2.562769731459943
 31
0.0
210
0.0
220
0.0
230
1.0
 40
0.8333333333333353
 41
-1.570796326794896
 42
4.712388980384689
  0
HATCH
  5
1796
330
176D
100
AcDbEntity
  8
AM_8
100
AcDbHatch
 10
0.0
 20
0.0
 30
0.0
210
0.0
220
0.0
230
1.0
  2
SOLID
 70
     1
 71
     0
 91
        1
 92
        1
 93
       10
 72
     1
 10
-106.9502221859465
 20
14.71456568209311
 11
-107.7139711131768
 21
11.16237652835879
 72
     1
 10
-107.7139711131768
 20
11.16237652835879
 11
-107.6697551010108
 21
11.22470827233809
 72
     3
 10
-106.5198686826232
 20
9.133166589319488
 11
0.0200858413762859
 21
2.795177724472421
 40
0.6250197778053525
 50
-29.21280058452436
 51
47.56891328106517
 73
     0
 72
     1
 10
-104.9929922696577
 20
10.5089073790986
 11
-102.6087573837903
 21
3.677672077597827
 72
     3
 10
-101.0818809708247
 20
5.053412867376919
 11
0.0200858413762844
 21
2.79517772447242
 40
0.625019777805353
 50
132.4310867189347
 51
239.202331800838
 73
     1
 72
     1
 10
-99.45177360188809
 20
4.065819878065248
 11
-98.48721298302093
 21
8.077457208786761
 72
     1
 10
-98.48721298302095
 20
8.077457208786752
 11
-98.66382720839393
 21
7.801834007856288
 72
     3
 10
-99.87931293102301
 20
9.796066964505511
 11
0.0200858413762811
 21
2.795177724472416
 40
0.6250197778053536
 50
148.2259629226598
 51
227.5689132810653
 73
     0
 72
     1
 10
-101.4061893439886
 20
8.420326174726406
 11
-103.771619425634
 21
15.19768253871121
 72
     3
 10
-105.2984958385996
 20
13.8219417489321
 11
0.02008584137625
 21
2.795177724472417
 40
0.6250197778053583
 50
-47.56891328106589
 51
62.02409398278944
 73
     1
 97
        0
 75
     0
 76
     1
 98
        1
 10
65.20293740923941
 20
-32.16820874956388
1001
GENIUS_GENODEF_13
1002
{
1000
HIER
1070
     0
1002
}
1002
{
1000
MANEDIT
1070
     0
1002
}
1002
{
1000
NOSEL
1070
     0
1002
}
1002
{
1000
BEHIND
1070
     0
1002
}
1002
{
1000
REACTOR
1002
}
1001
GENIUS_GENOBJ-N-HTC_13
1002
{
1000
OWNER
1000
GEN
1002
}
1001
GENIUS_GENHATCH_13
1002
{
1000
DATA
1040
0.0
1042
0.0015799698758396
1000
SOLID
1070
     0
1011
74.07735655451816
1021
-11.90112763631223
1031
0.0
1002
}
1002
{
1000
UCS
1010
0.0
1020
0.0
1030
0.0
1010
1.0
1020
0.0
1030
0.0
1010
0.0
1020
1.0
1030
0.0
1002
}
  0
LINE
  5
1797
330
176D
100
AcDbEntity
  8
0
100
AcDbLine
 10
-104.9929922696577
 20
10.5089073790986
 30
0.0
 11
-102.6087573837903
 21
3.677672077597847
 31
0.0
  0
LINE
  5
1798
330
176D
100
AcDbEntity
  8
0
100
AcDbLine
 10
-101.4061893439886
 20
8.420326174726406
 30
0.0
 11
-103.771619425634
 21
15.1976825387112
 31
0.0
  0
TEXT
  5
1799
330
176D
100
AcDbEntity
  8
0
100
AcDbText
 10
-92.04358977334541
 20
2.736280326823534
 30
0.0
 40
1.397647058823528
  1
ASOH   CO.LTD
 41
2.222222222222219
  7
ｽﾀｲﾙ1
100
AcDbText
  0
TEXT
  5
179A
330
176D
100
AcDbEntity
  8
0
100
AcDbText
 10
-96.37601713265375
 20
7.065690057310197
 30
0.0
 40
9.355420606948992
  1
アソー株式会社
 41
0.4444444444444381
  7
ｽﾀｲﾙ1
100
AcDbText
  0
ENDBLK
  5
179D
330
176D
100
AcDbEntity
  8
0
100
AcDbBlockEnd
  0
BLOCK
  5
17A9
330
17A8
100
AcDbEntity
  8
0
100
AcDbBlockBegin
  2
A$C2D292097
 70
     0
 10
0.0
 20
0.0
 30
0.0
  3
A$C2D292097
  1

  0
TEXT
  5
17AA
330
17A8
100
AcDbEntity
  8
0
100
AcDbText
 10
197.1044423511698
 20
31.0035981017752
 30
0.0
 40
10.0
  1
ASOH   CO.LTD
 41
5.0
  7
ｽﾀｲﾙ1
100
AcDbText
  0
TEXT
  5
17AB
330
17A8
100
AcDbEntity
  8
0
100
AcDbText
 10
127.3589261501835
 20
61.98001452360745
 30
0.0
 40
66.93693195207612
  1
アソー株式会社
  7
ｽﾀｲﾙ1
100
AcDbText
  0
HATCH
  5
17AC
330
17A8
100
AcDbEntity
  8
AM_8
100
AcDbHatch
 10
0.0
 20
0.0
 30
0.0
210
0.0
220
0.0
230
1.0
  2
SOLID
 70
     1
 71
     0
 91
        1
 92
        1
 93
       10
 72
     1
 10
26.27998696211468
 20
119.622038302041
 11
19.72254667781421
 21
94.20654351522143
 72
     1
 10
19.72254667781422
 20
94.20654351522143
 11
20.10217910550261
 21
94.65251979790156
 72
     3
 10
29.97494128357687
 20
79.68778553387966
 11
0.240201632991322
 21
19.99855752736969
 40
0.7499999999999996
 50
-34.10238568201522
 51
52.41091053102508
 73
     0
 72
     1
 10
43.0844862433824
 20
89.53104876041368
 11
63.55518980891033
 21
40.6543652059048
 72
     3
 10
76.66473476871587
 20
50.49762843243886
 11
0.2402016329913148
 21
19.99855752736969
 40
0.7499999999999999
 50
127.589089468975
 51
243.9002512902304
 73
     1
 72
     1
 10
90.66060611817196
 20
43.43151697692579
 11
98.94218718925374
 21
72.13430932636422
 72
     1
 10
98.94218718925376
 20
72.13430932636422
 11
97.4258024259505
 21
70.16225780455534
 72
     3
 10
86.98981389832653
 20
84.43075959876276
 11
-0.2402016329912594
 21
-19.99855752736953
 40
0.7499999999999996
 50
-36.86989764584386
 51
52.41091053102518
 73
     0
 72
     1
 10
73.88026893852099
 20
74.58749637222874
 11
53.57102076277776
 21
123.0786824781806
 72
     3
 10
40.46147580297221
 20
113.2354192516466
 11
-0.2402016329912814
 21
-19.99855752736969
 40
0.7500000000000002
 50
127.5890894689749
 51
246.4437724078177
 73
     1
 97
        0
 75
     0
 76
     1
 98
        1
 10
-11.02788873631791
 20
-99.90118815091953
1001
GENIUS_GENODEF_13
1002
{
1000
HIER
1070
     0
1002
}
1002
{
1000
MANEDIT
1070
     0
1002
}
1002
{
1000
NOSEL
1070
     0
1002
}
1002
{
1000
BEHIND
1070
     0
1002
}
1002
{
1000
REACTOR
1002
}
1001
GENIUS_GENOBJ-N-HTC_13
1002
{
1000
OWNER
1000
GEN
1002
}
1001
GENIUS_GENHATCH_13
1002
{
1000
DATA
1040
0.0
1042
0.9999999999999998
1000
SOLID
1070
     0
1011
65.16661907668134
1021
74.10910423558471
1031
0.0
1002
}
1002
{
1000
UCS
1010
0.0
1020
0.0
1030
0.0
1010
1.0
1020
0.0
1030
0.0
1010
0.0
1020
1.0
1030
0.0
1002
}
  0
HATCH
  5
17AD
330
17A8
100
AcDbEntity
  8
AM_8
100
AcDbHatch
 10
0.0
 20
0.0
 30
0.0
210
0.0
220
0.0
230
1.0
  2
SOLID
 70
     1
 71
     0
 91
        1
 92
        1
 93
        2
 72
     2
 10
27.87973327687144
 20
49.81037059826576
 40
18.33631541869489
 50
10.7710123686058
 51
355.3294096482469
 73
     1
 72
     2
 10
27.87973327687144
 20
49.81037059826576
 40
18.33631541869488
 50
355.3294096482469
 51
370.7710123686058
 73
     1
 97
        0
 75
     0
 76
     1
 98
        1
 10
-11.02788873631791
 20
-99.90118815091953
1001
GENIUS_GENODEF_13
1002
{
1000
HIER
1070
     0
1002
}
1002
{
1000
MANEDIT
1070
     0
1002
}
1002
{
1000
NOSEL
1070
     0
1002
}
1002
{
1000
BEHIND
1070
     0
1002
}
1002
{
1000
REACTOR
1002
}
1001
GENIUS_GENOBJ-N-HTC_13
1002
{
1000
OWNER
1000
GEN
1002
}
1001
GENIUS_GENHATCH_13
1002
{
1000
DATA
1040
0.0
1042
0.9999999999999998
1000
SOLID
1070
     0
1011
30.27624113759819
1021
49.61458016509695
1031
0.0
1002
}
1002
{
1000
UCS
1010
0.0
1020
0.0
1030
0.0
1010
1.0
1020
0.0
1030
0.0
1010
0.0
1020
1.0
1030
0.0
1002
}
  0
CIRCLE
  5
17AE
330
17A8
100
AcDbEntity
  8
0
100
AcDbCircle
 10
27.87973327687145
 20
49.81037059826573
 30
0.0
 40
18.33631541869488
  0
LINE
  5
17AF
330
17A8
100
AcDbEntity
  8
0
100
AcDbLine
 10
98.94218718925376
 20
72.13430932636422
 30
0.0
 11
90.66060611817196
 21
43.43151697692576
 31
0.0
  0
LINE
  5
17B0
330
17A8
100
AcDbEntity
  8
0
100
AcDbLine
 10
43.0844862433824
 20
89.5310487604137
 30
0.0
 11
63.55518980891034
 21
40.6543652059048
 31
0.0
  0
ELLIPSE
  5
17B1
330
17A8
100
AcDbEntity
  8
0
100
AcDbEllipse
 10
76.66473476871587
 20
50.49762843243886
 30
0.0
 11
0.2402016329913116
 21
19.99855752736953
 31
0.0
210
0.0
220
0.0
230
0.9999999999999998
 40
0.7499999999999999
 41
2.094395102393195
 42
4.360282821964076
1001
GENIUS_GENODEF_13
1002
{
1000
HIER
1070
     0
1002
}
1002
{
1000
MANEDIT
1070
     0
1002
}
1002
{
1000
NOSEL
1070
     0
1002
}
1002
{
1000
BEHIND
1070
     0
1002
}
1002
{
1000
REACTOR
1002
}
1001
GENIUS_GENOBJ-N-FIL_13
1002
{
1000
OWNER
1000
GEN
1002
}
  0
ELLIPSE
  5
17B2
330
17A8
100
AcDbEntity
  8
0
100
AcDbEllipse
 10
86.98981389832653
 20
84.43075959876276
 30
0.0
 11
0.2402016329912594
 21
19.99855752736953
 31
0.0
210
0.0
220
0.0
230
1.0
 40
0.7499999999999996
 41
2.094395102393192
 42
3.926990816987234
1001
GENIUS_GENODEF_13
1002
{
1000
HIER
1070
     0
1002
}
1002
{
1000
MANEDIT
1070
     0
1002
}
1002
{
1000
NOSEL
1070
     0
1002
}
1002
{
1000
BEHIND
1070
     0
1002
}
1002
{
1000
REACTOR
1002
}
1001
GENIUS_GENOBJ-N-FIL_13
1002
{
1000
OWNER
1000
GEN
1002
}
  0
ELLIPSE
  5
17B3
330
17A8
100
AcDbEntity
  8
0
100
AcDbEllipse
 10
29.97494128357687
 20
79.68778553387966
 30
0.0
 11
0.2402016329913188
 21
19.99855752736953
 31
0.0
210
0.0
220
0.0
230
0.9999999999999998
 40
0.7499999999999996
 41
-1.047197551196598
 42
0.7343684516294112
1001
GENIUS_GENODEF_13
1002
{
1000
HIER
1070
     0
1002
}
1002
{
1000
MANEDIT
1070
     0
1002
}
1002
{
1000
NOSEL
1070
     0
1002
}
1002
{
1000
BEHIND
1070
     0
1002
}
1002
{
1000
REACTOR
1002
}
1001
GENIUS_GENOBJ-N-FIL_13
1002
{
1000
OWNER
1000
GEN
1002
}
  0
ELLIPSE
  5
17B4
330
17A8
100
AcDbEntity
  8
0
100
AcDbEllipse
 10
40.46147580297221
 20
113.2354192516466
 30
0.0
 11
0.2402016329912781
 21
19.99855752736952
 31
0.0
210
0.0
220
0.0
230
0.9999999999999998
 40
0.75
 41
-1.047197551196599
 42
1.254770269777095
1001
GENIUS_GENODEF_13
1002
{
1000
HIER
1070
     0
1002
}
1002
{
1000
MANEDIT
1070
     0
1002
}
1002
{
1000
NOSEL
1070
     0
1002
}
1002
{
1000
BEHIND
1070
     0
1002
}
1002
{
1000
REACTOR
1002
}
1001
GENIUS_GENOBJ-N-FIL_13
1002
{
1000
OWNER
1000
GEN
1002
}
  0
LINE
  5
17B5
330
17A8
100
AcDbEntity
  8
0
100
AcDbLine
 10
73.88026893852099
 20
74.58749637222874
 30
0.0
 11
53.57102076277774
 21
123.0786824781806
 31
0.0
  0
LINE
  5
17B6
330
17A8
100
AcDbEntity
  8
0
100
AcDbLine
 10
26.27998696211472
 20
119.6220383020412
 30
0.0
 11
19.72254667781422
 21
94.20654351522143
 31
0.0
  0
LINE
  5
17B7
330
17A8
100
AcDbEntity
  8
0
100
AcDbLine
 10
19.72254667781422
 20
94.20654351522143
 30
0.0
 11
20.1021791055026
 21
94.65251979790158
 31
0.0
  0
LINE
  5
17B8
330
17A8
100
AcDbEntity
  8
0
100
AcDbLine
 10
98.94218718925372
 20
72.13430932636422
 30
0.0
 11
97.42580242595048
 21
70.16225780455531
 31
0.0
  0
ENDBLK
  5
17B9
330
17A8
100
AcDbEntity
  8
0
100
AcDbBlockEnd
  0
BLOCK
  5
17BF
330
17BD
100
AcDbEntity
  8
0
100
AcDbBlockBegin
  2
A$C676C2959
 70
     2
 10
0.0
 20
0.0
 30
0.0
  3
A$C676C2959
  1

  0
ATTDEF
  5
17C0
330
17BD
100
AcDbEntity
  8
AM_BOR
 62
     2
100
AcDbText
 10
12.15813029624129
 20
1.055831712516678
 30
0.0
 40
3.0
  1
水 田
 72
     4
 11
16.15813029624129
 21
2.555831712516678
 31
0.0
100
AcDbAttributeDefinition
  3
検図
  2
KENZU
 70
     0
  0
ENDBLK
  5
17C1
330
17BD
100
AcDbEntity
  8
0
100
AcDbBlockEnd
  0
BLOCK
  5
17C4
330
17C2
100
AcDbEntity
  8
0
100
AcDbBlockBegin
  2
A$C1FED437B
 70
     2
 10
0.0
 20
0.0
 30
0.0
  3
A$C1FED437B
  1

  0
ATTDEF
  5
17C5
330
17C2
100
AcDbEntity
  8
AM_BOR
 62
     2
100
AcDbText
 10
18.03041271546894
 20
2.555831712516678
 30
0.0
 40
3.0
  1

 72
     4
 11
18.03041271546894
 21
2.555831712516678
 31
0.0
100
AcDbAttributeDefinition
  3
材質
  2
ZAISITU
 70
     0
  0
ENDBLK
  5
17C6
330
17C2
100
AcDbEntity
  8
0
100
AcDbBlockEnd
  0
BLOCK
  5
17FF
330
17CB
100
AcDbEntity
  8
0
100
AcDbBlockBegin
  2
ASO-A
 70
     2
 10
0.0
 20
0.0
 30
0.0
  3
ASO-A
  1

  0
LINE
  5
17CC
330
17CB
100
AcDbEntity
  8
AM_BOR
 62
   211
100
AcDbLine
 10
-110.0
 20
0.0
 30
0.0
 11
0.0
 21
0.0
 31
0.0
1001
GENIUS_GENREC_14
1002
{
1000
PYDIR
1011
-110.0
1021
40.0
1031
0.0
1002
}
1002
{
1000
PXDIR
1011
0.0
1021
0.0
1031
0.0
1002
}
1002
{
1000
PORI
1011
-110.0
1021
0.0
1031
0.0
1002
}
1002
{
1000
PINS
1011
-110.0
1021
0.0
1031
0.0
1002
}
1002
{
1000
HVAL
1000
40
1002
}
1002
{
1000
H
1070
     2
1002
}
1002
{
1000
WVAL
1000
110
1002
}
1002
{
1000
W
1070
     2
1002
}
1002
{
1000
C
1070
     1
1002
}
1001
GENIUS_GENODEF_13
1002
{
1000
HIER
1070
     0
1002
}
1002
{
1000
MANEDIT
1070
     0
1002
}
1002
{
1000
NOSEL
1070
     0
1002
}
1002
{
1000
BEHIND
1070
     0
1002
}
1002
{
1000
REACTOR
1002
}
1001
GENIUS_GENOBJ-N-REC_13
1002
{
1000
OWNER
1000
GEN
1002
}
  0
LINE
  5
17CD
330
17CB
100
AcDbEntity
  8
AM_BOR
 62
   211
100
AcDbLine
 10
0.0
 20
0.0
 30
0.0
 11
0.0
 21
40.0
 31
0.0
1001
GENIUS_GENREC_14
1002
{
1000
PYDIR
1011
-110.0
1021
40.0
1031
0.0
1002
}
1002
{
1000
PXDIR
1011
0.0
1021
0.0
1031
0.0
1002
}
1002
{
1000
PORI
1011
-110.0
1021
0.0
1031
0.0
1002
}
1002
{
1000
PINS
1011
-110.0
1021
0.0
1031
0.0
1002
}
1002
{
1000
HVAL
1000
40
1002
}
1002
{
1000
H
1070
     2
1002
}
1002
{
1000
WVAL
1000
110
1002
}
1002
{
1000
W
1070
     2
1002
}
1002
{
1000
C
1070
     1
1002
}
1001
GENIUS_GENODEF_13
1002
{
1000
HIER
1070
     0
1002
}
1002
{
1000
MANEDIT
1070
     0
1002
}
1002
{
1000
NOSEL
1070
     0
1002
}
1002
{
1000
BEHIND
1070
     0
1002
}
1002
{
1000
REACTOR
1002
}
1001
GENIUS_GENOBJ-N-REC_13
1002
{
1000
OWNER
1000
GEN
1002
}
  0
LINE
  5
17CE
330
17CB
100
AcDbEntity
  8
AM_BOR
 62
   211
100
AcDbLine
 10
0.0
 20
40.0
 30
0.0
 11
-110.0
 21
40.00000000000001
 31
0.0
1001
GENIUS_GENREC_14
1002
{
1000
PYDIR
1011
-110.0
1021
40.0
1031
0.0
1002
}
1002
{
1000
PXDIR
1011
0.0
1021
0.0
1031
0.0
1002
}
1002
{
1000
PORI
1011
-110.0
1021
0.0
1031
0.0
1002
}
1002
{
1000
PINS
1011
-110.0
1021
0.0
1031
0.0
1002
}
1002
{
1000
HVAL
1000
40
1002
}
1002
{
1000
H
1070
     2
1002
}
1002
{
1000
WVAL
1000
110
1002
}
1002
{
1000
W
1070
     2
1002
}
1002
{
1000
C
1070
     1
1002
}
1001
GENIUS_GENODEF_13
1002
{
1000
HIER
1070
     0
1002
}
1002
{
1000
MANEDIT
1070
     0
1002
}
1002
{
1000
NOSEL
1070
     0
1002
}
1002
{
1000
BEHIND
1070
     0
1002
}
1002
{
1000
REACTOR
1002
}
1001
GENIUS_GENOBJ-N-REC_13
1002
{
1000
OWNER
1000
GEN
1002
}
  0
LINE
  5
17CF
330
17CB
100
AcDbEntity
  8
AM_BOR
 62
   211
100
AcDbLine
 10
-110.0
 20
40.00000000000001
 30
0.0
 11
-110.0
 21
0.0
 31
0.0
1001
GENIUS_GENREC_14
1002
{
1000
PYDIR
1011
-110.0
1021
40.0
1031
0.0
1002
}
1002
{
1000
PXDIR
1011
0.0
1021
0.0
1031
0.0
1002
}
1002
{
1000
PORI
1011
-110.0
1021
0.0
1031
0.0
1002
}
1002
{
1000
PINS
1011
-110.0
1021
0.0
1031
0.0
1002
}
1002
{
1000
HVAL
1000
40
1002
}
1002
{
1000
H
1070
     2
1002
}
1002
{
1000
WVAL
1000
110
1002
}
1002
{
1000
W
1070
     2
1002
}
1002
{
1000
C
1070
     1
1002
}
1001
GENIUS_GENODEF_13
1002
{
1000
HIER
1070
     0
1002
}
1002
{
1000
MANEDIT
1070
     0
1002
}
1002
{
1000
NOSEL
1070
     0
1002
}
1002
{
1000
BEHIND
1070
     0
1002
}
1002
{
1000
REACTOR
1002
}
1001
GENIUS_GENOBJ-N-REC_13
1002
{
1000
OWNER
1000
GEN
1002
}
  0
LINE
  5
17D0
330
17CB
100
AcDbEntity
  8
AM_BOR
 62
     5
100
AcDbLine
 10
-60.0
 20
9.999999999999992
 30
0.0
 11
0.0
 21
10.0
 31
0.0
1001
GENIUS_GENREC_14
1002
{
1000
PYDIR
1011
-110.0
1021
40.0
1031
0.0
1002
}
1002
{
1000
PXDIR
1011
0.0
1021
0.0
1031
0.0
1002
}
1002
{
1000
PORI
1011
-110.0
1021
0.0
1031
0.0
1002
}
1002
{
1000
PINS
1011
-110.0
1021
0.0
1031
0.0
1002
}
1002
{
1000
HVAL
1000
40
1002
}
1002
{
1000
H
1070
     2
1002
}
1002
{
1000
WVAL
1000
110
1002
}
1002
{
1000
W
1070
     2
1002
}
1002
{
1000
C
1070
     1
1002
}
  0
LINE
  5
17D1
330
17CB
100
AcDbEntity
  8
AM_BOR
 62
     5
100
AcDbLine
 10
-110.0
 20
19.0
 30
0.0
 11
0.0
 21
19.0
 31
0.0
1001
GENIUS_GENREC_14
1002
{
1000
PYDIR
1011
-110.0
1021
40.0
1031
0.0
1002
}
1002
{
1000
PXDIR
1011
0.0
1021
0.0
1031
0.0
1002
}
1002
{
1000
PORI
1011
-110.0
1021
0.0
1031
0.0
1002
}
1002
{
1000
PINS
1011
-110.0
1021
0.0
1031
0.0
1002
}
1002
{
1000
HVAL
1000
40
1002
}
1002
{
1000
H
1070
     2
1002
}
1002
{
1000
WVAL
1000
110
1002
}
1002
{
1000
W
1070
     2
1002
}
1002
{
1000
C
1070
     1
1002
}
1001
GENIUS_GENODEF_13
1002
{
1000
HIER
1070
     0
1002
}
1002
{
1000
MANEDIT
1070
     0
1002
}
1002
{
1000
NOSEL
1070
     0
1002
}
1002
{
1000
BEHIND
1070
     0
1002
}
1002
{
1000
REACTOR
1002
}
1001
GENIUS_GENOBJ-N-REC_13
1002
{
1000
OWNER
1000
GEN
1002
}
  0
LINE
  5
17D2
330
17CB
100
AcDbEntity
  8
AM_BOR
 62
     5
100
AcDbLine
 10
-110.0
 20
26.0
 30
0.0
 11
0.0
 21
26.0
 31
0.0
1001
GENIUS_GENREC_14
1002
{
1000
PYDIR
1011
-110.0
1021
40.0
1031
0.0
1002
}
1002
{
1000
PXDIR
1011
0.0
1021
0.0
1031
0.0
1002
}
1002
{
1000
PORI
1011
-110.0
1021
0.0
1031
0.0
1002
}
1002
{
1000
PINS
1011
-110.0
1021
0.0
1031
0.0
1002
}
1002
{
1000
HVAL
1000
40
1002
}
1002
{
1000
H
1070
     2
1002
}
1002
{
1000
WVAL
1000
110
1002
}
1002
{
1000
W
1070
     2
1002
}
1002
{
1000
C
1070
     1
1002
}
1001
GENIUS_GENODEF_13
1002
{
1000
HIER
1070
     0
1002
}
1002
{
1000
MANEDIT
1070
     0
1002
}
1002
{
1000
NOSEL
1070
     0
1002
}
1002
{
1000
BEHIND
1070
     0
1002
}
1002
{
1000
REACTOR
1002
}
1001
GENIUS_GENOBJ-N-REC_13
1002
{
1000
OWNER
1000
GEN
1002
}
  0
LINE
  5
17D3
330
17CB
100
AcDbEntity
  8
AM_BOR
 62
     5
100
AcDbLine
 10
-110.0
 20
33.0
 30
0.0
 11
0.0
 21
33.0
 31
0.0
1001
GENIUS_GENREC_14
1002
{
1000
PYDIR
1011
-110.0
1021
40.0
1031
0.0
1002
}
1002
{
1000
PXDIR
1011
0.0
1021
0.0
1031
0.0
1002
}
1002
{
1000
PORI
1011
-110.0
1021
0.0
1031
0.0
1002
}
1002
{
1000
PINS
1011
-110.0
1021
0.0
1031
0.0
1002
}
1002
{
1000
HVAL
1000
40
1002
}
1002
{
1000
H
1070
     2
1002
}
1002
{
1000
WVAL
1000
110
1002
}
1002
{
1000
W
1070
     2
1002
}
1002
{
1000
C
1070
     1
1002
}
1001
GENIUS_GENODEF_13
1002
{
1000
HIER
1070
     0
1002
}
1002
{
1000
MANEDIT
1070
     0
1002
}
1002
{
1000
NOSEL
1070
     0
1002
}
1002
{
1000
BEHIND
1070
     0
1002
}
1002
{
1000
REACTOR
1002
}
1001
GENIUS_GENOBJ-N-REC_13
1002
{
1000
OWNER
1000
GEN
1002
}
  0
LINE
  5
17D4
330
17CB
100
AcDbEntity
  8
AM_BOR
 62
     5
100
AcDbLine
 10
-85.0
 20
33.0
 30
0.0
 11
-85.0
 21
18.99999999999998
 31
0.0
1001
GENIUS_GENREC_14
1002
{
1000
PYDIR
1011
-110.0
1021
40.0
1031
0.0
1002
}
1002
{
1000
PXDIR
1011
0.0
1021
0.0
1031
0.0
1002
}
1002
{
1000
PORI
1011
-110.0
1021
0.0
1031
0.0
1002
}
1002
{
1000
PINS
1011
-110.0
1021
0.0
1031
0.0
1002
}
1002
{
1000
HVAL
1000
40
1002
}
1002
{
1000
H
1070
     2
1002
}
1002
{
1000
WVAL
1000
110
1002
}
1002
{
1000
W
1070
     2
1002
}
1002
{
1000
C
1070
     1
1002
}
1001
GENIUS_GENODEF_13
1002
{
1000
HIER
1070
     0
1002
}
1002
{
1000
MANEDIT
1070
     0
1002
}
1002
{
1000
NOSEL
1070
     0
1002
}
1002
{
1000
BEHIND
1070
     0
1002
}
1002
{
1000
REACTOR
1002
}
1001
GENIUS_GENOBJ-N-REC_13
1002
{
1000
OWNER
1000
GEN
1002
}
  0
LINE
  5
17D5
330
17CB
100
AcDbEntity
  8
AM_BOR
 62
     5
100
AcDbLine
 10
-60.0
 20
40.00000000000001
 30
0.0
 11
-60.0
 21
0.0
 31
0.0
1001
GENIUS_GENREC_14
1002
{
1000
PYDIR
1011
-110.0
1021
40.0
1031
0.0
1002
}
1002
{
1000
PXDIR
1011
0.0
1021
0.0
1031
0.0
1002
}
1002
{
1000
PORI
1011
-110.0
1021
0.0
1031
0.0
1002
}
1002
{
1000
PINS
1011
-110.0
1021
0.0
1031
0.0
1002
}
1002
{
1000
HVAL
1000
40
1002
}
1002
{
1000
H
1070
     2
1002
}
1002
{
1000
WVAL
1000
110
1002
}
1002
{
1000
W
1070
     2
1002
}
1002
{
1000
C
1070
     1
1002
}
1001
GENIUS_GENODEF_13
1002
{
1000
HIER
1070
     0
1002
}
1002
{
1000
MANEDIT
1070
     0
1002
}
1002
{
1000
NOSEL
1070
     0
1002
}
1002
{
1000
BEHIND
1070
     0
1002
}
1002
{
1000
REACTOR
1002
}
1001
GENIUS_GENOBJ-N-REC_13
1002
{
1000
OWNER
1000
GEN
1002
}
  0
LINE
  5
17D6
330
17CB
100
AcDbEntity
  8
AM_BOR
 62
     5
100
AcDbLine
 10
-20.0
 20
33.0
 30
0.0
 11
-20.0
 21
40.0
 31
0.0
1001
GENIUS_GENREC_14
1002
{
1000
PYDIR
1011
-110.0
1021
40.0
1031
0.0
1002
}
1002
{
1000
PXDIR
1011
0.0
1021
0.0
1031
0.0
1002
}
1002
{
1000
PORI
1011
-110.0
1021
0.0
1031
0.0
1002
}
1002
{
1000
PINS
1011
-110.0
1021
0.0
1031
0.0
1002
}
1002
{
1000
HVAL
1000
40
1002
}
1002
{
1000
H
1070
     2
1002
}
1002
{
1000
WVAL
1000
110
1002
}
1002
{
1000
W
1070
     2
1002
}
1002
{
1000
C
1070
     1
1002
}
1001
GENIUS_GENODEF_13
1002
{
1000
HIER
1070
     0
1002
}
1002
{
1000
MANEDIT
1070
     0
1002
}
1002
{
1000
NOSEL
1070
     0
1002
}
1002
{
1000
BEHIND
1070
     0
1002
}
1002
{
1000
REACTOR
1002
}
1001
GENIUS_GENOBJ-N-REC_13
1002
{
1000
OWNER
1000
GEN
1002
}
  0
LINE
  5
17D7
330
17CB
100
AcDbEntity
  8
AM_BOR
 62
     5
100
AcDbLine
 10
-40.0
 20
33.0
 30
0.0
 11
-40.0
 21
40.0
 31
0.0
1001
GENIUS_GENREC_14
1002
{
1000
PYDIR
1011
-110.0
1021
40.0
1031
0.0
1002
}
1002
{
1000
PXDIR
1011
0.0
1021
0.0
1031
0.0
1002
}
1002
{
1000
PORI
1011
-110.0
1021
0.0
1031
0.0
1002
}
1002
{
1000
PINS
1011
-110.0
1021
0.0
1031
0.0
1002
}
1002
{
1000
HVAL
1000
40
1002
}
1002
{
1000
H
1070
     2
1002
}
1002
{
1000
WVAL
1000
110
1002
}
1002
{
1000
W
1070
     2
1002
}
1002
{
1000
C
1070
     1
1002
}
1001
GENIUS_GENODEF_13
1002
{
1000
HIER
1070
     0
1002
}
1002
{
1000
MANEDIT
1070
     0
1002
}
1002
{
1000
NOSEL
1070
     0
1002
}
1002
{
1000
BEHIND
1070
     0
1002
}
1002
{
1000
REACTOR
1002
}
1001
GENIUS_GENOBJ-N-REC_13
1002
{
1000
OWNER
1000
GEN
1002
}
  0
LINE
  5
17D8
330
17CB
100
AcDbEntity
  8
AM_BOR
 62
     5
100
AcDbLine
 10
-80.0
 20
33.0
 30
0.0
 11
-80.0
 21
40.0
 31
0.0
1001
GENIUS_GENREC_14
1002
{
1000
PYDIR
1011
-110.0
1021
40.0
1031
0.0
1002
}
1002
{
1000
PXDIR
1011
0.0
1021
0.0
1031
0.0
1002
}
1002
{
1000
PORI
1011
-110.0
1021
0.0
1031
0.0
1002
}
1002
{
1000
PINS
1011
-110.0
1021
0.0
1031
0.0
1002
}
1002
{
1000
HVAL
1000
40
1002
}
1002
{
1000
H
1070
     2
1002
}
1002
{
1000
WVAL
1000
110
1002
}
1002
{
1000
W
1070
     2
1002
}
1002
{
1000
C
1070
     1
1002
}
1001
GENIUS_GENODEF_13
1002
{
1000
HIER
1070
     0
1002
}
1002
{
1000
MANEDIT
1070
     0
1002
}
1002
{
1000
NOSEL
1070
     0
1002
}
1002
{
1000
BEHIND
1070
     0
1002
}
1002
{
1000
REACTOR
1002
}
1001
GENIUS_GENOBJ-N-REC_13
1002
{
1000
OWNER
1000
GEN
1002
}
  0
TEXT
  5
17D9
330
17CB
100
AcDbEntity
  8
AM_BOR
 62
     2
100
AcDbText
 10
-57.4
 20
35.0
 30
0.0
 40
3.0
  1
単位 ｍｍ
 72
     4
 11
-50.0
 21
36.5
 31
0.0
100
AcDbText
  0
TEXT
  5
17DA
330
17CB
100
AcDbEntity
  8
AM_BOR
 62
     2
100
AcDbText
 10
-39.0
 20
35.0
 30
0.0
 40
3.0
  1
尺度
 41
0.9
 11
-39.0
 21
36.5
 31
0.0
100
AcDbText
 73
     2
  0
TEXT
  5
17DB
330
17CB
100
AcDbEntity
  8
AM_BOR
 62
     2
100
AcDbText
 10
-19.0
 20
35.0
 30
0.0
 40
3.0
  1
日付
 41
0.9
 11
-19.0
 21
36.5
 31
0.0
100
AcDbText
 73
     2
  0
TEXT
  5
17DC
330
17CB
100
AcDbEntity
  8
AM_BOR
 62
     2
100
AcDbText
 10
-76.79999999999999
 20
34.99999999999999
 30
0.0
 40
3.0
  1
第３角法
 72
     4
 11
-70.0
 21
36.49999999999999
 31
0.0
100
AcDbText
  0
TEXT
  5
17DD
330
17CB
100
AcDbEntity
  8
AM_BOR
 62
     2
100
AcDbText
 10
-59.0
 20
29.5
 30
0.0
 40
3.0
  1
材 質
 11
-59.0
 21
31.0
 31
0.0
100
AcDbText
 73
     2
  0
TEXT
  5
17DE
330
17CB
100
AcDbEntity
  8
AM_BOR
 62
     2
100
AcDbText
 10
-59.0
 20
22.5
 30
0.0
 40
3.0
  1
備 考
 11
-59.0
 21
24.0
 31
0.0
100
AcDbText
 73
     2
  0
TEXT
  5
17DF
330
17CB
100
AcDbEntity
  8
AM_BOR
 62
     2
100
AcDbText
 10
-59.0
 20
15.5
 30
0.0
 40
3.0
  1
品 名
 11
-59.0
 21
17.0
 31
0.0
100
AcDbText
 73
     2
  0
TEXT
  5
17E0
330
17CB
100
AcDbEntity
  8
AM_BOR
 62
     2
100
AcDbText
 10
-59.0
 20
6.499999999999992
 30
0.0
 40
3.0
  1
図 番
 11
-59.0
 21
7.999999999999992
 31
0.0
100
AcDbText
 73
     2
  0
TEXT
  5
17E1
330
17CB
100
AcDbEntity
  8
AM_BOR
 62
     2
100
AcDbText
 10
-109.0
 20
29.5
 30
0.0
 40
3.0
  1
承認
 11
-109.0
 21
31.0
 31
0.0
100
AcDbText
 73
     2
  0
TEXT
  5
17E2
330
17CB
100
AcDbEntity
  8
AM_BOR
 62
     2
100
AcDbText
 10
-109.0
 20
22.5
 30
0.0
 40
3.0
  1
設計
 11
-109.0
 21
24.0
 31
0.0
100
AcDbText
 73
     2
  0
TEXT
  5
17E3
330
17CB
100
AcDbEntity
  8
AM_BOR
 62
     2
100
AcDbText
 10
-84.0
 20
22.5
 30
0.0
 40
3.0
  1
製図
 11
-84.0
 21
24.0
 31
0.0
100
AcDbText
 73
     2
  0
TEXT
  5
17E4
330
17CB
100
AcDbEntity
  8
AM_BOR
 62
     2
100
AcDbText
 10
-84.0
 20
29.5
 30
0.0
 40
3.0
  1
検図
 11
-84.0
 21
31.0
 31
0.0
100
AcDbText
 73
     2
  0
ATTDEF
  5
17E5
330
17CB
100
AcDbEntity
  8
AM_BOR
100
AcDbText
 10
-50.25926794017573
 20
12.75
 30
0.0
 40
3.5
  1

 11
-50.25926794017573
 21
14.5
 31
0.0
100
AcDbAttributeDefinition
  3
品名
  2
HINMEI{14}
 70
     0
 74
     2
  0
ATTDEF
  5
17E6
330
17CB
100
AcDbEntity
  8
AM_BOR
100
AcDbText
 10
-50.10873010396898
 20
3.249999999999992
 30
0.0
 40
3.5
  1

 11
-50.10873010396898
 21
4.999999999999992
 31
0.0
100
AcDbAttributeDefinition
  3
図番
  2
ZUBAN{14}
 70
     0
 74
     2
  0
ATTDEF
  5
17E7
330
17CB
100
AcDbEntity
  8
AM_BOR
 62
     2
100
AcDbText
 10
-11.91705654530994
 20
35.0
 30
0.0
 40
3.0
  1

 41
0.8
 11
-11.91705654530994
 21
36.5
 31
0.0
100
AcDbAttributeDefinition
  3
日付
  2
GEN-TITLE-DAT{3.5}
 70
     0
 74
     2
  0
ATTDEF
  5
17E8
330
17CB
100
AcDbEntity
  8
AM_BOR
 62
     2
100
AcDbText
 10
-71.63012018472975
 20
20.00000000000001
 30
0.0
 40
3.0
  1
水 田
 72
     4
 11
-67.63012018472974
 21
21.50000000000002
 31
0.0
100
AcDbAttributeDefinition
  3
製図
  2
SEIZU
 70
     0
  0
ATTDEF
  5
17E9
330
17CB
100
AcDbEntity
  8
AM_BOR
 62
     2
100
AcDbText
 10
-31.91705654530995
 20
35.0
 30
0.0
 40
3.0
  1

 11
-31.91705654530995
 21
36.5
 31
0.0
100
AcDbAttributeDefinition
  3
尺度
  2
GEN-TITLE-SCA
 70
     0
 74
     2
  0
LINE
  5
17EA
330
17CB
100
AcDbEntity
  8
0
100
AcDbLine
 10
-106.9502221859465
 20
14.71456568209314
 30
0.0
 11
-107.7139711131768
 21
11.16237652835879
 31
0.0
  0
LINE
  5
17EB
330
17CB
100
AcDbEntity
  8
0
100
AcDbLine
 10
-107.7139711131768
 20
11.16237652835879
 30
0.0
 11
-107.6697551010107
 21
11.22470827233807
 31
0.0
  0
ELLIPSE
  5
17EC
330
17CB
100
AcDbEntity
  8
0
100
AcDbEllipse
 10
-106.5198686826232
 20
9.133166589319488
 30
0.0
 11
0.0200858413762701
 21
2.795177724472429
 31
0.0
210
0.0
220
0.0
230
1.0
 40
0.6250197778053533
 41
-1.051714224928873
 42
0.7298517778971401
1001
GENIUS_GENODEF_13
1002
{
1000
HIER
1070
     0
1002
}
1002
{
1000
MANEDIT
1070
     0
1002
}
1002
{
1000
NOSEL
1070
     0
1002
}
1002
{
1000
BEHIND
1070
     0
1002
}
1002
{
1000
REACTOR
1002
}
1001
GENIUS_GENOBJ-N-FIL_13
1002
{
1000
OWNER
1000
GEN
1002
}
  0
ELLIPSE
  5
17ED
330
17CB
100
AcDbEntity
  8
0
100
AcDbEllipse
 10
-105.2984958385996
 20
13.8219417489321
 30
0.0
 11
0.0200858413762916
 21
2.795177724472415
 31
0.0
210
0.0
220
0.0
230
1.0
 40
0.6250197778053527
 41
-1.051714224928867
 42
1.250253596044828
1001
GENIUS_GENODEF_13
1002
{
1000
HIER
1070
     0
1002
}
1002
{
1000
MANEDIT
1070
     0
1002
}
1002
{
1000
NOSEL
1070
     0
1002
}
1002
{
1000
BEHIND
1070
     0
1002
}
1002
{
1000
REACTOR
1002
}
1001
GENIUS_GENOBJ-N-FIL_13
1002
{
1000
OWNER
1000
GEN
1002
}
  0
LINE
  5
17EE
330
17CB
100
AcDbEntity
  8
0
100
AcDbLine
 10
-98.48721298302093
 20
8.077457208786752
 30
0.0
 11
-99.45177360188811
 21
4.065819878065248
 31
0.0
  0
ELLIPSE
  5
17EF
330
17CB
100
AcDbEntity
  8
0
100
AcDbEllipse
 10
-101.0818809708247
 20
5.053412867376919
 30
0.0
 11
0.0200858413762853
 21
2.795177724472413
 31
0.0
210
0.0
220
0.0
230
1.0
 40
0.6250197778053547
 41
2.089878428660925
 42
4.355766148231805
1001
GENIUS_GENODEF_13
1002
{
1000
HIER
1070
     0
1002
}
1002
{
1000
MANEDIT
1070
     0
1002
}
1002
{
1000
NOSEL
1070
     0
1002
}
1002
{
1000
BEHIND
1070
     0
1002
}
1002
{
1000
REACTOR
1002
}
1001
GENIUS_GENOBJ-N-FIL_13
1002
{
1000
OWNER
1000
GEN
1002
}
  0
LINE
  5
17F0
330
17CB
100
AcDbEntity
  8
0
100
AcDbLine
 10
-98.48721298302093
 20
8.077457208786752
 30
0.0
 11
-98.66382720839389
 21
7.801834007856294
 31
0.0
  0
ELLIPSE
  5
17F1
330
17CB
100
AcDbEntity
  8
0
100
AcDbEllipse
 10
-99.87931293102301
 20
9.796066964505511
 30
0.0
 11
0.0200858413762724
 21
2.795177724472415
 31
0.0
210
0.0
220
0.0
230
0.9999999999999998
 40
0.6250197778053552
 41
2.08987842866092
 42
3.922474143254961
1001
GENIUS_GENODEF_13
1002
{
1000
HIER
1070
     0
1002
}
1002
{
1000
MANEDIT
1070
     0
1002
}
1002
{
1000
NOSEL
1070
     0
1002
}
1002
{
1000
BEHIND
1070
     0
1002
}
1002
{
1000
REACTOR
1002
}
1001
GENIUS_GENOBJ-N-FIL_13
1002
{
1000
OWNER
1000
GEN
1002
}
  0
HATCH
  5
17F2
330
17CB
100
AcDbEntity
  8
AM_8
100
AcDbHatch
 10
0.0
 20
0.0
 30
0.0
210
0.0
220
0.0
230
1.0
  2
SOLID
 70
     1
 71
     0
 91
        1
 92
        1
 93
        2
 72
     3
 10
-106.7638987916396
 20
4.957358478318376
 11
0.0000000000000547
 21
2.56276973145977
 40
0.8333333333333941
 50
-77.14069946214277
 51
264.4007371808275
 73
     1
 72
     3
 10
-106.7638987916396
 20
4.957358478318376
 11
-0.0000000000003928
 21
2.562769731461267
 40
0.8333333333328997
 50
264.4007371808174
 51
282.8593005378472
 73
     1
 97
        0
 75
     0
 76
     1
 98
        1
 10
65.20293740923941
 20
-32.16820874956388
1001
GENIUS_GENODEF_13
1002
{
1000
HIER
1070
     0
1002
}
1002
{
1000
MANEDIT
1070
     0
1002
}
1002
{
1000
NOSEL
1070
     0
1002
}
1002
{
1000
BEHIND
1070
     0
1002
}
1002
{
1000
REACTOR
1002
}
1001
GENIUS_GENOBJ-N-HTC_13
1002
{
1000
OWNER
1000
GEN
1002
}
1001
GENIUS_GENHATCH_13
1002
{
1000
DATA
1040
0.0
1042
0.0015799698758396
1000
SOLID
1070
     0
1011
70.0136537122014
1021
-14.7540192633455
1031
0.0
1002
}
1002
{
1000
UCS
1010
0.0
1020
0.0
1030
0.0
1010
1.0
1020
0.0
1030
0.0
1010
0.0
1020
1.0
1030
0.0
1002
}
  0
ELLIPSE
  5
17F3
330
17CB
100
AcDbEntity
  8
0
100
AcDbEllipse
 10
-106.7638987916396
 20
4.957358478318417
 30
0.0
 11
0.0000000000000006
 21
2.562769731459943
 31
0.0
210
0.0
220
0.0
230
1.0
 40
0.8333333333333353
 41
-1.570796326794896
 42
4.712388980384689
  0
HATCH
  5
17F4
330
17CB
100
AcDbEntity
  8
AM_8
100
AcDbHatch
 10
0.0
 20
0.0
 30
0.0
210
0.0
220
0.0
230
1.0
  2
SOLID
 70
     1
 71
     0
 91
        1
 92
        1
 93
       10
 72
     1
 10
-106.9502221859465
 20
14.71456568209311
 11
-107.7139711131768
 21
11.16237652835879
 72
     1
 10
-107.7139711131768
 20
11.16237652835879
 11
-107.6697551010108
 21
11.22470827233809
 72
     3
 10
-106.5198686826232
 20
9.133166589319488
 11
0.0200858413762859
 21
2.795177724472421
 40
0.6250197778053525
 50
-29.21280058452436
 51
47.56891328106517
 73
     0
 72
     1
 10
-104.9929922696577
 20
10.5089073790986
 11
-102.6087573837903
 21
3.677672077597827
 72
     3
 10
-101.0818809708247
 20
5.053412867376919
 11
0.0200858413762844
 21
2.79517772447242
 40
0.625019777805353
 50
132.4310867189347
 51
239.202331800838
 73
     1
 72
     1
 10
-99.45177360188809
 20
4.065819878065248
 11
-98.48721298302093
 21
8.077457208786761
 72
     1
 10
-98.48721298302095
 20
8.077457208786752
 11
-98.66382720839393
 21
7.801834007856288
 72
     3
 10
-99.87931293102301
 20
9.796066964505511
 11
0.0200858413762811
 21
2.795177724472416
 40
0.6250197778053536
 50
148.2259629226598
 51
227.5689132810653
 73
     0
 72
     1
 10
-101.4061893439886
 20
8.420326174726406
 11
-103.771619425634
 21
15.19768253871121
 72
     3
 10
-105.2984958385996
 20
13.8219417489321
 11
0.02008584137625
 21
2.795177724472417
 40
0.6250197778053583
 50
-47.56891328106589
 51
62.02409398278944
 73
     1
 97
        0
 75
     0
 76
     1
 98
        1
 10
65.20293740923941
 20
-32.16820874956388
1001
GENIUS_GENODEF_13
1002
{
1000
HIER
1070
     0
1002
}
1002
{
1000
MANEDIT
1070
     0
1002
}
1002
{
1000
NOSEL
1070
     0
1002
}
1002
{
1000
BEHIND
1070
     0
1002
}
1002
{
1000
REACTOR
1002
}
1001
GENIUS_GENOBJ-N-HTC_13
1002
{
1000
OWNER
1000
GEN
1002
}
1001
GENIUS_GENHATCH_13
1002
{
1000
DATA
1040
0.0
1042
0.0015799698758396
1000
SOLID
1070
     0
1011
74.07735655451816
1021
-11.90112763631223
1031
0.0
1002
}
1002
{
1000
UCS
1010
0.0
1020
0.0
1030
0.0
1010
1.0
1020
0.0
1030
0.0
1010
0.0
1020
1.0
1030
0.0
1002
}
  0
LINE
  5
17F5
330
17CB
100
AcDbEntity
  8
0
100
AcDbLine
 10
-104.9929922696577
 20
10.5089073790986
 30
0.0
 11
-102.6087573837903
 21
3.677672077597847
 31
0.0
  0
LINE
  5
17F6
330
17CB
100
AcDbEntity
  8
0
100
AcDbLine
 10
-101.4061893439886
 20
8.420326174726406
 30
0.0
 11
-103.771619425634
 21
15.1976825387112
 31
0.0
  0
TEXT
  5
17F7
330
17CB
100
AcDbEntity
  8
0
100
AcDbText
 10
-92.04358977334541
 20
2.736280326823534
 30
0.0
 40
1.397647058823528
  1
ASOH   CO.LTD
 41
2.222222222222219
  7
ｽﾀｲﾙ1
100
AcDbText
  0
TEXT
  5
17F8
330
17CB
100
AcDbEntity
  8
0
100
AcDbText
 10
-96.37601713265375
 20
7.065690057310197
 30
0.0
 40
9.355420606948992
  1
アソー株式会社
 41
0.4444444444444381
  7
ｽﾀｲﾙ1
100
AcDbText
  0
ATTDEF
  5
17F9
330
17CB
100
AcDbEntity
  8
AM_BOR
 62
     2
100
AcDbText
 10
-98.50320560717072
 20
20.29902073441097
 30
0.0
 40
3.0
  1
水 田
 72
     4
 11
-94.50320560717072
 21
21.79902073441097
 31
0.0
100
AcDbAttributeDefinition
  3
設計
  2
SEKKEI
 70
     0
  0
ATTDEF
  5
17FA
330
17CB
100
AcDbEntity
  8
AM_BOR
 62
     2
100
AcDbText
 10
-97.8418697037587
 20
27.05583171251668
 30
0.0
 40
3.0
  1
水 田
 72
     4
 11
-93.8418697037587
 21
28.55583171251668
 31
0.0
100
AcDbAttributeDefinition
  3
承認
  2
SYOUNIN
 70
     0
  0
ATTDEF
  5
17FB
330
17CB
100
AcDbEntity
  8
AM_BOR
 62
     2
100
AcDbText
 10
-72.8418697037587
 20
27.05583171251668
 30
0.0
 40
3.0
  1
水 田
 72
     4
 11
-68.8418697037587
 21
28.55583171251668
 31
0.0
100
AcDbAttributeDefinition
  3
検図
  2
KENZU
 70
     0
  0
ATTDEF
  5
17FC
330
17CB
100
AcDbEntity
  8
AM_BOR
 62
     2
100
AcDbText
 10
-28.88427375716205
 20
27.48523221998006
 30
0.0
 40
2.5
  1

 72
     4
 11
-28.88427375716205
 21
27.48523221998006
 31
0.0
100
AcDbAttributeDefinition
  3
材質
  2
ZAISITU
 70
     0
  0
ATTDEF
  5
17FD
330
17CB
100
AcDbEntity
  8
AM_BOR
 62
     2
100
AcDbText
 10
-28.88427375716205
 20
20.49352515660299
 30
0.0
 40
2.5
  1

 72
     4
 11
-28.88427375716205
 21
20.49352515660299
 31
0.0
100
AcDbAttributeDefinition
  3
備考
  2
BIKOU
 70
     0
  0
ENDBLK
  5
1800
330
17CB
100
AcDbEntity
  8
0
100
AcDbBlockEnd
  0
BLOCK
  5
2347
330
2338
100
AcDbEntity
  8
0
100
AcDbBlockBegin
  2
AA-4-T
 70
     0
 10
0.0
 20
0.0
 30
0.0
  3
AA-4-T
  1

  0
LWPOLYLINE
  5
2339
330
2338
100
AcDbEntity
  8
AM_BOR
 62
   231
100
AcDbPolyline
 90
        4
 70
     1
 43
0.0
 10
8.002617961236467
 20
203.1037272854516
 10
8.00261796123641
 20
8.003727285451702
 10
289.0026179612364
 20
8.003727285451589
 10
289.0026179612364
 20
203.1037272854516
1001
GENIUS_GENREC_14
1002
{
1000
PYDIR
1011
289.0026179612364
1021
203.1037272854517
1031
0.0
1002
}
1002
{
1000
PXDIR
1011
8.00261796123641
1021
8.003727285451702
1031
0.0
1002
}
1002
{
1000
PORI
1011
8.002617961236467
1021
203.1037272854516
1031
0.0
1002
}
1002
{
1000
PINS
1011
8.002617961236467
1021
203.1037272854516
1031
0.0
1002
}
1002
{
1000
HVAL
1000
281
1002
}
1002
{
1000
H
1070
     2
1002
}
1002
{
1000
WVAL
1000
183
1002
}
1002
{
1000
W
1070
     2
1002
}
1002
{
1000
C
1070
     1
1002
}
1001
GENIUS_GENODEF_13
1002
{
1000
HIER
1070
     0
1002
}
1002
{
1000
MANEDIT
1070
     0
1002
}
1002
{
1000
NOSEL
1070
     0
1002
}
1002
{
1000
BEHIND
1070
     0
1002
}
1002
{
1000
REACTOR
1002
}
1001
GENIUS_GENOBJ-N-REC_13
1002
{
1000
OWNER
1000
GEN
1002
}
  0
TEXT
  5
233A
330
2338
100
AcDbEntity
  8
AM_BOR
 60
     1
100
AcDbText
 10
297.0
 20
209.9999999999999
 30
0.0
 40
5.0
  1
!GENTITLE-MAX
100
AcDbText
  0
LINE
  5
233B
330
2338
100
AcDbEntity
  8
AM_BOR
100
AcDbLine
 10
0.0000000000000568
 20
210.0
 30
0.0
 11
0.0000000000000568
 21
195.0
 31
0.0
1001
GENIUS_GENREC_14
1002
{
1000
PYDIR
1011
297.0
1021
209.9999999999999
1031
0.0
1002
}
1002
{
1000
PXDIR
1011
0.0
1021
0.0
1031
0.0
1002
}
1002
{
1000
PORI
1011
0.0000000000000568
1021
210.0
1031
0.0
1002
}
1002
{
1000
PINS
1011
0.0000000000000568
1021
210.0
1031
0.0
1002
}
1002
{
1000
HVAL
1000
297
1002
}
1002
{
1000
H
1070
     2
1002
}
1002
{
1000
WVAL
1000
210
1002
}
1002
{
1000
W
1070
     2
1002
}
1002
{
1000
C
1070
     1
1002
}
1001
GENIUS_GENODEF_13
1002
{
1000
HIER
1070
     0
1002
}
1002
{
1000
MANEDIT
1070
     0
1002
}
1002
{
1000
NOSEL
1070
     0
1002
}
1002
{
1000
BEHIND
1070
     0
1002
}
1002
{
1000
REACTOR
1002
}
1001
GENIUS_GENOBJ-N-REC_13
1002
{
1000
OWNER
1000
GEN
1002
}
  0
LINE
  5
233C
330
2338
100
AcDbEntity
  8
AM_BOR
100
AcDbLine
 10
0.0
 20
0.0
 30
0.0
 11
15.0
 21
0.0
 31
0.0
1001
GENIUS_GENREC_14
1002
{
1000
PYDIR
1011
297.0
1021
209.9999999999999
1031
0.0
1002
}
1002
{
1000
PXDIR
1011
0.0
1021
0.0
1031
0.0
1002
}
1002
{
1000
PORI
1011
0.0000000000000568
1021
210.0
1031
0.0
1002
}
1002
{
1000
PINS
1011
0.0000000000000568
1021
210.0
1031
0.0
1002
}
1002
{
1000
HVAL
1000
297
1002
}
1002
{
1000
H
1070
     2
1002
}
1002
{
1000
WVAL
1000
210
1002
}
1002
{
1000
W
1070
     2
1002
}
1002
{
1000
C
1070
     1
1002
}
1001
GENIUS_GENODEF_13
1002
{
1000
HIER
1070
     0
1002
}
1002
{
1000
MANEDIT
1070
     0
1002
}
1002
{
1000
NOSEL
1070
     0
1002
}
1002
{
1000
BEHIND
1070
     0
1002
}
1002
{
1000
REACTOR
1002
}
1001
GENIUS_GENOBJ-N-REC_13
1002
{
1000
OWNER
1000
GEN
1002
}
  0
LINE
  5
233D
330
2338
100
AcDbEntity
  8
AM_BOR
100
AcDbLine
 10
297.0
 20
-0.0000000000000568
 30
0.0
 11
297.0
 21
14.99999999999994
 31
0.0
1001
GENIUS_GENREC_14
1002
{
1000
PYDIR
1011
297.0
1021
209.9999999999999
1031
0.0
1002
}
1002
{
1000
PXDIR
1011
0.0
1021
0.0
1031
0.0
1002
}
1002
{
1000
PORI
1011
0.0000000000000568
1021
210.0
1031
0.0
1002
}
1002
{
1000
PINS
1011
0.0000000000000568
1021
210.0
1031
0.0
1002
}
1002
{
1000
HVAL
1000
297
1002
}
1002
{
1000
H
1070
     2
1002
}
1002
{
1000
WVAL
1000
210
1002
}
1002
{
1000
W
1070
     2
1002
}
1002
{
1000
C
1070
     1
1002
}
1001
GENIUS_GENODEF_13
1002
{
1000
HIER
1070
     0
1002
}
1002
{
1000
MANEDIT
1070
     0
1002
}
1002
{
1000
NOSEL
1070
     0
1002
}
1002
{
1000
BEHIND
1070
     0
1002
}
1002
{
1000
REACTOR
1002
}
1001
GENIUS_GENOBJ-N-REC_13
1002
{
1000
OWNER
1000
GEN
1002
}
  0
LINE
  5
233E
330
2338
100
AcDbEntity
  8
AM_BOR
100
AcDbLine
 10
297.0
 20
209.9999999999999
 30
0.0
 11
282.0
 21
209.9999999999999
 31
0.0
1001
GENIUS_GENREC_14
1002
{
1000
PYDIR
1011
297.0
1021
209.9999999999999
1031
0.0
1002
}
1002
{
1000
PXDIR
1011
0.0
1021
0.0
1031
0.0
1002
}
1002
{
1000
PORI
1011
0.0000000000000568
1021
210.0
1031
0.0
1002
}
1002
{
1000
PINS
1011
0.0000000000000568
1021
210.0
1031
0.0
1002
}
1002
{
1000
HVAL
1000
297
1002
}
1002
{
1000
H
1070
     2
1002
}
1002
{
1000
WVAL
1000
210
1002
}
1002
{
1000
W
1070
     2
1002
}
1002
{
1000
C
1070
     1
1002
}
1001
GENIUS_GENODEF_13
1002
{
1000
HIER
1070
     0
1002
}
1002
{
1000
MANEDIT
1070
     0
1002
}
1002
{
1000
NOSEL
1070
     0
1002
}
1002
{
1000
BEHIND
1070
     0
1002
}
1002
{
1000
REACTOR
1002
}
1001
GENIUS_GENOBJ-N-REC_13
1002
{
1000
OWNER
1000
GEN
1002
}
  0
LINE
  5
233F
330
2338
100
AcDbEntity
  8
AM_BOR
100
AcDbLine
 10
15.00000000000006
 20
210.0
 30
0.0
 11
0.0000000000000568
 21
210.0
 31
0.0
1001
GENIUS_GENREC_14
1002
{
1000
PYDIR
1011
297.0
1021
209.9999999999999
1031
0.0
1002
}
1002
{
1000
PXDIR
1011
0.0
1021
0.0
1031
0.0
1002
}
1002
{
1000
PORI
1011
0.0000000000000568
1021
210.0
1031
0.0
1002
}
1002
{
1000
PINS
1011
0.0000000000000568
1021
210.0
1031
0.0
1002
}
1002
{
1000
HVAL
1000
297
1002
}
1002
{
1000
H
1070
     2
1002
}
1002
{
1000
WVAL
1000
210
1002
}
1002
{
1000
W
1070
     2
1002
}
1002
{
1000
C
1070
     1
1002
}
1001
GENIUS_GENODEF_13
1002
{
1000
HIER
1070
     0
1002
}
1002
{
1000
MANEDIT
1070
     0
1002
}
1002
{
1000
NOSEL
1070
     0
1002
}
1002
{
1000
BEHIND
1070
     0
1002
}
1002
{
1000
REACTOR
1002
}
1001
GENIUS_GENOBJ-N-REC_13
1002
{
1000
OWNER
1000
GEN
1002
}
  0
LINE
  5
2340
330
2338
100
AcDbEntity
  8
AM_BOR
100
AcDbLine
 10
297.0
 20
194.9999999999999
 30
0.0
 11
297.0
 21
209.9999999999999
 31
0.0
1001
GENIUS_GENREC_14
1002
{
1000
PYDIR
1011
297.0
1021
209.9999999999999
1031
0.0
1002
}
1002
{
1000
PXDIR
1011
0.0
1021
0.0
1031
0.0
1002
}
1002
{
1000
PORI
1011
0.0000000000000568
1021
210.0
1031
0.0
1002
}
1002
{
1000
PINS
1011
0.0000000000000568
1021
210.0
1031
0.0
1002
}
1002
{
1000
HVAL
1000
297
1002
}
1002
{
1000
H
1070
     2
1002
}
1002
{
1000
WVAL
1000
210
1002
}
1002
{
1000
W
1070
     2
1002
}
1002
{
1000
C
1070
     1
1002
}
1001
GENIUS_GENODEF_13
1002
{
1000
HIER
1070
     0
1002
}
1002
{
1000
MANEDIT
1070
     0
1002
}
1002
{
1000
NOSEL
1070
     0
1002
}
1002
{
1000
BEHIND
1070
     0
1002
}
1002
{
1000
REACTOR
1002
}
1001
GENIUS_GENOBJ-N-REC_13
1002
{
1000
OWNER
1000
GEN
1002
}
  0
LINE
  5
2341
330
2338
100
AcDbEntity
  8
AM_BOR
100
AcDbLine
 10
282.0
 20
-0.0000000000000568
 30
0.0
 11
297.0
 21
-0.0000000000000568
 31
0.0
1001
GENIUS_GENREC_14
1002
{
1000
PYDIR
1011
297.0
1021
209.9999999999999
1031
0.0
1002
}
1002
{
1000
PXDIR
1011
0.0
1021
0.0
1031
0.0
1002
}
1002
{
1000
PORI
1011
0.0000000000000568
1021
210.0
1031
0.0
1002
}
1002
{
1000
PINS
1011
0.0000000000000568
1021
210.0
1031
0.0
1002
}
1002
{
1000
HVAL
1000
297
1002
}
1002
{
1000
H
1070
     2
1002
}
1002
{
1000
WVAL
1000
210
1002
}
1002
{
1000
W
1070
     2
1002
}
1002
{
1000
C
1070
     1
1002
}
1001
GENIUS_GENODEF_13
1002
{
1000
HIER
1070
     0
1002
}
1002
{
1000
MANEDIT
1070
     0
1002
}
1002
{
1000
NOSEL
1070
     0
1002
}
1002
{
1000
BEHIND
1070
     0
1002
}
1002
{
1000
REACTOR
1002
}
1001
GENIUS_GENOBJ-N-REC_13
1002
{
1000
OWNER
1000
GEN
1002
}
  0
LINE
  5
2342
330
2338
100
AcDbEntity
  8
AM_BOR
100
AcDbLine
 10
0.0
 20
15.0
 30
0.0
 11
0.0
 21
0.0
 31
0.0
1001
GENIUS_GENREC_14
1002
{
1000
PYDIR
1011
297.0
1021
209.9999999999999
1031
0.0
1002
}
1002
{
1000
PXDIR
1011
0.0
1021
0.0
1031
0.0
1002
}
1002
{
1000
PORI
1011
0.0000000000000568
1021
210.0
1031
0.0
1002
}
1002
{
1000
PINS
1011
0.0000000000000568
1021
210.0
1031
0.0
1002
}
1002
{
1000
HVAL
1000
297
1002
}
1002
{
1000
H
1070
     2
1002
}
1002
{
1000
WVAL
1000
210
1002
}
1002
{
1000
W
1070
     2
1002
}
1002
{
1000
C
1070
     1
1002
}
1001
GENIUS_GENODEF_13
1002
{
1000
HIER
1070
     0
1002
}
1002
{
1000
MANEDIT
1070
     0
1002
}
1002
{
1000
NOSEL
1070
     0
1002
}
1002
{
1000
BEHIND
1070
     0
1002
}
1002
{
1000
REACTOR
1002
}
1001
GENIUS_GENOBJ-N-REC_13
1002
{
1000
OWNER
1000
GEN
1002
}
  0
TEXT
  5
2343
330
2338
100
AcDbEntity
  8
AM_0
 60
     1
100
AcDbText
 10
289.0026179612364
 20
203.1037272854516
 30
0.0
 40
5.0
  1
!GENTITLE-RU
100
AcDbText
  0
TEXT
  5
2344
330
2338
100
AcDbEntity
  8
AM_0
 60
     1
100
AcDbText
 10
8.002617961236445
 20
8.003727285451702
 30
0.0
 40
5.0
  1
!GENTITLE-LL
100
AcDbText
  0
TEXT
  5
2345
330
2338
100
AcDbEntity
  8
AM_0
 60
     1
100
AcDbText
 10
289.0026179612364
 20
8.00372728545159
 30
0.0
 40
5.0
  1
!GENTITLE-INSERT
100
AcDbText
  0
ENDBLK
  5
2348
330
2338
100
AcDbEntity
  8
0
100
AcDbBlockEnd
  0
BLOCK
  5
26C2
330
26BB
100
AcDbEntity
  8
0
100
AcDbBlockBegin
  2
A$C5E5C0B32
 70
     0
 10
0.0
 20
0.0
 30
0.0
  3
A$C5E5C0B32
  1

  0
LINE
  5
26BC
330
26BB
100
AcDbEntity
  8
AM_0
100
AcDbLine
 10
-22.0
 20
0.0
 30
0.0
 11
-22.0
 21
1.399999999999977
 31
0.0
  0
TEXT
  5
26BD
330
26BB
100
AcDbEntity
  8
AM_0
100
AcDbText
 10
-13.09049871388294
 20
0.2907587704690684
 30
0.0
 40
0.6000000000000001
  1
23　ｇ
100
AcDbText
  0
LINE
  5
26BE
330
26BB
100
AcDbEntity
  8
AM_0
100
AcDbLine
 10
-16.0
 20
0.0
 30
0.0
 11
-16.0
 21
1.399999999999977
 31
0.0
  0
TEXT
  5
26BF
330
26BB
100
AcDbEntity
  8
AM_0
100
AcDbText
 10
-20.58781833897677
 20
0.2907587704690684
 30
0.0
 40
0.6000000000000001
  1
製品重量
100
AcDbText
  0
LINE
  5
26C0
330
26BB
100
AcDbEntity
  8
AM_0
100
AcDbLine
 10
-22.0
 20
1.399999999999977
 30
0.0
 11
0.0
 21
1.399999999999977
 31
0.0
1001
GENIUS_GENREC_14
1002
{
1000
PYDIR
1011
-220.5503776517968
1021
-69.45820015589473
1031
0.0
1002
}
1002
{
1000
PXDIR
1011
-176.5503776517967
1021
-85.4582001558947
1031
0.0
1002
}
1002
{
1000
PORI
1011
-220.5503776517968
1021
-85.4582001558947
1031
0.0
1002
}
1002
{
1000
PINS
1011
-220.5503776517968
1021
-85.4582001558947
1031
0.0
1002
}
1002
{
1000
HVAL
1000
40
1002
}
1002
{
1000
H
1070
     2
1002
}
1002
{
1000
WVAL
1000
110
1002
}
1002
{
1000
W
1070
     2
1002
}
1002
{
1000
C
1070
     1
1002
}
1001
GENIUS_GENODEF_13
1002
{
1000
HIER
1070
     0
1002
}
1002
{
1000
MANEDIT
1070
     0
1002
}
1002
{
1000
NOSEL
1070
     0
1002
}
1002
{
1000
BEHIND
1070
     0
1002
}
1002
{
1000
REACTOR
1002
}
1001
GENIUS_GENOBJ-N-REC_13
1002
{
1000
OWNER
1000
GEN
1002
}
  0
ENDBLK
  5
26C3
330
26BB
100
AcDbEntity
  8
0
100
AcDbBlockEnd
  0
BLOCK
  5
3087
330
3086
100
AcDbEntity
  8
0
100
AcDbBlockBegin
  2
_None
 70
     0
 10
0.0
 20
0.0
 30
0.0
  3
_None
  1

  0
ENDBLK
  5
3088
330
3086
100
AcDbEntity
  8
0
100
AcDbBlockEnd
  0
BLOCK
  5
35BC
330
35BB
100
AcDbEntity
  8
0
100
AcDbBlockBegin
  2
xa
 70
     0
 10
0.0
 20
0.0
 30
0.0
  3
xa
  1

  0
TEXT
  5
35BD
330
35BB
100
AcDbEntity
  8
6
100
AcDbText
 10
30.45382563429928
 20
23.38268240496586
 30
0.0
 40
2.5
  1
%%p0.05
100
AcDbText
  0
TEXT
  5
35BE
330
35BB
100
AcDbEntity
  8
6
100
AcDbText
 10
30.45382563429928
 20
16.38268240496586
 30
0.0
 40
2.5
  1
%%p0.1
100
AcDbText
  0
TEXT
  5
35BF
330
35BB
100
AcDbEntity
  8
6
100
AcDbText
 10
30.45382563429928
 20
9.382682404965862
 30
0.0
 40
2.5
  1
%%p0.2
100
AcDbText
  0
TEXT
  5
35C0
330
35BB
100
AcDbEntity
  8
6
100
AcDbText
 10
30.45382563429928
 20
2.382682404965862
 30
0.0
 40
2.5
  1
-
100
AcDbText
  0
TEXT
  5
35C1
330
35BB
100
AcDbEntity
  8
6
100
AcDbText
 10
39.68628109774988
 20
2.382682404965862
 30
0.0
 40
2.5
  1
%%p0.5
100
AcDbText
  0
TEXT
  5
35C2
330
35BB
100
AcDbEntity
  8
6
100
AcDbText
 10
39.68628109774988
 20
9.382682404965862
 30
0.0
 40
2.5
  1
%%p0.3
100
AcDbText
  0
TEXT
  5
35C3
330
35BB
100
AcDbEntity
  8
6
100
AcDbText
 10
39.68628109774988
 20
16.38268240496586
 30
0.0
 40
2.5
  1
%%p0.1
100
AcDbText
  0
TEXT
  5
35C4
330
35BB
100
AcDbEntity
  8
6
100
AcDbText
 10
39.68628109774988
 20
23.38268240496586
 30
0.0
 40
2.5
  1
%%p0.05
100
AcDbText
  0
TEXT
  5
35C5
330
35BB
100
AcDbEntity
  8
6
100
AcDbText
 10
48.91873656120049
 20
23.38268240496586
 30
0.0
 40
2.5
  1
%%p0.1
100
AcDbText
  0
TEXT
  5
35C6
330
35BB
100
AcDbEntity
  8
6
100
AcDbText
 10
48.91873656120049
 20
16.38268240496586
 30
0.0
 40
2.5
  1
%%p0.2
100
AcDbText
  0
TEXT
  5
35C7
330
35BB
100
AcDbEntity
  8
6
100
AcDbText
 10
48.91873656120049
 20
9.382682404965862
 30
0.0
 40
2.5
  1
%%p0.5
100
AcDbText
  0
TEXT
  5
35C8
330
35BB
100
AcDbEntity
  8
6
100
AcDbText
 10
50.52991123474209
 20
2.382682404965862
 30
0.0
 40
2.5
  1
%%p1
100
AcDbText
  0
TEXT
  5
35C9
330
35BB
100
AcDbEntity
  8
6
100
AcDbText
 10
58.15119202465109
 20
23.38268240496586
 30
0.0
 40
2.5
  1
%%p0.15
100
AcDbText
  0
TEXT
  5
35CA
330
35BB
100
AcDbEntity
  8
6
100
AcDbText
 10
58.15119202465109
 20
16.38268240496586
 30
0.0
 40
2.5
  1
%%p0.3
100
AcDbText
  0
TEXT
  5
35CB
330
35BB
100
AcDbEntity
  8
6
100
AcDbText
 10
58.15119202465109
 20
9.382682404965862
 30
0.0
 40
2.5
  1
%%p0.8
100
AcDbText
  0
TEXT
  5
35CC
330
35BB
100
AcDbEntity
  8
6
100
AcDbText
 10
58.15119202465109
 20
2.382682404965862
 30
0.0
 40
2.5
  1
%%p1.5
100
AcDbText
  0
TEXT
  5
35CD
330
35BB
100
AcDbEntity
  8
6
100
AcDbText
 10
67.3836474881017
 20
23.38268240496586
 30
0.0
 40
2.5
  1
%%p0.2
100
AcDbText
  0
TEXT
  5
35CE
330
35BB
100
AcDbEntity
  8
6
100
AcDbText
 10
67.3836474881017
 20
16.38268240496586
 30
0.0
 40
2.5
  1
%%p0.5
100
AcDbText
  0
TEXT
  5
35CF
330
35BB
100
AcDbEntity
  8
6
100
AcDbText
 10
67.3836474881017
 20
9.382682404965862
 30
0.0
 40
2.5
  1
%%p1.2
100
AcDbText
  0
TEXT
  5
35D0
330
35BB
100
AcDbEntity
  8
6
100
AcDbText
 10
67.3836474881017
 20
2.382682404965862
 30
0.0
 40
2.5
  1
%%p2.5
100
AcDbText
  0
TEXT
  5
35D1
330
35BB
100
AcDbEntity
  8
6
100
AcDbText
 10
76.61610295155231
 20
23.38268240496586
 30
0.0
 40
2.5
  1
%%p0.3
100
AcDbText
  0
TEXT
  5
35D2
330
35BB
100
AcDbEntity
  8
6
100
AcDbText
 10
76.61610295155231
 20
16.38268240496586
 30
0.0
 40
2.5
  1
%%p0.8
100
AcDbText
  0
TEXT
  5
35D3
330
35BB
100
AcDbEntity
  8
6
100
AcDbText
 10
78.20428395607246
 20
9.382682404965862
 30
0.0
 40
2.5
  1
%%p2
100
AcDbText
  0
TEXT
  5
35D4
330
35BB
100
AcDbEntity
  8
6
100
AcDbText
 10
78.20428395607246
 20
2.382682404965862
 30
0.0
 40
2.5
  1
%%p4
100
AcDbText
  0
TEXT
  5
35D5
330
35BB
100
AcDbEntity
  8
6
100
AcDbText
 10
85.8485584150029
 20
23.38268240496586
 30
0.0
 40
2.5
  1
%%p0.5
100
AcDbText
  0
TEXT
  5
35D6
330
35BB
100
AcDbEntity
  8
6
100
AcDbText
 10
85.8485584150029
 20
16.38268240496586
 30
0.0
 40
2.5
  1
%%p1.2
100
AcDbText
  0
TEXT
  5
35D7
330
35BB
100
AcDbEntity
  8
6
100
AcDbText
 10
87.43673941952307
 20
9.382682404965862
 30
0.0
 40
2.5
  1
%%p3
100
AcDbText
  0
TEXT
  5
35D8
330
35BB
100
AcDbEntity
  8
6
100
AcDbText
 10
87.43673941952307
 20
2.382682404965862
 30
0.0
 40
2.5
  1
%%p6
100
AcDbText
  0
TEXT
  5
35D9
330
35BB
100
AcDbEntity
  8
6
100
AcDbText
 10
95.08101387845352
 20
23.38268240496586
 30
0.0
 40
2.5
  1
-
100
AcDbText
  0
TEXT
  5
35DA
330
35BB
100
AcDbEntity
  8
6
100
AcDbText
 10
96.35026793987959
 20
16.38268240496586
 30
0.0
 40
2.5
  1
%%p2
 72
     1
 11
98.17534175877723
 21
16.38268240496586
 31
0.0
100
AcDbText
  0
TEXT
  5
35DB
330
35BB
100
AcDbEntity
  8
6
100
AcDbText
 10
96.26952408723543
 20
9.382682404965862
 30
0.0
 40
2.5
  1
%%p4
100
AcDbText
  0
TEXT
  5
35DC
330
35BB
100
AcDbEntity
  8
6
100
AcDbText
 10
96.26952447566679
 20
2.382682404965862
 30
0.0
 40
2.5
  1
%%p8
100
AcDbText
  0
TEXT
  5
35DD
330
35BB
100
AcDbEntity
  8
6
100
AcDbText
 10
99.07338055410997
 20
30.0865921836928
 30
0.0
 40
2.5
  1
4000
 41
0.5503238583930545
 72
     5
 11
102.8579403952441
 21
30.0865921836928
 31
0.0
100
AcDbText
  0
TEXT
  5
35DE
330
35BB
100
AcDbEntity
  8
6
100
AcDbText
 10
89.76789350313215
 20
30.0865921836928
 30
0.0
 40
2.5
  1
2000
 41
0.5841456935801656
 72
     5
 11
93.63900861619834
 21
30.0865921836928
 31
0.0
100
AcDbText
  0
TEXT
  5
35DF
330
35BB
100
AcDbEntity
  8
6
100
AcDbText
 10
80.46240645215432
 20
30.0865921836928
 30
0.0
 40
2.5
  1
1000
 41
0.6663738702293199
 72
     5
 11
84.54525816689596
 21
30.0865921836928
 31
0.0
100
AcDbText
  0
TEXT
  5
35E0
330
35BB
100
AcDbEntity
  8
6
100
AcDbText
 10
71.8839107267259
 20
30.0865921836928
 30
0.0
 40
2.5
  1
400
 41
0.6576629382351293
 72
     5
 11
75.25572789726408
 21
30.0865921836928
 31
0.0
100
AcDbText
  0
TEXT
  5
35E1
330
35BB
100
AcDbEntity
  8
6
100
AcDbText
 10
62.28762699813945
 20
30.0865921836928
 30
0.0
 40
2.5
  1
120
 41
0.8297994764494733
 72
     5
 11
65.9196331711422
 21
30.0865921836928
 31
0.0
100
AcDbText
  0
TEXT
  5
35E2
330
35BB
100
AcDbEntity
  8
6
100
AcDbText
 10
53.41833496357452
 20
30.0865921836928
 30
0.0
 40
2.5
  1
30
 41
1.012227490446649
 72
     5
 11
56.58353844502039
 21
30.0865921836928
 31
0.0
100
AcDbText
  0
TEXT
  5
35E3
330
35BB
100
AcDbEntity
  8
6
100
AcDbText
 10
45.56683019522347
 20
30.0865921836928
 30
0.0
 40
2.5
  1
6
 41
1.116072624906159
 72
     5
 11
47.23984063590465
 21
30.0865921836928
 31
0.0
100
AcDbText
  0
TEXT
  5
35E4
330
35BB
100
AcDbEntity
  8
6
100
AcDbText
 10
36.32085985715014
 20
30.0865921836928
 30
0.0
 40
2.5
  1
3
 41
1.140628934662825
 72
     5
 11
38.00734063590466
 21
30.0865921836928
 31
0.0
100
AcDbText
  0
TEXT
  5
35E5
330
35BB
100
AcDbEntity
  8
6
100
AcDbText
 10
45.42143185641918
 20
33.5618183371214
 30
0.0
 40
2.5
  1
3
 41
1.229826568661444
 72
     5
 11
47.23979609935526
 21
33.5618183371214
 31
0.0
100
AcDbText
  0
TEXT
  5
35E6
330
35BB
100
AcDbEntity
  8
6
100
AcDbText
 10
54.43612259826045
 20
33.5618183371214
 30
0.0
 40
2.5
  1
6
 41
1.106388110443637
 72
     5
 11
56.09461579925028
 21
33.5618183371214
 31
0.0
100
AcDbText
  0
TEXT
  5
35E7
330
35BB
100
AcDbEntity
  8
6
100
AcDbText
 10
63.01461832368886
 20
33.5618183371214
 30
0.0
 40
2.5
  1
30
 41
0.9290195420247393
 72
     5
 11
65.9196331711422
 21
33.5618183371214
 31
0.0
100
AcDbText
  0
TEXT
  5
35E8
330
35BB
100
AcDbEntity
  8
6
100
AcDbText
 10
71.8839107267259
 20
33.5618183371214
 30
0.0
 40
2.5
  1
120
 41
0.7703544513754867
 72
     5
 11
75.25572789726408
 21
33.5618183371214
 31
0.0
100
AcDbText
  0
TEXT
  5
35E9
330
35BB
100
AcDbEntity
  8
6
100
AcDbText
 10
80.75320276129081
 20
33.5618183371214
 30
0.0
 40
2.5
  1
400
 41
0.7350880299861657
 72
     5
 11
84.52197593865099
 21
33.5618183371214
 31
0.0
100
AcDbText
  0
TEXT
  5
35EA
330
35BB
100
AcDbEntity
  8
6
100
AcDbText
 10
89.76789350313215
 20
33.5618183371214
 30
0.0
 40
2.5
  1
1000
 41
0.6318157357229324
 72
     5
 11
93.63900861619834
 21
33.5618183371214
 31
0.0
100
AcDbText
  0
TEXT
  5
35EB
330
35BB
100
AcDbEntity
  8
6
100
AcDbText
 10
98.92798221530563
 20
33.5618183371214
 30
0.0
 40
2.5
  1
2000
 41
0.584937048861886
 72
     5
 11
102.8043416148992
 21
33.5618183371214
 31
0.0
100
AcDbText
  0
TEXT
  5
35EC
330
35BB
100
AcDbEntity
  8
6
100
AcDbText
 10
35.67975015750051
 20
33.56181833712322
 30
0.0
 40
2.5
  1
0.5
 41
0.5851127296053911
 72
     5
 11
38.00765239175132
 21
33.56181833712322
 31
0.0
100
AcDbText
  0
POLYLINE
  5
35ED
330
35BB
100
AcDbEntity
  8
1
100
AcDb2dPolyline
 66
     1
 10
0.0
 20
0.0
 30
0.0
 70
     1
1001
GENIUS_GENODEF_13
1002
{
1000
HIER
1070
     0
1002
}
1002
{
1000
MANEDIT
1070
     0
1002
}
1002
{
1000
NOSEL
1070
     0
1002
}
1002
{
1000
REACTOR
1002
}
1001
GENIUS_GENOBJ-N-REC_13
1002
{
1000
OWNER
1000
GEN
1002
}
  0
VERTEX
  5
35EE
330
35ED
100
AcDbEntity
  8
1
100
AcDbVertex
100
AcDb2dVertex
 10
0.0
 20
0.0
 30
0.0
  0
VERTEX
  5
35EF
330
35ED
100
AcDbEntity
  8
1
100
AcDbVertex
100
AcDb2dVertex
 10
103.3342688601432
 20
0.0
 30
0.0
  0
VERTEX
  5
35F0
330
35ED
100
AcDbEntity
  8
1
100
AcDbVertex
100
AcDb2dVertex
 10
103.3342688601432
 20
47.73170508210059
 30
0.0
  0
VERTEX
  5
35F1
330
35ED
100
AcDbEntity
  8
1
100
AcDbVertex
100
AcDb2dVertex
 10
0.0
 20
47.73170508210059
 30
0.0
  0
SEQEND
  5
35F2
330
35ED
100
AcDbEntity
  8
1
  0
LINE
  5
35F3
330
35BB
100
AcDbEntity
  8
6
100
AcDbLine
 10
103.3342688601432
 20
7.000000000001591
 30
0.0
 11
-0.0000000000027285
 21
7.000000000000909
 31
0.0
  0
LINE
  5
35F4
330
35BB
100
AcDbEntity
  8
6
100
AcDbLine
 10
103.3342688601432
 20
14.00000000000727
 30
0.0
 11
0.0
 21
14.00000000000727
 31
0.0
  0
LINE
  5
35F5
330
35BB
100
AcDbEntity
  8
6
100
AcDbLine
 10
103.3342688601414
 20
20.99999999998704
 30
0.0
 11
-0.0000000000027285
 21
20.99999999998454
 31
0.0
  0
LINE
  5
35F6
330
35BB
100
AcDbEntity
  8
6
100
AcDbLine
 10
103.3342688601414
 20
27.99999999998704
 30
0.0
 11
0.0
 21
27.99999999998703
 31
0.0
  0
LINE
  5
35F7
330
35BB
100
AcDbEntity
  8
6
100
AcDbLine
 10
94.10181339668985
 20
0.0
 30
0.0
 11
94.10181339669078
 21
36.80309506859581
 31
0.0
  0
LINE
  5
35F8
330
35BB
100
AcDbEntity
  8
6
100
AcDbLine
 10
75.63690246978865
 20
-0.0000000000009095
 30
0.0
 11
75.63690246978956
 21
36.8030950685949
 31
0.0
  0
LINE
  5
35F9
330
35BB
100
AcDbEntity
  8
6
100
AcDbLine
 10
84.86935793323926
 20
-0.0000000000009095
 30
0.0
 11
84.86935793324017
 21
36.8030950685949
 31
0.0
  0
LINE
  5
35FA
330
35BB
100
AcDbEntity
  8
6
100
AcDbLine
 10
66.40444700633714
 20
0.0000000000015916
 30
0.0
 11
66.40444700633804
 21
36.8030950685974
 31
0.0
  0
LINE
  5
35FB
330
35BB
100
AcDbEntity
  8
6
100
AcDbLine
 10
57.17199154288744
 20
-0.0000000000009095
 30
0.0
 11
57.17199154288834
 21
36.8030950685949
 31
0.0
  0
LINE
  5
35FC
330
35BB
100
AcDbEntity
  8
6
100
AcDbLine
 10
47.93953607943683
 20
-0.0000000000009095
 30
0.0
 11
47.93953607943774
 21
36.8030950685949
 31
0.0
  0
LINE
  5
35FD
330
35BB
100
AcDbEntity
  8
6
100
AcDbLine
 10
38.70708061598714
 20
0.0000000000015916
 30
0.0
 11
38.70708061598794
 21
36.80309506859582
 31
0.0
  0
LINE
  5
35FE
330
35BB
100
AcDbEntity
  8
1
100
AcDbLine
 10
29.47462515253653
 20
0.0000000000015916
 30
0.0
 11
29.47462515253744
 21
41.49466141970362
 31
0.0
  0
TEXT
  5
35FF
330
35BB
100
AcDbEntity
  8
6
100
AcDbText
 10
52.17111367300471
 20
37.10227531691695
 30
0.0
 40
3.5
  1
基準寸法の区分
 72
     4
 11
66.40444700633804
 21
38.85227531691695
 31
0.0
100
AcDbText
1001
GENIUS_GENTRA_14
1002
{
1070
     1
1000
GENTRATX{17},%s,(GENMSG gendwg 192)
1000
基準寸法の区分
1000
JPN
1070
     0
1040
1.0
1070
     0
1002
}
  0
TEXT
  5
3600
330
35BB
100
AcDbEntity
  8
6
100
AcDbText
 10
6.803979242935393
 20
37.10227531691567
 30
0.0
 40
3.5
  1
公差等級
 72
     4
 11
14.73731257626872
 21
38.85227531691567
 31
0.0
100
AcDbText
1001
GENIUS_GENTRA_14
1002
{
1070
     1
1000
GENTRATX{6},%s,(GENMSG gendwg 191)
1000
公差等級
1000
JPN
1070
     0
1040
1.0
1070
     0
1002
}
  0
TEXT
  5
3601
330
35BB
100
AcDbEntity
  8
6
100
AcDbText
 10
3.413197429831838
 20
30.0865921836928
 30
0.0
 40
2.5
  1
指示
 72
     1
 11
6.109626001260409
 21
30.0865921836928
 31
0.0
100
AcDbText
1001
GENIUS_GENTRA_14
1002
{
1070
     1
1000
GENTRATX{4},%s,(GENMSG gendwg 193)
1000
指示
1000
JPN
1070
     0
1040
1.0
1070
     0
1002
}
  0
TEXT
  5
3602
330
35BB
100
AcDbEntity
  8
6
100
AcDbText
 10
18.57316694630284
 20
23.0865921836928
 30
0.0
 40
2.5
  1
精級
 72
     1
 11
21.2398336129695
 21
23.0865921836928
 31
0.0
100
AcDbText
 73
     1
1001
GENIUS_GENTRA_14
1002
{
1070
     1
1000
GENTRATX{6},%s,(GENMSG gendwg 197)
1000
精級
1000
JPN
1070
     0
1040
1.0
1070
     0
1002
}
  0
TEXT
  5
3603
330
35BB
100
AcDbEntity
  8
6
100
AcDbText
 10
18.4898336129695
 20
16.0865921836928
 30
0.0
 40
2.5
  1
中級
 72
     1
 11
21.2398336129695
 21
16.0865921836928
 31
0.0
100
AcDbText
 73
     1
1001
GENIUS_GENTRA_14
1002
{
1070
     1
1000
GENTRATX{6},%s,(GENMSG gendwg 198)
1000
中級
1000
JPN
1070
     0
1040
1.0
1070
     0
1002
}
  0
TEXT
  5
3604
330
35BB
100
AcDbEntity
  8
6
100
AcDbText
 10
18.57316694630284
 20
9.0865921836928
 30
0.0
 40
2.5
  1
粗級
 72
     1
 11
21.2398336129695
 21
9.0865921836928
 31
0.0
100
AcDbText
 73
     1
1001
GENIUS_GENTRA_14
1002
{
1070
     1
1000
GENTRATX{6},%s,(GENMSG gendwg 199)
1000
粗級
1000
JPN
1070
     0
1040
1.0
1070
     0
1002
}
  0
TEXT
  5
3605
330
35BB
100
AcDbEntity
  8
6
100
AcDbText
 10
5.588510639838602
 20
2.0865921836928
 30
0.0
 40
2.5
  1
v
 72
     1
 11
6.463510639838602
 21
2.0865921836928
 31
0.0
100
AcDbText
 73
     1
  0
TEXT
  5
3606
330
35BB
100
AcDbEntity
  8
6
100
AcDbText
 10
12.23380109673827
 20
42.63506215891476
 30
0.0
 40
3.5
  1
面取り部分を除く長さ寸法に対する許容差
 72
     4
 11
51.6671344300716
 21
44.38506215891476
 31
0.0
100
AcDbText
1001
GENIUS_GENTRA_14
1002
{
1070
     1
1000
GENTRATX{25},%s,(GENMSG gendwg 190)
1000
面取り部分を除く長さ寸法に対する許容差
1000
JPN
1070
     0
1040
1.0
1070
     0
1002
}
  0
LINE
  5
3607
330
35BB
100
AcDbEntity
  8
1
100
AcDbLine
 10
103.3342688601432
 20
36.80309506859582
 30
0.0
 11
0.0
 21
36.80309506859582
 31
0.0
  0
LINE
  5
3608
330
35BB
100
AcDbEntity
  8
6
100
AcDbLine
 10
12.21925200251991
 20
0.0000000000015916
 30
0.0
 11
12.21925200252082
 21
36.80309506859582
 31
0.0
  0
TEXT
  5
3609
330
35BB
100
AcDbEntity
  8
6
100
AcDbText
 10
17.07316694630284
 20
1.504624970851921
 30
0.0
 40
2.5
  1
極粗級
 72
     1
 11
21.23983361296951
 21
1.504624970851921
 31
0.0
100
AcDbText
 73
     1
1001
GENIUS_GENTRA_14
1002
{
1070
     1
1000
GENTRATX{6},%s,(GENMSG gendwg 200)
1000
極粗級
1000
JPN
1070
     0
1040
1.0
1070
     0
1002
}
  0
TEXT
  5
360A
330
35BB
100
AcDbEntity
  8
6
100
AcDbText
 10
5.75881524822316
 20
9.0865921836928
 30
0.0
 40
2.5
  1
c
 72
     1
 11
6.463510639838602
 21
9.0865921836928
 31
0.0
100
AcDbText
 73
     1
  0
TEXT
  5
360B
330
35BB
100
AcDbEntity
  8
6
100
AcDbText
 10
5.293206031454045
 20
16.0865921836928
 30
0.0
 40
2.5
  1
m
 72
     1
 11
6.463510639838602
 21
16.0865921836928
 31
0.0
100
AcDbText
 73
     1
  0
TEXT
  5
360C
330
35BB
100
AcDbEntity
  8
6
100
AcDbText
 10
5.713510639838602
 20
23.0865921836928
 30
0.0
 40
2.5
  1
f
 72
     1
 11
6.463510639838602
 21
23.0865921836928
 31
0.0
100
AcDbText
 73
     1
  0
TEXT
  5
360D
330
35BB
100
AcDbEntity
  8
6
100
AcDbText
 10
18.26360524419575
 20
30.0865921836928
 30
0.0
 40
2.5
  1
説明
 72
     1
 11
20.84693857752908
 21
30.0865921836928
 31
0.0
100
AcDbText
1001
GENIUS_GENTRA_14
1002
{
1070
     1
1000
GENTRATX{6},%s,(GENMSG gendwg 194)
1000
説明
1000
JPN
1070
     0
1040
1.0
1070
     0
1002
}
  0
TEXT
  5
360E
330
35BB
100
AcDbEntity
  8
6
100
AcDbText
 10
29.70333093331518
 20
33.56181833712139
 30
0.0
 40
2.5
  1
以上
 41
0.703125
100
AcDbText
1001
GENIUS_GENTRA_14
1002
{
1070
     1
1000
GENTRATX{1.5},%s,(GENMSG gendwg 195)
1000
以上
1000
JPN
1070
     0
1040
1.0
1070
     0
1002
}
  0
TEXT
  5
360F
330
35BB
100
AcDbEntity
  8
6
100
AcDbText
 10
29.70333093331518
 20
30.0865921836928
 30
0.0
 40
2.5
  1
以下
 41
0.703125
100
AcDbText
1001
GENIUS_GENTRA_14
1002
{
1070
     1
1000
GENTRATX{1.5},%s,(GENMSG gendwg 196)
1000
以下
1000
JPN
1070
     0
1040
1.0
1070
     0
1002
}
  0
LINE
  5
3610
330
35BB
100
AcDbEntity
  8
1
100
AcDbLine
 10
0.0
 20
41.49466141970361
 30
0.0
 11
103.3342688601432
 21
41.49466141970362
 31
0.0
  0
TEXT
  5
3611
330
35BB
100
AcDbEntity
  8
6
100
AcDbText
 10
38.93578639676578
 20
33.56181833712139
 30
0.0
 40
2.5
  1
以上
 41
0.703125
100
AcDbText
1001
GENIUS_GENTRA_14
1002
{
1070
     1
1000
GENTRATX{1.5},%s,(GENMSG gendwg 195)
1000
以上
1000
JPN
1070
     0
1040
1.0
1070
     0
1002
}
  0
TEXT
  5
3612
330
35BB
100
AcDbEntity
  8
6
100
AcDbText
 10
38.93578639676578
 20
30.0865921836928
 30
0.0
 40
2.5
  1
以下
 41
0.703125
100
AcDbText
1001
GENIUS_GENTRA_14
1002
{
1070
     1
1000
GENTRATX{1.5},%s,(GENMSG gendwg 196)
1000
以下
1000
JPN
1070
     0
1040
1.0
1070
     0
1002
}
  0
TEXT
  5
3613
330
35BB
100
AcDbEntity
  8
6
100
AcDbText
 10
48.16824186021555
 20
33.5618183371214
 30
0.0
 40
2.5
  1
以上
 41
0.703125
100
AcDbText
1001
GENIUS_GENTRA_14
1002
{
1070
     1
1000
GENTRATX{1.5},%s,(GENMSG gendwg 195)
1000
以上
1000
JPN
1070
     0
1040
1.0
1070
     0
1002
}
  0
TEXT
  5
3614
330
35BB
100
AcDbEntity
  8
6
100
AcDbText
 10
48.16824186021555
 20
30.0865921836928
 30
0.0
 40
2.5
  1
以下
 41
0.703125
100
AcDbText
1001
GENIUS_GENTRA_14
1002
{
1070
     1
1000
GENTRATX{1.5},%s,(GENMSG gendwg 196)
1000
以下
1000
JPN
1070
     0
1040
1.0
1070
     0
1002
}
  0
TEXT
  5
3615
330
35BB
100
AcDbEntity
  8
6
100
AcDbText
 10
57.40069732366618
 20
33.5618183371214
 30
0.0
 40
2.5
  1
以上
 41
0.703125
100
AcDbText
1001
GENIUS_GENTRA_14
1002
{
1070
     1
1000
GENTRATX{1.5},%s,(GENMSG gendwg 195)
1000
以上
1000
JPN
1070
     0
1040
1.0
1070
     0
1002
}
  0
TEXT
  5
3616
330
35BB
100
AcDbEntity
  8
6
100
AcDbText
 10
57.40069732366618
 20
30.0865921836928
 30
0.0
 40
2.5
  1
以下
 41
0.703125
100
AcDbText
1001
GENIUS_GENTRA_14
1002
{
1070
     1
1000
GENTRATX{1.5},%s,(GENMSG gendwg 196)
1000
以下
1000
JPN
1070
     0
1040
1.0
1070
     0
1002
}
  0
TEXT
  5
3617
330
35BB
100
AcDbEntity
  8
6
100
AcDbText
 10
66.63315278711587
 20
33.56181833712139
 30
0.0
 40
2.5
  1
以上
 41
0.703125
100
AcDbText
1001
GENIUS_GENTRA_14
1002
{
1070
     1
1000
GENTRATX{1.5},%s,(GENMSG gendwg 195)
1000
以上
1000
JPN
1070
     0
1040
1.0
1070
     0
1002
}
  0
TEXT
  5
3618
330
35BB
100
AcDbEntity
  8
6
100
AcDbText
 10
66.63315278711587
 20
30.0865921836928
 30
0.0
 40
2.5
  1
以下
 41
0.703125
100
AcDbText
1001
GENIUS_GENTRA_14
1002
{
1070
     1
1000
GENTRATX{1.5},%s,(GENMSG gendwg 196)
1000
以下
1000
JPN
1070
     0
1040
1.0
1070
     0
1002
}
  0
TEXT
  5
3619
330
35BB
100
AcDbEntity
  8
6
100
AcDbText
 10
75.86560825056739
 20
33.5618183371214
 30
0.0
 40
2.5
  1
以上
 41
0.703125
100
AcDbText
1001
GENIUS_GENTRA_14
1002
{
1070
     1
1000
GENTRATX{1.5},%s,(GENMSG gendwg 195)
1000
以上
1000
JPN
1070
     0
1040
1.0
1070
     0
1002
}
  0
TEXT
  5
361A
330
35BB
100
AcDbEntity
  8
6
100
AcDbText
 10
75.86560825056739
 20
30.0865921836928
 30
0.0
 40
2.5
  1
以下
 41
0.703125
100
AcDbText
1001
GENIUS_GENTRA_14
1002
{
1070
     1
1000
GENTRATX{1.5},%s,(GENMSG gendwg 196)
1000
以下
1000
JPN
1070
     0
1040
1.0
1070
     0
1002
}
  0
TEXT
  5
361B
330
35BB
100
AcDbEntity
  8
6
100
AcDbText
 10
85.09806371401799
 20
33.5618183371214
 30
0.0
 40
2.5
  1
以上
 41
0.703125
100
AcDbText
1001
GENIUS_GENTRA_14
1002
{
1070
     1
1000
GENTRATX{1.5},%s,(GENMSG gendwg 195)
1000
以上
1000
JPN
1070
     0
1040
1.0
1070
     0
1002
}
  0
TEXT
  5
361C
330
35BB
100
AcDbEntity
  8
6
100
AcDbText
 10
85.09806371401799
 20
30.0865921836928
 30
0.0
 40
2.5
  1
以下
 41
0.703125
100
AcDbText
1001
GENIUS_GENTRA_14
1002
{
1070
     1
1000
GENTRATX{1.5},%s,(GENMSG gendwg 196)
1000
以下
1000
JPN
1070
     0
1040
1.0
1070
     0
1002
}
  0
TEXT
  5
361D
330
35BB
100
AcDbEntity
  8
6
100
AcDbText
 10
94.3305191774686
 20
33.5618183371214
 30
0.0
 40
2.5
  1
以上
 41
0.703125
100
AcDbText
1001
GENIUS_GENTRA_14
1002
{
1070
     1
1000
GENTRATX{1.5},%s,(GENMSG gendwg 195)
1000
以上
1000
JPN
1070
     0
1040
1.0
1070
     0
1002
}
  0
TEXT
  5
361E
330
35BB
100
AcDbEntity
  8
6
100
AcDbText
 10
94.3305191774686
 20
30.0865921836928
 30
0.0
 40
2.5
  1
以下
 41
0.703125
100
AcDbText
1001
GENIUS_GENTRA_14
1002
{
1070
     1
1000
GENTRATX{1.5},%s,(GENMSG gendwg 196)
1000
以下
1000
JPN
1070
     0
1040
1.0
1070
     0
1002
}
  0
ENDBLK
  5
361F
330
35BB
100
AcDbEntity
  8
0
100
AcDbBlockEnd
  0
ENDSEC
  0
SECTION
  2
ENTITIES
  0
CIRCLE
  5
33B0
330
1F
100
AcDbEntity
  8
0
100
AcDbCircle
 10
305.0981281614947
 20
209.4322590169352
 30
0.0
 40
7.0
  0
CIRCLE
  5
33BA
330
1F
100
AcDbEntity
  8
0
100
AcDbCircle
 10
305.0981281614947
 20
209.4322590169352
 30
0.0
 40
6.703187500000069
  0
CIRCLE
  5
33BB
330
1F
100
AcDbEntity
  8
AM_4
100
AcDbCircle
 10
305.0981281614947
 20
209.4322590169352
 30
0.0
 40
5.550536656975168
  0
CIRCLE
  5
33BC
330
1F
100
AcDbEntity
  8
0
100
AcDbCircle
 10
305.0981281614947
 20
209.4322590169352
 30
0.0
 40
6.455962114180067
  0
CIRCLE
  5
33BD
330
1F
100
AcDbEntity
  8
0
100
AcDbCircle
 10
305.0981281614947
 20
209.4322590169352
 30
0.0
 40
5.250000000000056
  0
CIRCLE
  5
33BE
330
1F
100
AcDbEntity
  8
0
100
AcDbCircle
 10
305.0981281614947
 20
209.4322590169352
 30
0.0
 40
5.0
  0
LINE
  5
3B2B
330
1F
100
AcDbEntity
  8
AM_0
100
AcDbLine
 10
278.1602927770523
 20
202.4322590169352
 30
0.0
 11
271.1602927770523
 21
202.4322590169352
 31
0.0
  0
LINE
  5
3B2C
330
1F
100
AcDbEntity
  8
AM_0
100
AcDbLine
 10
271.1602927770523
 20
202.4322590169352
 30
0.0
 11
271.1602927770523
 21
209.4322590169352
 31
0.0
  0
LINE
  5
3B32
330
1F
100
AcDbEntity
  8
0
100
AcDbLine
 10
261.1602927770523
 20
209.4322590169352
 30
0.0
 11
261.1602927770523
 21
204.1822590169352
 31
0.0
  0
LINE
  5
3B33
330
1F
100
AcDbEntity
  8
AM_0
100
AcDbLine
 10
261.1602927770523
 20
204.1822590169352
 30
0.0
 11
263.2490804308153
 21
202.9762969027552
 31
0.0
  0
LINE
  5
3B34
330
1F
100
AcDbEntity
  8
AM_4
100
AcDbLine
 10
261.6808375364702
 20
203.88172235996
 30
0.0
 11
269.5920498827073
 21
203.6344969741401
 31
0.0
  0
LINE
  5
3B35
330
1F
100
AcDbEntity
  8
AM_0
100
AcDbLine
 10
263.2490804308153
 20
202.9762969027552
 30
0.0
 11
271.1602927770523
 21
202.7290715169353
 31
0.0
  0
LINE
  5
3B37
330
1F
100
AcDbEntity
  8
AM_4
100
AcDbLine
 10
271.1602927770523
 20
202.7290715169353
 30
0.0
 11
269.5920498827072
 21
203.6344969741401
 31
0.0
  0
LINE
  5
3B38
330
1F
100
AcDbEntity
  8
AM_0
100
AcDbLine
 10
263.2490804308153
 20
202.9762969027552
 30
0.0
 11
263.2490804308153
 21
209.4322590169352
 31
0.0
  0
LINE
  5
3B39
330
1F
100
AcDbEntity
  8
AM_0
100
AcDbLine
 10
269.5920498827073
 20
202.7780791073835
 30
0.0
 11
269.5920498827073
 21
209.4322590169352
 31
0.0
  0
LINE
  5
3B3E
330
1F
100
AcDbEntity
  8
AM_4
100
AcDbLine
 10
287.6397480176344
 20
203.88172235996
 30
0.0
 11
279.7285356713973
 21
203.6344969741401
 31
0.0
  0
LINE
  5
3B3F
330
1F
100
AcDbEntity
  8
AM_0
100
AcDbLine
 10
286.0715051232893
 20
202.9762969027552
 30
0.0
 11
278.1602927770523
 21
202.7290715169353
 31
0.0
  0
LINE
  5
3B40
330
1F
100
AcDbEntity
  8
AM_0
100
AcDbLine
 10
286.0715051232893
 20
202.9762969027552
 30
0.0
 11
286.0715051232893
 21
209.4322590169352
 31
0.0
  0
LINE
  5
3B41
330
1F
100
AcDbEntity
  8
0
100
AcDbLine
 10
288.1602927770523
 20
209.4322590169352
 30
0.0
 11
288.1602927770523
 21
204.1822590169352
 31
0.0
  0
LINE
  5
3B42
330
1F
100
AcDbEntity
  8
AM_0
100
AcDbLine
 10
288.1602927770523
 20
204.1822590169352
 30
0.0
 11
286.0715051232893
 21
202.9762969027552
 31
0.0
  0
LINE
  5
3B43
330
1F
100
AcDbEntity
  8
AM_0
100
AcDbLine
 10
279.7285356713973
 20
202.7780791073835
 30
0.0
 11
279.7285356713973
 21
209.4322590169352
 31
0.0
  0
LINE
  5
3B44
330
1F
100
AcDbEntity
  8
AM_4
100
AcDbLine
 10
278.1602927770523
 20
202.7290715169353
 30
0.0
 11
279.7285356713974
 21
203.6344969741401
 31
0.0
  0
LINE
  5
3B4B
330
1F
100
AcDbEntity
  8
AM_7
100
AcDbLine
 10
259.6602927770523
 20
209.4322590169352
 30
0.0
 11
289.6602927770523
 21
209.4322590169352
 31
0.0
1001
GENIUS_GENODEF_13
1002
{
1000
HIER
1070
     0
1002
}
1002
{
1000
MANEDIT
1070
     0
1002
}
1002
{
1000
NOSEL
1070
     0
1002
}
1002
{
1000
BEHIND
1070
     0
1002
}
1002
{
1000
REACTOR
1002
}
1001
GENIUS_GENOBJ-N-CEN_13
1002
{
1000
OWNER
1000
GEN
1002
}
  0
LINE
  5
3B51
330
1F
100
AcDbEntity
  8
AM_0
100
AcDbLine
 10
278.1602927770523
 20
209.4322590169352
 30
0.0
 11
278.1602927770523
 21
202.4322590169352
 31
0.0
  0
LINE
  5
3B9C
330
1F
100
AcDbEntity
  8
AM_7
100
AcDbLine
 10
313.4951281614947
 20
209.4322590169352
 30
0.0
 11
296.7011281614948
 21
209.4322590169352
 31
0.0
1001
GENIUS_GENOBJ-N-CEN_13
1002
{
1000
OWNER
1000
GEN
1002
}
1001
GENIUS_GENODEF_13
1002
{
1000
HIER
1070
     0
1002
}
1002
{
1000
MANEDIT
1070
     0
1002
}
1002
{
1000
NOSEL
1070
     0
1002
}
1002
{
1000
BEHIND
1070
     0
1002
}
1002
{
1000
OTHER
1070
     0
1002
}
1002
{
1000
REACTOR
1002
}
1001
GENIUS_GENCEN_19
1002
{
1040
1.397
1002
}
  0
LINE
  5
3B9D
330
1F
100
AcDbEntity
  8
AM_7
100
AcDbLine
 10
305.0981281614947
 20
217.8292590169352
 30
0.0
 11
305.0981281614947
 21
201.0352590169353
 31
0.0
1001
GENIUS_GENODEF_13
1002
{
1000
HIER
1070
     0
1002
}
1002
{
1000
MANEDIT
1070
     0
1002
}
1002
{
1000
NOSEL
1070
     0
1002
}
1002
{
1000
BEHIND
1070
     0
1002
}
1002
{
1000
OTHER
1070
     0
1002
}
1002
{
1000
REACTOR
1002
}
1001
GENIUS_GENOBJ-N-CEN_13
1002
{
1000
OWNER
1000
GEN
1002
}
1001
GENIUS_GENCEN_19
1002
{
1040
1.397
1002
}
  0
CIRCLE
  5
3C87
330
1F
100
AcDbEntity
  8
0
100
AcDbCircle
 10
305.0981281614947
 20
209.4322590169352
 30
0.0
 40
4.5
  0
LINE
  5
3C88
330
1F
100
AcDbEntity
  8
AM_0
100
AcDbLine
 10
278.1602927770523
 20
227.7400853942708
 30
0.0
 11
271.1602927770523
 21
227.7400853942708
 31
0.0
  0
LINE
  5
3C89
330
1F
100
AcDbEntity
  8
AM_0
100
AcDbLine
 10
271.1602927770523
 20
227.7400853942708
 30
0.0
 11
271.1602927770523
 21
234.7400853942708
 31
0.0
  0
LINE
  5
3C8A
330
1F
100
AcDbEntity
  8
0
100
AcDbLine
 10
261.1602927770523
 20
234.7400853942708
 30
0.0
 11
261.1602927770523
 21
229.4900853942708
 31
0.0
  0
LINE
  5
3C8B
330
1F
100
AcDbEntity
  8
AM_0
100
AcDbLine
 10
261.1602927770523
 20
229.4900853942708
 30
0.0
 11
263.2490804308153
 21
228.2841232800908
 31
0.0
  0
LINE
  5
3C8C
330
1F
100
AcDbEntity
  8
AM_4
100
AcDbLine
 10
261.6808375364702
 20
229.1895487372957
 30
0.0
 11
269.5920498827073
 21
228.9423233514757
 31
0.0
  0
LINE
  5
3C8D
330
1F
100
AcDbEntity
  8
AM_0
100
AcDbLine
 10
263.2490804308153
 20
228.2841232800908
 30
0.0
 11
271.1602927770523
 21
228.0368978942709
 31
0.0
  0
LINE
  5
3C8E
330
1F
100
AcDbEntity
  8
AM_4
100
AcDbLine
 10
271.1602927770523
 20
228.0368978942709
 30
0.0
 11
269.5920498827072
 21
228.9423233514757
 31
0.0
  0
LINE
  5
3C8F
330
1F
100
AcDbEntity
  8
AM_0
100
AcDbLine
 10
263.2490804308153
 20
228.2841232800908
 30
0.0
 11
263.2490804308153
 21
234.7400853942708
 31
0.0
  0
LINE
  5
3C90
330
1F
100
AcDbEntity
  8
AM_0
100
AcDbLine
 10
269.5920498827073
 20
228.0859054847191
 30
0.0
 11
269.5920498827073
 21
234.7400853942708
 31
0.0
  0
LINE
  5
3C91
330
1F
100
AcDbEntity
  8
AM_4
100
AcDbLine
 10
287.6397480176344
 20
229.1895487372957
 30
0.0
 11
279.7285356713973
 21
228.9423233514757
 31
0.0
  0
LINE
  5
3C92
330
1F
100
AcDbEntity
  8
AM_0
100
AcDbLine
 10
286.0715051232893
 20
228.2841232800908
 30
0.0
 11
278.1602927770523
 21
228.0368978942709
 31
0.0
  0
LINE
  5
3C93
330
1F
100
AcDbEntity
  8
AM_0
100
AcDbLine
 10
286.0715051232893
 20
228.2841232800908
 30
0.0
 11
286.0715051232893
 21
234.7400853942708
 31
0.0
  0
LINE
  5
3C94
330
1F
100
AcDbEntity
  8
0
100
AcDbLine
 10
288.1602927770523
 20
234.7400853942708
 30
0.0
 11
288.1602927770523
 21
229.4900853942708
 31
0.0
  0
LINE
  5
3C95
330
1F
100
AcDbEntity
  8
AM_0
100
AcDbLine
 10
288.1602927770523
 20
229.4900853942708
 30
0.0
 11
286.0715051232893
 21
228.2841232800908
 31
0.0
  0
LINE
  5
3C96
330
1F
100
AcDbEntity
  8
AM_0
100
AcDbLine
 10
279.7285356713973
 20
228.0859054847191
 30
0.0
 11
279.7285356713973
 21
234.7400853942708
 31
0.0
  0
LINE
  5
3C97
330
1F
100
AcDbEntity
  8
AM_4
100
AcDbLine
 10
278.1602927770523
 20
228.0368978942709
 30
0.0
 11
279.7285356713974
 21
228.9423233514757
 31
0.0
  0
LINE
  5
3C98
330
1F
100
AcDbEntity
  8
AM_0
100
AcDbLine
 10
278.1602927770523
 20
234.7400853942708
 30
0.0
 11
278.1602927770523
 21
227.7400853942708
 31
0.0
  0
LINE
  5
3CB6
330
1F
100
AcDbEntity
  8
AM_0
100
AcDbLine
 10
278.1602927770523
 20
241.7400853942708
 30
0.0
 11
271.1602927770523
 21
241.7400853942709
 31
0.0
  0
LINE
  5
3CB7
330
1F
100
AcDbEntity
  8
AM_0
100
AcDbLine
 10
271.1602927770523
 20
241.7400853942709
 30
0.0
 11
271.1602927770523
 21
234.7400853942709
 31
0.0
  0
LINE
  5
3CB8
330
1F
100
AcDbEntity
  8
0
100
AcDbLine
 10
261.1602927770523
 20
234.7400853942708
 30
0.0
 11
261.1602927770523
 21
239.9900853942709
 31
0.0
  0
LINE
  5
3CB9
330
1F
100
AcDbEntity
  8
AM_0
100
AcDbLine
 10
261.1602927770523
 20
239.9900853942708
 30
0.0
 11
263.2490804308153
 21
241.1960475084509
 31
0.0
  0
LINE
  5
3CBA
330
1F
100
AcDbEntity
  8
AM_4
100
AcDbLine
 10
261.6808375364702
 20
240.290622051246
 30
0.0
 11
269.5920498827073
 21
240.5378474370659
 31
0.0
  0
LINE
  5
3CBB
330
1F
100
AcDbEntity
  8
AM_0
100
AcDbLine
 10
263.2490804308153
 20
241.1960475084509
 30
0.0
 11
271.1602927770523
 21
241.4432728942708
 31
0.0
  0
LINE
  5
3CBC
330
1F
100
AcDbEntity
  8
AM_4
100
AcDbLine
 10
271.1602927770523
 20
241.4432728942708
 30
0.0
 11
269.5920498827072
 21
240.5378474370659
 31
0.0
  0
LINE
  5
3CBD
330
1F
100
AcDbEntity
  8
AM_0
100
AcDbLine
 10
263.2490804308153
 20
241.1960475084509
 30
0.0
 11
263.2490804308153
 21
234.7400853942708
 31
0.0
  0
LINE
  5
3CBE
330
1F
100
AcDbEntity
  8
AM_0
100
AcDbLine
 10
269.5920498827073
 20
241.3942653038226
 30
0.0
 11
269.5920498827073
 21
234.7400853942708
 31
0.0
  0
LINE
  5
3CBF
330
1F
100
AcDbEntity
  8
AM_4
100
AcDbLine
 10
287.6397480176344
 20
240.290622051246
 30
0.0
 11
279.7285356713973
 21
240.5378474370659
 31
0.0
  0
LINE
  5
3CC0
330
1F
100
AcDbEntity
  8
AM_0
100
AcDbLine
 10
286.0715051232893
 20
241.1960475084509
 30
0.0
 11
278.1602927770523
 21
241.4432728942708
 31
0.0
  0
LINE
  5
3CC1
330
1F
100
AcDbEntity
  8
AM_0
100
AcDbLine
 10
286.0715051232893
 20
241.1960475084509
 30
0.0
 11
286.0715051232893
 21
234.7400853942708
 31
0.0
  0
LINE
  5
3CC2
330
1F
100
AcDbEntity
  8
0
100
AcDbLine
 10
288.1602927770523
 20
234.7400853942708
 30
0.0
 11
288.1602927770523
 21
239.9900853942709
 31
0.0
  0
LINE
  5
3CC3
330
1F
100
AcDbEntity
  8
AM_0
100
AcDbLine
 10
288.1602927770523
 20
239.9900853942708
 30
0.0
 11
286.0715051232893
 21
241.1960475084509
 31
0.0
  0
LINE
  5
3CC4
330
1F
100
AcDbEntity
  8
AM_0
100
AcDbLine
 10
279.7285356713973
 20
241.3942653038226
 30
0.0
 11
279.7285356713973
 21
234.7400853942708
 31
0.0
  0
LINE
  5
3CC5
330
1F
100
AcDbEntity
  8
AM_4
100
AcDbLine
 10
278.1602927770523
 20
241.4432728942708
 30
0.0
 11
279.7285356713974
 21
240.5378474370659
 31
0.0
  0
LINE
  5
3CC6
330
1F
100
AcDbEntity
  8
AM_0
100
AcDbLine
 10
278.1602927770523
 20
234.7400853942709
 30
0.0
 11
278.1602927770523
 21
241.7400853942708
 31
0.0
  0
LINE
  5
3DC6
330
1F
100
AcDbEntity
  8
AM_7
100
AcDbLine
 10
289.5572927770523
 20
234.7400853942708
 30
0.0
 11
259.7632927770523
 21
234.7400853942708
 31
0.0
1001
GENIUS_GENOBJ-N-CEN_13
1002
{
1000
OWNER
1000
GEN
1002
}
1001
GENIUS_GENODEF_13
1002
{
1000
HIER
1070
     0
1002
}
1002
{
1000
MANEDIT
1070
     0
1002
}
1002
{
1000
NOSEL
1070
     0
1002
}
1002
{
1000
BEHIND
1070
     0
1002
}
1002
{
1000
OTHER
1070
     0
1002
}
1002
{
1000
REACTOR
1002
}
1001
GENIUS_GENCEN_19
1002
{
1040
1.397
1002
}
  0
LINE
  5
4252
330
1F
100
AcDbEntity
  8
AM_0
100
AcDbLine
 10
278.1602927770523
 20
216.4322590169352
 30
0.0
 11
271.1602927770523
 21
216.4322590169353
 31
0.0
  0
LINE
  5
4253
330
1F
100
AcDbEntity
  8
AM_0
100
AcDbLine
 10
271.1602927770523
 20
216.4322590169353
 30
0.0
 11
271.1602927770523
 21
209.4322590169353
 31
0.0
  0
LINE
  5
4254
330
1F
100
AcDbEntity
  8
0
100
AcDbLine
 10
261.1602927770523
 20
209.4322590169352
 30
0.0
 11
261.1602927770523
 21
214.6822590169353
 31
0.0
  0
LINE
  5
4255
330
1F
100
AcDbEntity
  8
AM_0
100
AcDbLine
 10
261.1602927770523
 20
214.6822590169352
 30
0.0
 11
263.2490804308153
 21
215.8882211311153
 31
0.0
  0
LINE
  5
4256
330
1F
100
AcDbEntity
  8
AM_4
100
AcDbLine
 10
261.6808375364702
 20
214.9827956739104
 30
0.0
 11
269.5920498827073
 21
215.2300210597303
 31
0.0
  0
LINE
  5
4257
330
1F
100
AcDbEntity
  8
AM_0
100
AcDbLine
 10
263.2490804308153
 20
215.8882211311153
 30
0.0
 11
271.1602927770523
 21
216.1354465169352
 31
0.0
  0
LINE
  5
4258
330
1F
100
AcDbEntity
  8
AM_4
100
AcDbLine
 10
271.1602927770523
 20
216.1354465169352
 30
0.0
 11
269.5920498827072
 21
215.2300210597303
 31
0.0
  0
LINE
  5
4259
330
1F
100
AcDbEntity
  8
AM_0
100
AcDbLine
 10
263.2490804308153
 20
215.8882211311153
 30
0.0
 11
263.2490804308153
 21
209.4322590169352
 31
0.0
  0
LINE
  5
425A
330
1F
100
AcDbEntity
  8
AM_0
100
AcDbLine
 10
269.5920498827073
 20
216.0864389264869
 30
0.0
 11
269.5920498827073
 21
209.4322590169352
 31
0.0
  0
LINE
  5
425B
330
1F
100
AcDbEntity
  8
AM_4
100
AcDbLine
 10
287.6397480176344
 20
214.9827956739104
 30
0.0
 11
279.7285356713973
 21
215.2300210597303
 31
0.0
  0
LINE
  5
425C
330
1F
100
AcDbEntity
  8
AM_0
100
AcDbLine
 10
286.0715051232893
 20
215.8882211311153
 30
0.0
 11
278.1602927770523
 21
216.1354465169352
 31
0.0
  0
LINE
  5
425D
330
1F
100
AcDbEntity
  8
AM_0
100
AcDbLine
 10
286.0715051232893
 20
215.8882211311153
 30
0.0
 11
286.0715051232893
 21
209.4322590169352
 31
0.0
  0
LINE
  5
425E
330
1F
100
AcDbEntity
  8
0
100
AcDbLine
 10
288.1602927770523
 20
209.4322590169352
 30
0.0
 11
288.1602927770523
 21
214.6822590169353
 31
0.0
  0
LINE
  5
425F
330
1F
100
AcDbEntity
  8
AM_0
100
AcDbLine
 10
288.1602927770523
 20
214.6822590169352
 30
0.0
 11
286.0715051232893
 21
215.8882211311153
 31
0.0
  0
LINE
  5
4260
330
1F
100
AcDbEntity
  8
AM_0
100
AcDbLine
 10
279.7285356713973
 20
216.0864389264869
 30
0.0
 11
279.7285356713973
 21
209.4322590169352
 31
0.0
  0
LINE
  5
4261
330
1F
100
AcDbEntity
  8
AM_4
100
AcDbLine
 10
278.1602927770523
 20
216.1354465169352
 30
0.0
 11
279.7285356713974
 21
215.2300210597303
 31
0.0
  0
LINE
  5
4262
330
1F
100
AcDbEntity
  8
AM_0
100
AcDbLine
 10
278.1602927770523
 20
209.4322590169353
 30
0.0
 11
278.1602927770523
 21
216.4322590169352
 31
0.0
  0
MTEXT
  5
426C
330
1F
100
AcDbEntity
  8
0
100
AcDbMText
 10
295.9222164874478
 20
234.7400853942708
 30
0.0
 40
1.5
 41
19.9272004343461
 71
     1
 72
     5
  1
丸ニップル　NI-1022
 73
     1
 44
1.0
1001
ACAD
1000
ACAD_MTEXT_COLUMN_INFO_BEGIN
1070
    75
1070
     2
1070
    79
1070
     0
1070
    76
1070
     1
1070
    78
1070
     0
1070
    48
1040
19.9272004343461
1070
    49
1040
7.5
1070
    50
1070
     1
1040
0.0
1000
ACAD_MTEXT_COLUMN_INFO_END
1000
MTEXTBEGIN
1070
    73
1070
     1
1070
    44
1040
1.0
1070
    74
1070
     0
1000
MTEXTEND
  0
LINE
  5
426E
330
1F
100
AcDbEntity
  8
AM_7
100
AcDbLine
 10
274.6602927770523
 20
243.1370853942709
 30
0.0
 11
274.6602927770523
 21
226.3430853942708
 31
0.0
1001
GENIUS_GENODEF_13
1002
{
1000
HIER
1070
     0
1002
}
1002
{
1000
MANEDIT
1070
     0
1002
}
1002
{
1000
NOSEL
1070
     0
1002
}
1002
{
1000
BEHIND
1070
     0
1002
}
1002
{
1000
OTHER
1070
     0
1002
}
1002
{
1000
REACTOR
1002
}
1001
GENIUS_GENOBJ-N-CEN_13
1002
{
1000
OWNER
1000
GEN
1002
}
1001
GENIUS_GENCEN_19
1002
{
1040
1.397
1002
}
  0
LINE
  5
426F
330
1F
100
AcDbEntity
  8
AM_7
100
AcDbLine
 10
274.6602927770523
 20
217.8292590169352
 30
0.0
 11
274.6602927770523
 21
201.0352590169352
 31
0.0
1001
GENIUS_GENODEF_13
1002
{
1000
HIER
1070
     0
1002
}
1002
{
1000
MANEDIT
1070
     0
1002
}
1002
{
1000
NOSEL
1070
     0
1002
}
1002
{
1000
BEHIND
1070
     0
1002
}
1002
{
1000
OTHER
1070
     0
1002
}
1002
{
1000
REACTOR
1002
}
1001
GENIUS_GENOBJ-N-CEN_13
1002
{
1000
OWNER
1000
GEN
1002
}
1001
GENIUS_GENCEN_19
1002
{
1040
1.397
1002
}
  0
ENDSEC
  0
SECTION
  2
OBJECTS
  0
DICTIONARY
  5
C
330
0
100
AcDbDictionary
281
     1
  3
ACAD_2007HEADERVARS_RT
350
430F
  3
ACAD_COLOR
350
247
  3
ACAD_GROUP
350
D
  3
ACAD_LAYOUT
350
1A
  3
ACAD_MATERIAL
350
232
  3
ACAD_MLEADERSTYLE
350
2102
  3
ACAD_MLINESTYLE
350
17
  3
ACAD_PLOTSETTINGS
350
19
  3
ACAD_PLOTSTYLENAME
350
E
  3
ACAD_SCALELIST
350
20F0
  3
ACAD_TABLESTYLE
350
248
  3
ACAD_VISUALSTYLE
350
236
  3
ACDB_RECOMPOSE_DATA
350
430D
  3
AcDbVariableDictionary
350
34
  3
AcmDictionary
350
43
  3
AMG
350
2B
  3
AMGSNAPSETTINGS
350
74
  3
DWGPROPS
350
430E
  0
DICTIONARY
  5
CA7
330
8
100
AcDbDictionary
280
     1
281
     1
  0
DICTIONARY
  5
971
330
2
100
AcDbDictionary
280
     1
281
     1
  3
ACAD_LAYERSTATES
360
2298
  3
AMLAYER_GROUPCOLORS
360
972
  0
DICTIONARY
  5
227D
330
10
100
AcDbDictionary
280
     1
281
     1
  3
ADSK_XREC_LAYER_RECONCILED
360
227E
  0
DICTIONARY
  5
227F
330
59
100
AcDbDictionary
280
     1
281
     1
  3
ADSK_XREC_LAYER_RECONCILED
360
2280
  0
DICTIONARY
  5
2281
330
5A
100
AcDbDictionary
280
     1
281
     1
  3
ADSK_XREC_LAYER_RECONCILED
360
2282
  0
DICTIONARY
  5
2283
330
31B
100
AcDbDictionary
280
     1
281
     1
  3
ADSK_XREC_LAYER_RECONCILED
360
2284
  0
DICTIONARY
  5
2285
330
7C0
100
AcDbDictionary
280
     1
281
     1
  3
ADSK_XREC_LAYER_RECONCILED
360
2286
  0
DICTIONARY
  5
2287
330
7C1
100
AcDbDictionary
280
     1
281
     1
  3
ADSK_XREC_LAYER_RECONCILED
360
2288
  0
DICTIONARY
  5
2289
330
7C2
100
AcDbDictionary
280
     1
281
     1
  3
ADSK_XREC_LAYER_RECONCILED
360
228A
  0
DICTIONARY
  5
228B
330
7C3
100
AcDbDictionary
280
     1
281
     1
  3
ADSK_XREC_LAYER_RECONCILED
360
228C
  0
DICTIONARY
  5
228D
330
7C4
100
AcDbDictionary
280
     1
281
     1
  3
ADSK_XREC_LAYER_RECONCILED
360
228E
  0
DICTIONARY
  5
228F
330
7C5
100
AcDbDictionary
280
     1
281
     1
  3
ADSK_XREC_LAYER_RECONCILED
360
2290
  0
DICTIONARY
  5
2291
330
1264
100
AcDbDictionary
280
     1
281
     1
  3
ADSK_XREC_LAYER_RECONCILED
360
2292
  0
DICTIONARY
  5
2293
330
2276
100
AcDbDictionary
280
     1
281
     1
  3
ADSK_XREC_LAYER_RECONCILED
360
2294
  0
DICTIONARY
  5
C9
330
1F
100
AcDbDictionary
280
     1
281
     1
  3
ACAD_SORTENTS
360
97C
  0
DICTIONARY
  5
BCD
330
BBF
100
AcDbDictionary
280
     1
281
     1
  0
DICTIONARY
  5
179B
330
176D
100
AcDbDictionary
280
     1
281
     1
  0
DICTIONARY
  5
17BE
330
17BD
100
AcDbDictionary
280
     1
281
     1
  0
DICTIONARY
  5
17C3
330
17C2
100
AcDbDictionary
280
     1
281
     1
  0
DICTIONARY
  5
17FE
330
17CB
100
AcDbDictionary
280
     1
281
     1
  0
DICTIONARY
  5
2346
330
2338
100
AcDbDictionary
280
     1
281
     1
  0
DICTIONARY
  5
26C1
330
26BB
100
AcDbDictionary
280
     1
281
     1
  0
DICTIONARY
  5
430F
102
{ACAD_REACTORS
330
C
102
}
330
C
100
AcDbDictionary
281
     1
  3
DIMARCSYM
350
4310
  0
DICTIONARY
  5
247
102
{ACAD_REACTORS
330
C
102
}
330
C
100
AcDbDictionary
281
     1
  0
DICTIONARY
  5
D
102
{ACAD_REACTORS
330
C
102
}
330
C
100
AcDbDictionary
281
     1
  0
DICTIONARY
  5
1A
102
{ACAD_REACTORS
330
C
102
}
330
C
100
AcDbDictionary
281
     1
  3
Model
350
22
  3
ﾚｲｱｳﾄ1
350
1E
  3
ﾚｲｱｳﾄ2
350
26
  0
DICTIONARY
  5
232
102
{ACAD_REACTORS
330
C
102
}
330
C
100
AcDbDictionary
281
     1
  3
ByBlock
350
234
  3
ByLayer
350
233
  3
Global
350
235
  0
DICTIONARY
  5
2102
102
{ACAD_REACTORS
330
C
102
}
330
C
100
AcDbDictionary
281
     1
  3
Standard
350
2103
  0
DICTIONARY
  5
17
102
{ACAD_REACTORS
330
C
102
}
330
C
100
AcDbDictionary
281
     1
  3
Standard
350
18
  0
DICTIONARY
  5
19
102
{ACAD_REACTORS
330
C
102
}
330
C
100
AcDbDictionary
281
     1
  0
ACDBDICTIONARYWDFLT
  5
E
102
{ACAD_REACTORS
330
C
102
}
330
C
100
AcDbDictionary
281
     1
  3
Normal
350
F
100
AcDbDictionaryWithDefault
340
F
  0
DICTIONARY
  5
20F0
102
{ACAD_REACTORS
330
C
102
}
330
C
100
AcDbDictionary
281
     1
  3
A0
350
20F1
  3
A1
350
20F2
  3
A2
350
20F3
  3
A3
350
20F4
  3
A4
350
20F5
  3
A5
350
20F6
  3
A6
350
20F7
  3
A7
350
20F8
  3
A8
350
20F9
  3
A9
350
20FA
  3
B0
350
20FB
  3
B1
350
20FC
  3
B2
350
20FD
  3
B3
350
20FE
  3
B4
350
20FF
  3
B5
350
2100
  3
B6
350
2101
  0
DICTIONARY
  5
248
102
{ACAD_REACTORS
330
C
102
}
330
C
100
AcDbDictionary
281
     1
  3
Standard
350
249
  0
DICTIONARY
  5
236
102
{ACAD_REACTORS
330
C
102
}
330
C
100
AcDbDictionary
281
     1
  3
2dWireframe
350
23C
  3
3D Hidden
350
23E
  3
3dWireframe
350
23D
  3
Basic
350
23B
  3
Brighten
350
242
  3
ColorChange
350
246
  3
Conceptual
350
23F
  3
Dim
350
241
  3
EdgeColorOff
350
20EF
  3
Facepattern
350
245
  3
Flat
350
237
  3
FlatWithEdges
350
238
  3
Gouraud
350
239
  3
GouraudWithEdges
350
23A
  3
Hidden
350
20E7
  3
JitterOff
350
20ED
  3
Linepattern
350
244
  3
OverhangOff
350
20EE
  3
Realistic
350
240
  3
Shaded
350
20EC
  3
Shaded with edges
350
20EB
  3
Shades of Gray
350
20E8
  3
Sketchy
350
20E9
  3
Thicken
350
243
  3
Wireframe
350
20E6
  3
X-Ray
350
20EA
  0
XRECORD
  5
430D
102
{ACAD_REACTORS
330
C
102
}
330
C
100
AcDbXrecord
280
     1
 90
        1
330
249
330
426C
  0
DICTIONARY
  5
34
102
{ACAD_REACTORS
330
C
102
}
330
C
100
AcDbDictionary
281
     1
  3
CANNOSCALE
350
22EE
  3
CMLEADERSTYLE
350
22ED
  3
CTABLESTYLE
350
2C0
  3
DIMASSOC
350
430B
  3
EXPORTMODELSPACE
350
4060
  3
EXPORTPAGESETUP
350
4061
  3
INDEXCTL
350
35
  3
SORTENTS
350
4309
  3
XCLIPFRAME
350
430A
  0
DICTIONARY
  5
43
102
{ACAD_REACTORS
330
C
102
}
330
C
100
AcDbDictionary
281
     1
  3
AcmBOM
350
C4E
  3
AcmStdDictionary
350
15F
  3
AMDTSECTSYM_ARROWCOLOR
350
2A8
  0
DICTIONARY
  5
2B
102
{ACAD_REACTORS
330
C
102
}
330
C
100
AcDbDictionary
281
     1
  0
DICTIONARY
  5
74
102
{ACAD_REACTORS
330
C
102
}
330
C
100
AcDbDictionary
281
     1
  0
XRECORD
  5
430E
102
{ACAD_REACTORS
330
C
102
}
330
C
100
AcDbXrecord
280
     1
  1
DWGPROPS COOKIE
  2

  3

  4

  6

  7

  8
user
  9

300
AmdtFileType=84
301
=
302
=
303
=
304
=
305
=
306
=
307
=
308
=
309
=
 40
0.2287564930555556
 41
2454784.375539815
 42
2455800.576716389
  1

 90
        1
  0
DICTIONARY
  5
2298
102
{ACAD_REACTORS
330
971
102
}
330
971
100
AcDbDictionary
281
     1
  0
DICTIONARY
  5
972
102
{ACAD_REACTORS
330
971
102
}
330
971
100
AcDbDictionary
280
     1
281
     1
  0
XRECORD
  5
227E
102
{ACAD_REACTORS
330
227D
102
}
330
227D
100
AcDbXrecord
280
     1
290
     1
  0
XRECORD
  5
2280
102
{ACAD_REACTORS
330
227F
102
}
330
227F
100
AcDbXrecord
280
     1
290
     1
  0
XRECORD
  5
2282
102
{ACAD_REACTORS
330
2281
102
}
330
2281
100
AcDbXrecord
280
     1
290
     1
  0
XRECORD
  5
2284
102
{ACAD_REACTORS
330
2283
102
}
330
2283
100
AcDbXrecord
280
     1
290
     1
  0
XRECORD
  5
2286
102
{ACAD_REACTORS
330
2285
102
}
330
2285
100
AcDbXrecord
280
     1
290
     1
  0
XRECORD
  5
2288
102
{ACAD_REACTORS
330
2287
102
}
330
2287
100
AcDbXrecord
280
     1
290
     1
  0
XRECORD
  5
228A
102
{ACAD_REACTORS
330
2289
102
}
330
2289
100
AcDbXrecord
280
     1
290
     1
  0
XRECORD
  5
228C
102
{ACAD_REACTORS
330
228B
102
}
330
228B
100
AcDbXrecord
280
     1
290
     1
  0
XRECORD
  5
228E
102
{ACAD_REACTORS
330
228D
102
}
330
228D
100
AcDbXrecord
280
     1
290
     1
  0
XRECORD
  5
2290
102
{ACAD_REACTORS
330
228F
102
}
330
228F
100
AcDbXrecord
280
     1
290
     1
  0
XRECORD
  5
2292
102
{ACAD_REACTORS
330
2291
102
}
330
2291
100
AcDbXrecord
280
     1
290
     1
  0
XRECORD
  5
2294
102
{ACAD_REACTORS
330
2293
102
}
330
2293
100
AcDbXrecord
280
     1
290
     1
  0
SORTENTSTABLE
  5
97C
102
{ACAD_REACTORS
330
C9
102
}
330
C9
100
AcDbSortentsTable
330
1F
331
3DC6
  5
3DD0
331
3B38
  5
3B3F
331
3B44
  5
3B4B
331
3C8B
  5
3C8C
331
3C97
  5
3C98
331
3CC2
  5
3CC3
331
3C87
  5
3C88
331
3B43
  5
3B4A
331
3C8A
  5
3C8B
331
3C96
  5
3C97
331
3CC1
  5
3CC2
331
3B42
  5
3B49
331
3C89
  5
3C8A
331
3C95
  5
3C96
331
3CC0
  5
3CC1
331
3B41
  5
3B48
331
3C88
  5
3C89
331
3C94
  5
3C95
331
3CBF
  5
3CC0
331
3B40
  5
3B47
331
3C93
  5
3C94
331
3B2C
  5
3B33
331
3CBE
  5
3CBF
331
3B3F
  5
3B46
331
3C92
  5
3C93
331
3B4B
  5
3B52
331
3B2B
  5
3B32
331
3CBD
  5
3CBE
331
3B37
  5
3B3E
331
3B3E
  5
3B45
331
3C91
  5
3C92
331
33BE
  5
3ACE
331
3CBC
  5
3CBD
331
3B9D
  5
3C85
331
3C90
  5
3C91
331
33BD
  5
3ACD
331
3CBB
  5
3CBC
331
3B35
  5
3B3C
331
3B9C
  5
3C84
331
3C8F
  5
3C90
331
33B0
  5
389E
331
33BC
  5
3ACC
331
3CB7
  5
3CB8
331
3CBA
  5
3CBB
331
3B34
  5
3B3B
331
3CC6
  5
3D7E
331
3C8E
  5
3C8F
331
33BB
  5
394F
331
3CB6
  5
3CB7
331
3CB9
  5
3CBA
331
3B33
  5
3B3A
331
3CC5
  5
3CC6
331
3C8D
  5
3C8E
331
33BA
  5
389F
331
3CB8
  5
3CB9
331
3B32
  5
3B39
331
3CC4
  5
3CC5
331
3B39
  5
3B40
331
3C8C
  5
3C8D
331
3B51
  5
3C81
331
3C98
  5
3CB6
331
3CC3
  5
3CC4
  0
XRECORD
  5
4310
102
{ACAD_REACTORS
330
430F
102
}
330
430F
100
AcDbXrecord
280
     1
 70
     1
  0
LAYOUT
  5
22
102
{ACAD_XDICTIONARY
360
229D
102
}
102
{ACAD_REACTORS
330
1A
102
}
330
1A
100
AcDbPlotSettings
  1

  2
RICOH imagio MP 5000 RPCS
  4
A4
  6
AM_VIEW1
 40
5.873749732971191
 41
5.873747825622558
 42
5.873748779296875
 43
5.873748779296875
 44
209.9733276367187
 45
296.9259948730469
 46
-5.893493273472387
 47
-5.919813376423093
 48
0.0
 49
0.0
140
0.0
141
0.0
142
2.0
143
1.0
 70
 11940
 72
     1
 73
     1
 74
     1
  7
IMAGIO.ctb
 75
    27
147
2.0
148
-222.7655474987792
149
-167.1082151420908
100
AcDbLayout
  1
Model
 70
     1
 71
     0
 10
0.0
 20
0.0
 11
12.0
 21
9.0
 12
0.0
 22
0.0
 32
0.0
 14
0.0
 24
0.0
 34
0.0
 15
0.0
 25
0.0
 35
0.0
146
0.0
 13
0.0
 23
0.0
 33
0.0
 16
1.0
 26
0.0
 36
0.0
 17
0.0
 27
1.0
 37
0.0
 76
     0
330
1F
331
230
1001
ACAD_PSEXT
1000
RICOH imagio MP 5000 RPCS
1000
RICOH imagio MP 5000 RPCS
1000
IP_192.168.1.151
1000
RPCS Driver (Windows 2000/XP/Server 2003/Vista)
1070
     0
  0
LAYOUT
  5
1E
102
{ACAD_XDICTIONARY
360
4311
102
}
102
{ACAD_REACTORS
330
1A
102
}
330
1A
100
AcDbPlotSettings
  1

  2
MF2730
  4

  6

 40
0.0
 41
0.0
 42
0.0
 43
0.0
 44
0.0
 45
0.0
 46
0.0
 47
0.0
 48
0.0
 49
0.0
140
0.0
141
0.0
142
1.0
143
1.0
 70
   688
 72
     0
 73
     0
 74
     5
  7
IMAGIO.ctb
 75
    16
147
1.0
148
0.0
149
0.0
100
AcDbLayout
  1
ﾚｲｱｳﾄ1
 70
     1
 71
     1
 10
0.0
 20
0.0
 11
420.0
 21
297.0
 12
0.0
 22
0.0
 32
0.0
 14
1.000000000000000E+20
 24
1.000000000000000E+20
 34
1.000000000000000E+20
 15
-1.000000000000000E+20
 25
-1.000000000000000E+20
 35
-1.000000000000000E+20
146
0.0
 13
0.0
 23
0.0
 33
0.0
 16
1.0
 26
0.0
 36
0.0
 17
0.0
 27
1.0
 37
0.0
 76
     0
330
1B
  0
LAYOUT
  5
26
102
{ACAD_XDICTIONARY
360
4314
102
}
102
{ACAD_REACTORS
330
1A
102
}
330
1A
100
AcDbPlotSettings
  1

  2
MF2730
  4

  6

 40
0.0
 41
0.0
 42
0.0
 43
0.0
 44
0.0
 45
0.0
 46
0.0
 47
0.0
 48
0.0
 49
0.0
140
0.0
141
0.0
142
1.0
143
1.0
 70
   688
 72
     0
 73
     0
 74
     5
  7
IMAGIO.ctb
 75
    16
147
1.0
148
0.0
149
0.0
100
AcDbLayout
  1
ﾚｲｱｳﾄ2
 70
     1
 71
     2
 10
0.0
 20
0.0
 11
12.0
 21
9.0
 12
0.0
 22
0.0
 32
0.0
 14
0.0
 24
0.0
 34
0.0
 15
0.0
 25
0.0
 35
0.0
146
0.0
 13
0.0
 23
0.0
 33
0.0
 16
1.0
 26
0.0
 36
0.0
 17
0.0
 27
1.0
 37
0.0
 76
     0
330
23
  0
MATERIAL
  5
234
102
{ACAD_XDICTIONARY
360
4318
102
}
102
{ACAD_REACTORS
330
232
102
}
330
232
100
AcDbMaterial
  1
ByBlock
 73
     1
 78
     1
172
     1
176
     1
270
     1
274
     1
  0
MATERIAL
  5
233
102
{ACAD_XDICTIONARY
360
4316
102
}
102
{ACAD_REACTORS
330
232
102
}
330
232
100
AcDbMaterial
  1
ByLayer
 73
     1
 78
     1
172
     1
176
     1
270
     1
274
     1
  0
MATERIAL
  5
235
102
{ACAD_XDICTIONARY
360
431A
102
}
102
{ACAD_REACTORS
330
232
102
}
330
232
100
AcDbMaterial
  1
Global
 73
     1
 78
     1
172
     1
176
     1
270
     1
274
     1
  0
MLEADERSTYLE
  5
2103
102
{ACAD_REACTORS
330
2102
102
}
330
2102
100
AcDbMLeaderStyle
170
     2
171
     1
172
     0
 90
        2
 40
0.0
 41
0.0
173
     1
 91
-1056964608
340
14
 92
       -2
290
     1
 42
2.0
291
     1
 43
0.36
  3
Standard
 44
4.0
300

342
11
174
     1
178
     6
175
     1
176
     0
 93
-1056964608
 45
4.0
292
     0
297
     0
 46
4.0
 94
-1056964608
 47
1.0
 49
1.0
140
1.0
293
     1
141
0.0
294
     1
177
     0
142
1.0
295
     0
296
     0
143
0.125
1001
ACAD_MLEADERVER
1070
     2
  0
MLINESTYLE
  5
18
102
{ACAD_REACTORS
330
17
102
}
330
17
100
AcDbMlineStyle
  2
STANDARD
 70
     0
  3

 62
   256
 51
90.0
 52
90.0
 71
     2
 49
0.5
 62
   256
  6
BYLAYER
 49
-0.5
 62
   256
  6
BYLAYER
  0
ACDBPLACEHOLDER
  5
F
102
{ACAD_REACTORS
330
E
102
}
330
E
  0
SCALE
  5
20F1
102
{ACAD_REACTORS
330
20F0
102
}
330
20F0
100
AcDbScale
 70
     0
300
1:1
140
1.0
141
1.0
290
     1
  0
SCALE
  5
20F2
102
{ACAD_REACTORS
330
20F0
102
}
330
20F0
100
AcDbScale
 70
     0
300
1:2
140
1.0
141
2.0
290
     0
  0
SCALE
  5
20F3
102
{ACAD_REACTORS
330
20F0
102
}
330
20F0
100
AcDbScale
 70
     0
300
1:4
140
1.0
141
4.0
290
     0
  0
SCALE
  5
20F4
102
{ACAD_REACTORS
330
20F0
102
}
330
20F0
100
AcDbScale
 70
     0
300
1:5
140
1.0
141
5.0
290
     0
  0
SCALE
  5
20F5
102
{ACAD_REACTORS
330
20F0
102
}
330
20F0
100
AcDbScale
 70
     0
300
1:8
140
1.0
141
8.0
290
     0
  0
SCALE
  5
20F6
102
{ACAD_REACTORS
330
20F0
102
}
330
20F0
100
AcDbScale
 70
     0
300
1:10
140
1.0
141
10.0
290
     0
  0
SCALE
  5
20F7
102
{ACAD_REACTORS
330
20F0
102
}
330
20F0
100
AcDbScale
 70
     0
300
1:16
140
1.0
141
16.0
290
     0
  0
SCALE
  5
20F8
102
{ACAD_REACTORS
330
20F0
102
}
330
20F0
100
AcDbScale
 70
     0
300
1:20
140
1.0
141
20.0
290
     0
  0
SCALE
  5
20F9
102
{ACAD_REACTORS
330
20F0
102
}
330
20F0
100
AcDbScale
 70
     0
300
1:30
140
1.0
141
30.0
290
     0
  0
SCALE
  5
20FA
102
{ACAD_REACTORS
330
20F0
102
}
330
20F0
100
AcDbScale
 70
     0
300
1:40
140
1.0
141
40.0
290
     0
  0
SCALE
  5
20FB
102
{ACAD_REACTORS
330
20F0
102
}
330
20F0
100
AcDbScale
 70
     0
300
1:50
140
1.0
141
50.0
290
     0
  0
SCALE
  5
20FC
102
{ACAD_REACTORS
330
20F0
102
}
330
20F0
100
AcDbScale
 70
     0
300
1:100
140
1.0
141
100.0
290
     0
  0
SCALE
  5
20FD
102
{ACAD_REACTORS
330
20F0
102
}
330
20F0
100
AcDbScale
 70
     0
300
2:1
140
2.0
141
1.0
290
     0
  0
SCALE
  5
20FE
102
{ACAD_REACTORS
330
20F0
102
}
330
20F0
100
AcDbScale
 70
     0
300
4:1
140
4.0
141
1.0
290
     0
  0
SCALE
  5
20FF
102
{ACAD_REACTORS
330
20F0
102
}
330
20F0
100
AcDbScale
 70
     0
300
8:1
140
8.0
141
1.0
290
     0
  0
SCALE
  5
2100
102
{ACAD_REACTORS
330
20F0
102
}
330
20F0
100
AcDbScale
 70
     0
300
10:1
140
10.0
141
1.0
290
     0
  0
SCALE
  5
2101
102
{ACAD_REACTORS
330
20F0
102
}
330
20F0
100
AcDbScale
 70
     0
300
100:1
140
100.0
141
1.0
290
     0
  0
TABLESTYLE
  5
249
102
{ACAD_XDICTIONARY
360
229F
102
}
102
{ACAD_REACTORS
330
248
102
}
330
248
100
AcDbTableStyle
  3
Standard
 70
     0
 71
     0
 40
1.5
 41
1.5
280
     0
281
     0
  7
STANDARD
140
4.5
170
     2
 62
     0
 63
     7
283
     0
274
    -2
284
     1
 64
     0
275
    -2
285
     1
 65
     0
276
    -2
286
     1
 66
     0
277
    -2
287
     1
 67
     0
278
    -2
288
     1
 68
     0
279
    -2
289
     1
 69
     0
  7
STANDARD
140
6.0
170
     5
 62
     0
 63
     7
283
     0
274
    -2
284
     1
 64
     0
275
    -2
285
     1
 65
     0
276
    -2
286
     1
 66
     0
277
    -2
287
     1
 67
     0
278
    -2
288
     1
 68
     0
279
    -2
289
     1
 69
     0
  7
STANDARD
140
4.5
170
     5
 62
     0
 63
     7
283
     0
274
    -2
284
     1
 64
     0
275
    -2
285
     1
 65
     0
276
    -2
286
     1
 66
     0
277
    -2
287
     1
 67
     0
278
    -2
288
     1
 68
     0
279
    -2
289
     1
 69
     0
  0
VISUALSTYLE
  5
23C
102
{ACAD_XDICTIONARY
360
4326
102
}
102
{ACAD_REACTORS
330
236
102
}
330
236
100
AcDbVisualStyle
  2
2dWireframe
 70
     4
 71
     0
 72
     2
 73
     0
 90
        0
 40
-0.6
 41
-30.0
 62
     5
 63
     7
 74
     1
 91
        4
 64
     7
 65
   257
 75
     1
175
     1
 42
1.0
 92
        0
 66
   257
 43
1.0
 76
     1
 77
     6
 78
     2
 67
     7
 79
     5
170
     0
171
     0
290
     0
174
     0
 93
        1
 44
0.0
173
     0
291
     0
 45
0.0
1001
ACAD
1000
AcDbSavedByObjectVersion
1070
     0
  0
VISUALSTYLE
  5
23E
102
{ACAD_XDICTIONARY
360
432A
102
}
102
{ACAD_REACTORS
330
236
102
}
330
236
100
AcDbVisualStyle
  2
3D Hidden
 70
     6
 71
     1
 72
     2
 73
     2
 90
        0
 40
-0.6
 41
-30.0
 62
     5
 63
     7
 74
     2
 91
        2
 64
     7
 65
   257
 75
     2
175
     1
 42
40.0
 92
        0
 66
   257
 43
1.0
 76
     1
 77
     6
 78
     2
 67
     7
 79
     3
170
     0
171
     0
290
     0
174
     0
 93
        1
 44
0.0
173
     0
291
     0
 45
0.0
1001
ACAD
1000
AcDbSavedByObjectVersion
1070
     0
  0
VISUALSTYLE
  5
23D
102
{ACAD_XDICTIONARY
360
4328
102
}
102
{ACAD_REACTORS
330
236
102
}
330
236
100
AcDbVisualStyle
  2
3dWireframe
 70
     5
 71
     0
 72
     2
 73
     0
 90
        0
 40
-0.6
 41
-30.0
 62
     5
 63
     7
 74
     1
 91
        4
 64
     7
 65
   257
 75
     1
175
     1
 42
1.0
 92
        0
 66
   257
 43
1.0
 76
     1
 77
     6
 78
     2
 67
     7
 79
     5
170
     0
171
     0
290
     0
174
     0
 93
        1
 44
0.0
173
     0
291
     0
 45
0.0
1001
ACAD
1000
AcDbSavedByObjectVersion
1070
     0
  0
VISUALSTYLE
  5
23B
102
{ACAD_XDICTIONARY
360
4324
102
}
102
{ACAD_REACTORS
330
236
102
}
330
236
100
AcDbVisualStyle
  2
Basic
 70
     7
 71
     1
 72
     0
 73
     1
 90
        0
 40
-0.6
 41
-30.0
 62
     5
 63
     7
 74
     0
 91
        4
 64
     7
 65
   257
 75
     1
175
     1
 42
1.0
 92
        8
 66
     7
 43
1.0
 76
     1
 77
     6
 78
     2
 67
     7
 79
     5
170
     0
171
     0
290
     0
174
     0
 93
        1
 44
0.0
173
     0
291
     1
 45
0.0
1001
ACAD
1000
AcDbSavedByObjectVersion
1070
     0
  0
VISUALSTYLE
  5
242
102
{ACAD_XDICTIONARY
360
4332
102
}
102
{ACAD_REACTORS
330
236
102
}
330
236
100
AcDbVisualStyle
  2
Brighten
 70
    12
 71
     2
 72
     2
 73
     0
 90
        0
 40
-0.6
 41
-30.0
 62
     5
 63
     7
 74
     1
 91
        4
 64
     7
 65
   257
 75
     1
175
     1
 42
1.0
 92
        8
 66
     7
 43
1.0
 76
     1
 77
     6
 78
     2
 67
     7
 79
     5
170
     0
171
     0
290
     0
174
     0
 93
        1
 44
50.0
173
     0
291
     1
 45
0.0
1001
ACAD
1000
AcDbSavedByObjectVersion
1070
     0
  0
VISUALSTYLE
  5
246
102
{ACAD_XDICTIONARY
360
433A
102
}
102
{ACAD_REACTORS
330
236
102
}
330
236
100
AcDbVisualStyle
  2
ColorChange
 70
    16
 71
     2
 72
     2
 73
     3
 90
        0
 40
-0.6
 41
-30.0
 62
     5
 63
     8
 74
     1
 91
        4
 64
     7
 65
   257
 75
     1
175
     1
 42
1.0
 92
        8
 66
     8
 43
1.0
 76
     1
 77
     6
 78
     2
 67
     7
 79
     5
170
     0
171
     0
290
     0
174
     0
 93
        1
 44
0.0
173
     0
291
     1
 45
0.0
1001
ACAD
1000
AcDbSavedByObjectVersion
1070
     0
  0
VISUALSTYLE
  5
23F
102
{ACAD_XDICTIONARY
360
432C
102
}
102
{ACAD_REACTORS
330
236
102
}
330
236
100
AcDbVisualStyle
  2
Conceptual
 70
     9
 71
     3
 72
     2
 73
     0
 90
        0
 40
-0.6
 41
-30.0
 62
     5
 63
     7
 74
     2
 91
        2
 64
     7
 65
   257
 75
     1
175
     1
 42
40.0
 92
        8
 66
     7
 43
1.0
 76
     1
 77
     6
 78
     2
 67
     7
 79
     3
170
     0
171
     0
290
     0
174
     0
 93
        1
 44
0.0
173
     0
291
     0
 45
0.0
1001
ACAD
1000
AcDbSavedByObjectVersion
1070
     0
  0
VISUALSTYLE
  5
241
102
{ACAD_XDICTIONARY
360
4330
102
}
102
{ACAD_REACTORS
330
236
102
}
330
236
100
AcDbVisualStyle
  2
Dim
 70
    11
 71
     2
 72
     2
 73
     0
 90
        0
 40
-0.6
 41
-30.0
 62
     5
 63
     7
 74
     1
 91
        4
 64
     7
 65
   257
 75
     1
175
     1
 42
1.0
 92
        8
 66
     7
 43
1.0
 76
     1
 77
     6
 78
     2
 67
     7
 79
     5
170
     0
171
     0
290
     0
174
     0
 93
        1
 44
-50.0
173
     0
291
     1
 45
0.0
1001
ACAD
1000
AcDbSavedByObjectVersion
1070
     0
  0
VISUALSTYLE
  5
20EF
102
{ACAD_XDICTIONARY
360
434F
102
}
102
{ACAD_REACTORS
330
236
102
}
330
236
100
AcDbVisualStyle
  2
EdgeColorOff
 70
    22
 71
     2
 72
     2
 73
     0
 90
        0
 40
-0.6
 41
-30.0
 62
     5
 63
     7
 74
     1
 91
        4
 64
     7
 65
   257
 75
     1
175
     1
 42
1.0
 92
        8
 66
     7
 43
1.0
 76
     1
 77
     6
 78
     2
 67
     7
 79
     5
170
     0
171
     0
290
     0
174
     0
 93
        1
 44
0.0
173
     0
291
     1
 45
0.0
1001
ACAD
1000
AcDbSavedByObjectVersion
1070
     0
  0
VISUALSTYLE
  5
245
102
{ACAD_XDICTIONARY
360
4338
102
}
102
{ACAD_REACTORS
330
236
102
}
330
236
100
AcDbVisualStyle
  2
Facepattern
 70
    15
 71
     2
 72
     2
 73
     0
 90
        0
 40
-0.6
 41
-30.0
 62
     5
 63
     7
 74
     1
 91
        4
 64
     7
 65
   257
 75
     1
175
     1
 42
1.0
 92
        8
 66
     7
 43
1.0
 76
     1
 77
     6
 78
     2
 67
     7
 79
     5
170
     0
171
     0
290
     0
174
     0
 93
        1
 44
0.0
173
     0
291
     1
 45
0.0
1001
ACAD
1000
AcDbSavedByObjectVersion
1070
     0
  0
VISUALSTYLE
  5
237
102
{ACAD_XDICTIONARY
360
431C
102
}
102
{ACAD_REACTORS
330
236
102
}
330
236
100
AcDbVisualStyle
  2
Flat
 70
     0
 71
     2
 72
     1
 73
     1
 90
        2
 40
-0.6
 41
30.0
 62
     5
 63
     7
 74
     0
 91
        4
 64
     7
 65
   257
 75
     1
175
     1
 42
1.0
 92
        8
 66
     7
 43
1.0
 76
     1
 77
     6
 78
     2
 67
     7
 79
     5
170
     0
171
     0
290
     0
174
     0
 93
       13
 44
0.0
173
     0
291
     1
 45
0.0
1001
ACAD
1000
AcDbSavedByObjectVersion
1070
     0
  0
VISUALSTYLE
  5
238
102
{ACAD_XDICTIONARY
360
431E
102
}
102
{ACAD_REACTORS
330
236
102
}
330
236
100
AcDbVisualStyle
  2
FlatWithEdges
 70
     1
 71
     2
 72
     1
 73
     1
 90
        2
 40
-0.6
 41
30.0
 62
     5
 63
     7
 74
     1
 91
        4
 64
     7
 65
   257
 75
     1
175
     1
 42
1.0
 92
        0
 66
   257
 43
1.0
 76
     1
 77
     6
 78
     2
 67
     7
 79
     5
170
     0
171
     0
290
     0
174
     0
 93
       13
 44
0.0
173
     0
291
     1
 45
0.0
1001
ACAD
1000
AcDbSavedByObjectVersion
1070
     0
  0
VISUALSTYLE
  5
239
102
{ACAD_XDICTIONARY
360
4320
102
}
102
{ACAD_REACTORS
330
236
102
}
330
236
100
AcDbVisualStyle
  2
Gouraud
 70
     2
 71
     2
 72
     2
 73
     1
 90
        2
 40
-0.6
 41
30.0
 62
     5
 63
     7
 74
     0
 91
        4
 64
     7
 65
   257
 75
     1
175
     1
 42
1.0
 92
        0
 66
     7
 43
1.0
 76
     1
 77
     6
 78
     2
 67
     7
 79
     5
170
     0
171
     0
290
     0
174
     0
 93
       13
 44
0.0
173
     0
291
     1
 45
0.0
1001
ACAD
1000
AcDbSavedByObjectVersion
1070
     0
  0
VISUALSTYLE
  5
23A
102
{ACAD_XDICTIONARY
360
4322
102
}
102
{ACAD_REACTORS
330
236
102
}
330
236
100
AcDbVisualStyle
  2
GouraudWithEdges
 70
     3
 71
     2
 72
     2
 73
     1
 90
        2
 40
-0.6
 41
30.0
 62
     5
 63
     7
 74
     1
 91
        4
 64
     7
 65
   257
 75
     1
175
     1
 42
1.0
 92
        0
 66
   257
 43
1.0
 76
     1
 77
     6
 78
     2
 67
     7
 79
     5
170
     0
171
     0
290
     0
174
     0
 93
       13
 44
0.0
173
     0
291
     1
 45
0.0
1001
ACAD
1000
AcDbSavedByObjectVersion
1070
     0
  0
VISUALSTYLE
  5
20E7
102
{ACAD_XDICTIONARY
360
433F
102
}
102
{ACAD_REACTORS
330
236
102
}
330
236
100
AcDbVisualStyle
  2
Hidden
 70
     6
 71
     1
 72
     2
 73
     2
 90
        0
 40
-0.6
 41
-30.0
 62
     5
 63
     7
 74
     2
 91
        2
 64
     7
 65
   257
 75
     2
175
     1
 42
40.0
 92
        0
 66
   257
 43
1.0
 76
     1
 77
     6
 78
     2
 67
     7
 79
     3
170
     0
171
     0
290
     0
174
     0
 93
        1
 44
0.0
173
     0
291
     0
 45
0.0
1001
ACAD
1000
AcDbSavedByObjectVersion
1070
     0
  0
VISUALSTYLE
  5
20ED
102
{ACAD_XDICTIONARY
360
434B
102
}
102
{ACAD_REACTORS
330
236
102
}
330
236
100
AcDbVisualStyle
  2
JitterOff
 70
    20
 71
     2
 72
     2
 73
     0
 90
        0
 40
-0.6
 41
-30.0
 62
     5
 63
     7
 74
     1
 91
        4
 64
     7
 65
   257
 75
     1
175
     1
 42
1.0
 92
       10
 66
     7
 43
1.0
 76
     1
 77
     6
 78
     2
 67
     7
 79
     5
170
     0
171
     0
290
     0
174
     0
 93
        1
 44
0.0
173
     0
291
     1
 45
0.0
1001
ACAD
1000
AcDbSavedByObjectVersion
1070
     0
  0
VISUALSTYLE
  5
244
102
{ACAD_XDICTIONARY
360
4336
102
}
102
{ACAD_REACTORS
330
236
102
}
330
236
100
AcDbVisualStyle
  2
Linepattern
 70
    14
 71
     2
 72
     2
 73
     0
 90
        0
 40
-0.6
 41
-30.0
 62
     5
 63
     7
 74
     1
 91
        4
 64
     7
 65
   257
 75
     7
175
     7
 42
1.0
 92
        8
 66
     7
 43
1.0
 76
     1
 77
     6
 78
     2
 67
     7
 79
     5
170
     0
171
     0
290
     0
174
     0
 93
        1
 44
0.0
173
     0
291
     1
 45
0.0
1001
ACAD
1000
AcDbSavedByObjectVersion
1070
     0
  0
VISUALSTYLE
  5
20EE
102
{ACAD_XDICTIONARY
360
434D
102
}
102
{ACAD_REACTORS
330
236
102
}
330
236
100
AcDbVisualStyle
  2
OverhangOff
 70
    21
 71
     2
 72
     2
 73
     0
 90
        0
 40
-0.6
 41
-30.0
 62
     5
 63
     7
 74
     1
 91
        4
 64
     7
 65
   257
 75
     1
175
     1
 42
1.0
 92
        9
 66
     7
 43
1.0
 76
     1
 77
     6
 78
     2
 67
     7
 79
     5
170
     0
171
     0
290
     0
174
     0
 93
        1
 44
0.0
173
     0
291
     1
 45
0.0
1001
ACAD
1000
AcDbSavedByObjectVersion
1070
     0
  0
VISUALSTYLE
  5
240
102
{ACAD_XDICTIONARY
360
432E
102
}
102
{ACAD_REACTORS
330
236
102
}
330
236
100
AcDbVisualStyle
  2
Realistic
 70
     8
 71
     2
 72
     2
 73
     0
 90
        0
 40
-0.6
 41
-30.0
 62
     5
 63
     7
 74
     1
 91
        0
 64
     7
 65
   257
 75
     1
175
     1
 42
1.0
 92
        8
 66
     8
 43
1.0
 76
     1
 77
     6
 78
     2
 67
     7
 79
     5
170
     0
171
     0
290
     0
174
     0
 93
       13
 44
0.0
173
     0
291
     0
 45
0.0
1001
ACAD
1000
AcDbSavedByObjectVersion
1070
     0
  0
VISUALSTYLE
  5
20EC
102
{ACAD_XDICTIONARY
360
4349
102
}
102
{ACAD_REACTORS
330
236
102
}
330
236
100
AcDbVisualStyle
  2
Shaded
 70
    27
 71
     2
 72
     2
 73
     1
 90
        2
 40
-0.6
 41
30.0
 62
     5
 63
     7
 74
     0
 91
        4
 64
     7
 65
   257
 75
     1
175
     1
 42
1.0
 92
        8
 66
   257
 43
1.0
 76
     1
 77
     6
 78
     2
 67
     8
 79
     3
170
     0
171
     0
290
     0
174
     0
 93
        5
 44
0.0
173
     0
291
     0
 45
0.0
1001
ACAD
1000
AcDbSavedByObjectVersion
1070
     0
  0
VISUALSTYLE
  5
20EB
102
{ACAD_XDICTIONARY
360
4347
102
}
102
{ACAD_REACTORS
330
236
102
}
330
236
100
AcDbVisualStyle
  2
Shaded with edges
 70
    26
 71
     2
 72
     2
 73
     1
 90
        2
 40
-0.6
 41
30.0
 62
     5
 63
     7
 74
     1
 91
       10
 64
     7
 65
   257
 75
     2
175
     1
 42
1.0
 92
        8
 66
   257
 43
1.0
 76
     1
 77
     6
 78
     2
 67
     7
 79
     3
170
     0
171
     0
290
     0
174
     0
 93
        5
 44
0.0
173
     0
291
     0
 45
0.0
1001
ACAD
1000
AcDbSavedByObjectVersion
1070
     0
  0
VISUALSTYLE
  5
20E8
102
{ACAD_XDICTIONARY
360
4341
102
}
102
{ACAD_REACTORS
330
236
102
}
330
236
100
AcDbVisualStyle
  2
Shades of Gray
 70
    23
 71
     2
 72
     2
 73
     3
 90
        0
 40
-0.6
 41
-30.0
 62
     5
 63
     7
 74
     2
 91
        2
 64
     7
 65
     7
 75
     1
175
     1
 42
40.0
 92
        8
 66
     7
 43
1.0
 76
     1
 77
     6
 78
     2
 67
     7
 79
     3
170
     0
171
     0
290
     0
174
     0
 93
        1
 44
0.0
173
     0
291
     0
 45
0.0
1001
ACAD
1000
AcDbSavedByObjectVersion
1070
     0
  0
VISUALSTYLE
  5
20E9
102
{ACAD_XDICTIONARY
360
4343
102
}
102
{ACAD_REACTORS
330
236
102
}
330
236
100
AcDbVisualStyle
  2
Sketchy
 70
    24
 71
     1
 72
     2
 73
     2
 90
        0
 40
-0.6
 41
-30.0
 62
     5
 63
     7
 74
     2
 91
        2
 64
     7
 65
     7
 75
     1
175
     1
 42
40.0
 92
       11
 66
     7
 43
1.0
 76
     1
 77
     6
 78
     2
 67
     7
 79
     6
170
     0
171
     0
290
     0
174
     0
 93
        1
 44
0.0
173
     0
291
     0
 45
0.0
1001
ACAD
1000
AcDbSavedByObjectVersion
1070
     0
  0
VISUALSTYLE
  5
243
102
{ACAD_XDICTIONARY
360
4334
102
}
102
{ACAD_REACTORS
330
236
102
}
330
236
100
AcDbVisualStyle
  2
Thicken
 70
    13
 71
     2
 72
     2
 73
     0
 90
        0
 40
-0.6
 41
-30.0
 62
     5
 63
     7
 74
     1
 91
        4
 64
     7
 65
   257
 75
     1
175
     1
 42
1.0
 92
       12
 66
     7
 43
1.0
 76
     1
 77
     6
 78
     2
 67
     7
 79
     5
170
     0
171
     0
290
     0
174
     0
 93
        1
 44
0.0
173
     0
291
     1
 45
0.0
1001
ACAD
1000
AcDbSavedByObjectVersion
1070
     0
  0
VISUALSTYLE
  5
20E6
102
{ACAD_XDICTIONARY
360
433D
102
}
102
{ACAD_REACTORS
330
236
102
}
330
236
100
AcDbVisualStyle
  2
Wireframe
 70
     5
 71
     0
 72
     2
 73
     0
 90
        0
 40
-0.6
 41
-30.0
 62
     5
 63
     7
 74
     1
 91
        4
 64
     7
 65
   257
 75
     1
175
     1
 42
1.0
 92
        0
 66
   257
 43
1.0
 76
     1
 77
     6
 78
     2
 67
     7
 79
     3
170
     0
171
     0
290
     0
174
     0
 93
        1
 44
0.0
173
     0
291
     0
 45
0.0
1001
ACAD
1000
AcDbSavedByObjectVersion
1070
     0
  0
VISUALSTYLE
  5
20EA
102
{ACAD_XDICTIONARY
360
4345
102
}
102
{ACAD_REACTORS
330
236
102
}
330
236
100
AcDbVisualStyle
  2
X-Ray
 70
    25
 71
     2
 72
     2
 73
     1
 90
        1
 40
0.5
 41
-30.0
 62
     5
 63
     7
 74
     1
 91
        0
 64
     7
 65
   257
 75
     1
175
     1
 42
1.0
 92
        8
 66
     7
 43
1.0
 76
     1
 77
     6
 78
     2
 67
     7
 79
     3
170
     0
171
     0
290
     0
174
     0
 93
       13
 44
0.0
173
     0
291
     0
 45
0.0
1001
ACAD
1000
AcDbSavedByObjectVersion
1070
     0
  0
DICTIONARYVAR
  5
22EE
102
{ACAD_REACTORS
330
34
102
}
330
34
100
DictionaryVariables
280
     0
  1
2:1
  0
DICTIONARYVAR
  5
22ED
102
{ACAD_REACTORS
330
34
102
}
330
34
100
DictionaryVariables
280
     0
  1
STANDARD
  0
DICTIONARYVAR
  5
2C0
102
{ACAD_REACTORS
330
34
102
}
330
34
100
DictionaryVariables
280
     0
  1
STANDARD
  0
DICTIONARYVAR
  5
430B
102
{ACAD_REACTORS
330
34
102
}
330
34
100
DictionaryVariables
280
     0
  1
2
  0
DICTIONARYVAR
  5
4060
102
{ACAD_REACTORS
330
34
102
}
330
34
100
DictionaryVariables
280
     0
  1
1
  0
DICTIONARYVAR
  5
4061
102
{ACAD_REACTORS
330
34
102
}
330
34
100
DictionaryVariables
280
     0
  1
1
  0
DICTIONARYVAR
  5
35
102
{ACAD_REACTORS
330
34
102
}
330
34
100
DictionaryVariables
280
     0
  1
0
  0
DICTIONARYVAR
  5
4309
102
{ACAD_REACTORS
330
34
102
}
330
34
100
DictionaryVariables
280
     0
  1
127
  0
DICTIONARYVAR
  5
430A
102
{ACAD_REACTORS
330
34
102
}
330
34
100
DictionaryVariables
280
     0
  1
0
  0
DICTIONARY
  5
C4E
102
{ACAD_REACTORS
330
43
102
}
330
43
100
AcDbDictionary
281
     1
  0
DICTIONARY
  5
15F
102
{ACAD_REACTORS
330
43
102
}
330
43
100
AcDbDictionary
281
     1
  0
XRECORD
  5
2A8
102
{ACAD_REACTORS
330
43
102
}
330
43
100
AcDbXrecord
280
     1
 90
-1023410169
  0
DICTIONARY
  5
229D
330
22
100
AcDbDictionary
280
     1
281
     1
  3
ACAD_XREC_ROUNDTRIP
360
4313
  3
AcPublish_PlotSettingsOverride
360
406A
  3
ADSK_XREC_LAYOUTTHUMBNAIL
360
229E
  0
DICTIONARY
  5
4311
330
1E
100
AcDbDictionary
280
     1
281
     1
  3
ACAD_XREC_ROUNDTRIP
360
4312
  0
DICTIONARY
  5
4314
330
26
100
AcDbDictionary
280
     1
281
     1
  3
ACAD_XREC_ROUNDTRIP
360
4315
  0
DICTIONARY
  5
4318
330
234
100
AcDbDictionary
280
     1
281
     1
  3
ACAD_XREC_ROUNDTRIP
360
4319
  0
DICTIONARY
  5
4316
330
233
100
AcDbDictionary
280
     1
281
     1
  3
ACAD_XREC_ROUNDTRIP
360
4317
  0
DICTIONARY
  5
431A
330
235
100
AcDbDictionary
280
     1
281
     1
  3
ACAD_XREC_ROUNDTRIP
360
431B
  0
DICTIONARY
  5
229F
330
249
100
AcDbDictionary
280
     1
281
     1
  3
ACAD_ROUNDTRIP_2008_TABLESTYLE_CELLSTYLEMAP
360
430C
  3
ACAD_XREC_ROUNDTRIP
360
433C
  0
DICTIONARY
  5
4326
330
23C
100
AcDbDictionary
280
     1
281
     1
  3
ACAD_XREC_ROUNDTRIP
360
4327
  0
DICTIONARY
  5
432A
330
23E
100
AcDbDictionary
280
     1
281
     1
  3
ACAD_XREC_ROUNDTRIP
360
432B
  0
DICTIONARY
  5
4328
330
23D
100
AcDbDictionary
280
     1
281
     1
  3
ACAD_XREC_ROUNDTRIP
360
4329
  0
DICTIONARY
  5
4324
330
23B
100
AcDbDictionary
280
     1
281
     1
  3
ACAD_XREC_ROUNDTRIP
360
4325
  0
DICTIONARY
  5
4332
330
242
100
AcDbDictionary
280
     1
281
     1
  3
ACAD_XREC_ROUNDTRIP
360
4333
  0
DICTIONARY
  5
433A
330
246
100
AcDbDictionary
280
     1
281
     1
  3
ACAD_XREC_ROUNDTRIP
360
433B
  0
DICTIONARY
  5
432C
330
23F
100
AcDbDictionary
280
     1
281
     1
  3
ACAD_XREC_ROUNDTRIP
360
432D
  0
DICTIONARY
  5
4330
330
241
100
AcDbDictionary
280
     1
281
     1
  3
ACAD_XREC_ROUNDTRIP
360
4331
  0
DICTIONARY
  5
434F
330
20EF
100
AcDbDictionary
280
     1
281
     1
  3
ACAD_XREC_ROUNDTRIP
360
4350
  0
DICTIONARY
  5
4338
330
245
100
AcDbDictionary
280
     1
281
     1
  3
ACAD_XREC_ROUNDTRIP
360
4339
  0
DICTIONARY
  5
431C
330
237
100
AcDbDictionary
280
     1
281
     1
  3
ACAD_XREC_ROUNDTRIP
360
431D
  0
DICTIONARY
  5
431E
330
238
100
AcDbDictionary
280
     1
281
     1
  3
ACAD_XREC_ROUNDTRIP
360
431F
  0
DICTIONARY
  5
4320
330
239
100
AcDbDictionary
280
     1
281
     1
  3
ACAD_XREC_ROUNDTRIP
360
4321
  0
DICTIONARY
  5
4322
330
23A
100
AcDbDictionary
280
     1
281
     1
  3
ACAD_XREC_ROUNDTRIP
360
4323
  0
DICTIONARY
  5
433F
330
20E7
100
AcDbDictionary
280
     1
281
     1
  3
ACAD_XREC_ROUNDTRIP
360
4340
  0
DICTIONARY
  5
434B
330
20ED
100
AcDbDictionary
280
     1
281
     1
  3
ACAD_XREC_ROUNDTRIP
360
434C
  0
DICTIONARY
  5
4336
330
244
100
AcDbDictionary
280
     1
281
     1
  3
ACAD_XREC_ROUNDTRIP
360
4337
  0
DICTIONARY
  5
434D
330
20EE
100
AcDbDictionary
280
     1
281
     1
  3
ACAD_XREC_ROUNDTRIP
360
434E
  0
DICTIONARY
  5
432E
330
240
100
AcDbDictionary
280
     1
281
     1
  3
ACAD_XREC_ROUNDTRIP
360
432F
  0
DICTIONARY
  5
4349
330
20EC
100
AcDbDictionary
280
     1
281
     1
  3
ACAD_XREC_ROUNDTRIP
360
434A
  0
DICTIONARY
  5
4347
330
20EB
100
AcDbDictionary
280
     1
281
     1
  3
ACAD_XREC_ROUNDTRIP
360
4348
  0
DICTIONARY
  5
4341
330
20E8
100
AcDbDictionary
280
     1
281
     1
  3
ACAD_XREC_ROUNDTRIP
360
4342
  0
DICTIONARY
  5
4343
330
20E9
100
AcDbDictionary
280
     1
281
     1
  3
ACAD_XREC_ROUNDTRIP
360
4344
  0
DICTIONARY
  5
4334
330
243
100
AcDbDictionary
280
     1
281
     1
  3
ACAD_XREC_ROUNDTRIP
360
4335
  0
DICTIONARY
  5
433D
330
20E6
100
AcDbDictionary
280
     1
281
     1
  3
ACAD_XREC_ROUNDTRIP
360
433E
  0
DICTIONARY
  5
4345
330
20EA
100
AcDbDictionary
280
     1
281
     1
  3
ACAD_XREC_ROUNDTRIP
360
4346
  0
XRECORD
  5
4313
102
{ACAD_REACTORS
330
229D
102
}
330
229D
100
AcDbXrecord
280
     1
102
SHADEPLOT
 70
     0
102
SHADEPLOTRESLEVEL
 70
     2
102
SHADEPLOTCUSTOMDPI
 70
   300
  0
PLOTSETTINGS
  5
406A
102
{ACAD_XDICTIONARY
360
4351
102
}
102
{ACAD_REACTORS
330
229D
102
}
330
229D
100
AcDbPlotSettings
  1

  2
DWG To PDF.pc3
  4
ISO_full_bleed_A4_(297.00_x_210.00_MM)
  6
AM_VIEW1
 40
0.7937499880790711
 41
0.7937499880790711
 42
0.79376220703125
 43
0.7937469482421875
 44
297.0
 45
210.0
 46
-0.7982868514502286
 47
-0.7969520315207319
 48
0.0
 49
0.0
140
0.0
141
0.0
142
2.0
143
1.0
 70
 11940
 72
     1
 73
     0
 74
     1
  7
IMAGIO.ctb
 75
    27
147
2.0
148
-222.7678124261923
149
-167.1098166059182
1001
ACAD_PSEXT
1000
DWG To PDF.pc3
1000
DWG To PDF
1000
ファイル
1000

1070
     0
  0
XRECORD
  5
229E
102
{ACAD_REACTORS
330
229D
102
}
330
229D
100
AcDbXrecord
280
     1
310
280000000001000088000000010008000000000000880000000000000000000000010000000000000000000000000000FFFFFF000000000000000000000000000000000000000000000000000000000000000000330000006600000099000000CC000000FF00000000330000333300006633000099330000CC330000FF3300
310
0000660000336600006666000099660000CC660000FF66000000990000339900006699000099990000CC990000FF99000000CC000033CC000066CC000099CC0000CCCC0000FFCC000000FF000033FF000066FF000099FF0000CCFF0000FFFF000000003300330033006600330099003300CC003300FF003300003333003333
310
33006633330099333300CC333300FF33330000663300336633006666330099663300CC663300FF66330000993300339933006699330099993300CC993300FF99330000CC330033CC330066CC330099CC3300CCCC3300FFCC330000FF330033FF330066FF330099FF3300CCFF3300FFFF330000006600330066006600660099
310
006600CC006600FF00660000336600333366006633660099336600CC336600FF33660000666600336666006666660099666600CC666600FF66660000996600339966006699660099996600CC996600FF99660000CC660033CC660066CC660099CC6600CCCC6600FFCC660000FF660033FF660066FF660099FF6600CCFF6600
310
FFFF660000009900330099006600990099009900CC009900FF00990000339900333399006633990099339900CC339900FF33990000669900336699006666990099669900CC669900FF66990000999900339999006699990099999900CC999900FF99990000CC990033CC990066CC990099CC9900CCCC9900FFCC990000FF99
310
0033FF990066FF990099FF9900CCFF9900FFFF99000000CC003300CC006600CC009900CC00CC00CC00FF00CC000033CC003333CC006633CC009933CC00CC33CC00FF33CC000066CC003366CC006666CC009966CC00CC66CC00FF66CC000099CC003399CC006699CC009999CC00CC99CC00FF99CC0000CCCC0033CCCC0066CC
310
CC0099CCCC00CCCCCC00FFCCCC0000FFCC0033FFCC0066FFCC0099FFCC00CCFFCC00FFFFCC000000FF003300FF006600FF009900FF00CC00FF00FF00FF000033FF003333FF006633FF009933FF00CC33FF00FF33FF000066FF003366FF006666FF009966FF00CC66FF00FF66FF000099FF003399FF006699FF009999FF00CC
310
99FF00FF99FF0000CCFF0033CCFF0066CCFF0099CCFF00CCCCFF00FFCCFF0000FFFF0033FFFF0066FFFF0099FFFF00CCFFFF00FFFFFF00000000000D0D0D001A1A1A00282828003535350043434300505050005D5D5D006B6B6B00787878008686860093939300A1A1A100AEAEAE00BBBBBB00C9C9C900D6D6D600E4E4E400
310
F1F1F100FFFFFF000000000000000000000000000000000000000000000000000000000000000000000000000000000000000000000000000000000000000000000000000000000000000000000000000000000000000000000000000000000000000000000000000000000000000000000000000000000000000000000000
310
00000000000000000000000000000000000000000000000000000000000000000000000000000000000000000000000000000000000000000000000000000000000000000000000000000000000000000000000000000000000000000000000000000000000000000000000000000000000000000000000000000000000000
310
00000000000000000000000000000000000000000000000000000000000000000000000000000000000000000000000000000000000000000000000000000000000000000000000000000000000000000000000000000000000000000000000000000000000000000000000000000000000000000000000000000000000000
310
00000000000000000000000000000000000000000000000000000000000000000000000000000000000000000000000000000000000000000000000000000000000000000000000000000000000000000000000000000000000000000000000000000000000000000000000000000000000000000000000000000000000000
310
00000000000000000000000000000000000000000000000000000000000000000000000000000000000000000000000000000000000000000000000000000000000000000000000000000000000000000000000000000000000000000000000000000000000000000000000000000000000000000000000000000000000000
310
00000000000000000000000000000000000000000000000000000000000000000000000000000000000000000000000000000000000000000000000000000000000000000000000000000000000000000000000000000000000000000000000000000000000000000000000000000000000000000000000000000000000000
310
00000000000000000000000000000000000000000000000000000000000000000000000000000000000000000000000000000000000000000000000000000000000000000000000000000000000000000000000000000000000000000000000000000000000000000000000000000000000000000000000000000000000000
310
00000000000000000000000000000000000000000000000000000000000000000000000000000000000000000000000000000000000000000000000000000000000000000000000000000000000000000000000000000000000000000000000000000000000000000000000000000000000000000000000000000000000000
310
00000000000000000000000000000000000000000000000000000000000000000000000000000000000000000000000000000000000000000000000000000000000000000000000000000000000000000000000000000000000000000000000000000000000000000000000000000000000000000000000000000000000000
310
00000000000000000000000000000000000000000000000000000000000000000000000000000000000000000000000000000000000000000000000000000000000000000000000000000000000000000000000000000000000000000000000000000000000000000000000000000000000000000000000000000000000000
310
00000000000000000000000000000000000000000000000000000000000000000000000000000000000000000000000000000000000000000000000000000000000000000000000000000000000000000000000000000000000000000000000000000000000000000000000000000000000000000000000000000000000000
310
00000000000000000000000000000000000000000000000000000000000000000000000000000000000000000000000000000000000000000000000000000000000000000000000000000000000000000000000000000000000000000000000000000000000000000000000000000000000000000000000000000000000000
310
00000000000000000000000000000000000000000000000000000000000000000000000000000000000000000000000000000000000000000000000000000000000000000000000000000000000000000000000000000000000000000000000000000000000000000000000000000000000000000000000000000000000000
310
00000000000000000000000000000000000000000000000000000000000000000000000000000000000000000000000000000000000000000000000000000000000000000000000000000000000000000000000000000000000000000000000000000000000000000000000000000000000000000000000000000000000000
310
00000000000000000000000000000000000000000000000000000000000000000000000000000000000000000000000000000000000000000000000000000000000000000000000000000000000000000000000000000000000000000000000000000000000000000000000000000000000000000000000000000000000000
310
00000000000000000000000000000000000000000000000000000000000000000000000000000000000000000000000000000000000000000000000000000000000000000000000000000000000000000000000000000000000000000000000000000000000000000000000000000000000000000000000000000000000000
310
00000000000000000000000000000000000000000000000000000000000000000000000000000000000000000000000000000000000000000000000000000000000000000000000000000000000000000000000000000000000000000000000000000000000000000000000000000000000000000000000000000000000000
310
00000000000000000000000000000000000000000000000000000000000000000000000000000000000000000000000000000000000000000000000000000000000000000000000000000000000000000000000000000000000000000000000000000000000000000000000000000000000000000000000000000000000000
310
00000000000000000000000000000000000000000000000000000000000000000000000000000000000000000000000000000000000000000000000000000000000000000000000000000000000000000000000000000000000000000000000000000000000000000000000000000000000000000000000000000000000000
310
00000000000000000000000000000000000000000000000000000000000000000000000000000000000000000000000000000000000000000000000000000000000000000000000000000000000000000000000000000000000000000000000000000000000000000000000000000000000000000000000000000000000000
310
00000000000000000000000000000000000000000000000000000000000000000000000000000000000000000000000000000000000000000000000000000000000000000000000000000000000000000000000000000000000000000000000000000000000000000000000000000000000000000000000000000000000000
310
00000000000000000000000000000000000000000000000000000000000000000000000000000000000000000000000000000000000000000000000000000000000000000000000000000000000000000000000000000000000000000000000000000000000000000000000000000000000000000000000000000000000000
310
00000000000000000000000000000000000000000000000000000000000000000000000000000000000000000000000000000000000000000000000000000000000000000000000000000000000000000000000000000000000000000000000000000000000000000000000000000000000000000000000000000000000000
310
00000000000000000000000000000000000000000000000000000000000000000000000000000000000000000000000000000000000000000000000000000000000000000000000000000000000000000000000000000000000000000000000000000000000000000000000000000000000000000000000000000000000000
310
00000000000000000000000000000000000000000000000000000000000000000000000000000000000000000000000000000000000000000000000000000000000000000000000000000000000000000000000000000000000000000000000000000000000000000000000000000000000000000000000000000000000000
310
00000000000000000000000000000000000000000000000000000000000000000000000000000000000000000000000000000000000000000000000000000000000000000000000000000000000000000000000000000000000000000000000000000000000000000000000000000000000000000000000000000000000000
310
00000000000000000000000000000000000000000000000000000000000000000000000000000000000000000000000000000000000000000000000000000000000000000000000000000000000000000000000000000000000000000000000000000000000000000000000000000000000000000000000000000000000000
310
00000000000000000000000000000000000000000000000000000000000000000000000000000000000000000000000000000000000000000000000000000000000000000000000000000000000000000000000000000000000000000000000000000000000000000000000000000000000000000000000000000000000000
310
00000000000000000000000000000000000000000000000000000000000000000000000000000000000000000000000000000000000000000000000000000000000000000000000000000000000000000000000000000000000000000000000000000000000000000000000000000000000000000000000000000000000000
310
00000000000000000000000000000000000000000000000000000000000000000000000000000000000000000000000000000000000000000000000000000000000000000000000000000000000000000000000000000000000000000000000000000000000000000000000000000000000000000000000000000000000000
310
00000000000000000000000000000000000000000000000000000000000000000000000000000000000000000000000000000000000000000000000000000000000000000000000000000000000000000000000000000000000000000000000000000000000000000000000000000000000000000000000000000000000000
310
00000000000000000000000000000000000000000000000000000000000000000000000000000000000000000000000000000000000000000000000000000000000000000000000000000000000000000000000000000000000000000000000000000000000000000000000000000000000000000000000000000000000000
310
00000000000000000000000000000000000000000000000000000000000000000000000000000000000000000000000000000000000000000000000000000000000000000000000000000000000000000000000000000000000000000000000000000000000000000000000000000000000000000000000000000000000000
310
00000000000000000000000000000000000000000000000000000000000000000000000000000000000000000000000000000000000000000000000000000000000000000000000000000000000000000000000000000000000000000000000000000000000000000000000000000000000000000000000000000000000000
310
00000000000000000000000000000000000000000000000000000000000000000000000000000000000000000000000000000000000000000000000000000000000000000000000000000000000000000000000000000000000000000000000000000000000000000000000000000000000000000000000000000000000000
310
00000000000000000000000000000000000000000000000000000000000000000000000000000000000000000000000000000000000000000000000000000000000000000000000000000000000000000000000000000000000000000000000000000000000000000000000000000000000000000000000000000000000000
310
00000000000000000000000000000000000000000000000000000000000000000000000000000000000000000000000000000000000000000000000000000000000000000000000000000000000000000000000000000000000000000000000000000000000000000000000000000000000000000000000000000000000000
310
00000000000000000000000000000000000000000000000000000000000000000000000000000000000000000000000000000000000000000000000000000000000000000000000000000000000000000000000000000000000000000000000000000000000000000000000000000000000000000000000000000000000000
310
00000000000000000000000000000000000000000000000000000000000000000000000000000000000000000000000000000000000000000000000000000000000000000000000000000000000000000000000000000000000000000000000000000000000000000000000000000000000000000000000000000000000000
310
00000000000000000000000000000000000000000000000000000000000000000000000000000000000000000000000000000000000000000000000000000000000000000000000000000000000000000000000000000000000000000000000000000000000000000000000000000000000000000000000000000000000000
310
00000000000000000000000000000000000000000000000000000000000000000000000000000000000000000000000000000000000000000000000000000000000000000000000000000000000000000000000000000000000000000000000000000000000000000000000000000000000000000000000000000000000000
310
00000000000000000000000000000000000000000000000000000000000000000000000000000000000000000000000000000000000000000000000000000000000000000000000000000000000000000000000000000000000000000000000000000000000000000000000000000000000000000000000000000000000000
310
00000000000000000000000000000000000000000000000000000000000000000000000000000000000000000000000000000000000000000000000000000000000000000000000000000000000000000000000000000000000000000000000000000000000000000000000000000000000000000000000000000000000000
310
00000000000000000000000000000000000000000000000000000000000000000000000000000000000000000000000000000000000000000000000000000000000000000000000000000000000000000000000000000000000000000000000000000000000000000000000000000000000000000000000000000000000000
310
00000000000000000000000000000000000000000000000000000000000000000000000000000000000000000000000000000000000000000000000000000000000000000000000000000000000000000000000000000000000000000000000000000000000000000000000000000000000000000000000000000000000000
310
00000000000000000000000000000000000000000000000000000000000000000000000000000000000000000000000000000000000000000000000000000000000000000000000000000000000000000000000000000000000000000000000000000000000000000000000000000000000000000000000000000000000000
310
00000000000000000000000000000000000000000000000000000000000000000000000000000000000000000000000000000000000000000000000000000000000000000000000000000000000000000000000000000000000000000000000000000000000000000000000000000000000000000000000000000000000000
310
00000000000000000000000000000000000000000000000000000000000000000000000000000000000000000000000000000000000000000000000000000000000000000000000000000000000000000000000000000000000000000000000000000000000000000000000000000000000000000000000000000000000000
310
00000000000000000000000000000000000000000000000000000000000000000000000000000000000000000000000000000000000000000000000000000000000000000000000000000000000000000000000000000000000000000000000000000000000000000000000000000000000000000000000000000000000000
310
00000000000000000000000000000000000000000000000000000000000000000000000000000000000000000000000000000000000000000000000000000000000000000000000000000000000000000000000000000000000000000000000000000000000000000000000000000000000000000000000000000000000000
310
00000000000000000000000000000000000000000000000000000000000000000000000000000000000000000000000000000000000000000000000000000000000000000000000000000000000000000000000000000000000000000000000000000000000000000000000000000000000000000000000000000000000000
310
00000000000000000000000000000000000000000000000000000000000000000000000000000000000000000000000000000000000000000000000000000000000000000000000000000000000000000000000000000000000000000000000000000000000000000000000000000000000000000000000000000000000000
310
00000000000000000000000000000000000000000000000000000000000000000000000000000000000000000000000000000000000000000000000000000000000000000000000000000000000000000000000000000000000000000000000000000000000000000000000000000000000000000000000000000000000000
310
00000000000000000000000000000000000000000000000000000000000000000000000000000000000000000000000000000000000000000000000000000000000000000000000000000000000000000000000000000000000000000000000000000000000000000000000000000000000000000000000000000000000000
310
00000000000000000000000000000000000000000000000000000000000000000000000000000000000000000000000000000000000000000000000000000000000000000000000000000000000000000000000000000000000000000000000000000000000000000000000000000000000000000000000000000000000000
310
00000000000000000000000000000000000000000000000000000000000000000000000000000000000000000000000000000000000000000000000000000000000000000000000000000000000000000000000000000000000000000000000000000000000000000000000000000000000000000000000000000000000000
310
00000000000000000000000000000000000000000000000000000000000000000000000000000000000000000000000000000000000000000000000000000000000000000000000000000000000000000000000000000000000000000000000000000000000000000000000000000000000000000000000000000000000000
310
000000000000000000000000000000000000000000000000000000000000000000000000000000000000000000000000000000000000000000000000000000000000000000000000000000000000000000000000000000002D0000000000000000000000000000000000000000000000000000000000000000000000000000
310
000000000000000000000000000000000000000000002D0000000000000000000000000000000000000000000000000000000000000000000000000000000000000000000000000000000000000000000000000000000000000000000000000000000000000000000000000000000000000000000000000000000000000000
310
0000000000000000000000000000000000000000000000000000000000000000000000000000000000000000000000000000000000000000000000000000000000000000000000000000000000000000000000000000000000002D000000000000000000000000000000000000000000000000000000000000000000000000
310
0000000000000000000000000000000000000000000000002D000000000000000000000000000000000000000000000000000000000000000000000000000000000000000000000000000000000000000000000000000000000000000000000000000000000000000000000000000000000000000000000000000000000000
310
00000000000000000000000000000000000000000000000000000000000000000000000000000000000000000000000000000000000000000000000000000000000000000000000000000000000000000000000000F5F5F5F5F5F5F52DF5F5F5F5F5F5F5000000000000000000000000000000000000000000000000000000
310
00000000000000000000000000000000000000000000000000F52DF5000000000000000000000000000000000000000000000000000000000000000000000000000000000000000000000000000000000000000000000000000000000000000000000000000000000000000000000000000000000000000000000000000000
310
0000000000000000000000000000000000000000000000000000000000000000000000000000000000000000000000000000000000000000000000000000000000000000000000F5F5F5F5F5F5F5F5F5F5F5F5F5F5F5F5280000000000002D000000000000F5F5F5F5F5F5F5F5F5F5F5F5F5F5F5F500000000000000000000
310
000000000000000000000000000000000000000000000000F5F5F5F52DF5F5F5F500000000000000000000000000000000000000000000000000000000000000000000000000000000000000000000000000000000000000000000000000000000000000000000000000000000000000000000000000000000000000000000
310
0000000000000000000000000000000000000000000000000000000000000000000000000000000000000000000000000000000000000000000000000000000000000000000000F5F5F50000000000000000000000F5002828F50000000000002D000000000000F52828F50000000000000000000000F5F5F5000000000000
310
0000000000000000000000000000000000000000000000F5F5F5F5F5F5002DF5F5F5F5F5F5000000000000000000000000000000000000000000000000000000000000000000000000000000000000000000000000000000000000000000000000000000000000000000000000000000000000000000000000000000000000
310
000000000000000000000000000000000000000000000000000000000000000000000000000000000000000000000000000000000000000000000000000000000000000000000000282828F52828282828282828282828F5280000F50000000000002D000000000000F50000282828282828282828282828F52828F5F50000
310
0000000000000000000000000000000000000000000000F5F5F5F5F5000000282D000000F5F5F5F5F50000000000000000000000000000000000000000000000000000000000000000000000000000000000000000000000000000000000000000000000000000000000000000000000000000000000000000000000000000
310
00000000000000000000000000000000000000000000000000000000000000000000000000000000000000000000000000000000000000000000000000000000000000000000000000F5000000F50000000000000000000000F5000000F50000000000002D000000000000F50000F50000000000000000000000F500000000
310
F50000000000000000000000000000000000000000000000F5F5F5F50000F5F5F5F52DF5F5F5000000F5F5F50000000000000000000000000000000000000000000000000000000000000000000000000000000000000000000000000000000000000000000000000000000000000000000000000000000000000000000000
310
000000000000000000000000000000000000000000000000000000000000000000000000000000000000000000000000000000000000000000000000000000000000000000000000000000F5000000F50000000000000000000000F5000000F50000000000002D000000000000F50000F50000000000000000000000F50000
310
0000F50000000000000000000000000000000000000000000000F5F50000F5F500F5F5F5F5F5F5F5F5F5000000F5F50000000000000000000000000000000000000000000000000000000000000000000000000000000000000000000000000000000000000000000000000000000000000000000000000000000000000000
310
0000000000000000000000000000000000000000000000000000000000000000000000000000000000000000000000000000000000000000000000000000000000000000000000000000000000F5000000F50000000000000000000000F5000000F50000000000002D000000000000F50000F50000000000000000000000F5
310
00000000F500000000000000000000000000000000000000000000F5000028F500F5F5F5F5002DF5F5F5F5F5F5280000F5F50000000000000000000000000000000000000000000000000000000000000000000000000000000000000000000000000000000000000000000000000000000000000000000000000000000000
310
00000000000000000000000000000000000000000000000000000000000000000000000000000000000000000000000000000000000000000000000000000000000000000000000000000000000000F5000000F50000000000000000000000F5000000F50000000000002D000000000000F50000F500000000000000000000
310
00F500000000F5000000000000000000000000000000000000000000F5F50028F5F5F500000000002D00000000F5F5F52800F5F5F50000000000000000000000000000000000000000000000000000000000000000000000000000000000000000000000000000000000000000000000000000000000000000000000000000
310
000000000000000000000000000000000000000000000000000000000000000000000000000000000000000000000000000000000000000000000000000000000000000000000000000000000000000000F5000000F50000000000000000000000F5000000F50000000000002D000000000000F50000F50000000000000000
310
000000F500000000F50000000000000000000000000000000000000000F5F50000F5F5F50000000000002D0000000000F500F50000F5F5000000000000000000000000000000000000000000000000000000000000000000000000000000000000000000000000000000000000000000000000000000000000000000000000
310
0000000000000000000000000000000000000000000000000000000000000000000000000000000000000000000000000000000000000000000000000000000000000000000000000000000000000000000000F5000000F50000000000000000000000F5000000F50000000000002D000000000000F50000F5000000000000
310
0000000000F500000000F50000000000000000000000000000000000000000F5F500F5F500F50000000000002D000000000000F5F5F500F5F500000000000000000000000000000000000000000000000000000000000000000000000000000000000000000000000000000000000000000000000000000000000000000000
310
00000000000000000000000000000000000000000000000000000000000000000000000000000000000000000000000000000000000000000000000000000000000000000000000000000000000000000000000000F5000000F50000000000000000000000F5000000F50000000000002D000000000000F50000F500000000
310
00000000000000F500000000F500000000000000000000000000000000000000F500F500F5F5F5000000000000002D000000000000F5F5F52800F5F500000000000000000000000000000000000000000000000000000000000000000000000000000000000000000000000000000000000000000000000000000000000000
310
000000000000000000000000000000000000000000000000000000000000000000000000000000000000000000000000000000000000000000000000000000000000000000000000000000000000000000000000000000F5000000F50000000000000000000000F5000000F50000000000002D000000000000F50000F50000
310
000000000000000000F500000000F500000000000000000000000000000000000000F5F500F5F500F5000000000000002D00000000000000F5F5F500F5F50000000000000000000000000000000000000000000000000000000000000000000000000000000000000000000000000000000000000000000000000000000000
310
0000000000000000000000000000000000000000000000000000000000000000000000000000000000000000000000000000000000000000000000000000000000000000000000000000000000000000000000000000000000F5000000F50000000000000000000000F5000000F500000000000000000000000000F50000F5
310
0000000000000000000000F500000000F500000000000000000000000000000000000000F5F500F5F5F500000000000000000000000000000000F5F5F500F5F5000000000000000000000000000000000000000000000000000000000000000000000000000000000000000000000000000000000000000000000000000000
310
00000000000000000000000000000000000000000000000000000000000000000000000000000000000000000000000000000000000000000000000000000000000000000000000000000000000000000000000000000000000000F5000000F50000000000000000000000F5000000F50000000000002D000000000000F500
310
00F50000000000000000000000F500000000F500000000000000000000000000000000000000F5F528F5F5F500000000000000002D0000000000000000F5F52800F5F5000000000000000000000000000000000000000000000000000000000000000000000000000000000000000000000000000000000000000000000000
310
0000000000000000000000000000000000000000000000000000000000000000000000000000000000000000000000000000000000000000000000000000000000000000000000000000000000000000000000000000000000002D2D2DF52D2D2DF52D2D2D2D2D2D002D2D2D2DF52D2D2DF52D2D2D2D2D2D2D2D002D2D2D2D
310
F52D2DF52D2D2D2D2D2D2D2D2D002DF52D2D2D2DF52D2D2D000000000000000000000000002D2D2D2D2D2D2D2DF52D2D2D2D2D2D2D2D2D2D002D2D2D2D2D2DF52D2D2D2D2D2D2D0000000000000000000000000000000000000000000000000000000000000000000000000000000000000000000000000000000000000000
310
0000000000000000000000000000000000000000000000000000000000000000000000000000000000000000000000000000000000000000000000000000000000000000000000000000000000000000000000000000000000000000000000F5000000F50000000000000000000000F5000000F50000000000002D00000000
310
0000F50000F50000000000000000000000F500000000F500000000000000000000000000000000000000F5F528F5F5F500000000000000002D0000000000000000F5F52800F5F50000000000000000000000000000000000000000000000000000000000000000000000000000000000000000000000000000000000000000
310
00000000000000000000000000000000000000000000000000000000000000000000000000000000000000000000000000000000000000000000000000000000000000000000000000000000000000000000000000000000000000000000000000F5000000F50000000000000000000000F5000000F50000000000002D0000
310
00000000F50000F50000000000000000000000F500000000F500000000000000000000000000000000000000F5F500F5F5F500000000000000002D00000000000000F5F5F500F5F500000000000000000000000000000000000000000000000000000000000000000000000000000000000000000000000000000000000000
310
000000000000000000000000000000000000000000000000000000000000000000000000000000000000000000000000000000000000000000000000000000000000000000000000000000000000000000000000000000000000000000000000000000F5000000F50000000000000000000000F5000000F50000000000002D
310
000000000000F50000F50000000000000000000000F500000000F500000000000000000000000000000000000000F5F500F5F5F500000000000000002D00000000000000F5F5F500F5F50000000000000000000000000000000000000000000000000000000000000000000000000000000000000000000000000000000000
310
0000000000000000000000000000000000000000000000000000000000000000000000000000000000000000000000000000000000000000000000000000000000000000000000000000000000000000000000000000000000000000000000000000000000F5000000F50000000000000000000000F5000000F50000000000
310
002D000000000000F50000F50000000000000000000000F500000000F500000000000000000000000000000000000000F5F50028F5F5F5000000000000002D00000000000000F5F5F500F5F5000000000000000000000000000000000000000000000000000000000000000000000000000000000000000000000000000000
310
00000000000000000000000000000000000000000000000000000000000000000000000000000000000000000000000000000000000000000000000000000000000000000000000000000000000000000000000000000000000000000000000000000000000000F5000000F50000000000000000000000F5000000F5000000
310
0000002D000000000000F50000F50000000000000000000000F500000000F50000000000000000000000000000000000000000F5F500F5F5F5000000000000002D000000000000F5F5F500F5F50000000000000000000000000000000000000000000000000000000000000000000000000000000000000000000000000000
310
000000000000000000000000000000000000000000000000000000000000000000000000000000000000000000000000000000000000000000000000000000000000000000000000000000000000000000000000000000000000000000000000000000000000000000F5000000F50000000000000000000000F5000000F500
310
00000000002D000000000000F50000F50000000000000000000000F500000000F50000000000000000000000000000000000000000F5F50028F5F5F50000000000002D000000000000F5F52800F5F5000000000000000000000000000000000000000000000000000000000000000000000000000000000000000000000000
310
0000000000000000000000000000000000000000000000000000000000000000000000000000000000000000000000000000000000000000000000000000000000000000000000000000000000000000000000000000000000000000000000000000000000000000000000F5000000F50000000000000000000000F5000000
310
F50000000000002D000000000000F50000F50000000000000000000000F500000000F5000000000000000000000000000000000000000000F5F500F500F50000000000002D0000000000F5F5F50000F5F500000000000000000000000000000000000000000000000000000000000000000000000000000000000000000000
310
00000000000000000000000000000000000000000000000000000000000000000000000000000000000000000000000000000000000000000000000000000000000000000000000000000000000000000000000000000000000000000000000000000000000000000000000000F5000000F50000000000000000000000F500
310
0000F50000000000002D000000000000F50000F50000000000000000000000F500000000F5000000000000000000000000000000000000000000F5F50000F500F5F5000000002D000000F5F5F5F50000F5F5000000000000000000000000000000000000000000000000000000000000000000000000000000000000000000
310
000000000000000000000000000000000000000000000000000000000000000000000000000000000000000000000000000000000000000000000000000000000000000000000000000000000000000000000000000000000000000000000000000000000000000000000000000000F5000000F50000000000000000000000
310
F5000000F50000000000002D000000000000F50000F50000000000000000000000F500000000F500000000000000000000000000000000000000000000F5F5F500F5F5F5F5F5F5F5F5F5F5F5F5F5F50000F5F5F500000000000000000000000000000000000000000000000000000000000000000000000000000000000000
310
0000000000000000000000000000000000000000000000000000000000000000000000000000000000000000000000000000000000000000000000000000000000000000000000000000000000000000000000000000000000000000000000000000000000000000000000000000000000F5000000F5000000000000000000
310
0000F5000000F50000000000002D000000000000F50000F50000000000000000000000F500000000F50000000000000000000000000000000000000000000000F500F5002828F5F5F5F52DF5F5F528280000F5F5F5000000000000000000000000000000000000000000000000000000000000000000000000000000000000
310
00000000000000000000000000000000000000000000000000000000000000000000000000000000000000000000000000000000000000000000000000000000000000000000000000000000000000000000000000000000000000000000000000000000000000000000000000000000000000F5282828F528282828000000
310
00000000F5000000F50000000000002D000000000000F50000F50000000000000000282828F5282828F5F5000000000000000000000000000000000000000000000000F5F5F50000282828F52DF528280000F5F5F5000000000000000000000000000000000000000000000000000000000000000000000000000000000000
310
00000000000000000000000000000000000000000000000000000000000000000000000000000000000000000000000000000000000000000000000000000000000000000000000000000000000000000000000000000000000000000000000000000000000000000000000000000000000000000000F5F500F50000000028
310
282828282828F5000000F50000000000002D000000000000F50000282828282828282828000000F500F5F5000000000000000000000000000000000000000000000000000000F5F5F5F5000000002D000000F5F5F5F50000000000000000000000000000000000000000000000000000000000000000000000000000000000
310
0000000000000000000000000000000000000000000000000000000000000000000000000000000000000000000000000000000000000000000000000000000000000000000000000000000000000000000000000000000000000000000000000000000000000000000000000000000000000000000000000000F5F5F5F5F5
310
F5F5F5F500000000F5282800F50000000000002D000000000000F52828F500000000F5F5F5F5F5F5F5F5F500000000000000000000000000000000000000000000000000000000000000F500F5F5F5F52DF5F5F5F5F5F500000000000000000000000000000000000000000000000000000000000000000000000000000000
310
00000000000000000000000000000000000000000000000000000000000000000000000000000000000000000000000000000000000000000000000000000000000000000000000000000000000000000000000000000000000000000000000000000000000000000000000000000000000000000000000000000000000000
310
000000000000F5F5F5F5F5F5F52828F5F5F5F5F5F52DF5F5F5F5F5F5F5F5F5F5F5F5F5F50000000000000000000000000000000000000000000000000000000000000000000000000000000000F5F5F5F5F52DF5F5F5F500000000000000000000000000000000000000000000000000000000000000000000000000000000
310
00000000000000000000000000000000000000000000000000000000000000000000000000000000000000000000000000000000000000000000000000000000000000000000000000000000000000000000000000000000000000000000000000000000000000000000000000000000000000000000000000000000000000
310
00000000000000000000000000000000000000000000002D0000000000000000000000000000000000000000000000000000000000000000000000000000000000000000000000000000000000000000000000002D000000000000000000000000000000000000000000000000000000000000000000000000000000000000
310
00000000000000000000000000000000000000000000000000000000000000000000000000000000000000000000000000000000000000000000000000000000000000000000000000000000000000000000000000000000000000000000000000000000000000000000000000000000000000000000000000000000000000
310
000000000000000000000000000000000000000000000000002D0000000000000000000000000000000000000000000000000000000000000000000000000000000000000000000000000000000000000000000000002D00000000000000000000000000000000000000000000000000000000000000000000000000000000
310
00000000000000000000000000000000000000000000000000000000000000000000000000000000000000000000000000000000000000000000000000000000000000000000000000000000000000000000000000000000000000000000000000000000000000000000000000000000000000000000000000000000000000
310
0000000000000000000000000000000000000000000000000000002D0000000000000000000000000000000000000000000000000000000000000000000000000000000000000000000000000000000000000000000000002D0000000000000000000000000000000000000000000000000000000000000000000000000000
310
00000000000000000000000000000000000000000000000000000000000000000000000000000000000000000000000000000000000000000000000000000000000000000000000000000000000000000000000000000000000000000000000000000000000000000000000000000000000000000000000000000000000000
310
00000000000000000000000000000000000000000000000000000000000000000000000000000000000000000000000000000000000000000000000000000000000000000000000000000000000000000000000000000000000000000000000000000000000000000000000000000000000000000000000000000000000000
310
00000000000000000000000000000000000000000000000000000000000000000000000000000000000000000000000000000000000000000000000000000000000000000000000000000000000000000000000000000000000000000000000000000000000000000000000000000000000000000000000000000000000000
310
00000000000000000000000000000000000000000000000000000000000000000000000000000000000000000000000000000000000000000000000000000000000000000000000000000000000000000000000000000000000000000000000000000000000000000000000000000000000000000000000000000000000000
310
00000000000000000000000000000000000000000000000000000000000000000000000000000000000000000000000000000000000000000000000000000000000000000000000000000000000000000000000000000000000000000000000000000000000000000000000000000000000000000000000000000000000000
310
00000000000000000000000000000000000000000000000000000000000000000000000000000000000000000000000000000000000000000000000000000000000000000000000000000000000000000000000000000000000000000000000000000000000000000000000000000000000000000000000000000000000000
310
00000000000000000000000000000000000000000000000000000000000000000000000000000000000000000000000000000000000000000000000000000000000000000000000000000000000000000000000000000000000000000000000000000000000000000000000000000000000000000000000000000000000000
310
00000000000000000000000000000000000000000000000000000000000000000000000000000000000000000000000000000000000000000000000000000000000000000000000000000000000000000000000000000000000000000000000000000000000000000000000000000000000000000000000000000000000000
310
00000000000000000000000000000000000000000000000000000000000000000000000000000000000000000000000000000000000000000000000000000000000000000000000000000000000000000000000000000000000000000000000000000000000000000000000000000000000000000000000000000000000000
310
00000000000000000000000000000000000000000000000000000000000000000000000000000000000000000000000000000000000000000000000000000000000000000000000000000000000000000000000000000000000000000000000000000000000000000000000000000000000000000000000000000000000000
310
00000000000000000000000000000000000000000000000000000000000000000000000000000000000000000000000000000000000000000000000000000000000000000000000000000000000000000000000000000000000000000000000000000000000000000000000000000000000000000000000000000000000000
310
00000000000000000000000000000000000000000000000000000000000000000000000000000000000000000000000000000000000000000000000000000000000000000000000000000000000000000000000000000000000000000000000000000000000000000000000000000000000000000000000000000000000000
310
00000000000000000000000000000000000000000000000000000000000000000000000000000000000000000000000000000000000000000000000000000000000000000000000000000000000000000000000000000000000000000000000000000000000000000000000000000000000000000000000000000000000000
310
00000000000000000000000000000000000000000000000000000000000000000000000000000000000000000000000000000000000000000000000000000000000000000000000000000000000000000000000000000000000000000000000000000000000000000000000000000000000000000000000000000000000000
310
00000000000000000000000000000000000000000000000000000000000000000000000000000000000000000000000000000000000000000000000000000000000000000000000000000000000000000000000000000000000000000000000000000000000000000000000000000000000000000000000000000000000000
310
00000000000000000000000000000000000000000000000000000000000000000000000000000000000000000000000000000000000000000000000000000000000000000000000000000000000000000000000000000000000000000000000000000000000000000000000000000000000000000000000000000000000000
310
00000000000000000000000000000000000000000000000000000000000000000000000000000000000000000000000000000000000000000000000000000000000000000000000000000000000000000000000000000000000000000000000000000000000000000000000000000000000000000000000000000000000000
310
00000000000000000000000000000000000000000000000000000000000000000000000000000000000000000000000000000000000000000000000000000000000000000000000000000000000000000000000000000000000000000000000000000000000000000000000000000000000000000000000000000000000000
310
00000000000000000000000000000000000000000000000000000000000000000000000000000000000000000000000000000000000000000000000000000000000000000000000000000000000000000000000000000000000000000000000000000000000000000000000000000000000000000000000000000000000000
310
00000000000000000000000000000000000000000000000000000000000000000000000000000000000000000000000000000000000000000000000000000000000000000000000000000000000000000000000000000000000000000000000000000000000000000000000000000000000000000000000000000000000000
310
00000000000000000000000000000000000000000000000000000000000000000000000000000000000000000000000000000000000000000000000000000000000000000000000000000000000000000000000000000000000000000000000000000000000000000000000000000000000000000000000000000000000000
310
00000000000000000000000000000000000000000000000000000000000000000000000000000000000000000000000000000000000000000000000000000000000000000000000000000000000000000000000000000000000000000000000000000000000000000000000000000000000000000000000000000000000000
310
00000000000000000000000000000000000000000000000000000000000000000000000000000000000000000000000000000000000000000000000000000000000000000000000000000000000000000000000000000000000000000000000000000000000000000000000000000000000000000000000000000000000000
310
00000000000000000000000000000000000000000000000000000000000000000000000000000000000000000000000000000000000000000000000000000000000000000000000000000000000000000000000000000000000000000000000000000000000000000000000000000000000000000000000000000000000000
310
00000000000000000000000000000000000000000000000000000000000000000000000000000000000000000000000000000000000000000000000000000000000000000000000000000000000000000000000000000000000000000000000000000000000000000000000000000000000000000000000000000000000000
310
00000000000000000000000000000000000000000000000000000000000000000000000000000000000000000000000000000000000000000000000000000000000000000000000000000000000000000000000000000000000000000000000000000000000000000000000000000000000000000000000000000000000000
310
00000000000000000000000000000000000000000000000000000000000000000000000000000000000000000000000000000000000000000000000000000000000000000000000000000000000000000000000000000000000000000000000000000000000000000000000000000000000000000000000000000000000000
310
00000000000000000000000000000000000000000000000000000000000000000000000000000000000000000000000000000000000000000000000000000000000000000000000000000000000000000000000000000000000000000000000000000000000000000000000000000000000000000000000000000000000000
310
00000000000000000000000000000000000000000000000000000000000000000000000000000000000000000000000000000000000000000000000000000000000000000000000000000000000000000000000000000000000000000000000000000000000000000000000000000000000000000000000000000000000000
310
00000000000000000000000000000000000000000000000000000000000000000000000000000000000000000000000000000000000000000000000000000000000000000000000000000000000000000000000000000000000000000000000000000000000000000000000000000000000000000000000000000000000000
310
00000000000000000000000000000000000000000000000000000000000000000000000000000000000000000000000000000000000000000000000000000000000000000000000000000000000000000000000000000000000000000000000000000000000000000000000000000000000000000000000000000000000000
310
00000000000000000000000000000000000000000000000000000000000000000000000000000000000000000000000000000000000000000000000000000000000000000000000000000000000000000000000000000000000000000000000000000000000000000000000000000000000000000000000000000000000000
310
00000000000000000000000000000000000000000000000000000000000000000000000000000000000000000000000000000000000000000000000000000000000000000000000000000000000000000000000000000000000000000000000000000000000000000000000000000000000000000000000000000000000000
310
000000000000000000000000000000000000000000000000000000000000000000000000000000000000000000000000000000000000000000000000002D0000000000000000000000000000000000000000000000000000000000000000000000000000000000000000000000000000000000000000000000000000000000
310
00000000000000000000000000000000000000000000000000000000000000000000000000000000000000000000000000000000000000000000000000000000000000000000000000000000000000000000000000000000000000000000000000000000000000000000000000000000000000000000000000000000000000
310
0000000000000000000000000000000000000000000000000000000000000000000000000000000000000000000000000000000000000000000000000000002D000000000000000000000000000000000000000000000000000000000000000000000000000000000000000000000000000000000000000000000000000000
310
00000000000000000000000000000000000000000000000000000000000000000000000000000000000000000000000000000000000000000000000000000000000000000000000000000000000000000000000000000000000000000000000000000000000000000000000000000000000000000000000000000000000000
310
00000000000000000000000000000000000000000000000000000000000000000000000000000000000000000000000000000000000000000000000000000000002D00000000000000000000000000000000000000000000000000000000000000000000000000000000000000000000000000000000000000000000000000
310
00000000000000000000000000000000000000000000000000000000000000000000000000000000000000000000000000000000000000000000000000000000000000000000000000000000000000000000000000000000000000000000000000000000000000000000000000000000000000000000000000000000000000
310
0000000000000000000000000000000000000000000000000000000000000000000000000000000000000000000000000000000000F5F5F5F5F5F5F528F5F5F5F5F5F52DF5F5F5F5F5F5F5F5F5F5F5F5F5F5000000000000000000000000000000000000000000000000000000000000000000000000000000000000000000
310
00000000000000000000000000000000000000000000000000000000000000000000000000000000000000000000000000000000000000000000000000000000000000000000000000000000000000000000000000000000000000000000000000000000000000000000000000000000000000000000000000000000000000
310
00000000000000000000000000000000000000000000000000000000000000000000000000000000000000000000F5F5F5F5F5F5F5F5F5000000F5002828F50000000000002D000000000000F52828F500000000F5F5F5F5F5F5F5F5F500000000000000000000000000000000000000000000000000000000000000000000
310
00000000000000000000000000000000000000000000000000000000000000000000000000000000000000000000000000000000000000000000000000000000000000000000000000000000000000000000000000000000000000000000000000000000000000000000000000000000000000000000000000000000000000
310
00000000000000000000000000000000000000000000000000000000000000000000000000000000000000000000F5F5F50000000028282828282828F5280000F50000000000002D000000000000F50000282828282828282800000000F500F5F5000000000000000000000000000000000000000000000000000000000000
310
00000000000000000000000000000000000000000000000000000000000000000000000000000000000000000000000000000000000000000000000000000000000000000000000000000000000000000000000000000000000000000000000000000000000000000000000000000000000000000000000000000000000000
310
00000000000000000000000000000000000000000000000000000000000000000000000000000000000000000000F5282828F52828282800000000000000F5000000F50000000000002D000000000000F50000F50000000000000028282828F5282828F5F50000000000000000000000000000000000000000000000000000
310
00000000000000000000000000000000000000000000000000000000000000000000000000000000000000000000000000000000000000000000000000000000000000000000000000000000000000000000000000000000000000000000000000000000000000000000000000000000000000000000000000000000000000
310
000000000000000000000000000000000000000000000000000000000000000000000000000000000000000000000000F5000000F50000000000000000000000F5000000F50000000000002D000000000000F50000F50000000000000000000000F500000000F5000000000000000000000000000000000000000000000000
310
00000000000000000000000000000000000000000000000000000000000000000000000000000000000000000000000000000000000000000000000000000000000000000000000000000000000000000000000000000000000000000000000000000000000000000000000000000000000000000000000000000000000000
310
0000000000000000000000000000000000000000000000000000000000000000000000000000000000000000000000000000F5000000F50000000000000000000000F5000000F50000000000002D000000000000F50000F50000000000000000000000F500000000F500000000000000000000000000000000000000000000
310
00000000000000000000000000000000000000000000000000000000000000000000000000000000000000000000000000000000000000000000000000000000000000000000000000000000000000000000000000000000000000000000000000000000000000000000000000000000000000000000000000000000000000
310
00000000000000000000000000000000000000000000000000000000000000000000000000000000000000000000000000000000F5000000F50000000000000000000000F5000000F50000000000002D000000000000F50000F50000000000000000000000F500000000F50000000000000000000000000000000000000000
310
00000000000000000000000000000000000000000000000000000000000000000000000000000000000000000000000000000000000000000000000000000000000000000000000000000000000000000000000000000000000000000000000000000000000000000000000000000000000000000000000000000000000000
310
000000000000000000000000000000000000000000000000000000000000000000000000000000000000000000000000000000000000F5000000F50000000000000000000000F5000000F50000000000002D000000000000F50000F50000000000000000000000F500000000F5000000000000000000000000000000000000
310
00000000000000000000000000000000000000000000000000000000000000000000000000000000000000000000000000000000000000000000000000000000000000000000000000000000000000000000000000000000000000000000000000000000000000000000000000000000000000000000000000000000000000
310
0000000000000000000000000000000000000000000000000000000000000000000000000000000000000000000000000000000000000000F5000000F50000000000000000000000F5000000F50000000000002D000000000000F50000F50000000000000000000000F500000000F500000000000000000000000000000000
310
00000000000000000000000000000000000000000000000000000000000000000000000000000000000000000000000000000000000000000000000000000000000000000000000000000000000000000000000000000000000000000000000000000000000000000000000000000000000000000000000000000000000000
310
00000000000000000000000000000000000000000000000000000000000000000000000000000000000000000000000000000000000000000000F5000000F50000000000000000000000F5000000F50000000000002D000000000000F50000F50000000000000000000000F500000000F50000000000000000000000000000
310
00000000000000000000000000000000000000000000000000000000000000000000000000000000000000000000000000000000000000000000000000000000000000000000000000000000000000000000000000000000000000000000000000000000000000000000000000000000000000000000000000000000000000
310
000000000000000000000000000000000000000000000000000000000000000000000000000000000000000000000000000000000000000000000000F5000000F50000000000000000000000F5000000F50000000000002D000000000000F50000F50000000000000000000000F500000000F5000000000000000000000000
310
00000000000000000000000000000000000000000000000000000000000000000000000000000000000000000000000000000000000000000000000000000000000000000000000000000000000000000000000000000000000000000000000000000000000000000000000000000000000000000000000000000000000000
310
0000000000000000000000000000000000000000000000000000000000000000000000000000000000000000000000000000000000000000000000000000F5000000F50000000000000000000000F5000000F50000000000002D000000000000F50000F50000000000000000000000F500000000F500000000000000000000
310
00000000F5F5F5F5F5F5F500F5F50000F5F500F5F50000000000F500F5F50000F500F5F5F5F5F5F5000000000000000000000000000000000000000000000000000000000000000000000000000000000000000000000000000000000000000000000000000000000000000000000000000000000000000000000000000000
310
00000000000000000000000000000000000000000000000000000000000000000000000000000000000000000000000000000000000000000000000000000000F5000000F50000000000000000000000F5000000F50000000000002D000000000000F50000F50000000000000000000000F500000000F50000000000000000
310
00000000000000F5F50000000000F5F5000000F500F5F5F500000000F5F5F5F5F5F5F5F5F500F500F50000000000000000000000000000000000000000000000000000000000000000000000000000000000000000000000000000000000000000000000000000000000000000000000000000000000000000000000000000
310
000000000000000000000000000000000000000000000000000000000000000000000000000000000000000000000000000000000000000000000000000000000000F5000000F50000000000000000000000F5000000F50000000000002D000000000000F50000F50000000000000000000000F500000000F5000000000000
310
0000000000000000F5F5F50000F5F500000000F5F5F5F5F5F50000000000F5F5F5F50000F500F5F5F5F5F5F50000000000000000000000000000000000000000000000000000000000000000000000000000000000000000000000000000000000000000000000000000000000000000000000000000000000000000000000
310
00000000000000000000000000000000000000000000000000000000000000000000000000000000000000000000000000000000000000000000000000000000002D2D2D2D2D2D2D2D2D2D2D2D2D2D002D2D2D2D2D2D2D2D2D2D2D2D2D2D2D2D2D002D2D2D2D2D2D2D2D2D2D2D2D2D2D2D2D2D002D2D2D2D2D2D2D2D2D0000
310
0000000000000000000000F50000000000000000000000F5F500000000000000F500F5F50000F500F500F500F500000000000000000000000000000000000000000000000000000000000000000000000000000000000000000000000000000000000000000000000000000000000000000000000000000000000000000000
310
00000000000000000000000000000000000000000000000000000000000000000000000000000000000000000000000000000000000000000000000000000000000000000000F5000000F50000000000000000000000F5000000F50000000000002D000000000000F50000F50000000000000000000000F500000000F50000
310
00000000000000000000000000000000000000000000000000000000000000000000000000000000000000000000000000000000000000000000000000000000000000000000000000000000000000000000000000000000000000000000000000000000000000000000000000000000000000000000000000000000000000
310
000000000000000000000000000000000000000000000000000000000000000000000000000000000000000000000000000000000000000000000000000000000000000000000000F5000000F50000000000000000000000F5000000F500000000000000000000000000F50000F50000000000000000000000F500000000F5
310
00000000000000000000000000000000000000000000000000000000000000000000000000000000000000000000000000000000000000000000000000000000000000000000000000000000000000000000000000000000000000000000000000000000000000000000000000000000000000000000000000000000000000
310
0000000000000000000000000000000000000000000000000000000000000000000000000000000000000000000000000000000000000000000000000000000000000000000000000000F5000000F50000000000000000000000F5000000F50000000000002D000000000000F50000F50000000000000000000000F5000000
310
00F50000000000000000000000000000000000000000000000000000000000000000000000000000000000000000000000000000000000000000000000000000000000000000000000000000000000000000000000000000000000000000000000000000000000000000000000000000000000000000000000000000000000
310
00000000000000000000000000000000000000000000000000000000000000000000000000000000000000000000000000000000000000000000000000000000000000000000000000000000F5000000F50000000000000000000000F5000000F50000000000002D000000000000F50000F50000000000000000000000F500
310
000000F5000000000000000000000000000000000000000000000000000000000000000000000000000000000000000000000000000000000000000000000000000000000000000000000000000000000000000000000000000000000000000000000000000000000000000000000000000000000000000000000000000000
310
000000000000000000000000000000000000000000000000000000000000000000000000000000000000000000000000000000000000000000000000000000000000000000000000000000000000F5000000F50000000000000000000000F5000000F50000000000002D000000000000F50000F50000000000000000000000
310
F500000000F500000000000000000000000000000000000000000000000000000000000000000000000000000000000000000000000000000000000000000000000000000000000000000000000000000000000000000000000000000000000000000000000000000000000000000000000000000000000000000000000000
310
0000000000000000000000000000000000000000000000000000000000000000000000000000000000000000000000000000000000000000000000000000000000000000000000000000000000000000F5000000F50000000000000000000000F5000000F50000000000002D000000000000F50000F5000000000000000000
310
0000F500000000F50000000000000000000000000000000000000000000000000000000000000000000000000000000000000000000000000000000000000000000000000000000000000000000000000000000000000000000000000000000000000000000000000000000000000000000000000000000000000000000000
310
00000000000000000000000000000000000000000000000000000000000000000000000000000000000000000000000000000000000000000000000000000000000000000000000000000000000000000000F5000000F50000000000000000000000F5000000F50000000000002D000000000000F50000F500000000000000
310
00000000F500000000F5000000000000000000000000000000000000000000000000000000000000000000000000000000000000000000000000000000000000000000000000000000000000000000000000000000000000000000000000000000000000000000000000000000000000000000000000000000000000000000
310
000000000000000000000000000000000000000000000000000000000000000000000000000000000000000000000000000000000000000000000000000000000000000000000000000000000000000000000000F5000000F50000000000000000000000F5000000F50000000000002D000000000000F50000F50000000000
310
000000000000F500000000F500000000000000000000000000000000000000000000000000000000000000000000000000000000000000000000000000000000000000000000000000000000000000000000000000000000000000000000000000000000000000000000000000000000000000000000000000000000000000
310
0000000000000000000000000000000000000000000000000000000000000000000000000000000000000000000000000000000000000000000000000000000000000000000000000000000000000000000000000000F5000000F50000000000000000000000F5000000F50000000000002D000000000000F50000F5000000
310
0000000000000000F500000000F50000000000000000000000000000000000000000000000000000000000000000000000000000000000000000000000000000000000000000000000000000000000000000000000000000000000000000000000000000000000000000000000000000000000000000000000000000000000
310
00000000000000000000000000000000000000000000000000000000000000000000000000000000000000000000000000000000000000000000000000000000000000000000000000000000000000000000000000000000F5000000F50000000000000000000000F5000000F50000000000002D000000000000F50000F500
310
00000000000000000000F500000000F5000000000000000000000000000000000000000000000000000000000000000000000000000000000000000000000000000000000000000000000000000000000000000000000000000000000000000000000000000000000000000000000000000000000000000000000000000000
310
00000000000000000000000000000000000000000000000000000000000000000000000000000000000000000000000000000000000000000000000000000000000000000000000000000000000000000000000000000000000000282828F52828282828282828282828F5000000F50000000000002D000000000000F50000
310
282828282828282828282828F52828F5F50000000000000000000000000000000000000000000000000000000000000000000000000000000000000000000000000000000000000000000000000000000000000000000000000000000000000000000000000000000000000000000000000000000000000000000000000000
310
00000000000000000000000000000000000000000000000000000000000000000000000000000000000000000000000000000000000000000000000000000000000000000000000000000000000000000000000000000000000000000000F5F5F50000000000000000000000F5282800F50000000000002D000000000000F5
310
2828F50000000000000000000000F5F5F50000000000000000000000000000000000000000000000000000000000000000000000000000000000000000000000000000000000000000000000000000000000000000000000000000000000000000000000000000000000000000000000000000000000000000000000000000
310
0000000000000000000000000000000000000000000000000000000000000000000000000000000000000000000000000000000000000000000000000000000000000000000000000000000000000000000000000000000000000000000000000000F5F5F5F5F5F5F5F5F5F5F5F5F5F5F528280000000000002D0000000000
310
00F5F5F5F5F5F5F5F5F5F5F5F5F5F5F5F50000000000000000000000000000000000000000000000000000000000000000000000000000000000000000000000000000000000000000000000000000000000000000000000000000000000000000000000000000000000000000000000000000000000000000000000000000
310
0000000000000000000000000000000000000000000000000000000000000000000000000000000000000000000000000000000000000000000000000000000000000000000000000000000000000000000000000000000000000000000000000000000000000000000000000000000000000000F5F5F5F5F5F5F52DF5F5F5
310
F5F5F5F5000000000000000000000000000000000000000000000000000000000000000000000000000000000000000000000000000000000000000000000000000000000000000000000000000000000000000000000000000000000000000000000000000000000000000000000000000000000000000000000000000000
310
00000000000000000000000000000000000000000000000000000000000000000000000000000000000000000000000000000000000000000000000000000000000000000000000000000000000000000000000000000000000000000000000000000000000000000000000000000000000000000000000000000000002D00
310
00000000000000000000000000000000000000000000000000000000000000000000000000000000000000000000000000000000000000000000000000000000000000000000000000000000000000000000000000000000000000000000000000000000000000000000000000000000000000000000000000000000000000
310
00000000000000000000000000000000000000000000000000000000000000000000000000000000000000000000000000000000000000000000000000000000000000000000000000000000000000000000000000000000000000000000000000000000000000000000000000000000000000000000000000000000000000
310
2D000000000000000000000000000000000000000000000000000000000000000000000000000000000000000000000000000000000000000000000000000000000000000000000000000000000000000000000000000000000000000000000000000000000000000000000000000000000000000000000000000000000000
310
00000000000000000000000000000000000000000000000000000000000000000000000000000000000000000000000000000000000000000000000000000000000000000000000000000000000000000000000000000000000000000000000000000000000000000000000000000000000000000000000000000000000000
310
00000000000000000000000000000000000000000000000000000000000000000000000000000000000000000000000000000000000000000000000000000000000000000000000000000000000000000000000000000000000000000000000000000000000000000000000000000000000000000000000000000000000000
310
00000000000000000000000000000000000000000000000000000000000000000000000000000000000000000000000000000000000000000000000000000000000000000000000000000000000000000000000000000000000000000000000000000000000000000000000000000000000000000000000000000000000000
310
00000000000000000000000000000000000000000000000000000000000000000000000000000000000000000000000000000000000000000000000000000000000000000000000000000000000000000000000000000000000000000000000000000000000000000000000000000000000000000000000000000000000000
310
00000000000000000000000000000000000000000000000000000000000000000000000000000000000000000000000000000000000000000000000000000000000000000000000000000000000000000000000000000000000000000000000000000000000000000000000000000000000000000000000000000000000000
310
00000000000000000000000000000000000000000000000000000000000000000000000000000000000000000000000000000000000000000000000000000000000000000000000000000000000000000000000000000000000000000000000000000000000000000000000000000000000000000000000000000000000000
310
00000000000000000000000000000000000000000000000000000000000000000000000000000000000000000000000000000000000000000000000000000000000000000000000000000000000000000000000000000000000000000000000000000000000000000000000000000000000000000000000000000000000000
310
00000000000000000000000000000000000000000000000000000000000000000000000000000000000000000000000000000000000000000000000000000000000000000000000000000000000000000000000000000000000000000000000000000000000000000000000000000000000000000000000000000000000000
310
00000000000000000000000000000000000000000000000000000000000000000000000000000000000000000000000000000000000000000000000000000000000000000000000000000000000000000000000000000000000000000000000000000000000000000000000000000000000000000000000000000000000000
310
00000000000000000000000000000000000000000000000000000000000000000000000000000000000000000000000000000000000000000000000000000000000000000000000000000000000000000000000000000000000000000000000000000000000000000000000000000000000000000000000000000000000000
310
00000000000000000000000000000000000000000000000000000000000000000000000000000000000000000000000000000000000000000000000000000000000000000000000000000000000000000000000000000000000000000000000000000000000000000000000000000000000000000000000000000000000000
310
00000000000000000000000000000000000000000000000000000000000000000000000000000000000000000000000000000000000000000000000000000000000000000000000000000000000000000000000000000000000000000000000000000000000000000000000000000000000000000000000000000000000000
310
00000000000000000000000000000000000000000000000000000000000000000000000000000000000000000000000000000000000000000000000000000000000000000000000000000000000000000000000000000000000000000000000000000000000000000000000000000000000000000000000000000000000000
310
00000000000000000000000000000000000000000000000000000000000000000000000000000000000000000000000000000000000000000000000000000000000000000000000000000000000000000000000000000000000000000000000000000000000000000000000000000000000000000000000000000000000000
310
00000000000000000000000000000000000000000000000000000000000000000000000000000000000000000000000000000000000000000000000000000000000000000000000000000000000000000000000000000000000000000000000000000000000000000000000000000000000000000000000000000000000000
310
00000000000000000000000000000000000000000000000000000000000000000000000000000000000000000000000000000000000000000000000000000000000000000000000000000000000000000000000000000000000000000000000000000000000000000000000000000000000000000000000000000000000000
310
00000000000000000000000000000000000000000000000000000000000000000000000000000000000000000000000000000000000000000000000000000000000000000000000000000000000000000000000000000000000000000000000000000000000000000000000000000000000000000000000000000000000000
310
00000000000000000000000000000000000000000000000000000000000000000000000000000000000000000000000000000000000000000000000000000000000000000000000000000000000000000000000000000000000000000000000000000000000000000000000000000000000000000000000000000000000000
310
00000000000000000000000000000000000000000000000000000000000000000000000000000000000000000000000000000000000000000000000000000000000000000000000000000000000000000000000000000000000000000000000000000000000000000000000000000000000000000000000000000000000000
310
00000000000000000000000000000000000000000000000000000000000000000000000000000000000000000000000000000000000000000000000000000000000000000000000000000000000000000000000000000000000000000000000000000000000000000000000000000000000000000000000000000000000000
310
00000000000000000000000000000000000000000000000000000000000000000000000000000000000000000000000000000000000000000000000000000000000000000000000000000000000000000000000000000000000000000000000000000000000000000000000000000000000000000000000000000000000000
310
00000000000000000000000000000000000000000000000000000000000000000000000000000000000000000000000000000000000000000000000000000000000000000000000000000000000000000000000000000000000000000000000000000000000000000000000000000000000000000000000000000000000000
310
00000000000000000000000000000000000000000000000000000000000000000000000000000000000000000000000000000000000000000000000000000000000000000000000000000000000000000000000000000000000000000000000000000000000000000000000000000000000000000000000000000000000000
310
00000000000000000000000000000000000000000000000000000000000000000000000000000000000000000000000000000000000000000000000000000000000000000000000000000000000000000000000000000000000000000000000000000000000000000000000000000000000000000000000000000000000000
310
00000000000000000000000000000000000000000000000000000000000000000000000000000000000000000000000000000000000000000000000000000000000000000000000000000000000000000000000000000000000000000000000000000000000000000000000000000000000000000000000000000000000000
310
00000000000000000000000000000000000000000000000000000000000000000000000000000000000000000000000000000000000000000000000000000000000000000000000000000000000000000000000000000000000000000000000000000000000000000000000000000000000000000000000000000000000000
310
00000000000000000000000000000000000000000000000000000000000000000000000000000000000000000000000000000000000000000000000000000000000000000000000000000000000000000000000000000000000000000000000000000000000000000000000000000000000000000000000000000000000000
310
00000000000000000000000000000000000000000000000000000000000000000000000000000000000000000000000000000000000000000000000000000000000000000000000000000000000000000000000000000000000000000000000000000000000000000000000000000000000000000000000000000000000000
310
00000000000000000000000000000000000000000000000000000000000000000000000000000000000000000000000000000000000000000000000000000000000000000000000000000000000000000000000000000000000000000000000000000000000000000000000000000000000000000000000000000000000000
310
00000000000000000000000000000000000000000000000000000000000000000000000000000000000000000000000000000000000000000000000000000000000000000000000000000000000000000000000000000000000000000000000000000000000000000000000000000000000000000000000000000000000000
310
00000000000000000000000000000000000000000000000000000000000000000000000000000000000000000000000000000000000000000000000000000000000000000000000000000000000000000000000000000000000000000000000000000000000000000000000000000000000000000000000000000000000000
310
00000000000000000000000000000000000000000000000000000000000000000000000000000000000000000000000000000000000000000000000000000000000000000000000000000000000000000000000000000000000000000000000000000000000000000000000000000000000000000000000000000000000000
310
00000000000000000000000000000000000000000000000000000000000000000000000000000000000000000000000000000000000000000000000000000000000000000000000000000000000000000000000000000000000000000000000000000000000000000000000000000000000000000000000000000000000000
310
00000000000000000000000000000000000000000000000000000000000000000000000000000000000000000000000000000000000000000000000000000000000000000000000000000000000000000000000000000000000000000000000000000000000000000000000000000000000000000000000000000000000000
310
00000000000000000000000000000000000000000000000000000000000000000000000000000000000000000000000000000000000000000000000000000000000000000000000000000000000000000000000000000000000000000000000000000000000000000000000000000000000000000000000000000000000000
310
00000000000000000000000000000000000000000000000000000000000000000000000000000000000000000000000000000000000000000000000000000000000000000000000000000000000000000000000000000000000000000000000000000000000000000000000000000000000000000000000000000000000000
310
00000000000000000000000000000000000000000000000000000000000000000000000000000000000000000000000000000000000000000000000000000000000000000000000000000000000000000000000000000000000000000000000000000000000000000000000000000000000000000000000000000000000000
310
00000000000000000000000000000000000000000000000000000000000000000000000000000000000000000000000000000000000000000000000000000000000000000000000000000000000000000000000000000000000000000000000000000000000000000000000000000000000000000000000000000000000000
310
00000000000000000000000000000000000000000000000000000000000000000000000000000000000000000000000000000000000000000000000000000000000000000000000000000000000000000000000000000000000000000000000000000000000000000000000000000000000000000000000000000000000000
310
00000000000000000000000000000000000000000000000000000000000000000000000000000000000000000000000000000000000000000000000000000000000000000000000000000000000000000000000000000000000000000000000000000000000000000000000000000000000000000000000000000000000000
310
00000000000000000000000000000000000000000000000000000000000000000000000000000000000000000000000000000000000000000000000000000000000000000000000000000000000000000000000000000000000000000000000000000000000000000000000000000000000000000000000000000000000000
310
00000000000000000000000000000000000000000000000000000000000000000000000000000000000000000000000000000000000000000000000000000000000000000000000000000000000000000000000000000000000000000000000000000000000000000000000000000000000000000000000000000000000000
310
00000000000000000000000000000000000000000000000000000000000000000000000000000000000000000000000000000000000000000000000000000000000000000000000000000000000000000000000000000000000000000000000000000000000000000000000000000000000000000000000000000000000000
310
00000000000000000000000000000000000000000000000000000000000000000000000000000000000000000000000000000000000000000000000000000000000000000000000000000000000000000000000000000000000000000000000000000000000000000000000000000000000000000000000000000000000000
310
00000000000000000000000000000000000000000000000000000000000000000000000000000000000000000000000000000000000000000000000000000000000000000000000000000000000000000000000000000000000000000000000000000000000000000000000000000000000000000000000000000000000000
310
00000000000000000000000000000000000000000000000000000000000000000000000000000000000000000000000000000000000000000000000000000000000000000000000000000000000000000000000000000000000000000000000000000000000000000000000000000000000000000000000000000000000000
310
00000000000000000000000000000000000000000000000000000000000000000000000000000000000000000000000000000000000000000000000000000000000000000000000000000000000000000000000000000000000000000000000000000000000000000000000000000000000000000000000000000000000000
310
00000000000000000000000000000000000000000000000000000000000000000000000000000000000000000000000000000000000000000000000000000000000000000000000000000000000000000000000000000000000000000000000000000000000000000000000000000000000000000000000000000000000000
310
000000000000000000000000000000000000000000000000000000000000000000000000000000000000000000000000000000000000000000000000000000000000
  0
XRECORD
  5
4312
102
{ACAD_REACTORS
330
4311
102
}
330
4311
100
AcDbXrecord
280
     1
102
SHADEPLOT
 70
     0
102
SHADEPLOTRESLEVEL
 70
     2
102
SHADEPLOTCUSTOMDPI
 70
   300
  0
XRECORD
  5
4315
102
{ACAD_REACTORS
330
4314
102
}
330
4314
100
AcDbXrecord
280
     1
102
SHADEPLOT
 70
     0
102
SHADEPLOTRESLEVEL
 70
     2
102
SHADEPLOTCUSTOMDPI
 70
   300
  0
XRECORD
  5
4319
102
{ACAD_REACTORS
330
4318
102
}
330
4318
100
AcDbXrecord
280
     1
102
MATERIAL
148
0.0
149
0.0
149
0.0
 93
        0
 94
       63
282
     0
 72
     1
 77
     1
171
     1
175
     1
179
     1
273
     0
  0
XRECORD
  5
4317
102
{ACAD_REACTORS
330
4316
102
}
330
4316
100
AcDbXrecord
280
     1
102
MATERIAL
148
0.0
149
0.0
149
0.0
 93
        0
 94
       63
282
     0
 72
     1
 77
     1
171
     1
175
     1
179
     1
273
     0
  0
XRECORD
  5
431B
102
{ACAD_REACTORS
330
431A
102
}
330
431A
100
AcDbXrecord
280
     1
102
MATERIAL
148
0.0
149
0.0
149
0.0
 93
        0
 94
       63
282
     0
 72
     1
 77
     1
171
     1
175
     1
179
     1
273
     0
  0
CELLSTYLEMAP
  5
430C
102
{ACAD_REACTORS
330
229F
102
}
330
229F
100
AcDbCellStyleMap
 90
        3
300
CELLSTYLE
  1
TABLEFORMAT_BEGIN
 90
        5
170
     1
 91
        0
 92
    32768
 62
   257
 93
        1
300
CONTENTFORMAT
  1
CONTENTFORMAT_BEGIN
 90
        0
 91
        0
 92
      512
 93
        0
300

 40
0.0
140
1.0
 94
        5
 62
     0
340
11
144
6.0
309
CONTENTFORMAT_END
171
     1
301
MARGIN
  1
CELLMARGIN_BEGIN
 40
1.5
 40
1.5
 40
1.5
 40
1.5
 40
0.18
 40
0.18
309
CELLMARGIN_END
 94
        6
 95
        1
302
GRIDFORMAT
  1
GRIDFORMAT_BEGIN
 90
        0
 91
        1
 62
     0
 92
       -2
340
0
 93
        0
 40
0.045
309
GRIDFORMAT_END
 95
        2
302
GRIDFORMAT
  1
GRIDFORMAT_BEGIN
 90
        0
 91
        1
 62
     0
 92
       -2
340
0
 93
        0
 40
0.045
309
GRIDFORMAT_END
 95
        4
302
GRIDFORMAT
  1
GRIDFORMAT_BEGIN
 90
        0
 91
        1
 62
     0
 92
       -2
340
0
 93
        0
 40
0.045
309
GRIDFORMAT_END
 95
        8
302
GRIDFORMAT
  1
GRIDFORMAT_BEGIN
 90
        0
 91
        1
 62
     0
 92
       -2
340
0
 93
        0
 40
0.045
309
GRIDFORMAT_END
 95
       16
302
GRIDFORMAT
  1
GRIDFORMAT_BEGIN
 90
        0
 91
        1
 62
     0
 92
       -2
340
0
 93
        0
 40
0.045
309
GRIDFORMAT_END
 95
       32
302
GRIDFORMAT
  1
GRIDFORMAT_BEGIN
 90
        0
 91
        1
 62
     0
 92
       -2
340
0
 93
        0
 40
0.045
309
GRIDFORMAT_END
309
TABLEFORMAT_END
  1
CELLSTYLE_BEGIN
 90
        1
 91
        1
300
_TITLE
309
CELLSTYLE_END
300
CELLSTYLE
  1
TABLEFORMAT_BEGIN
 90
        5
170
     1
 91
        0
 92
        0
 62
   257
 93
        1
300
CONTENTFORMAT
  1
CONTENTFORMAT_BEGIN
 90
        0
 91
        0
 92
      512
 93
        0
300

 40
0.0
140
1.0
 94
        5
 62
     0
340
11
144
4.5
309
CONTENTFORMAT_END
171
     1
301
MARGIN
  1
CELLMARGIN_BEGIN
 40
1.5
 40
1.5
 40
1.5
 40
1.5
 40
0.18
 40
0.18
309
CELLMARGIN_END
 94
        6
 95
        1
302
GRIDFORMAT
  1
GRIDFORMAT_BEGIN
 90
        0
 91
        1
 62
     0
 92
       -2
340
0
 93
        0
 40
0.045
309
GRIDFORMAT_END
 95
        2
302
GRIDFORMAT
  1
GRIDFORMAT_BEGIN
 90
        0
 91
        1
 62
     0
 92
       -2
340
0
 93
        0
 40
0.045
309
GRIDFORMAT_END
 95
        4
302
GRIDFORMAT
  1
GRIDFORMAT_BEGIN
 90
        0
 91
        1
 62
     0
 92
       -2
340
0
 93
        0
 40
0.045
309
GRIDFORMAT_END
 95
        8
302
GRIDFORMAT
  1
GRIDFORMAT_BEGIN
 90
        0
 91
        1
 62
     0
 92
       -2
340
0
 93
        0
 40
0.045
309
GRIDFORMAT_END
 95
       16
302
GRIDFORMAT
  1
GRIDFORMAT_BEGIN
 90
        0
 91
        1
 62
     0
 92
       -2
340
0
 93
        0
 40
0.045
309
GRIDFORMAT_END
 95
       32
302
GRIDFORMAT
  1
GRIDFORMAT_BEGIN
 90
        0
 91
        1
 62
     0
 92
       -2
340
0
 93
        0
 40
0.045
309
GRIDFORMAT_END
309
TABLEFORMAT_END
  1
CELLSTYLE_BEGIN
 90
        2
 91
        1
300
_HEADER
309
CELLSTYLE_END
300
CELLSTYLE
  1
TABLEFORMAT_BEGIN
 90
        5
170
     1
 91
        0
 92
        0
 62
   257
 93
        1
300
CONTENTFORMAT
  1
CONTENTFORMAT_BEGIN
 90
        0
 91
        0
 92
      512
 93
        0
300

 40
0.0
140
1.0
 94
        2
 62
     0
340
11
144
4.5
309
CONTENTFORMAT_END
171
     1
301
MARGIN
  1
CELLMARGIN_BEGIN
 40
1.5
 40
1.5
 40
1.5
 40
1.5
 40
0.18
 40
0.18
309
CELLMARGIN_END
 94
        6
 95
        1
302
GRIDFORMAT
  1
GRIDFORMAT_BEGIN
 90
        0
 91
        1
 62
     0
 92
       -2
340
0
 93
        0
 40
0.045
309
GRIDFORMAT_END
 95
        2
302
GRIDFORMAT
  1
GRIDFORMAT_BEGIN
 90
        0
 91
        1
 62
     0
 92
       -2
340
0
 93
        0
 40
0.045
309
GRIDFORMAT_END
 95
        4
302
GRIDFORMAT
  1
GRIDFORMAT_BEGIN
 90
        0
 91
        1
 62
     0
 92
       -2
340
0
 93
        0
 40
0.045
309
GRIDFORMAT_END
 95
        8
302
GRIDFORMAT
  1
GRIDFORMAT_BEGIN
 90
        0
 91
        1
 62
     0
 92
       -2
340
0
 93
        0
 40
0.045
309
GRIDFORMAT_END
 95
       16
302
GRIDFORMAT
  1
GRIDFORMAT_BEGIN
 90
        0
 91
        1
 62
     0
 92
       -2
340
0
 93
        0
 40
0.045
309
GRIDFORMAT_END
 95
       32
302
GRIDFORMAT
  1
GRIDFORMAT_BEGIN
 90
        0
 91
        1
 62
     0
 92
       -2
340
0
 93
        0
 40
0.045
309
GRIDFORMAT_END
309
TABLEFORMAT_END
  1
CELLSTYLE_BEGIN
 90
        3
 91
        2
300
_DATA
309
CELLSTYLE_END
  0
XRECORD
  5
433C
102
{ACAD_REACTORS
330
229F
102
}
330
229F
100
AcDbXrecord
280
     1
102
ACAD_ROUNDTRIP_PRE2007_TABLESTYLE
 90
      512
 91
        0
  1

 92
      512
 93
        0
  2

 94
      512
 95
        0
  3

  0
XRECORD
  5
4327
102
{ACAD_REACTORS
330
4326
102
}
330
4326
100
AcDbXrecord
280
     1
102
RTVSPropertyOp0
 70
     1
102
RTVSPropertyOp1
 70
     1
102
RTVSPropertyOp2
 70
     1
102
RTVSPropertyOp3
 70
     1
102
RTVSPropertyOp4
 70
     1
102
RTVSPropertyOp5
 70
     1
102
RTVSPropertyOp6
 70
     1
102
RTVSPropertyOp7
 70
     1
102
RTVSPropertyOp8
 70
     1
102
RTVSPropertyOp9
 70
     1
102
RTVSPropertyOp10
 70
     1
102
RTVSPropertyOp11
 70
     1
102
RTVSPropertyOp12
 70
     1
102
RTVSPropertyOp13
 70
     1
102
RTVSPropertyOp14
 70
     1
102
RTVSPropertyOp15
 70
     1
102
RTVSPropertyOp16
 70
     1
102
RTVSPropertyOp17
 70
     1
102
RTVSPropertyOp18
 70
     1
102
RTVSPropertyOp19
 70
     1
102
RTVSPropertyOp20
 70
     1
102
RTVSPropertyOp21
 70
     1
102
RTVSPropertyOp22
 70
     1
102
RTVSPropertyOp23
 70
     1
102
RTVSPropertyOp24
 70
     1
102
RTVSPropertyOp25
 70
     1
102
RTVSPropertyOp26
 70
     1
102
RTVSPropertyOp27
 70
     1
102
RTVSPropertyOp28
 70
     1
102
RTVSPropertyOp29
 70
     1
102
RTVSPropertyOp30
 70
     1
102
RTVSPropertyOp31
 70
     1
102
RTVSPropertyOp32
 70
     1
  0
XRECORD
  5
432B
102
{ACAD_REACTORS
330
432A
102
}
330
432A
100
AcDbXrecord
280
     1
102
RTVSPropertyOp0
 70
     1
102
RTVSPropertyOp1
 70
     1
102
RTVSPropertyOp2
 70
     1
102
RTVSPropertyOp3
 70
     1
102
RTVSPropertyOp4
 70
     1
102
RTVSPropertyOp5
 70
     1
102
RTVSPropertyOp6
 70
     1
102
RTVSPropertyOp7
 70
     1
102
RTVSPropertyOp8
 70
     1
102
RTVSPropertyOp9
 70
     1
102
RTVSPropertyOp10
 70
     1
102
RTVSPropertyOp11
 70
     1
102
RTVSPropertyOp12
 70
     1
102
RTVSPropertyOp13
 70
     1
102
RTVSPropertyOp14
 70
     1
102
RTVSPropertyOp15
 70
     1
102
RTVSPropertyOp16
 70
     1
102
RTVSPropertyOp17
 70
     1
102
RTVSPropertyOp18
 70
     1
102
RTVSPropertyOp19
 70
     1
102
RTVSPropertyOp20
 70
     1
102
RTVSPropertyOp21
 70
     1
102
RTVSPropertyOp22
 70
     1
102
RTVSPropertyOp23
 70
     1
102
RTVSPropertyOp24
 70
     1
102
RTVSPropertyOp25
 70
     1
102
RTVSPropertyOp26
 70
     1
102
RTVSPropertyOp27
 70
     1
102
RTVSPropertyOp28
 70
     1
102
RTVSPropertyOp29
 70
     1
102
RTVSPropertyOp30
 70
     1
102
RTVSPropertyOp31
 70
     1
102
RTVSPropertyOp32
 70
     1
  0
XRECORD
  5
4329
102
{ACAD_REACTORS
330
4328
102
}
330
4328
100
AcDbXrecord
280
     1
102
RTVSPropertyOp0
 70
     1
102
RTVSPropertyOp1
 70
     1
102
RTVSPropertyOp2
 70
     1
102
RTVSPropertyOp3
 70
     1
102
RTVSPropertyOp4
 70
     1
102
RTVSPropertyOp5
 70
     1
102
RTVSPropertyOp6
 70
     1
102
RTVSPropertyOp7
 70
     1
102
RTVSPropertyOp8
 70
     1
102
RTVSPropertyOp9
 70
     1
102
RTVSPropertyOp10
 70
     1
102
RTVSPropertyOp11
 70
     1
102
RTVSPropertyOp12
 70
     1
102
RTVSPropertyOp13
 70
     1
102
RTVSPropertyOp14
 70
     1
102
RTVSPropertyOp15
 70
     1
102
RTVSPropertyOp16
 70
     1
102
RTVSPropertyOp17
 70
     1
102
RTVSPropertyOp18
 70
     1
102
RTVSPropertyOp19
 70
     1
102
RTVSPropertyOp20
 70
     1
102
RTVSPropertyOp21
 70
     1
102
RTVSPropertyOp22
 70
     1
102
RTVSPropertyOp23
 70
     1
102
RTVSPropertyOp24
 70
     1
102
RTVSPropertyOp25
 70
     1
102
RTVSPropertyOp26
 70
     1
102
RTVSPropertyOp27
 70
     1
102
RTVSPropertyOp28
 70
     1
102
RTVSPropertyOp29
 70
     1
102
RTVSPropertyOp30
 70
     1
102
RTVSPropertyOp31
 70
     1
102
RTVSPropertyOp32
 70
     1
  0
XRECORD
  5
4325
102
{ACAD_REACTORS
330
4324
102
}
330
4324
100
AcDbXrecord
280
     1
102
RTVSPropertyOp0
 70
     1
102
RTVSPropertyOp1
 70
     1
102
RTVSPropertyOp2
 70
     1
102
RTVSPropertyOp3
 70
     1
102
RTVSPropertyOp4
 70
     1
102
RTVSPropertyOp5
 70
     1
102
RTVSPropertyOp6
 70
     1
102
RTVSPropertyOp7
 70
     1
102
RTVSPropertyOp8
 70
     1
102
RTVSPropertyOp9
 70
     1
102
RTVSPropertyOp10
 70
     1
102
RTVSPropertyOp11
 70
     1
102
RTVSPropertyOp12
 70
     1
102
RTVSPropertyOp13
 70
     1
102
RTVSPropertyOp14
 70
     1
102
RTVSPropertyOp15
 70
     1
102
RTVSPropertyOp16
 70
     1
102
RTVSPropertyOp17
 70
     1
102
RTVSPropertyOp18
 70
     1
102
RTVSPropertyOp19
 70
     1
102
RTVSPropertyOp20
 70
     1
102
RTVSPropertyOp21
 70
     1
102
RTVSPropertyOp22
 70
     1
102
RTVSPropertyOp23
 70
     1
102
RTVSPropertyOp24
 70
     1
102
RTVSPropertyOp25
 70
     1
102
RTVSPropertyOp26
 70
     1
102
RTVSPropertyOp27
 70
     1
102
RTVSPropertyOp28
 70
     1
102
RTVSPropertyOp29
 70
     1
102
RTVSPropertyOp30
 70
     1
102
RTVSPropertyOp31
 70
     1
102
RTVSPropertyOp32
 70
     1
  0
XRECORD
  5
4333
102
{ACAD_REACTORS
330
4332
102
}
330
4332
100
AcDbXrecord
280
     1
102
RTVSPropertyOp0
 70
     1
102
RTVSPropertyOp1
 70
     1
102
RTVSPropertyOp2
 70
     1
102
RTVSPropertyOp3
 70
     1
102
RTVSPropertyOp4
 70
     1
102
RTVSPropertyOp5
 70
     1
102
RTVSPropertyOp6
 70
     1
102
RTVSPropertyOp7
 70
     1
102
RTVSPropertyOp8
 70
     1
102
RTVSPropertyOp9
 70
     1
102
RTVSPropertyOp10
 70
     1
102
RTVSPropertyOp11
 70
     1
102
RTVSPropertyOp12
 70
     1
102
RTVSPropertyOp13
 70
     1
102
RTVSPropertyOp14
 70
     1
102
RTVSPropertyOp15
 70
     1
102
RTVSPropertyOp16
 70
     1
102
RTVSPropertyOp17
 70
     1
102
RTVSPropertyOp18
 70
     1
102
RTVSPropertyOp19
 70
     1
102
RTVSPropertyOp20
 70
     1
102
RTVSPropertyOp21
 70
     1
102
RTVSPropertyOp22
 70
     1
102
RTVSPropertyOp23
 70
     1
102
RTVSPropertyOp24
 70
     1
102
RTVSPropertyOp25
 70
     1
102
RTVSPropertyOp26
 70
     1
102
RTVSPropertyOp27
 70
     1
102
RTVSPropertyOp28
 70
     1
102
RTVSPropertyOp29
 70
     1
102
RTVSPropertyOp30
 70
     1
102
RTVSPropertyOp31
 70
     1
102
RTVSPropertyOp32
 70
     1
  0
XRECORD
  5
433B
102
{ACAD_REACTORS
330
433A
102
}
330
433A
100
AcDbXrecord
280
     1
102
RTVSPropertyOp0
 70
     1
102
RTVSPropertyOp1
 70
     1
102
RTVSPropertyOp2
 70
     1
102
RTVSPropertyOp3
 70
     1
102
RTVSPropertyOp4
 70
     1
102
RTVSPropertyOp5
 70
     1
102
RTVSPropertyOp6
 70
     1
102
RTVSPropertyOp7
 70
     1
102
RTVSPropertyOp8
 70
     1
102
RTVSPropertyOp9
 70
     1
102
RTVSPropertyOp10
 70
     1
102
RTVSPropertyOp11
 70
     1
102
RTVSPropertyOp12
 70
     1
102
RTVSPropertyOp13
 70
     1
102
RTVSPropertyOp14
 70
     1
102
RTVSPropertyOp15
 70
     1
102
RTVSPropertyOp16
 70
     1
102
RTVSPropertyOp17
 70
     1
102
RTVSPropertyOp18
 70
     1
102
RTVSPropertyOp19
 70
     1
102
RTVSPropertyOp20
 70
     1
102
RTVSPropertyOp21
 70
     1
102
RTVSPropertyOp22
 70
     1
102
RTVSPropertyOp23
 70
     1
102
RTVSPropertyOp24
 70
     1
102
RTVSPropertyOp25
 70
     1
102
RTVSPropertyOp26
 70
     1
102
RTVSPropertyOp27
 70
     1
102
RTVSPropertyOp28
 70
     1
102
RTVSPropertyOp29
 70
     1
102
RTVSPropertyOp30
 70
     1
102
RTVSPropertyOp31
 70
     1
102
RTVSPropertyOp32
 70
     1
  0
XRECORD
  5
432D
102
{ACAD_REACTORS
330
432C
102
}
330
432C
100
AcDbXrecord
280
     1
102
RTVSPropertyOp0
 70
     1
102
RTVSPropertyOp1
 70
     1
102
RTVSPropertyOp2
 70
     1
102
RTVSPropertyOp3
 70
     1
102
RTVSPropertyOp4
 70
     1
102
RTVSPropertyOp5
 70
     1
102
RTVSPropertyOp6
 70
     1
102
RTVSPropertyOp7
 70
     1
102
RTVSPropertyOp8
 70
     1
102
RTVSPropertyOp9
 70
     1
102
RTVSPropertyOp10
 70
     1
102
RTVSPropertyOp11
 70
     1
102
RTVSPropertyOp12
 70
     1
102
RTVSPropertyOp13
 70
     1
102
RTVSPropertyOp14
 70
     1
102
RTVSPropertyOp15
 70
     1
102
RTVSPropertyOp16
 70
     1
102
RTVSPropertyOp17
 70
     1
102
RTVSPropertyOp18
 70
     1
102
RTVSPropertyOp19
 70
     1
102
RTVSPropertyOp20
 70
     1
102
RTVSPropertyOp21
 70
     1
102
RTVSPropertyOp22
 70
     1
102
RTVSPropertyOp23
 70
     1
102
RTVSPropertyOp24
 70
     1
102
RTVSPropertyOp25
 70
     1
102
RTVSPropertyOp26
 70
     1
102
RTVSPropertyOp27
 70
     1
102
RTVSPropertyOp28
 70
     1
102
RTVSPropertyOp29
 70
     1
102
RTVSPropertyOp30
 70
     1
102
RTVSPropertyOp31
 70
     1
102
RTVSPropertyOp32
 70
     1
  0
XRECORD
  5
4331
102
{ACAD_REACTORS
330
4330
102
}
330
4330
100
AcDbXrecord
280
     1
102
RTVSPropertyOp0
 70
     1
102
RTVSPropertyOp1
 70
     1
102
RTVSPropertyOp2
 70
     1
102
RTVSPropertyOp3
 70
     1
102
RTVSPropertyOp4
 70
     1
102
RTVSPropertyOp5
 70
     1
102
RTVSPropertyOp6
 70
     1
102
RTVSPropertyOp7
 70
     1
102
RTVSPropertyOp8
 70
     1
102
RTVSPropertyOp9
 70
     1
102
RTVSPropertyOp10
 70
     1
102
RTVSPropertyOp11
 70
     1
102
RTVSPropertyOp12
 70
     1
102
RTVSPropertyOp13
 70
     1
102
RTVSPropertyOp14
 70
     1
102
RTVSPropertyOp15
 70
     1
102
RTVSPropertyOp16
 70
     1
102
RTVSPropertyOp17
 70
     1
102
RTVSPropertyOp18
 70
     1
102
RTVSPropertyOp19
 70
     1
102
RTVSPropertyOp20
 70
     1
102
RTVSPropertyOp21
 70
     1
102
RTVSPropertyOp22
 70
     1
102
RTVSPropertyOp23
 70
     1
102
RTVSPropertyOp24
 70
     1
102
RTVSPropertyOp25
 70
     1
102
RTVSPropertyOp26
 70
     1
102
RTVSPropertyOp27
 70
     1
102
RTVSPropertyOp28
 70
     1
102
RTVSPropertyOp29
 70
     1
102
RTVSPropertyOp30
 70
     1
102
RTVSPropertyOp31
 70
     1
102
RTVSPropertyOp32
 70
     1
  0
XRECORD
  5
4350
102
{ACAD_REACTORS
330
434F
102
}
330
434F
100
AcDbXrecord
280
     1
102
RTVSPropertyOp0
 70
     0
102
RTVSPropertyOp1
 70
     0
102
RTVSPropertyOp2
 70
     0
102
RTVSPropertyOp3
 70
     0
102
RTVSPropertyOp4
 70
     0
102
RTVSPropertyOp5
 70
     0
102
RTVSPropertyOp6
 70
     0
102
RTVSPropertyOp7
 70
     0
102
RTVSPropertyOp8
 70
     0
102
RTVSPropertyOp9
 70
     0
102
RTVSPropertyOp10
 70
     0
102
RTVSPropertyOp11
 70
     0
102
RTVSPropertyOp12
 70
     0
102
RTVSPropertyOp13
 70
     0
102
RTVSPropertyOp14
 70
     2
102
RTVSPropertyOp15
 70
     0
102
RTVSPropertyOp16
 70
     0
102
RTVSPropertyOp17
 70
     0
102
RTVSPropertyOp18
 70
     0
102
RTVSPropertyOp19
 70
     0
102
RTVSPropertyOp20
 70
     0
102
RTVSPropertyOp21
 70
     0
102
RTVSPropertyOp22
 70
     0
102
RTVSPropertyOp23
 70
     0
102
RTVSPropertyOp24
 70
     0
102
RTVSPropertyOp25
 70
     0
102
RTVSPropertyOp26
 70
     0
102
RTVSPropertyOp27
 70
     0
102
RTVSPropertyOp28
 70
     0
102
RTVSPropertyOp29
 70
     0
102
RTVSPropertyOp30
 70
     0
102
RTVSPropertyOp31
 70
     0
102
RTVSPropertyOp32
 70
     0
  0
XRECORD
  5
4339
102
{ACAD_REACTORS
330
4338
102
}
330
4338
100
AcDbXrecord
280
     1
102
RTVSPropertyOp0
 70
     1
102
RTVSPropertyOp1
 70
     1
102
RTVSPropertyOp2
 70
     1
102
RTVSPropertyOp3
 70
     1
102
RTVSPropertyOp4
 70
     1
102
RTVSPropertyOp5
 70
     1
102
RTVSPropertyOp6
 70
     1
102
RTVSPropertyOp7
 70
     1
102
RTVSPropertyOp8
 70
     1
102
RTVSPropertyOp9
 70
     1
102
RTVSPropertyOp10
 70
     1
102
RTVSPropertyOp11
 70
     1
102
RTVSPropertyOp12
 70
     1
102
RTVSPropertyOp13
 70
     1
102
RTVSPropertyOp14
 70
     1
102
RTVSPropertyOp15
 70
     1
102
RTVSPropertyOp16
 70
     1
102
RTVSPropertyOp17
 70
     1
102
RTVSPropertyOp18
 70
     1
102
RTVSPropertyOp19
 70
     1
102
RTVSPropertyOp20
 70
     1
102
RTVSPropertyOp21
 70
     1
102
RTVSPropertyOp22
 70
     1
102
RTVSPropertyOp23
 70
     1
102
RTVSPropertyOp24
 70
     1
102
RTVSPropertyOp25
 70
     1
102
RTVSPropertyOp26
 70
     1
102
RTVSPropertyOp27
 70
     1
102
RTVSPropertyOp28
 70
     1
102
RTVSPropertyOp29
 70
     1
102
RTVSPropertyOp30
 70
     1
102
RTVSPropertyOp31
 70
     1
102
RTVSPropertyOp32
 70
     1
  0
XRECORD
  5
431D
102
{ACAD_REACTORS
330
431C
102
}
330
431C
100
AcDbXrecord
280
     1
102
RTVSPropertyOp0
 70
     1
102
RTVSPropertyOp1
 70
     1
102
RTVSPropertyOp2
 70
     1
102
RTVSPropertyOp3
 70
     1
102
RTVSPropertyOp4
 70
     1
102
RTVSPropertyOp5
 70
     1
102
RTVSPropertyOp6
 70
     1
102
RTVSPropertyOp7
 70
     1
102
RTVSPropertyOp8
 70
     1
102
RTVSPropertyOp9
 70
     1
102
RTVSPropertyOp10
 70
     1
102
RTVSPropertyOp11
 70
     1
102
RTVSPropertyOp12
 70
     1
102
RTVSPropertyOp13
 70
     1
102
RTVSPropertyOp14
 70
     1
102
RTVSPropertyOp15
 70
     1
102
RTVSPropertyOp16
 70
     1
102
RTVSPropertyOp17
 70
     1
102
RTVSPropertyOp18
 70
     1
102
RTVSPropertyOp19
 70
     1
102
RTVSPropertyOp20
 70
     1
102
RTVSPropertyOp21
 70
     1
102
RTVSPropertyOp22
 70
     1
102
RTVSPropertyOp23
 70
     1
102
RTVSPropertyOp24
 70
     1
102
RTVSPropertyOp25
 70
     1
102
RTVSPropertyOp26
 70
     1
102
RTVSPropertyOp27
 70
     1
102
RTVSPropertyOp28
 70
     1
102
RTVSPropertyOp29
 70
     1
102
RTVSPropertyOp30
 70
     1
102
RTVSPropertyOp31
 70
     1
102
RTVSPropertyOp32
 70
     1
  0
XRECORD
  5
431F
102
{ACAD_REACTORS
330
431E
102
}
330
431E
100
AcDbXrecord
280
     1
102
RTVSPropertyOp0
 70
     1
102
RTVSPropertyOp1
 70
     1
102
RTVSPropertyOp2
 70
     1
102
RTVSPropertyOp3
 70
     1
102
RTVSPropertyOp4
 70
     1
102
RTVSPropertyOp5
 70
     1
102
RTVSPropertyOp6
 70
     1
102
RTVSPropertyOp7
 70
     1
102
RTVSPropertyOp8
 70
     1
102
RTVSPropertyOp9
 70
     1
102
RTVSPropertyOp10
 70
     1
102
RTVSPropertyOp11
 70
     1
102
RTVSPropertyOp12
 70
     1
102
RTVSPropertyOp13
 70
     1
102
RTVSPropertyOp14
 70
     1
102
RTVSPropertyOp15
 70
     1
102
RTVSPropertyOp16
 70
     1
102
RTVSPropertyOp17
 70
     1
102
RTVSPropertyOp18
 70
     1
102
RTVSPropertyOp19
 70
     1
102
RTVSPropertyOp20
 70
     1
102
RTVSPropertyOp21
 70
     1
102
RTVSPropertyOp22
 70
     1
102
RTVSPropertyOp23
 70
     1
102
RTVSPropertyOp24
 70
     1
102
RTVSPropertyOp25
 70
     1
102
RTVSPropertyOp26
 70
     1
102
RTVSPropertyOp27
 70
     1
102
RTVSPropertyOp28
 70
     1
102
RTVSPropertyOp29
 70
     1
102
RTVSPropertyOp30
 70
     1
102
RTVSPropertyOp31
 70
     1
102
RTVSPropertyOp32
 70
     1
  0
XRECORD
  5
4321
102
{ACAD_REACTORS
330
4320
102
}
330
4320
100
AcDbXrecord
280
     1
102
RTVSPropertyOp0
 70
     1
102
RTVSPropertyOp1
 70
     1
102
RTVSPropertyOp2
 70
     1
102
RTVSPropertyOp3
 70
     1
102
RTVSPropertyOp4
 70
     1
102
RTVSPropertyOp5
 70
     1
102
RTVSPropertyOp6
 70
     1
102
RTVSPropertyOp7
 70
     1
102
RTVSPropertyOp8
 70
     1
102
RTVSPropertyOp9
 70
     1
102
RTVSPropertyOp10
 70
     1
102
RTVSPropertyOp11
 70
     1
102
RTVSPropertyOp12
 70
     1
102
RTVSPropertyOp13
 70
     1
102
RTVSPropertyOp14
 70
     1
102
RTVSPropertyOp15
 70
     1
102
RTVSPropertyOp16
 70
     1
102
RTVSPropertyOp17
 70
     1
102
RTVSPropertyOp18
 70
     1
102
RTVSPropertyOp19
 70
     1
102
RTVSPropertyOp20
 70
     1
102
RTVSPropertyOp21
 70
     1
102
RTVSPropertyOp22
 70
     1
102
RTVSPropertyOp23
 70
     1
102
RTVSPropertyOp24
 70
     1
102
RTVSPropertyOp25
 70
     1
102
RTVSPropertyOp26
 70
     1
102
RTVSPropertyOp27
 70
     1
102
RTVSPropertyOp28
 70
     1
102
RTVSPropertyOp29
 70
     1
102
RTVSPropertyOp30
 70
     1
102
RTVSPropertyOp31
 70
     1
102
RTVSPropertyOp32
 70
     1
  0
XRECORD
  5
4323
102
{ACAD_REACTORS
330
4322
102
}
330
4322
100
AcDbXrecord
280
     1
102
RTVSPropertyOp0
 70
     1
102
RTVSPropertyOp1
 70
     1
102
RTVSPropertyOp2
 70
     1
102
RTVSPropertyOp3
 70
     1
102
RTVSPropertyOp4
 70
     1
102
RTVSPropertyOp5
 70
     1
102
RTVSPropertyOp6
 70
     1
102
RTVSPropertyOp7
 70
     1
102
RTVSPropertyOp8
 70
     1
102
RTVSPropertyOp9
 70
     1
102
RTVSPropertyOp10
 70
     1
102
RTVSPropertyOp11
 70
     1
102
RTVSPropertyOp12
 70
     1
102
RTVSPropertyOp13
 70
     1
102
RTVSPropertyOp14
 70
     1
102
RTVSPropertyOp15
 70
     1
102
RTVSPropertyOp16
 70
     1
102
RTVSPropertyOp17
 70
     1
102
RTVSPropertyOp18
 70
     1
102
RTVSPropertyOp19
 70
     1
102
RTVSPropertyOp20
 70
     1
102
RTVSPropertyOp21
 70
     1
102
RTVSPropertyOp22
 70
     1
102
RTVSPropertyOp23
 70
     1
102
RTVSPropertyOp24
 70
     1
102
RTVSPropertyOp25
 70
     1
102
RTVSPropertyOp26
 70
     1
102
RTVSPropertyOp27
 70
     1
102
RTVSPropertyOp28
 70
     1
102
RTVSPropertyOp29
 70
     1
102
RTVSPropertyOp30
 70
     1
102
RTVSPropertyOp31
 70
     1
102
RTVSPropertyOp32
 70
     1
  0
XRECORD
  5
4340
102
{ACAD_REACTORS
330
433F
102
}
330
433F
100
AcDbXrecord
280
     1
102
RTVSPropertyOp0
 70
     1
102
RTVSPropertyOp1
 70
     1
102
RTVSPropertyOp2
 70
     1
102
RTVSPropertyOp3
 70
     1
102
RTVSPropertyOp4
 70
     1
102
RTVSPropertyOp5
 70
     1
102
RTVSPropertyOp6
 70
     1
102
RTVSPropertyOp7
 70
     1
102
RTVSPropertyOp8
 70
     1
102
RTVSPropertyOp9
 70
     1
102
RTVSPropertyOp10
 70
     1
102
RTVSPropertyOp11
 70
     1
102
RTVSPropertyOp12
 70
     1
102
RTVSPropertyOp13
 70
     1
102
RTVSPropertyOp14
 70
     1
102
RTVSPropertyOp15
 70
     1
102
RTVSPropertyOp16
 70
     1
102
RTVSPropertyOp17
 70
     1
102
RTVSPropertyOp18
 70
     1
102
RTVSPropertyOp19
 70
     1
102
RTVSPropertyOp20
 70
     1
102
RTVSPropertyOp21
 70
     1
102
RTVSPropertyOp22
 70
     1
102
RTVSPropertyOp23
 70
     1
102
RTVSPropertyOp24
 70
     1
102
RTVSPropertyOp25
 70
     1
102
RTVSPropertyOp26
 70
     1
102
RTVSPropertyOp27
 70
     1
102
RTVSPropertyOp28
 70
     1
102
RTVSPropertyOp29
 70
     1
102
RTVSPropertyOp30
 70
     1
102
RTVSPropertyOp31
 70
     1
102
RTVSPropertyOp32
 70
     1
  0
XRECORD
  5
434C
102
{ACAD_REACTORS
330
434B
102
}
330
434B
100
AcDbXrecord
280
     1
102
RTVSPropertyOp0
 70
     0
102
RTVSPropertyOp1
 70
     0
102
RTVSPropertyOp2
 70
     0
102
RTVSPropertyOp3
 70
     0
102
RTVSPropertyOp4
 70
     0
102
RTVSPropertyOp5
 70
     0
102
RTVSPropertyOp6
 70
     0
102
RTVSPropertyOp7
 70
     0
102
RTVSPropertyOp8
 70
     0
102
RTVSPropertyOp9
 70
     0
102
RTVSPropertyOp10
 70
     0
102
RTVSPropertyOp11
 70
     0
102
RTVSPropertyOp12
 70
     0
102
RTVSPropertyOp13
 70
     0
102
RTVSPropertyOp14
 70
     2
102
RTVSPropertyOp15
 70
     0
102
RTVSPropertyOp16
 70
     0
102
RTVSPropertyOp17
 70
     0
102
RTVSPropertyOp18
 70
     0
102
RTVSPropertyOp19
 70
     0
102
RTVSPropertyOp20
 70
     0
102
RTVSPropertyOp21
 70
     0
102
RTVSPropertyOp22
 70
     0
102
RTVSPropertyOp23
 70
     0
102
RTVSPropertyOp24
 70
     0
102
RTVSPropertyOp25
 70
     0
102
RTVSPropertyOp26
 70
     0
102
RTVSPropertyOp27
 70
     0
102
RTVSPropertyOp28
 70
     0
102
RTVSPropertyOp29
 70
     0
102
RTVSPropertyOp30
 70
     0
102
RTVSPropertyOp31
 70
     0
102
RTVSPropertyOp32
 70
     0
  0
XRECORD
  5
4337
102
{ACAD_REACTORS
330
4336
102
}
330
4336
100
AcDbXrecord
280
     1
102
RTVSPropertyOp0
 70
     1
102
RTVSPropertyOp1
 70
     1
102
RTVSPropertyOp2
 70
     1
102
RTVSPropertyOp3
 70
     1
102
RTVSPropertyOp4
 70
     1
102
RTVSPropertyOp5
 70
     1
102
RTVSPropertyOp6
 70
     1
102
RTVSPropertyOp7
 70
     1
102
RTVSPropertyOp8
 70
     1
102
RTVSPropertyOp9
 70
     1
102
RTVSPropertyOp10
 70
     1
102
RTVSPropertyOp11
 70
     1
102
RTVSPropertyOp12
 70
     1
102
RTVSPropertyOp13
 70
     1
102
RTVSPropertyOp14
 70
     1
102
RTVSPropertyOp15
 70
     1
102
RTVSPropertyOp16
 70
     1
102
RTVSPropertyOp17
 70
     1
102
RTVSPropertyOp18
 70
     1
102
RTVSPropertyOp19
 70
     1
102
RTVSPropertyOp20
 70
     1
102
RTVSPropertyOp21
 70
     1
102
RTVSPropertyOp22
 70
     1
102
RTVSPropertyOp23
 70
     1
102
RTVSPropertyOp24
 70
     1
102
RTVSPropertyOp25
 70
     1
102
RTVSPropertyOp26
 70
     1
102
RTVSPropertyOp27
 70
     1
102
RTVSPropertyOp28
 70
     1
102
RTVSPropertyOp29
 70
     1
102
RTVSPropertyOp30
 70
     1
102
RTVSPropertyOp31
 70
     1
102
RTVSPropertyOp32
 70
     1
  0
XRECORD
  5
434E
102
{ACAD_REACTORS
330
434D
102
}
330
434D
100
AcDbXrecord
280
     1
102
RTVSPropertyOp0
 70
     0
102
RTVSPropertyOp1
 70
     0
102
RTVSPropertyOp2
 70
     0
102
RTVSPropertyOp3
 70
     0
102
RTVSPropertyOp4
 70
     0
102
RTVSPropertyOp5
 70
     0
102
RTVSPropertyOp6
 70
     0
102
RTVSPropertyOp7
 70
     0
102
RTVSPropertyOp8
 70
     0
102
RTVSPropertyOp9
 70
     0
102
RTVSPropertyOp10
 70
     0
102
RTVSPropertyOp11
 70
     0
102
RTVSPropertyOp12
 70
     0
102
RTVSPropertyOp13
 70
     0
102
RTVSPropertyOp14
 70
     2
102
RTVSPropertyOp15
 70
     0
102
RTVSPropertyOp16
 70
     0
102
RTVSPropertyOp17
 70
     0
102
RTVSPropertyOp18
 70
     0
102
RTVSPropertyOp19
 70
     0
102
RTVSPropertyOp20
 70
     0
102
RTVSPropertyOp21
 70
     0
102
RTVSPropertyOp22
 70
     0
102
RTVSPropertyOp23
 70
     0
102
RTVSPropertyOp24
 70
     0
102
RTVSPropertyOp25
 70
     0
102
RTVSPropertyOp26
 70
     0
102
RTVSPropertyOp27
 70
     0
102
RTVSPropertyOp28
 70
     0
102
RTVSPropertyOp29
 70
     0
102
RTVSPropertyOp30
 70
     0
102
RTVSPropertyOp31
 70
     0
102
RTVSPropertyOp32
 70
     0
  0
XRECORD
  5
432F
102
{ACAD_REACTORS
330
432E
102
}
330
432E
100
AcDbXrecord
280
     1
102
RTVSPropertyOp0
 70
     1
102
RTVSPropertyOp1
 70
     1
102
RTVSPropertyOp2
 70
     1
102
RTVSPropertyOp3
 70
     1
102
RTVSPropertyOp4
 70
     1
102
RTVSPropertyOp5
 70
     1
102
RTVSPropertyOp6
 70
     1
102
RTVSPropertyOp7
 70
     1
102
RTVSPropertyOp8
 70
     1
102
RTVSPropertyOp9
 70
     1
102
RTVSPropertyOp10
 70
     1
102
RTVSPropertyOp11
 70
     1
102
RTVSPropertyOp12
 70
     1
102
RTVSPropertyOp13
 70
     1
102
RTVSPropertyOp14
 70
     1
102
RTVSPropertyOp15
 70
     1
102
RTVSPropertyOp16
 70
     1
102
RTVSPropertyOp17
 70
     1
102
RTVSPropertyOp18
 70
     1
102
RTVSPropertyOp19
 70
     1
102
RTVSPropertyOp20
 70
     1
102
RTVSPropertyOp21
 70
     1
102
RTVSPropertyOp22
 70
     1
102
RTVSPropertyOp23
 70
     1
102
RTVSPropertyOp24
 70
     1
102
RTVSPropertyOp25
 70
     1
102
RTVSPropertyOp26
 70
     1
102
RTVSPropertyOp27
 70
     1
102
RTVSPropertyOp28
 70
     1
102
RTVSPropertyOp29
 70
     1
102
RTVSPropertyOp30
 70
     1
102
RTVSPropertyOp31
 70
     1
102
RTVSPropertyOp32
 70
     1
  0
XRECORD
  5
434A
102
{ACAD_REACTORS
330
4349
102
}
330
4349
100
AcDbXrecord
280
     1
102
RTVSPropertyOp0
 70
     1
102
RTVSPropertyOp1
 70
     1
102
RTVSPropertyOp2
 70
     1
102
RTVSPropertyOp3
 70
     1
102
RTVSPropertyOp4
 70
     1
102
RTVSPropertyOp5
 70
     1
102
RTVSPropertyOp6
 70
     1
102
RTVSPropertyOp7
 70
     1
102
RTVSPropertyOp8
 70
     1
102
RTVSPropertyOp9
 70
     1
102
RTVSPropertyOp10
 70
     1
102
RTVSPropertyOp11
 70
     1
102
RTVSPropertyOp12
 70
     1
102
RTVSPropertyOp13
 70
     1
102
RTVSPropertyOp14
 70
     1
102
RTVSPropertyOp15
 70
     1
102
RTVSPropertyOp16
 70
     1
102
RTVSPropertyOp17
 70
     1
102
RTVSPropertyOp18
 70
     1
102
RTVSPropertyOp19
 70
     1
102
RTVSPropertyOp20
 70
     1
102
RTVSPropertyOp21
 70
     1
102
RTVSPropertyOp22
 70
     1
102
RTVSPropertyOp23
 70
     1
102
RTVSPropertyOp24
 70
     1
102
RTVSPropertyOp25
 70
     1
102
RTVSPropertyOp26
 70
     1
102
RTVSPropertyOp27
 70
     1
102
RTVSPropertyOp28
 70
     1
102
RTVSPropertyOp29
 70
     1
102
RTVSPropertyOp30
 70
     1
102
RTVSPropertyOp31
 70
     1
102
RTVSPropertyOp32
 70
     1
  0
XRECORD
  5
4348
102
{ACAD_REACTORS
330
4347
102
}
330
4347
100
AcDbXrecord
280
     1
102
RTVSPropertyOp0
 70
     1
102
RTVSPropertyOp1
 70
     1
102
RTVSPropertyOp2
 70
     1
102
RTVSPropertyOp3
 70
     1
102
RTVSPropertyOp4
 70
     1
102
RTVSPropertyOp5
 70
     1
102
RTVSPropertyOp6
 70
     1
102
RTVSPropertyOp7
 70
     1
102
RTVSPropertyOp8
 70
     1
102
RTVSPropertyOp9
 70
     1
102
RTVSPropertyOp10
 70
     1
102
RTVSPropertyOp11
 70
     1
102
RTVSPropertyOp12
 70
     1
102
RTVSPropertyOp13
 70
     1
102
RTVSPropertyOp14
 70
     1
102
RTVSPropertyOp15
 70
     1
102
RTVSPropertyOp16
 70
     1
102
RTVSPropertyOp17
 70
     1
102
RTVSPropertyOp18
 70
     1
102
RTVSPropertyOp19
 70
     1
102
RTVSPropertyOp20
 70
     1
102
RTVSPropertyOp21
 70
     1
102
RTVSPropertyOp22
 70
     1
102
RTVSPropertyOp23
 70
     1
102
RTVSPropertyOp24
 70
     1
102
RTVSPropertyOp25
 70
     1
102
RTVSPropertyOp26
 70
     1
102
RTVSPropertyOp27
 70
     1
102
RTVSPropertyOp28
 70
     1
102
RTVSPropertyOp29
 70
     1
102
RTVSPropertyOp30
 70
     1
102
RTVSPropertyOp31
 70
     1
102
RTVSPropertyOp32
 70
     1
  0
XRECORD
  5
4342
102
{ACAD_REACTORS
330
4341
102
}
330
4341
100
AcDbXrecord
280
     1
102
RTVSPropertyOp0
 70
     1
102
RTVSPropertyOp1
 70
     1
102
RTVSPropertyOp2
 70
     1
102
RTVSPropertyOp3
 70
     1
102
RTVSPropertyOp4
 70
     1
102
RTVSPropertyOp5
 70
     1
102
RTVSPropertyOp6
 70
     1
102
RTVSPropertyOp7
 70
     1
102
RTVSPropertyOp8
 70
     1
102
RTVSPropertyOp9
 70
     1
102
RTVSPropertyOp10
 70
     1
102
RTVSPropertyOp11
 70
     1
102
RTVSPropertyOp12
 70
     1
102
RTVSPropertyOp13
 70
     1
102
RTVSPropertyOp14
 70
     1
102
RTVSPropertyOp15
 70
     1
102
RTVSPropertyOp16
 70
     1
102
RTVSPropertyOp17
 70
     1
102
RTVSPropertyOp18
 70
     1
102
RTVSPropertyOp19
 70
     1
102
RTVSPropertyOp20
 70
     1
102
RTVSPropertyOp21
 70
     1
102
RTVSPropertyOp22
 70
     1
102
RTVSPropertyOp23
 70
     1
102
RTVSPropertyOp24
 70
     1
102
RTVSPropertyOp25
 70
     1
102
RTVSPropertyOp26
 70
     1
102
RTVSPropertyOp27
 70
     1
102
RTVSPropertyOp28
 70
     1
102
RTVSPropertyOp29
 70
     1
102
RTVSPropertyOp30
 70
     1
102
RTVSPropertyOp31
 70
     1
102
RTVSPropertyOp32
 70
     1
  0
XRECORD
  5
4344
102
{ACAD_REACTORS
330
4343
102
}
330
4343
100
AcDbXrecord
280
     1
102
RTVSPropertyOp0
 70
     1
102
RTVSPropertyOp1
 70
     1
102
RTVSPropertyOp2
 70
     1
102
RTVSPropertyOp3
 70
     1
102
RTVSPropertyOp4
 70
     1
102
RTVSPropertyOp5
 70
     1
102
RTVSPropertyOp6
 70
     1
102
RTVSPropertyOp7
 70
     1
102
RTVSPropertyOp8
 70
     1
102
RTVSPropertyOp9
 70
     1
102
RTVSPropertyOp10
 70
     1
102
RTVSPropertyOp11
 70
     1
102
RTVSPropertyOp12
 70
     1
102
RTVSPropertyOp13
 70
     1
102
RTVSPropertyOp14
 70
     1
102
RTVSPropertyOp15
 70
     1
102
RTVSPropertyOp16
 70
     1
102
RTVSPropertyOp17
 70
     1
102
RTVSPropertyOp18
 70
     1
102
RTVSPropertyOp19
 70
     1
102
RTVSPropertyOp20
 70
     1
102
RTVSPropertyOp21
 70
     1
102
RTVSPropertyOp22
 70
     1
102
RTVSPropertyOp23
 70
     1
102
RTVSPropertyOp24
 70
     1
102
RTVSPropertyOp25
 70
     1
102
RTVSPropertyOp26
 70
     1
102
RTVSPropertyOp27
 70
     1
102
RTVSPropertyOp28
 70
     1
102
RTVSPropertyOp29
 70
     1
102
RTVSPropertyOp30
 70
     1
102
RTVSPropertyOp31
 70
     1
102
RTVSPropertyOp32
 70
     1
  0
XRECORD
  5
4335
102
{ACAD_REACTORS
330
4334
102
}
330
4334
100
AcDbXrecord
280
     1
102
RTVSPropertyOp0
 70
     1
102
RTVSPropertyOp1
 70
     1
102
RTVSPropertyOp2
 70
     1
102
RTVSPropertyOp3
 70
     1
102
RTVSPropertyOp4
 70
     1
102
RTVSPropertyOp5
 70
     1
102
RTVSPropertyOp6
 70
     1
102
RTVSPropertyOp7
 70
     1
102
RTVSPropertyOp8
 70
     1
102
RTVSPropertyOp9
 70
     1
102
RTVSPropertyOp10
 70
     1
102
RTVSPropertyOp11
 70
     1
102
RTVSPropertyOp12
 70
     1
102
RTVSPropertyOp13
 70
     1
102
RTVSPropertyOp14
 70
     1
102
RTVSPropertyOp15
 70
     1
102
RTVSPropertyOp16
 70
     1
102
RTVSPropertyOp17
 70
     1
102
RTVSPropertyOp18
 70
     1
102
RTVSPropertyOp19
 70
     1
102
RTVSPropertyOp20
 70
     1
102
RTVSPropertyOp21
 70
     1
102
RTVSPropertyOp22
 70
     1
102
RTVSPropertyOp23
 70
     1
102
RTVSPropertyOp24
 70
     1
102
RTVSPropertyOp25
 70
     1
102
RTVSPropertyOp26
 70
     1
102
RTVSPropertyOp27
 70
     1
102
RTVSPropertyOp28
 70
     1
102
RTVSPropertyOp29
 70
     1
102
RTVSPropertyOp30
 70
     1
102
RTVSPropertyOp31
 70
     1
102
RTVSPropertyOp32
 70
     1
  0
XRECORD
  5
433E
102
{ACAD_REACTORS
330
433D
102
}
330
433D
100
AcDbXrecord
280
     1
102
RTVSPropertyOp0
 70
     1
102
RTVSPropertyOp1
 70
     1
102
RTVSPropertyOp2
 70
     1
102
RTVSPropertyOp3
 70
     1
102
RTVSPropertyOp4
 70
     1
102
RTVSPropertyOp5
 70
     1
102
RTVSPropertyOp6
 70
     1
102
RTVSPropertyOp7
 70
     1
102
RTVSPropertyOp8
 70
     1
102
RTVSPropertyOp9
 70
     1
102
RTVSPropertyOp10
 70
     1
102
RTVSPropertyOp11
 70
     1
102
RTVSPropertyOp12
 70
     1
102
RTVSPropertyOp13
 70
     1
102
RTVSPropertyOp14
 70
     1
102
RTVSPropertyOp15
 70
     1
102
RTVSPropertyOp16
 70
     1
102
RTVSPropertyOp17
 70
     1
102
RTVSPropertyOp18
 70
     1
102
RTVSPropertyOp19
 70
     1
102
RTVSPropertyOp20
 70
     1
102
RTVSPropertyOp21
 70
     1
102
RTVSPropertyOp22
 70
     1
102
RTVSPropertyOp23
 70
     1
102
RTVSPropertyOp24
 70
     1
102
RTVSPropertyOp25
 70
     1
102
RTVSPropertyOp26
 70
     1
102
RTVSPropertyOp27
 70
     1
102
RTVSPropertyOp28
 70
     1
102
RTVSPropertyOp29
 70
     1
102
RTVSPropertyOp30
 70
     1
102
RTVSPropertyOp31
 70
     1
102
RTVSPropertyOp32
 70
     1
  0
XRECORD
  5
4346
102
{ACAD_REACTORS
330
4345
102
}
330
4345
100
AcDbXrecord
280
     1
102
RTVSPropertyOp0
 70
     1
102
RTVSPropertyOp1
 70
     1
102
RTVSPropertyOp2
 70
     1
102
RTVSPropertyOp3
 70
     1
102
RTVSPropertyOp4
 70
     1
102
RTVSPropertyOp5
 70
     1
102
RTVSPropertyOp6
 70
     1
102
RTVSPropertyOp7
 70
     1
102
RTVSPropertyOp8
 70
     1
102
RTVSPropertyOp9
 70
     1
102
RTVSPropertyOp10
 70
     1
102
RTVSPropertyOp11
 70
     1
102
RTVSPropertyOp12
 70
     1
102
RTVSPropertyOp13
 70
     1
102
RTVSPropertyOp14
 70
     1
102
RTVSPropertyOp15
 70
     1
102
RTVSPropertyOp16
 70
     1
102
RTVSPropertyOp17
 70
     1
102
RTVSPropertyOp18
 70
     1
102
RTVSPropertyOp19
 70
     1
102
RTVSPropertyOp20
 70
     1
102
RTVSPropertyOp21
 70
     1
102
RTVSPropertyOp22
 70
     1
102
RTVSPropertyOp23
 70
     1
102
RTVSPropertyOp24
 70
     1
102
RTVSPropertyOp25
 70
     1
102
RTVSPropertyOp26
 70
     1
102
RTVSPropertyOp27
 70
     1
102
RTVSPropertyOp28
 70
     1
102
RTVSPropertyOp29
 70
     1
102
RTVSPropertyOp30
 70
     1
102
RTVSPropertyOp31
 70
     1
102
RTVSPropertyOp32
 70
     1
  0
DICTIONARY
  5
4351
330
406A
100
AcDbDictionary
280
     1
281
     1
  3
ACAD_XREC_ROUNDTRIP
360
4352
  0
XRECORD
  5
4352
102
{ACAD_REACTORS
330
4351
102
}
330
4351
100
AcDbXrecord
280
     1
102
SHADEPLOT
 70
     0
102
SHADEPLOTRESLEVEL
 70
     2
102
SHADEPLOTCUSTOMDPI
 70
   300
  0
ENDSEC
  0
EOF
