  0
SECTION
  2
HEADER
  9
$ACADVER
  1
AC1015
  9
$ACADMAINTVER
 70
    20
  9
$DWGCODEPAGE
  3
ANSI_932
  9
$INSBASE
 10
0.0
 20
0.0
 30
0.0
  9
$EXTMIN
 10
239.3533658662422
 20
223.2338701412366
 30
0.0
  9
$EXTMAX
 10
296.2726524807515
 20
268.2030537741518
 30
0.0
  9
$LIMMIN
 10
213.5119115507284
 20
192.4209837501235
  9
$LIMMAX
 10
362.0119115507284
 20
297.4209837501236
  9
$ORTHOMODE
 70
     0
  9
$REGENMODE
 70
     1
  9
$FILLMODE
 70
     1
  9
$QTEXTMODE
 70
     0
  9
$MIRRTEXT
 70
     1
  9
$LTSCALE
 40
0.5
  9
$ATTMODE
 70
     1
  9
$TEXTSIZE
 40
1.5
  9
$TRACEWID
 40
1.0
  9
$TEXTSTYLE
  7
STANDARD
  9
$CLAYER
  8
0
  9
$CELTYPE
  6
ByLayer
  9
$CECOLOR
 62
   256
  9
$CELTSCALE
 40
1.0
  9
$DISPSILH
 70
     0
  9
$DIMSCALE
 40
0.5
  9
$DIMASZ
 40
2.5
  9
$DIMEXO
 40
1.0
  9
$DIMDLI
 40
10.0
  9
$DIMRND
 40
0.0
  9
$DIMDLE
 40
0.0
  9
$DIMEXE
 40
1.0
  9
$DIMTP
 40
0.1
  9
$DIMTM
 40
0.1
  9
$DIMTXT
 40
3.5
  9
$DIMCEN
 40
0.0
  9
$DIMTSZ
 40
0.0
  9
$DIMTOL
 70
     0
  9
$DIMLIM
 70
     0
  9
$DIMTIH
 70
     0
  9
$DIMTOH
 70
     0
  9
$DIMSE1
 70
     0
  9
$DIMSE2
 70
     0
  9
$DIMTAD
 70
     3
  9
$DIMZIN
 70
     8
  9
$DIMBLK
  1
Open30
  9
$DIMASO
 70
     1
  9
$DIMSHO
 70
     1
  9
$DIMPOST
  1

  9
$DIMAPOST
  1
"
  9
$DIMALT
 70
     0
  9
$DIMALTD
 70
     2
  9
$DIMALTF
 40
0.0393701
  9
$DIMLFAC
 40
1.0
  9
$DIMTOFL
 70
     1
  9
$DIMTVP
 40
0.0
  9
$DIMTIX
 70
     0
  9
$DIMSOXD
 70
     0
  9
$DIMSAH
 70
     0
  9
$DIMBLK1
  1
Open30
  9
$DIMBLK2
  1
Open30
  9
$DIMSTYLE
  2
AM_JIS
  9
$DIMCLRD
 70
   256
  9
$DIMCLRE
 70
   256
  9
$DIMCLRT
 70
     2
  9
$DIMTFAC
 40
0.71
  9
$DIMGAP
 40
1.5
  9
$DIMJUST
 70
     0
  9
$DIMSD1
 70
     0
  9
$DIMSD2
 70
     0
  9
$DIMTOLJ
 70
     0
  9
$DIMTZIN
 70
     8
  9
$DIMALTZ
 70
     0
  9
$DIMALTTZ
 70
     0
  9
$DIMUPT
 70
     0
  9
$DIMDEC
 70
     2
  9
$DIMTDEC
 70
     3
  9
$DIMALTU
 70
     2
  9
$DIMALTTD
 70
     4
  9
$DIMTXSTY
  7
STANDARD
  9
$DIMAUNIT
 70
     0
  9
$DIMADEC
 70
     0
  9
$DIMALTRND
 40
0.0
  9
$DIMAZIN
 70
     2
  9
$DIMDSEP
 70
    46
  9
$DIMATFIT
 70
     3
  9
$DIMFRAC
 70
     0
  9
$DIMLDRBLK
  1
Open30
  9
$DIMLUNIT
 70
     2
  9
$DIMLWD
 70
    -1
  9
$DIMLWE
 70
    -1
  9
$DIMTMOVE
 70
     0
  9
$LUNITS
 70
     2
  9
$LUPREC
 70
     2
  9
$SKETCHINC
 40
1.0
  9
$FILLETRAD
 40
2.5
  9
$AUNITS
 70
     0
  9
$AUPREC
 70
     0
  9
$MENU
  1
.
  9
$ELEVATION
 40
0.0
  9
$PELEVATION
 40
0.0
  9
$THICKNESS
 40
0.0
  9
$LIMCHECK
 70
     0
  9
$CHAMFERA
 40
0.1
  9
$CHAMFERB
 40
0.1
  9
$CHAMFERC
 40
0.0999999999999887
  9
$CHAMFERD
 40
0.8679725021055597
  9
$SKPOLY
 70
     0
  9
$TDCREATE
 40
2455387.618067129
  9
$TDUCREATE
 40
2455387.243067129
  9
$TDUPDATE
 40
2455764.551634468
  9
$TDUUPDATE
 40
2455764.176634468
  9
$TDINDWG
 40
0.1199448264
  9
$TDUSRTIMER
 40
0.1199448264
  9
$USRTIMER
 70
     1
  9
$ANGBASE
 50
0.0
  9
$ANGDIR
 70
     0
  9
$PDMODE
 70
     0
  9
$PDSIZE
 40
0.0
  9
$PLINEWID
 40
0.0
  9
$SPLFRAME
 70
     0
  9
$SPLINETYPE
 70
     6
  9
$SPLINESEGS
 70
     8
  9
$HANDSEED
  5
190C
  9
$SURFTAB1
 70
     6
  9
$SURFTAB2
 70
     6
  9
$SURFTYPE
 70
     6
  9
$SURFU
 70
     6
  9
$SURFV
 70
     6
  9
$UCSBASE
  2

  9
$UCSNAME
  2

  9
$UCSORG
 10
0.0
 20
0.0
 30
0.0
  9
$UCSXDIR
 10
1.0
 20
0.0
 30
0.0
  9
$UCSYDIR
 10
0.0
 20
1.0
 30
0.0
  9
$UCSORTHOREF
  2

  9
$UCSORTHOVIEW
 70
     0
  9
$UCSORGTOP
 10
0.0
 20
0.0
 30
0.0
  9
$UCSORGBOTTOM
 10
0.0
 20
0.0
 30
0.0
  9
$UCSORGLEFT
 10
0.0
 20
0.0
 30
0.0
  9
$UCSORGRIGHT
 10
0.0
 20
0.0
 30
0.0
  9
$UCSORGFRONT
 10
0.0
 20
0.0
 30
0.0
  9
$UCSORGBACK
 10
0.0
 20
0.0
 30
0.0
  9
$PUCSBASE
  2

  9
$PUCSNAME
  2

  9
$PUCSORG
 10
0.0
 20
0.0
 30
0.0
  9
$PUCSXDIR
 10
1.0
 20
0.0
 30
0.0
  9
$PUCSYDIR
 10
0.0
 20
1.0
 30
0.0
  9
$PUCSORTHOREF
  2

  9
$PUCSORTHOVIEW
 70
     0
  9
$PUCSORGTOP
 10
0.0
 20
0.0
 30
0.0
  9
$PUCSORGBOTTOM
 10
0.0
 20
0.0
 30
0.0
  9
$PUCSORGLEFT
 10
0.0
 20
0.0
 30
0.0
  9
$PUCSORGRIGHT
 10
0.0
 20
0.0
 30
0.0
  9
$PUCSORGFRONT
 10
0.0
 20
0.0
 30
0.0
  9
$PUCSORGBACK
 10
0.0
 20
0.0
 30
0.0
  9
$USERI1
 70
     0
  9
$USERI2
 70
     0
  9
$USERI3
 70
     0
  9
$USERI4
 70
     0
  9
$USERI5
 70
     0
  9
$USERR1
 40
0.0
  9
$USERR2
 40
0.0
  9
$USERR3
 40
0.0
  9
$USERR4
 40
0.0
  9
$USERR5
 40
0.0
  9
$WORLDVIEW
 70
     1
  9
$SHADEDGE
 70
     3
  9
$SHADEDIF
 70
    70
  9
$TILEMODE
 70
     1
  9
$MAXACTVP
 70
    64
  9
$PINSBASE
 10
0.0
 20
0.0
 30
0.0
  9
$PLIMCHECK
 70
     0
  9
$PEXTMIN
 10
1.000000000000000E+20
 20
1.000000000000000E+20
 30
1.000000000000000E+20
  9
$PEXTMAX
 10
-1.000000000000000E+20
 20
-1.000000000000000E+20
 30
-1.000000000000000E+20
  9
$PLIMMIN
 10
0.0
 20
0.0
  9
$PLIMMAX
 10
420.0
 20
297.0
  9
$UNITMODE
 70
     0
  9
$VISRETAIN
 70
     1
  9
$PLINEGEN
 70
     0
  9
$PSLTSCALE
 70
     1
  9
$TREEDEPTH
 70
  3020
  9
$CMLSTYLE
  2
Standard
  9
$CMLJUST
 70
     0
  9
$CMLSCALE
 40
20.0
  9
$PROXYGRAPHICS
 70
     1
  9
$MEASUREMENT
 70
     1
  9
$CELWEIGHT
370
    -1
  9
$ENDCAPS
280
     0
  9
$JOINSTYLE
280
     0
  9
$LWDISPLAY
290
     0
  9
$INSUNITS
 70
     4
  9
$HYPERLINKBASE
  1

  9
$STYLESHEET
  1
IMAGIO.ctb
  9
$XEDIT
290
     1
  9
$CEPSNTYPE
380
     0
  9
$PSTYLEMODE
290
     1
  9
$FINGERPRINTGUID
  2
{23565DA4-2AE3-4342-9AE7-01E51E3472E3}
  9
$VERSIONGUID
  2
{BD5A9374-BD22-4A00-9ACF-330617B9A1BE}
  9
$EXTNAMES
290
     1
  9
$PSVPSCALE
 40
0.0
  9
$OLESTARTUP
290
     0
  0
ENDSEC
  0
SECTION
  2
CLASSES
  0
CLASS
  1
ACDBDICTIONARYWDFLT
  2
AcDbDictionaryWithDefault
  3
ObjectDBX Classes
 90
        0
280
     0
281
     0
  0
CLASS
  1
ACDBPLACEHOLDER
  2
AcDbPlaceHolder
  3
ObjectDBX Classes
 90
        0
280
     0
281
     0
  0
CLASS
  1
LAYOUT
  2
AcDbLayout
  3
ObjectDBX Classes
 90
        0
280
     0
281
     0
  0
CLASS
  1
AMGSETTINGSOBJ
  2
AmgSettingsObj
  3
"AcadM|Product Description: AutoCAD Mechanical|Company: Autodesk, Inc."
 90
     1024
280
     0
281
     0
  0
CLASS
  1
ACME_DOCUMENT
  2
AcMeDbDoc
  3
AcMeServices
 90
     1024
280
     0
281
     0
  0
CLASS
  1
ACMESCOPE
  2
AcMeScope
  3
AcMeServices
 90
     1024
280
     0
281
     0
  0
CLASS
  1
ACMECOMMANDHISTORY
  2
AcMeCommandHistory
  3
AcMeServices
 90
     1024
280
     0
281
     0
  0
CLASS
  1
DICTIONARYVAR
  2
AcDbDictionaryVar
  3
ObjectDBX Classes
 90
        0
280
     0
281
     0
  0
CLASS
  1
ACIMSYSVARMAN
  2
AcImSysVarManager
  3
AcMeServices
 90
     1024
280
     0
281
     0
  0
CLASS
  1
ACIMREALSYSVAR
  2
AcImRealSysVar
  3
AcMeServices
 90
     1024
280
     0
281
     0
  0
CLASS
  1
ACIMINTSYSVAR
  2
AcImIntSysVar
  3
AcMeServices
 90
     1024
280
     0
281
     0
  0
CLASS
  1
ACMEDRAWINGMAN
  2
AcMeDrawingMan
  3
AcMeServices
 90
    33792
280
     0
281
     0
  0
CLASS
  1
ACMEVIEW
  2
AcMeView
  3
AcMeServices
 90
    33792
280
     0
281
     0
  0
CLASS
  1
ACDBENTITYCACHE
  2
AcMeEntityCache
  3
AcMeServices
 90
     1024
280
     0
281
     0
  0
CLASS
  1
GSMANAGER
  2
AcMeGSManager
  3
AcMeServices
 90
    32768
280
     0
281
     0
  0
CLASS
  1
AMDTINTERNALREACTOR
  2
AmdtInternalReactor
  3
AcMeServices
 90
     1024
280
     0
281
     0
  0
CLASS
  1
ACMESTATEMGR
  2
AcMeStateMgr
  3
AcMeServices
 90
     1024
280
     0
281
     0
  0
CLASS
  1
ACME_DATABASE
  2
AcMeDbDatabase
  3
AcMeServices
 90
     1024
280
     0
281
     0
  0
CLASS
  1
ACRFINSADJUSTERMGR
  2
AcRfInsAdjusterMgr
  3
AcMeServices
 90
     1024
280
     0
281
     0
  0
CLASS
  1
ACMDATADICTIONARY
  2
AcmDataDictionary
  3
"AcmSymBB|Product Description: AutoCAD Mechanical|Company: Autodesk, Inc."
 90
     1024
280
     0
281
     0
  0
CLASS
  1
ACMDATAENTRYBLOCK
  2
AcmDataEntryBlock
  3
AcmSymBB|Product Description: AutoCAD Mechanical|Company: Autodesk, Inc.
 90
     1024
280
     0
281
     0
  0
CLASS
  1
AMGOBJPROPCFG
  2
AmgObjPropCfg
  3
"AmgLay|Product Description: AutoCAD Mechanical|Company: Autodesk, Inc."
 90
     1025
280
     0
281
     0
  0
CLASS
  1
ACAMGFILTERDAT
  2
AcAmgFilterDat
  3
"AcadM|Product Description: AutoCAD Mechanical|Company: Autodesk, Inc."
 90
     1024
280
     0
281
     0
  0
CLASS
  1
LAYER_INDEX
  2
AcDbLayerIndex
  3
ObjectDBX Classes
 90
    32768
280
     0
281
     0
  0
CLASS
  1
IDBUFFER
  2
AcDbIdBuffer
  3
ObjectDBX Classes
 90
    32768
280
     0
281
     0
  0
CLASS
  1
ACIMSTRSYSVAR
  2
AcImStrSysVar
  3
AcMeServices
 90
     1024
280
     0
281
     0
  0
CLASS
  1
ACMSTANDARDJIS
  2
AcmStandardJIS
  3
"Amdt_StdImp|Product Description: AutoCAD Mechanical|Company: Autodesk, Inc."
 90
     1024
280
     0
281
     0
  0
CLASS
  1
ACMSURFSTANDARDJIS
  2
AcmSurfTextStdJIS
  3
"Amdt_StdImp|Product Description: AutoCAD Mechanical|Company: Autodesk, Inc."
 90
     1024
280
     0
281
     0
  0
CLASS
  1
ACMFCFSTANDARDJIS
  2
AcmFCFStdJIS
  3
"Amdt_StdImp|Product Description: AutoCAD Mechanical|Company: Autodesk, Inc."
 90
     1024
280
     0
281
     0
  0
CLASS
  1
ACMWELDSTANDARDJIS
  2
AcmWeldingStdJIS
  3
"Amdt_StdImp|Product Description: AutoCAD Mechanical|Company: Autodesk, Inc."
 90
     1024
280
     0
281
     0
  0
CLASS
  1
ACMIDSTANDARDJIS
  2
AcmIdStdJIS
  3
"Amdt_StdImp|Product Description: AutoCAD Mechanical|Company: Autodesk, Inc."
 90
     1024
280
     0
281
     0
  0
CLASS
  1
ACMDATUMSTANDARDJIS
  2
AcmDatumStdJIS
  3
"Amdt_StdImp|Product Description: AutoCAD Mechanical|Company: Autodesk, Inc."
 90
     1024
280
     0
281
     0
  0
CLASS
  1
ACMBOMSTANDARDJIS
  2
AcmBOMStdJIS
  3
"Amdt_StdImp|Product Description: AutoCAD Mechanical|Company: Autodesk, Inc."
 90
     1024
280
     0
281
     0
  0
CLASS
  1
MATERIAL
  2
AcDbMaterial
  3
ObjectDBX Classes
 90
     1153
280
     0
281
     0
  0
CLASS
  1
VISUALSTYLE
  2
AcDbVisualStyle
  3
ObjectDBX Classes
 90
     4095
280
     0
281
     0
  0
CLASS
  1
TABLESTYLE
  2
AcDbTableStyle
  3
ObjectDBX Classes
 90
     4095
280
     0
281
     0
  0
CLASS
  1
ACGREFMASTER
  2
AcGrefMaster
  3
AcAttribServices
 90
     1024
280
     0
281
     0
  0
CLASS
  1
AM_DRAWING_MGR
  2
AcDmDwgMgr
  3
AcMechDwgViewMgmt
 90
     1024
280
     0
281
     0
  0
CLASS
  1
AM_DWG_DOCUMENT
  2
AcDmDwgDocument
  3
AcMechDwgViewMgmt
 90
     1024
280
     0
281
     0
  0
CLASS
  1
AM_DWG_SHEET
  2
AcDmSheet
  3
AcMechDwgViewMgmt
 90
     1024
280
     0
281
     0
  0
CLASS
  1
AM_VIEWDIMPARMAP
  2
AcDmViewDimParMap
  3
AcMechDwgViewMgmt
 90
     1024
280
     0
281
     0
  0
CLASS
  1
AM_DWGMGR_NAME
  2
AcDmDwgMgrName
  3
AcMechDwgViewMgmt
 90
     1024
280
     0
281
     0
  0
CLASS
  1
ACGREFACADMASTER
  2
AcGrefacadMaster
  3
AcGrefServices
 90
     1024
280
     0
281
     0
  0
CLASS
  1
AMDTMENUSTATEMGR
  2
AmdtMenuStateMgr
  3
McadcomServices
 90
     1024
280
     0
281
     0
  0
CLASS
  1
AMDTMCOMMENUSTATE
  2
AmdtMcomMenuState
  3
McadcomServices
 90
     1024
280
     0
281
     0
  0
CLASS
  1
AMIMASTER
  2
AmiMaster
  3
AmiServices
 90
     1024
280
     0
281
     0
  0
CLASS
  1
MAPIAMMOUDLE
  2
MApiAmModule
  3
MApiAmServices
 90
     1024
280
     0
281
     0
  0
CLASS
  1
AMDTADMENUSTATE
  2
AmdtAdMenuState
  3
DesignerServices
 90
    32768
280
     0
281
     0
  0
CLASS
  1
ADAPPL
  2
AcAdAppl
  3
DesignerAssemblies
 90
    33792
280
     0
281
     0
  0
CLASS
  1
DEPMGR
  2
AcAdDepMgr
  3
DesignerAssemblies
 90
    33792
280
     0
281
     0
  0
CLASS
  1
PARAMMGR
  2
AcAdParamMgr
  3
DesignerAssemblies
 90
    33792
280
     0
281
     0
  0
CLASS
  1
PARAMSCOPE
  2
AcAdParamScope
  3
DesignerAssemblies
 90
    33792
280
     0
281
     0
  0
CLASS
  1
NAMEDAPPL
  2
AcAdNamedAppl
  3
DesignerAssemblies
 90
    33792
280
     0
281
     0
  0
CLASS
  1
AMDTDMMENUSTATE
  2
AmdtDmMenuState
  3
AcMechDwgViewMgmt
 90
     1024
280
     0
281
     0
  0
CLASS
  1
AMDTAMMENUSTATE
  2
AmdtAmMenuState
  3
DesignerAssemblies
 90
     1024
280
     0
281
     0
  0
CLASS
  1
ACAMPROJECT
  2
AcAmProject
  3
DesignerAssemblies
 90
     1024
280
     0
281
     0
  0
CLASS
  1
ACAMGRCOMPDEF
  2
AcAmGrCompDef
  3
DesignerAssemblies
 90
     1024
280
     0
281
     0
  0
CLASS
  1
ACCMCONTEXT
  2
AcCmContext
  3
DesignerAssemblies
 90
     1024
280
     0
281
     0
  0
CLASS
  1
ACAMCOMPDEF
  2
AcAmCompDef
  3
DesignerAssemblies
 90
     1024
280
     0
281
     0
  0
CLASS
  1
ACAMCOMPDEFMGR
  2
AcAmCompDefMgr
  3
DesignerAssemblies
 90
     1024
280
     0
281
     0
  0
CLASS
  1
AMCONTEXTMGR
  2
AcAmContextMgr
  3
DesignerAssemblies
 90
     1024
280
     0
281
     0
  0
CLASS
  1
ACAMCONTEXTMODELER
  2
AcAmContextModeler
  3
DesignerAssemblies
 90
     1024
280
     0
281
     0
  0
CLASS
  1
ACRFATTGENMGR
  2
AcRfAttGeneralMgr
  3
AcAttribServices
 90
     1024
280
     0
281
     0
  0
CLASS
  1
ACRFOBJATTMGR
  2
AcRfObjAttGroupMgr
  3
AcAttribServices
 90
     1024
280
     0
281
     0
  0
CLASS
  1
ACRFMCADAPIATTHOLDER
  2
AcRfMCADAPIAttHolder
  3
AcAttribServices
 90
     1024
280
     0
281
     0
  0
CLASS
  1
AMDTSYSATTR
  2
AmdtSystemAttribute
  3
AcAttribServices
 90
     1024
280
     0
281
     0
  0
CLASS
  1
ACAMGTITLESTD
  2
AcAmgTitleStd
  3
"AmgTitle|Product Description: AutoCAD Mechanical|Company: Autodesk, Inc."
 90
     4095
280
     0
281
     0
  0
CLASS
  1
ACMDETAILSTANDARDJIS
  2
AmdtDetailSymStdJIS
  3
"Amdt_StdImp|Product Description: AutoCAD Mechanical|Company: Autodesk, Inc."
 90
     1024
280
     0
281
     0
  0
CLASS
  1
ACMSECTIONSTANDARDJIS
  2
AmdtSectionSymStdJIS
  3
"Amdt_StdImp|Product Description: AutoCAD Mechanical|Company: Autodesk, Inc."
 90
     1024
280
     0
281
     0
  0
CLASS
  1
ACMCENTERLINESTANDARDJIS
  2
AmdtCenterLineStdJIS
  3
"Amdt_StdImp|Product Description: AutoCAD Mechanical|Company: Autodesk, Inc."
 90
     1024
280
     0
281
     0
  0
CLASS
  1
ACMTHREADLINESTANDARDJIS
  2
AmdtThreadLineStdJIS
  3
"Amdt_StdImp|Product Description: AutoCAD Mechanical|Company: Autodesk, Inc."
 90
     1024
280
     0
281
     0
  0
CLASS
  1
ACMNOTESTANDARDJIS
  2
AmdtNoteStdJIS
  3
"Amdt_StdImp|Product Description: AutoCAD Mechanical|Company: Autodesk, Inc."
 90
     1024
280
     0
281
     0
  0
CLASS
  1
AMDTNOTETEMPLATEDB
  2
AmdtNoteTemplateDB
  3
AcmSymBB|Product Description: AutoCAD Mechanical|Company: Autodesk, Inc.
 90
     1024
280
     0
281
     0
  0
CLASS
  1
ACMTAPERSTANDARDJIS
  2
AcmTaperStdJIS
  3
"Amdt_StdImp|Product Description: AutoCAD Mechanical|Company: Autodesk, Inc."
 90
     1024
280
     0
281
     0
  0
CLASS
  1
ACAMGLAYSTD
  2
AcAmgLayStd
  3
"AmgLay|Product Description: AutoCAD Mechanical|Company: Autodesk, Inc."
 90
     1024
280
     0
281
     0
  0
CLASS
  1
ACAMGDIMSTD
  2
AcAmgDimStd
  3
"AmgDim|Product Description: AutoCAD Mechanical|Company: Autodesk, Inc."
 90
     1024
280
     0
281
     0
  0
CLASS
  1
ACAMGHOLECHARTSTDJIS
  2
AcAmgHoleChartStdJIS
  3
AmgDim|Product Description: AutoCAD Mechanical|Company: Autodesk, Inc.
 90
     1024
280
     0
281
     0
  0
CLASS
  1
CATALOGSTATE
  2
AcAmCatalogState
  3
DesignerAssemblies
 90
    33792
280
     0
281
     0
  0
CLASS
  1
ACAMGRCOMPDEFSET
  2
AcAmGrCompDefSet
  3
DesignerAssemblies
 90
     1024
280
     0
281
     0
  0
CLASS
  1
AMDTBROWSERDBTAB
  2
AmdtBrowserDbTab
  3
McadcomServices
 90
     1024
280
     0
281
     0
  0
CLASS
  1
CBROWSERAPPOBJECT
  2
CBrowserAppObject
  3
McadcomServices
 90
     1024
280
     0
281
     0
  0
CLASS
  1
DM_PLACEHOLDER
  2
AcDmSelsetPlaceholder
  3
AcMechDwgViewMgmt
 90
     1024
280
     0
281
     0
  0
CLASS
  1
CAMSSTRUCTBTNSTATE
  2
StructBtnState
  3
DesignerAssemblies
 90
    33792
280
     0
281
     0
  0
CLASS
  1
EXACXREFPANELOBJECT
  2
ExAcXREFPanelObject
  3
EXAC_ESW
 90
    33793
280
     0
281
     0
  0
CLASS
  1
NPOCOLLECTION
  2
AcDbImpNonPersistentObjectsCollection
  3
ObjectDBX Classes
 90
    33921
280
     0
281
     0
  0
CLASS
  1
AMDTNOTE
  2
AmdtNote
  3
"AcmSymBB|Product Description: AutoCAD Mechanical|Company: Autodesk, Inc."
 90
    36863
280
     0
281
     1
  0
CLASS
  1
ACMSURFSYM
  2
AcmSurfaceTexture
  3
"AcmSymBB|Product Description: AutoCAD Mechanical|Company: Autodesk, Inc."
 90
    36863
280
     0
281
     1
  0
CLASS
  1
ACDBLINERES
  2
AcDbLineRes
  3
AcGrefServices
 90
     1024
280
     0
281
     0
  0
CLASS
  1
ACDBDIMENSIONRES
  2
AcDbDimensionRes
  3
AcmSymBB|Product Description: AutoCAD Mechanical|Company: Autodesk, Inc.
 90
     1024
280
     0
281
     0
  0
CLASS
  1
SORTENTSTABLE
  2
AcDbSortentsTable
  3
ObjectDBX Classes
 90
        0
280
     0
281
     0
  0
CLASS
  1
ACMSTANDARDISO
  2
AcmStandardISO
  3
"Amdt_StdImp|Product Description: AutoCAD Mechanical|Company: Autodesk, Inc."
 90
     1024
280
     0
281
     0
  0
CLASS
  1
AMDTEDGESTANDARDISO13715
  2
AmdtEdgeStdISO13715
  3
"Amdt_StdImp|Product Description: AutoCAD Mechanical|Company: Autodesk, Inc."
 90
     1024
280
     0
281
     0
  0
CLASS
  1
ACMSURFSTANDARDISO
  2
AcmSurfTextStdISO
  3
"Amdt_StdImp|Product Description: AutoCAD Mechanical|Company: Autodesk, Inc."
 90
     1024
280
     0
281
     0
  0
CLASS
  1
ACMFCFSTANDARDISO
  2
AcmFCFStdISO
  3
"Amdt_StdImp|Product Description: AutoCAD Mechanical|Company: Autodesk, Inc."
 90
     1024
280
     0
281
     0
  0
CLASS
  1
ACMWELDSTANDARDISO
  2
AcmWeldingStdISO
  3
"Amdt_StdImp|Product Description: AutoCAD Mechanical|Company: Autodesk, Inc."
 90
     1024
280
     0
281
     0
  0
CLASS
  1
ACMIDSTANDARDISO
  2
AcmIdStdISO
  3
"Amdt_StdImp|Product Description: AutoCAD Mechanical|Company: Autodesk, Inc."
 90
     1024
280
     0
281
     0
  0
CLASS
  1
ACMDATUMSTANDARDISO
  2
AcmDatumStdISO
  3
"Amdt_StdImp|Product Description: AutoCAD Mechanical|Company: Autodesk, Inc."
 90
     1024
280
     0
281
     0
  0
CLASS
  1
ACMBOMSTANDARDISO
  2
AcmBOMStdISO
  3
"Amdt_StdImp|Product Description: AutoCAD Mechanical|Company: Autodesk, Inc."
 90
     1024
280
     0
281
     0
  0
CLASS
  1
ACMDETAILSTANDARDISO
  2
AmdtDetailSymStdISO
  3
"Amdt_StdImp|Product Description: AutoCAD Mechanical|Company: Autodesk, Inc."
 90
     1024
280
     0
281
     0
  0
CLASS
  1
ACMSECTIONSTANDARDISO
  2
AmdtSectionSymStdISO
  3
"Amdt_StdImp|Product Description: AutoCAD Mechanical|Company: Autodesk, Inc."
 90
     1024
280
     0
281
     0
  0
CLASS
  1
ACMCENTERLINESTANDARDISO
  2
AmdtCenterLineStdISO
  3
"Amdt_StdImp|Product Description: AutoCAD Mechanical|Company: Autodesk, Inc."
 90
     1024
280
     0
281
     0
  0
CLASS
  1
ACMTHREADLINESTANDARDISO
  2
AmdtThreadLineStdISO
  3
"Amdt_StdImp|Product Description: AutoCAD Mechanical|Company: Autodesk, Inc."
 90
     1024
280
     0
281
     0
  0
CLASS
  1
ACMNOTESTANDARDISO
  2
AmdtNoteStdISO
  3
"Amdt_StdImp|Product Description: AutoCAD Mechanical|Company: Autodesk, Inc."
 90
     1024
280
     0
281
     0
  0
CLASS
  1
ACMTAPERSTANDARDISO
  2
AcmTaperStdISO
  3
"Amdt_StdImp|Product Description: AutoCAD Mechanical|Company: Autodesk, Inc."
 90
     1024
280
     0
281
     0
  0
CLASS
  1
ACAMGHOLECHARTSTDISO
  2
AcAmgHoleChartStdISO
  3
AmgDim|Product Description: AutoCAD Mechanical|Company: Autodesk, Inc.
 90
     1024
280
     0
281
     0
  0
CLASS
  1
SCALE
  2
AcDbScale
  3
ObjectDBX Classes
 90
     1153
280
     0
281
     0
  0
CLASS
  1
MLEADERSTYLE
  2
AcDbMLeaderStyle
  3
ACDB_MLEADERSTYLE_CLASS
 90
     4095
280
     0
281
     0
  0
CLASS
  1
ACMANOOTATIONVIEWSTANDARDJIS
  2
AmdtAnViewStdJIS
  3
"Amdt_StdImp|Product Description: AutoCAD Mechanical|Company: Autodesk, Inc."
 90
     1024
280
     0
281
     0
  0
CLASS
  1
AMDTEDGESTANDARDJIS
  2
AmdtEdgeStdJIS
  3
"Amdt_StdImp|Product Description: AutoCAD Mechanical|Company: Autodesk, Inc."
 90
     1024
280
     0
281
     0
  0
CLASS
  1
ACMANOOTATIONVIEWSTANDARDISO
  2
AmdtAnViewStdISO
  3
"Amdt_StdImp|Product Description: AutoCAD Mechanical|Company: Autodesk, Inc."
 90
     1024
280
     0
281
     0
  0
CLASS
  1
CELLSTYLEMAP
  2
AcDbCellStyleMap
  3
ObjectDBX Classes
 90
     1152
280
     0
281
     0
  0
CLASS
  1
DIMASSOC
  2
AcDbDimAssoc
  3
"AcDbDimAssoc|Product Desc:     AcDim ARX App For Dimension|Company:          Autodesk, Inc.|WEB Address:      www.autodesk.com"
 90
    32768
280
     0
281
     0
  0
ENDSEC
  0
SECTION
  2
TABLES
  0
TABLE
  2
VPORT
  5
8
102
{ACAD_XDICTIONARY
360
95D
102
}
330
0
100
AcDbSymbolTable
 70
     1
  0
VPORT
  5
230
330
8
100
AcDbSymbolTableRecord
100
AcDbViewportTableRecord
  2
*Active
 70
     0
 10
0.0
 20
0.0
 11
1.0
 21
1.0
 12
267.8161102563351
 22
245.7189886184255
 13
0.0
 23
0.0
 14
1.25
 24
1.25
 15
5.0
 25
5.0
 16
0.0
 26
0.0
 36
1.0
 17
0.0
 27
0.0
 37
0.0
 40
45.29469406470115
 41
2.070938215102974
 42
50.0
 43
0.0
 44
0.0
 50
0.0
 51
0.0
 71
    16
 72
   100
 73
     1
 74
     3
 75
     0
 76
     0
 77
     0
 78
     0
281
     0
 65
     1
110
0.0
120
0.0
130
0.0
111
1.0
121
0.0
131
0.0
112
0.0
122
1.0
132
0.0
 79
     0
146
0.0
  0
ENDTAB
  0
TABLE
  2
LTYPE
  5
5
330
0
100
AcDbSymbolTable
 70
    16
  0
LTYPE
  5
14
330
5
100
AcDbSymbolTableRecord
100
AcDbLinetypeTableRecord
  2
ByBlock
 70
     0
  3

 72
    65
 73
     0
 40
0.0
  0
LTYPE
  5
15
330
5
100
AcDbSymbolTableRecord
100
AcDbLinetypeTableRecord
  2
ByLayer
 70
     0
  3

 72
    65
 73
     0
 40
0.0
  0
LTYPE
  5
16
330
5
100
AcDbSymbolTableRecord
100
AcDbLinetypeTableRecord
  2
Continuous
 70
     0
  3
Solid line
 72
    65
 73
     0
 40
0.0
  0
LTYPE
  5
4B
330
5
100
AcDbSymbolTableRecord
100
AcDbLinetypeTableRecord
  2
AM_ISO02W050
 70
     0
  3
__ __ __ __ __ __ __ __ __ __ __ __ __ __ __
 72
    65
 73
     2
 40
7.5
 49
6.0
 74
     0
 49
-1.5
 74
     0
  0
LTYPE
  5
4C
330
5
100
AcDbSymbolTableRecord
100
AcDbLinetypeTableRecord
  2
AM_ISO08W050
 70
     0
  3
____ . ____ . ____ . ____ . ____ . ____ . ____
 72
    65
 73
     4
 40
18.0
 49
12.0
 74
     0
 49
-1.5
 74
     0
 49
3.0
 74
     0
 49
-1.5
 74
     0
  0
LTYPE
  5
4D
330
5
100
AcDbSymbolTableRecord
100
AcDbLinetypeTableRecord
  2
AM_ISO09W050
 70
     0
  3
_____ . . _____ . . _____ . . ____ .. ____
 72
    65
 73
     6
 40
22.5
 49
12.0
 74
     0
 49
-1.5
 74
     0
 49
3.0
 74
     0
 49
-1.5
 74
     0
 49
3.0
 74
     0
 49
-1.5
 74
     0
  0
LTYPE
  5
4E
330
5
100
AcDbSymbolTableRecord
100
AcDbLinetypeTableRecord
  2
Amconstr
 70
     0
  3
_______________________
 72
    65
 73
     2
 40
9999.0
 49
9999.0
 74
     0
 49
0.0
 74
     0
  0
LTYPE
  5
4F
330
5
100
AcDbSymbolTableRecord
100
AcDbLinetypeTableRecord
  2
AM_ISO02W050x2
 70
     0
  3
 _ _ _ _ _ _ _ _ _ _ _ _
 72
    65
 73
     2
 40
3.75
 49
3.0
 74
     0
 49
-0.75
 74
     0
  0
LTYPE
  5
50
330
5
100
AcDbSymbolTableRecord
100
AcDbLinetypeTableRecord
  2
AM_ISO08W050x2
 70
     0
  3
__ . __ . __ . __ . __ . __
 72
    65
 73
     4
 40
9.0
 49
6.0
 74
     0
 49
-0.75
 74
     0
 49
1.5
 74
     0
 49
-0.75
 74
     0
  0
LTYPE
  5
53
330
5
100
AcDbSymbolTableRecord
100
AcDbLinetypeTableRecord
  2
Amzigzag
 70
     0
  3
/\/-/\/-/\/-/\/-/\/-/\/
 72
    65
 73
     2
 40
11.0001
 49
0.0001
 74
     4
 75
   135
340
52
 46
0.04
 50
0.0
 44
0.0
 45
0.0
 49
-11.0
 74
     0
  0
LTYPE
  5
169
330
5
100
AcDbSymbolTableRecord
100
AcDbLinetypeTableRecord
  2
ACJISTGB
 70
     0
  3
__ . . __ . .
 72
    65
 73
     6
 40
9.0
 49
4.0
 74
     0
 49
-1.0
 74
     0
 49
1.0
 74
     0
 49
-1.0
 74
     0
 49
1.0
 74
     0
 49
-1.0
 74
     0
  0
LTYPE
  5
16A
330
5
100
AcDbSymbolTableRecord
100
AcDbLinetypeTableRecord
  2
ACJISTGL
 70
     0
  3
_ _ _ _ _
 72
    65
 73
     2
 40
3.0
 49
2.0
 74
     0
 49
-1.0
 74
     0
  0
LTYPE
  5
27A
330
5
100
AcDbSymbolTableRecord
100
AcDbLinetypeTableRecord
  2
HIDDEN
 70
     0
  3
Hidden __ __ __ __ __ __ __ __ __ __ __ __ __ _
 72
    65
 73
     2
 40
9.524999999999998
 49
6.349999999999999
 74
     0
 49
-3.174999999999999
 74
     0
  0
LTYPE
  5
27B
330
5
100
AcDbSymbolTableRecord
100
AcDbLinetypeTableRecord
  2
PHANTOM2
 70
     0
  3
Phantom (.5x) ___ _ _ ___ _ _ ___ _ _ ___ _ _
 72
    65
 73
     6
 40
31.75
 49
15.875
 74
     0
 49
-3.174999999999999
 74
     0
 49
3.174999999999999
 74
     0
 49
-3.174999999999999
 74
     0
 49
3.174999999999999
 74
     0
 49
-3.174999999999999
 74
     0
  0
LTYPE
  5
27C
330
5
100
AcDbSymbolTableRecord
100
AcDbLinetypeTableRecord
  2
CENTER
 70
     0
  3
Center ____ _ ____ _ ____ _ ____ _ ____ _ ____
 72
    65
 73
     4
 40
50.8
 49
31.75
 74
     0
 49
-6.349999999999999
 74
     0
 49
6.349999999999999
 74
     0
 49
-6.349999999999999
 74
     0
  0
LTYPE
  5
7A1
330
5
100
AcDbSymbolTableRecord
100
AcDbLinetypeTableRecord
  2
ACISOWELD
 70
     0
  3
_ _ _ _ _
 72
    65
 73
     2
 40
2.0
 49
2.0
 74
     0
 49
-1.0
 74
     0
  0
LTYPE
  5
7A2
330
5
100
AcDbSymbolTableRecord
100
AcDbLinetypeTableRecord
  2
ACISOTGB
 70
     0
  3
__ . . __ . .
 72
    65
 73
     6
 40
9.0
 49
4.0
 74
     0
 49
-1.0
 74
     0
 49
1.0
 74
     0
 49
-1.0
 74
     0
 49
1.0
 74
     0
 49
-1.0
 74
     0
  0
LTYPE
  5
7A3
330
5
100
AcDbSymbolTableRecord
100
AcDbLinetypeTableRecord
  2
ACISOTGL
 70
     0
  3
_ _ _ _ _
 72
    65
 73
     2
 40
3.0
 49
2.0
 74
     0
 49
-1.0
 74
     0
  0
ENDTAB
  0
TABLE
  2
LAYER
  5
2
102
{ACAD_XDICTIONARY
360
AFE
102
}
330
0
100
AcDbSymbolTable
 70
    13
  0
LAYER
  5
10
102
{ACAD_XDICTIONARY
360
B1D
102
}
330
2
100
AcDbSymbolTableRecord
100
AcDbLayerTableRecord
  2
0
 70
     0
 62
     7
  6
Continuous
370
    -3
390
F
  0
LAYER
  5
59
102
{ACAD_XDICTIONARY
360
B1F
102
}
330
2
100
AcDbSymbolTableRecord
100
AcDbLayerTableRecord
  2
AM_0
 70
     0
 62
     7
  6
Continuous
370
    50
390
F
  0
LAYER
  5
5A
102
{ACAD_XDICTIONARY
360
B21
102
}
330
2
100
AcDbSymbolTableRecord
100
AcDbLayerTableRecord
  2
AM_BOR
 70
     0
 62
     7
  6
Continuous
370
    50
390
F
  0
LAYER
  5
31B
102
{ACAD_XDICTIONARY
360
B23
102
}
330
2
100
AcDbSymbolTableRecord
100
AcDbLayerTableRecord
  2
AM_5
 70
     0
 62
     3
  6
Continuous
370
    25
390
F
1001
AcAecLayerStandard
1000

1000

  0
LAYER
  5
443
102
{ACAD_XDICTIONARY
360
B25
102
}
330
2
100
AcDbSymbolTableRecord
100
AcDbLayerTableRecord
  2
AM_7
 70
     0
 62
     4
  6
AM_ISO08W050
370
    25
390
F
1001
AcAecLayerStandard
1000

1000

  0
LAYER
  5
444
102
{ACAD_XDICTIONARY
360
B27
102
}
330
2
100
AcDbSymbolTableRecord
100
AcDbLayerTableRecord
  2
AM_8
 70
     0
 62
     1
  6
Continuous
370
    25
390
F
  0
LAYER
  5
445
330
2
100
AcDbSymbolTableRecord
100
AcDbLayerTableRecord
  2
Defpoints
 70
     0
 62
     7
  6
Continuous
290
     0
370
    -3
390
F
  0
LAYER
  5
7A4
102
{ACAD_XDICTIONARY
360
B29
102
}
330
2
100
AcDbSymbolTableRecord
100
AcDbLayerTableRecord
  2
AM_CL
 70
     0
 62
     1
  6
Amconstr
370
    25
390
F
  0
LAYER
  5
84A
102
{ACAD_XDICTIONARY
360
B2B
102
}
330
2
100
AcDbSymbolTableRecord
100
AcDbLayerTableRecord
  2
BB-0
 70
     0
 62
     7
  6
Continuous
370
    -3
390
F
  0
LAYER
  5
84B
102
{ACAD_XDICTIONARY
360
B2D
102
}
330
2
100
AcDbSymbolTableRecord
100
AcDbLayerTableRecord
  2
6
 70
     0
 62
     2
  6
Continuous
370
    -3
390
F
  0
LAYER
  5
84C
102
{ACAD_XDICTIONARY
360
B2F
102
}
330
2
100
AcDbSymbolTableRecord
100
AcDbLayerTableRecord
  2
1
 70
     0
 62
     9
  6
Continuous
370
    -3
390
F
  0
LAYER
  5
84D
102
{ACAD_XDICTIONARY
360
B31
102
}
330
2
100
AcDbSymbolTableRecord
100
AcDbLayerTableRecord
  2
KLIN
 70
     0
 62
     1
  6
Continuous
370
    -3
390
F
  0
LAYER
  5
AB7
102
{ACAD_XDICTIONARY
360
B33
102
}
330
2
100
AcDbSymbolTableRecord
100
AcDbLayerTableRecord
  2
AM_4
 70
     0
 62
     3
  6
Continuous
370
    25
390
F
1001
AcAecLayerStandard
1000

1000

  0
ENDTAB
  0
TABLE
  2
STYLE
  5
3
330
0
100
AcDbSymbolTable
 70
    10
  0
STYLE
  5
11
330
3
100
AcDbSymbolTableRecord
100
AcDbTextStyleTableRecord
  2
STANDARD
 70
     0
 40
0.0
 41
1.0
 50
0.0
 71
     0
 42
1.5
  3
ISOCP.SHX
  4
EXTFONT.SHX
  0
STYLE
  5
47
330
3
100
AcDbSymbolTableRecord
100
AcDbTextStyleTableRecord
  2
USER1
 70
     0
 40
0.0
 41
1.0
 50
0.0
 71
     0
 42
2.5
  3
TXT.SHX
  4

  0
STYLE
  5
48
330
3
100
AcDbSymbolTableRecord
100
AcDbTextStyleTableRecord
  2
USER2
 70
     0
 40
0.0
 41
1.0
 50
0.0
 71
     0
 42
2.5
  3
SIMPLEX.SHX
  4

  0
STYLE
  5
49
330
3
100
AcDbSymbolTableRecord
100
AcDbTextStyleTableRecord
  2
USER3
 70
     0
 40
0.0
 41
1.0
 50
0.0
 71
     0
 42
2.5
  3
ITALIC.SHX
  4

  0
STYLE
  5
52
330
3
100
AcDbSymbolTableRecord
100
AcDbTextStyleTableRecord
  2

 70
     1
 40
0.0
 41
1.0
 50
0.0
 71
     0
 42
2.5
  3
ltypeshp.shx
  4

  0
STYLE
  5
161
330
3
100
AcDbSymbolTableRecord
100
AcDbTextStyleTableRecord
  2
ACJISTS
 70
     0
 40
1.0
 41
1.0
 50
0.0
 71
     0
 42
2.5
  3
isocp.shx
  4
bigfont.shx
  0
STYLE
  5
168
330
3
100
AcDbSymbolTableRecord
100
AcDbTextStyleTableRecord
  2
ACJISGDT
 70
     0
 40
0.0
 41
1.0
 50
0.0
 71
     0
 42
2.5
  3
amgdt.shx
  4

  0
STYLE
  5
7A5
330
3
100
AcDbSymbolTableRecord
100
AcDbTextStyleTableRecord
  2
ACISOTS
 70
     0
 40
1.0
 41
1.0
 50
0.0
 71
     0
 42
5.0
  3
isocp.shx
  4
extfont.shx
  0
STYLE
  5
7A6
330
3
100
AcDbSymbolTableRecord
100
AcDbTextStyleTableRecord
  2
ACISOGDT
 70
     0
 40
0.0
 41
1.0
 50
0.0
 71
     0
 42
5.0
  3
amgdt.shx
  4

  0
STYLE
  5
7FB
330
3
100
AcDbSymbolTableRecord
100
AcDbTextStyleTableRecord
  2
ｽﾀｲﾙ1
 70
     0
 40
0.0
 41
1.0
 50
0.0
 71
     0
 42
44.62462130138407
  3

  4

1001
ACAD
1000
HGPSoeiKakugothicUB
1071
    32818
  0
ENDTAB
  0
TABLE
  2
VIEW
  5
6
330
0
100
AcDbSymbolTable
 70
     6
  0
VIEW
  5
7C
330
6
100
AcDbSymbolTableRecord
100
AcDbViewTableRecord
  2
AM_VIEW1
 70
     0
 40
52.50000000000003
 10
253.7775965699346
 20
271.1709837501236
 41
80.53137003841232
 11
0.0
 21
0.0
 31
1.0
 12
0.0
 22
0.0
 32
0.0
 42
50.0
 43
0.0
 44
0.0
 50
0.0
 71
    16
281
     0
 72
     0
  0
VIEW
  5
7D
330
6
100
AcDbSymbolTableRecord
100
AcDbViewTableRecord
  2
AM_VIEW2
 70
     0
 40
52.50000000000003
 10
321.7462265315223
 20
271.1709837501236
 41
80.53137003841232
 11
0.0
 21
0.0
 31
1.0
 12
0.0
 22
0.0
 32
0.0
 42
50.0
 43
0.0
 44
0.0
 50
0.0
 71
    16
281
     0
 72
     0
  0
VIEW
  5
7E
330
6
100
AcDbSymbolTableRecord
100
AcDbViewTableRecord
  2
AM_VIEW3
 70
     0
 40
52.50000000000003
 10
253.7775965699346
 20
218.6709837501235
 41
80.53137003841232
 11
0.0
 21
0.0
 31
1.0
 12
0.0
 22
0.0
 32
0.0
 42
50.0
 43
0.0
 44
0.0
 50
0.0
 71
    16
281
     0
 72
     0
  0
VIEW
  5
7F
330
6
100
AcDbSymbolTableRecord
100
AcDbViewTableRecord
  2
AM_VIEW4
 70
     0
 40
52.50000000000003
 10
321.7462265315223
 20
218.6709837501235
 41
80.53137003841232
 11
0.0
 21
0.0
 31
1.0
 12
0.0
 22
0.0
 32
0.0
 42
50.0
 43
0.0
 44
0.0
 50
0.0
 71
    16
281
     0
 72
     0
  0
VIEW
  5
80
330
6
100
AcDbSymbolTableRecord
100
AcDbViewTableRecord
  2
AM_VIEW5
 70
     0
 40
52.50000000000006
 10
287.7619115507284
 20
244.9209837501236
 41
80.53137003841232
 11
0.0
 21
0.0
 31
1.0
 12
0.0
 22
0.0
 32
0.0
 42
50.0
 43
0.0
 44
0.0
 50
0.0
 71
    16
281
     0
 72
     0
  0
VIEW
  5
81
330
6
100
AcDbSymbolTableRecord
100
AcDbViewTableRecord
  2
AM_VIEW6
 70
     0
 40
104.9989500000001
 10
287.7619115507284
 20
244.9209837501236
 41
161.0611294494239
 11
0.0
 21
0.0
 31
1.0
 12
0.0
 22
0.0
 32
0.0
 42
50.0
 43
0.0
 44
0.0
 50
0.0
 71
    16
281
     0
 72
     0
  0
ENDTAB
  0
TABLE
  2
UCS
  5
7
330
0
100
AcDbSymbolTable
 70
     0
  0
ENDTAB
  0
TABLE
  2
APPID
  5
9
330
0
100
AcDbSymbolTable
 70
    51
  0
APPID
  5
12
330
9
100
AcDbSymbolTableRecord
100
AcDbRegAppTableRecord
  2
ACAD
 70
     0
  0
APPID
  5
30
330
9
100
AcDbSymbolTableRecord
100
AcDbRegAppTableRecord
  2
MCAD_NO_VIS
 70
     0
  0
APPID
  5
31
330
9
100
AcDbSymbolTableRecord
100
AcDbRegAppTableRecord
  2
ACAD_TEMP_GRAPHIC
 70
     0
  0
APPID
  5
5B
330
9
100
AcDbSymbolTableRecord
100
AcDbRegAppTableRecord
  2
GENIUS_GENREC_14
 70
     0
  0
APPID
  5
5C
330
9
100
AcDbSymbolTableRecord
100
AcDbRegAppTableRecord
  2
GENIUS_GENODEF_13
 70
     0
  0
APPID
  5
5D
330
9
100
AcDbSymbolTableRecord
100
AcDbRegAppTableRecord
  2
GENIUS_GENOBJ-N-REC_13
 70
     0
  0
APPID
  5
96
330
9
100
AcDbSymbolTableRecord
100
AcDbRegAppTableRecord
  2
GENIUS_GENOBJ-N-CEN_13
 70
     0
  0
APPID
  5
C1
330
9
100
AcDbSymbolTableRecord
100
AcDbRegAppTableRecord
  2
GENIUS_GENOBJ-N-TIT_13
 70
     0
  0
APPID
  5
C2
330
9
100
AcDbSymbolTableRecord
100
AcDbRegAppTableRecord
  2
GENIUS_GENTITLE_13
 70
     0
  0
APPID
  5
C3
330
9
100
AcDbSymbolTableRecord
100
AcDbRegAppTableRecord
  2
GENIUS_GENOENT_13
 70
     0
  0
APPID
  5
C4
330
9
100
AcDbSymbolTableRecord
100
AcDbRegAppTableRecord
  2
GENIUS_GENOREF_13
 70
     0
  0
APPID
  5
C5
330
9
100
AcDbSymbolTableRecord
100
AcDbRegAppTableRecord
  2
GENIUS_GENOLIS_13
 70
     0
  0
APPID
  5
C6
330
9
100
AcDbSymbolTableRecord
100
AcDbRegAppTableRecord
  2
GENIUS_GENZVEED_13
 70
     0
  0
APPID
  5
C7
330
9
100
AcDbSymbolTableRecord
100
AcDbRegAppTableRecord
  2
GENIUS_GENSCREG_15
 70
     0
  0
APPID
  5
C8
330
9
100
AcDbSymbolTableRecord
100
AcDbRegAppTableRecord
  2
GENIUS_GENOBJ-N-SDF_13
 70
     0
  0
APPID
  5
27E
330
9
100
AcDbSymbolTableRecord
100
AcDbRegAppTableRecord
  2
AD_DRAW
 70
     0
  0
APPID
  5
281
330
9
100
AcDbSymbolTableRecord
100
AcDbRegAppTableRecord
  2
ACATTRIBSERVICES
 70
     0
  0
APPID
  5
2A0
330
9
100
AcDbSymbolTableRecord
100
AcDbRegAppTableRecord
  2
DESIGNERASSEMBLIES
 70
     0
  0
APPID
  5
2B9
330
9
100
AcDbSymbolTableRecord
100
AcDbRegAppTableRecord
  2
ACADM_DIM_EDIT
 70
     0
  0
APPID
  5
2BA
330
9
100
AcDbSymbolTableRecord
100
AcDbRegAppTableRecord
  2
AMDT_DM_ADJ
 70
     0
  0
APPID
  5
31C
330
9
100
AcDbSymbolTableRecord
100
AcDbRegAppTableRecord
  2
AcAecLayerStandard
 70
     0
  0
APPID
  5
37C
330
9
100
AcDbSymbolTableRecord
100
AcDbRegAppTableRecord
  2
ACAD_PSEXT
 70
     0
  0
APPID
  5
447
330
9
100
AcDbSymbolTableRecord
100
AcDbRegAppTableRecord
  2
GENIUS_GENFIL_13
 70
     0
  0
APPID
  5
448
330
9
100
AcDbSymbolTableRecord
100
AcDbRegAppTableRecord
  2
GENIUS_GENOBJ-N-CHA_13
 70
     0
  0
APPID
  5
449
330
9
100
AcDbSymbolTableRecord
100
AcDbRegAppTableRecord
  2
GENIUS_GENCEN_19
 70
     0
  0
APPID
  5
44A
330
9
100
AcDbSymbolTableRecord
100
AcDbRegAppTableRecord
  2
GENIUS_GENOBJ-N-FIL_13
 70
     0
  0
APPID
  5
44B
330
9
100
AcDbSymbolTableRecord
100
AcDbRegAppTableRecord
  2
GENIUS_GENOBJ-N-HTC_13
 70
     0
  0
APPID
  5
44C
330
9
100
AcDbSymbolTableRecord
100
AcDbRegAppTableRecord
  2
GENIUS_GENHATCH_13
 70
     0
  0
APPID
  5
6CB
330
9
100
AcDbSymbolTableRecord
100
AcDbRegAppTableRecord
  2
GENIUS_GENDIMSH_14
 70
     0
  0
APPID
  5
6CD
330
9
100
AcDbSymbolTableRecord
100
AcDbRegAppTableRecord
  2
ACAD_EXEMPT_FROM_CAD_STANDARDS
 70
     0
  0
APPID
  5
84F
330
9
100
AcDbSymbolTableRecord
100
AcDbRegAppTableRecord
  2
GENIUS_GENCFG_13
 70
     0
  0
APPID
  5
850
330
9
100
AcDbSymbolTableRecord
100
AcDbRegAppTableRecord
  2
GENIUS_GENCFG0_13
 70
     0
  0
APPID
  5
851
330
9
100
AcDbSymbolTableRecord
100
AcDbRegAppTableRecord
  2
GENIUS_GENCFG1_13
 70
     0
  0
APPID
  5
852
330
9
100
AcDbSymbolTableRecord
100
AcDbRegAppTableRecord
  2
GENIUS_GENCFG2_13
 70
     0
  0
APPID
  5
853
330
9
100
AcDbSymbolTableRecord
100
AcDbRegAppTableRecord
  2
GENIUS_GENCFG3_13
 70
     0
  0
APPID
  5
854
330
9
100
AcDbSymbolTableRecord
100
AcDbRegAppTableRecord
  2
GENIUS_GENCFG4_13
 70
     0
  0
APPID
  5
855
330
9
100
AcDbSymbolTableRecord
100
AcDbRegAppTableRecord
  2
GENIUS_GEVCFG0_13
 70
     0
  0
APPID
  5
856
330
9
100
AcDbSymbolTableRecord
100
AcDbRegAppTableRecord
  2
GENIUS_GEFCFG0_13
 70
     0
  0
APPID
  5
8BC
330
9
100
AcDbSymbolTableRecord
100
AcDbRegAppTableRecord
  2
GENIUS_GENTRA_14
 70
     0
  0
APPID
  5
8BF
330
9
100
AcDbSymbolTableRecord
100
AcDbRegAppTableRecord
  2
GENIUS_GENOBJ-N-RSBK_13
 70
     0
  0
APPID
  5
8C0
330
9
100
AcDbSymbolTableRecord
100
AcDbRegAppTableRecord
  2
GENIUS_GENOBJ-N-LIB_13
 70
     0
  0
APPID
  5
8C1
330
9
100
AcDbSymbolTableRecord
100
AcDbRegAppTableRecord
  2
GENIUS_GENSCALE_13
 70
     0
  0
APPID
  5
972
330
9
100
AcDbSymbolTableRecord
100
AcDbRegAppTableRecord
  2
ACAD_DSTYLE_DIMARC_LENGTH_SYMBOL
 70
     0
  0
APPID
  5
ACB
330
9
100
AcDbSymbolTableRecord
100
AcDbRegAppTableRecord
  2
ACAD_DSTYLE_DIMINSPECT
 70
     0
  0
APPID
  5
AD5
330
9
100
AcDbSymbolTableRecord
100
AcDbRegAppTableRecord
  2
GENIUS_GENDTOL_13
 70
     0
  0
APPID
  5
B9A
330
9
100
AcDbSymbolTableRecord
100
AcDbRegAppTableRecord
  2
ACAD_MLEADERVER
 70
     0
  0
APPID
  5
1817
330
9
100
AcDbSymbolTableRecord
100
AcDbRegAppTableRecord
  2
ACAD_DSTYLE_DIMJAG
 70
     0
  0
APPID
  5
1818
330
9
100
AcDbSymbolTableRecord
100
AcDbRegAppTableRecord
  2
ACAD_DSTYLE_DIMBREAK
 70
     0
  0
APPID
  5
1878
330
9
100
AcDbSymbolTableRecord
100
AcDbRegAppTableRecord
  2
ACAD_DSTYLE_DIM_LINETYPE
 70
     0
  0
APPID
  5
1879
330
9
100
AcDbSymbolTableRecord
100
AcDbRegAppTableRecord
  2
ACAD_DSTYLE_DIM_EXT1_LINETYPE
 70
     0
  0
APPID
  5
187A
330
9
100
AcDbSymbolTableRecord
100
AcDbRegAppTableRecord
  2
ACAD_DSTYLE_DIM_EXT2_LINETYPE
 70
     0
  0
ENDTAB
  0
TABLE
  2
DIMSTYLE
  5
A
330
0
100
AcDbSymbolTable
 70
    19
100
AcDbDimStyleTable
 71
     2
340
8F
340
27
  0
DIMSTYLE
105
2C1
330
A
100
AcDbSymbolTableRecord
100
AcDbDimStyleTableRecord
  2
Standard
 70
     0
340
11
  0
DIMSTYLE
105
8F
330
A
100
AcDbSymbolTableRecord
100
AcDbDimStyleTableRecord
  2
AM_JIS
 70
     0
  4
"
 40
0.5
 41
2.5
 42
1.0
 43
10.0
 44
1.0
 47
0.1
 48
0.1
 73
     0
 74
     0
 77
     3
 78
     8
 79
     2
140
3.5
141
0.0
143
0.0393701
146
0.71
147
1.5
172
     1
176
   256
177
   256
178
     2
271
     2
272
     3
274
     4
283
     0
284
     8
340
11
341
84
342
84
343
84
344
84
371
    -1
372
    -1
1001
ACAD_DSTYLE_DIMARC_LENGTH_SYMBOL
1070
   379
1070
     1
  0
DIMSTYLE
105
90
330
A
100
AcDbSymbolTableRecord
100
AcDbDimStyleTableRecord
  2
AM_JIS$3
 70
     0
  4
"
 40
0.5
 41
2.5
 42
1.0
 43
10.0
 44
1.0
 47
0.1
 48
0.1
 73
     0
 77
     3
 78
     8
 79
     2
140
3.5
141
0.0
143
0.0393701
146
0.71
147
1.5
176
   256
177
   256
178
     2
271
     2
272
     3
274
     4
283
     0
284
     8
288
     1
289
     0
340
11
341
84
342
84
343
84
344
84
371
    -1
372
    -1
1001
ACAD_DSTYLE_DIMARC_LENGTH_SYMBOL
1070
   379
1070
     1
  0
DIMSTYLE
105
91
330
A
100
AcDbSymbolTableRecord
100
AcDbDimStyleTableRecord
  2
AM_JIS$4
 70
     0
  4
"
 40
0.5
 41
2.5
 42
1.0
 43
10.0
 44
1.0
 47
0.1
 48
0.1
 73
     0
 74
     0
 77
     3
 78
     8
 79
     2
140
3.5
141
0.0
143
0.0393701
146
0.71
147
1.5
172
     1
176
   256
177
   256
178
     2
271
     2
272
     3
274
     4
283
     0
284
     8
340
11
341
84
342
84
343
84
344
84
371
    -1
372
    -1
1001
ACAD_DSTYLE_DIMARC_LENGTH_SYMBOL
1070
   379
1070
     1
  0
DIMSTYLE
105
92
330
A
100
AcDbSymbolTableRecord
100
AcDbDimStyleTableRecord
  2
AM_JIS$6
 70
     0
  4
"
 40
0.5
 41
2.5
 42
1.0
 43
10.0
 44
1.0
 47
0.1
 48
0.1
 73
     0
 74
     0
 78
     8
 79
     2
140
3.5
141
0.0
143
0.0393701
146
0.71
147
1.5
172
     1
176
   256
177
   256
178
     2
271
     2
272
     3
274
     4
283
     0
284
     8
340
11
341
84
342
84
343
84
344
84
371
    -1
372
    -1
1001
ACAD_DSTYLE_DIMARC_LENGTH_SYMBOL
1070
   379
1070
     1
  0
DIMSTYLE
105
93
330
A
100
AcDbSymbolTableRecord
100
AcDbDimStyleTableRecord
  2
AM_JIS$7
 70
     0
  4
"
 40
0.5
 41
2.5
 42
1.0
 43
10.0
 44
1.0
 47
0.1
 48
0.1
 73
     0
 74
     0
 77
     3
 78
     8
 79
     2
140
5.0
141
0.0
143
0.0393701
146
0.71
147
1.5
172
     1
176
   256
177
   256
178
     2
271
     2
272
     3
274
     4
283
     0
284
     8
340
11
341
84
342
84
343
84
344
84
371
    -1
372
    -1
1001
ACAD_DSTYLE_DIMARC_LENGTH_SYMBOL
1070
   379
1070
     1
  0
DIMSTYLE
105
94
330
A
100
AcDbSymbolTableRecord
100
AcDbDimStyleTableRecord
  2
AM_JIS$SF
 70
     0
  4
"
 40
0.5
 41
2.5
 42
1.0
 43
10.0
 44
1.0
 47
0.1
 48
0.1
 73
     0
 74
     0
 75
     1
 76
     1
 77
     3
 78
     8
 79
     2
140
3.5
141
0.0
143
0.0393701
146
0.71
147
1.5
172
     1
176
   256
177
   256
178
     2
271
     2
272
     3
274
     4
283
     0
284
     8
340
11
341
84
342
84
343
84
344
84
371
    -1
372
    -1
1001
ACAD_DSTYLE_DIMARC_LENGTH_SYMBOL
1070
   379
1070
     1
  0
DIMSTYLE
105
95
330
A
100
AcDbSymbolTableRecord
100
AcDbDimStyleTableRecord
  2
AM_JIS$SH
 70
     0
  4
"
 40
0.5
 41
2.5
 42
1.0
 43
10.0
 44
1.0
 47
0.1
 48
0.1
 73
     0
 74
     0
 75
     1
 76
     1
 77
     3
 78
     8
 79
     2
140
3.5
141
0.0
143
0.0393701
144
2.0
146
0.71
147
1.5
172
     1
173
     1
176
   256
177
   256
178
     2
271
     2
272
     3
274
     4
283
     0
284
     8
340
11
341
84
342
84
343
8A
344
84
371
    -1
372
    -1
1001
ACAD_DSTYLE_DIMARC_LENGTH_SYMBOL
1070
   379
1070
     1
  0
DIMSTYLE
105
27
330
A
100
AcDbSymbolTableRecord
100
AcDbDimStyleTableRecord
  2
ISO-25
 70
     0
 41
2.5
 42
0.625
 43
3.75
 44
1.25
 73
     0
 74
     0
 77
     1
 78
     8
140
2.5
141
2.5
143
0.03937007874016
147
0.625
171
     3
172
     1
271
     2
272
     2
274
     3
283
     0
284
     8
340
11
  0
DIMSTYLE
105
446
330
A
100
AcDbSymbolTableRecord
100
AcDbDimStyleTableRecord
  2
AM_JIS$0
 70
     0
  4
"
 40
0.5
 41
2.5
 42
1.0
 43
10.0
 44
1.0
 47
0.1
 48
0.1
 73
     0
 74
     0
 77
     3
 78
     8
 79
     2
140
3.5
141
0.0
143
0.0393701
146
0.71
147
1.5
172
     1
176
   256
177
   256
178
     2
271
     2
272
     3
274
     4
283
     0
284
     8
340
11
341
84
342
84
343
84
344
84
371
    -1
372
    -1
1001
ACAD_DSTYLE_DIMARC_LENGTH_SYMBOL
1070
   379
1070
     1
  0
DIMSTYLE
105
7A7
330
A
100
AcDbSymbolTableRecord
100
AcDbDimStyleTableRecord
  2
AM_ISO
 70
     0
  4
"
 41
2.5
 42
1.0
 43
10.0
 44
1.0
 47
0.1
 48
0.1
 73
     0
 74
     0
 77
     1
 78
     8
 79
     2
140
3.5
141
0.0
143
0.0393701
146
0.71
147
1.5
172
     1
176
   256
177
   256
178
     2
271
     2
272
     3
274
     4
283
     0
284
     8
340
11
371
    -1
372
    -1
1001
ACAD_DSTYLE_DIMARC_LENGTH_SYMBOL
1070
   379
1070
     1
  0
DIMSTYLE
105
7A8
330
A
100
AcDbSymbolTableRecord
100
AcDbDimStyleTableRecord
  2
AM_ISO$3
 70
     0
  4
"
 41
2.5
 42
1.0
 43
10.0
 44
1.0
 47
0.1
 48
0.1
 73
     0
 77
     1
 78
     8
 79
     2
140
3.5
141
0.0
143
0.0393701
146
0.71
147
1.5
176
   256
177
   256
178
     2
271
     2
272
     3
274
     4
283
     0
284
     8
288
     1
289
     0
340
11
371
    -1
372
    -1
1001
ACAD_DSTYLE_DIMARC_LENGTH_SYMBOL
1070
   379
1070
     1
  0
DIMSTYLE
105
7A9
330
A
100
AcDbSymbolTableRecord
100
AcDbDimStyleTableRecord
  2
AM_ISO$4
 70
     0
  4
"
 41
2.5
 42
1.0
 43
10.0
 44
1.0
 47
0.1
 48
0.1
 73
     0
 77
     1
 78
     8
 79
     2
140
3.5
141
0.0
143
0.0393701
146
0.71
147
1.5
176
   256
177
   256
178
     2
271
     2
272
     3
274
     4
283
     0
284
     8
288
     1
289
     0
340
11
371
    -1
372
    -1
1001
ACAD_DSTYLE_DIMARC_LENGTH_SYMBOL
1070
   379
1070
     1
  0
DIMSTYLE
105
7AA
330
A
100
AcDbSymbolTableRecord
100
AcDbDimStyleTableRecord
  2
AM_ISO$6
 70
     0
  4
"
 41
2.5
 42
1.0
 43
10.0
 44
1.0
 47
0.1
 48
0.1
 73
     0
 74
     0
 78
     8
 79
     2
140
3.5
141
0.0
143
0.0393701
146
0.71
147
1.5
172
     1
176
   256
177
   256
178
     2
271
     2
272
     3
274
     4
283
     0
284
     8
340
11
371
    -1
372
    -1
1001
ACAD_DSTYLE_DIMARC_LENGTH_SYMBOL
1070
   379
1070
     1
  0
DIMSTYLE
105
7AB
330
A
100
AcDbSymbolTableRecord
100
AcDbDimStyleTableRecord
  2
AM_ISO$7
 70
     0
  4
"
 41
2.5
 42
1.0
 43
10.0
 44
1.0
 47
0.1
 48
0.1
 73
     0
 74
     0
 77
     1
 78
     8
 79
     2
140
5.0
141
0.0
143
0.0393701
146
0.71
147
1.5
172
     1
176
   256
177
   256
178
     2
271
     2
272
     3
274
     4
283
     0
284
     8
340
11
371
    -1
372
    -1
1001
ACAD_DSTYLE_DIMARC_LENGTH_SYMBOL
1070
   379
1070
     1
  0
DIMSTYLE
105
7AC
330
A
100
AcDbSymbolTableRecord
100
AcDbDimStyleTableRecord
  2
AM_ISO$SF
 70
     0
  4
"
 41
2.5
 42
1.0
 43
10.0
 44
1.0
 47
0.1
 48
0.1
 73
     0
 74
     0
 75
     1
 76
     1
 77
     1
 78
     8
 79
     2
140
3.5
141
0.0
143
0.0393701
146
0.71
147
1.5
172
     1
176
   256
177
   256
178
     2
271
     2
272
     3
274
     4
283
     0
284
     8
340
11
371
    -1
372
    -1
1001
ACAD_DSTYLE_DIMARC_LENGTH_SYMBOL
1070
   379
1070
     1
  0
DIMSTYLE
105
7AD
330
A
100
AcDbSymbolTableRecord
100
AcDbDimStyleTableRecord
  2
AM_ISO$SH
 70
     0
  4
"
 41
2.5
 42
1.0
 43
10.0
 44
1.0
 47
0.1
 48
0.1
 73
     0
 74
     0
 75
     1
 76
     1
 77
     1
 78
     8
 79
     2
140
3.5
141
0.0
143
0.0393701
144
2.0
146
0.71
147
1.5
172
     1
173
     1
176
   256
177
   256
178
     2
271
     2
272
     3
274
     4
283
     0
284
     8
340
11
343
8A
371
    -1
372
    -1
1001
ACAD_DSTYLE_DIMARC_LENGTH_SYMBOL
1070
   379
1070
     1
  0
DIMSTYLE
105
84E
330
A
100
AcDbSymbolTableRecord
100
AcDbDimStyleTableRecord
  2
GEN-ISO$6
 70
     0
 41
2.5
 42
1.0
 43
10.0
 44
2.0
 47
0.1
 48
0.1
 73
     0
 74
     0
 78
     8
140
3.5
141
0.0
143
0.393701
146
0.71
147
1.5
176
   256
177
   256
178
     2
271
     2
272
     3
274
     4
340
11
  0
DIMSTYLE
105
1816
330
A
100
AcDbSymbolTableRecord
100
AcDbDimStyleTableRecord
  2
AM_JIS$2
 70
     0
  4
"
 40
0.5
 41
2.5
 42
1.0
 43
10.0
 44
1.0
 47
0.1
 48
0.1
 73
     0
 74
     0
 77
     3
 78
     8
 79
     2
140
3.5
141
0.0
143
0.0393701
146
0.71
147
1.5
172
     1
176
   256
177
   256
178
     2
271
     2
272
     3
274
     4
283
     0
284
     8
340
11
341
84
342
84
343
84
344
84
371
    -1
372
    -1
1001
ACAD_DSTYLE_DIMBREAK
1070
   391
1040
3.75
1001
ACAD_DSTYLE_DIMJAG
1070
   388
1040
1.5
1001
ACAD_DSTYLE_DIMARC_LENGTH_SYMBOL
1070
   379
1070
     1
1001
ACAD_DSTYLE_DIM_LINETYPE
1070
   380
1005
14
1001
ACAD_DSTYLE_DIM_EXT1_LINETYPE
1070
   381
1005
14
1001
ACAD_DSTYLE_DIM_EXT2_LINETYPE
1070
   382
1005
14
  0
ENDTAB
  0
TABLE
  2
BLOCK_RECORD
  5
1
330
0
100
AcDbSymbolTable
 70
    18
  0
BLOCK_RECORD
  5
1F
102
{ACAD_XDICTIONARY
360
C9
102
}
330
1
100
AcDbSymbolTableRecord
100
AcDbBlockTableRecord
  2
*Model_Space
340
22
  0
BLOCK_RECORD
  5
1B
330
1
100
AcDbSymbolTableRecord
100
AcDbBlockTableRecord
  2
*Paper_Space
340
1E
  0
BLOCK_RECORD
  5
23
330
1
100
AcDbSymbolTableRecord
100
AcDbBlockTableRecord
  2
*Paper_Space0
340
26
  0
BLOCK_RECORD
  5
84
330
1
100
AcDbSymbolTableRecord
100
AcDbBlockTableRecord
  2
_Open30
340
0
102
{BLKREFS
331
125F
331
1260
331
1267
331
1293
331
1294
331
129C
331
129D
331
12A5
331
12A6
331
14DC
331
14DD
102
}
  0
BLOCK_RECORD
  5
8A
330
1
100
AcDbSymbolTableRecord
100
AcDbBlockTableRecord
  2
GENAXEH
340
0
  0
BLOCK_RECORD
  5
39B
330
1
100
AcDbSymbolTableRecord
100
AcDbBlockTableRecord
  2
GENDOT
340
0
  0
BLOCK_RECORD
  5
3A0
330
1
100
AcDbSymbolTableRecord
100
AcDbBlockTableRecord
  2
_None
340
0
  0
BLOCK_RECORD
  5
7AE
102
{ACAD_XDICTIONARY
360
7BC
102
}
330
1
100
AcDbSymbolTableRecord
100
AcDbBlockTableRecord
  2
AA-4-T
340
0
  0
BLOCK_RECORD
  5
7DC
330
1
100
AcDbSymbolTableRecord
100
AcDbBlockTableRecord
  2
A$C2D292097
340
0
  0
BLOCK_RECORD
  5
7F1
102
{ACAD_XDICTIONARY
360
7F2
102
}
330
1
100
AcDbSymbolTableRecord
100
AcDbBlockTableRecord
  2
A$C676C2959
340
0
1001
ACAD
1000
DesignCenter Data
1002
{
1070
     1
1070
     4
1002
}
  0
BLOCK_RECORD
  5
7F6
102
{ACAD_XDICTIONARY
360
7F7
102
}
330
1
100
AcDbSymbolTableRecord
100
AcDbBlockTableRecord
  2
A$C1FED437B
340
0
1001
ACAD
1000
DesignCenter Data
1002
{
1070
     1
1070
     4
1002
}
  0
BLOCK_RECORD
  5
7FC
102
{ACAD_XDICTIONARY
360
82F
102
}
330
1
100
AcDbSymbolTableRecord
100
AcDbBlockTableRecord
  2
ASO-A
340
0
  0
BLOCK_RECORD
  5
857
330
1
100
AcDbSymbolTableRecord
100
AcDbBlockTableRecord
  2
xa
340
0
  0
ENDTAB
  0
ENDSEC
  0
SECTION
  2
BLOCKS
  0
BLOCK
  5
20
330
1F
100
AcDbEntity
  8
0
100
AcDbBlockBegin
  2
*Model_Space
 70
     0
 10
0.0
 20
0.0
 30
0.0
  3
*Model_Space
  1

  0
ENDBLK
  5
21
330
1F
100
AcDbEntity
  8
0
100
AcDbBlockEnd
  0
BLOCK
  5
1C
330
1B
100
AcDbEntity
 67
     1
  8
0
100
AcDbBlockBegin
  2
*Paper_Space
 70
     0
 10
0.0
 20
0.0
 30
0.0
  3
*Paper_Space
  1

  0
ENDBLK
  5
1D
330
1B
100
AcDbEntity
 67
     1
  8
0
100
AcDbBlockEnd
  0
BLOCK
  5
24
330
23
100
AcDbEntity
 67
     1
  8
0
100
AcDbBlockBegin
  2
*Paper_Space0
 70
     0
 10
0.0
 20
0.0
 30
0.0
  3
*Paper_Space0
  1

  0
ENDBLK
  5
25
330
23
100
AcDbEntity
 67
     1
  8
0
100
AcDbBlockEnd
  0
BLOCK
  5
88
330
84
100
AcDbEntity
  8
0
100
AcDbBlockBegin
  2
_Open30
 70
     0
 10
0.0
 20
0.0
 30
0.0
  3
_Open30
  1

  0
LINE
  5
85
330
84
100
AcDbEntity
  8
0
 62
     0
370
    -2
100
AcDbLine
 10
-1.0
 20
0.26794919
 30
0.0
 11
0.0
 21
0.0
 31
0.0
  0
LINE
  5
86
330
84
100
AcDbEntity
  8
0
 62
     0
370
    -2
100
AcDbLine
 10
0.0
 20
0.0
 30
0.0
 11
-1.0
 21
-0.26794919
 31
0.0
  0
LINE
  5
87
330
84
100
AcDbEntity
  8
0
 62
     0
370
    -2
100
AcDbLine
 10
0.0
 20
0.0
 30
0.0
 11
-1.0
 21
0.0
 31
0.0
  0
ENDBLK
  5
89
330
84
100
AcDbEntity
  8
0
100
AcDbBlockEnd
  0
BLOCK
  5
8C
330
8A
100
AcDbEntity
  8
0
100
AcDbBlockBegin
  2
GENAXEH
 70
     0
 10
0.0
 20
0.0
 30
0.0
  3
GENAXEH
  1

  0
LINE
  5
8B
330
8A
100
AcDbEntity
  8
0
100
AcDbLine
 10
-1.0
 20
0.0
 30
0.0
 11
1.0
 21
0.0
 31
0.0
  0
ENDBLK
  5
8D
330
8A
100
AcDbEntity
  8
0
100
AcDbBlockEnd
  0
BLOCK
  5
39C
330
39B
100
AcDbEntity
  8
0
100
AcDbBlockBegin
  2
GENDOT
 70
     0
 10
0.0
 20
0.0
 30
0.0
  3
GENDOT
  1

  0
LINE
  5
39D
330
39B
100
AcDbEntity
  8
0
100
AcDbLine
 10
0.0
 20
0.0
 30
0.0
 11
-1.0
 21
0.0
 31
0.0
  0
LWPOLYLINE
  5
39E
330
39B
100
AcDbEntity
  8
0
100
AcDbPolyline
 90
        2
 70
     1
 43
0.25
 10
-0.125
 20
0.0
 42
1.0
 10
0.125
 20
0.0
 42
1.0
  0
ENDBLK
  5
39F
330
39B
100
AcDbEntity
  8
0
100
AcDbBlockEnd
  0
BLOCK
  5
3A1
330
3A0
100
AcDbEntity
  8
0
100
AcDbBlockBegin
  2
_None
 70
     0
 10
0.0
 20
0.0
 30
0.0
  3
_None
  1

  0
ENDBLK
  5
3A2
330
3A0
100
AcDbEntity
  8
0
100
AcDbBlockEnd
  0
BLOCK
  5
7BD
330
7AE
100
AcDbEntity
  8
0
100
AcDbBlockBegin
  2
AA-4-T
 70
     0
 10
0.0
 20
0.0
 30
0.0
  3
AA-4-T
  1

  0
LWPOLYLINE
  5
7AF
330
7AE
100
AcDbEntity
  8
AM_BOR
 62
   231
100
AcDbPolyline
 90
        4
 70
     1
 43
0.0
 10
8.002617961236467
 20
203.1037272854516
 10
8.00261796123641
 20
8.003727285451702
 10
289.0026179612364
 20
8.003727285451589
 10
289.0026179612364
 20
203.1037272854516
1001
GENIUS_GENREC_14
1002
{
1000
PYDIR
1011
289.0026179612364
1021
203.1037272854517
1031
0.0
1002
}
1002
{
1000
PXDIR
1011
8.00261796123641
1021
8.003727285451702
1031
0.0
1002
}
1002
{
1000
PORI
1011
8.002617961236467
1021
203.1037272854516
1031
0.0
1002
}
1002
{
1000
PINS
1011
8.002617961236467
1021
203.1037272854516
1031
0.0
1002
}
1002
{
1000
HVAL
1000
281
1002
}
1002
{
1000
H
1070
     2
1002
}
1002
{
1000
WVAL
1000
183
1002
}
1002
{
1000
W
1070
     2
1002
}
1002
{
1000
C
1070
     1
1002
}
1001
GENIUS_GENODEF_13
1002
{
1000
HIER
1070
     0
1002
}
1002
{
1000
MANEDIT
1070
     0
1002
}
1002
{
1000
NOSEL
1070
     0
1002
}
1002
{
1000
BEHIND
1070
     0
1002
}
1002
{
1000
REACTOR
1002
}
1001
GENIUS_GENOBJ-N-REC_13
1002
{
1000
OWNER
1000
GEN
1002
}
  0
TEXT
  5
7B0
330
7AE
100
AcDbEntity
  8
AM_BOR
 60
     1
100
AcDbText
 10
297.0
 20
209.9999999999999
 30
0.0
 40
5.0
  1
!GENTITLE-MAX
100
AcDbText
  0
LINE
  5
7B1
330
7AE
100
AcDbEntity
  8
AM_BOR
100
AcDbLine
 10
0.0000000000000568
 20
210.0
 30
0.0
 11
0.0000000000000568
 21
195.0
 31
0.0
1001
GENIUS_GENREC_14
1002
{
1000
PYDIR
1011
297.0
1021
209.9999999999999
1031
0.0
1002
}
1002
{
1000
PXDIR
1011
0.0
1021
0.0
1031
0.0
1002
}
1002
{
1000
PORI
1011
0.0000000000000568
1021
210.0
1031
0.0
1002
}
1002
{
1000
PINS
1011
0.0000000000000568
1021
210.0
1031
0.0
1002
}
1002
{
1000
HVAL
1000
297
1002
}
1002
{
1000
H
1070
     2
1002
}
1002
{
1000
WVAL
1000
210
1002
}
1002
{
1000
W
1070
     2
1002
}
1002
{
1000
C
1070
     1
1002
}
1001
GENIUS_GENODEF_13
1002
{
1000
HIER
1070
     0
1002
}
1002
{
1000
MANEDIT
1070
     0
1002
}
1002
{
1000
NOSEL
1070
     0
1002
}
1002
{
1000
BEHIND
1070
     0
1002
}
1002
{
1000
REACTOR
1002
}
1001
GENIUS_GENOBJ-N-REC_13
1002
{
1000
OWNER
1000
GEN
1002
}
  0
LINE
  5
7B2
330
7AE
100
AcDbEntity
  8
AM_BOR
100
AcDbLine
 10
0.0
 20
0.0
 30
0.0
 11
15.0
 21
0.0
 31
0.0
1001
GENIUS_GENREC_14
1002
{
1000
PYDIR
1011
297.0
1021
209.9999999999999
1031
0.0
1002
}
1002
{
1000
PXDIR
1011
0.0
1021
0.0
1031
0.0
1002
}
1002
{
1000
PORI
1011
0.0000000000000568
1021
210.0
1031
0.0
1002
}
1002
{
1000
PINS
1011
0.0000000000000568
1021
210.0
1031
0.0
1002
}
1002
{
1000
HVAL
1000
297
1002
}
1002
{
1000
H
1070
     2
1002
}
1002
{
1000
WVAL
1000
210
1002
}
1002
{
1000
W
1070
     2
1002
}
1002
{
1000
C
1070
     1
1002
}
1001
GENIUS_GENODEF_13
1002
{
1000
HIER
1070
     0
1002
}
1002
{
1000
MANEDIT
1070
     0
1002
}
1002
{
1000
NOSEL
1070
     0
1002
}
1002
{
1000
BEHIND
1070
     0
1002
}
1002
{
1000
REACTOR
1002
}
1001
GENIUS_GENOBJ-N-REC_13
1002
{
1000
OWNER
1000
GEN
1002
}
  0
LINE
  5
7B3
330
7AE
100
AcDbEntity
  8
AM_BOR
100
AcDbLine
 10
297.0
 20
-0.0000000000000568
 30
0.0
 11
297.0
 21
14.99999999999994
 31
0.0
1001
GENIUS_GENREC_14
1002
{
1000
PYDIR
1011
297.0
1021
209.9999999999999
1031
0.0
1002
}
1002
{
1000
PXDIR
1011
0.0
1021
0.0
1031
0.0
1002
}
1002
{
1000
PORI
1011
0.0000000000000568
1021
210.0
1031
0.0
1002
}
1002
{
1000
PINS
1011
0.0000000000000568
1021
210.0
1031
0.0
1002
}
1002
{
1000
HVAL
1000
297
1002
}
1002
{
1000
H
1070
     2
1002
}
1002
{
1000
WVAL
1000
210
1002
}
1002
{
1000
W
1070
     2
1002
}
1002
{
1000
C
1070
     1
1002
}
1001
GENIUS_GENODEF_13
1002
{
1000
HIER
1070
     0
1002
}
1002
{
1000
MANEDIT
1070
     0
1002
}
1002
{
1000
NOSEL
1070
     0
1002
}
1002
{
1000
BEHIND
1070
     0
1002
}
1002
{
1000
REACTOR
1002
}
1001
GENIUS_GENOBJ-N-REC_13
1002
{
1000
OWNER
1000
GEN
1002
}
  0
LINE
  5
7B4
330
7AE
100
AcDbEntity
  8
AM_BOR
100
AcDbLine
 10
297.0
 20
209.9999999999999
 30
0.0
 11
282.0
 21
209.9999999999999
 31
0.0
1001
GENIUS_GENREC_14
1002
{
1000
PYDIR
1011
297.0
1021
209.9999999999999
1031
0.0
1002
}
1002
{
1000
PXDIR
1011
0.0
1021
0.0
1031
0.0
1002
}
1002
{
1000
PORI
1011
0.0000000000000568
1021
210.0
1031
0.0
1002
}
1002
{
1000
PINS
1011
0.0000000000000568
1021
210.0
1031
0.0
1002
}
1002
{
1000
HVAL
1000
297
1002
}
1002
{
1000
H
1070
     2
1002
}
1002
{
1000
WVAL
1000
210
1002
}
1002
{
1000
W
1070
     2
1002
}
1002
{
1000
C
1070
     1
1002
}
1001
GENIUS_GENODEF_13
1002
{
1000
HIER
1070
     0
1002
}
1002
{
1000
MANEDIT
1070
     0
1002
}
1002
{
1000
NOSEL
1070
     0
1002
}
1002
{
1000
BEHIND
1070
     0
1002
}
1002
{
1000
REACTOR
1002
}
1001
GENIUS_GENOBJ-N-REC_13
1002
{
1000
OWNER
1000
GEN
1002
}
  0
LINE
  5
7B5
330
7AE
100
AcDbEntity
  8
AM_BOR
100
AcDbLine
 10
15.00000000000006
 20
210.0
 30
0.0
 11
0.0000000000000568
 21
210.0
 31
0.0
1001
GENIUS_GENREC_14
1002
{
1000
PYDIR
1011
297.0
1021
209.9999999999999
1031
0.0
1002
}
1002
{
1000
PXDIR
1011
0.0
1021
0.0
1031
0.0
1002
}
1002
{
1000
PORI
1011
0.0000000000000568
1021
210.0
1031
0.0
1002
}
1002
{
1000
PINS
1011
0.0000000000000568
1021
210.0
1031
0.0
1002
}
1002
{
1000
HVAL
1000
297
1002
}
1002
{
1000
H
1070
     2
1002
}
1002
{
1000
WVAL
1000
210
1002
}
1002
{
1000
W
1070
     2
1002
}
1002
{
1000
C
1070
     1
1002
}
1001
GENIUS_GENODEF_13
1002
{
1000
HIER
1070
     0
1002
}
1002
{
1000
MANEDIT
1070
     0
1002
}
1002
{
1000
NOSEL
1070
     0
1002
}
1002
{
1000
BEHIND
1070
     0
1002
}
1002
{
1000
REACTOR
1002
}
1001
GENIUS_GENOBJ-N-REC_13
1002
{
1000
OWNER
1000
GEN
1002
}
  0
LINE
  5
7B6
330
7AE
100
AcDbEntity
  8
AM_BOR
100
AcDbLine
 10
297.0
 20
194.9999999999999
 30
0.0
 11
297.0
 21
209.9999999999999
 31
0.0
1001
GENIUS_GENREC_14
1002
{
1000
PYDIR
1011
297.0
1021
209.9999999999999
1031
0.0
1002
}
1002
{
1000
PXDIR
1011
0.0
1021
0.0
1031
0.0
1002
}
1002
{
1000
PORI
1011
0.0000000000000568
1021
210.0
1031
0.0
1002
}
1002
{
1000
PINS
1011
0.0000000000000568
1021
210.0
1031
0.0
1002
}
1002
{
1000
HVAL
1000
297
1002
}
1002
{
1000
H
1070
     2
1002
}
1002
{
1000
WVAL
1000
210
1002
}
1002
{
1000
W
1070
     2
1002
}
1002
{
1000
C
1070
     1
1002
}
1001
GENIUS_GENODEF_13
1002
{
1000
HIER
1070
     0
1002
}
1002
{
1000
MANEDIT
1070
     0
1002
}
1002
{
1000
NOSEL
1070
     0
1002
}
1002
{
1000
BEHIND
1070
     0
1002
}
1002
{
1000
REACTOR
1002
}
1001
GENIUS_GENOBJ-N-REC_13
1002
{
1000
OWNER
1000
GEN
1002
}
  0
LINE
  5
7B7
330
7AE
100
AcDbEntity
  8
AM_BOR
100
AcDbLine
 10
282.0
 20
-0.0000000000000568
 30
0.0
 11
297.0
 21
-0.0000000000000568
 31
0.0
1001
GENIUS_GENREC_14
1002
{
1000
PYDIR
1011
297.0
1021
209.9999999999999
1031
0.0
1002
}
1002
{
1000
PXDIR
1011
0.0
1021
0.0
1031
0.0
1002
}
1002
{
1000
PORI
1011
0.0000000000000568
1021
210.0
1031
0.0
1002
}
1002
{
1000
PINS
1011
0.0000000000000568
1021
210.0
1031
0.0
1002
}
1002
{
1000
HVAL
1000
297
1002
}
1002
{
1000
H
1070
     2
1002
}
1002
{
1000
WVAL
1000
210
1002
}
1002
{
1000
W
1070
     2
1002
}
1002
{
1000
C
1070
     1
1002
}
1001
GENIUS_GENODEF_13
1002
{
1000
HIER
1070
     0
1002
}
1002
{
1000
MANEDIT
1070
     0
1002
}
1002
{
1000
NOSEL
1070
     0
1002
}
1002
{
1000
BEHIND
1070
     0
1002
}
1002
{
1000
REACTOR
1002
}
1001
GENIUS_GENOBJ-N-REC_13
1002
{
1000
OWNER
1000
GEN
1002
}
  0
LINE
  5
7B8
330
7AE
100
AcDbEntity
  8
AM_BOR
100
AcDbLine
 10
0.0
 20
15.0
 30
0.0
 11
0.0
 21
0.0
 31
0.0
1001
GENIUS_GENREC_14
1002
{
1000
PYDIR
1011
297.0
1021
209.9999999999999
1031
0.0
1002
}
1002
{
1000
PXDIR
1011
0.0
1021
0.0
1031
0.0
1002
}
1002
{
1000
PORI
1011
0.0000000000000568
1021
210.0
1031
0.0
1002
}
1002
{
1000
PINS
1011
0.0000000000000568
1021
210.0
1031
0.0
1002
}
1002
{
1000
HVAL
1000
297
1002
}
1002
{
1000
H
1070
     2
1002
}
1002
{
1000
WVAL
1000
210
1002
}
1002
{
1000
W
1070
     2
1002
}
1002
{
1000
C
1070
     1
1002
}
1001
GENIUS_GENODEF_13
1002
{
1000
HIER
1070
     0
1002
}
1002
{
1000
MANEDIT
1070
     0
1002
}
1002
{
1000
NOSEL
1070
     0
1002
}
1002
{
1000
BEHIND
1070
     0
1002
}
1002
{
1000
REACTOR
1002
}
1001
GENIUS_GENOBJ-N-REC_13
1002
{
1000
OWNER
1000
GEN
1002
}
  0
TEXT
  5
7B9
330
7AE
100
AcDbEntity
  8
AM_0
 60
     1
100
AcDbText
 10
289.0026179612364
 20
203.1037272854516
 30
0.0
 40
5.0
  1
!GENTITLE-RU
100
AcDbText
  0
TEXT
  5
7BA
330
7AE
100
AcDbEntity
  8
AM_0
 60
     1
100
AcDbText
 10
8.002617961236445
 20
8.003727285451702
 30
0.0
 40
5.0
  1
!GENTITLE-LL
100
AcDbText
  0
TEXT
  5
7BB
330
7AE
100
AcDbEntity
  8
AM_0
 60
     1
100
AcDbText
 10
289.0026179612364
 20
8.00372728545159
 30
0.0
 40
5.0
  1
!GENTITLE-INSERT
100
AcDbText
  0
ENDBLK
  5
7BE
330
7AE
100
AcDbEntity
  8
0
100
AcDbBlockEnd
  0
BLOCK
  5
7DD
330
7DC
100
AcDbEntity
  8
0
100
AcDbBlockBegin
  2
A$C2D292097
 70
     0
 10
0.0
 20
0.0
 30
0.0
  3
A$C2D292097
  1

  0
TEXT
  5
7DE
330
7DC
100
AcDbEntity
  8
0
100
AcDbText
 10
197.1044423511698
 20
31.0035981017752
 30
0.0
 40
10.0
  1
ASOH   CO.LTD
 41
5.0
  7
ｽﾀｲﾙ1
100
AcDbText
  0
TEXT
  5
7DF
330
7DC
100
AcDbEntity
  8
0
100
AcDbText
 10
127.3589261501835
 20
61.98001452360745
 30
0.0
 40
66.93693195207612
  1
アソー株式会社
  7
ｽﾀｲﾙ1
100
AcDbText
  0
HATCH
  5
7E0
330
7DC
100
AcDbEntity
  8
AM_8
100
AcDbHatch
 10
0.0
 20
0.0
 30
0.0
210
0.0
220
0.0
230
1.0
  2
SOLID
 70
     1
 71
     0
 91
        1
 92
        1
 93
       10
 72
     1
 10
26.27998696211468
 20
119.622038302041
 11
19.72254667781421
 21
94.20654351522143
 72
     1
 10
19.72254667781422
 20
94.20654351522143
 11
20.10217910550261
 21
94.65251979790156
 72
     3
 10
29.97494128357687
 20
79.68778553387966
 11
0.2402016329913209
 21
19.99855752736964
 40
0.7499999999999996
 50
-34.10238568201522
 51
52.41091053102508
 73
     0
 72
     1
 10
43.0844862433824
 20
89.53104876041368
 11
63.55518980891033
 21
40.6543652059048
 72
     3
 10
76.66473476871587
 20
50.49762843243886
 11
0.2402016329913138
 21
19.99855752736964
 40
0.7499999999999999
 50
127.589089468975
 51
243.9002512902304
 73
     1
 72
     1
 10
90.66060611817196
 20
43.43151697692579
 11
98.94218718925374
 21
72.13430932636422
 72
     1
 10
98.94218718925376
 20
72.13430932636422
 11
97.4258024259505
 21
70.16225780455534
 72
     3
 10
86.98981389832653
 20
84.43075959876276
 11
-0.2402016329912594
 21
-19.99855752736953
 40
0.7499999999999996
 50
-36.86989764584386
 51
52.41091053102518
 73
     0
 72
     1
 10
73.88026893852099
 20
74.58749637222874
 11
53.57102076277776
 21
123.0786824781806
 72
     3
 10
40.46147580297221
 20
113.2354192516466
 11
-0.2402016329912803
 21
-19.99855752736963
 40
0.7500000000000002
 50
127.5890894689749
 51
246.4437724078177
 73
     1
 97
        0
 75
     0
 76
     1
 98
        1
 10
-11.02788873631791
 20
-99.90118815091953
1001
GENIUS_GENODEF_13
1002
{
1000
HIER
1070
     0
1002
}
1002
{
1000
MANEDIT
1070
     0
1002
}
1002
{
1000
NOSEL
1070
     0
1002
}
1002
{
1000
BEHIND
1070
     0
1002
}
1002
{
1000
REACTOR
1002
}
1001
GENIUS_GENOBJ-N-HTC_13
1002
{
1000
OWNER
1000
GEN
1002
}
1001
GENIUS_GENHATCH_13
1002
{
1000
DATA
1040
0.0
1042
0.9999999999999998
1000
SOLID
1070
     0
1011
65.16661907668134
1021
74.10910423558471
1031
0.0
1002
}
1002
{
1000
UCS
1010
0.0
1020
0.0
1030
0.0
1010
1.0
1020
0.0
1030
0.0
1010
0.0
1020
1.0
1030
0.0
1002
}
  0
HATCH
  5
7E1
330
7DC
100
AcDbEntity
  8
AM_8
100
AcDbHatch
 10
0.0
 20
0.0
 30
0.0
210
0.0
220
0.0
230
1.0
  2
SOLID
 70
     1
 71
     0
 91
        1
 92
        1
 93
        2
 72
     2
 10
27.87973327687144
 20
49.81037059826576
 40
18.33631541869489
 50
10.7710123686058
 51
355.3294096482469
 73
     1
 72
     2
 10
27.87973327687144
 20
49.81037059826576
 40
18.33631541869488
 50
355.3294096482469
 51
370.7710123686058
 73
     1
 97
        0
 75
     0
 76
     1
 98
        1
 10
-11.02788873631791
 20
-99.90118815091953
1001
GENIUS_GENODEF_13
1002
{
1000
HIER
1070
     0
1002
}
1002
{
1000
MANEDIT
1070
     0
1002
}
1002
{
1000
NOSEL
1070
     0
1002
}
1002
{
1000
BEHIND
1070
     0
1002
}
1002
{
1000
REACTOR
1002
}
1001
GENIUS_GENOBJ-N-HTC_13
1002
{
1000
OWNER
1000
GEN
1002
}
1001
GENIUS_GENHATCH_13
1002
{
1000
DATA
1040
0.0
1042
0.9999999999999998
1000
SOLID
1070
     0
1011
30.27624113759819
1021
49.61458016509695
1031
0.0
1002
}
1002
{
1000
UCS
1010
0.0
1020
0.0
1030
0.0
1010
1.0
1020
0.0
1030
0.0
1010
0.0
1020
1.0
1030
0.0
1002
}
  0
CIRCLE
  5
7E2
330
7DC
100
AcDbEntity
  8
0
100
AcDbCircle
 10
27.87973327687145
 20
49.81037059826573
 30
0.0
 40
18.33631541869488
  0
LINE
  5
7E3
330
7DC
100
AcDbEntity
  8
0
100
AcDbLine
 10
98.94218718925376
 20
72.13430932636422
 30
0.0
 11
90.66060611817196
 21
43.43151697692576
 31
0.0
  0
LINE
  5
7E4
330
7DC
100
AcDbEntity
  8
0
100
AcDbLine
 10
43.0844862433824
 20
89.5310487604137
 30
0.0
 11
63.55518980891034
 21
40.6543652059048
 31
0.0
  0
ELLIPSE
  5
7E5
330
7DC
100
AcDbEntity
  8
0
100
AcDbEllipse
 10
76.66473476871587
 20
50.49762843243886
 30
0.0
 11
0.2402016329913116
 21
19.99855752736953
 31
0.0
210
0.0
220
0.0
230
0.9999999999999998
 40
0.7499999999999999
 41
2.094395102393195
 42
4.360282821964076
1001
GENIUS_GENODEF_13
1002
{
1000
HIER
1070
     0
1002
}
1002
{
1000
MANEDIT
1070
     0
1002
}
1002
{
1000
NOSEL
1070
     0
1002
}
1002
{
1000
BEHIND
1070
     0
1002
}
1002
{
1000
REACTOR
1002
}
1001
GENIUS_GENOBJ-N-FIL_13
1002
{
1000
OWNER
1000
GEN
1002
}
  0
ELLIPSE
  5
7E6
330
7DC
100
AcDbEntity
  8
0
100
AcDbEllipse
 10
86.98981389832653
 20
84.43075959876276
 30
0.0
 11
0.2402016329912594
 21
19.99855752736953
 31
0.0
210
0.0
220
0.0
230
1.0
 40
0.7499999999999996
 41
2.094395102393192
 42
3.926990816987234
1001
GENIUS_GENODEF_13
1002
{
1000
HIER
1070
     0
1002
}
1002
{
1000
MANEDIT
1070
     0
1002
}
1002
{
1000
NOSEL
1070
     0
1002
}
1002
{
1000
BEHIND
1070
     0
1002
}
1002
{
1000
REACTOR
1002
}
1001
GENIUS_GENOBJ-N-FIL_13
1002
{
1000
OWNER
1000
GEN
1002
}
  0
ELLIPSE
  5
7E7
330
7DC
100
AcDbEntity
  8
0
100
AcDbEllipse
 10
29.97494128357687
 20
79.68778553387966
 30
0.0
 11
0.2402016329913188
 21
19.99855752736953
 31
0.0
210
0.0
220
0.0
230
0.9999999999999998
 40
0.7499999999999996
 41
-1.047197551196598
 42
0.7343684516294112
1001
GENIUS_GENODEF_13
1002
{
1000
HIER
1070
     0
1002
}
1002
{
1000
MANEDIT
1070
     0
1002
}
1002
{
1000
NOSEL
1070
     0
1002
}
1002
{
1000
BEHIND
1070
     0
1002
}
1002
{
1000
REACTOR
1002
}
1001
GENIUS_GENOBJ-N-FIL_13
1002
{
1000
OWNER
1000
GEN
1002
}
  0
ELLIPSE
  5
7E8
330
7DC
100
AcDbEntity
  8
0
100
AcDbEllipse
 10
40.46147580297221
 20
113.2354192516466
 30
0.0
 11
0.2402016329912781
 21
19.99855752736952
 31
0.0
210
0.0
220
0.0
230
0.9999999999999996
 40
0.75
 41
-1.047197551196599
 42
1.254770269777095
1001
GENIUS_GENODEF_13
1002
{
1000
HIER
1070
     0
1002
}
1002
{
1000
MANEDIT
1070
     0
1002
}
1002
{
1000
NOSEL
1070
     0
1002
}
1002
{
1000
BEHIND
1070
     0
1002
}
1002
{
1000
REACTOR
1002
}
1001
GENIUS_GENOBJ-N-FIL_13
1002
{
1000
OWNER
1000
GEN
1002
}
  0
LINE
  5
7E9
330
7DC
100
AcDbEntity
  8
0
100
AcDbLine
 10
73.88026893852099
 20
74.58749637222874
 30
0.0
 11
53.57102076277774
 21
123.0786824781806
 31
0.0
  0
LINE
  5
7EA
330
7DC
100
AcDbEntity
  8
0
100
AcDbLine
 10
26.27998696211472
 20
119.6220383020412
 30
0.0
 11
19.72254667781422
 21
94.20654351522143
 31
0.0
  0
LINE
  5
7EB
330
7DC
100
AcDbEntity
  8
0
100
AcDbLine
 10
19.72254667781422
 20
94.20654351522143
 30
0.0
 11
20.1021791055026
 21
94.65251979790158
 31
0.0
  0
LINE
  5
7EC
330
7DC
100
AcDbEntity
  8
0
100
AcDbLine
 10
98.94218718925372
 20
72.13430932636422
 30
0.0
 11
97.42580242595048
 21
70.16225780455531
 31
0.0
  0
ENDBLK
  5
7ED
330
7DC
100
AcDbEntity
  8
0
100
AcDbBlockEnd
  0
BLOCK
  5
7F3
330
7F1
100
AcDbEntity
  8
0
100
AcDbBlockBegin
  2
A$C676C2959
 70
     2
 10
0.0
 20
0.0
 30
0.0
  3
A$C676C2959
  1

  0
ATTDEF
  5
7F4
330
7F1
100
AcDbEntity
  8
AM_BOR
 62
     2
100
AcDbText
 10
12.15813029624129
 20
1.055831712516678
 30
0.0
 40
3.0
  1
水 田
 72
     4
 11
16.15813029624129
 21
2.555831712516678
 31
0.0
100
AcDbAttributeDefinition
  3
検図
  2
KENZU
 70
     0
  0
ENDBLK
  5
7F5
330
7F1
100
AcDbEntity
  8
0
100
AcDbBlockEnd
  0
BLOCK
  5
7F8
330
7F6
100
AcDbEntity
  8
0
100
AcDbBlockBegin
  2
A$C1FED437B
 70
     2
 10
0.0
 20
0.0
 30
0.0
  3
A$C1FED437B
  1

  0
ATTDEF
  5
7F9
330
7F6
100
AcDbEntity
  8
AM_BOR
 62
     2
100
AcDbText
 10
18.03041271546894
 20
2.555831712516678
 30
0.0
 40
3.0
  1

 72
     4
 11
18.03041271546894
 21
2.555831712516678
 31
0.0
100
AcDbAttributeDefinition
  3
材質
  2
ZAISITU
 70
     0
  0
ENDBLK
  5
7FA
330
7F6
100
AcDbEntity
  8
0
100
AcDbBlockEnd
  0
BLOCK
  5
830
330
7FC
100
AcDbEntity
  8
0
100
AcDbBlockBegin
  2
ASO-A
 70
     2
 10
0.0
 20
0.0
 30
0.0
  3
ASO-A
  1

  0
LINE
  5
7FD
330
7FC
100
AcDbEntity
  8
AM_BOR
 62
   211
100
AcDbLine
 10
-110.0
 20
0.0
 30
0.0
 11
0.0
 21
0.0
 31
0.0
1001
GENIUS_GENREC_14
1002
{
1000
PYDIR
1011
-110.0
1021
40.0
1031
0.0
1002
}
1002
{
1000
PXDIR
1011
0.0
1021
0.0
1031
0.0
1002
}
1002
{
1000
PORI
1011
-110.0
1021
0.0
1031
0.0
1002
}
1002
{
1000
PINS
1011
-110.0
1021
0.0
1031
0.0
1002
}
1002
{
1000
HVAL
1000
40
1002
}
1002
{
1000
H
1070
     2
1002
}
1002
{
1000
WVAL
1000
110
1002
}
1002
{
1000
W
1070
     2
1002
}
1002
{
1000
C
1070
     1
1002
}
1001
GENIUS_GENODEF_13
1002
{
1000
HIER
1070
     0
1002
}
1002
{
1000
MANEDIT
1070
     0
1002
}
1002
{
1000
NOSEL
1070
     0
1002
}
1002
{
1000
BEHIND
1070
     0
1002
}
1002
{
1000
REACTOR
1002
}
1001
GENIUS_GENOBJ-N-REC_13
1002
{
1000
OWNER
1000
GEN
1002
}
  0
LINE
  5
7FE
330
7FC
100
AcDbEntity
  8
AM_BOR
 62
   211
100
AcDbLine
 10
0.0
 20
0.0
 30
0.0
 11
0.0
 21
40.0
 31
0.0
1001
GENIUS_GENREC_14
1002
{
1000
PYDIR
1011
-110.0
1021
40.0
1031
0.0
1002
}
1002
{
1000
PXDIR
1011
0.0
1021
0.0
1031
0.0
1002
}
1002
{
1000
PORI
1011
-110.0
1021
0.0
1031
0.0
1002
}
1002
{
1000
PINS
1011
-110.0
1021
0.0
1031
0.0
1002
}
1002
{
1000
HVAL
1000
40
1002
}
1002
{
1000
H
1070
     2
1002
}
1002
{
1000
WVAL
1000
110
1002
}
1002
{
1000
W
1070
     2
1002
}
1002
{
1000
C
1070
     1
1002
}
1001
GENIUS_GENODEF_13
1002
{
1000
HIER
1070
     0
1002
}
1002
{
1000
MANEDIT
1070
     0
1002
}
1002
{
1000
NOSEL
1070
     0
1002
}
1002
{
1000
BEHIND
1070
     0
1002
}
1002
{
1000
REACTOR
1002
}
1001
GENIUS_GENOBJ-N-REC_13
1002
{
1000
OWNER
1000
GEN
1002
}
  0
LINE
  5
7FF
330
7FC
100
AcDbEntity
  8
AM_BOR
 62
   211
100
AcDbLine
 10
0.0
 20
40.0
 30
0.0
 11
-110.0
 21
40.00000000000001
 31
0.0
1001
GENIUS_GENREC_14
1002
{
1000
PYDIR
1011
-110.0
1021
40.0
1031
0.0
1002
}
1002
{
1000
PXDIR
1011
0.0
1021
0.0
1031
0.0
1002
}
1002
{
1000
PORI
1011
-110.0
1021
0.0
1031
0.0
1002
}
1002
{
1000
PINS
1011
-110.0
1021
0.0
1031
0.0
1002
}
1002
{
1000
HVAL
1000
40
1002
}
1002
{
1000
H
1070
     2
1002
}
1002
{
1000
WVAL
1000
110
1002
}
1002
{
1000
W
1070
     2
1002
}
1002
{
1000
C
1070
     1
1002
}
1001
GENIUS_GENODEF_13
1002
{
1000
HIER
1070
     0
1002
}
1002
{
1000
MANEDIT
1070
     0
1002
}
1002
{
1000
NOSEL
1070
     0
1002
}
1002
{
1000
BEHIND
1070
     0
1002
}
1002
{
1000
REACTOR
1002
}
1001
GENIUS_GENOBJ-N-REC_13
1002
{
1000
OWNER
1000
GEN
1002
}
  0
LINE
  5
800
330
7FC
100
AcDbEntity
  8
AM_BOR
 62
   211
100
AcDbLine
 10
-110.0
 20
40.00000000000001
 30
0.0
 11
-110.0
 21
0.0
 31
0.0
1001
GENIUS_GENREC_14
1002
{
1000
PYDIR
1011
-110.0
1021
40.0
1031
0.0
1002
}
1002
{
1000
PXDIR
1011
0.0
1021
0.0
1031
0.0
1002
}
1002
{
1000
PORI
1011
-110.0
1021
0.0
1031
0.0
1002
}
1002
{
1000
PINS
1011
-110.0
1021
0.0
1031
0.0
1002
}
1002
{
1000
HVAL
1000
40
1002
}
1002
{
1000
H
1070
     2
1002
}
1002
{
1000
WVAL
1000
110
1002
}
1002
{
1000
W
1070
     2
1002
}
1002
{
1000
C
1070
     1
1002
}
1001
GENIUS_GENODEF_13
1002
{
1000
HIER
1070
     0
1002
}
1002
{
1000
MANEDIT
1070
     0
1002
}
1002
{
1000
NOSEL
1070
     0
1002
}
1002
{
1000
BEHIND
1070
     0
1002
}
1002
{
1000
REACTOR
1002
}
1001
GENIUS_GENOBJ-N-REC_13
1002
{
1000
OWNER
1000
GEN
1002
}
  0
LINE
  5
801
330
7FC
100
AcDbEntity
  8
AM_BOR
 62
     5
100
AcDbLine
 10
-60.0
 20
9.999999999999992
 30
0.0
 11
0.0
 21
10.0
 31
0.0
1001
GENIUS_GENREC_14
1002
{
1000
PYDIR
1011
-110.0
1021
40.0
1031
0.0
1002
}
1002
{
1000
PXDIR
1011
0.0
1021
0.0
1031
0.0
1002
}
1002
{
1000
PORI
1011
-110.0
1021
0.0
1031
0.0
1002
}
1002
{
1000
PINS
1011
-110.0
1021
0.0
1031
0.0
1002
}
1002
{
1000
HVAL
1000
40
1002
}
1002
{
1000
H
1070
     2
1002
}
1002
{
1000
WVAL
1000
110
1002
}
1002
{
1000
W
1070
     2
1002
}
1002
{
1000
C
1070
     1
1002
}
  0
LINE
  5
802
330
7FC
100
AcDbEntity
  8
AM_BOR
 62
     5
100
AcDbLine
 10
-110.0
 20
19.0
 30
0.0
 11
0.0
 21
19.0
 31
0.0
1001
GENIUS_GENREC_14
1002
{
1000
PYDIR
1011
-110.0
1021
40.0
1031
0.0
1002
}
1002
{
1000
PXDIR
1011
0.0
1021
0.0
1031
0.0
1002
}
1002
{
1000
PORI
1011
-110.0
1021
0.0
1031
0.0
1002
}
1002
{
1000
PINS
1011
-110.0
1021
0.0
1031
0.0
1002
}
1002
{
1000
HVAL
1000
40
1002
}
1002
{
1000
H
1070
     2
1002
}
1002
{
1000
WVAL
1000
110
1002
}
1002
{
1000
W
1070
     2
1002
}
1002
{
1000
C
1070
     1
1002
}
1001
GENIUS_GENODEF_13
1002
{
1000
HIER
1070
     0
1002
}
1002
{
1000
MANEDIT
1070
     0
1002
}
1002
{
1000
NOSEL
1070
     0
1002
}
1002
{
1000
BEHIND
1070
     0
1002
}
1002
{
1000
REACTOR
1002
}
1001
GENIUS_GENOBJ-N-REC_13
1002
{
1000
OWNER
1000
GEN
1002
}
  0
LINE
  5
803
330
7FC
100
AcDbEntity
  8
AM_BOR
 62
     5
100
AcDbLine
 10
-110.0
 20
26.0
 30
0.0
 11
0.0
 21
26.0
 31
0.0
1001
GENIUS_GENREC_14
1002
{
1000
PYDIR
1011
-110.0
1021
40.0
1031
0.0
1002
}
1002
{
1000
PXDIR
1011
0.0
1021
0.0
1031
0.0
1002
}
1002
{
1000
PORI
1011
-110.0
1021
0.0
1031
0.0
1002
}
1002
{
1000
PINS
1011
-110.0
1021
0.0
1031
0.0
1002
}
1002
{
1000
HVAL
1000
40
1002
}
1002
{
1000
H
1070
     2
1002
}
1002
{
1000
WVAL
1000
110
1002
}
1002
{
1000
W
1070
     2
1002
}
1002
{
1000
C
1070
     1
1002
}
1001
GENIUS_GENODEF_13
1002
{
1000
HIER
1070
     0
1002
}
1002
{
1000
MANEDIT
1070
     0
1002
}
1002
{
1000
NOSEL
1070
     0
1002
}
1002
{
1000
BEHIND
1070
     0
1002
}
1002
{
1000
REACTOR
1002
}
1001
GENIUS_GENOBJ-N-REC_13
1002
{
1000
OWNER
1000
GEN
1002
}
  0
LINE
  5
804
330
7FC
100
AcDbEntity
  8
AM_BOR
 62
     5
100
AcDbLine
 10
-110.0
 20
33.0
 30
0.0
 11
0.0
 21
33.0
 31
0.0
1001
GENIUS_GENREC_14
1002
{
1000
PYDIR
1011
-110.0
1021
40.0
1031
0.0
1002
}
1002
{
1000
PXDIR
1011
0.0
1021
0.0
1031
0.0
1002
}
1002
{
1000
PORI
1011
-110.0
1021
0.0
1031
0.0
1002
}
1002
{
1000
PINS
1011
-110.0
1021
0.0
1031
0.0
1002
}
1002
{
1000
HVAL
1000
40
1002
}
1002
{
1000
H
1070
     2
1002
}
1002
{
1000
WVAL
1000
110
1002
}
1002
{
1000
W
1070
     2
1002
}
1002
{
1000
C
1070
     1
1002
}
1001
GENIUS_GENODEF_13
1002
{
1000
HIER
1070
     0
1002
}
1002
{
1000
MANEDIT
1070
     0
1002
}
1002
{
1000
NOSEL
1070
     0
1002
}
1002
{
1000
BEHIND
1070
     0
1002
}
1002
{
1000
REACTOR
1002
}
1001
GENIUS_GENOBJ-N-REC_13
1002
{
1000
OWNER
1000
GEN
1002
}
  0
LINE
  5
805
330
7FC
100
AcDbEntity
  8
AM_BOR
 62
     5
100
AcDbLine
 10
-85.0
 20
33.0
 30
0.0
 11
-85.0
 21
18.99999999999998
 31
0.0
1001
GENIUS_GENREC_14
1002
{
1000
PYDIR
1011
-110.0
1021
40.0
1031
0.0
1002
}
1002
{
1000
PXDIR
1011
0.0
1021
0.0
1031
0.0
1002
}
1002
{
1000
PORI
1011
-110.0
1021
0.0
1031
0.0
1002
}
1002
{
1000
PINS
1011
-110.0
1021
0.0
1031
0.0
1002
}
1002
{
1000
HVAL
1000
40
1002
}
1002
{
1000
H
1070
     2
1002
}
1002
{
1000
WVAL
1000
110
1002
}
1002
{
1000
W
1070
     2
1002
}
1002
{
1000
C
1070
     1
1002
}
1001
GENIUS_GENODEF_13
1002
{
1000
HIER
1070
     0
1002
}
1002
{
1000
MANEDIT
1070
     0
1002
}
1002
{
1000
NOSEL
1070
     0
1002
}
1002
{
1000
BEHIND
1070
     0
1002
}
1002
{
1000
REACTOR
1002
}
1001
GENIUS_GENOBJ-N-REC_13
1002
{
1000
OWNER
1000
GEN
1002
}
  0
LINE
  5
806
330
7FC
100
AcDbEntity
  8
AM_BOR
 62
     5
100
AcDbLine
 10
-60.0
 20
40.00000000000001
 30
0.0
 11
-60.0
 21
0.0
 31
0.0
1001
GENIUS_GENREC_14
1002
{
1000
PYDIR
1011
-110.0
1021
40.0
1031
0.0
1002
}
1002
{
1000
PXDIR
1011
0.0
1021
0.0
1031
0.0
1002
}
1002
{
1000
PORI
1011
-110.0
1021
0.0
1031
0.0
1002
}
1002
{
1000
PINS
1011
-110.0
1021
0.0
1031
0.0
1002
}
1002
{
1000
HVAL
1000
40
1002
}
1002
{
1000
H
1070
     2
1002
}
1002
{
1000
WVAL
1000
110
1002
}
1002
{
1000
W
1070
     2
1002
}
1002
{
1000
C
1070
     1
1002
}
1001
GENIUS_GENODEF_13
1002
{
1000
HIER
1070
     0
1002
}
1002
{
1000
MANEDIT
1070
     0
1002
}
1002
{
1000
NOSEL
1070
     0
1002
}
1002
{
1000
BEHIND
1070
     0
1002
}
1002
{
1000
REACTOR
1002
}
1001
GENIUS_GENOBJ-N-REC_13
1002
{
1000
OWNER
1000
GEN
1002
}
  0
LINE
  5
807
330
7FC
100
AcDbEntity
  8
AM_BOR
 62
     5
100
AcDbLine
 10
-20.0
 20
33.0
 30
0.0
 11
-20.0
 21
40.0
 31
0.0
1001
GENIUS_GENREC_14
1002
{
1000
PYDIR
1011
-110.0
1021
40.0
1031
0.0
1002
}
1002
{
1000
PXDIR
1011
0.0
1021
0.0
1031
0.0
1002
}
1002
{
1000
PORI
1011
-110.0
1021
0.0
1031
0.0
1002
}
1002
{
1000
PINS
1011
-110.0
1021
0.0
1031
0.0
1002
}
1002
{
1000
HVAL
1000
40
1002
}
1002
{
1000
H
1070
     2
1002
}
1002
{
1000
WVAL
1000
110
1002
}
1002
{
1000
W
1070
     2
1002
}
1002
{
1000
C
1070
     1
1002
}
1001
GENIUS_GENODEF_13
1002
{
1000
HIER
1070
     0
1002
}
1002
{
1000
MANEDIT
1070
     0
1002
}
1002
{
1000
NOSEL
1070
     0
1002
}
1002
{
1000
BEHIND
1070
     0
1002
}
1002
{
1000
REACTOR
1002
}
1001
GENIUS_GENOBJ-N-REC_13
1002
{
1000
OWNER
1000
GEN
1002
}
  0
LINE
  5
808
330
7FC
100
AcDbEntity
  8
AM_BOR
 62
     5
100
AcDbLine
 10
-40.0
 20
33.0
 30
0.0
 11
-40.0
 21
40.0
 31
0.0
1001
GENIUS_GENREC_14
1002
{
1000
PYDIR
1011
-110.0
1021
40.0
1031
0.0
1002
}
1002
{
1000
PXDIR
1011
0.0
1021
0.0
1031
0.0
1002
}
1002
{
1000
PORI
1011
-110.0
1021
0.0
1031
0.0
1002
}
1002
{
1000
PINS
1011
-110.0
1021
0.0
1031
0.0
1002
}
1002
{
1000
HVAL
1000
40
1002
}
1002
{
1000
H
1070
     2
1002
}
1002
{
1000
WVAL
1000
110
1002
}
1002
{
1000
W
1070
     2
1002
}
1002
{
1000
C
1070
     1
1002
}
1001
GENIUS_GENODEF_13
1002
{
1000
HIER
1070
     0
1002
}
1002
{
1000
MANEDIT
1070
     0
1002
}
1002
{
1000
NOSEL
1070
     0
1002
}
1002
{
1000
BEHIND
1070
     0
1002
}
1002
{
1000
REACTOR
1002
}
1001
GENIUS_GENOBJ-N-REC_13
1002
{
1000
OWNER
1000
GEN
1002
}
  0
LINE
  5
809
330
7FC
100
AcDbEntity
  8
AM_BOR
 62
     5
100
AcDbLine
 10
-80.0
 20
33.0
 30
0.0
 11
-80.0
 21
40.0
 31
0.0
1001
GENIUS_GENREC_14
1002
{
1000
PYDIR
1011
-110.0
1021
40.0
1031
0.0
1002
}
1002
{
1000
PXDIR
1011
0.0
1021
0.0
1031
0.0
1002
}
1002
{
1000
PORI
1011
-110.0
1021
0.0
1031
0.0
1002
}
1002
{
1000
PINS
1011
-110.0
1021
0.0
1031
0.0
1002
}
1002
{
1000
HVAL
1000
40
1002
}
1002
{
1000
H
1070
     2
1002
}
1002
{
1000
WVAL
1000
110
1002
}
1002
{
1000
W
1070
     2
1002
}
1002
{
1000
C
1070
     1
1002
}
1001
GENIUS_GENODEF_13
1002
{
1000
HIER
1070
     0
1002
}
1002
{
1000
MANEDIT
1070
     0
1002
}
1002
{
1000
NOSEL
1070
     0
1002
}
1002
{
1000
BEHIND
1070
     0
1002
}
1002
{
1000
REACTOR
1002
}
1001
GENIUS_GENOBJ-N-REC_13
1002
{
1000
OWNER
1000
GEN
1002
}
  0
TEXT
  5
80A
330
7FC
100
AcDbEntity
  8
AM_BOR
 62
     2
100
AcDbText
 10
-57.4
 20
35.0
 30
0.0
 40
3.0
  1
単位 ｍｍ
 72
     4
 11
-50.0
 21
36.5
 31
0.0
100
AcDbText
  0
TEXT
  5
80B
330
7FC
100
AcDbEntity
  8
AM_BOR
 62
     2
100
AcDbText
 10
-39.0
 20
35.0
 30
0.0
 40
3.0
  1
尺度
 41
0.9
 11
-39.0
 21
36.5
 31
0.0
100
AcDbText
 73
     2
  0
TEXT
  5
80C
330
7FC
100
AcDbEntity
  8
AM_BOR
 62
     2
100
AcDbText
 10
-19.0
 20
35.0
 30
0.0
 40
3.0
  1
日付
 41
0.9
 11
-19.0
 21
36.5
 31
0.0
100
AcDbText
 73
     2
  0
TEXT
  5
80D
330
7FC
100
AcDbEntity
  8
AM_BOR
 62
     2
100
AcDbText
 10
-76.79999999999999
 20
34.99999999999999
 30
0.0
 40
3.0
  1
第３角法
 72
     4
 11
-70.0
 21
36.49999999999999
 31
0.0
100
AcDbText
  0
TEXT
  5
80E
330
7FC
100
AcDbEntity
  8
AM_BOR
 62
     2
100
AcDbText
 10
-59.0
 20
29.5
 30
0.0
 40
3.0
  1
材 質
 11
-59.0
 21
31.0
 31
0.0
100
AcDbText
 73
     2
  0
TEXT
  5
80F
330
7FC
100
AcDbEntity
  8
AM_BOR
 62
     2
100
AcDbText
 10
-59.0
 20
22.5
 30
0.0
 40
3.0
  1
備 考
 11
-59.0
 21
24.0
 31
0.0
100
AcDbText
 73
     2
  0
TEXT
  5
810
330
7FC
100
AcDbEntity
  8
AM_BOR
 62
     2
100
AcDbText
 10
-59.0
 20
15.5
 30
0.0
 40
3.0
  1
品 名
 11
-59.0
 21
17.0
 31
0.0
100
AcDbText
 73
     2
  0
TEXT
  5
811
330
7FC
100
AcDbEntity
  8
AM_BOR
 62
     2
100
AcDbText
 10
-59.0
 20
6.499999999999992
 30
0.0
 40
3.0
  1
図 番
 11
-59.0
 21
7.999999999999992
 31
0.0
100
AcDbText
 73
     2
  0
TEXT
  5
812
330
7FC
100
AcDbEntity
  8
AM_BOR
 62
     2
100
AcDbText
 10
-109.0
 20
29.5
 30
0.0
 40
3.0
  1
承認
 11
-109.0
 21
31.0
 31
0.0
100
AcDbText
 73
     2
  0
TEXT
  5
813
330
7FC
100
AcDbEntity
  8
AM_BOR
 62
     2
100
AcDbText
 10
-109.0
 20
22.5
 30
0.0
 40
3.0
  1
設計
 11
-109.0
 21
24.0
 31
0.0
100
AcDbText
 73
     2
  0
TEXT
  5
814
330
7FC
100
AcDbEntity
  8
AM_BOR
 62
     2
100
AcDbText
 10
-84.0
 20
22.5
 30
0.0
 40
3.0
  1
製図
 11
-84.0
 21
24.0
 31
0.0
100
AcDbText
 73
     2
  0
TEXT
  5
815
330
7FC
100
AcDbEntity
  8
AM_BOR
 62
     2
100
AcDbText
 10
-84.0
 20
29.5
 30
0.0
 40
3.0
  1
検図
 11
-84.0
 21
31.0
 31
0.0
100
AcDbText
 73
     2
  0
ATTDEF
  5
816
330
7FC
100
AcDbEntity
  8
AM_BOR
100
AcDbText
 10
-50.25926794017573
 20
12.75
 30
0.0
 40
3.5
  1

 11
-50.25926794017573
 21
14.5
 31
0.0
100
AcDbAttributeDefinition
  3
品名
  2
HINMEI{14}
 70
     0
 74
     2
  0
ATTDEF
  5
817
330
7FC
100
AcDbEntity
  8
AM_BOR
100
AcDbText
 10
-50.10873010396898
 20
3.249999999999992
 30
0.0
 40
3.5
  1

 11
-50.10873010396898
 21
4.999999999999992
 31
0.0
100
AcDbAttributeDefinition
  3
図番
  2
ZUBAN{14}
 70
     0
 74
     2
  0
ATTDEF
  5
818
330
7FC
100
AcDbEntity
  8
AM_BOR
 62
     2
100
AcDbText
 10
-11.91705654530994
 20
35.0
 30
0.0
 40
3.0
  1

 41
0.8
 11
-11.91705654530994
 21
36.5
 31
0.0
100
AcDbAttributeDefinition
  3
日付
  2
GEN-TITLE-DAT{3.5}
 70
     0
 74
     2
  0
ATTDEF
  5
819
330
7FC
100
AcDbEntity
  8
AM_BOR
 62
     2
100
AcDbText
 10
-71.63012018472975
 20
20.00000000000001
 30
0.0
 40
3.0
  1
水 田
 72
     4
 11
-67.63012018472974
 21
21.50000000000002
 31
0.0
100
AcDbAttributeDefinition
  3
製図
  2
SEIZU
 70
     0
  0
ATTDEF
  5
81A
330
7FC
100
AcDbEntity
  8
AM_BOR
 62
     2
100
AcDbText
 10
-31.91705654530995
 20
35.0
 30
0.0
 40
3.0
  1

 11
-31.91705654530995
 21
36.5
 31
0.0
100
AcDbAttributeDefinition
  3
尺度
  2
GEN-TITLE-SCA
 70
     0
 74
     2
  0
LINE
  5
81B
330
7FC
100
AcDbEntity
  8
0
100
AcDbLine
 10
-106.9502221859465
 20
14.71456568209314
 30
0.0
 11
-107.7139711131768
 21
11.16237652835879
 31
0.0
  0
LINE
  5
81C
330
7FC
100
AcDbEntity
  8
0
100
AcDbLine
 10
-107.7139711131768
 20
11.16237652835879
 30
0.0
 11
-107.6697551010107
 21
11.22470827233807
 31
0.0
  0
ELLIPSE
  5
81D
330
7FC
100
AcDbEntity
  8
0
100
AcDbEllipse
 10
-106.5198686826232
 20
9.133166589319488
 30
0.0
 11
0.0200858413762701
 21
2.795177724472429
 31
0.0
210
0.0
220
0.0
230
0.9999999999999998
 40
0.6250197778053533
 41
-1.051714224928873
 42
0.7298517778971401
1001
GENIUS_GENODEF_13
1002
{
1000
HIER
1070
     0
1002
}
1002
{
1000
MANEDIT
1070
     0
1002
}
1002
{
1000
NOSEL
1070
     0
1002
}
1002
{
1000
BEHIND
1070
     0
1002
}
1002
{
1000
REACTOR
1002
}
1001
GENIUS_GENOBJ-N-FIL_13
1002
{
1000
OWNER
1000
GEN
1002
}
  0
ELLIPSE
  5
81E
330
7FC
100
AcDbEntity
  8
0
100
AcDbEllipse
 10
-105.2984958385996
 20
13.8219417489321
 30
0.0
 11
0.0200858413762916
 21
2.795177724472415
 31
0.0
210
0.0
220
0.0
230
1.0
 40
0.6250197778053527
 41
-1.051714224928867
 42
1.250253596044828
1001
GENIUS_GENODEF_13
1002
{
1000
HIER
1070
     0
1002
}
1002
{
1000
MANEDIT
1070
     0
1002
}
1002
{
1000
NOSEL
1070
     0
1002
}
1002
{
1000
BEHIND
1070
     0
1002
}
1002
{
1000
REACTOR
1002
}
1001
GENIUS_GENOBJ-N-FIL_13
1002
{
1000
OWNER
1000
GEN
1002
}
  0
LINE
  5
81F
330
7FC
100
AcDbEntity
  8
0
100
AcDbLine
 10
-98.48721298302093
 20
8.077457208786752
 30
0.0
 11
-99.45177360188811
 21
4.065819878065248
 31
0.0
  0
ELLIPSE
  5
820
330
7FC
100
AcDbEntity
  8
0
100
AcDbEllipse
 10
-101.0818809708247
 20
5.053412867376919
 30
0.0
 11
0.0200858413762853
 21
2.795177724472413
 31
0.0
210
0.0
220
0.0
230
1.0
 40
0.6250197778053547
 41
2.089878428660925
 42
4.355766148231805
1001
GENIUS_GENODEF_13
1002
{
1000
HIER
1070
     0
1002
}
1002
{
1000
MANEDIT
1070
     0
1002
}
1002
{
1000
NOSEL
1070
     0
1002
}
1002
{
1000
BEHIND
1070
     0
1002
}
1002
{
1000
REACTOR
1002
}
1001
GENIUS_GENOBJ-N-FIL_13
1002
{
1000
OWNER
1000
GEN
1002
}
  0
LINE
  5
821
330
7FC
100
AcDbEntity
  8
0
100
AcDbLine
 10
-98.48721298302093
 20
8.077457208786752
 30
0.0
 11
-98.66382720839389
 21
7.801834007856294
 31
0.0
  0
ELLIPSE
  5
822
330
7FC
100
AcDbEntity
  8
0
100
AcDbEllipse
 10
-99.87931293102301
 20
9.796066964505511
 30
0.0
 11
0.0200858413762724
 21
2.795177724472415
 31
0.0
210
0.0
220
0.0
230
0.9999999999999998
 40
0.6250197778053552
 41
2.08987842866092
 42
3.922474143254961
1001
GENIUS_GENODEF_13
1002
{
1000
HIER
1070
     0
1002
}
1002
{
1000
MANEDIT
1070
     0
1002
}
1002
{
1000
NOSEL
1070
     0
1002
}
1002
{
1000
BEHIND
1070
     0
1002
}
1002
{
1000
REACTOR
1002
}
1001
GENIUS_GENOBJ-N-FIL_13
1002
{
1000
OWNER
1000
GEN
1002
}
  0
HATCH
  5
823
330
7FC
100
AcDbEntity
  8
AM_8
100
AcDbHatch
 10
0.0
 20
0.0
 30
0.0
210
0.0
220
0.0
230
1.0
  2
SOLID
 70
     1
 71
     0
 91
        1
 92
        1
 93
        2
 72
     3
 10
-106.7638987916396
 20
4.957358478318376
 11
0.0000000000000547
 21
2.56276973145977
 40
0.8333333333333941
 50
-77.14069946214277
 51
264.4007371808275
 73
     1
 72
     3
 10
-106.7638987916396
 20
4.957358478318376
 11
-0.0000000000003928
 21
2.562769731461267
 40
0.8333333333328997
 50
264.4007371808174
 51
282.8593005378472
 73
     1
 97
        0
 75
     0
 76
     1
 98
        1
 10
65.20293740923941
 20
-32.16820874956388
1001
GENIUS_GENODEF_13
1002
{
1000
HIER
1070
     0
1002
}
1002
{
1000
MANEDIT
1070
     0
1002
}
1002
{
1000
NOSEL
1070
     0
1002
}
1002
{
1000
BEHIND
1070
     0
1002
}
1002
{
1000
REACTOR
1002
}
1001
GENIUS_GENOBJ-N-HTC_13
1002
{
1000
OWNER
1000
GEN
1002
}
1001
GENIUS_GENHATCH_13
1002
{
1000
DATA
1040
0.0
1042
0.0015799698758396
1000
SOLID
1070
     0
1011
70.0136537122014
1021
-14.7540192633455
1031
0.0
1002
}
1002
{
1000
UCS
1010
0.0
1020
0.0
1030
0.0
1010
1.0
1020
0.0
1030
0.0
1010
0.0
1020
1.0
1030
0.0
1002
}
  0
ELLIPSE
  5
824
330
7FC
100
AcDbEntity
  8
0
100
AcDbEllipse
 10
-106.7638987916396
 20
4.957358478318417
 30
0.0
 11
0.0000000000000006
 21
2.562769731459943
 31
0.0
210
0.0
220
0.0
230
1.0
 40
0.8333333333333353
 41
-1.570796326794896
 42
4.712388980384689
  0
HATCH
  5
825
330
7FC
100
AcDbEntity
  8
AM_8
100
AcDbHatch
 10
0.0
 20
0.0
 30
0.0
210
0.0
220
0.0
230
1.0
  2
SOLID
 70
     1
 71
     0
 91
        1
 92
        1
 93
       10
 72
     1
 10
-106.9502221859465
 20
14.71456568209311
 11
-107.7139711131768
 21
11.16237652835879
 72
     1
 10
-107.7139711131768
 20
11.16237652835879
 11
-107.6697551010108
 21
11.22470827233809
 72
     3
 10
-106.5198686826232
 20
9.133166589319488
 11
0.0200858413762859
 21
2.795177724472421
 40
0.6250197778053525
 50
-29.21280058452436
 51
47.56891328106517
 73
     0
 72
     1
 10
-104.9929922696577
 20
10.5089073790986
 11
-102.6087573837903
 21
3.677672077597827
 72
     3
 10
-101.0818809708247
 20
5.053412867376919
 11
0.0200858413762844
 21
2.79517772447242
 40
0.625019777805353
 50
132.4310867189347
 51
239.202331800838
 73
     1
 72
     1
 10
-99.45177360188809
 20
4.065819878065248
 11
-98.48721298302093
 21
8.077457208786761
 72
     1
 10
-98.48721298302095
 20
8.077457208786752
 11
-98.66382720839393
 21
7.801834007856288
 72
     3
 10
-99.87931293102301
 20
9.796066964505511
 11
0.0200858413762811
 21
2.795177724472416
 40
0.6250197778053536
 50
148.2259629226598
 51
227.5689132810653
 73
     0
 72
     1
 10
-101.4061893439886
 20
8.420326174726406
 11
-103.771619425634
 21
15.19768253871121
 72
     3
 10
-105.2984958385996
 20
13.8219417489321
 11
0.02008584137625
 21
2.795177724472417
 40
0.6250197778053583
 50
-47.56891328106589
 51
62.02409398278944
 73
     1
 97
        0
 75
     0
 76
     1
 98
        1
 10
65.20293740923941
 20
-32.16820874956388
1001
GENIUS_GENODEF_13
1002
{
1000
HIER
1070
     0
1002
}
1002
{
1000
MANEDIT
1070
     0
1002
}
1002
{
1000
NOSEL
1070
     0
1002
}
1002
{
1000
BEHIND
1070
     0
1002
}
1002
{
1000
REACTOR
1002
}
1001
GENIUS_GENOBJ-N-HTC_13
1002
{
1000
OWNER
1000
GEN
1002
}
1001
GENIUS_GENHATCH_13
1002
{
1000
DATA
1040
0.0
1042
0.0015799698758396
1000
SOLID
1070
     0
1011
74.07735655451816
1021
-11.90112763631223
1031
0.0
1002
}
1002
{
1000
UCS
1010
0.0
1020
0.0
1030
0.0
1010
1.0
1020
0.0
1030
0.0
1010
0.0
1020
1.0
1030
0.0
1002
}
  0
LINE
  5
826
330
7FC
100
AcDbEntity
  8
0
100
AcDbLine
 10
-104.9929922696577
 20
10.5089073790986
 30
0.0
 11
-102.6087573837903
 21
3.677672077597847
 31
0.0
  0
LINE
  5
827
330
7FC
100
AcDbEntity
  8
0
100
AcDbLine
 10
-101.4061893439886
 20
8.420326174726406
 30
0.0
 11
-103.771619425634
 21
15.1976825387112
 31
0.0
  0
TEXT
  5
828
330
7FC
100
AcDbEntity
  8
0
100
AcDbText
 10
-92.04358977334541
 20
2.736280326823534
 30
0.0
 40
1.397647058823528
  1
ASOH   CO.LTD
 41
2.222222222222219
  7
ｽﾀｲﾙ1
100
AcDbText
  0
TEXT
  5
829
330
7FC
100
AcDbEntity
  8
0
100
AcDbText
 10
-96.37601713265375
 20
7.065690057310197
 30
0.0
 40
9.355420606948992
  1
アソー株式会社
 41
0.4444444444444381
  7
ｽﾀｲﾙ1
100
AcDbText
  0
ATTDEF
  5
82A
330
7FC
100
AcDbEntity
  8
AM_BOR
 62
     2
100
AcDbText
 10
-98.50320560717072
 20
20.29902073441097
 30
0.0
 40
3.0
  1
水 田
 72
     4
 11
-94.50320560717072
 21
21.79902073441097
 31
0.0
100
AcDbAttributeDefinition
  3
設計
  2
SEKKEI
 70
     0
  0
ATTDEF
  5
82B
330
7FC
100
AcDbEntity
  8
AM_BOR
 62
     2
100
AcDbText
 10
-97.8418697037587
 20
27.05583171251668
 30
0.0
 40
3.0
  1
水 田
 72
     4
 11
-93.8418697037587
 21
28.55583171251668
 31
0.0
100
AcDbAttributeDefinition
  3
承認
  2
SYOUNIN
 70
     0
  0
ATTDEF
  5
82C
330
7FC
100
AcDbEntity
  8
AM_BOR
 62
     2
100
AcDbText
 10
-72.8418697037587
 20
27.05583171251668
 30
0.0
 40
3.0
  1
水 田
 72
     4
 11
-68.8418697037587
 21
28.55583171251668
 31
0.0
100
AcDbAttributeDefinition
  3
検図
  2
KENZU
 70
     0
  0
ATTDEF
  5
82D
330
7FC
100
AcDbEntity
  8
AM_BOR
 62
     2
100
AcDbText
 10
-28.88427375716205
 20
27.48523221998006
 30
0.0
 40
2.5
  1

 72
     4
 11
-28.88427375716205
 21
27.48523221998006
 31
0.0
100
AcDbAttributeDefinition
  3
材質
  2
ZAISITU
 70
     0
  0
ATTDEF
  5
82E
330
7FC
100
AcDbEntity
  8
AM_BOR
 62
     2
100
AcDbText
 10
-28.88427375716205
 20
20.49352515660299
 30
0.0
 40
2.5
  1

 72
     4
 11
-28.88427375716205
 21
20.49352515660299
 31
0.0
100
AcDbAttributeDefinition
  3
備考
  2
BIKOU
 70
     0
  0
ENDBLK
  5
831
330
7FC
100
AcDbEntity
  8
0
100
AcDbBlockEnd
  0
BLOCK
  5
8BA
330
857
100
AcDbEntity
  8
0
100
AcDbBlockBegin
  2
xa
 70
     0
 10
0.0
 20
0.0
 30
0.0
  3
xa
  1

  0
TEXT
  5
858
330
857
100
AcDbEntity
  8
6
100
AcDbText
 10
30.45382563429928
 20
23.38268240496586
 30
0.0
 40
2.5
  1
%%p0.05
100
AcDbText
1001
GENIUS_GENTRA_14
1002
{
1070
     1
1000
%%
1000
%%p0.05
1000
JPN
1070
     0
1040
1.0
1070
     0
1002
}
  0
TEXT
  5
859
330
857
100
AcDbEntity
  8
6
100
AcDbText
 10
30.45382563429928
 20
16.38268240496586
 30
0.0
 40
2.5
  1
%%p0.1
100
AcDbText
1001
GENIUS_GENTRA_14
1002
{
1070
     1
1000
%%
1000
%%p0.1
1000
JPN
1070
     0
1040
1.0
1070
     0
1002
}
  0
TEXT
  5
85A
330
857
100
AcDbEntity
  8
6
100
AcDbText
 10
30.45382563429928
 20
9.382682404965862
 30
0.0
 40
2.5
  1
%%p0.2
100
AcDbText
1001
GENIUS_GENTRA_14
1002
{
1070
     1
1000
%%
1000
%%p0.2
1000
JPN
1070
     0
1040
1.0
1070
     0
1002
}
  0
TEXT
  5
85B
330
857
100
AcDbEntity
  8
6
100
AcDbText
 10
30.45382563429928
 20
2.382682404965862
 30
0.0
 40
2.5
  1
-
100
AcDbText
  0
TEXT
  5
85C
330
857
100
AcDbEntity
  8
6
100
AcDbText
 10
39.68628109774988
 20
2.382682404965862
 30
0.0
 40
2.5
  1
%%p0.5
100
AcDbText
1001
GENIUS_GENTRA_14
1002
{
1070
     1
1000
%%
1000
%%p0.5
1000
JPN
1070
     0
1040
1.0
1070
     0
1002
}
  0
TEXT
  5
85D
330
857
100
AcDbEntity
  8
6
100
AcDbText
 10
39.68628109774988
 20
9.382682404965862
 30
0.0
 40
2.5
  1
%%p0.3
100
AcDbText
1001
GENIUS_GENTRA_14
1002
{
1070
     1
1000
%%
1000
%%p0.3
1000
JPN
1070
     0
1040
1.0
1070
     0
1002
}
  0
TEXT
  5
85E
330
857
100
AcDbEntity
  8
6
100
AcDbText
 10
39.68628109774988
 20
16.38268240496586
 30
0.0
 40
2.5
  1
%%p0.1
100
AcDbText
1001
GENIUS_GENTRA_14
1002
{
1070
     1
1000
%%
1000
%%p0.1
1000
JPN
1070
     0
1040
1.0
1070
     0
1002
}
  0
TEXT
  5
85F
330
857
100
AcDbEntity
  8
6
100
AcDbText
 10
39.68628109774988
 20
23.38268240496586
 30
0.0
 40
2.5
  1
%%p0.05
100
AcDbText
1001
GENIUS_GENTRA_14
1002
{
1070
     1
1000
%%
1000
%%p0.05
1000
JPN
1070
     0
1040
1.0
1070
     0
1002
}
  0
TEXT
  5
860
330
857
100
AcDbEntity
  8
6
100
AcDbText
 10
48.91873656120049
 20
23.38268240496586
 30
0.0
 40
2.5
  1
%%p0.1
100
AcDbText
1001
GENIUS_GENTRA_14
1002
{
1070
     1
1000
%%
1000
%%p0.1
1000
JPN
1070
     0
1040
1.0
1070
     0
1002
}
  0
TEXT
  5
861
330
857
100
AcDbEntity
  8
6
100
AcDbText
 10
48.91873656120049
 20
16.38268240496586
 30
0.0
 40
2.5
  1
%%p0.2
100
AcDbText
1001
GENIUS_GENTRA_14
1002
{
1070
     1
1000
%%
1000
%%p0.2
1000
JPN
1070
     0
1040
1.0
1070
     0
1002
}
  0
TEXT
  5
862
330
857
100
AcDbEntity
  8
6
100
AcDbText
 10
48.91873656120049
 20
9.382682404965862
 30
0.0
 40
2.5
  1
%%p0.5
100
AcDbText
1001
GENIUS_GENTRA_14
1002
{
1070
     1
1000
%%
1000
%%p0.5
1000
JPN
1070
     0
1040
1.0
1070
     0
1002
}
  0
TEXT
  5
863
330
857
100
AcDbEntity
  8
6
100
AcDbText
 10
50.52991123474209
 20
2.382682404965862
 30
0.0
 40
2.5
  1
%%p1
100
AcDbText
1001
GENIUS_GENTRA_14
1002
{
1070
     1
1000
%%
1000
%%p1
1000
JPN
1070
     0
1040
1.0
1070
     0
1002
}
  0
TEXT
  5
864
330
857
100
AcDbEntity
  8
6
100
AcDbText
 10
58.15119202465109
 20
23.38268240496586
 30
0.0
 40
2.5
  1
%%p0.15
100
AcDbText
1001
GENIUS_GENTRA_14
1002
{
1070
     1
1000
%%
1000
%%p0.15
1000
JPN
1070
     0
1040
1.0
1070
     0
1002
}
  0
TEXT
  5
865
330
857
100
AcDbEntity
  8
6
100
AcDbText
 10
58.15119202465109
 20
16.38268240496586
 30
0.0
 40
2.5
  1
%%p0.3
100
AcDbText
1001
GENIUS_GENTRA_14
1002
{
1070
     1
1000
%%
1000
%%p0.3
1000
JPN
1070
     0
1040
1.0
1070
     0
1002
}
  0
TEXT
  5
866
330
857
100
AcDbEntity
  8
6
100
AcDbText
 10
58.15119202465109
 20
9.382682404965862
 30
0.0
 40
2.5
  1
%%p0.8
100
AcDbText
1001
GENIUS_GENTRA_14
1002
{
1070
     1
1000
%%
1000
%%p0.8
1000
JPN
1070
     0
1040
1.0
1070
     0
1002
}
  0
TEXT
  5
867
330
857
100
AcDbEntity
  8
6
100
AcDbText
 10
58.15119202465109
 20
2.382682404965862
 30
0.0
 40
2.5
  1
%%p1.5
100
AcDbText
1001
GENIUS_GENTRA_14
1002
{
1070
     1
1000
%%
1000
%%p1.5
1000
JPN
1070
     0
1040
1.0
1070
     0
1002
}
  0
TEXT
  5
868
330
857
100
AcDbEntity
  8
6
100
AcDbText
 10
67.3836474881017
 20
23.38268240496586
 30
0.0
 40
2.5
  1
%%p0.2
100
AcDbText
1001
GENIUS_GENTRA_14
1002
{
1070
     1
1000
%%
1000
%%p0.2
1000
JPN
1070
     0
1040
1.0
1070
     0
1002
}
  0
TEXT
  5
869
330
857
100
AcDbEntity
  8
6
100
AcDbText
 10
67.3836474881017
 20
16.38268240496586
 30
0.0
 40
2.5
  1
%%p0.5
100
AcDbText
1001
GENIUS_GENTRA_14
1002
{
1070
     1
1000
%%
1000
%%p0.5
1000
JPN
1070
     0
1040
1.0
1070
     0
1002
}
  0
TEXT
  5
86A
330
857
100
AcDbEntity
  8
6
100
AcDbText
 10
67.3836474881017
 20
9.382682404965862
 30
0.0
 40
2.5
  1
%%p1.2
100
AcDbText
1001
GENIUS_GENTRA_14
1002
{
1070
     1
1000
%%
1000
%%p1.2
1000
JPN
1070
     0
1040
1.0
1070
     0
1002
}
  0
TEXT
  5
86B
330
857
100
AcDbEntity
  8
6
100
AcDbText
 10
67.3836474881017
 20
2.382682404965862
 30
0.0
 40
2.5
  1
%%p2.5
100
AcDbText
1001
GENIUS_GENTRA_14
1002
{
1070
     1
1000
%%
1000
%%p2.5
1000
JPN
1070
     0
1040
1.0
1070
     0
1002
}
  0
TEXT
  5
86C
330
857
100
AcDbEntity
  8
6
100
AcDbText
 10
76.61610295155231
 20
23.38268240496586
 30
0.0
 40
2.5
  1
%%p0.3
100
AcDbText
1001
GENIUS_GENTRA_14
1002
{
1070
     1
1000
%%
1000
%%p0.3
1000
JPN
1070
     0
1040
1.0
1070
     0
1002
}
  0
TEXT
  5
86D
330
857
100
AcDbEntity
  8
6
100
AcDbText
 10
76.61610295155231
 20
16.38268240496586
 30
0.0
 40
2.5
  1
%%p0.8
100
AcDbText
1001
GENIUS_GENTRA_14
1002
{
1070
     1
1000
%%
1000
%%p0.8
1000
JPN
1070
     0
1040
1.0
1070
     0
1002
}
  0
TEXT
  5
86E
330
857
100
AcDbEntity
  8
6
100
AcDbText
 10
78.20428395607246
 20
9.382682404965862
 30
0.0
 40
2.5
  1
%%p2
100
AcDbText
1001
GENIUS_GENTRA_14
1002
{
1070
     1
1000
%%
1000
%%p2
1000
JPN
1070
     0
1040
1.0
1070
     0
1002
}
  0
TEXT
  5
86F
330
857
100
AcDbEntity
  8
6
100
AcDbText
 10
78.20428395607246
 20
2.382682404965862
 30
0.0
 40
2.5
  1
%%p4
100
AcDbText
1001
GENIUS_GENTRA_14
1002
{
1070
     1
1000
%%
1000
%%p4
1000
JPN
1070
     0
1040
1.0
1070
     0
1002
}
  0
TEXT
  5
870
330
857
100
AcDbEntity
  8
6
100
AcDbText
 10
85.8485584150029
 20
23.38268240496586
 30
0.0
 40
2.5
  1
%%p0.5
100
AcDbText
1001
GENIUS_GENTRA_14
1002
{
1070
     1
1000
%%
1000
%%p0.5
1000
JPN
1070
     0
1040
1.0
1070
     0
1002
}
  0
TEXT
  5
871
330
857
100
AcDbEntity
  8
6
100
AcDbText
 10
85.8485584150029
 20
16.38268240496586
 30
0.0
 40
2.5
  1
%%p1.2
100
AcDbText
1001
GENIUS_GENTRA_14
1002
{
1070
     1
1000
%%
1000
%%p1.2
1000
JPN
1070
     0
1040
1.0
1070
     0
1002
}
  0
TEXT
  5
872
330
857
100
AcDbEntity
  8
6
100
AcDbText
 10
87.43673941952307
 20
9.382682404965862
 30
0.0
 40
2.5
  1
%%p3
100
AcDbText
1001
GENIUS_GENTRA_14
1002
{
1070
     1
1000
%%
1000
%%p3
1000
JPN
1070
     0
1040
1.0
1070
     0
1002
}
  0
TEXT
  5
873
330
857
100
AcDbEntity
  8
6
100
AcDbText
 10
87.43673941952307
 20
2.382682404965862
 30
0.0
 40
2.5
  1
%%p6
100
AcDbText
1001
GENIUS_GENTRA_14
1002
{
1070
     1
1000
%%
1000
%%p6
1000
JPN
1070
     0
1040
1.0
1070
     0
1002
}
  0
TEXT
  5
874
330
857
100
AcDbEntity
  8
6
100
AcDbText
 10
95.08101387845352
 20
23.38268240496586
 30
0.0
 40
2.5
  1
-
100
AcDbText
  0
TEXT
  5
875
330
857
100
AcDbEntity
  8
6
100
AcDbText
 10
96.35026793987959
 20
16.38268240496586
 30
0.0
 40
2.5
  1
%%p2
 72
     1
 11
98.17534175877723
 21
16.38268240496586
 31
0.0
100
AcDbText
1001
GENIUS_GENTRA_14
1002
{
1070
     1
1000
%%
1000
%%p2
1000
JPN
1070
     0
1040
1.0
1070
     0
1002
}
  0
TEXT
  5
876
330
857
100
AcDbEntity
  8
6
100
AcDbText
 10
96.26952408723543
 20
9.382682404965862
 30
0.0
 40
2.5
  1
%%p4
100
AcDbText
1001
GENIUS_GENTRA_14
1002
{
1070
     1
1000
%%
1000
%%p4
1000
JPN
1070
     0
1040
1.0
1070
     0
1002
}
  0
TEXT
  5
877
330
857
100
AcDbEntity
  8
6
100
AcDbText
 10
96.26952447566679
 20
2.382682404965862
 30
0.0
 40
2.5
  1
%%p8
100
AcDbText
1001
GENIUS_GENTRA_14
1002
{
1070
     1
1000
%%
1000
%%p8
1000
JPN
1070
     0
1040
1.0
1070
     0
1002
}
  0
TEXT
  5
878
330
857
100
AcDbEntity
  8
6
100
AcDbText
 10
99.07338055410997
 20
30.0865921836928
 30
0.0
 40
2.5
  1
4000
 41
0.5503238583930545
 72
     5
 11
102.8579403952441
 21
30.0865921836928
 31
0.0
100
AcDbText
  0
TEXT
  5
879
330
857
100
AcDbEntity
  8
6
100
AcDbText
 10
89.76789350313215
 20
30.0865921836928
 30
0.0
 40
2.5
  1
2000
 41
0.5841456935801654
 72
     5
 11
93.63900861619834
 21
30.0865921836928
 31
0.0
100
AcDbText
  0
TEXT
  5
87A
330
857
100
AcDbEntity
  8
6
100
AcDbText
 10
80.46240645215432
 20
30.0865921836928
 30
0.0
 40
2.5
  1
1000
 41
0.6663738702293199
 72
     5
 11
84.54525816689596
 21
30.0865921836928
 31
0.0
100
AcDbText
  0
TEXT
  5
87B
330
857
100
AcDbEntity
  8
6
100
AcDbText
 10
71.8839107267259
 20
30.0865921836928
 30
0.0
 40
2.5
  1
400
 41
0.6576629382351298
 72
     5
 11
75.25572789726408
 21
30.0865921836928
 31
0.0
100
AcDbText
  0
TEXT
  5
87C
330
857
100
AcDbEntity
  8
6
100
AcDbText
 10
62.28762699813945
 20
30.0865921836928
 30
0.0
 40
2.5
  1
120
 41
0.8297994764494735
 72
     5
 11
65.9196331711422
 21
30.0865921836928
 31
0.0
100
AcDbText
  0
TEXT
  5
87D
330
857
100
AcDbEntity
  8
6
100
AcDbText
 10
53.41833496357452
 20
30.0865921836928
 30
0.0
 40
2.5
  1
30
 41
1.012227490446649
 72
     5
 11
56.58353844502039
 21
30.0865921836928
 31
0.0
100
AcDbText
  0
TEXT
  5
87E
330
857
100
AcDbEntity
  8
6
100
AcDbText
 10
45.56683019522347
 20
30.0865921836928
 30
0.0
 40
2.5
  1
6
 41
1.116072624906159
 72
     5
 11
47.23984063590465
 21
30.0865921836928
 31
0.0
100
AcDbText
  0
TEXT
  5
87F
330
857
100
AcDbEntity
  8
6
100
AcDbText
 10
36.32085985715014
 20
30.0865921836928
 30
0.0
 40
2.5
  1
3
 41
1.140628934662825
 72
     5
 11
38.00734063590466
 21
30.0865921836928
 31
0.0
100
AcDbText
  0
TEXT
  5
880
330
857
100
AcDbEntity
  8
6
100
AcDbText
 10
45.42143185641918
 20
33.5618183371214
 30
0.0
 40
2.5
  1
3
 41
1.229826568661444
 72
     5
 11
47.23979609935526
 21
33.5618183371214
 31
0.0
100
AcDbText
  0
TEXT
  5
881
330
857
100
AcDbEntity
  8
6
100
AcDbText
 10
54.43612259826045
 20
33.5618183371214
 30
0.0
 40
2.5
  1
6
 41
1.106388110443637
 72
     5
 11
56.09461579925028
 21
33.5618183371214
 31
0.0
100
AcDbText
  0
TEXT
  5
882
330
857
100
AcDbEntity
  8
6
100
AcDbText
 10
63.01461832368886
 20
33.5618183371214
 30
0.0
 40
2.5
  1
30
 41
0.9290195420247394
 72
     5
 11
65.9196331711422
 21
33.5618183371214
 31
0.0
100
AcDbText
  0
TEXT
  5
883
330
857
100
AcDbEntity
  8
6
100
AcDbText
 10
71.8839107267259
 20
33.5618183371214
 30
0.0
 40
2.5
  1
120
 41
0.770354451375487
 72
     5
 11
75.25572789726408
 21
33.5618183371214
 31
0.0
100
AcDbText
  0
TEXT
  5
884
330
857
100
AcDbEntity
  8
6
100
AcDbText
 10
80.75320276129081
 20
33.5618183371214
 30
0.0
 40
2.5
  1
400
 41
0.7350880299861659
 72
     5
 11
84.52197593865099
 21
33.5618183371214
 31
0.0
100
AcDbText
  0
TEXT
  5
885
330
857
100
AcDbEntity
  8
6
100
AcDbText
 10
89.76789350313215
 20
33.5618183371214
 30
0.0
 40
2.5
  1
1000
 41
0.6318157357229324
 72
     5
 11
93.63900861619834
 21
33.5618183371214
 31
0.0
100
AcDbText
  0
TEXT
  5
886
330
857
100
AcDbEntity
  8
6
100
AcDbText
 10
98.92798221530563
 20
33.5618183371214
 30
0.0
 40
2.5
  1
2000
 41
0.5849370488618861
 72
     5
 11
102.8043416148992
 21
33.5618183371214
 31
0.0
100
AcDbText
  0
TEXT
  5
887
330
857
100
AcDbEntity
  8
6
100
AcDbText
 10
35.67975015750051
 20
33.56181833712322
 30
0.0
 40
2.5
  1
0.5
 41
0.5851127296053911
 72
     5
 11
38.00765239175132
 21
33.56181833712322
 31
0.0
100
AcDbText
  0
POLYLINE
  5
888
330
857
100
AcDbEntity
  8
1
100
AcDb2dPolyline
 66
     1
 10
0.0
 20
0.0
 30
0.0
 70
     1
1001
GENIUS_GENODEF_13
1002
{
1000
HIER
1070
     0
1002
}
1002
{
1000
MANEDIT
1070
     0
1002
}
1002
{
1000
NOSEL
1070
     0
1002
}
1002
{
1000
REACTOR
1002
}
1001
GENIUS_GENOBJ-N-REC_13
1002
{
1000
OWNER
1000
GEN
1002
}
  0
VERTEX
  5
889
330
888
100
AcDbEntity
  8
1
100
AcDbVertex
100
AcDb2dVertex
 10
0.0
 20
0.0
 30
0.0
  0
VERTEX
  5
88A
330
888
100
AcDbEntity
  8
1
100
AcDbVertex
100
AcDb2dVertex
 10
103.3342688601432
 20
0.0
 30
0.0
  0
VERTEX
  5
88B
330
888
100
AcDbEntity
  8
1
100
AcDbVertex
100
AcDb2dVertex
 10
103.3342688601432
 20
47.73170508210059
 30
0.0
  0
VERTEX
  5
88C
330
888
100
AcDbEntity
  8
1
100
AcDbVertex
100
AcDb2dVertex
 10
0.0
 20
47.73170508210059
 30
0.0
  0
SEQEND
  5
88D
330
888
100
AcDbEntity
  8
1
  0
LINE
  5
88E
330
857
100
AcDbEntity
  8
6
100
AcDbLine
 10
103.3342688601432
 20
7.000000000001591
 30
0.0
 11
-0.0000000000027285
 21
7.000000000000909
 31
0.0
  0
LINE
  5
88F
330
857
100
AcDbEntity
  8
6
100
AcDbLine
 10
103.3342688601432
 20
14.00000000000727
 30
0.0
 11
0.0
 21
14.00000000000727
 31
0.0
  0
LINE
  5
890
330
857
100
AcDbEntity
  8
6
100
AcDbLine
 10
103.3342688601414
 20
20.99999999998704
 30
0.0
 11
-0.0000000000027285
 21
20.99999999998454
 31
0.0
  0
LINE
  5
891
330
857
100
AcDbEntity
  8
6
100
AcDbLine
 10
103.3342688601414
 20
27.99999999998704
 30
0.0
 11
0.0
 21
27.99999999998703
 31
0.0
  0
LINE
  5
892
330
857
100
AcDbEntity
  8
6
100
AcDbLine
 10
94.10181339668985
 20
0.0
 30
0.0
 11
94.10181339669078
 21
36.80309506859581
 31
0.0
  0
LINE
  5
893
330
857
100
AcDbEntity
  8
6
100
AcDbLine
 10
75.63690246978865
 20
-0.0000000000009095
 30
0.0
 11
75.63690246978956
 21
36.8030950685949
 31
0.0
  0
LINE
  5
894
330
857
100
AcDbEntity
  8
6
100
AcDbLine
 10
84.86935793323926
 20
-0.0000000000009095
 30
0.0
 11
84.86935793324017
 21
36.8030950685949
 31
0.0
  0
LINE
  5
895
330
857
100
AcDbEntity
  8
6
100
AcDbLine
 10
66.40444700633714
 20
0.0000000000015916
 30
0.0
 11
66.40444700633804
 21
36.8030950685974
 31
0.0
  0
LINE
  5
896
330
857
100
AcDbEntity
  8
6
100
AcDbLine
 10
57.17199154288744
 20
-0.0000000000009095
 30
0.0
 11
57.17199154288834
 21
36.8030950685949
 31
0.0
  0
LINE
  5
897
330
857
100
AcDbEntity
  8
6
100
AcDbLine
 10
47.93953607943683
 20
-0.0000000000009095
 30
0.0
 11
47.93953607943774
 21
36.8030950685949
 31
0.0
  0
LINE
  5
898
330
857
100
AcDbEntity
  8
6
100
AcDbLine
 10
38.70708061598714
 20
0.0000000000015916
 30
0.0
 11
38.70708061598794
 21
36.80309506859582
 31
0.0
  0
LINE
  5
899
330
857
100
AcDbEntity
  8
1
100
AcDbLine
 10
29.47462515253653
 20
0.0000000000015916
 30
0.0
 11
29.47462515253744
 21
41.49466141970362
 31
0.0
  0
TEXT
  5
89A
330
857
100
AcDbEntity
  8
6
100
AcDbText
 10
52.17111367300471
 20
37.10227531691695
 30
0.0
 40
3.5
  1
基準寸法の区分
 72
     4
 11
66.40444700633804
 21
38.85227531691695
 31
0.0
100
AcDbText
1001
GENIUS_GENTRA_14
1002
{
1070
     1
1000
GENTRATX{17},%s,(GENMSG gendwg 192)
1000
基準寸法の区分
1000
JPN
1070
     0
1040
1.0
1070
     0
1002
}
  0
TEXT
  5
89B
330
857
100
AcDbEntity
  8
6
100
AcDbText
 10
6.803979242935393
 20
37.10227531691567
 30
0.0
 40
3.5
  1
公差等級
 72
     4
 11
14.73731257626872
 21
38.85227531691567
 31
0.0
100
AcDbText
1001
GENIUS_GENTRA_14
1002
{
1070
     1
1000
GENTRATX{6},%s,(GENMSG gendwg 191)
1000
公差等級
1000
JPN
1070
     0
1040
1.0
1070
     0
1002
}
  0
TEXT
  5
89C
330
857
100
AcDbEntity
  8
6
100
AcDbText
 10
3.413197429831838
 20
30.0865921836928
 30
0.0
 40
2.5
  1
指示
 72
     1
 11
6.109626001260409
 21
30.0865921836928
 31
0.0
100
AcDbText
1001
GENIUS_GENTRA_14
1002
{
1070
     1
1000
GENTRATX{4},%s,(GENMSG gendwg 193)
1000
指示
1000
JPN
1070
     0
1040
1.0
1070
     0
1002
}
  0
TEXT
  5
89D
330
857
100
AcDbEntity
  8
6
100
AcDbText
 10
18.57316694630284
 20
23.0865921836928
 30
0.0
 40
2.5
  1
精級
 72
     1
 11
21.2398336129695
 21
23.0865921836928
 31
0.0
100
AcDbText
 73
     1
1001
GENIUS_GENTRA_14
1002
{
1070
     1
1000
GENTRATX{6},%s,(GENMSG gendwg 197)
1000
精級
1000
JPN
1070
     0
1040
1.0
1070
     0
1002
}
  0
TEXT
  5
89E
330
857
100
AcDbEntity
  8
6
100
AcDbText
 10
18.4898336129695
 20
16.0865921836928
 30
0.0
 40
2.5
  1
中級
 72
     1
 11
21.2398336129695
 21
16.0865921836928
 31
0.0
100
AcDbText
 73
     1
1001
GENIUS_GENTRA_14
1002
{
1070
     1
1000
GENTRATX{6},%s,(GENMSG gendwg 198)
1000
中級
1000
JPN
1070
     0
1040
1.0
1070
     0
1002
}
  0
TEXT
  5
89F
330
857
100
AcDbEntity
  8
6
100
AcDbText
 10
18.57316694630284
 20
9.0865921836928
 30
0.0
 40
2.5
  1
粗級
 72
     1
 11
21.2398336129695
 21
9.0865921836928
 31
0.0
100
AcDbText
 73
     1
1001
GENIUS_GENTRA_14
1002
{
1070
     1
1000
GENTRATX{6},%s,(GENMSG gendwg 199)
1000
粗級
1000
JPN
1070
     0
1040
1.0
1070
     0
1002
}
  0
TEXT
  5
8A0
330
857
100
AcDbEntity
  8
6
100
AcDbText
 10
5.588510639838602
 20
2.0865921836928
 30
0.0
 40
2.5
  1
v
 72
     1
 11
6.463510639838602
 21
2.0865921836928
 31
0.0
100
AcDbText
 73
     1
  0
TEXT
  5
8A1
330
857
100
AcDbEntity
  8
6
100
AcDbText
 10
12.23380109673827
 20
42.63506215891476
 30
0.0
 40
3.5
  1
面取り部分を除く長さ寸法に対する許容差
 72
     4
 11
51.6671344300716
 21
44.38506215891476
 31
0.0
100
AcDbText
1001
GENIUS_GENTRA_14
1002
{
1070
     1
1000
GENTRATX{25},%s,(GENMSG gendwg 190)
1000
面取り部分を除く長さ寸法に対する許容差
1000
JPN
1070
     0
1040
1.0
1070
     0
1002
}
  0
LINE
  5
8A2
330
857
100
AcDbEntity
  8
1
100
AcDbLine
 10
103.3342688601432
 20
36.80309506859582
 30
0.0
 11
0.0
 21
36.80309506859582
 31
0.0
  0
LINE
  5
8A3
330
857
100
AcDbEntity
  8
6
100
AcDbLine
 10
12.21925200251991
 20
0.0000000000015916
 30
0.0
 11
12.21925200252082
 21
36.80309506859582
 31
0.0
  0
TEXT
  5
8A4
330
857
100
AcDbEntity
  8
6
100
AcDbText
 10
17.07316694630284
 20
1.504624970851921
 30
0.0
 40
2.5
  1
極粗級
 72
     1
 11
21.23983361296951
 21
1.504624970851921
 31
0.0
100
AcDbText
 73
     1
1001
GENIUS_GENTRA_14
1002
{
1070
     1
1000
GENTRATX{6},%s,(GENMSG gendwg 200)
1000
極粗級
1000
JPN
1070
     0
1040
1.0
1070
     0
1002
}
  0
TEXT
  5
8A5
330
857
100
AcDbEntity
  8
6
100
AcDbText
 10
5.75881524822316
 20
9.0865921836928
 30
0.0
 40
2.5
  1
c
 72
     1
 11
6.463510639838602
 21
9.0865921836928
 31
0.0
100
AcDbText
 73
     1
  0
TEXT
  5
8A6
330
857
100
AcDbEntity
  8
6
100
AcDbText
 10
5.293206031454045
 20
16.0865921836928
 30
0.0
 40
2.5
  1
m
 72
     1
 11
6.463510639838602
 21
16.0865921836928
 31
0.0
100
AcDbText
 73
     1
  0
TEXT
  5
8A7
330
857
100
AcDbEntity
  8
6
100
AcDbText
 10
5.713510639838602
 20
23.0865921836928
 30
0.0
 40
2.5
  1
f
 72
     1
 11
6.463510639838602
 21
23.0865921836928
 31
0.0
100
AcDbText
 73
     1
  0
TEXT
  5
8A8
330
857
100
AcDbEntity
  8
6
100
AcDbText
 10
18.18027191086241
 20
30.0865921836928
 30
0.0
 40
2.5
  1
注釈
 72
     1
 11
20.84693857752908
 21
30.0865921836928
 31
0.0
100
AcDbText
1001
GENIUS_GENTRA_14
1002
{
1070
     1
1000
GENTRATX{6},%s,(GENMSG gendwg 194)
1000
注釈
1000
JPN
1070
     0
1040
1.0
1070
     0
1002
}
  0
TEXT
  5
8A9
330
857
100
AcDbEntity
  8
6
100
AcDbText
 10
29.70333093331518
 20
33.56181833712139
 30
0.0
 40
2.5
  1
以上
 41
0.703125
100
AcDbText
1001
GENIUS_GENTRA_14
1002
{
1070
     1
1000
GENTRATX{1.5},%s,(GENMSG gendwg 195)
1000
以上
1000
JPN
1070
     0
1040
1.0
1070
     0
1002
}
  0
TEXT
  5
8AA
330
857
100
AcDbEntity
  8
6
100
AcDbText
 10
29.70333093331518
 20
30.0865921836928
 30
0.0
 40
2.5
  1
以下
 41
0.703125
100
AcDbText
1001
GENIUS_GENTRA_14
1002
{
1070
     1
1000
GENTRATX{1.5},%s,(GENMSG gendwg 196)
1000
以下
1000
JPN
1070
     0
1040
1.0
1070
     0
1002
}
  0
LINE
  5
8AB
330
857
100
AcDbEntity
  8
1
100
AcDbLine
 10
0.0
 20
41.49466141970361
 30
0.0
 11
103.3342688601432
 21
41.49466141970362
 31
0.0
  0
TEXT
  5
8AC
330
857
100
AcDbEntity
  8
6
100
AcDbText
 10
38.93578639676578
 20
33.56181833712139
 30
0.0
 40
2.5
  1
以上
 41
0.703125
100
AcDbText
1001
GENIUS_GENTRA_14
1002
{
1070
     1
1000
GENTRATX{1.5},%s,(GENMSG gendwg 195)
1000
以上
1000
JPN
1070
     0
1040
1.0
1070
     0
1002
}
  0
TEXT
  5
8AD
330
857
100
AcDbEntity
  8
6
100
AcDbText
 10
38.93578639676578
 20
30.0865921836928
 30
0.0
 40
2.5
  1
以下
 41
0.703125
100
AcDbText
1001
GENIUS_GENTRA_14
1002
{
1070
     1
1000
GENTRATX{1.5},%s,(GENMSG gendwg 196)
1000
以下
1000
JPN
1070
     0
1040
1.0
1070
     0
1002
}
  0
TEXT
  5
8AE
330
857
100
AcDbEntity
  8
6
100
AcDbText
 10
48.16824186021555
 20
33.5618183371214
 30
0.0
 40
2.5
  1
以上
 41
0.703125
100
AcDbText
1001
GENIUS_GENTRA_14
1002
{
1070
     1
1000
GENTRATX{1.5},%s,(GENMSG gendwg 195)
1000
以上
1000
JPN
1070
     0
1040
1.0
1070
     0
1002
}
  0
TEXT
  5
8AF
330
857
100
AcDbEntity
  8
6
100
AcDbText
 10
48.16824186021555
 20
30.0865921836928
 30
0.0
 40
2.5
  1
以下
 41
0.703125
100
AcDbText
1001
GENIUS_GENTRA_14
1002
{
1070
     1
1000
GENTRATX{1.5},%s,(GENMSG gendwg 196)
1000
以下
1000
JPN
1070
     0
1040
1.0
1070
     0
1002
}
  0
TEXT
  5
8B0
330
857
100
AcDbEntity
  8
6
100
AcDbText
 10
57.40069732366618
 20
33.5618183371214
 30
0.0
 40
2.5
  1
以上
 41
0.703125
100
AcDbText
1001
GENIUS_GENTRA_14
1002
{
1070
     1
1000
GENTRATX{1.5},%s,(GENMSG gendwg 195)
1000
以上
1000
JPN
1070
     0
1040
1.0
1070
     0
1002
}
  0
TEXT
  5
8B1
330
857
100
AcDbEntity
  8
6
100
AcDbText
 10
57.40069732366618
 20
30.0865921836928
 30
0.0
 40
2.5
  1
以下
 41
0.703125
100
AcDbText
1001
GENIUS_GENTRA_14
1002
{
1070
     1
1000
GENTRATX{1.5},%s,(GENMSG gendwg 196)
1000
以下
1000
JPN
1070
     0
1040
1.0
1070
     0
1002
}
  0
TEXT
  5
8B2
330
857
100
AcDbEntity
  8
6
100
AcDbText
 10
66.63315278711587
 20
33.56181833712139
 30
0.0
 40
2.5
  1
以上
 41
0.703125
100
AcDbText
1001
GENIUS_GENTRA_14
1002
{
1070
     1
1000
GENTRATX{1.5},%s,(GENMSG gendwg 195)
1000
以上
1000
JPN
1070
     0
1040
1.0
1070
     0
1002
}
  0
TEXT
  5
8B3
330
857
100
AcDbEntity
  8
6
100
AcDbText
 10
66.63315278711587
 20
30.0865921836928
 30
0.0
 40
2.5
  1
以下
 41
0.703125
100
AcDbText
1001
GENIUS_GENTRA_14
1002
{
1070
     1
1000
GENTRATX{1.5},%s,(GENMSG gendwg 196)
1000
以下
1000
JPN
1070
     0
1040
1.0
1070
     0
1002
}
  0
TEXT
  5
8B4
330
857
100
AcDbEntity
  8
6
100
AcDbText
 10
75.86560825056739
 20
33.5618183371214
 30
0.0
 40
2.5
  1
以上
 41
0.703125
100
AcDbText
1001
GENIUS_GENTRA_14
1002
{
1070
     1
1000
GENTRATX{1.5},%s,(GENMSG gendwg 195)
1000
以上
1000
JPN
1070
     0
1040
1.0
1070
     0
1002
}
  0
TEXT
  5
8B5
330
857
100
AcDbEntity
  8
6
100
AcDbText
 10
75.86560825056739
 20
30.0865921836928
 30
0.0
 40
2.5
  1
以下
 41
0.703125
100
AcDbText
1001
GENIUS_GENTRA_14
1002
{
1070
     1
1000
GENTRATX{1.5},%s,(GENMSG gendwg 196)
1000
以下
1000
JPN
1070
     0
1040
1.0
1070
     0
1002
}
  0
TEXT
  5
8B6
330
857
100
AcDbEntity
  8
6
100
AcDbText
 10
85.09806371401799
 20
33.5618183371214
 30
0.0
 40
2.5
  1
以上
 41
0.703125
100
AcDbText
1001
GENIUS_GENTRA_14
1002
{
1070
     1
1000
GENTRATX{1.5},%s,(GENMSG gendwg 195)
1000
以上
1000
JPN
1070
     0
1040
1.0
1070
     0
1002
}
  0
TEXT
  5
8B7
330
857
100
AcDbEntity
  8
6
100
AcDbText
 10
85.09806371401799
 20
30.0865921836928
 30
0.0
 40
2.5
  1
以下
 41
0.703125
100
AcDbText
1001
GENIUS_GENTRA_14
1002
{
1070
     1
1000
GENTRATX{1.5},%s,(GENMSG gendwg 196)
1000
以下
1000
JPN
1070
     0
1040
1.0
1070
     0
1002
}
  0
TEXT
  5
8B8
330
857
100
AcDbEntity
  8
6
100
AcDbText
 10
94.3305191774686
 20
33.5618183371214
 30
0.0
 40
2.5
  1
以上
 41
0.703125
100
AcDbText
1001
GENIUS_GENTRA_14
1002
{
1070
     1
1000
GENTRATX{1.5},%s,(GENMSG gendwg 195)
1000
以上
1000
JPN
1070
     0
1040
1.0
1070
     0
1002
}
  0
TEXT
  5
8B9
330
857
100
AcDbEntity
  8
6
100
AcDbText
 10
94.3305191774686
 20
30.0865921836928
 30
0.0
 40
2.5
  1
以下
 41
0.703125
100
AcDbText
1001
GENIUS_GENTRA_14
1002
{
1070
     1
1000
GENTRATX{1.5},%s,(GENMSG gendwg 196)
1000
以下
1000
JPN
1070
     0
1040
1.0
1070
     0
1002
}
  0
ENDBLK
  5
8BB
330
857
100
AcDbEntity
  8
0
100
AcDbBlockEnd
  0
ENDSEC
  0
SECTION
  2
ENTITIES
  0
LINE
  5
1116
330
1F
100
AcDbEntity
  8
0
100
AcDbLine
 10
264.3610517684221
 20
266.8060537741517
 30
0.0
 11
261.1110517684221
 21
266.8060537741518
 31
0.0
  0
LINE
  5
1117
330
1F
100
AcDbEntity
  8
0
100
AcDbLine
 10
260.5288522747694
 20
266.3128568122358
 30
0.0
 11
259.8610517684221
 21
262.3060537741518
 31
0.0
  0
LINE
  5
1118
330
1F
100
AcDbEntity
  8
0
100
AcDbLine
 10
261.1110517684221
 20
266.8060537741518
 30
0.0
 11
260.5288522747694
 21
266.3128568122358
 31
0.0
1001
GENIUS_GENFIL_13
1070
     0
1040
0.4999999999999432
1040
0.4999999999999211
1040
0.4999999999999432
1040
40.26883889598773
1002
{
1002
}
  0
LINE
  5
1119
330
1F
100
AcDbEntity
  8
0
100
AcDbLine
 10
259.8610517684221
 20
262.3060537741518
 30
0.0
 11
264.3610517684221
 21
262.3060537741518
 31
0.0
  0
LINE
  5
111A
330
1F
100
AcDbEntity
  8
0
100
AcDbLine
 10
260.6110517684221
 20
262.3060537741518
 30
0.0
 11
259.8610517684221
 21
257.8060537741518
 31
0.0
  0
LINE
  5
111B
330
1F
100
AcDbEntity
  8
0
100
AcDbLine
 10
259.8610517684221
 20
257.8060537741518
 30
0.0
 11
264.3610517684221
 21
257.8060537741518
 31
0.0
  0
LINE
  5
111C
330
1F
100
AcDbEntity
  8
0
100
AcDbLine
 10
260.6110517684221
 20
257.8060537741518
 30
0.0
 11
259.8610517684221
 21
253.3060537741518
 31
0.0
  0
LINE
  5
111D
330
1F
100
AcDbEntity
  8
0
100
AcDbLine
 10
259.8610517684221
 20
253.3060537741518
 30
0.0
 11
264.3610517684221
 21
253.3060537741519
 31
0.0
  0
LINE
  5
111E
330
1F
100
AcDbEntity
  8
0
100
AcDbLine
 10
260.6110517684221
 20
253.3060537741518
 30
0.0
 11
259.8610517684221
 21
248.8060537741518
 31
0.0
  0
LINE
  5
111F
330
1F
100
AcDbEntity
  8
0
100
AcDbLine
 10
264.3610517684221
 20
248.8060537741518
 30
0.0
 11
259.661051768422
 21
248.8060537741517
 31
0.0
  0
LINE
  5
1120
330
1F
100
AcDbEntity
  8
0
100
AcDbLine
 10
259.361051768422
 20
248.5060537741518
 30
0.0
 11
259.3610517684221
 21
242.6928051201
 31
0.0
  0
LINE
  5
1121
330
1F
100
AcDbEntity
  8
0
100
AcDbLine
 10
259.661051768422
 20
248.8060537741517
 30
0.0
 11
259.361051768422
 21
248.5060537741518
 31
0.0
1001
GENIUS_GENFIL_13
1070
     0
1040
0.3
1040
0.3
1040
20.0
1040
0.0
1002
{
1002
}
1001
GENIUS_GENODEF_13
1002
{
1000
HIER
1070
     0
1002
}
1002
{
1000
MANEDIT
1070
     0
1002
}
1002
{
1000
NOSEL
1070
     0
1002
}
1002
{
1000
BEHIND
1070
     0
1002
}
1002
{
1000
OTHER
1070
     0
1002
}
1002
{
1000
REACTOR
1002
}
1001
GENIUS_GENOBJ-N-CHA_13
1002
{
1000
OWNER
1000
GEN
1002
}
  0
LINE
  5
112E
330
1F
100
AcDbEntity
  8
0
100
AcDbLine
 10
260.5288522747694
 20
266.3128568122358
 30
0.0
 11
264.3610517684221
 21
266.3128568122358
 31
0.0
  0
LINE
  5
112F
102
{ACAD_REACTORS
330
1157
102
}
330
1F
100
AcDbEntity
  8
AM_7
100
AcDbLine
 10
264.3610517684221
 20
268.2030537741518
 30
0.0
 11
264.3610517684221
 21
232.6355510822556
 31
0.0
1001
GENIUS_GENODEF_13
1002
{
1000
HIER
1070
     0
1002
}
1002
{
1000
MANEDIT
1070
     0
1002
}
1002
{
1000
NOSEL
1070
     0
1002
}
1002
{
1000
BEHIND
1070
     0
1002
}
1002
{
1000
OTHER
1070
     0
1002
}
1002
{
1000
REACTOR
1002
}
1001
GENIUS_GENOBJ-N-CEN_13
1002
{
1000
OWNER
1000
GEN
1002
}
1001
GENIUS_GENCEN_19
1002
{
1040
1.397
1002
}
  0
LINE
  5
1130
330
1F
100
AcDbEntity
  8
AM_7
100
AcDbLine
 10
239.7685283771554
 20
225.6075537741518
 30
0.0
 11
270.5708892575089
 21
243.3913051201
 31
0.0
1001
GENIUS_GENOBJ-N-CEN_13
1002
{
1000
OWNER
1000
GEN
1002
}
1001
GENIUS_GENODEF_13
1002
{
1000
HIER
1070
     0
1002
}
1002
{
1000
MANEDIT
1070
     0
1002
}
1002
{
1000
NOSEL
1070
     0
1002
}
1002
{
1000
BEHIND
1070
     0
1002
}
1002
{
1000
OTHER
1070
     0
1002
}
1002
{
1000
REACTOR
1002
}
1001
GENIUS_GENCEN_19
1002
{
1040
1.397
1002
}
  0
LINE
  5
1131
330
1F
100
AcDbEntity
  8
AM_7
100
AcDbLine
 10
288.9535751596888
 20
225.6075537741518
 30
0.0
 11
258.1512142793353
 21
243.3913051200999
 31
0.0
1001
GENIUS_GENOBJ-N-CEN_13
1002
{
1000
OWNER
1000
GEN
1002
}
1001
GENIUS_GENODEF_13
1002
{
1000
HIER
1070
     0
1002
}
1002
{
1000
MANEDIT
1070
     0
1002
}
1002
{
1000
NOSEL
1070
     0
1002
}
1002
{
1000
BEHIND
1070
     0
1002
}
1002
{
1000
OTHER
1070
     0
1002
}
1002
{
1000
REACTOR
1002
}
1001
GENIUS_GENCEN_19
1002
{
1040
1.397
1002
}
  0
LINE
  5
1132
330
1F
100
AcDbEntity
  8
0
100
AcDbLine
 10
263.7461531152192
 20
242.9357319453377
 30
0.0
 11
262.4358267923387
 21
239.2715901549015
 31
0.0
  0
ELLIPSE
  5
1133
330
1F
100
AcDbEntity
  8
0
100
AcDbEllipse
 10
264.3610517663183
 20
235.2513407890809
 30
0.0
 11
-2.982291121770177
 21
0.0000000000001611
 31
0.0
210
0.0
220
0.0
230
1.0
 40
0.9533039403449437
 41
4.712388979679318
 42
5.462183310215158
  0
ELLIPSE
  5
1134
330
1F
100
AcDbEntity
  8
0
100
AcDbEllipse
 10
264.3610517663184
 20
242.6627748155155
 30
0.0
 11
-0.6782947632724444
 21
0.0000000000004216
 31
0.0
210
0.0
220
0.0
230
1.0
 40
0.953303940344951
 41
4.712388977283801
 42
6.061870864832456
  0
LINE
  5
1135
330
1F
100
AcDbEntity
  8
0
100
AcDbLine
 10
263.9619950090944
 20
239.3843606843288
 30
0.0
 11
264.2779586162934
 21
240.2277468642696
 31
0.0
  0
LINE
  5
1137
330
1F
100
AcDbEntity
  8
0
100
AcDbLine
 10
264.3610517684221
 20
239.2719570065707
 30
0.0
 11
264.0450881611678
 21
239.2719570065708
 31
0.0
  0
LINE
  5
1138
330
1F
100
AcDbEntity
  8
0
100
AcDbLine
 10
262.189606900885
 20
237.355892580258
 30
0.0
 11
261.3611139515199
 21
238.9355037666134
 31
0.0
  0
LINE
  5
113A
330
1F
100
AcDbEntity
  8
0
100
AcDbLine
 10
261.3611139515199
 20
238.9355037666134
 30
0.0
 11
261.4147819422192
 21
238.9059654258324
 31
0.0
  0
ELLIPSE
  5
113B
330
1F
100
AcDbEntity
  8
0
100
AcDbEllipse
 10
261.7677158027837
 20
239.4887195318097
 30
0.0
 11
-0.7058677211290317
 21
0.0000000000001072
 31
0.0
210
0.0
220
0.0
230
1.0
 40
0.9533039403449558
 41
1.047197551196737
 42
2.813039483038496
1001
GENIUS_GENODEF_13
1002
{
1000
HIER
1070
     0
1002
}
1002
{
1000
MANEDIT
1070
     0
1002
}
1002
{
1000
NOSEL
1070
     0
1002
}
1002
{
1000
BEHIND
1070
     0
1002
}
1002
{
1000
REACTOR
1002
}
1001
GENIUS_GENOBJ-N-FIL_13
1002
{
1000
OWNER
1000
GEN
1002
}
  0
ELLIPSE
  5
113C
330
1F
100
AcDbEntity
  8
0
100
AcDbEllipse
 10
262.2685253112633
 20
237.3935091960478
 30
0.0
 11
-0.0882334651411441
 21
0.0000000000001238
 31
0.0
210
0.0
220
0.0
230
1.0
 40
0.9533039403446695
 41
0.4636476090023339
 42
2.320590656626666
1001
GENIUS_GENODEF_13
1002
{
1000
HIER
1070
     0
1002
}
1002
{
1000
MANEDIT
1070
     0
1002
}
1002
{
1000
NOSEL
1070
     0
1002
}
1002
{
1000
BEHIND
1070
     0
1002
}
1002
{
1000
REACTOR
1002
}
1001
GENIUS_GENOBJ-N-FIL_13
1002
{
1000
OWNER
1000
GEN
1002
}
  0
ELLIPSE
  5
113E
330
1F
100
AcDbEntity
  8
0
100
AcDbEllipse
 10
264.3610517684221
 20
240.1994564966481
 30
0.0
 11
-0.088233465141129
 21
0.0000000000000001
 31
0.0
210
0.0
220
0.0
230
1.0
 40
0.9533039403448885
 41
4.712388980384689
 42
5.940161366758847
1001
GENIUS_GENODEF_13
1002
{
1000
HIER
1070
     0
1002
}
1002
{
1000
MANEDIT
1070
     0
1002
}
1002
{
1000
NOSEL
1070
     0
1002
}
1002
{
1000
BEHIND
1070
     0
1002
}
1002
{
1000
REACTOR
1002
}
1001
GENIUS_GENOBJ-N-FIL_13
1002
{
1000
OWNER
1000
GEN
1002
}
  0
ELLIPSE
  5
113F
330
1F
100
AcDbEntity
  8
0
100
AcDbEllipse
 10
264.0450881611678
 20
239.3560703165601
 30
0.0
 11
-0.0882334651411374
 21
0.0000000000001559
 31
0.0
210
0.0
220
0.0
230
1.0
 40
0.9533039403447977
 41
-0.3430239422797581
 42
1.570796326796808
1001
GENIUS_GENODEF_13
1002
{
1000
HIER
1070
     0
1002
}
1002
{
1000
MANEDIT
1070
     0
1002
}
1002
{
1000
NOSEL
1070
     0
1002
}
1002
{
1000
BEHIND
1070
     0
1002
}
1002
{
1000
REACTOR
1002
}
1001
GENIUS_GENOBJ-N-FIL_13
1002
{
1000
OWNER
1000
GEN
1002
}
  0
HATCH
  5
1157
330
1F
100
AcDbEntity
  8
AM_8
100
AcDbHatch
 10
0.0
 20
0.0
 30
0.0
210
0.0
220
0.0
230
1.0
  2
SOLID
 70
     1
 71
     0
 91
        5
 92
        1
 93
      231
 72
     1
 10
264.3610517663183
 20
238.0943706667201
 11
264.3610517684221
 21
239.2719570065708
 72
     1
 10
264.3610517684221
 20
239.2719570065708
 11
264.0450881611678
 21
239.2719570065708
 72
     1
 10
264.0450881611678
 20
239.2719570065708
 11
264.0424500700981
 21
239.2719946114949
 72
     1
 10
264.0424500700981
 20
239.2719946114949
 11
264.0398143378753
 21
239.2721073926427
 72
     1
 10
264.0398143378753
 20
239.2721073926427
 11
264.0371833212374
 21
239.2722952491713
 72
     1
 10
264.0371833212374
 20
239.2722952491713
 11
264.0345593727058
 21
239.2725580131087
 72
     1
 10
264.0345593727058
 20
239.2725580131087
 11
264.0319448384818
 21
239.2728954495048
 72
     1
 10
264.0319448384818
 20
239.2728954495048
 11
264.0293420563493
 21
239.2733072566411
 72
     1
 10
264.0293420563493
 20
239.2733072566411
 11
264.0267533535836
 21
239.2737930663006
 72
     1
 10
264.0267533535836
 20
239.2737930663006
 11
264.0241810448713
 21
239.274352444097
 72
     1
 10
264.0241810448713
 20
239.274352444097
 11
264.0216274302402
 21
239.2749848898632
 72
     1
 10
264.0216274302402
 20
239.2749848898632
 11
264.0190947930027
 21
239.2756898380981
 72
     1
 10
264.0190947930027
 20
239.2756898380981
 11
264.0165853977144
 21
239.2764666584729
 72
     1
 10
264.0165853977144
 20
239.2764666584729
 11
264.014101488149
 21
239.2773146563943
 72
     1
 10
264.014101488149
 20
239.2773146563943
 11
264.0116452852922
 21
239.2782330736257
 72
     1
 10
264.0116452852922
 20
239.2782330736257
 11
264.0092189853559
 21
239.279221088965
 72
     1
 10
264.0092189853559
 20
239.279221088965
 11
264.0068247578142
 21
239.2802778189791
 72
     1
 10
264.0068247578142
 20
239.2802778189791
 11
264.0044647434637
 21
239.2814023187938
 72
     1
 10
264.0044647434637
 20
239.2814023187938
 11
264.0021410525094
 21
239.2825935829383
 72
     1
 10
264.0021410525094
 20
239.2825935829383
 11
263.9998557626776
 21
239.2838505462449
 72
     1
 10
263.9998557626776
 20
239.2838505462449
 11
263.9976109173583
 21
239.2851720848008
 72
     1
 10
263.9976109173583
 20
239.2851720848008
 11
263.9954085237783
 21
239.2865570169533
 72
     1
 10
263.9954085237783
 20
239.2865570169533
 11
263.993250551206
 21
239.2880041043666
 72
     1
 10
263.993250551206
 20
239.2880041043666
 11
263.9911389291907
 21
239.2895120531286
 72
     1
 10
263.9911389291907
 20
239.2895120531286
 11
263.9890755458377
 21
239.2910795149081
 72
     1
 10
263.9890755458377
 20
239.2910795149081
 11
263.9870622461194
 21
239.2927050881604
 72
     1
 10
263.9870622461194
 20
239.2927050881604
 11
263.9851008302262
 21
239.2943873193805
 72
     1
 10
263.9851008302262
 20
239.2943873193805
 11
263.9831930519566
 21
239.2961247044027
 72
     1
 10
263.9831930519566
 20
239.2961247044027
 11
263.9813406171488
 21
239.2979156897457
 72
     1
 10
263.9813406171488
 20
239.2979156897457
 11
263.9795451821561
 21
239.2997586740012
 72
     1
 10
263.9795451821561
 20
239.2997586740012
 11
263.9778083523651
 21
239.3016520092665
 72
     1
 10
263.9778083523651
 20
239.3016520092665
 11
263.9761316807609
 21
239.3035940026173
 72
     1
 10
263.9761316807609
 20
239.3035940026173
 11
263.974516666538
 21
239.3055829176219
 72
     1
 10
263.974516666538
 20
239.3055829176219
 11
263.9729647537599
 21
239.3076169758934
 72
     1
 10
263.9729647537599
 20
239.3076169758934
 11
263.9714773300685
 21
239.3096943586805
 72
     1
 10
263.9714773300685
 20
239.3096943586805
 11
263.9700557254421
 21
239.3118132084927
 72
     1
 10
263.9700557254421
 20
239.3118132084927
 11
263.9687012110077
 21
239.3139716307625
 72
     1
 10
263.9687012110077
 20
239.3139716307625
 11
263.9674149979029
 21
239.3161676955381
 72
     1
 10
263.9674149979029
 20
239.3161676955381
 11
263.9661982361945
 21
239.3183994392101
 72
     1
 10
263.9661982361945
 20
239.3183994392101
 11
263.9650520138487
 21
239.3206648662667
 72
     1
 10
263.9650520138487
 20
239.3206648662667
 11
263.9639773557595
 21
239.3229619510781
 72
     1
 10
263.9639773557595
 20
239.3229619510781
 11
263.9629752228314
 21
239.3252886397077
 72
     1
 10
263.9629752228314
 20
239.3252886397077
 11
263.9620465111208
 21
239.3276428517488
 72
     1
 10
263.9620465111208
 20
239.3276428517488
 11
263.9611920510346
 21
239.3300224821847
 72
     1
 10
263.9611920510346
 20
239.3300224821847
 11
263.9604126065875
 21
239.3324254032706
 72
     1
 10
263.9604126065875
 20
239.3324254032706
 11
263.9597088747192
 21
239.3348494664366
 72
     1
 10
263.9597088747192
 20
239.3348494664366
 11
263.9590814846709
 21
239.3372925042087
 72
     1
 10
263.9590814846709
 20
239.3372925042087
 11
263.9585309974229
 21
239.3397523321465
 72
     1
 10
263.9585309974229
 20
239.3397523321465
 11
263.9580579051931
 21
239.3422267507969
 72
     1
 10
263.9580579051931
 20
239.3422267507969
 11
263.9576626309964
 21
239.3447135476604
 72
     1
 10
263.9576626309964
 20
239.3447135476604
 11
263.9573455282668
 21
239.3472104991697
 72
     1
 10
263.9573455282668
 20
239.3472104991697
 11
263.9571068805417
 21
239.3497153726776
 72
     1
 10
263.9571068805417
 20
239.3497153726776
 11
263.9569469012075
 21
239.3522259284534
 72
     1
 10
263.9569469012075
 20
239.3522259284534
 11
263.9568657333098
 21
239.3547399216857
 72
     1
 10
263.9568657333098
 20
239.3547399216857
 11
263.9568634494247
 21
239.3572551044895
 72
     1
 10
263.9568634494247
 20
239.3572551044895
 11
263.9569400515944
 21
239.3597692279161
 72
     1
 10
263.9569400515944
 20
239.3597692279161
 11
263.9570954713251
 21
239.3622800439642
 72
     1
 10
263.9570954713251
 20
239.3622800439642
 11
263.9573295696484
 21
239.3647853075895
 72
     1
 10
263.9573295696484
 20
239.3647853075895
 11
263.9576421372454
 21
239.3672827787126
 72
     1
 10
263.9576421372454
 20
239.3672827787126
 11
263.9580328946341
 21
239.3697702242217
 72
     1
 10
263.9580328946341
 20
239.3697702242217
 11
263.9585014924191
 21
239.3722454199695
 72
     1
 10
263.9585014924191
 20
239.3722454199695
 11
263.9590475116041
 21
239.3747061527616
 72
     1
 10
263.9590475116041
 20
239.3747061527616
 11
263.9596704639664
 21
239.3771502223358
 72
     1
 10
263.9596704639664
 20
239.3771502223358
 11
263.9603697924936
 21
239.3795754433293
 72
     1
 10
263.9603697924936
 20
239.3795754433293
 11
263.9611448718818
 21
239.3819796472326
 72
     1
 10
263.9611448718818
 20
239.3819796472326
 11
263.9619950090944
 21
239.3843606843288
 72
     1
 10
263.9619950090944
 20
239.3843606843288
 11
264.1628477038677
 21
239.9204869441768
 72
     1
 10
264.1628477038677
 20
239.9204869441768
 11
262.923715055439
 21
240.6359005123087
 72
     1
 10
262.923715055439
 20
240.6359005123087
 11
262.4358267923387
 21
239.2715901549015
 72
     1
 10
262.4358267923387
 20
239.2715901549015
 11
262.4292889654805
 21
239.2541017866598
 72
     1
 10
262.4292889654805
 20
239.2541017866598
 11
262.4222475289873
 21
239.2367920165893
 72
     1
 10
262.4222475289873
 20
239.2367920165893
 11
262.4147078430149
 21
239.2196740214141
 72
     1
 10
262.4147078430149
 20
239.2196740214141
 11
262.4066756470018
 21
239.2027608318734
 72
     1
 10
262.4066756470018
 20
239.2027608318734
 11
262.3981570553003
 21
239.1860653228019
 72
     1
 10
262.3981570553003
 20
239.1860653228019
 11
262.3891585525216
 21
239.1696002033294
 72
     1
 10
262.3891585525216
 20
239.1696002033294
 11
262.3796869886001
 21
239.1533780072065
 72
     1
 10
262.3796869886001
 20
239.1533780072065
 11
262.3697495735787
 21
239.1374110832625
 72
     1
 10
262.3697495735787
 20
239.1374110832625
 11
262.3593538721201
 21
239.1217115860062
 72
     1
 10
262.3593538721201
 20
239.1217115860062
 11
262.3485077977491
 21
239.106291466373
 72
     1
 10
262.3485077977491
 20
239.106291466373
 11
262.3372196068274
 21
239.0911624626273
 72
     1
 10
262.3372196068274
 20
239.0911624626273
 11
262.3254978922699
 21
239.0763360914275
 72
     1
 10
262.3254978922699
 20
239.0763360914275
 11
262.3133515770025
 21
239.0618236390588
 72
     1
 10
262.3133515770025
 20
239.0618236390588
 11
262.3007899071701
 21
239.0476361528418
 72
     1
 10
262.3007899071701
 20
239.0476361528418
 11
262.2878224450985
 21
239.033784432723
 72
     1
 10
262.2878224450985
 20
239.033784432723
 11
262.2744590620146
 21
239.0202790230535
 72
     1
 10
262.2744590620146
 20
239.0202790230535
 11
262.2607099305323
 21
239.0071302045623
 72
     1
 10
262.2607099305323
 20
239.0071302045623
 11
262.2465855169094
 21
238.9943479865305
 72
     1
 10
262.2465855169094
 20
238.9943479865305
 11
262.2320965730794
 21
238.9819420991716
 72
     1
 10
262.2320965730794
 20
238.9819420991716
 11
262.2172541284675
 21
238.9699219862248
 72
     1
 10
262.2172541284675
 20
238.9699219862248
 11
262.2020694815947
 21
238.9582967977661
 72
     1
 10
262.2020694815947
 20
238.9582967977661
 11
262.1865541914762
 21
238.9470753832428
 72
     1
 10
262.1865541914762
 20
238.9470753832428
 11
262.1707200688235
 21
238.9362662847374
 72
     1
 10
262.1707200688235
 20
238.9362662847374
 11
262.1545791670528
 21
238.9258777304648
 72
     1
 10
262.1545791670528
 20
238.9258777304648
 11
262.13814377311
 21
238.9159176285089
 72
     1
 10
262.13814377311
 20
238.9159176285089
 11
262.1214263981173
 21
238.9063935608024
 72
     1
 10
262.1214263981173
 20
238.9063935608024
 11
262.1044397678497
 21
238.8973127773557
 72
     1
 10
262.1044397678497
 20
238.8973127773557
 11
262.0871968130474
 21
238.8886821907377
 72
     1
 10
262.0871968130474
 20
238.8886821907377
 11
262.0697106595724
 21
238.8805083708136
 72
     1
 10
262.0697106595724
 20
238.8805083708136
 11
262.0519946184173
 21
238.8727975397442
 72
     1
 10
262.0519946184173
 20
238.8727975397442
 11
262.034062175572
 21
238.8655555672487
 72
     1
 10
262.034062175572
 20
238.8655555672487
 11
262.0159269817581
 21
238.8587879661371
 72
     1
 10
262.0159269817581
 20
238.8587879661371
 11
261.9976028420372
 21
238.8524998881136
 72
     1
 10
261.9976028420372
 20
238.8524998881136
 11
261.9791037053023
 21
238.8466961198544
 72
     1
 10
261.9791037053023
 20
238.8466961198544
 11
261.9604436536597
 21
238.8413810793648
 72
     1
 10
261.9604436536597
 20
238.8413810793648
 11
261.9416368917089
 21
238.8365588126153
 72
     1
 10
261.9416368917089
 20
238.8365588126153
 11
261.9226977357296
 21
238.8322329904623
 72
     1
 10
261.9226977357296
 20
238.8322329904623
 11
261.9036406027841
 21
238.8284069058533
 72
     1
 10
261.9036406027841
 20
238.8284069058533
 11
261.8844799997421
 21
238.8250834713204
 72
     1
 10
261.8844799997421
 20
238.8250834713204
 11
261.8652305122382
 21
238.8222652167631
 72
     1
 10
261.8652305122382
 20
238.8222652167631
 11
261.8459067935684
 21
238.8199542875228
 72
     1
 10
261.8459067935684
 20
238.8199542875228
 11
261.8265235535355
 21
238.8181524427489
 72
     1
 10
261.8265235535355
 20
238.8181524427489
 11
261.8070955472522
 21
238.8168610540606
 72
     1
 10
261.8070955472522
 20
238.8168610540606
 11
261.7876375639085
 21
238.8160811045024
 72
     1
 10
261.7876375639085
 20
238.8160811045024
 11
261.7681644155135
 21
238.8158131877956
 72
     1
 10
261.7681644155135
 20
238.8158131877956
 11
261.7486909256208
 21
238.8160575078865
 72
     1
 10
261.7486909256208
 20
238.8160575078865
 11
261.729231918044
 21
238.8168138787913
 72
     1
 10
261.729231918044
 20
238.8168138787913
 11
261.709802205572
 21
238.8180817247373
 72
     1
 10
261.709802205572
 20
238.8180817247373
 11
261.6904165786935
 21
238.8198600806017
 72
     1
 10
261.6904165786935
 20
238.8198600806017
 11
261.671089794338
 21
238.8221475926458
 72
     1
 10
261.671089794338
 20
238.8221475926458
 11
261.6518365646422
 21
238.8249425195458
 72
     1
 10
261.6518365646422
 20
238.8249425195458
 11
261.6326715457508
 21
238.8282427337182
 72
     1
 10
261.6326715457508
 20
238.8282427337182
 11
261.6136093266597
 21
238.8320457229395
 72
     1
 10
261.6136093266597
 20
238.8320457229395
 11
261.5946644181104
 21
238.8363485922586
 72
     1
 10
261.5946644181104
 20
238.8363485922586
 11
261.5758512415442
 21
238.8411480662003
 72
     1
 10
261.5758512415442
 20
238.8411480662003
 11
261.5571841181239
 21
238.8464404912589
 72
     1
 10
261.5571841181239
 20
238.8464404912589
 11
261.5386772578323
 21
238.8522218386793
 72
     1
 10
261.5386772578323
 20
238.8522218386793
 11
261.5203447486548
 21
238.8584877075238
 72
     1
 10
261.5203447486548
 20
238.8584877075238
 11
261.5022005458558
 21
238.8652333280222
 72
     1
 10
261.5022005458558
 20
238.8652333280222
 11
261.4842584613547
 21
238.8724535652029
 72
     1
 10
261.4842584613547
 20
238.8724535652029
 11
261.4665321532126
 21
238.8801429228015
 72
     1
 10
261.4665321532126
 20
238.8801429228015
 11
261.449035115235
 21
238.8882955474448
 72
     1
 10
261.449035115235
 20
238.8882955474448
 11
261.4317806667
 21
238.8969052331067
 72
     1
 10
261.4317806667
 20
238.8969052331067
 11
261.4147819422192
 21
238.9059654258324
 72
     1
 10
261.4147819422192
 20
238.9059654258324
 11
261.3611139515199
 21
238.9355037666134
 72
     1
 10
261.3611139515199
 20
238.9355037666134
 11
262.1896069008849
 21
237.355892580258
 72
     1
 10
262.1896069008849
 20
237.355892580258
 11
262.1907848552316
 21
237.3537258469902
 72
     1
 10
262.1907848552316
 20
237.3537258469902
 11
262.1920282511673
 21
237.3515926031783
 72
     1
 10
262.1920282511673
 20
237.3515926031783
 11
262.1933360420066
 21
237.349494644578
 72
     1
 10
262.1933360420066
 20
237.349494644578
 11
262.1947071268566
 21
237.3474337372421
 72
     1
 10
262.1947071268566
 20
237.3474337372421
 11
262.1961403515439
 21
237.3454116160338
 72
     1
 10
262.1961403515439
 20
237.3454116160338
 11
262.197634509586
 21
237.3434299831661
 72
     1
 10
262.197634509586
 20
237.3434299831661
 11
262.1991883432069
 21
237.3414905067692
 72
     1
 10
262.1991883432069
 20
237.3414905067692
 11
262.200800544396
 21
237.3395948194862
 72
     1
 10
262.200800544396
 20
237.3395948194862
 11
262.2024697560091
 21
237.3377445170988
 72
     1
 10
262.2024697560091
 20
237.3377445170988
 11
262.2041945729108
 21
237.3359411571837
 72
     1
 10
262.2041945729108
 20
237.3359411571837
 11
262.2059735431577
 21
237.3341862578016
 72
     1
 10
262.2059735431577
 20
237.3341862578016
 11
262.2078051692199
 21
237.3324812962196
 72
     1
 10
262.2078051692199
 20
237.3324812962196
 11
262.2096879092425
 21
237.3308277076671
 72
     1
 10
262.2096879092425
 20
237.3308277076671
 11
262.2116201783427
 21
237.3292268841279
 72
     1
 10
262.2116201783427
 20
237.3292268841279
 11
262.2136003499445
 21
237.3276801731687
 72
     1
 10
262.2136003499445
 20
237.3276801731687
 11
262.215626757148
 21
237.3261888768042
 72
     1
 10
262.215626757148
 20
237.3261888768042
 11
262.2176976941318
 21
237.3247542504013
 72
     1
 10
262.2176976941318
 20
237.3247542504013
 11
262.2198114175901
 21
237.3233775016227
 72
     1
 10
262.2198114175901
 20
237.3233775016227
 11
262.2219661481992
 21
237.3220597894095
 72
     1
 10
262.2219661481992
 20
237.3220597894095
 11
262.224160072116
 21
237.3208022230065
 72
     1
 10
262.224160072116
 20
237.3208022230065
 11
262.2263913425046
 21
237.3196058610277
 72
     1
 10
262.2263913425046
 20
237.3196058610277
 11
262.2286580810911
 21
237.3184717105656
 72
     1
 10
262.2286580810911
 20
237.3184717105656
 11
262.2309583797442
 21
237.3174007263433
 72
     1
 10
262.2309583797442
 20
237.3174007263433
 11
262.2332903020824
 21
237.3163938099108
 72
     1
 10
262.2332903020824
 20
237.3163938099108
 11
262.2356518851031
 21
237.3154518088862
 72
     1
 10
262.2356518851031
 20
237.3154518088862
 11
262.2380411408358
 21
237.3145755162419
 72
     1
 10
262.2380411408358
 20
237.3145755162419
 11
262.240456058015
 21
237.3137656696374
 72
     1
 10
262.240456058015
 20
237.3137656696374
 11
262.2428946037735
 21
237.3130229507982
 72
     1
 10
262.2428946037735
 20
237.3130229507982
 11
262.2453547253539
 21
237.3123479849418
 72
     1
 10
262.2453547253539
 20
237.3123479849418
 11
262.247834351836
 21
237.3117413402518
 72
     1
 10
262.247834351836
 20
237.3117413402518
 11
262.2503313958809
 21
237.3112035273989
 72
     1
 10
262.2503313958809
 20
237.3112035273989
 11
262.2528437554872
 21
237.3107349991119
 72
     1
 10
262.2528437554872
 20
237.3107349991119
 11
262.2553693157612
 21
237.3103361497959
 72
     1
 10
262.2553693157612
 20
237.3103361497959
 11
262.2579059506969
 21
237.3100073152005
 72
     1
 10
262.2579059506969
 20
237.3100073152005
 11
262.2604515249657
 21
237.3097487721373
 72
     1
 10
262.2604515249657
 20
237.3097487721373
 11
262.2630038957139
 21
237.3095607382468
 72
     1
 10
262.2630038957139
 20
237.3095607382468
 11
262.2655609143665
 21
237.3094433718152
 72
     1
 10
262.2655609143665
 20
237.3094433718152
 11
262.2681204284358
 21
237.309396771641
 72
     1
 10
262.2681204284358
 20
237.309396771641
 11
262.2706802833339
 21
237.309420976952
 72
     1
 10
262.2706802833339
 20
237.309420976952
 11
262.2732383241855
 21
237.3095159673724
 72
     1
 10
262.2732383241855
 20
237.3095159673724
 11
262.2757923976427
 21
237.3096816629395
 72
     1
 10
262.2757923976427
 20
237.3096816629395
 11
262.2783403536971
 21
237.3099179241715
 72
     1
 10
262.2783403536971
 20
237.3099179241715
 11
262.2808800474901
 21
237.3102245521847
 72
     1
 10
262.2808800474901
 20
237.3102245521847
 11
262.283409341118
 21
237.310601288861
 72
     1
 10
262.283409341118
 20
237.310601288861
 11
262.2859261054322
 21
237.311047817065
 72
     1
 10
262.2859261054322
 20
237.311047817065
 11
262.288428221831
 21
237.3115637609112
 72
     1
 10
262.288428221831
 20
237.3115637609112
 11
262.2909135840434
 21
237.3121486860801
 72
     1
 10
262.2909135840434
 20
237.3121486860801
 11
262.2933800999019
 21
237.3128021001842
 72
     1
 10
262.2933800999019
 20
237.3128021001842
 11
262.2958256931037
 21
237.3135234531824
 72
     1
 10
262.2958256931037
 20
237.3135234531824
 11
262.298248304959
 21
237.3143121378426
 72
     1
 10
262.298248304959
 20
237.3143121378426
 11
262.3006458961231
 21
237.3151674902534
 72
     1
 10
262.3006458961231
 20
237.3151674902534
 11
262.3030164483139
 21
237.3160887903828
 72
     1
 10
262.3030164483139
 20
237.3160887903828
 11
262.3053579660105
 21
237.3170752626841
 72
     1
 10
262.3053579660105
 20
237.3170752626841
 11
262.3076684781334
 21
237.3181260767493
 72
     1
 10
262.3076684781334
 20
237.3181260767493
 11
262.3099460397028
 21
237.3192403480073
 72
     1
 10
262.3099460397028
 20
237.3192403480073
 11
262.3121887334772
 21
237.3204171384694
 72
     1
 10
262.3121887334772
 20
237.3204171384694
 11
262.3143946715663
 21
237.3216554575182
 72
     1
 10
262.3143946715663
 20
237.3216554575182
 11
262.3165619970208
 21
237.3229542627421
 72
     1
 10
262.3165619970208
 20
237.3229542627421
 11
262.3186888853951
 21
237.3243124608122
 72
     1
 10
262.3186888853951
 20
237.3243124608122
 11
262.3207735462837
 21
237.325728908403
 72
     1
 10
262.3207735462837
 20
237.325728908403
 11
262.3228142248277
 21
237.327202413155
 72
     1
 10
262.3228142248277
 20
237.327202413155
 11
262.3248092031925
 21
237.3287317346781
 72
     1
 10
262.3248092031925
 20
237.3287317346781
 11
262.3267568020137
 21
237.3303155855959
 72
     1
 10
262.3267568020137
 20
237.3303155855959
 11
262.3286553818108
 21
237.3319526326292
 72
     1
 10
262.3286553818108
 20
237.3319526326292
 11
262.3803475405942
 21
237.3767748651223
 72
     1
 10
262.3803475405942
 20
237.3767748651223
 11
262.4331270862998
 21
237.4204302554446
 72
     1
 10
262.4331270862998
 20
237.4204302554446
 11
262.4869650434819
 21
237.462894837221
 72
     1
 10
262.4869650434819
 20
237.462894837221
 11
262.5418318556375
 21
237.5041452978183
 72
     1
 10
262.5418318556375
 20
237.5041452978183
 11
262.5976974014323
 21
237.5441589911441
 72
     1
 10
262.5976974014323
 20
237.5441589911441
 11
262.6545310112373
 21
237.5829139500785
 72
     1
 10
262.6545310112373
 20
237.5829139500785
 11
262.7123014839658
 21
237.6203888985345
 72
     1
 10
262.7123014839658
 20
237.6203888985345
 11
262.7709771042028
 21
237.656563263138
 72
     1
 10
262.7709771042028
 20
237.656563263138
 11
262.8305256596164
 21
237.6914171845228
 72
     1
 10
262.8305256596164
 20
237.6914171845228
 11
262.8909144586419
 21
237.7249315282324
 72
     1
 10
262.8909144586419
 20
237.7249315282324
 11
262.9521103484291
 21
237.7570878952256
 72
     1
 10
262.9521103484291
 20
237.7570878952256
 11
263.014079733043
 21
237.7878686319766
 72
     1
 10
263.014079733043
 20
237.7878686319766
 11
263.0767885919079
 21
237.8172568401671
 72
     1
 10
263.0767885919079
 20
237.8172568401671
 11
263.1402024984839
 21
237.845236385963
 72
     1
 10
263.1402024984839
 20
237.845236385963
 11
263.2042866391667
 21
237.871791908872
 72
     1
 10
263.2042866391667
 20
237.871791908872
 11
263.2690058324007
 21
237.896908830176
 72
     1
 10
263.2690058324007
 20
237.896908830176
 11
263.3343245479922
 21
237.920573360935
 72
     1
 10
263.3343245479922
 20
237.920573360935
 11
263.400206926616
 21
237.942772509557
 72
     1
 10
263.400206926616
 20
237.942772509557
 11
263.4666167995013
 21
237.9634940889303
 72
     1
 10
263.4666167995013
 20
237.9634940889303
 11
263.5335177082885
 21
237.9827267231136
 72
     1
 10
263.5335177082885
 20
237.9827267231136
 11
263.6008729250439
 21
238.0004598535822
 72
     1
 10
263.6008729250439
 20
238.0004598535822
 11
263.6686454724233
 21
238.0166837450238
 72
     1
 10
263.6686454724233
 20
238.0166837450238
 11
263.7367981439723
 21
238.0313894906833
 72
     1
 10
263.7367981439723
 20
238.0313894906833
 11
263.8052935245519
 21
238.0445690172526
 72
     1
 10
263.8052935245519
 20
238.0445690172526
 11
263.8740940108793
 21
238.0562150893026
 72
     1
 10
263.8740940108793
 20
238.0562150893026
 11
263.9431618321717
 21
238.0663213132558
 72
     1
 10
263.9431618321717
 20
238.0663213132558
 11
264.0124590708822
 21
238.0748821408955
 72
     1
 10
264.0124590708822
 20
238.0748821408955
 11
264.0819476835158
 21
238.0818928724126
 72
     1
 10
264.0819476835158
 20
238.0818928724126
 11
264.1515895215152
 21
238.0873496589851
 72
     1
 10
264.1515895215152
 20
238.0873496589851
 11
264.221346352204
 21
238.0912495048916
 72
     1
 10
264.221346352204
 20
238.0912495048916
 11
264.2911798797757
 21
238.0935902691553
 72
     1
 10
264.2911798797757
 20
238.0935902691553
 11
264.3610517663183
 21
238.0943706667201
 97
        0
 92
        1
 93
       17
 72
     1
 10
264.735706071751
 20
239.2900110186945
 11
264.7475868664981
 21
239.3055829175006
 72
     1
 10
264.7475868664981
 20
239.3055829175006
 11
264.7459718522746
 21
239.3035940025027
 72
     1
 10
264.7459718522746
 20
239.3035940025027
 11
264.7442951806701
 21
239.3016520091584
 72
     1
 10
264.7442951806701
 20
239.3016520091584
 11
264.7425583508792
 21
239.2997586738995
 72
     1
 10
264.7425583508792
 20
239.2997586738995
 11
264.7407629158869
 21
239.2979156896503
 72
     1
 10
264.7407629158869
 20
239.2979156896503
 11
264.7389104810799
 21
239.2961247043135
 72
     1
 10
264.7389104810799
 20
239.2961247043135
 11
264.7370027028113
 21
239.2943873192974
 72
     1
 10
264.7370027028113
 20
239.2943873192974
 11
264.7350412869193
 21
239.2927050880832
 72
     1
 10
264.7350412869193
 20
239.2927050880832
 11
264.7330279872027
 21
239.2910795148367
 72
     1
 10
264.7330279872027
 20
239.2910795148367
 11
264.7309646038515
 21
239.2895120530628
 72
     1
 10
264.7309646038515
 20
239.2895120530628
 11
264.7288529818384
 21
239.2880041043063
 72
     1
 10
264.7288529818384
 20
239.2880041043063
 11
264.7266950092684
 21
239.2865570168983
 72
     1
 10
264.7266950092684
 20
239.2865570168983
 11
264.724492615691
 21
239.2851720847507
 72
     1
 10
264.724492615691
 20
239.2851720847507
 11
264.7222477703747
 21
239.2838505461997
 72
     1
 10
264.7222477703747
 20
239.2838505461997
 11
264.7199624805459
 21
239.2825935828978
 72
     1
 10
264.7199624805459
 20
239.2825935828978
 11
264.7176387895949
 21
239.2814023187577
 72
     1
 10
264.7176387895949
 20
239.2814023187577
 11
264.735706071751
 21
239.2900110186945
 97
        0
 92
        1
 93
       17
 72
     1
 10
264.7610195740245
 20
239.3231888745721
 11
264.7640456278987
 21
239.3422267505702
 72
     1
 10
264.7640456278987
 20
239.3422267505702
 11
264.7635725356627
 21
239.3397523319258
 72
     1
 10
264.7635725356627
 20
239.3397523319258
 11
264.763022048409
 21
239.3372925039941
 72
     1
 10
264.763022048409
 20
239.3372925039941
 11
264.7623946583554
 21
239.3348494662284
 72
     1
 10
264.7623946583554
 20
239.3348494662284
 11
264.761690926482
 21
239.3324254030687
 72
     1
 10
264.761690926482
 20
239.3324254030687
 11
264.7609114820302
 21
239.3300224819893
 72
     1
 10
264.7609114820302
 20
239.3300224819893
 11
264.7600570219396
 21
239.3276428515601
 72
     1
 10
264.7600570219396
 20
239.3276428515601
 11
264.759128310225
 21
239.3252886395256
 72
     1
 10
264.759128310225
 20
239.3252886395256
 11
264.7581261772933
 21
239.3229619509027
 72
     1
 10
264.7581261772933
 20
239.3229619509027
 11
264.7570515192007
 21
239.3206648660981
 72
     1
 10
264.7570515192007
 20
239.3206648660981
 11
264.755905296852
 21
239.3183994390483
 72
     1
 10
264.755905296852
 20
239.3183994390483
 11
264.7546885351409
 21
239.3161676953831
 72
     1
 10
264.7546885351409
 20
239.3161676953831
 11
264.753402322034
 21
239.3139716306142
 72
     1
 10
264.753402322034
 20
239.3139716306142
 11
264.7520478075976
 21
239.3118132083513
 72
     1
 10
264.7520478075976
 20
239.3118132083513
 11
264.7506262029697
 21
239.3096943585458
 72
     1
 10
264.7506262029697
 20
239.3096943585458
 11
264.7491387792769
 21
239.3076169757655
 72
     1
 10
264.7491387792769
 20
239.3076169757655
 11
264.7610195740245
 21
239.3231888745721
 97
        0
 92
        1
 93
       16
 72
     1
 10
264.6984571516469
 20
239.2722626504908
 11
264.7152787752479
 21
239.2802778189473
 72
     1
 10
264.7152787752479
 20
239.2802778189473
 11
264.71288454771
 21
239.2792210889372
 72
     1
 10
264.71288454771
 20
239.2792210889372
 11
264.7104582477776
 21
239.2782330736016
 72
     1
 10
264.7104582477776
 20
239.2782330736016
 11
264.708002044925
 21
239.2773146563737
 72
     1
 10
264.708002044925
 20
239.2773146563737
 11
264.7055181353638
 21
239.2764666584555
 72
     1
 10
264.7055181353638
 20
239.2764666584555
 11
264.7030087400798
 21
239.2756898380837
 72
     1
 10
264.7030087400798
 20
239.2756898380837
 11
264.7004761028469
 21
239.2749848898514
 72
     1
 10
264.7004761028469
 20
239.2749848898514
 11
264.6979224882203
 21
239.2743524440878
 72
     1
 10
264.6979224882203
 20
239.2743524440878
 11
264.6953501795128
 21
239.2737930662935
 72
     1
 10
264.6953501795128
 20
239.2737930662935
 11
264.692761476752
 21
239.2733072566359
 72
     1
 10
264.692761476752
 20
239.2733072566359
 11
264.6901586946243
 21
239.2728954495012
 72
     1
 10
264.6901586946243
 20
239.2728954495012
 11
264.6875441604054
 21
239.2725580131064
 72
     1
 10
264.6875441604054
 20
239.2725580131064
 11
264.6849202118787
 21
239.27229524917
 72
     1
 10
264.6849202118787
 20
239.27229524917
 11
264.682289195246
 21
239.2721073926422
 72
     1
 10
264.682289195246
 20
239.2721073926422
 11
264.6796534630283
 21
239.2719946114947
 72
     1
 10
264.6796534630283
 20
239.2719946114947
 11
264.6984571516469
 21
239.2722626504908
 97
        0
 92
        1
 93
       18
 72
     1
 10
264.7675749578691
 20
239.3644308979931
 11
264.7601085241475
 21
239.3843606840341
 72
     1
 10
264.7601085241475
 20
239.3843606840341
 11
264.7609586613492
 21
239.3819796469395
 72
     1
 10
264.7609586613492
 20
239.3819796469395
 11
264.7617337407268
 21
239.3795754430381
 72
     1
 10
264.7617337407268
 20
239.3795754430381
 11
264.7624330692436
 21
239.3771502220469
 72
     1
 10
264.7624330692436
 20
239.3771502220469
 11
264.7630560215957
 21
239.3747061524754
 72
     1
 10
264.7630560215957
 20
239.3747061524754
 11
264.7636020407706
 21
239.3722454196863
 72
     1
 10
264.7636020407706
 20
239.3722454196863
 11
264.7640706385459
 21
239.3697702239418
 72
     1
 10
264.7640706385459
 20
239.3697702239418
 11
264.7644613959251
 21
239.3672827784363
 72
     1
 10
264.7644613959251
 20
239.3672827784363
 11
264.7647739635129
 21
239.364785307317
 72
     1
 10
264.7647739635129
 20
239.364785307317
 11
264.7650080618272
 21
239.3622800436959
 72
     1
 10
264.7650080618272
 20
239.3622800436959
 11
264.7651634815493
 21
239.3597692276522
 72
     1
 10
264.7651634815493
 20
239.3597692276522
 11
264.7652400837106
 21
239.3572551042303
 72
     1
 10
264.7652400837106
 20
239.3572551042303
 11
264.7652377998175
 21
239.3547399214313
 72
     1
 10
264.7652377998175
 20
239.3547399214313
 11
264.765156631912
 21
239.3522259282042
 72
     1
 10
264.765156631912
 20
239.3522259282042
 11
264.7649966525705
 21
239.3497153724337
 72
     1
 10
264.7649966525705
 20
239.3497153724337
 11
264.7647580048382
 21
239.3472104989314
 72
     1
 10
264.7647580048382
 20
239.3472104989314
 11
264.7644409021018
 21
239.3447135474278
 72
     1
 10
264.7644409021018
 20
239.3447135474278
 11
264.7675749578691
 21
239.3644308979931
 97
        0
 75
     0
 76
     1
 98
        1
 10
-50.91756318250287
 20
-4.856020925953089
1001
GENIUS_GENOBJ-N-HTC_13
1002
{
1000
OWNER
1000
GEN
1002
}
1001
GENIUS_GENODEF_13
1002
{
1000
HIER
1070
     0
1002
}
1002
{
1000
MANEDIT
1070
     0
1002
}
1002
{
1000
NOSEL
1070
     0
1002
}
1002
{
1000
BEHIND
1070
     0
1002
}
1002
{
1000
OTHER
1070
     0
1002
}
1002
{
1000
REACTOR
1002
}
1001
GENIUS_GENHATCH_13
1002
{
1000
DATA
1040
0.0
1042
1.0
1000
SOLID
1070
     0
1011
262.9534188589932
1021
238.4940948605838
1031
0.0
1002
}
1002
{
1000
UCS
1010
0.0
1020
0.0
1030
0.0
1010
1.0
1020
0.0
1030
0.0
1010
0.0
1020
1.0
1030
0.0
1002
}
  0
HATCH
  5
1158
330
1F
100
AcDbEntity
  8
AM_8
100
AcDbHatch
 10
0.0
 20
0.0
 30
0.0
210
0.0
220
0.0
230
1.0
  2
SOLID
 70
     1
 71
     0
 91
        1
 92
        1
 93
       13
 72
     1
 10
263.7461531152192
 20
242.9357319453377
 11
262.4358267923387
 21
239.2715901549016
 72
     3
 10
261.7677158027837
 20
239.4887195318097
 11
0.7058677211290317
 21
-0.0000000000001072
 40
0.9533039403449558
 50
18.00364232974191
 51
121.2003905357988
 73
     0
 72
     1
 10
261.4147819422192
 20
238.9059654258324
 11
261.3611139515199
 21
238.9355037666135
 72
     1
 10
261.3611139515199
 20
238.9355037666134
 11
262.189606900885
 21
237.355892580258
 72
     3
 10
262.2685253112633
 20
237.3935091960478
 11
0.0882334651411441
 21
-0.0000000000001238
 40
0.9533039403446695
 50
205.4848953057027
 51
314.3283709578452
 73
     1
 72
     3
 10
264.3610517663183
 20
235.2513407890809
 11
2.982291121770177
 21
-0.0000000000001611
 40
0.9533039403449437
 50
225.6716290422236
 51
270.0000000423944
 73
     0
 72
     1
 10
264.3610517684221
 20
238.0943706667202
 11
264.3610517684221
 21
239.2719570065708
 72
     1
 10
264.3610517684221
 20
239.2719570065708
 11
264.0450881611678
 21
239.2719570065708
 72
     3
 10
264.0450881611678
 20
239.3560703165601
 11
0.0882334651411374
 21
-0.0000000000001559
 40
0.9533039403447977
 50
89.99999999989872
 51
198.8019473213876
 73
     0
 72
     1
 10
263.9619950090944
 20
239.3843606843288
 11
264.2779586162934
 21
240.2277468642695
 72
     3
 10
264.3610517684221
 20
240.1994564966481
 11
0.088233465141129
 21
-0.0000000000000001
 40
0.9533039403448885
 50
198.8019472188057
 51
270.0000000000386
 73
     0
 72
     1
 10
264.3610517684221
 20
240.2835698066383
 11
264.3610517684221
 21
243.3093958860585
 72
     3
 10
264.3610517663184
 20
242.6627748155155
 11
0.6782947632724444
 21
-0.0000000000004216
 40
0.953303940344951
 50
89.99999981362943
 51
156.0632835197716
 73
     1
 97
        0
 75
     0
 76
     1
 98
        1
 10
-50.91756318250287
 20
-4.856020925953089
1001
GENIUS_GENOBJ-N-HTC_13
1002
{
1000
OWNER
1000
GEN
1002
}
1001
GENIUS_GENODEF_13
1002
{
1000
HIER
1070
     0
1002
}
1002
{
1000
MANEDIT
1070
     0
1002
}
1002
{
1000
NOSEL
1070
     0
1002
}
1002
{
1000
BEHIND
1070
     0
1002
}
1002
{
1000
OTHER
1070
     0
1002
}
1002
{
1000
REACTOR
1002
}
1001
GENIUS_GENHATCH_13
1002
{
1000
DATA
1040
0.0
1042
1.0
1000
SOLID
1070
     0
1011
263.9828179341447
1021
241.9907140382301
1031
0.0
1002
}
1002
{
1000
UCS
1010
0.0
1020
0.0
1030
0.0
1010
1.0
1020
0.0
1030
0.0
1010
0.0
1020
1.0
1030
0.0
1002
}
  0
LINE
  5
1159
330
1F
100
AcDbEntity
  8
0
100
AcDbLine
 10
259.361051768422
 20
248.5060537741518
 30
0.0
 11
264.3610517684221
 21
248.5060537741518
 31
0.0
  0
LINE
  5
115C
330
1F
100
AcDbEntity
  8
0
100
AcDbLine
 10
240.9783658662423
 20
226.306053774152
 30
0.0
 11
239.3533658662422
 21
229.1206363364513
 31
0.0
  0
LINE
  5
115D
330
1F
100
AcDbEntity
  8
0
100
AcDbLine
 10
239.4893872175045
 20
229.871434368983
 30
0.0
 11
242.6254801832723
 21
232.4531680911818
 31
0.0
  0
LINE
  5
115E
330
1F
100
AcDbEntity
  8
0
100
AcDbLine
 10
239.3533658662422
 20
229.1206363364513
 30
0.0
 11
239.4893872175045
 21
229.871434368983
 31
0.0
1001
GENIUS_GENFIL_13
1070
     0
1040
0.4999999999998895
1040
0.4999999999998726
1040
0.4999999999998895
1040
40.26883889599703
1000
~T
1001
GENIUS_GENOREF_13
1005
11AE
  0
LINE
  5
115F
330
1F
100
AcDbEntity
  8
0
100
AcDbLine
 10
242.6254801832723
 20
232.4531680911818
 30
0.0
 11
244.8754801832723
 21
228.5560537741519
 31
0.0
  0
LINE
  5
1160
330
1F
100
AcDbEntity
  8
0
100
AcDbLine
 10
243.0004801832723
 20
231.8036490383436
 30
0.0
 11
246.5225945003022
 21
234.7031680911818
 31
0.0
  0
LINE
  5
1161
330
1F
100
AcDbEntity
  8
0
100
AcDbLine
 10
246.5225945003022
 20
234.7031680911818
 30
0.0
 11
248.7725945003023
 21
230.8060537741519
 31
0.0
  0
LINE
  5
1162
330
1F
100
AcDbEntity
  8
0
100
AcDbLine
 10
246.8975945003022
 20
234.0536490383436
 30
0.0
 11
250.4197088173323
 21
236.9531680911819
 31
0.0
  0
LINE
  5
1163
330
1F
100
AcDbEntity
  8
0
100
AcDbLine
 10
250.4197088173323
 20
236.9531680911819
 30
0.0
 11
252.6697088173322
 21
233.0560537741518
 31
0.0
  0
LINE
  5
1164
330
1F
100
AcDbEntity
  8
0
100
AcDbLine
 10
250.7947088173323
 20
236.3036490383436
 30
0.0
 11
254.3168231343622
 21
239.2031680911819
 31
0.0
  0
LINE
  5
1165
330
1F
100
AcDbEntity
  8
0
100
AcDbLine
 10
256.5668231343622
 20
235.3060537741519
 30
0.0
 11
254.2168231343623
 21
239.3763731719388
 31
0.0
  0
LINE
  5
1166
330
1F
100
AcDbEntity
  8
0
100
AcDbLine
 10
254.3266307554976
 20
239.7861807930741
 30
0.0
 11
259.3610517684221
 21
242.6928051200999
 31
0.0
  0
LINE
  5
1167
330
1F
100
AcDbEntity
  8
0
100
AcDbLine
 10
254.2168231343623
 20
239.3763731719388
 30
0.0
 11
254.3266307554976
 21
239.7861807930741
 31
0.0
1001
GENIUS_GENFIL_13
1070
     0
1040
0.300000000000022
1040
0.2999999999999443
1040
0.300000000000022
1040
44.99999999996366
1000
~T
1001
GENIUS_GENOREF_13
1005
11AD
  0
LINE
  5
1168
330
1F
100
AcDbEntity
  8
0
100
AcDbLine
 10
239.4893872175045
 20
229.871434368983
 30
0.0
 11
241.4054869643308
 21
226.5526522551099
 31
0.0
  0
LINE
  5
1169
330
1F
100
AcDbEntity
  8
0
100
AcDbLine
 10
254.3266307554976
 20
239.7861807930741
 30
0.0
 11
256.8266307554976
 21
235.4560537741519
 31
0.0
  0
LINE
  5
116A
330
1F
100
AcDbEntity
  8
0
100
AcDbLine
 10
240.9783658662425
 20
226.3060537741517
 30
0.0
 11
242.6033658662424
 21
223.4914712118522
 31
0.0
  0
LINE
  5
116B
330
1F
100
AcDbEntity
  8
0
100
AcDbLine
 10
243.3215867111575
 20
223.2338701412366
 30
0.0
 11
247.0318360142895
 21
224.6238571308665
 31
0.0
  0
LINE
  5
116C
330
1F
100
AcDbEntity
  8
0
100
AcDbLine
 10
242.6033658662424
 20
223.4914712118522
 30
0.0
 11
243.3215867111575
 21
223.2338701412366
 31
0.0
1001
GENIUS_GENFIL_13
1070
     0
1040
0.4999999999999432
1040
0.4999999999999211
1040
0.4999999999999432
1040
40.26883889598773
1002
{
1002
}
  0
LINE
  5
116D
330
1F
100
AcDbEntity
  8
0
100
AcDbLine
 10
247.0754801832725
 20
224.7455419975002
 30
0.0
 11
244.8754801832724
 21
228.5560537741518
 31
0.0
  0
LINE
  5
116E
330
1F
100
AcDbEntity
  8
0
100
AcDbLine
 10
246.7504801832725
 20
225.3084585099601
 30
0.0
 11
250.9289503313194
 21
226.8738571308666
 31
0.0
  0
LINE
  5
116F
330
1F
100
AcDbEntity
  8
0
100
AcDbLine
 10
250.9725945003024
 20
226.9955419975003
 30
0.0
 11
248.7725945003023
 21
230.8060537741519
 31
0.0
  0
LINE
  5
1170
330
1F
100
AcDbEntity
  8
0
100
AcDbLine
 10
250.6475945003024
 20
227.5584585099601
 30
0.0
 11
254.8260646483494
 21
229.1238571308667
 31
0.0
  0
LINE
  5
1171
330
1F
100
AcDbEntity
  8
0
100
AcDbLine
 10
254.8697088173323
 20
229.2455419975005
 30
0.0
 11
252.6697088173321
 21
233.0560537741519
 31
0.0
  0
LINE
  5
1172
330
1F
100
AcDbEntity
  8
0
100
AcDbLine
 10
254.5447088173324
 20
229.8084585099604
 30
0.0
 11
258.8168231343622
 21
231.4089394571221
 31
0.0
  0
LINE
  5
1173
330
1F
100
AcDbEntity
  8
0
100
AcDbLine
 10
256.5668231343622
 20
235.3060537741519
 30
0.0
 11
258.9168231343624
 21
231.2357343763652
 31
0.0
  0
LINE
  5
1174
330
1F
100
AcDbEntity
  8
0
100
AcDbLine
 10
259.3266307554976
 20
231.1259267552299
 30
0.0
 11
264.3610517684221
 21
234.0325510822558
 31
0.0
  0
LINE
  5
1175
330
1F
100
AcDbEntity
  8
0
100
AcDbLine
 10
258.9168231343624
 20
231.2357343763652
 30
0.0
 11
259.3266307554976
 21
231.1259267552299
 31
0.0
1001
GENIUS_GENFIL_13
1070
     0
1040
0.3
1040
0.3
1040
20.0
1040
0.0
1002
{
1002
}
1001
GENIUS_GENODEF_13
1002
{
1000
HIER
1070
     0
1002
}
1002
{
1000
MANEDIT
1070
     0
1002
}
1002
{
1000
NOSEL
1070
     0
1002
}
1002
{
1000
BEHIND
1070
     0
1002
}
1002
{
1000
OTHER
1070
     0
1002
}
1002
{
1000
REACTOR
1002
}
1001
GENIUS_GENOBJ-N-CHA_13
1002
{
1000
OWNER
1000
GEN
1002
}
  0
LINE
  5
1176
330
1F
100
AcDbEntity
  8
0
100
AcDbLine
 10
243.3215867111575
 20
223.2338701412366
 30
0.0
 11
241.405486964331
 21
226.5526522551096
 31
0.0
  0
LINE
  5
1177
330
1F
100
AcDbEntity
  8
0
100
AcDbLine
 10
259.3266307554976
 20
231.1259267552299
 30
0.0
 11
256.8266307554976
 21
235.456053774152
 31
0.0
  0
POINT
  5
11AD
330
1F
100
AcDbEntity
  8
0
 60
     1
100
AcDbPoint
 10
-129.4872848678391
 20
-43.63702277079926
 30
0.0
1001
GENIUS_GENOLIS_13
1002
{
1000
ENT
1005
11A3
1005
1167
1002
}
1001
GENIUS_GENOENT_13
1002
{
1000
MYREF
1005
11AD
1002
}
1002
{
1000
GRP
1005
0
1002
}
1001
GENIUS_GENOBJ-N-CHA_13
1002
{
1000
OWNER
1000
GEN
1002
}
1001
GENIUS_GENODEF_13
1002
{
1000
HIER
1070
     1
1002
}
1002
{
1000
MANEDIT
1070
     1
1002
}
1002
{
1000
NOSEL
1070
     0
1002
}
1002
{
1000
BEHIND
1070
     0
1002
}
1002
{
1000
OTHER
1070
     0
1002
}
1002
{
1000
REACTOR
1002
}
  0
POINT
  5
11AE
330
1F
100
AcDbEntity
  8
0
 60
     1
100
AcDbPoint
 10
-129.4872848678391
 20
-43.63702277079926
 30
0.0
1001
GENIUS_GENOLIS_13
1002
{
1000
ENT
1005
11A4
1005
115E
1002
}
1001
GENIUS_GENOENT_13
1002
{
1000
MYREF
1005
11AE
1002
}
1002
{
1000
GRP
1005
0
1002
}
1001
GENIUS_GENOBJ-N-CHA_13
1002
{
1000
OWNER
1000
GEN
1002
}
1001
GENIUS_GENODEF_13
1002
{
1000
HIER
1070
     1
1002
}
1002
{
1000
MANEDIT
1070
     1
1002
}
1002
{
1000
NOSEL
1070
     0
1002
}
1002
{
1000
BEHIND
1070
     0
1002
}
1002
{
1000
OTHER
1070
     0
1002
}
1002
{
1000
REACTOR
1002
}
  0
LINE
  5
12E4
330
1F
100
AcDbEntity
  8
0
100
AcDbLine
 10
247.0318360142895
 20
224.6238571308665
 30
0.0
 11
247.0754801832725
 21
224.7455419975002
 31
0.0
  0
LINE
  5
12E5
330
1F
100
AcDbEntity
  8
0
100
AcDbLine
 10
250.9289503313194
 20
226.8738571308666
 30
0.0
 11
250.9725945003024
 21
226.9955419975003
 31
0.0
  0
LINE
  5
12E6
330
1F
100
AcDbEntity
  8
0
100
AcDbLine
 10
254.8260646483494
 20
229.1238571308667
 30
0.0
 11
254.8697088173323
 21
229.2455419975005
 31
0.0
  0
LINE
  5
17D9
330
1F
100
AcDbEntity
  8
0
100
AcDbLine
 10
264.3610517684221
 20
266.8060537741517
 30
0.0
 11
267.6110517684221
 21
266.8060537741518
 31
0.0
  0
LINE
  5
17DA
330
1F
100
AcDbEntity
  8
0
100
AcDbLine
 10
268.1932512620748
 20
266.3128568122358
 30
0.0
 11
268.8610517684221
 21
262.3060537741518
 31
0.0
  0
LINE
  5
17DB
330
1F
100
AcDbEntity
  8
0
100
AcDbLine
 10
267.6110517684221
 20
266.8060537741518
 30
0.0
 11
268.1932512620748
 21
266.3128568122358
 31
0.0
1001
GENIUS_GENFIL_13
1070
     0
1040
0.4999999999999432
1040
0.4999999999999211
1040
0.4999999999999432
1040
40.26883889598773
1002
{
1002
}
  0
LINE
  5
17DC
330
1F
100
AcDbEntity
  8
0
100
AcDbLine
 10
268.8610517684221
 20
262.3060537741518
 30
0.0
 11
264.3610517684221
 21
262.3060537741518
 31
0.0
  0
LINE
  5
17DD
330
1F
100
AcDbEntity
  8
0
100
AcDbLine
 10
268.1110517684221
 20
262.3060537741518
 30
0.0
 11
268.8610517684221
 21
257.8060537741518
 31
0.0
  0
LINE
  5
17DE
330
1F
100
AcDbEntity
  8
0
100
AcDbLine
 10
268.8610517684221
 20
257.8060537741518
 30
0.0
 11
264.3610517684221
 21
257.8060537741518
 31
0.0
  0
LINE
  5
17DF
330
1F
100
AcDbEntity
  8
0
100
AcDbLine
 10
268.1110517684221
 20
257.8060537741518
 30
0.0
 11
268.8610517684221
 21
253.3060537741518
 31
0.0
  0
LINE
  5
17E0
330
1F
100
AcDbEntity
  8
0
100
AcDbLine
 10
268.8610517684221
 20
253.3060537741518
 30
0.0
 11
264.3610517684221
 21
253.3060537741519
 31
0.0
  0
LINE
  5
17E1
330
1F
100
AcDbEntity
  8
0
100
AcDbLine
 10
268.1110517684221
 20
253.3060537741518
 30
0.0
 11
268.8610517684221
 21
248.8060537741518
 31
0.0
  0
LINE
  5
17E2
330
1F
100
AcDbEntity
  8
0
100
AcDbLine
 10
264.3610517684221
 20
248.8060537741518
 30
0.0
 11
269.0610517684222
 21
248.8060537741517
 31
0.0
  0
LINE
  5
17E3
330
1F
100
AcDbEntity
  8
0
100
AcDbLine
 10
269.3610517684222
 20
248.5060537741518
 30
0.0
 11
269.3610517684221
 21
242.6928051201
 31
0.0
  0
LINE
  5
17E4
330
1F
100
AcDbEntity
  8
0
100
AcDbLine
 10
269.0610517684222
 20
248.8060537741517
 30
0.0
 11
269.3610517684222
 21
248.5060537741518
 31
0.0
1001
GENIUS_GENFIL_13
1070
     0
1040
0.3
1040
0.3
1040
20.0
1040
0.0
1002
{
1002
}
1001
GENIUS_GENODEF_13
1002
{
1000
HIER
1070
     0
1002
}
1002
{
1000
MANEDIT
1070
     0
1002
}
1002
{
1000
NOSEL
1070
     0
1002
}
1002
{
1000
BEHIND
1070
     0
1002
}
1002
{
1000
OTHER
1070
     0
1002
}
1002
{
1000
REACTOR
1002
}
1001
GENIUS_GENOBJ-N-CHA_13
1002
{
1000
OWNER
1000
GEN
1002
}
  0
LINE
  5
17E5
330
1F
100
AcDbEntity
  8
0
100
AcDbLine
 10
268.1932512620748
 20
266.3128568122358
 30
0.0
 11
264.3610517684221
 21
266.3128568122358
 31
0.0
  0
LINE
  5
17E6
330
1F
100
AcDbEntity
  8
0
100
AcDbLine
 10
264.975950421625
 20
242.9357319453377
 30
0.0
 11
266.2862767445055
 21
239.2715901549015
 31
0.0
  0
ELLIPSE
  5
17E7
330
1F
100
AcDbEntity
  8
0
100
AcDbEllipse
 10
264.3610517705259
 20
235.2513407890809
 30
0.0
 11
2.982291121770177
 21
0.0000000000001611
 31
0.0
210
0.0
220
0.0
230
-1.0
 40
0.9533039403449437
 41
4.712388979679318
 42
5.462183310215158
  0
ELLIPSE
  5
17E8
330
1F
100
AcDbEntity
  8
0
100
AcDbEllipse
 10
264.3610517705258
 20
242.6627748155155
 30
0.0
 11
0.6782947632724444
 21
0.0000000000004216
 31
0.0
210
0.0
220
0.0
230
-1.0
 40
0.953303940344951
 41
4.712388977283801
 42
6.061870864832456
  0
LINE
  5
17E9
330
1F
100
AcDbEntity
  8
0
100
AcDbLine
 10
264.7601085277498
 20
239.3843606843288
 30
0.0
 11
264.4441449205508
 21
240.2277468642696
 31
0.0
  0
LINE
  5
17EA
330
1F
100
AcDbEntity
  8
0
100
AcDbLine
 10
264.3610517684221
 20
239.2719570065707
 30
0.0
 11
264.6770153756764
 21
239.2719570065708
 31
0.0
  0
LINE
  5
17EB
330
1F
100
AcDbEntity
  8
0
100
AcDbLine
 10
266.5324966359592
 20
237.355892580258
 30
0.0
 11
267.3609895853243
 21
238.9355037666134
 31
0.0
  0
LINE
  5
17EC
330
1F
100
AcDbEntity
  8
0
100
AcDbLine
 10
267.3609895853243
 20
238.9355037666134
 30
0.0
 11
267.307321594625
 21
238.9059654258324
 31
0.0
  0
ELLIPSE
  5
17ED
330
1F
100
AcDbEntity
  8
0
100
AcDbEllipse
 10
266.9543877340605
 20
239.4887195318097
 30
0.0
 11
0.7058677211290317
 21
0.0000000000001072
 31
0.0
210
0.0
220
0.0
230
-1.0
 40
0.9533039403449558
 41
1.047197551196737
 42
2.813039483038496
1001
GENIUS_GENODEF_13
1002
{
1000
HIER
1070
     0
1002
}
1002
{
1000
MANEDIT
1070
     0
1002
}
1002
{
1000
NOSEL
1070
     0
1002
}
1002
{
1000
BEHIND
1070
     0
1002
}
1002
{
1000
REACTOR
1002
}
1001
GENIUS_GENOBJ-N-FIL_13
1002
{
1000
OWNER
1000
GEN
1002
}
  0
ELLIPSE
  5
17EE
330
1F
100
AcDbEntity
  8
0
100
AcDbEllipse
 10
266.4535782255809
 20
237.3935091960478
 30
0.0
 11
0.0882334651411441
 21
0.0000000000001238
 31
0.0
210
0.0
220
0.0
230
-1.0
 40
0.9533039403446695
 41
0.4636476090023339
 42
2.320590656626666
1001
GENIUS_GENODEF_13
1002
{
1000
HIER
1070
     0
1002
}
1002
{
1000
MANEDIT
1070
     0
1002
}
1002
{
1000
NOSEL
1070
     0
1002
}
1002
{
1000
BEHIND
1070
     0
1002
}
1002
{
1000
REACTOR
1002
}
1001
GENIUS_GENOBJ-N-FIL_13
1002
{
1000
OWNER
1000
GEN
1002
}
  0
ELLIPSE
  5
17EF
330
1F
100
AcDbEntity
  8
0
100
AcDbEllipse
 10
264.3610517684221
 20
240.1994564966481
 30
0.0
 11
0.088233465141129
 21
0.0000000000000001
 31
0.0
210
0.0
220
0.0
230
-1.0
 40
0.9533039403448885
 41
4.712388980384689
 42
5.940161366758847
1001
GENIUS_GENODEF_13
1002
{
1000
HIER
1070
     0
1002
}
1002
{
1000
MANEDIT
1070
     0
1002
}
1002
{
1000
NOSEL
1070
     0
1002
}
1002
{
1000
BEHIND
1070
     0
1002
}
1002
{
1000
REACTOR
1002
}
1001
GENIUS_GENOBJ-N-FIL_13
1002
{
1000
OWNER
1000
GEN
1002
}
  0
ELLIPSE
  5
17F0
330
1F
100
AcDbEntity
  8
0
100
AcDbEllipse
 10
264.6770153756764
 20
239.3560703165601
 30
0.0
 11
0.0882334651411374
 21
0.0000000000001559
 31
0.0
210
0.0
220
0.0
230
-1.0
 40
0.9533039403447977
 41
-0.3430239422797581
 42
1.570796326796808
1001
GENIUS_GENODEF_13
1002
{
1000
HIER
1070
     0
1002
}
1002
{
1000
MANEDIT
1070
     0
1002
}
1002
{
1000
NOSEL
1070
     0
1002
}
1002
{
1000
BEHIND
1070
     0
1002
}
1002
{
1000
REACTOR
1002
}
1001
GENIUS_GENOBJ-N-FIL_13
1002
{
1000
OWNER
1000
GEN
1002
}
  0
HATCH
  5
17F1
330
1F
100
AcDbEntity
  8
AM_8
100
AcDbHatch
 10
0.0
 20
0.0
 30
0.0
210
0.0
220
0.0
230
1.0
  2
SOLID
 70
     1
 71
     0
 91
        5
 92
        1
 93
      231
 72
     1
 10
264.3610517705259
 20
238.0943706667201
 11
264.3610517684221
 21
239.2719570065708
 72
     1
 10
264.3610517684221
 20
239.2719570065708
 11
264.6770153756764
 21
239.2719570065708
 72
     1
 10
264.6770153756764
 20
239.2719570065708
 11
264.6796534667461
 21
239.2719946114949
 72
     1
 10
264.6796534667461
 20
239.2719946114949
 11
264.6822891989689
 21
239.2721073926427
 72
     1
 10
264.6822891989689
 20
239.2721073926427
 11
264.6849202156068
 21
239.2722952491713
 72
     1
 10
264.6849202156068
 20
239.2722952491713
 11
264.6875441641384
 21
239.2725580131087
 72
     1
 10
264.6875441641384
 20
239.2725580131087
 11
264.6901586983624
 21
239.2728954495048
 72
     1
 10
264.6901586983624
 20
239.2728954495048
 11
264.6927614804949
 21
239.2733072566411
 72
     1
 10
264.6927614804949
 20
239.2733072566411
 11
264.6953501832606
 21
239.2737930663006
 72
     1
 10
264.6953501832606
 20
239.2737930663006
 11
264.6979224919729
 21
239.274352444097
 72
     1
 10
264.6979224919729
 20
239.274352444097
 11
264.700476106604
 21
239.2749848898632
 72
     1
 10
264.700476106604
 20
239.2749848898632
 11
264.7030087438415
 21
239.2756898380981
 72
     1
 10
264.7030087438415
 20
239.2756898380981
 11
264.7055181391298
 21
239.2764666584729
 72
     1
 10
264.7055181391298
 20
239.2764666584729
 11
264.7080020486952
 21
239.2773146563943
 72
     1
 10
264.7080020486952
 20
239.2773146563943
 11
264.710458251552
 21
239.2782330736257
 72
     1
 10
264.710458251552
 20
239.2782330736257
 11
264.7128845514883
 21
239.279221088965
 72
     1
 10
264.7128845514883
 20
239.279221088965
 11
264.71527877903
 21
239.2802778189791
 72
     1
 10
264.71527877903
 20
239.2802778189791
 11
264.7176387933805
 21
239.2814023187938
 72
     1
 10
264.7176387933805
 20
239.2814023187938
 11
264.7199624843348
 21
239.2825935829383
 72
     1
 10
264.7199624843348
 20
239.2825935829383
 11
264.7222477741666
 21
239.2838505462449
 72
     1
 10
264.7222477741666
 20
239.2838505462449
 11
264.7244926194859
 21
239.2851720848008
 72
     1
 10
264.7244926194859
 20
239.2851720848008
 11
264.7266950130659
 21
239.2865570169533
 72
     1
 10
264.7266950130659
 20
239.2865570169533
 11
264.7288529856382
 21
239.2880041043666
 72
     1
 10
264.7288529856382
 20
239.2880041043666
 11
264.7309646076535
 21
239.2895120531286
 72
     1
 10
264.7309646076535
 20
239.2895120531286
 11
264.7330279910065
 21
239.2910795149081
 72
     1
 10
264.7330279910065
 20
239.2910795149081
 11
264.7350412907248
 21
239.2927050881604
 72
     1
 10
264.7350412907248
 20
239.2927050881604
 11
264.737002706618
 21
239.2943873193805
 72
     1
 10
264.737002706618
 20
239.2943873193805
 11
264.7389104848876
 21
239.2961247044027
 72
     1
 10
264.7389104848876
 20
239.2961247044027
 11
264.7407629196954
 21
239.2979156897457
 72
     1
 10
264.7407629196954
 20
239.2979156897457
 11
264.7425583546881
 21
239.2997586740012
 72
     1
 10
264.7425583546881
 20
239.2997586740012
 11
264.7442951844791
 21
239.3016520092665
 72
     1
 10
264.7442951844791
 20
239.3016520092665
 11
264.7459718560833
 21
239.3035940026173
 72
     1
 10
264.7459718560833
 20
239.3035940026173
 11
264.7475868703062
 21
239.3055829176219
 72
     1
 10
264.7475868703062
 20
239.3055829176219
 11
264.7491387830843
 21
239.3076169758934
 72
     1
 10
264.7491387830843
 20
239.3076169758934
 11
264.7506262067757
 21
239.3096943586805
 72
     1
 10
264.7506262067757
 20
239.3096943586805
 11
264.7520478114021
 21
239.3118132084927
 72
     1
 10
264.7520478114021
 20
239.3118132084927
 11
264.7534023258365
 21
239.3139716307625
 72
     1
 10
264.7534023258365
 20
239.3139716307625
 11
264.7546885389413
 21
239.3161676955381
 72
     1
 10
264.7546885389413
 20
239.3161676955381
 11
264.7559053006497
 21
239.3183994392101
 72
     1
 10
264.7559053006497
 20
239.3183994392101
 11
264.7570515229955
 21
239.3206648662667
 72
     1
 10
264.7570515229955
 20
239.3206648662667
 11
264.7581261810847
 21
239.3229619510781
 72
     1
 10
264.7581261810847
 20
239.3229619510781
 11
264.7591283140128
 21
239.3252886397077
 72
     1
 10
264.7591283140128
 20
239.3252886397077
 11
264.7600570257234
 21
239.3276428517488
 72
     1
 10
264.7600570257234
 20
239.3276428517488
 11
264.7609114858096
 21
239.3300224821847
 72
     1
 10
264.7609114858096
 20
239.3300224821847
 11
264.7616909302567
 21
239.3324254032706
 72
     1
 10
264.7616909302567
 20
239.3324254032706
 11
264.762394662125
 21
239.3348494664366
 72
     1
 10
264.762394662125
 20
239.3348494664366
 11
264.7630220521733
 21
239.3372925042087
 72
     1
 10
264.7630220521733
 20
239.3372925042087
 11
264.7635725394213
 21
239.3397523321465
 72
     1
 10
264.7635725394213
 20
239.3397523321465
 11
264.7640456316511
 21
239.3422267507969
 72
     1
 10
264.7640456316511
 20
239.3422267507969
 11
264.7644409058478
 21
239.3447135476604
 72
     1
 10
264.7644409058478
 20
239.3447135476604
 11
264.7647580085774
 21
239.3472104991697
 72
     1
 10
264.7647580085774
 20
239.3472104991697
 11
264.7649966563025
 21
239.3497153726776
 72
     1
 10
264.7649966563025
 20
239.3497153726776
 11
264.7651566356367
 21
239.3522259284534
 72
     1
 10
264.7651566356367
 20
239.3522259284534
 11
264.7652378035344
 21
239.3547399216857
 72
     1
 10
264.7652378035344
 20
239.3547399216857
 11
264.7652400874195
 21
239.3572551044895
 72
     1
 10
264.7652400874195
 20
239.3572551044895
 11
264.7651634852498
 21
239.3597692279161
 72
     1
 10
264.7651634852498
 20
239.3597692279161
 11
264.7650080655191
 21
239.3622800439642
 72
     1
 10
264.7650080655191
 20
239.3622800439642
 11
264.7647739671958
 21
239.3647853075895
 72
     1
 10
264.7647739671958
 20
239.3647853075895
 11
264.7644613995988
 21
239.3672827787126
 72
     1
 10
264.7644613995988
 20
239.3672827787126
 11
264.7640706422101
 21
239.3697702242217
 72
     1
 10
264.7640706422101
 20
239.3697702242217
 11
264.7636020444251
 21
239.3722454199695
 72
     1
 10
264.7636020444251
 20
239.3722454199695
 11
264.7630560252401
 21
239.3747061527616
 72
     1
 10
264.7630560252401
 20
239.3747061527616
 11
264.7624330728778
 21
239.3771502223358
 72
     1
 10
264.7624330728778
 20
239.3771502223358
 11
264.7617337443506
 21
239.3795754433293
 72
     1
 10
264.7617337443506
 20
239.3795754433293
 11
264.7609586649624
 21
239.3819796472326
 72
     1
 10
264.7609586649624
 20
239.3819796472326
 11
264.7601085277498
 21
239.3843606843288
 72
     1
 10
264.7601085277498
 20
239.3843606843288
 11
264.5592558329765
 21
239.9204869441768
 72
     1
 10
264.5592558329765
 20
239.9204869441768
 11
265.7983884814052
 21
240.6359005123087
 72
     1
 10
265.7983884814052
 20
240.6359005123087
 11
266.2862767445055
 21
239.2715901549015
 72
     1
 10
266.2862767445055
 20
239.2715901549015
 11
266.2928145713637
 21
239.2541017866598
 72
     1
 10
266.2928145713637
 20
239.2541017866598
 11
266.2998560078569
 21
239.2367920165893
 72
     1
 10
266.2998560078569
 20
239.2367920165893
 11
266.3073956938293
 21
239.2196740214141
 72
     1
 10
266.3073956938293
 20
239.2196740214141
 11
266.3154278898424
 21
239.2027608318734
 72
     1
 10
266.3154278898424
 20
239.2027608318734
 11
266.3239464815439
 21
239.1860653228019
 72
     1
 10
266.3239464815439
 20
239.1860653228019
 11
266.3329449843226
 21
239.1696002033294
 72
     1
 10
266.3329449843226
 20
239.1696002033294
 11
266.3424165482441
 21
239.1533780072065
 72
     1
 10
266.3424165482441
 20
239.1533780072065
 11
266.3523539632655
 21
239.1374110832625
 72
     1
 10
266.3523539632655
 20
239.1374110832625
 11
266.3627496647241
 21
239.1217115860062
 72
     1
 10
266.3627496647241
 20
239.1217115860062
 11
266.3735957390951
 21
239.106291466373
 72
     1
 10
266.3735957390951
 20
239.106291466373
 11
266.3848839300168
 21
239.0911624626273
 72
     1
 10
266.3848839300168
 20
239.0911624626273
 11
266.3966056445743
 21
239.0763360914275
 72
     1
 10
266.3966056445743
 20
239.0763360914275
 11
266.4087519598417
 21
239.0618236390588
 72
     1
 10
266.4087519598417
 20
239.0618236390588
 11
266.4213136296741
 21
239.0476361528418
 72
     1
 10
266.4213136296741
 20
239.0476361528418
 11
266.4342810917457
 21
239.033784432723
 72
     1
 10
266.4342810917457
 20
239.033784432723
 11
266.4476444748296
 21
239.0202790230535
 72
     1
 10
266.4476444748296
 20
239.0202790230535
 11
266.4613936063119
 21
239.0071302045623
 72
     1
 10
266.4613936063119
 20
239.0071302045623
 11
266.4755180199348
 21
238.9943479865305
 72
     1
 10
266.4755180199348
 20
238.9943479865305
 11
266.4900069637648
 21
238.9819420991716
 72
     1
 10
266.4900069637648
 20
238.9819420991716
 11
266.5048494083767
 21
238.9699219862248
 72
     1
 10
266.5048494083767
 20
238.9699219862248
 11
266.5200340552495
 21
238.9582967977661
 72
     1
 10
266.5200340552495
 20
238.9582967977661
 11
266.535549345368
 21
238.9470753832428
 72
     1
 10
266.535549345368
 20
238.9470753832428
 11
266.5513834680207
 21
238.9362662847374
 72
     1
 10
266.5513834680207
 20
238.9362662847374
 11
266.5675243697914
 21
238.9258777304648
 72
     1
 10
266.5675243697914
 20
238.9258777304648
 11
266.5839597637342
 21
238.9159176285089
 72
     1
 10
266.5839597637342
 20
238.9159176285089
 11
266.6006771387269
 21
238.9063935608024
 72
     1
 10
266.6006771387269
 20
238.9063935608024
 11
266.6176637689945
 21
238.8973127773557
 72
     1
 10
266.6176637689945
 20
238.8973127773557
 11
266.6349067237968
 21
238.8886821907377
 72
     1
 10
266.6349067237968
 20
238.8886821907377
 11
266.6523928772718
 21
238.8805083708136
 72
     1
 10
266.6523928772718
 20
238.8805083708136
 11
266.6701089184269
 21
238.8727975397442
 72
     1
 10
266.6701089184269
 20
238.8727975397442
 11
266.6880413612722
 21
238.8655555672487
 72
     1
 10
266.6880413612722
 20
238.8655555672487
 11
266.7061765550861
 21
238.8587879661371
 72
     1
 10
266.7061765550861
 20
238.8587879661371
 11
266.724500694807
 21
238.8524998881136
 72
     1
 10
266.724500694807
 20
238.8524998881136
 11
266.7429998315419
 21
238.8466961198544
 72
     1
 10
266.7429998315419
 20
238.8466961198544
 11
266.7616598831845
 21
238.8413810793648
 72
     1
 10
266.7616598831845
 20
238.8413810793648
 11
266.7804666451353
 21
238.8365588126153
 72
     1
 10
266.7804666451353
 20
238.8365588126153
 11
266.7994058011146
 21
238.8322329904623
 72
     1
 10
266.7994058011146
 20
238.8322329904623
 11
266.8184629340601
 21
238.8284069058533
 72
     1
 10
266.8184629340601
 20
238.8284069058533
 11
266.8376235371021
 21
238.8250834713204
 72
     1
 10
266.8376235371021
 20
238.8250834713204
 11
266.856873024606
 21
238.8222652167631
 72
     1
 10
266.856873024606
 20
238.8222652167631
 11
266.8761967432758
 21
238.8199542875228
 72
     1
 10
266.8761967432758
 20
238.8199542875228
 11
266.8955799833087
 21
238.8181524427489
 72
     1
 10
266.8955799833087
 20
238.8181524427489
 11
266.915007989592
 21
238.8168610540606
 72
     1
 10
266.915007989592
 20
238.8168610540606
 11
266.9344659729357
 21
238.8160811045024
 72
     1
 10
266.9344659729357
 20
238.8160811045024
 11
266.9539391213307
 21
238.8158131877956
 72
     1
 10
266.9539391213307
 20
238.8158131877956
 11
266.9734126112234
 21
238.8160575078865
 72
     1
 10
266.9734126112234
 20
238.8160575078865
 11
266.9928716188002
 21
238.8168138787913
 72
     1
 10
266.9928716188002
 20
238.8168138787913
 11
267.0123013312722
 21
238.8180817247373
 72
     1
 10
267.0123013312722
 20
238.8180817247373
 11
267.0316869581507
 21
238.8198600806017
 72
     1
 10
267.0316869581507
 20
238.8198600806017
 11
267.0510137425062
 21
238.8221475926458
 72
     1
 10
267.0510137425062
 20
238.8221475926458
 11
267.070266972202
 21
238.8249425195458
 72
     1
 10
267.070266972202
 20
238.8249425195458
 11
267.0894319910934
 21
238.8282427337182
 72
     1
 10
267.0894319910934
 20
238.8282427337182
 11
267.1084942101845
 21
238.8320457229395
 72
     1
 10
267.1084942101845
 20
238.8320457229395
 11
267.1274391187338
 21
238.8363485922586
 72
     1
 10
267.1274391187338
 20
238.8363485922586
 11
267.1462522953
 21
238.8411480662003
 72
     1
 10
267.1462522953
 20
238.8411480662003
 11
267.1649194187203
 21
238.8464404912589
 72
     1
 10
267.1649194187203
 20
238.8464404912589
 11
267.1834262790119
 21
238.8522218386793
 72
     1
 10
267.1834262790119
 20
238.8522218386793
 11
267.2017587881894
 21
238.8584877075238
 72
     1
 10
267.2017587881894
 20
238.8584877075238
 11
267.2199029909884
 21
238.8652333280222
 72
     1
 10
267.2199029909884
 20
238.8652333280222
 11
267.2378450754895
 21
238.8724535652029
 72
     1
 10
267.2378450754895
 20
238.8724535652029
 11
267.2555713836316
 21
238.8801429228015
 72
     1
 10
267.2555713836316
 20
238.8801429228015
 11
267.2730684216092
 21
238.8882955474448
 72
     1
 10
267.2730684216092
 20
238.8882955474448
 11
267.2903228701442
 21
238.8969052331067
 72
     1
 10
267.2903228701442
 20
238.8969052331067
 11
267.307321594625
 21
238.9059654258324
 72
     1
 10
267.307321594625
 20
238.9059654258324
 11
267.3609895853243
 21
238.9355037666134
 72
     1
 10
267.3609895853243
 20
238.9355037666134
 11
266.5324966359593
 21
237.355892580258
 72
     1
 10
266.5324966359593
 20
237.355892580258
 11
266.5313186816126
 21
237.3537258469902
 72
     1
 10
266.5313186816126
 20
237.3537258469902
 11
266.5300752856769
 21
237.3515926031783
 72
     1
 10
266.5300752856769
 20
237.3515926031783
 11
266.5287674948376
 21
237.349494644578
 72
     1
 10
266.5287674948376
 20
237.349494644578
 11
266.5273964099876
 21
237.3474337372421
 72
     1
 10
266.5273964099876
 20
237.3474337372421
 11
266.5259631853003
 21
237.3454116160338
 72
     1
 10
266.5259631853003
 20
237.3454116160338
 11
266.5244690272582
 21
237.3434299831661
 72
     1
 10
266.5244690272582
 20
237.3434299831661
 11
266.5229151936373
 21
237.3414905067692
 72
     1
 10
266.5229151936373
 20
237.3414905067692
 11
266.5213029924482
 21
237.3395948194862
 72
     1
 10
266.5213029924482
 20
237.3395948194862
 11
266.5196337808351
 21
237.3377445170988
 72
     1
 10
266.5196337808351
 20
237.3377445170988
 11
266.5179089639334
 21
237.3359411571837
 72
     1
 10
266.5179089639334
 20
237.3359411571837
 11
266.5161299936865
 21
237.3341862578016
 72
     1
 10
266.5161299936865
 20
237.3341862578016
 11
266.5142983676243
 21
237.3324812962196
 72
     1
 10
266.5142983676243
 20
237.3324812962196
 11
266.5124156276017
 21
237.3308277076671
 72
     1
 10
266.5124156276017
 20
237.3308277076671
 11
266.5104833585015
 21
237.3292268841279
 72
     1
 10
266.5104833585015
 20
237.3292268841279
 11
266.5085031868997
 21
237.3276801731687
 72
     1
 10
266.5085031868997
 20
237.3276801731687
 11
266.5064767796962
 21
237.3261888768042
 72
     1
 10
266.5064767796962
 20
237.3261888768042
 11
266.5044058427124
 21
237.3247542504013
 72
     1
 10
266.5044058427124
 20
237.3247542504013
 11
266.5022921192541
 21
237.3233775016227
 72
     1
 10
266.5022921192541
 20
237.3233775016227
 11
266.500137388645
 21
237.3220597894095
 72
     1
 10
266.500137388645
 20
237.3220597894095
 11
266.4979434647282
 21
237.3208022230065
 72
     1
 10
266.4979434647282
 20
237.3208022230065
 11
266.4957121943396
 21
237.3196058610277
 72
     1
 10
266.4957121943396
 20
237.3196058610277
 11
266.4934454557531
 21
237.3184717105656
 72
     1
 10
266.4934454557531
 20
237.3184717105656
 11
266.4911451571
 21
237.3174007263433
 72
     1
 10
266.4911451571
 20
237.3174007263433
 11
266.4888132347619
 21
237.3163938099108
 72
     1
 10
266.4888132347619
 20
237.3163938099108
 11
266.4864516517411
 21
237.3154518088862
 72
     1
 10
266.4864516517411
 20
237.3154518088862
 11
266.4840623960084
 21
237.3145755162419
 72
     1
 10
266.4840623960084
 20
237.3145755162419
 11
266.4816474788292
 21
237.3137656696374
 72
     1
 10
266.4816474788292
 20
237.3137656696374
 11
266.4792089330707
 21
237.3130229507982
 72
     1
 10
266.4792089330707
 20
237.3130229507982
 11
266.4767488114903
 21
237.3123479849418
 72
     1
 10
266.4767488114903
 20
237.3123479849418
 11
266.4742691850082
 21
237.3117413402518
 72
     1
 10
266.4742691850082
 20
237.3117413402518
 11
266.4717721409633
 21
237.3112035273989
 72
     1
 10
266.4717721409633
 20
237.3112035273989
 11
266.469259781357
 21
237.3107349991119
 72
     1
 10
266.469259781357
 20
237.3107349991119
 11
266.466734221083
 21
237.3103361497959
 72
     1
 10
266.466734221083
 20
237.3103361497959
 11
266.4641975861473
 21
237.3100073152005
 72
     1
 10
266.4641975861473
 20
237.3100073152005
 11
266.4616520118785
 21
237.3097487721373
 72
     1
 10
266.4616520118785
 20
237.3097487721373
 11
266.4590996411303
 21
237.3095607382468
 72
     1
 10
266.4590996411303
 20
237.3095607382468
 11
266.4565426224777
 21
237.3094433718152
 72
     1
 10
266.4565426224777
 20
237.3094433718152
 11
266.4539831084084
 21
237.309396771641
 72
     1
 10
266.4539831084084
 20
237.309396771641
 11
266.4514232535103
 21
237.309420976952
 72
     1
 10
266.4514232535103
 20
237.309420976952
 11
266.4488652126587
 21
237.3095159673724
 72
     1
 10
266.4488652126587
 20
237.3095159673724
 11
266.4463111392015
 21
237.3096816629395
 72
     1
 10
266.4463111392015
 20
237.3096816629395
 11
266.4437631831471
 21
237.3099179241715
 72
     1
 10
266.4437631831471
 20
237.3099179241715
 11
266.4412234893541
 21
237.3102245521847
 72
     1
 10
266.4412234893541
 20
237.3102245521847
 11
266.4386941957262
 21
237.310601288861
 72
     1
 10
266.4386941957262
 20
237.310601288861
 11
266.436177431412
 21
237.311047817065
 72
     1
 10
266.436177431412
 20
237.311047817065
 11
266.4336753150132
 21
237.3115637609112
 72
     1
 10
266.4336753150132
 20
237.3115637609112
 11
266.4311899528008
 21
237.3121486860801
 72
     1
 10
266.4311899528008
 20
237.3121486860801
 11
266.4287234369423
 21
237.3128021001842
 72
     1
 10
266.4287234369423
 20
237.3128021001842
 11
266.4262778437405
 21
237.3135234531824
 72
     1
 10
266.4262778437405
 20
237.3135234531824
 11
266.4238552318852
 21
237.3143121378426
 72
     1
 10
266.4238552318852
 20
237.3143121378426
 11
266.4214576407211
 21
237.3151674902534
 72
     1
 10
266.4214576407211
 20
237.3151674902534
 11
266.4190870885303
 21
237.3160887903828
 72
     1
 10
266.4190870885303
 20
237.3160887903828
 11
266.4167455708337
 21
237.3170752626841
 72
     1
 10
266.4167455708337
 20
237.3170752626841
 11
266.4144350587108
 21
237.3181260767493
 72
     1
 10
266.4144350587108
 20
237.3181260767493
 11
266.4121574971414
 21
237.3192403480073
 72
     1
 10
266.4121574971414
 20
237.3192403480073
 11
266.409914803367
 21
237.3204171384694
 72
     1
 10
266.409914803367
 20
237.3204171384694
 11
266.4077088652779
 21
237.3216554575182
 72
     1
 10
266.4077088652779
 20
237.3216554575182
 11
266.4055415398234
 21
237.3229542627421
 72
     1
 10
266.4055415398234
 20
237.3229542627421
 11
266.4034146514491
 21
237.3243124608122
 72
     1
 10
266.4034146514491
 20
237.3243124608122
 11
266.4013299905605
 21
237.325728908403
 72
     1
 10
266.4013299905605
 20
237.325728908403
 11
266.3992893120165
 21
237.327202413155
 72
     1
 10
266.3992893120165
 20
237.327202413155
 11
266.3972943336517
 21
237.3287317346781
 72
     1
 10
266.3972943336517
 20
237.3287317346781
 11
266.3953467348305
 21
237.3303155855959
 72
     1
 10
266.3953467348305
 20
237.3303155855959
 11
266.3934481550334
 21
237.3319526326292
 72
     1
 10
266.3934481550334
 20
237.3319526326292
 11
266.34175599625
 21
237.3767748651223
 72
     1
 10
266.34175599625
 20
237.3767748651223
 11
266.2889764505444
 21
237.4204302554446
 72
     1
 10
266.2889764505444
 20
237.4204302554446
 11
266.2351384933623
 21
237.462894837221
 72
     1
 10
266.2351384933623
 20
237.462894837221
 11
266.1802716812067
 21
237.5041452978183
 72
     1
 10
266.1802716812067
 20
237.5041452978183
 11
266.1244061354119
 21
237.5441589911441
 72
     1
 10
266.1244061354119
 20
237.5441589911441
 11
266.0675725256069
 21
237.5829139500785
 72
     1
 10
266.0675725256069
 20
237.5829139500785
 11
266.0098020528784
 21
237.6203888985345
 72
     1
 10
266.0098020528784
 20
237.6203888985345
 11
265.9511264326414
 21
237.656563263138
 72
     1
 10
265.9511264326414
 20
237.656563263138
 11
265.8915778772278
 21
237.6914171845228
 72
     1
 10
265.8915778772278
 20
237.6914171845228
 11
265.8311890782023
 21
237.7249315282324
 72
     1
 10
265.8311890782023
 20
237.7249315282324
 11
265.7699931884151
 21
237.7570878952256
 72
     1
 10
265.7699931884151
 20
237.7570878952256
 11
265.7080238038012
 21
237.7878686319766
 72
     1
 10
265.7080238038012
 20
237.7878686319766
 11
265.6453149449363
 21
237.8172568401671
 72
     1
 10
265.6453149449363
 20
237.8172568401671
 11
265.5819010383603
 21
237.845236385963
 72
     1
 10
265.5819010383603
 20
237.845236385963
 11
265.5178168976775
 21
237.871791908872
 72
     1
 10
265.5178168976775
 20
237.871791908872
 11
265.4530977044435
 21
237.896908830176
 72
     1
 10
265.4530977044435
 20
237.896908830176
 11
265.387778988852
 21
237.920573360935
 72
     1
 10
265.387778988852
 20
237.920573360935
 11
265.3218966102282
 21
237.942772509557
 72
     1
 10
265.3218966102282
 20
237.942772509557
 11
265.2554867373429
 21
237.9634940889303
 72
     1
 10
265.2554867373429
 20
237.9634940889303
 11
265.1885858285557
 21
237.9827267231136
 72
     1
 10
265.1885858285557
 20
237.9827267231136
 11
265.1212306118003
 21
238.0004598535822
 72
     1
 10
265.1212306118003
 20
238.0004598535822
 11
265.0534580644209
 21
238.0166837450238
 72
     1
 10
265.0534580644209
 20
238.0166837450238
 11
264.9853053928719
 21
238.0313894906833
 72
     1
 10
264.9853053928719
 20
238.0313894906833
 11
264.9168100122923
 21
238.0445690172526
 72
     1
 10
264.9168100122923
 20
238.0445690172526
 11
264.8480095259649
 21
238.0562150893026
 72
     1
 10
264.8480095259649
 20
238.0562150893026
 11
264.7789417046725
 21
238.0663213132558
 72
     1
 10
264.7789417046725
 20
238.0663213132558
 11
264.709644465962
 21
238.0748821408955
 72
     1
 10
264.709644465962
 20
238.0748821408955
 11
264.6401558533284
 21
238.0818928724126
 72
     1
 10
264.6401558533284
 20
238.0818928724126
 11
264.570514015329
 21
238.0873496589851
 72
     1
 10
264.570514015329
 20
238.0873496589851
 11
264.5007571846402
 21
238.0912495048916
 72
     1
 10
264.5007571846402
 20
238.0912495048916
 11
264.4309236570685
 21
238.0935902691553
 72
     1
 10
264.4309236570685
 20
238.0935902691553
 11
264.3610517705259
 21
238.0943706667201
 97
        0
 92
        1
 93
       17
 72
     1
 10
263.9863974650932
 20
239.2900110186945
 11
263.9745166703461
 21
239.3055829175006
 72
     1
 10
263.9745166703461
 20
239.3055829175006
 11
263.9761316845696
 21
239.3035940025027
 72
     1
 10
263.9761316845696
 20
239.3035940025027
 11
263.9778083561741
 21
239.3016520091584
 72
     1
 10
263.9778083561741
 20
239.3016520091584
 11
263.979545185965
 21
239.2997586738995
 72
     1
 10
263.979545185965
 20
239.2997586738995
 11
263.9813406209573
 21
239.2979156896503
 72
     1
 10
263.9813406209573
 20
239.2979156896503
 11
263.9831930557643
 21
239.2961247043135
 72
     1
 10
263.9831930557643
 20
239.2961247043135
 11
263.9851008340329
 21
239.2943873192974
 72
     1
 10
263.9851008340329
 20
239.2943873192974
 11
263.9870622499249
 21
239.2927050880832
 72
     1
 10
263.9870622499249
 20
239.2927050880832
 11
263.9890755496415
 21
239.2910795148367
 72
     1
 10
263.9890755496415
 20
239.2910795148367
 11
263.9911389329927
 21
239.2895120530628
 72
     1
 10
263.9911389329927
 20
239.2895120530628
 11
263.9932505550058
 21
239.2880041043063
 72
     1
 10
263.9932505550058
 20
239.2880041043063
 11
263.9954085275758
 21
239.2865570168983
 72
     1
 10
263.9954085275758
 20
239.2865570168983
 11
263.9976109211532
 21
239.2851720847507
 72
     1
 10
263.9976109211532
 20
239.2851720847507
 11
263.9998557664695
 21
239.2838505461997
 72
     1
 10
263.9998557664695
 20
239.2838505461997
 11
264.0021410562983
 21
239.2825935828978
 72
     1
 10
264.0021410562983
 20
239.2825935828978
 11
264.0044647472493
 21
239.2814023187577
 72
     1
 10
264.0044647472493
 20
239.2814023187577
 11
263.9863974650932
 21
239.2900110186945
 97
        0
 92
        1
 93
       17
 72
     1
 10
263.9610839628197
 20
239.3231888745721
 11
263.9580579089455
 21
239.3422267505702
 72
     1
 10
263.9580579089455
 20
239.3422267505702
 11
263.9585310011815
 21
239.3397523319258
 72
     1
 10
263.9585310011815
 20
239.3397523319258
 11
263.9590814884352
 21
239.3372925039941
 72
     1
 10
263.9590814884352
 20
239.3372925039941
 11
263.9597088784888
 21
239.3348494662284
 72
     1
 10
263.9597088784888
 20
239.3348494662284
 11
263.9604126103622
 21
239.3324254030687
 72
     1
 10
263.9604126103622
 20
239.3324254030687
 11
263.961192054814
 21
239.3300224819893
 72
     1
 10
263.961192054814
 20
239.3300224819893
 11
263.9620465149046
 21
239.3276428515601
 72
     1
 10
263.9620465149046
 20
239.3276428515601
 11
263.9629752266192
 21
239.3252886395256
 72
     1
 10
263.9629752266192
 20
239.3252886395256
 11
263.9639773595509
 21
239.3229619509027
 72
     1
 10
263.9639773595509
 20
239.3229619509027
 11
263.9650520176435
 21
239.3206648660981
 72
     1
 10
263.9650520176435
 20
239.3206648660981
 11
263.9661982399922
 21
239.3183994390483
 72
     1
 10
263.9661982399922
 20
239.3183994390483
 11
263.9674150017033
 21
239.3161676953831
 72
     1
 10
263.9674150017033
 20
239.3161676953831
 11
263.9687012148102
 21
239.3139716306142
 72
     1
 10
263.9687012148102
 20
239.3139716306142
 11
263.9700557292466
 21
239.3118132083513
 72
     1
 10
263.9700557292466
 20
239.3118132083513
 11
263.9714773338745
 21
239.3096943585458
 72
     1
 10
263.9714773338745
 20
239.3096943585458
 11
263.9729647575673
 21
239.3076169757655
 72
     1
 10
263.9729647575673
 20
239.3076169757655
 11
263.9610839628197
 21
239.3231888745721
 97
        0
 92
        1
 93
       16
 72
     1
 10
264.0236463851973
 20
239.2722626504908
 11
264.0068247615963
 21
239.2802778189473
 72
     1
 10
264.0068247615963
 20
239.2802778189473
 11
264.0092189891342
 21
239.2792210889372
 72
     1
 10
264.0092189891342
 20
239.2792210889372
 11
264.0116452890666
 21
239.2782330736016
 72
     1
 10
264.0116452890666
 20
239.2782330736016
 11
264.0141014919192
 21
239.2773146563737
 72
     1
 10
264.0141014919192
 20
239.2773146563737
 11
264.0165854014804
 21
239.2764666584555
 72
     1
 10
264.0165854014804
 20
239.2764666584555
 11
264.0190947967644
 21
239.2756898380837
 72
     1
 10
264.0190947967644
 20
239.2756898380837
 11
264.0216274339973
 21
239.2749848898514
 72
     1
 10
264.0216274339973
 20
239.2749848898514
 11
264.0241810486239
 21
239.2743524440878
 72
     1
 10
264.0241810486239
 20
239.2743524440878
 11
264.0267533573314
 21
239.2737930662935
 72
     1
 10
264.0267533573314
 20
239.2737930662935
 11
264.0293420600922
 21
239.2733072566359
 72
     1
 10
264.0293420600922
 20
239.2733072566359
 11
264.0319448422199
 21
239.2728954495012
 72
     1
 10
264.0319448422199
 20
239.2728954495012
 11
264.0345593764388
 21
239.2725580131064
 72
     1
 10
264.0345593764388
 20
239.2725580131064
 11
264.0371833249655
 21
239.27229524917
 72
     1
 10
264.0371833249655
 20
239.27229524917
 11
264.0398143415982
 21
239.2721073926422
 72
     1
 10
264.0398143415982
 20
239.2721073926422
 11
264.0424500738159
 21
239.2719946114947
 72
     1
 10
264.0424500738159
 20
239.2719946114947
 11
264.0236463851973
 21
239.2722626504908
 97
        0
 92
        1
 93
       18
 72
     1
 10
263.9545285789751
 20
239.3644308979931
 11
263.9619950126967
 21
239.3843606840341
 72
     1
 10
263.9619950126967
 20
239.3843606840341
 11
263.961144875495
 21
239.3819796469395
 72
     1
 10
263.961144875495
 20
239.3819796469395
 11
263.9603697961174
 21
239.3795754430381
 72
     1
 10
263.9603697961174
 20
239.3795754430381
 11
263.9596704676006
 21
239.3771502220469
 72
     1
 10
263.9596704676006
 20
239.3771502220469
 11
263.9590475152485
 21
239.3747061524754
 72
     1
 10
263.9590475152485
 20
239.3747061524754
 11
263.9585014960736
 21
239.3722454196863
 72
     1
 10
263.9585014960736
 20
239.3722454196863
 11
263.9580328982984
 21
239.3697702239418
 72
     1
 10
263.9580328982984
 20
239.3697702239418
 11
263.9576421409191
 21
239.3672827784363
 72
     1
 10
263.9576421409191
 20
239.3672827784363
 11
263.9573295733313
 21
239.364785307317
 72
     1
 10
263.9573295733313
 20
239.364785307317
 11
263.957095475017
 21
239.3622800436959
 72
     1
 10
263.957095475017
 20
239.3622800436959
 11
263.9569400552949
 21
239.3597692276522
 72
     1
 10
263.9569400552949
 20
239.3597692276522
 11
263.9568634531336
 21
239.3572551042303
 72
     1
 10
263.9568634531336
 20
239.3572551042303
 11
263.9568657370267
 21
239.3547399214313
 72
     1
 10
263.9568657370267
 20
239.3547399214313
 11
263.9569469049322
 21
239.3522259282042
 72
     1
 10
263.9569469049322
 20
239.3522259282042
 11
263.9571068842737
 21
239.3497153724337
 72
     1
 10
263.9571068842737
 20
239.3497153724337
 11
263.957345532006
 21
239.3472104989314
 72
     1
 10
263.957345532006
 20
239.3472104989314
 11
263.9576626347424
 21
239.3447135474278
 72
     1
 10
263.9576626347424
 20
239.3447135474278
 11
263.9545285789751
 21
239.3644308979931
 97
        0
 75
     0
 76
     1
 98
        1
 10
579.6396667193471
 20
-4.856020925953089
1001
GENIUS_GENOBJ-N-HTC_13
1002
{
1000
OWNER
1000
GEN
1002
}
1001
GENIUS_GENODEF_13
1002
{
1000
HIER
1070
     0
1002
}
1002
{
1000
MANEDIT
1070
     0
1002
}
1002
{
1000
NOSEL
1070
     0
1002
}
1002
{
1000
BEHIND
1070
     0
1002
}
1002
{
1000
OTHER
1070
     0
1002
}
1002
{
1000
REACTOR
1002
}
1001
GENIUS_GENHATCH_13
1002
{
1000
DATA
1040
0.0
1042
-1.0
1000
SOLID
1070
     0
1011
265.768684677851
1021
238.4940948605838
1031
0.0
1002
}
1002
{
1000
UCS
1010
0.0
1020
0.0
1030
0.0
1010
1.0
1020
0.0
1030
0.0
1010
0.0
1020
1.0
1030
0.0
1002
}
  0
HATCH
  5
17F2
330
1F
100
AcDbEntity
  8
AM_8
100
AcDbHatch
 10
0.0
 20
0.0
 30
0.0
210
0.0
220
0.0
230
1.0
  2
SOLID
 70
     1
 71
     0
 91
        1
 92
        1
 93
       13
 72
     1
 10
264.975950421625
 20
242.9357319453377
 11
266.2862767445055
 21
239.2715901549016
 72
     3
 10
266.9543877340605
 20
239.4887195318097
 11
-0.7058677211290317
 21
-0.0000000000001072
 40
0.9533039403449558
 50
18.00364232974191
 51
121.2003905357988
 73
     1
 72
     1
 10
267.307321594625
 20
238.9059654258324
 11
267.3609895853243
 21
238.9355037666135
 72
     1
 10
267.3609895853243
 20
238.9355037666134
 11
266.5324966359592
 21
237.355892580258
 72
     3
 10
266.4535782255809
 20
237.3935091960478
 11
-0.0882334651411441
 21
-0.0000000000001238
 40
0.9533039403446695
 50
205.4848953057027
 51
314.3283709578452
 73
     0
 72
     3
 10
264.3610517705259
 20
235.2513407890809
 11
-2.982291121770177
 21
-0.0000000000001611
 40
0.9533039403449437
 50
225.6716290422236
 51
270.0000000423944
 73
     1
 72
     1
 10
264.3610517684221
 20
238.0943706667202
 11
264.3610517684221
 21
239.2719570065708
 72
     1
 10
264.3610517684221
 20
239.2719570065708
 11
264.6770153756764
 21
239.2719570065708
 72
     3
 10
264.6770153756764
 20
239.3560703165601
 11
-0.0882334651411374
 21
-0.0000000000001559
 40
0.9533039403447977
 50
89.99999999989872
 51
198.8019473213876
 73
     1
 72
     1
 10
264.7601085277498
 20
239.3843606843288
 11
264.4441449205508
 21
240.2277468642695
 72
     3
 10
264.3610517684221
 20
240.1994564966481
 11
-0.088233465141129
 21
-0.0000000000000001
 40
0.9533039403448885
 50
198.8019472188057
 51
270.0000000000386
 73
     1
 72
     1
 10
264.3610517684221
 20
240.2835698066383
 11
264.3610517684221
 21
243.3093958860585
 72
     3
 10
264.3610517705258
 20
242.6627748155155
 11
-0.6782947632724444
 21
-0.0000000000004216
 40
0.953303940344951
 50
89.99999981362943
 51
156.0632835197716
 73
     0
 97
        0
 75
     0
 76
     1
 98
        1
 10
579.6396667193471
 20
-4.856020925953089
1001
GENIUS_GENOBJ-N-HTC_13
1002
{
1000
OWNER
1000
GEN
1002
}
1001
GENIUS_GENODEF_13
1002
{
1000
HIER
1070
     0
1002
}
1002
{
1000
MANEDIT
1070
     0
1002
}
1002
{
1000
NOSEL
1070
     0
1002
}
1002
{
1000
BEHIND
1070
     0
1002
}
1002
{
1000
OTHER
1070
     0
1002
}
1002
{
1000
REACTOR
1002
}
1001
GENIUS_GENHATCH_13
1002
{
1000
DATA
1040
0.0
1042
-1.0
1000
SOLID
1070
     0
1011
264.7392856026995
1021
241.9907140382301
1031
0.0
1002
}
1002
{
1000
UCS
1010
0.0
1020
0.0
1030
0.0
1010
1.0
1020
0.0
1030
0.0
1010
0.0
1020
1.0
1030
0.0
1002
}
  0
LINE
  5
17F3
330
1F
100
AcDbEntity
  8
0
100
AcDbLine
 10
269.3610517684222
 20
248.5060537741518
 30
0.0
 11
264.3610517684221
 21
248.5060537741518
 31
0.0
  0
LINE
  5
17F4
330
1F
100
AcDbEntity
  8
0
100
AcDbLine
 10
287.7437376706019
 20
226.306053774152
 30
0.0
 11
289.368737670602
 21
229.1206363364513
 31
0.0
  0
LINE
  5
17F5
330
1F
100
AcDbEntity
  8
0
100
AcDbLine
 10
289.2327163193397
 20
229.871434368983
 30
0.0
 11
286.0966233535719
 21
232.4531680911818
 31
0.0
  0
LINE
  5
17F6
330
1F
100
AcDbEntity
  8
0
100
AcDbLine
 10
289.368737670602
 20
229.1206363364513
 30
0.0
 11
289.2327163193397
 21
229.871434368983
 31
0.0
1001
GENIUS_GENFIL_13
1070
     0
1040
0.4999999999998895
1040
0.4999999999998726
1040
0.4999999999998895
1040
40.26883889599703
1000
~T
1001
GENIUS_GENOREF_13
1005
1814
  0
LINE
  5
17F7
330
1F
100
AcDbEntity
  8
0
100
AcDbLine
 10
286.0966233535719
 20
232.4531680911818
 30
0.0
 11
283.8466233535719
 21
228.5560537741519
 31
0.0
  0
LINE
  5
17F8
330
1F
100
AcDbEntity
  8
0
100
AcDbLine
 10
285.7216233535719
 20
231.8036490383436
 30
0.0
 11
282.199509036542
 21
234.7031680911818
 31
0.0
  0
LINE
  5
17F9
330
1F
100
AcDbEntity
  8
0
100
AcDbLine
 10
282.199509036542
 20
234.7031680911818
 30
0.0
 11
279.9495090365419
 21
230.8060537741519
 31
0.0
  0
LINE
  5
17FA
330
1F
100
AcDbEntity
  8
0
100
AcDbLine
 10
281.824509036542
 20
234.0536490383436
 30
0.0
 11
278.3023947195119
 21
236.9531680911819
 31
0.0
  0
LINE
  5
17FB
330
1F
100
AcDbEntity
  8
0
100
AcDbLine
 10
278.3023947195119
 20
236.9531680911819
 30
0.0
 11
276.052394719512
 21
233.0560537741518
 31
0.0
  0
LINE
  5
17FC
330
1F
100
AcDbEntity
  8
0
100
AcDbLine
 10
277.9273947195119
 20
236.3036490383436
 30
0.0
 11
274.405280402482
 21
239.2031680911819
 31
0.0
  0
LINE
  5
17FD
330
1F
100
AcDbEntity
  8
0
100
AcDbLine
 10
272.155280402482
 20
235.3060537741519
 30
0.0
 11
274.5052804024819
 21
239.3763731719388
 31
0.0
  0
LINE
  5
17FE
330
1F
100
AcDbEntity
  8
0
100
AcDbLine
 10
274.3954727813466
 20
239.7861807930741
 30
0.0
 11
269.3610517684221
 21
242.6928051200999
 31
0.0
  0
LINE
  5
17FF
330
1F
100
AcDbEntity
  8
0
100
AcDbLine
 10
274.5052804024819
 20
239.3763731719388
 30
0.0
 11
274.3954727813466
 21
239.7861807930741
 31
0.0
1001
GENIUS_GENFIL_13
1070
     0
1040
0.300000000000022
1040
0.2999999999999443
1040
0.300000000000022
1040
44.99999999996366
1000
~T
1001
GENIUS_GENOREF_13
1005
1813
  0
LINE
  5
1800
330
1F
100
AcDbEntity
  8
0
100
AcDbLine
 10
289.2327163193397
 20
229.871434368983
 30
0.0
 11
287.3166165725134
 21
226.5526522551099
 31
0.0
  0
LINE
  5
1801
330
1F
100
AcDbEntity
  8
0
100
AcDbLine
 10
274.3954727813466
 20
239.7861807930741
 30
0.0
 11
271.8954727813466
 21
235.4560537741519
 31
0.0
  0
LINE
  5
1802
330
1F
100
AcDbEntity
  8
0
100
AcDbLine
 10
287.7437376706017
 20
226.3060537741517
 30
0.0
 11
286.1187376706018
 21
223.4914712118522
 31
0.0
  0
LINE
  5
1803
330
1F
100
AcDbEntity
  8
0
100
AcDbLine
 10
285.4005168256867
 20
223.2338701412366
 30
0.0
 11
281.6902675225547
 21
224.6238571308665
 31
0.0
  0
LINE
  5
1804
330
1F
100
AcDbEntity
  8
0
100
AcDbLine
 10
286.1187376706018
 20
223.4914712118522
 30
0.0
 11
285.4005168256867
 21
223.2338701412366
 31
0.0
1001
GENIUS_GENFIL_13
1070
     0
1040
0.4999999999999432
1040
0.4999999999999211
1040
0.4999999999999432
1040
40.26883889598773
1002
{
1002
}
  0
LINE
  5
1805
330
1F
100
AcDbEntity
  8
0
100
AcDbLine
 10
281.6466233535717
 20
224.7455419975002
 30
0.0
 11
283.8466233535718
 21
228.5560537741518
 31
0.0
  0
LINE
  5
1806
330
1F
100
AcDbEntity
  8
0
100
AcDbLine
 10
281.6902675225547
 20
224.6238571308665
 30
0.0
 11
281.6466233535717
 21
224.7455419975002
 31
0.0
  0
LINE
  5
1807
330
1F
100
AcDbEntity
  8
0
100
AcDbLine
 10
281.9716233535717
 20
225.3084585099601
 30
0.0
 11
277.7931532055248
 21
226.8738571308666
 31
0.0
  0
LINE
  5
1808
330
1F
100
AcDbEntity
  8
0
100
AcDbLine
 10
277.7495090365418
 20
226.9955419975003
 30
0.0
 11
279.9495090365419
 21
230.8060537741519
 31
0.0
  0
LINE
  5
1809
330
1F
100
AcDbEntity
  8
0
100
AcDbLine
 10
277.7931532055248
 20
226.8738571308666
 30
0.0
 11
277.7495090365418
 21
226.9955419975003
 31
0.0
  0
LINE
  5
180A
330
1F
100
AcDbEntity
  8
0
100
AcDbLine
 10
278.0745090365418
 20
227.5584585099601
 30
0.0
 11
273.8960388884948
 21
229.1238571308667
 31
0.0
  0
LINE
  5
180B
330
1F
100
AcDbEntity
  8
0
100
AcDbLine
 10
273.8523947195119
 20
229.2455419975005
 30
0.0
 11
276.0523947195121
 21
233.0560537741519
 31
0.0
  0
LINE
  5
180C
330
1F
100
AcDbEntity
  8
0
100
AcDbLine
 10
273.8960388884948
 20
229.1238571308667
 30
0.0
 11
273.8523947195119
 21
229.2455419975005
 31
0.0
  0
LINE
  5
180D
330
1F
100
AcDbEntity
  8
0
100
AcDbLine
 10
274.1773947195118
 20
229.8084585099604
 30
0.0
 11
269.905280402482
 21
231.4089394571221
 31
0.0
  0
LINE
  5
180E
330
1F
100
AcDbEntity
  8
0
100
AcDbLine
 10
272.155280402482
 20
235.3060537741519
 30
0.0
 11
269.8052804024818
 21
231.2357343763652
 31
0.0
  0
LINE
  5
180F
330
1F
100
AcDbEntity
  8
0
100
AcDbLine
 10
269.3954727813466
 20
231.1259267552299
 30
0.0
 11
264.3610517684221
 21
234.0325510822558
 31
0.0
  0
LINE
  5
1810
330
1F
100
AcDbEntity
  8
0
100
AcDbLine
 10
269.8052804024818
 20
231.2357343763652
 30
0.0
 11
269.3954727813466
 21
231.1259267552299
 31
0.0
1001
GENIUS_GENFIL_13
1070
     0
1040
0.3
1040
0.3
1040
20.0
1040
0.0
1002
{
1002
}
1001
GENIUS_GENODEF_13
1002
{
1000
HIER
1070
     0
1002
}
1002
{
1000
MANEDIT
1070
     0
1002
}
1002
{
1000
NOSEL
1070
     0
1002
}
1002
{
1000
BEHIND
1070
     0
1002
}
1002
{
1000
OTHER
1070
     0
1002
}
1002
{
1000
REACTOR
1002
}
1001
GENIUS_GENOBJ-N-CHA_13
1002
{
1000
OWNER
1000
GEN
1002
}
  0
LINE
  5
1811
330
1F
100
AcDbEntity
  8
0
100
AcDbLine
 10
285.4005168256867
 20
223.2338701412366
 30
0.0
 11
287.3166165725132
 21
226.5526522551096
 31
0.0
  0
LINE
  5
1812
330
1F
100
AcDbEntity
  8
0
100
AcDbLine
 10
269.3954727813466
 20
231.1259267552299
 30
0.0
 11
271.8954727813466
 21
235.456053774152
 31
0.0
  0
POINT
  5
1813
330
1F
100
AcDbEntity
  8
0
 60
     1
100
AcDbPoint
 10
658.2093884046833
 20
-43.63702277079926
 30
0.0
 50
180.0
1001
GENIUS_GENOLIS_13
1002
{
1000
ENT
1005
0
1005
17FF
1002
}
1001
GENIUS_GENOENT_13
1002
{
1000
MYREF
1005
1813
1002
}
1002
{
1000
GRP
1005
0
1002
}
1001
GENIUS_GENOBJ-N-CHA_13
1002
{
1000
OWNER
1000
GEN
1002
}
1001
GENIUS_GENODEF_13
1002
{
1000
HIER
1070
     1
1002
}
1002
{
1000
MANEDIT
1070
     1
1002
}
1002
{
1000
NOSEL
1070
     0
1002
}
1002
{
1000
BEHIND
1070
     0
1002
}
1002
{
1000
OTHER
1070
     0
1002
}
1002
{
1000
REACTOR
1002
}
  0
POINT
  5
1814
330
1F
100
AcDbEntity
  8
0
 60
     1
100
AcDbPoint
 10
658.2093884046833
 20
-43.63702277079926
 30
0.0
 50
180.0
1001
GENIUS_GENOLIS_13
1002
{
1000
ENT
1005
0
1005
17F6
1002
}
1001
GENIUS_GENOENT_13
1002
{
1000
MYREF
1005
1814
1002
}
1002
{
1000
GRP
1005
0
1002
}
1001
GENIUS_GENOBJ-N-CHA_13
1002
{
1000
OWNER
1000
GEN
1002
}
1001
GENIUS_GENODEF_13
1002
{
1000
HIER
1070
     1
1002
}
1002
{
1000
MANEDIT
1070
     1
1002
}
1002
{
1000
NOSEL
1070
     0
1002
}
1002
{
1000
BEHIND
1070
     0
1002
}
1002
{
1000
OTHER
1070
     0
1002
}
1002
{
1000
REACTOR
1002
}
  0
MTEXT
  5
1822
330
1F
100
AcDbEntity
  8
AM_0
100
AcDbMText
 10
279.8015864909038
 20
243.30920058169
 30
0.0
 40
1.6
 41
18.37589680926408
 71
     1
 72
     5
  1
{\fMS Gothic|b0|i0|c128|p49;三方接手 HY-3009}
 73
     1
 44
1.0
1001
ACAD
1000
ACAD_MTEXT_COLUMN_INFO_BEGIN
1070
    75
1070
     2
1070
    79
1070
     0
1070
    76
1070
     1
1070
    78
1070
     0
1070
    48
1040
18.37589680926408
1070
    49
1040
7.5
1070
    50
1070
     1
1040
2.307632744168917
1000
ACAD_MTEXT_COLUMN_INFO_END
1000
MTEXTBEGIN
1070
    73
1070
     1
1070
    44
1040
1.0
1070
    74
1070
     0
1000
MTEXTEND
  0
ENDSEC
  0
SECTION
  2
OBJECTS
  0
DICTIONARY
  5
C
330
0
100
AcDbDictionary
281
     1
  3
ACAD_2007HEADERVARS_RT
350
18C7
  3
ACAD_COLOR
350
247
  3
ACAD_GROUP
350
D
  3
ACAD_LAYOUT
350
1A
  3
ACAD_MATERIAL
350
232
  3
ACAD_MLEADERSTYLE
350
A59
  3
ACAD_MLINESTYLE
350
17
  3
ACAD_PLOTSETTINGS
350
19
  3
ACAD_PLOTSTYLENAME
350
E
  3
ACAD_SCALELIST
350
A47
  3
ACAD_TABLESTYLE
350
248
  3
ACAD_VISUALSTYLE
350
236
  3
ACDB_RECOMPOSE_DATA
350
18C5
  3
AcDbVariableDictionary
350
34
  3
AcmDictionary
350
43
  3
AMG
350
2B
  3
AMGSNAPSETTINGS
350
74
  3
DWGPROPS
350
18C6
  0
DICTIONARY
  5
95D
330
8
100
AcDbDictionary
280
     1
281
     1
  0
DICTIONARY
  5
AFE
330
2
100
AcDbDictionary
280
     1
281
     1
  3
ACAD_LAYERSTATES
360
AFF
  0
DICTIONARY
  5
B1D
330
10
100
AcDbDictionary
280
     1
281
     1
  3
ADSK_XREC_LAYER_RECONCILED
360
B1E
  0
DICTIONARY
  5
B1F
330
59
100
AcDbDictionary
280
     1
281
     1
  3
ADSK_XREC_LAYER_RECONCILED
360
B20
  0
DICTIONARY
  5
B21
330
5A
100
AcDbDictionary
280
     1
281
     1
  3
ADSK_XREC_LAYER_RECONCILED
360
B22
  0
DICTIONARY
  5
B23
330
31B
100
AcDbDictionary
280
     1
281
     1
  3
ADSK_XREC_LAYER_RECONCILED
360
B24
  0
DICTIONARY
  5
B25
330
443
100
AcDbDictionary
280
     1
281
     1
  3
ADSK_XREC_LAYER_RECONCILED
360
B26
  0
DICTIONARY
  5
B27
330
444
100
AcDbDictionary
280
     1
281
     1
  3
ADSK_XREC_LAYER_RECONCILED
360
B28
  0
DICTIONARY
  5
B29
330
7A4
100
AcDbDictionary
280
     1
281
     1
  3
ADSK_XREC_LAYER_RECONCILED
360
B2A
  0
DICTIONARY
  5
B2B
330
84A
100
AcDbDictionary
280
     1
281
     1
  3
ADSK_XREC_LAYER_RECONCILED
360
B2C
  0
DICTIONARY
  5
B2D
330
84B
100
AcDbDictionary
280
     1
281
     1
  3
ADSK_XREC_LAYER_RECONCILED
360
B2E
  0
DICTIONARY
  5
B2F
330
84C
100
AcDbDictionary
280
     1
281
     1
  3
ADSK_XREC_LAYER_RECONCILED
360
B30
  0
DICTIONARY
  5
B31
330
84D
100
AcDbDictionary
280
     1
281
     1
  3
ADSK_XREC_LAYER_RECONCILED
360
B32
  0
DICTIONARY
  5
B33
330
AB7
100
AcDbDictionary
280
     1
281
     1
  3
ADSK_XREC_LAYER_RECONCILED
360
B34
  0
DICTIONARY
  5
C9
330
1F
100
AcDbDictionary
280
     1
281
     1
  3
ACAD_SORTENTS
360
AB9
  0
DICTIONARY
  5
7BC
330
7AE
100
AcDbDictionary
280
     1
281
     1
  0
DICTIONARY
  5
7F2
330
7F1
100
AcDbDictionary
280
     1
281
     1
  0
DICTIONARY
  5
7F7
330
7F6
100
AcDbDictionary
280
     1
281
     1
  0
DICTIONARY
  5
82F
330
7FC
100
AcDbDictionary
280
     1
281
     1
  0
DICTIONARY
  5
18C7
102
{ACAD_REACTORS
330
C
102
}
330
C
100
AcDbDictionary
281
     1
  3
DIMARCSYM
350
18C8
  3
DIMLTEX1
350
18CA
  3
DIMLTEX2
350
18CB
  3
DIMLTYPE
350
18C9
  0
DICTIONARY
  5
247
102
{ACAD_REACTORS
330
C
102
}
330
C
100
AcDbDictionary
281
     1
  0
DICTIONARY
  5
D
102
{ACAD_REACTORS
330
C
102
}
330
C
100
AcDbDictionary
281
     1
  0
DICTIONARY
  5
1A
102
{ACAD_REACTORS
330
C
102
}
330
C
100
AcDbDictionary
281
     1
  3
Model
350
22
  3
ﾚｲｱｳﾄ1
350
1E
  3
ﾚｲｱｳﾄ2
350
26
  0
DICTIONARY
  5
232
102
{ACAD_REACTORS
330
C
102
}
330
C
100
AcDbDictionary
281
     1
  3
ByBlock
350
234
  3
ByLayer
350
233
  3
Global
350
235
  0
DICTIONARY
  5
A59
102
{ACAD_REACTORS
330
C
102
}
330
C
100
AcDbDictionary
281
     1
  3
Standard
350
A5A
  0
DICTIONARY
  5
17
102
{ACAD_REACTORS
330
C
102
}
330
C
100
AcDbDictionary
281
     1
  3
Standard
350
18
  0
DICTIONARY
  5
19
102
{ACAD_REACTORS
330
C
102
}
330
C
100
AcDbDictionary
281
     1
  0
ACDBDICTIONARYWDFLT
  5
E
102
{ACAD_REACTORS
330
C
102
}
330
C
100
AcDbDictionary
281
     1
  3
Normal
350
F
100
AcDbDictionaryWithDefault
340
F
  0
DICTIONARY
  5
A47
102
{ACAD_REACTORS
330
C
102
}
330
C
100
AcDbDictionary
281
     1
  3
A0
350
A48
  3
A1
350
A49
  3
A2
350
A4A
  3
A3
350
A4B
  3
A4
350
A4C
  3
A5
350
A4D
  3
A6
350
A4E
  3
A7
350
A4F
  3
A8
350
A50
  3
A9
350
A51
  3
B0
350
A52
  3
B1
350
A53
  3
B2
350
A54
  3
B3
350
A55
  3
B4
350
A56
  3
B5
350
A57
  3
B6
350
A58
  0
DICTIONARY
  5
248
102
{ACAD_REACTORS
330
C
102
}
330
C
100
AcDbDictionary
281
     1
  3
Standard
350
249
  0
DICTIONARY
  5
236
102
{ACAD_REACTORS
330
C
102
}
330
C
100
AcDbDictionary
281
     1
  3
2dWireframe
350
23C
  3
3D Hidden
350
23E
  3
3dWireframe
350
23D
  3
Basic
350
23B
  3
Brighten
350
242
  3
ColorChange
350
246
  3
Conceptual
350
23F
  3
Dim
350
241
  3
EdgeColorOff
350
A46
  3
Facepattern
350
245
  3
Flat
350
237
  3
FlatWithEdges
350
238
  3
Gouraud
350
239
  3
GouraudWithEdges
350
23A
  3
Hidden
350
A3E
  3
JitterOff
350
A44
  3
Linepattern
350
244
  3
OverhangOff
350
A45
  3
Realistic
350
240
  3
Shaded
350
A43
  3
Shaded with edges
350
A42
  3
Shades of Gray
350
A3F
  3
Sketchy
350
A40
  3
Thicken
350
243
  3
Wireframe
350
A3D
  3
X-Ray
350
A41
  0
XRECORD
  5
18C5
102
{ACAD_REACTORS
330
C
102
}
330
C
100
AcDbXrecord
280
     1
 90
        1
330
249
330
1822
  0
DICTIONARY
  5
34
102
{ACAD_REACTORS
330
C
102
}
330
C
100
AcDbDictionary
281
     1
  3
CANNOSCALE
350
B9C
  3
CMLEADERSTYLE
350
B9B
  3
CTABLESTYLE
350
2C0
  3
DIMASSOC
350
18C3
  3
INDEXCTL
350
35
  3
SORTENTS
350
18C1
  3
XCLIPFRAME
350
18C2
  0
DICTIONARY
  5
43
102
{ACAD_REACTORS
330
C
102
}
330
C
100
AcDbDictionary
281
     1
  3
AcmStdDictionary
350
15F
  3
AMDTSECTSYM_ARROWCOLOR
350
2A8
  0
DICTIONARY
  5
2B
102
{ACAD_REACTORS
330
C
102
}
330
C
100
AcDbDictionary
281
     1
  0
DICTIONARY
  5
74
102
{ACAD_REACTORS
330
C
102
}
330
C
100
AcDbDictionary
281
     1
  0
XRECORD
  5
18C6
102
{ACAD_REACTORS
330
C
102
}
330
C
100
AcDbXrecord
280
     1
  1
DWGPROPS COOKIE
  2

  3

  4

  6

  7

  8
user
  9

300
AmdtFileType=84
301
=
302
=
303
=
304
=
305
=
306
=
307
=
308
=
309
=
 40
0.1199442939814815
 41
2455387.618067129
 42
2455764.551634468
  1

 90
        1
  0
DICTIONARY
  5
AFF
102
{ACAD_REACTORS
330
AFE
102
}
330
AFE
100
AcDbDictionary
281
     1
  0
XRECORD
  5
B1E
102
{ACAD_REACTORS
330
B1D
102
}
330
B1D
100
AcDbXrecord
280
     1
290
     1
  0
XRECORD
  5
B20
102
{ACAD_REACTORS
330
B1F
102
}
330
B1F
100
AcDbXrecord
280
     1
290
     1
  0
XRECORD
  5
B22
102
{ACAD_REACTORS
330
B21
102
}
330
B21
100
AcDbXrecord
280
     1
290
     1
  0
XRECORD
  5
B24
102
{ACAD_REACTORS
330
B23
102
}
330
B23
100
AcDbXrecord
280
     1
290
     1
  0
XRECORD
  5
B26
102
{ACAD_REACTORS
330
B25
102
}
330
B25
100
AcDbXrecord
280
     1
290
     1
  0
XRECORD
  5
B28
102
{ACAD_REACTORS
330
B27
102
}
330
B27
100
AcDbXrecord
280
     1
290
     1
  0
XRECORD
  5
B2A
102
{ACAD_REACTORS
330
B29
102
}
330
B29
100
AcDbXrecord
280
     1
290
     1
  0
XRECORD
  5
B2C
102
{ACAD_REACTORS
330
B2B
102
}
330
B2B
100
AcDbXrecord
280
     1
290
     1
  0
XRECORD
  5
B2E
102
{ACAD_REACTORS
330
B2D
102
}
330
B2D
100
AcDbXrecord
280
     1
290
     1
  0
XRECORD
  5
B30
102
{ACAD_REACTORS
330
B2F
102
}
330
B2F
100
AcDbXrecord
280
     1
290
     1
  0
XRECORD
  5
B32
102
{ACAD_REACTORS
330
B31
102
}
330
B31
100
AcDbXrecord
280
     1
290
     1
  0
XRECORD
  5
B34
102
{ACAD_REACTORS
330
B33
102
}
330
B33
100
AcDbXrecord
280
     1
290
     1
  0
SORTENTSTABLE
  5
AB9
102
{ACAD_REACTORS
330
C9
102
}
330
C9
100
AcDbSortentsTable
330
1F
331
113F
  5
113F
331
1157
  5
1157
331
115F
  5
115F
331
1167
  5
1167
331
1118
  5
1118
331
116F
  5
1170
331
1120
  5
1120
331
1177
  5
117A
331
12E5
  5
1171
331
1130
  5
1130
331
1138
  5
1138
331
1158
  5
1158
331
1160
  5
1160
331
1119
  5
1119
331
1168
  5
1168
331
1170
  5
1172
331
1121
  5
1121
331
12E6
  5
1174
331
1131
  5
1131
331
1159
  5
1159
331
1161
  5
1161
331
111A
  5
111A
331
1169
  5
1169
331
1171
  5
1173
331
1132
  5
1132
331
113A
  5
113A
331
1162
  5
1162
331
111B
  5
111B
331
116A
  5
116A
331
1172
  5
1175
331
1133
  5
1133
331
113B
  5
113B
331
1163
  5
1163
331
111C
  5
111C
331
116B
  5
116B
331
1173
  5
1176
331
1134
  5
1134
331
113C
  5
113C
331
115C
  5
115C
331
1164
  5
1164
331
111D
  5
111D
331
116C
  5
116C
331
1174
  5
1177
331
1135
  5
1135
331
115D
  5
115D
331
1165
  5
1165
331
1116
  5
1116
331
111E
  5
111E
331
116D
  5
116D
331
1175
  5
1178
331
112E
  5
112E
331
113E
  5
113E
331
115E
  5
115E
331
1166
  5
1166
331
1117
  5
1117
331
111F
  5
111F
331
116E
  5
116F
331
1176
  5
1179
331
112F
  5
112F
331
12E4
  5
116E
331
1137
  5
1137
  0
XRECORD
  5
18C8
102
{ACAD_REACTORS
330
18C7
102
}
330
18C7
100
AcDbXrecord
280
     1
 70
     1
  0
XRECORD
  5
18CA
102
{ACAD_REACTORS
330
18C7
102
}
330
18C7
100
AcDbXrecord
280
     1
340
14
  0
XRECORD
  5
18CB
102
{ACAD_REACTORS
330
18C7
102
}
330
18C7
100
AcDbXrecord
280
     1
340
14
  0
XRECORD
  5
18C9
102
{ACAD_REACTORS
330
18C7
102
}
330
18C7
100
AcDbXrecord
280
     1
340
14
  0
LAYOUT
  5
22
102
{ACAD_XDICTIONARY
360
B4B
102
}
102
{ACAD_REACTORS
330
1A
102
}
330
1A
100
AcDbPlotSettings
  1

  2
RICOH imagio MP 5000 RPCS
  4
A4
  6
AM_VIEW1
 40
5.873749732971191
 41
5.873747825622558
 42
5.873748779296875
 43
5.873748779296875
 44
209.9733276367187
 45
296.9259948730469
 46
-5.89531890780907
 47
-5.925212306542164
 48
0.0
 49
0.0
140
0.0
141
0.0
142
2.0
143
1.0
 70
 11940
 72
     1
 73
     1
 74
     1
  7
IMAGIO.ctb
 75
    27
147
2.0
148
-213.504845360541
149
-192.4137343147686
100
AcDbLayout
  1
Model
 70
     1
 71
     0
 10
0.0
 20
0.0
 11
12.0
 21
9.0
 12
0.0
 22
0.0
 32
0.0
 14
0.0
 24
0.0
 34
0.0
 15
0.0
 25
0.0
 35
0.0
146
0.0
 13
0.0
 23
0.0
 33
0.0
 16
1.0
 26
0.0
 36
0.0
 17
0.0
 27
1.0
 37
0.0
 76
     0
330
1F
331
230
1001
ACAD_PSEXT
1000
RICOH imagio MP 5000 RPCS
1000
RICOH imagio MP 5000 RPCS
1000
IP_192.168.1.151
1000
RPCS Driver (Windows 2000/XP/Server 2003/Vista)
1070
     0
  0
LAYOUT
  5
1E
102
{ACAD_XDICTIONARY
360
18CC
102
}
102
{ACAD_REACTORS
330
1A
102
}
330
1A
100
AcDbPlotSettings
  1

  2
MF2730
  4

  6

 40
0.0
 41
0.0
 42
0.0
 43
0.0
 44
0.0
 45
0.0
 46
0.0
 47
0.0
 48
0.0
 49
0.0
140
0.0
141
0.0
142
1.0
143
1.0
 70
   688
 72
     0
 73
     0
 74
     5
  7
IMAGIO.ctb
 75
    16
147
1.0
148
0.0
149
0.0
100
AcDbLayout
  1
ﾚｲｱｳﾄ1
 70
     1
 71
     1
 10
0.0
 20
0.0
 11
420.0
 21
297.0
 12
0.0
 22
0.0
 32
0.0
 14
1.000000000000000E+20
 24
1.000000000000000E+20
 34
1.000000000000000E+20
 15
-1.000000000000000E+20
 25
-1.000000000000000E+20
 35
-1.000000000000000E+20
146
0.0
 13
0.0
 23
0.0
 33
0.0
 16
1.0
 26
0.0
 36
0.0
 17
0.0
 27
1.0
 37
0.0
 76
     0
330
1B
  0
LAYOUT
  5
26
102
{ACAD_XDICTIONARY
360
18CF
102
}
102
{ACAD_REACTORS
330
1A
102
}
330
1A
100
AcDbPlotSettings
  1

  2
MF2730
  4

  6

 40
0.0
 41
0.0
 42
0.0
 43
0.0
 44
0.0
 45
0.0
 46
0.0
 47
0.0
 48
0.0
 49
0.0
140
0.0
141
0.0
142
1.0
143
1.0
 70
   688
 72
     0
 73
     0
 74
     5
  7
IMAGIO.ctb
 75
    16
147
1.0
148
0.0
149
0.0
100
AcDbLayout
  1
ﾚｲｱｳﾄ2
 70
     1
 71
     2
 10
0.0
 20
0.0
 11
12.0
 21
9.0
 12
0.0
 22
0.0
 32
0.0
 14
0.0
 24
0.0
 34
0.0
 15
0.0
 25
0.0
 35
0.0
146
0.0
 13
0.0
 23
0.0
 33
0.0
 16
1.0
 26
0.0
 36
0.0
 17
0.0
 27
1.0
 37
0.0
 76
     0
330
23
  0
MATERIAL
  5
234
102
{ACAD_XDICTIONARY
360
18D3
102
}
102
{ACAD_REACTORS
330
232
102
}
330
232
100
AcDbMaterial
  1
ByBlock
 73
     1
 78
     1
172
     1
176
     1
270
     1
274
     1
  0
MATERIAL
  5
233
102
{ACAD_XDICTIONARY
360
18D1
102
}
102
{ACAD_REACTORS
330
232
102
}
330
232
100
AcDbMaterial
  1
ByLayer
 73
     1
 78
     1
172
     1
176
     1
270
     1
274
     1
  0
MATERIAL
  5
235
102
{ACAD_XDICTIONARY
360
18D5
102
}
102
{ACAD_REACTORS
330
232
102
}
330
232
100
AcDbMaterial
  1
Global
 73
     1
 78
     1
172
     1
176
     1
270
     1
274
     1
  0
MLEADERSTYLE
  5
A5A
102
{ACAD_REACTORS
330
A59
102
}
330
A59
100
AcDbMLeaderStyle
170
     2
171
     1
172
     0
 90
        2
 40
0.0
 41
0.0
173
     1
 91
-1056964608
340
14
 92
       -2
290
     1
 42
2.0
291
     1
 43
0.36
  3
Standard
 44
4.0
300

342
11
174
     1
178
     6
175
     1
176
     0
 93
-1056964608
 45
4.0
292
     0
297
     0
 46
4.0
 94
-1056964608
 47
1.0
 49
1.0
140
1.0
293
     1
141
0.0
294
     1
177
     0
142
1.0
295
     0
296
     0
143
0.125
1001
ACAD_MLEADERVER
1070
     2
  0
MLINESTYLE
  5
18
102
{ACAD_REACTORS
330
17
102
}
330
17
100
AcDbMlineStyle
  2
STANDARD
 70
     0
  3

 62
   256
 51
90.0
 52
90.0
 71
     2
 49
0.5
 62
   256
  6
BYLAYER
 49
-0.5
 62
   256
  6
BYLAYER
  0
ACDBPLACEHOLDER
  5
F
102
{ACAD_REACTORS
330
E
102
}
330
E
  0
SCALE
  5
A48
102
{ACAD_REACTORS
330
A47
102
}
330
A47
100
AcDbScale
 70
     0
300
1:1
140
1.0
141
1.0
290
     1
  0
SCALE
  5
A49
102
{ACAD_REACTORS
330
A47
102
}
330
A47
100
AcDbScale
 70
     0
300
1:2
140
1.0
141
2.0
290
     0
  0
SCALE
  5
A4A
102
{ACAD_REACTORS
330
A47
102
}
330
A47
100
AcDbScale
 70
     0
300
1:4
140
1.0
141
4.0
290
     0
  0
SCALE
  5
A4B
102
{ACAD_REACTORS
330
A47
102
}
330
A47
100
AcDbScale
 70
     0
300
1:5
140
1.0
141
5.0
290
     0
  0
SCALE
  5
A4C
102
{ACAD_REACTORS
330
A47
102
}
330
A47
100
AcDbScale
 70
     0
300
1:8
140
1.0
141
8.0
290
     0
  0
SCALE
  5
A4D
102
{ACAD_REACTORS
330
A47
102
}
330
A47
100
AcDbScale
 70
     0
300
1:10
140
1.0
141
10.0
290
     0
  0
SCALE
  5
A4E
102
{ACAD_REACTORS
330
A47
102
}
330
A47
100
AcDbScale
 70
     0
300
1:16
140
1.0
141
16.0
290
     0
  0
SCALE
  5
A4F
102
{ACAD_REACTORS
330
A47
102
}
330
A47
100
AcDbScale
 70
     0
300
1:20
140
1.0
141
20.0
290
     0
  0
SCALE
  5
A50
102
{ACAD_REACTORS
330
A47
102
}
330
A47
100
AcDbScale
 70
     0
300
1:30
140
1.0
141
30.0
290
     0
  0
SCALE
  5
A51
102
{ACAD_REACTORS
330
A47
102
}
330
A47
100
AcDbScale
 70
     0
300
1:40
140
1.0
141
40.0
290
     0
  0
SCALE
  5
A52
102
{ACAD_REACTORS
330
A47
102
}
330
A47
100
AcDbScale
 70
     0
300
1:50
140
1.0
141
50.0
290
     0
  0
SCALE
  5
A53
102
{ACAD_REACTORS
330
A47
102
}
330
A47
100
AcDbScale
 70
     0
300
1:100
140
1.0
141
100.0
290
     0
  0
SCALE
  5
A54
102
{ACAD_REACTORS
330
A47
102
}
330
A47
100
AcDbScale
 70
     0
300
2:1
140
2.0
141
1.0
290
     0
  0
SCALE
  5
A55
102
{ACAD_REACTORS
330
A47
102
}
330
A47
100
AcDbScale
 70
     0
300
4:1
140
4.0
141
1.0
290
     0
  0
SCALE
  5
A56
102
{ACAD_REACTORS
330
A47
102
}
330
A47
100
AcDbScale
 70
     0
300
8:1
140
8.0
141
1.0
290
     0
  0
SCALE
  5
A57
102
{ACAD_REACTORS
330
A47
102
}
330
A47
100
AcDbScale
 70
     0
300
10:1
140
10.0
141
1.0
290
     0
  0
SCALE
  5
A58
102
{ACAD_REACTORS
330
A47
102
}
330
A47
100
AcDbScale
 70
     0
300
100:1
140
100.0
141
1.0
290
     0
  0
TABLESTYLE
  5
249
102
{ACAD_XDICTIONARY
360
B4D
102
}
102
{ACAD_REACTORS
330
248
102
}
330
248
100
AcDbTableStyle
  3
Standard
 70
     0
 71
     0
 40
1.5
 41
1.5
280
     0
281
     0
  7
STANDARD
140
4.5
170
     2
 62
     0
 63
     7
283
     0
274
    -2
284
     1
 64
     0
275
    -2
285
     1
 65
     0
276
    -2
286
     1
 66
     0
277
    -2
287
     1
 67
     0
278
    -2
288
     1
 68
     0
279
    -2
289
     1
 69
     0
  7
STANDARD
140
6.0
170
     5
 62
     0
 63
     7
283
     0
274
    -2
284
     1
 64
     0
275
    -2
285
     1
 65
     0
276
    -2
286
     1
 66
     0
277
    -2
287
     1
 67
     0
278
    -2
288
     1
 68
     0
279
    -2
289
     1
 69
     0
  7
STANDARD
140
4.5
170
     5
 62
     0
 63
     7
283
     0
274
    -2
284
     1
 64
     0
275
    -2
285
     1
 65
     0
276
    -2
286
     1
 66
     0
277
    -2
287
     1
 67
     0
278
    -2
288
     1
 68
     0
279
    -2
289
     1
 69
     0
  0
VISUALSTYLE
  5
23C
102
{ACAD_XDICTIONARY
360
18E1
102
}
102
{ACAD_REACTORS
330
236
102
}
330
236
100
AcDbVisualStyle
  2
2dWireframe
 70
     4
 71
     0
 72
     2
 73
     0
 90
        0
 40
-0.6
 41
-30.0
 62
     5
 63
     7
 74
     1
 91
        4
 64
     7
 65
   257
 75
     1
175
     1
 42
1.0
 92
        0
 66
   257
 43
1.0
 76
     1
 77
     6
 78
     2
 67
     7
 79
     5
170
     0
171
     0
290
     0
174
     0
 93
        1
 44
0.0
173
     0
291
     0
 45
0.0
1001
ACAD
1000
AcDbSavedByObjectVersion
1070
     0
  0
VISUALSTYLE
  5
23E
102
{ACAD_XDICTIONARY
360
18E5
102
}
102
{ACAD_REACTORS
330
236
102
}
330
236
100
AcDbVisualStyle
  2
3D Hidden
 70
     6
 71
     1
 72
     2
 73
     2
 90
        0
 40
-0.6
 41
-30.0
 62
     5
 63
     7
 74
     2
 91
        2
 64
     7
 65
   257
 75
     2
175
     1
 42
40.0
 92
        0
 66
   257
 43
1.0
 76
     1
 77
     6
 78
     2
 67
     7
 79
     3
170
     0
171
     0
290
     0
174
     0
 93
        1
 44
0.0
173
     0
291
     0
 45
0.0
1001
ACAD
1000
AcDbSavedByObjectVersion
1070
     0
  0
VISUALSTYLE
  5
23D
102
{ACAD_XDICTIONARY
360
18E3
102
}
102
{ACAD_REACTORS
330
236
102
}
330
236
100
AcDbVisualStyle
  2
3dWireframe
 70
     5
 71
     0
 72
     2
 73
     0
 90
        0
 40
-0.6
 41
-30.0
 62
     5
 63
     7
 74
     1
 91
        4
 64
     7
 65
   257
 75
     1
175
     1
 42
1.0
 92
        0
 66
   257
 43
1.0
 76
     1
 77
     6
 78
     2
 67
     7
 79
     5
170
     0
171
     0
290
     0
174
     0
 93
        1
 44
0.0
173
     0
291
     0
 45
0.0
1001
ACAD
1000
AcDbSavedByObjectVersion
1070
     0
  0
VISUALSTYLE
  5
23B
102
{ACAD_XDICTIONARY
360
18DF
102
}
102
{ACAD_REACTORS
330
236
102
}
330
236
100
AcDbVisualStyle
  2
Basic
 70
     7
 71
     1
 72
     0
 73
     1
 90
        0
 40
-0.6
 41
-30.0
 62
     5
 63
     7
 74
     0
 91
        4
 64
     7
 65
   257
 75
     1
175
     1
 42
1.0
 92
        8
 66
     7
 43
1.0
 76
     1
 77
     6
 78
     2
 67
     7
 79
     5
170
     0
171
     0
290
     0
174
     0
 93
        1
 44
0.0
173
     0
291
     1
 45
0.0
1001
ACAD
1000
AcDbSavedByObjectVersion
1070
     0
  0
VISUALSTYLE
  5
242
102
{ACAD_XDICTIONARY
360
18ED
102
}
102
{ACAD_REACTORS
330
236
102
}
330
236
100
AcDbVisualStyle
  2
Brighten
 70
    12
 71
     2
 72
     2
 73
     0
 90
        0
 40
-0.6
 41
-30.0
 62
     5
 63
     7
 74
     1
 91
        4
 64
     7
 65
   257
 75
     1
175
     1
 42
1.0
 92
        8
 66
     7
 43
1.0
 76
     1
 77
     6
 78
     2
 67
     7
 79
     5
170
     0
171
     0
290
     0
174
     0
 93
        1
 44
50.0
173
     0
291
     1
 45
0.0
1001
ACAD
1000
AcDbSavedByObjectVersion
1070
     0
  0
VISUALSTYLE
  5
246
102
{ACAD_XDICTIONARY
360
18F5
102
}
102
{ACAD_REACTORS
330
236
102
}
330
236
100
AcDbVisualStyle
  2
ColorChange
 70
    16
 71
     2
 72
     2
 73
     3
 90
        0
 40
-0.6
 41
-30.0
 62
     5
 63
     8
 74
     1
 91
        4
 64
     7
 65
   257
 75
     1
175
     1
 42
1.0
 92
        8
 66
     8
 43
1.0
 76
     1
 77
     6
 78
     2
 67
     7
 79
     5
170
     0
171
     0
290
     0
174
     0
 93
        1
 44
0.0
173
     0
291
     1
 45
0.0
1001
ACAD
1000
AcDbSavedByObjectVersion
1070
     0
  0
VISUALSTYLE
  5
23F
102
{ACAD_XDICTIONARY
360
18E7
102
}
102
{ACAD_REACTORS
330
236
102
}
330
236
100
AcDbVisualStyle
  2
Conceptual
 70
     9
 71
     3
 72
     2
 73
     0
 90
        0
 40
-0.6
 41
-30.0
 62
     5
 63
     7
 74
     2
 91
        2
 64
     7
 65
   257
 75
     1
175
     1
 42
40.0
 92
        8
 66
     7
 43
1.0
 76
     1
 77
     6
 78
     2
 67
     7
 79
     3
170
     0
171
     0
290
     0
174
     0
 93
        1
 44
0.0
173
     0
291
     0
 45
0.0
1001
ACAD
1000
AcDbSavedByObjectVersion
1070
     0
  0
VISUALSTYLE
  5
241
102
{ACAD_XDICTIONARY
360
18EB
102
}
102
{ACAD_REACTORS
330
236
102
}
330
236
100
AcDbVisualStyle
  2
Dim
 70
    11
 71
     2
 72
     2
 73
     0
 90
        0
 40
-0.6
 41
-30.0
 62
     5
 63
     7
 74
     1
 91
        4
 64
     7
 65
   257
 75
     1
175
     1
 42
1.0
 92
        8
 66
     7
 43
1.0
 76
     1
 77
     6
 78
     2
 67
     7
 79
     5
170
     0
171
     0
290
     0
174
     0
 93
        1
 44
-50.0
173
     0
291
     1
 45
0.0
1001
ACAD
1000
AcDbSavedByObjectVersion
1070
     0
  0
VISUALSTYLE
  5
A46
102
{ACAD_XDICTIONARY
360
190A
102
}
102
{ACAD_REACTORS
330
236
102
}
330
236
100
AcDbVisualStyle
  2
EdgeColorOff
 70
    22
 71
     2
 72
     2
 73
     0
 90
        0
 40
-0.6
 41
-30.0
 62
     5
 63
     7
 74
     1
 91
        4
 64
     7
 65
   257
 75
     1
175
     1
 42
1.0
 92
        8
 66
     7
 43
1.0
 76
     1
 77
     6
 78
     2
 67
     7
 79
     5
170
     0
171
     0
290
     0
174
     0
 93
        1
 44
0.0
173
     0
291
     1
 45
0.0
1001
ACAD
1000
AcDbSavedByObjectVersion
1070
     0
  0
VISUALSTYLE
  5
245
102
{ACAD_XDICTIONARY
360
18F3
102
}
102
{ACAD_REACTORS
330
236
102
}
330
236
100
AcDbVisualStyle
  2
Facepattern
 70
    15
 71
     2
 72
     2
 73
     0
 90
        0
 40
-0.6
 41
-30.0
 62
     5
 63
     7
 74
     1
 91
        4
 64
     7
 65
   257
 75
     1
175
     1
 42
1.0
 92
        8
 66
     7
 43
1.0
 76
     1
 77
     6
 78
     2
 67
     7
 79
     5
170
     0
171
     0
290
     0
174
     0
 93
        1
 44
0.0
173
     0
291
     1
 45
0.0
1001
ACAD
1000
AcDbSavedByObjectVersion
1070
     0
  0
VISUALSTYLE
  5
237
102
{ACAD_XDICTIONARY
360
18D7
102
}
102
{ACAD_REACTORS
330
236
102
}
330
236
100
AcDbVisualStyle
  2
Flat
 70
     0
 71
     2
 72
     1
 73
     1
 90
        2
 40
-0.6
 41
30.0
 62
     5
 63
     7
 74
     0
 91
        4
 64
     7
 65
   257
 75
     1
175
     1
 42
1.0
 92
        8
 66
     7
 43
1.0
 76
     1
 77
     6
 78
     2
 67
     7
 79
     5
170
     0
171
     0
290
     0
174
     0
 93
       13
 44
0.0
173
     0
291
     1
 45
0.0
1001
ACAD
1000
AcDbSavedByObjectVersion
1070
     0
  0
VISUALSTYLE
  5
238
102
{ACAD_XDICTIONARY
360
18D9
102
}
102
{ACAD_REACTORS
330
236
102
}
330
236
100
AcDbVisualStyle
  2
FlatWithEdges
 70
     1
 71
     2
 72
     1
 73
     1
 90
        2
 40
-0.6
 41
30.0
 62
     5
 63
     7
 74
     1
 91
        4
 64
     7
 65
   257
 75
     1
175
     1
 42
1.0
 92
        0
 66
   257
 43
1.0
 76
     1
 77
     6
 78
     2
 67
     7
 79
     5
170
     0
171
     0
290
     0
174
     0
 93
       13
 44
0.0
173
     0
291
     1
 45
0.0
1001
ACAD
1000
AcDbSavedByObjectVersion
1070
     0
  0
VISUALSTYLE
  5
239
102
{ACAD_XDICTIONARY
360
18DB
102
}
102
{ACAD_REACTORS
330
236
102
}
330
236
100
AcDbVisualStyle
  2
Gouraud
 70
     2
 71
     2
 72
     2
 73
     1
 90
        2
 40
-0.6
 41
30.0
 62
     5
 63
     7
 74
     0
 91
        4
 64
     7
 65
   257
 75
     1
175
     1
 42
1.0
 92
        0
 66
     7
 43
1.0
 76
     1
 77
     6
 78
     2
 67
     7
 79
     5
170
     0
171
     0
290
     0
174
     0
 93
       13
 44
0.0
173
     0
291
     1
 45
0.0
1001
ACAD
1000
AcDbSavedByObjectVersion
1070
     0
  0
VISUALSTYLE
  5
23A
102
{ACAD_XDICTIONARY
360
18DD
102
}
102
{ACAD_REACTORS
330
236
102
}
330
236
100
AcDbVisualStyle
  2
GouraudWithEdges
 70
     3
 71
     2
 72
     2
 73
     1
 90
        2
 40
-0.6
 41
30.0
 62
     5
 63
     7
 74
     1
 91
        4
 64
     7
 65
   257
 75
     1
175
     1
 42
1.0
 92
        0
 66
   257
 43
1.0
 76
     1
 77
     6
 78
     2
 67
     7
 79
     5
170
     0
171
     0
290
     0
174
     0
 93
       13
 44
0.0
173
     0
291
     1
 45
0.0
1001
ACAD
1000
AcDbSavedByObjectVersion
1070
     0
  0
VISUALSTYLE
  5
A3E
102
{ACAD_XDICTIONARY
360
18FA
102
}
102
{ACAD_REACTORS
330
236
102
}
330
236
100
AcDbVisualStyle
  2
Hidden
 70
     6
 71
     1
 72
     2
 73
     2
 90
        0
 40
-0.6
 41
-30.0
 62
     5
 63
     7
 74
     2
 91
        2
 64
     7
 65
   257
 75
     2
175
     1
 42
40.0
 92
        0
 66
   257
 43
1.0
 76
     1
 77
     6
 78
     2
 67
     7
 79
     3
170
     0
171
     0
290
     0
174
     0
 93
        1
 44
0.0
173
     0
291
     0
 45
0.0
1001
ACAD
1000
AcDbSavedByObjectVersion
1070
     0
  0
VISUALSTYLE
  5
A44
102
{ACAD_XDICTIONARY
360
1906
102
}
102
{ACAD_REACTORS
330
236
102
}
330
236
100
AcDbVisualStyle
  2
JitterOff
 70
    20
 71
     2
 72
     2
 73
     0
 90
        0
 40
-0.6
 41
-30.0
 62
     5
 63
     7
 74
     1
 91
        4
 64
     7
 65
   257
 75
     1
175
     1
 42
1.0
 92
       10
 66
     7
 43
1.0
 76
     1
 77
     6
 78
     2
 67
     7
 79
     5
170
     0
171
     0
290
     0
174
     0
 93
        1
 44
0.0
173
     0
291
     1
 45
0.0
1001
ACAD
1000
AcDbSavedByObjectVersion
1070
     0
  0
VISUALSTYLE
  5
244
102
{ACAD_XDICTIONARY
360
18F1
102
}
102
{ACAD_REACTORS
330
236
102
}
330
236
100
AcDbVisualStyle
  2
Linepattern
 70
    14
 71
     2
 72
     2
 73
     0
 90
        0
 40
-0.6
 41
-30.0
 62
     5
 63
     7
 74
     1
 91
        4
 64
     7
 65
   257
 75
     7
175
     7
 42
1.0
 92
        8
 66
     7
 43
1.0
 76
     1
 77
     6
 78
     2
 67
     7
 79
     5
170
     0
171
     0
290
     0
174
     0
 93
        1
 44
0.0
173
     0
291
     1
 45
0.0
1001
ACAD
1000
AcDbSavedByObjectVersion
1070
     0
  0
VISUALSTYLE
  5
A45
102
{ACAD_XDICTIONARY
360
1908
102
}
102
{ACAD_REACTORS
330
236
102
}
330
236
100
AcDbVisualStyle
  2
OverhangOff
 70
    21
 71
     2
 72
     2
 73
     0
 90
        0
 40
-0.6
 41
-30.0
 62
     5
 63
     7
 74
     1
 91
        4
 64
     7
 65
   257
 75
     1
175
     1
 42
1.0
 92
        9
 66
     7
 43
1.0
 76
     1
 77
     6
 78
     2
 67
     7
 79
     5
170
     0
171
     0
290
     0
174
     0
 93
        1
 44
0.0
173
     0
291
     1
 45
0.0
1001
ACAD
1000
AcDbSavedByObjectVersion
1070
     0
  0
VISUALSTYLE
  5
240
102
{ACAD_XDICTIONARY
360
18E9
102
}
102
{ACAD_REACTORS
330
236
102
}
330
236
100
AcDbVisualStyle
  2
Realistic
 70
     8
 71
     2
 72
     2
 73
     0
 90
        0
 40
-0.6
 41
-30.0
 62
     5
 63
     7
 74
     1
 91
        0
 64
     7
 65
   257
 75
     1
175
     1
 42
1.0
 92
        8
 66
     8
 43
1.0
 76
     1
 77
     6
 78
     2
 67
     7
 79
     5
170
     0
171
     0
290
     0
174
     0
 93
       13
 44
0.0
173
     0
291
     0
 45
0.0
1001
ACAD
1000
AcDbSavedByObjectVersion
1070
     0
  0
VISUALSTYLE
  5
A43
102
{ACAD_XDICTIONARY
360
1904
102
}
102
{ACAD_REACTORS
330
236
102
}
330
236
100
AcDbVisualStyle
  2
Shaded
 70
    27
 71
     2
 72
     2
 73
     1
 90
        2
 40
-0.6
 41
30.0
 62
     5
 63
     7
 74
     0
 91
        4
 64
     7
 65
   257
 75
     1
175
     1
 42
1.0
 92
        8
 66
   257
 43
1.0
 76
     1
 77
     6
 78
     2
 67
     8
 79
     3
170
     0
171
     0
290
     0
174
     0
 93
        5
 44
0.0
173
     0
291
     0
 45
0.0
1001
ACAD
1000
AcDbSavedByObjectVersion
1070
     0
  0
VISUALSTYLE
  5
A42
102
{ACAD_XDICTIONARY
360
1902
102
}
102
{ACAD_REACTORS
330
236
102
}
330
236
100
AcDbVisualStyle
  2
Shaded with edges
 70
    26
 71
     2
 72
     2
 73
     1
 90
        2
 40
-0.6
 41
30.0
 62
     5
 63
     7
 74
     1
 91
       10
 64
     7
 65
   257
 75
     2
175
     1
 42
1.0
 92
        8
 66
   257
 43
1.0
 76
     1
 77
     6
 78
     2
 67
     7
 79
     3
170
     0
171
     0
290
     0
174
     0
 93
        5
 44
0.0
173
     0
291
     0
 45
0.0
1001
ACAD
1000
AcDbSavedByObjectVersion
1070
     0
  0
VISUALSTYLE
  5
A3F
102
{ACAD_XDICTIONARY
360
18FC
102
}
102
{ACAD_REACTORS
330
236
102
}
330
236
100
AcDbVisualStyle
  2
Shades of Gray
 70
    23
 71
     2
 72
     2
 73
     3
 90
        0
 40
-0.6
 41
-30.0
 62
     5
 63
     7
 74
     2
 91
        2
 64
     7
 65
     7
 75
     1
175
     1
 42
40.0
 92
        8
 66
     7
 43
1.0
 76
     1
 77
     6
 78
     2
 67
     7
 79
     3
170
     0
171
     0
290
     0
174
     0
 93
        1
 44
0.0
173
     0
291
     0
 45
0.0
1001
ACAD
1000
AcDbSavedByObjectVersion
1070
     0
  0
VISUALSTYLE
  5
A40
102
{ACAD_XDICTIONARY
360
18FE
102
}
102
{ACAD_REACTORS
330
236
102
}
330
236
100
AcDbVisualStyle
  2
Sketchy
 70
    24
 71
     1
 72
     2
 73
     2
 90
        0
 40
-0.6
 41
-30.0
 62
     5
 63
     7
 74
     2
 91
        2
 64
     7
 65
     7
 75
     1
175
     1
 42
40.0
 92
       11
 66
     7
 43
1.0
 76
     1
 77
     6
 78
     2
 67
     7
 79
     6
170
     0
171
     0
290
     0
174
     0
 93
        1
 44
0.0
173
     0
291
     0
 45
0.0
1001
ACAD
1000
AcDbSavedByObjectVersion
1070
     0
  0
VISUALSTYLE
  5
243
102
{ACAD_XDICTIONARY
360
18EF
102
}
102
{ACAD_REACTORS
330
236
102
}
330
236
100
AcDbVisualStyle
  2
Thicken
 70
    13
 71
     2
 72
     2
 73
     0
 90
        0
 40
-0.6
 41
-30.0
 62
     5
 63
     7
 74
     1
 91
        4
 64
     7
 65
   257
 75
     1
175
     1
 42
1.0
 92
       12
 66
     7
 43
1.0
 76
     1
 77
     6
 78
     2
 67
     7
 79
     5
170
     0
171
     0
290
     0
174
     0
 93
        1
 44
0.0
173
     0
291
     1
 45
0.0
1001
ACAD
1000
AcDbSavedByObjectVersion
1070
     0
  0
VISUALSTYLE
  5
A3D
102
{ACAD_XDICTIONARY
360
18F8
102
}
102
{ACAD_REACTORS
330
236
102
}
330
236
100
AcDbVisualStyle
  2
Wireframe
 70
     5
 71
     0
 72
     2
 73
     0
 90
        0
 40
-0.6
 41
-30.0
 62
     5
 63
     7
 74
     1
 91
        4
 64
     7
 65
   257
 75
     1
175
     1
 42
1.0
 92
        0
 66
   257
 43
1.0
 76
     1
 77
     6
 78
     2
 67
     7
 79
     3
170
     0
171
     0
290
     0
174
     0
 93
        1
 44
0.0
173
     0
291
     0
 45
0.0
1001
ACAD
1000
AcDbSavedByObjectVersion
1070
     0
  0
VISUALSTYLE
  5
A41
102
{ACAD_XDICTIONARY
360
1900
102
}
102
{ACAD_REACTORS
330
236
102
}
330
236
100
AcDbVisualStyle
  2
X-Ray
 70
    25
 71
     2
 72
     2
 73
     1
 90
        1
 40
0.5
 41
-30.0
 62
     5
 63
     7
 74
     1
 91
        0
 64
     7
 65
   257
 75
     1
175
     1
 42
1.0
 92
        8
 66
     7
 43
1.0
 76
     1
 77
     6
 78
     2
 67
     7
 79
     3
170
     0
171
     0
290
     0
174
     0
 93
       13
 44
0.0
173
     0
291
     0
 45
0.0
1001
ACAD
1000
AcDbSavedByObjectVersion
1070
     0
  0
DICTIONARYVAR
  5
B9C
102
{ACAD_REACTORS
330
34
102
}
330
34
100
DictionaryVariables
280
     0
  1
1:1
  0
DICTIONARYVAR
  5
B9B
102
{ACAD_REACTORS
330
34
102
}
330
34
100
DictionaryVariables
280
     0
  1
STANDARD
  0
DICTIONARYVAR
  5
2C0
102
{ACAD_REACTORS
330
34
102
}
330
34
100
DictionaryVariables
280
     0
  1
STANDARD
  0
DICTIONARYVAR
  5
18C3
102
{ACAD_REACTORS
330
34
102
}
330
34
100
DictionaryVariables
280
     0
  1
2
  0
DICTIONARYVAR
  5
35
102
{ACAD_REACTORS
330
34
102
}
330
34
100
DictionaryVariables
280
     0
  1
0
  0
DICTIONARYVAR
  5
18C1
102
{ACAD_REACTORS
330
34
102
}
330
34
100
DictionaryVariables
280
     0
  1
127
  0
DICTIONARYVAR
  5
18C2
102
{ACAD_REACTORS
330
34
102
}
330
34
100
DictionaryVariables
280
     0
  1
0
  0
DICTIONARY
  5
15F
102
{ACAD_REACTORS
330
43
102
}
330
43
100
AcDbDictionary
281
     1
  0
XRECORD
  5
2A8
102
{ACAD_REACTORS
330
43
102
}
330
43
100
AcDbXrecord
280
     1
 90
-1023410169
  0
DICTIONARY
  5
B4B
330
22
100
AcDbDictionary
280
     1
281
     1
  3
ACAD_XREC_ROUNDTRIP
360
18CE
  3
ADSK_XREC_LAYOUTTHUMBNAIL
360
B4C
  0
DICTIONARY
  5
18CC
330
1E
100
AcDbDictionary
280
     1
281
     1
  3
ACAD_XREC_ROUNDTRIP
360
18CD
  0
DICTIONARY
  5
18CF
330
26
100
AcDbDictionary
280
     1
281
     1
  3
ACAD_XREC_ROUNDTRIP
360
18D0
  0
DICTIONARY
  5
18D3
330
234
100
AcDbDictionary
280
     1
281
     1
  3
ACAD_XREC_ROUNDTRIP
360
18D4
  0
DICTIONARY
  5
18D1
330
233
100
AcDbDictionary
280
     1
281
     1
  3
ACAD_XREC_ROUNDTRIP
360
18D2
  0
DICTIONARY
  5
18D5
330
235
100
AcDbDictionary
280
     1
281
     1
  3
ACAD_XREC_ROUNDTRIP
360
18D6
  0
DICTIONARY
  5
B4D
330
249
100
AcDbDictionary
280
     1
281
     1
  3
ACAD_ROUNDTRIP_2008_TABLESTYLE_CELLSTYLEMAP
360
18C4
  3
ACAD_XREC_ROUNDTRIP
360
18F7
  0
DICTIONARY
  5
18E1
330
23C
100
AcDbDictionary
280
     1
281
     1
  3
ACAD_XREC_ROUNDTRIP
360
18E2
  0
DICTIONARY
  5
18E5
330
23E
100
AcDbDictionary
280
     1
281
     1
  3
ACAD_XREC_ROUNDTRIP
360
18E6
  0
DICTIONARY
  5
18E3
330
23D
100
AcDbDictionary
280
     1
281
     1
  3
ACAD_XREC_ROUNDTRIP
360
18E4
  0
DICTIONARY
  5
18DF
330
23B
100
AcDbDictionary
280
     1
281
     1
  3
ACAD_XREC_ROUNDTRIP
360
18E0
  0
DICTIONARY
  5
18ED
330
242
100
AcDbDictionary
280
     1
281
     1
  3
ACAD_XREC_ROUNDTRIP
360
18EE
  0
DICTIONARY
  5
18F5
330
246
100
AcDbDictionary
280
     1
281
     1
  3
ACAD_XREC_ROUNDTRIP
360
18F6
  0
DICTIONARY
  5
18E7
330
23F
100
AcDbDictionary
280
     1
281
     1
  3
ACAD_XREC_ROUNDTRIP
360
18E8
  0
DICTIONARY
  5
18EB
330
241
100
AcDbDictionary
280
     1
281
     1
  3
ACAD_XREC_ROUNDTRIP
360
18EC
  0
DICTIONARY
  5
190A
330
A46
100
AcDbDictionary
280
     1
281
     1
  3
ACAD_XREC_ROUNDTRIP
360
190B
  0
DICTIONARY
  5
18F3
330
245
100
AcDbDictionary
280
     1
281
     1
  3
ACAD_XREC_ROUNDTRIP
360
18F4
  0
DICTIONARY
  5
18D7
330
237
100
AcDbDictionary
280
     1
281
     1
  3
ACAD_XREC_ROUNDTRIP
360
18D8
  0
DICTIONARY
  5
18D9
330
238
100
AcDbDictionary
280
     1
281
     1
  3
ACAD_XREC_ROUNDTRIP
360
18DA
  0
DICTIONARY
  5
18DB
330
239
100
AcDbDictionary
280
     1
281
     1
  3
ACAD_XREC_ROUNDTRIP
360
18DC
  0
DICTIONARY
  5
18DD
330
23A
100
AcDbDictionary
280
     1
281
     1
  3
ACAD_XREC_ROUNDTRIP
360
18DE
  0
DICTIONARY
  5
18FA
330
A3E
100
AcDbDictionary
280
     1
281
     1
  3
ACAD_XREC_ROUNDTRIP
360
18FB
  0
DICTIONARY
  5
1906
330
A44
100
AcDbDictionary
280
     1
281
     1
  3
ACAD_XREC_ROUNDTRIP
360
1907
  0
DICTIONARY
  5
18F1
330
244
100
AcDbDictionary
280
     1
281
     1
  3
ACAD_XREC_ROUNDTRIP
360
18F2
  0
DICTIONARY
  5
1908
330
A45
100
AcDbDictionary
280
     1
281
     1
  3
ACAD_XREC_ROUNDTRIP
360
1909
  0
DICTIONARY
  5
18E9
330
240
100
AcDbDictionary
280
     1
281
     1
  3
ACAD_XREC_ROUNDTRIP
360
18EA
  0
DICTIONARY
  5
1904
330
A43
100
AcDbDictionary
280
     1
281
     1
  3
ACAD_XREC_ROUNDTRIP
360
1905
  0
DICTIONARY
  5
1902
330
A42
100
AcDbDictionary
280
     1
281
     1
  3
ACAD_XREC_ROUNDTRIP
360
1903
  0
DICTIONARY
  5
18FC
330
A3F
100
AcDbDictionary
280
     1
281
     1
  3
ACAD_XREC_ROUNDTRIP
360
18FD
  0
DICTIONARY
  5
18FE
330
A40
100
AcDbDictionary
280
     1
281
     1
  3
ACAD_XREC_ROUNDTRIP
360
18FF
  0
DICTIONARY
  5
18EF
330
243
100
AcDbDictionary
280
     1
281
     1
  3
ACAD_XREC_ROUNDTRIP
360
18F0
  0
DICTIONARY
  5
18F8
330
A3D
100
AcDbDictionary
280
     1
281
     1
  3
ACAD_XREC_ROUNDTRIP
360
18F9
  0
DICTIONARY
  5
1900
330
A41
100
AcDbDictionary
280
     1
281
     1
  3
ACAD_XREC_ROUNDTRIP
360
1901
  0
XRECORD
  5
18CE
102
{ACAD_REACTORS
330
B4B
102
}
330
B4B
100
AcDbXrecord
280
     1
102
SHADEPLOT
 70
     0
102
SHADEPLOTRESLEVEL
 70
     2
102
SHADEPLOTCUSTOMDPI
 70
   300
  0
XRECORD
  5
B4C
102
{ACAD_REACTORS
330
B4B
102
}
330
B4B
100
AcDbXrecord
280
     1
310
28000000000100007B0000000100080000000000007B0000000000000000000000010000000000000000000000000000FFFFFF000000000000000000000000000000000000000000000000000000000000000000330000006600000099000000CC000000FF00000000330000333300006633000099330000CC330000FF3300
310
0000660000336600006666000099660000CC660000FF66000000990000339900006699000099990000CC990000FF99000000CC000033CC000066CC000099CC0000CCCC0000FFCC000000FF000033FF000066FF000099FF0000CCFF0000FFFF000000003300330033006600330099003300CC003300FF003300003333003333
310
33006633330099333300CC333300FF33330000663300336633006666330099663300CC663300FF66330000993300339933006699330099993300CC993300FF99330000CC330033CC330066CC330099CC3300CCCC3300FFCC330000FF330033FF330066FF330099FF3300CCFF3300FFFF330000006600330066006600660099
310
006600CC006600FF00660000336600333366006633660099336600CC336600FF33660000666600336666006666660099666600CC666600FF66660000996600339966006699660099996600CC996600FF99660000CC660033CC660066CC660099CC6600CCCC6600FFCC660000FF660033FF660066FF660099FF6600CCFF6600
310
FFFF660000009900330099006600990099009900CC009900FF00990000339900333399006633990099339900CC339900FF33990000669900336699006666990099669900CC669900FF66990000999900339999006699990099999900CC999900FF99990000CC990033CC990066CC990099CC9900CCCC9900FFCC990000FF99
310
0033FF990066FF990099FF9900CCFF9900FFFF99000000CC003300CC006600CC009900CC00CC00CC00FF00CC000033CC003333CC006633CC009933CC00CC33CC00FF33CC000066CC003366CC006666CC009966CC00CC66CC00FF66CC000099CC003399CC006699CC009999CC00CC99CC00FF99CC0000CCCC0033CCCC0066CC
310
CC0099CCCC00CCCCCC00FFCCCC0000FFCC0033FFCC0066FFCC0099FFCC00CCFFCC00FFFFCC000000FF003300FF006600FF009900FF00CC00FF00FF00FF000033FF003333FF006633FF009933FF00CC33FF00FF33FF000066FF003366FF006666FF009966FF00CC66FF00FF66FF000099FF003399FF006699FF009999FF00CC
310
99FF00FF99FF0000CCFF0033CCFF0066CCFF0099CCFF00CCCCFF00FFCCFF0000FFFF0033FFFF0066FFFF0099FFFF00CCFFFF00FFFFFF00000000000D0D0D001A1A1A00282828003535350043434300505050005D5D5D006B6B6B00787878008686860093939300A1A1A100AEAEAE00BBBBBB00C9C9C900D6D6D600E4E4E400
310
F1F1F100FFFFFF000000000000000000000000000000000000000000000000000000000000000000000000000000000000000000000000000000000000000000000000000000000000000000000000000000000000000000000000000000000000000000000000000000000000F5F500000000000000000000000000000000
310
0000000000000000000000000000000000000000000000000000000000000000000000000000000000000000000000000000000000000000000000000000000000000000000000000000000000000000000000000000000000000000000000F5F5000000000000000000000000000000000000000000000000000000000000
310
00000000000000000000000000000000000000000000000000000000000000000000000000000000000000000000000000000000000000000000000000000000000000000000000000000000000000000000000000000000000000000000000000000000000000000000000000F5F50000F5F5000000000000000000000000
310
0000000000000000000000000000000000000000000000000000000000000000000000000000000000000000000000000000000000000000000000000000000000000000000000000000000000000000000000000000000000000000000000F5F50000F5F50000000000000000000000000000000000000000000000000000
310
000000000000000000000000000000000000000000000000000000000000000000000000000000000000000000000000000000000000000000000000000000000000000000000000000000000000000000000000000000000000000000000000000000000000000000000000000000F5F500000000F5F5F500000000000000
310
00000000000000000000000000000000000000000000000000000000000000000000000000000000000000000000000000000000000000000000000000000000000000000000000000000000000000000000000000000000000000000000F5F5F500000000F500F50000000000000000000000000000000000000000000000
310
00000000000000000000000000000000000000000000000000000000000000000000000000000000000000000000000000000000000000000000000000000000000000000000000000000000000000000000000000000000000000000000000000000000000000000000000000000000F5F50000000000000000F5F5000000
310
00000000000000000000000000000000000000000000000000000000000000000000000000000000000000000000000000000000000000000000000000000000000000000000000000000000000000000000000000000000000000000000F5F50000000000000000F5F5000000000000000000000000000000000000000000
310
000000000000000000000000000000000000000000000000000000000000000000000000000000000000000000000000000000000000000000000000000000000000000000000000000000000000000000000000000000000000000000000000000000000000000000000000000000000000F5F500000000000000000000F5
310
F5000000000000000000000000000000000000000000000000000000000000000000000000000000000000000000000000000000000000000000000000000000000000000000000000000000000000000000000000000000000000000000F5F50000000000000000000000F5F5000000000000000000000000000000000000
310
00000000000000000000000000000000000000000000000000000000000000000000000000000000000000000000000000000000000000000000000000000000000000000000000000000000000000000000000000000000000000000000000000000000000000000000000000000000000000F5F500000000000000000000
310
0000F5000000000000000000000000000000000000000000000000000000000000000000000000000000000000000000000000000000000000000000000000000000000000000000000000000000000000000000000000000000000000000000F5000000000000000000000000F500F5000000000000000000000000000000
310
000000000000000000000000000000000000000000000000000000000000000000000000000000000000000000000000000000000000000000000000000000000000000000000000000000000000000000000000000000000000000000000000000000000000000000000000000000000000000000F5F50000000000000000
310
000000F5F5000000000000000000000000000000000000000000000000000000000000000000000000000000000000000000000000000000000000000000000000000000000000000000000000000000000000000000000000000000000000000000F5F5000000000000000000000000F5F500000000000000000000000000
310
00000000000000000000000000000000000000000000000000000000000000000000000000000000000000000000000000000000000000000000000000000000000000000000000000000000000000000000000000000000000000000000000000000000000000000000000000000000002D00000000F5F500000000000000
310
0000000000F500F5F5F5000000000000000000000000000000000000000000000000000000000000000000000000000000000000000000000000000000000000000000000000000000000000000000000000000000000000000000000000000000F5F5F500F500000000000000000000000000F5F50000002D000000000000
310
00000000000000000000000000000000000000000000000000000000000000000000000000000000000000000000000000000000000000000000000000000000000000000000000000000000000000000000000000000000000000000000000000000000000000000000000000000000000000002D2D0000F5F50000000000
310
000000000000F50000000000F5F5F500000000000000000000000000000000000000000000000000000000000000000000000000000000000000000000000000000000000000000000000000000000000000000000000000000000000000000000F5F50000000000F5000000000000000000000000F5F5002D2D0000000000
310
0000000000000000000000000000000000000000000000000000000000000000000000000000000000000000000000000000000000000000000000000000000000000000000000000000000000000000000000000000000000000000000000000000000000000000000000000000000000000000000000002DF5F500000000
310
0000000000000000F50000000000000000F5F5F500000000000000000000000000000000000000000000000000000000000000000000000000000000000000000000000000000000000000000000000000000000000000000000000000000000F5F5F500000000000000F500000000000000000000000000F5F50000000000
310
0000000000000000000000000000000000000000000000000000000000000000000000000000000000000000000000000000000000000000000000000000000000000000000000000000000000000000000000000000000000000000000000000000000000000000000000000000000000000000000000000000F5F52D0000
310
000000000000000000F5000000000000000000000000F5F5000000000000000000000000000000000000000000000000000000000000000000000000000000000000000000000000000000000000000000000000000000000000000000000000F5F50000000000000000000000F500000000000000000000002D00F5F50000
310
00000000000000000000000000000000000000000000000000000000000000000000000000000000000000000000000000000000000000000000000000000000000000000000000000000000000000000000000000000000000000000000000000000000000000000000000000000000000000000000000000000000F5F500
310
2D2D0000000000000000F50000000000000000000000000000F5000000000000000000000000000000000000000000000000000000000000000000000000000000000000000000000000000000000000000000000000000000000000000000000000F500000000000000000000000000F500000000000000002D2D0000F5F5
310
0000000000000000000000000000000000000000000000000000000000000000000000000000000000000000000000000000000000000000000000000000000000000000000000000000000000000000000000000000000000000000000000000000000000000000000000000000000000000000000000000000000000F5F5
310
000000002D2D000000000000F500000000000000000000000000F5F50000000000000000000000000000000000000000000000000000000000000000000000000000000000000000000000000000000000000000000000000000000000000000000000F5F5F5000000000000000000000000F50000000000002D2D00000000
310
00F5F5000000000000000000000000000000000000000000000000000000000000000000000000000000000000000000000000000000000000000000000000000000000000000000000000000000000000000000000000000000000000000000000000000000000000000000000000000000000000000000000000000000F5
310
F5000000000000002D2D000000F50000000000000000000000000000F500F5F5F50000000000000000000000000000000000000000000000000000000000000000000000000000000000000000000000000000000000000000000000000000000000F5F5F50000F500000000000000000000000000F50000002D2D00000000
310
000000F5F50000000000000000000000000000000000000000000000000000000000000000000000000000000000000000000000000000000000000000000000000000000000000000000000000000000000000000000000000000000000000000000000000000000000000000000000000000000000000000000000000000
310
F500F50000000000000000002D0000F500000000000000000000000000F50000000000F5F500000000000000000000000000000000000000000000000000000000000000000000000000000000000000000000000000000000000000000000000000F5F5000000000000F5000000000000000000000000F500002D00000000
310
000000000000F5F50000000000000000000000000000000000000000000000000000000000000000000000000000000000000000000000000000000000000000000000000000000000000000000000000000000000000000000000000000000000000000000000000000000000000000000000000000000000000000000000
310
0000F5F500000000000000000000002DF50000000000000000000000000000F500000000000000F5F5F500000000000000000000000000000000000000000000000000000000000000000000000000000000000000000000000000000000000000F5F5F50000000000000000F500000000000000000000000000F52D000000
310
0000000000000000F5F5000000000000000000000000000000000000000000000000000000000000000000000000000000000000000000000000000000000000000000000000000000000000000000000000000000000000000000000000000000000000000000000000000000000000000000000000000000000000000000
310
000000F5F5000000000000000000000000F5002D2D0000000000000000000000F50000000000000000000000F5F5000000000000000000000000000000000000000000000000000000000000000000000000000000000000000000000000000000F5F5000000000000000000000000F5000000000000000000002D2D00F500
310
0000000000000000000000F5F5000000000000000000000000000000000000000000000000000000000000000000000000000000000000000000000000000000000000000000000000000000000000000000000000000000000000000000000000000000000000000000000000000000000000000000000000000000000000
310
0000000000F5F5000000000000000000000000F50000002D000000000000000000F500000000000000000000000000F5000000000000000000000000000000000000000000000000000000000000000000000000000000000000000000000000000000F500000000000000000000000000F50000000000000000002D000000
310
F5000000000000000000000000F5F500000000000000000000000000000000000000000000000000000000000000000000000000000000000000000000000000000000000000000000000000000000000000000000000000000000000000000000000000000000000000000000000000000000000000000000000000000000
310
00000000000000F5000000000000000000000000F50000000000002D00000000000000F5000000000000000000000000F5F5000000000000000000000000000000000000000000000000000000000000000000000000000000000000000000000000000000F5F500000000000000000000000000F50000000000002D000000
310
000000F5000000000000000000000000F50000000000000000000000000000000000000000000000000000000000000000000000000000000000000000000000000000000000000000000000000000000000000000000000000000000000000000000000000000000000000000000000000000000000000000000000000000
310
00000000000000000000F50000000000000000000000F5000000000000002D2D00000000F500000000000000000000000000F500F5F5F5000000000000000000000000000000000000000000000000000000000000000000000000000000000000000000F5F5F500F500000000000000000000000000F5000000002D2D0000
310
0000000000F50000000000000000000000F500000000000000000000000000000000000000000000000000000000000000000000000000000000000000000000000000000000000000000000000000000000000000000000000000000000000000000000000000000000000000000000000000000000000000000000000000
310
00000000000000000000000000F5F50000000000000000F5000000000000000000002D2D0000F5000000000000000000000000F50000000000F5F5F5000000000000000000000000000000000000000000000000000000000000000000000000000000F5F5F50000000000F500000000000000000000000000F500002D0000
310
0000000000000000F50000000000000000F5F5000000000000000000000000000000000000000000000000000000000000000000000000000000000000000000000000000000000000000000000000000000000000000000000000000000000000000000000000000000000000000000000000000000000000000000000000
310
0000000000000000000000000000000000F5000000000000F5000000000000000000000000002DF500000000000000000000000000F50000000000000000F5F5F5000000000000000000000000000000000000000000000000000000000000000000F5F5F50000000000000000F500000000000000000000000000F52D0000
310
0000000000000000000000F5000000000000F5000000000000000000000000000000000000000000000000000000000000000000000000000000000000000000000000000000000000000000000000000000000000000000000000000000000000000000000000000000000000000000000000000000000000000000000000
310
0000000000000000000000000000000000000000F50000000000F500000000000000000000000000F52D2D0000000000000000000000F5000000000000000000000000F5F5F5000000000000000000000000000000000000000000000000000000F5F5F5000000000000000000000000F500000000000000000000002D2DF5
310
00000000000000000000000000F50000000000F50000000000000000000000000000000000000000000000000000000000000000000000000000000000000000000000000000000000000000000000000000000000000000000000000000000000000000000000000000000000000000000000000000000000000000000000
310
0000000000000000000000000000000000000000000000F5F50000F50000000000000000000000000000F500002D2D0000000000000000F500000000000000000000000000F5F500F5F50000000000000000000000000000000000000000000000F5F500F5F500000000000000000000000000F500000000000000002D2D00
310
00F50000000000000000000000000000F50000F5F500000000000000000000000000000000000000000000000000000000000000000000000000000000000000000000000000000000000000000000000000000000000000000000000000000000000000000000000000000000000000000000000000000000000000000000
310
000000000000000000000000000000000000000000000000000000F500F500000000000000000000000000F500000000002D2D000000000000F500000000000000000000000000F5F5000000F5F500000000000000000000000000000000000000F5F5000000F5F500000000000000000000000000F50000000000002D2D00
310
00000000F500000000000000000000000000F500F500000000000000000000000000000000000000000000000000000000000000000000000000000000000000000000000000000000000000000000000000000000000000000000000000000000000000000000000000000000000000000000000000000000000000000000
310
000000000000000000000000000000000000000000000000000000000000F500F5F50000000000000000000000F5000000000000002D2D000000F500000000000000000000000000F5F5000000000000F5F5000000000000000000000000000000F5F5000000000000F5F500000000000000000000000000F5000000002D00
310
00000000000000F50000000000000000000000F500F5000000000000000000000000000000000000000000000000000000000000000000000000000000000000000000000000000000000000000000000000000000000000000000000000000000000000000000000000000000000000000000000000000000000000000000
310
000000000000000000000000000000000000000000000000000000000000000000000000F5000000000000000000F5000000000000000000002D2D00F500000000000000000000000000F5F50000000000000000F50000000000002D000000000000F5000000000000000000F500000000000000000000000000F500002D2D
310
000000000000000000F5000000000000000000F5F500000000000000000000000000000000000000000000000000000000000000000000000000000000000000000000000000000000000000000000000000000000000000000000000000000000000000000000000000000000000000000000000000000000000000000000
310
000000000000000000000000000000000000000000000000000000000000000000000000000000F500000000000000F500000000000000000000000000F52D000000000000000000000000F5F500000000000000000000F5F5000000002D00000000F5F500000000000000000000F5F500000000000000000000000000F52D
310
000000000000000000000000F500000000000000F500000000000000000000000000000000000000000000000000000000000000000000000000000000000000000000000000000000000000000000000000000000000000000000000000000000000000000000000000000000000000000000000000000000000000000000
310
000000000000000000000000000000000000000000000000000000000000000000000000000000000000F5F50000000000F5000000000000000000000000F500002D2D00000000000000000000F5F5000000000000000000000000F5F500002D0000F5F500000000000000000000000000F500000000000000000000002D2D
310
00F500000000000000000000000000F50000000000F5000000000000000000000000000000000000000000000000000000000000000000000000000000000000000000000000000000000000000000000000000000000000000000000000000000000000000000000000000000000000000000000000000000000000000000
310
00000000000000000000000000000000000000000000000000000000000000000000000000000000000000000000F5000000F500000000000000000000000000F5000000002D0000000000000000F5F5000000000000000000000000000000F5F52DF5F5000000000000000000000000000000F5F50000000000000000002D
310
000000F50000000000000000000000000000F50000F5F50000000000000000000000000000000000000000000000000000000000000000000000000000000000000000000000000000000000000000000000000000000000000000000000000000000000000000000000000000000000000000000000000000000000000000
310
00000000000000000000000000000000000000000000000000000000000000000000000000000000000000000000000000F5F500F5000000000000000000000000F50000000000002D00000000000000F5F50000000000000000000000000000000000F5000000000000000000000000000000000000F5000000000000002D
310
000000000000F500000000000000000000000000F500F50000000000000000000000000000000000000000000000000000000000000000000000000000000000000000000000000000000000000000000000000000000000000000000000000000000000000000000000000000000000000000000000000000000000000000
310
0000000000000000000000000000000000000000000000000000000000000000000000000000000000000000000000000000000000F500F50000000000000000000000F5000000000000002D2D00000000F5F50000000000000000000000000000000000002D00000000000000000000000000000000000000F5000000002D
310
2D00000000000000F50000000000000000000000F5F500F500000000000000000000000000000000000000000000000000000000000000000000000000000000000000000000000000000000000000000000000000000000000000000000000000000000000000000000000000000000000000000000000000000000000000
310
00000000000000000000000000000000000000000000000000000000000000000000000000000000000000000000000000000000000000000000F5F50000000000000000F5000000000000000000002D2D0000F5F50000000000000000000000000000000000002D00000000000000000000000000000000000000F500002D
310
2D00000000000000000000F5000000000000000000F5000000000000000000000000000000000000000000000000000000000000000000000000000000000000000000000000000000000000000000000000000000000000000000000000000000000000000000000000000000000000000000000000000000000000000000
310
0000000000000000000000000000000000000000000000000000000000000000000000000000000000000000000000000000000000000000000000000000F5000000000000F50000000000000000000000000000F5F5000000000000000000000000000000000000002D0000000000000000000000000000000000000000F5
310
2D00000000000000000000000000F500000000000000F50000000000000000000000000000000000000000000000000000000000000000000000000000000000000000000000000000000000000000000000000000000000000000000000000000000000000000000000000000000000000000000000000000000000000000
310
0000000000000000000000000000000000000000000000000000000000000000000000000000000000000000000000000000000000000000000000000000000000F50000000000F500000000000000000000000000F5F52D2D0000000000000000000000000000000000002D00000000000000000000000000000000000000
310
2D2DF500000000000000000000000000F50000000000F5F500000000000000000000000000000000000000000000000000000000000000000000000000000000000000000000000000000000000000000000000000000000000000000000000000000000000000000000000000000000000000000000000000000000000000
310
0000000000000000000000000000000000000000000000000000000000000000000000000000000000000000000000000000000000000000000000000000000000000000F5F50000F50000000000000000000000000000F5F500002D2D000000000000000000000000000000002D0000000000000000000000000000000000
310
2D2D0000F50000000000000000000000000000F5000000F500000000000000000000000000000000000000000000000000000000000000000000000000000000000000000000000000000000000000000000000000000000000000000000000000000000000000000000000000000000000000000000000000000000000000
310
000000000000000000000000000000000000000000000000000000000000000000000000000000000000000000000000000000000000000000000000000000000000000000000000F500F500000000000000000000000000F5F500000000002D2D00000000000000000000000000002D000000000000000000000000000000
310
2D2D0000000000F500000000000000000000000000F500F5F5000000000000000000000000000000000000000000000000000000000000000000000000000000000000000000000000000000000000000000000000000000000000000000000000000000000000000000000000000000000000000000000000000000000000
310
000000000000000000000000000000000000000000000000000000000000000000000000000000000000000000000000000000000000000000000000000000000000000000000000000000F500F5F50000000000000000000000F5F5000000000000002D000000000000000000000000002D00000000000000000000000000
310
2D2D00000000000000F5F500000000000000000000F5F500F5000000000000000000000000000000000000000000000000000000000000000000000000000000000000000000000000000000000000000000000000000000000000000000000000000000000000000000000000000000000000000000000000000000000000
310
000000000000000000000000000000000000000000000000000000000000000000000000000000000000000000000000000000000000000000000000000000000000000000000000000000000000000000F5000000000000000000F5F50000000000000000002D2D0000000000F5F5000000002D0000000000BE0000000000
310
2D2D00000000000000000000F5000000000000000000F50000000000000000000000000000000000000000000000000000000000000000000000000000000000000000000000000000000000000000000000000000000000000000000000000000000000000000000000000000000000000000000000000000000000000000
310
000000000000000000000000000000000000000000000000000000000000000000000000000000000000000000000000000000000000000000000000000000000000000000000000000000000000000000000000F50000000000000000F50000000000000000000000002D2D000000F5BEF50000002D000000BEBEBEBE0000
310
2D2D000000000000000000000000F5F500000000000000F500000000000000000000000000000000000000000000000000000000000000000000000000000000000000000000000000000000000000000000000000000000000000000000000000000000000000000000000000000000000000000000000000000000000000
310
000000000000000000000000000000000000000000000000000000000000000000000000000000000000000000000000000000000000000000000000000000000000000000000000000000000000000000000000000000F5F50000000000F5F500000000000000000000000000002D2DF5BEBEBEF5F5F5BEBEBEBEBEBEBEBE
310
2D2D000000000000000000000000000000F50000000000F5F5000000000000000000000000000000000000000000000000000000000000000000000000000000000000000000000000000000000000000000000000000000000000000000000000000000000000000000000000000000000000000000000000000000000000
310
00000000000000000000000000000000000000000000000000000000000000000000000000000000000000000000000000000000000000000000000000000000000000000000000000000000000000000000000000000000000000F500000000F50000000000000000000000000000000000F5BEBEBEBEBEBEBEBEBEBEBEBE
310
BEBEBE00000000000000000000000000000000F5F5000000F5000000000000000000000000000000000000000000000000000000000000000000000000000000000000000000000000000000000000000000000000000000000000000000000000000000000000000000000000000000000000000000000000000000000000
310
00000000000000000000000000000000000000000000000000000000000000000000000000000000000000000000000000000000000000000000000000000000000000000000000000000000000000000000000000000000000000000000F5F500F5F500000000000000000000000000000000F5F5F52DBEBEBEBEBEBEBEBE
310
BEBEBEBEBE0000000000000000000000000000000000F5F5F5F50000000000000000000000000000000000000000000000000000000000000000000000000000000000000000000000000000000000000000000000000000000000000000000000000000000000000000000000000000000000000000000000000000000000
310
0000000000000000000000000000000000000000000000000000000000000000000000000000000000000000000000000000000000000000000000000000000000000000000000000000000000000000000000000000000000000000000000000000F5F50000000000000000000000000000000000F500F5F52D2DBEBEBEBE
310
BEBEBEBEBEBEBE0000000000000000000000000000000000F5F50000000000000000000000000000000000000000000000000000000000000000000000000000000000000000000000000000000000000000000000000000000000000000000000000000000000000000000000000000000000000000000000000000000000
310
00000000000000000000000000000000000000000000000000000000000000000000000000000000000000000000000000000000000000000000000000000000000000000000000000000000000000000000000000000000000000000000000000000000F5F50000000000000000000000000000000000000000F5BEBE2DBE
310
BEBEBEBEBEBE000000000000000000000000000000000000000000F5F50000000000000000000000000000000000000000000000000000000000000000000000000000000000000000000000000000000000000000000000000000000000000000000000000000000000000000000000000000000000000000000000000000
310
000000000000000000000000000000000000000000000000000000000000000000000000000000000000000000000000000000000000000000000000000000000000000000000000000000000000000000000000000000000000000000000000000000000000F5000000000000000000000000000000000000000000F5BEBE
310
BEBEF5BEBEBEBEBE000000000000000000000000000000000000000000F500000000000000000000000000000000000000000000000000000000000000000000000000000000000000000000000000000000000000000000000000000000000000000000000000000000000000000000000000000000000000000000000000
310
000000000000000000000000000000000000000000000000000000000000000000000000000000000000000000000000000000000000000000000000000000000000000000000000000000000000000000000000000000000000000000000000000000000000000000F5F50000000000000000000000000000000000000000
310
F5BE2D2DBEBEBEBEBEBE00000000000000000000000000000000000000F5F5000000000000000000000000000000000000000000000000000000000000000000000000000000000000000000000000000000000000000000000000000000000000000000000000000000000000000000000000000000000000000000000000
310
00000000000000000000000000000000000000000000000000000000000000000000000000000000000000000000000000000000000000000000000000000000000000000000000000000000000000000000000000000000000000000000000000000000000000000000000000F5F500000000000000000000000000000000
310
0000F52DBEBEBEBEBEBEBE000000000000000000000000000000000000F5F5000000000000000000000000000000000000000000000000000000000000000000000000000000000000000000000000000000000000000000000000000000000000000000000000000000000000000000000000000000000000000000000000
310
0000000000000000000000000000000000000000000000000000000000000000000000000000000000000000000000000000000000000000000000000000000000000000000000000000000000000000000000000000000000000000000000000000000000000000000000000000000000F5F5000000000000000000000000
310
0000002DF5BEBEBEBEBEBEBEBE2D00000000000000000000000000000000F5000000000000000000000000000000000000000000000000000000000000000000000000000000000000000000000000000000000000000000000000000000000000000000000000000000000000000000000000000000000000000000000000
310
000000000000000000000000000000000000000000000000000000000000000000000000000000000000000000000000000000000000000000000000000000000000000000000000000000000000000000000000000000000000000000000000000000000000000000000000000000000000000000F5000000000000000000
310
0000002D2D00F5BEBEBEBEBEBEBE00002D2D000000000000000000000000F5F500000000000000000000000000000000000000000000000000F50000F5F500F500F50000F500F50000000000000000000000000000000000000000000000000000000000000000000000000000000000000000000000000000000000000000
310
000000000000000000000000000000000000000000000000000000000000000000000000000000000000000000000000000000000000000000000000000000000000000000000000000000000000000000000000000000000000000000000000000000000000000000000000000000000000000000000000F5F50000000000
310
0000002D2D00000000F5BEBEBEBEBEBE000000002D2D000000000000000000F500000000000000000000000000000000000000000000F5F5F5F5F5F5F50000F50000F500F5F50000F5000000000000000000000000000000000000000000000000000000000000000000000000000000000000000000000000000000000000
310
00000000000000000000000000000000000000000000000000000000000000000000000000000000000000000000000000000000000000000000000000000000000000000000000000000000000000000000000000000000000000000000000000000000000000000000000000000000000000000000000000000000F5F500
310
0000002D2D000000000000F5BEBEBEBEBEBE0000000000002D2D0000000000F5F5000000000000000000000000000000000000000000000000F5F5F5F50000F500F500F5F5F5F5F5F5F5F5F5F5F5000000F500F5F500000000F5F50000F50000F5F5F500000000000000000000000000000000000000000000000000000000
310
00000000000000000000000000000000000000000000000000000000000000000000000000000000000000000000000000000000000000000000000000000000000000000000000000000000000000000000000000000000000000000000000000000000000000000000000000000000000000000000000000000000000000
310
00F5F5002D0000000000000000F5BEBEBEBEBEBE00000000000000002D0000F5F50000000000000000000000000000000000000000000000000000000000000000F5F5F50000F5F5F5F5F5F5F5F5F500000000F500F5F500F5F5F50000F5F500F5F500F5F5F500000000000000000000000000000000000000000000000000
310
00000000000000000000000000000000000000000000000000000000000000000000000000000000000000000000000000000000000000000000000000000000000000000000000000000000000000000000000000000000000000000000000000000000000000000000000000000000000000000000000000000000000000
310
000000002DF500000000000000000000F5BEBEBEBE000000000000000000002DF500000000000000000000000000000000000000000000000000000000F5F5F5F5F5F5F5F5F5F5F5F5F5F5F500F5F5F50000000000F5F5F5F50000000000F500F500F5F500F500F50000000000000000000000000000000000000000000000
310
00000000000000000000000000000000000000000000000000000000000000000000000000000000000000000000000000000000000000000000000000000000000000000000000000000000000000000000000000000000000000000000000000000000000000000000000000000000000000000000000000000000000000
310
000000002D2D00F500000000000000000000F5F5BEBEBE0000000000000000000000F52D2D0000000000000000000000000000000000000000000000000000000000000000F500000000F500F50000000000F500000000F500F5F500000000F500F5F500F5F500F500F5000000000000000000000000000000000000000000
310
00000000000000000000000000000000000000000000000000000000000000000000000000000000000000000000000000000000000000000000000000000000000000000000000000000000000000000000000000000000000000000000000000000000000000000000000000000000000000000000000000000000000000
310
00000000002D000000F5000000000000000000000000BE00000000000000000000000000F500002D00000000000000000000000000000000000000000000000000000000000000000000000000000000000000000000000000F500F500F500000000F50000F50000F500F50000000000000000000000000000000000000000
310
00000000000000000000000000000000000000000000000000000000000000000000000000000000000000000000000000000000000000000000000000000000000000000000000000000000000000000000000000000000000000000000000000000000000000000000000000000000000000000000000000000000000000
310
0000000000000000000000F50000000000000000000000002D00000000000000000000000000F500000000000000000000000000000000000000000000000000000000000000000000000000000000000000000000000000000000000000000000000000000000000000000000000000000000000000000000000000000000
310
00000000000000000000000000000000000000000000000000000000000000000000000000000000000000000000000000000000000000000000000000000000000000000000000000000000000000000000000000000000000000000000000000000000000000000000000000000000000000000000000000000000000000
310
00000000000000000000000000F50000000000000000000000002D00000000000000000000000000F50000000000000000000000000000000000000000000000000000000000000000000000000000000000000000000000000000000000000000000000000000000000000000000000000000000000000000000000000000
310
00000000000000000000000000000000000000000000000000000000000000000000000000000000000000000000000000000000000000000000000000000000000000000000000000000000000000000000000000000000000000000000000000000000000000000000000000000000000000000000000000000000000000
310
000000000000000000000000000000F50000000000000000000000002D00000000000000000000000000F5000000000000000000000000000000000000000000000000000000000000000000000000000000000000000000000000000000000000000000000000000000000000000000000000000000000000000000000000
310
00000000000000000000000000000000000000000000000000000000000000000000000000000000000000000000000000000000000000000000000000000000000000000000000000000000000000000000000000000000000000000000000000000000000000000000000000000000000000000000000000000000000000
310
0000000000000000000000000000000000F50000000000000000000000002D00000000000000000000000000F500000000000000000000000000000000000000000000000000000000000000000000000000000000000000000000000000000000000000000000000000000000000000000000000000000000000000000000
310
00000000000000000000000000000000000000000000000000000000000000000000000000000000000000000000000000000000000000000000000000000000000000000000000000000000000000000000000000000000000000000000000000000000000000000000000000000000000000000000000000000000000000
310
00000000000000000000000000000000000000F50000000000000000000000002D00000000000000000000000000F50000000000000000000000000000000000000000000000000000000000000000000000000000000000000000000000000000000000000000000000000000000000000000000000000000000000000000
310
00000000000000000000000000000000000000000000000000000000000000000000000000000000000000000000000000000000000000000000000000000000000000000000000000000000000000000000000000000000000000000000000000000000000000000000000000000000000000000000000000000000000000
310
000000000000000000000000000000000000000000F50000000000000000000000002D00000000000000000000000000F5000000000000000000000000000000000000000000000000000000000000000000000000000000000000000000000000000000000000000000000000000000000000000000000000000000000000
310
00000000000000000000000000000000000000000000000000000000000000000000000000000000000000000000000000000000000000000000000000000000000000000000000000000000000000000000000000000000000000000000000000000000000000000000000000000000000000000000000000000000000000
310
0000000000000000000000000000000000000000000000F50000000000000000000000002D00000000000000000000000000F500000000000000000000000000000000000000000000000000000000000000000000000000000000000000000000000000000000000000000000000000000000000000000000000000000000
310
00000000000000000000000000000000000000000000000000000000000000000000000000000000000000000000000000000000000000000000000000000000000000000000000000000000000000000000000000000000000000000000000000000000000000000000000000000000000000000000000000000000000000
310
00000000000000000000000000000000000000000000000000F50000000000000000000000002D00000000000000000000000000F50000000000000000000000000000000000000000000000000000000000000000000000000000000000000000000000000000000000000000000000000000000000000000000000000000
310
00000000000000000000000000000000000000000000000000000000000000000000000000000000000000000000000000000000000000000000000000000000000000000000000000000000000000000000000000000000000000000000000000000000000000000000000000000000000000000000000000000000000000
310
000000000000000000000000000000000000000000000000000000F50000000000000000000000002D00000000000000000000000000F5000000000000000000000000000000000000000000000000000000000000000000000000000000000000000000000000000000000000000000000000000000000000000000000000
310
00000000000000000000000000000000000000000000000000000000000000000000000000000000000000000000000000000000000000000000000000000000000000000000000000000000000000000000000000000000000000000000000000000000000000000000000000000000000000000000000000000000000000
310
0000000000000000000000000000000000000000000000000000000000F50000000000000000000000002D00000000000000000000000000F500000000000000000000000000000000000000000000000000000000000000000000000000000000000000000000000000000000000000000000000000000000000000000000
310
00000000000000000000000000000000000000000000000000000000000000000000000000000000000000000000000000000000000000000000000000000000000000000000000000000000000000000000000000000000000000000000000000000000000000000000000000000000000000000000000000000000000000
310
00000000000000000000000000000000000000000000000000000000000000F50000000000000000000000002D00000000000000000000000000F50000000000000000000000000000000000000000000000000000000000000000000000000000000000000000000000000000000000000000000000000000000000000000
310
00000000000000000000000000000000000000000000000000000000000000000000000000000000000000000000000000000000000000000000000000000000000000000000000000000000000000000000000000000000000000000000000000000000000000000000000000000000000000000000000000000000000000
310
000000000000000000000000000000000000000000000000000000000000000000F50000000000000000000000002D00000000000000000000000000F5000000000000000000000000000000000000000000000000000000000000000000000000000000000000000000000000000000000000000000000000000000000000
310
00000000000000000000000000000000000000000000000000000000000000000000000000000000000000000000000000000000000000000000000000000000000000000000000000000000000000000000000000000000000000000000000000000000000000000000000000000000000000000000000000000000000000
310
0000000000000000000000000000000000000000000000000000000000000000000000F50000000000000000000000002D00000000000000000000000000F500000000000000000000000000000000000000000000000000000000000000000000000000000000000000000000000000000000000000000000000000000000
310
00000000000000000000000000000000000000000000000000000000000000000000000000000000000000000000000000000000000000000000000000000000000000000000000000000000000000000000000000000000000000000000000000000000000000000000000000000000000000000000000000000000000000
310
00000000000000000000000000000000000000000000000000000000000000000000000000F5F5F5F5F5F5F5F5F5F5F5F5F5F5F5F5F5F5F5F5F5F5F5F5F5F5F5F50000000000000000000000000000000000000000000000000000000000000000000000000000000000000000000000000000000000000000000000000000
310
00000000000000000000000000000000000000000000000000000000000000000000000000000000000000000000000000000000000000000000000000000000000000000000000000000000000000000000000000000000000000000000000000000000000000000000000000000000000000000000000000000000000000
310
00000000000000000000000000000000000000000000000000000000000000000000000000000000F500000000000000000000002D0000000000000000000000F50000000000000000000000000000000000000000000000000000000000000000000000000000000000000000000000000000000000000000000000000000
310
00000000000000000000000000000000000000000000000000000000000000000000000000000000000000000000000000000000000000000000000000000000000000000000000000000000000000000000000000000000000000000000000000000000000000000000000000000000000000000000000000000000000000
310
000000000000000000000000000000000000000000000000000000000000000000000000000000000000F50000000000000000000000000000000000000000000000F5000000000000000000000000000000000000000000000000000000000000000000000000000000000000000000000000000000000000000000000000
310
00000000000000000000000000000000000000000000000000000000000000000000000000000000000000000000000000000000000000000000000000000000000000000000000000000000000000000000000000000000000000000000000000000000000000000000000000000000000000000000000000000000000000
310
0000000000000000000000000000000000000000000000000000000000000000000000000000000000000000F500000000000000000000002D00000000000000000000F50000000000000000000000000000000000000000000000000000000000000000000000000000000000000000000000000000000000000000000000
310
00000000000000000000000000000000000000000000000000000000000000000000000000000000000000000000000000000000000000000000000000000000000000000000000000000000000000000000000000000000000000000000000000000000000000000000000000000000000000000000000000000000000000
310
0000000000000000000000000000000000000000000000000000000000000000000000000000000000000000000000F5000000000000000000002D00000000000000000000F5000000000000000000000000000000000000000000000000000000000000000000000000000000000000000000000000000000000000000000
310
00000000000000000000000000000000000000000000000000000000000000000000000000000000000000000000000000000000000000000000000000000000000000000000000000000000000000000000000000000000000000000000000000000000000000000000000000000000000000000000000000000000000000
310
00000000000000000000000000000000000000000000000000000000000000000000000000000000000000000000000000F5000000000000000000002D00000000000000000000F500000000000000000000000000000000000000000000000000000000000000000000000000000000000000000000000000000000000000
310
00000000000000000000000000000000000000000000000000000000000000000000000000000000000000000000000000000000000000000000000000000000000000000000000000000000000000000000000000000000000000000000000000000000000000000000000000000000000000000000000000000000000000
310
000000000000000000000000000000000000000000000000000000000000000000000000000000000000000000000000000000F5000000000000000000002D00000000000000000000F50000000000000000000000000000000000000000000000000000000000000000000000000000000000000000000000000000000000
310
00000000000000000000000000000000000000000000000000000000000000000000000000000000000000000000000000000000000000000000000000000000000000000000000000000000000000000000000000000000000000000000000000000000000000000000000000000000000000000000000000000000000000
310
0000000000000000000000000000000000000000000000000000000000000000000000000000000000000000000000000000000000F5000000000000000000002D00000000000000000000F5000000000000000000000000000000000000000000000000000000000000000000000000000000000000000000000000000000
310
00000000000000000000000000000000000000000000000000000000000000000000000000000000000000000000000000000000000000000000000000000000000000000000000000000000000000000000000000000000000000000000000000000000000000000000000000000000000000000000000000000000000000
310
00000000000000000000000000000000000000000000000000000000000000000000000000000000000000000000000000000000000000F5000000000000000000000000000000000000000000F500000000000000000000000000000000000000000000000000000000000000000000000000000000000000000000000000
310
00000000000000000000000000000000000000000000000000000000000000000000000000000000000000000000000000000000000000000000000000000000000000000000000000000000000000000000000000000000000000000000000000000000000000000000000000000000000000000000000000000000000000
310
000000000000000000000000000000000000000000000000000000000000000000000000000000000000000000000000000000000000000000F5000000000000000000002D000000000000000000F5000000000000000000000000000000000000000000000000000000000000000000000000000000000000000000000000
310
00000000000000000000000000000000000000000000000000000000000000000000000000000000000000000000000000000000000000000000000000000000000000000000000000000000000000000000000000000000000000000000000000000000000000000000000000000000000000000000000000000000000000
310
000000000000000000000000000000000000000000000000000000000000000000000000000000000000000000000000000000000000000000000000F50000000000000000002D000000000000000000F500000000000000000000000000000000000000000000000000000000000000000000000000000000000000000000
310
00000000000000000000000000000000000000000000000000000000000000000000000000000000000000000000000000000000000000000000000000000000000000000000000000000000000000000000000000000000000000000000000000000000000000000000000000000000000000000000000000000000000000
310
0000000000000000000000000000000000000000000000000000000000000000000000000000000000000000000000000000000000000000000000000000F50000000000000000002D000000000000000000F50000000000000000000000000000000000000000000000000000000000000000000000000000000000000000
310
00000000000000000000000000000000000000000000000000000000000000000000000000000000000000000000000000000000000000000000000000000000000000000000000000000000000000000000000000000000000000000000000000000000000000000000000000000000000000000000000000000000000000
310
0000000000000000000000000000000000000000000000000000000000000000000000000000000000000000000000000000000000000000000000000000F5F5F5F5F5F5F5F5F5F5F5F5F5F5F5F5F5F5F5F5F5F5F5F5F500000000000000000000000000000000000000000000000000000000000000000000000000000000
310
00000000000000000000000000000000000000000000000000000000000000000000000000000000000000000000000000000000000000000000000000000000000000000000000000000000000000000000000000000000000000000000000000000000000000000000000000000000000000000000000000000000000000
310
00000000000000000000000000000000000000000000000000000000000000000000000000000000000000000000000000000000000000000000000000000000F500000000000000000000002D0000000000000000000000F50000000000000000000000000000000000000000000000000000000000000000000000000000
310
00000000000000000000000000000000000000000000000000000000000000000000000000000000000000000000000000000000000000000000000000000000000000000000000000000000000000000000000000000000000000000000000000000000000000000000000000000000000000000000000000000000000000
310
000000000000000000000000000000000000000000000000000000000000000000000000000000000000000000000000000000000000000000000000000000000000F500000000000000000000002D0000000000000000000000F5000000000000000000000000000000000000000000000000000000000000000000000000
310
00000000000000000000000000000000000000000000000000000000000000000000000000000000000000000000000000000000000000000000000000000000000000000000000000000000000000000000000000000000000000000000000000000000000000000000000000000000000000000000000000000000000000
310
0000000000000000000000000000000000000000000000000000000000000000000000000000000000000000000000000000000000000000000000000000000000000000F500000000000000000000002D0000000000000000000000F500000000000000000000000000000000000000000000000000000000000000000000
310
00000000000000000000000000000000000000000000000000000000000000000000000000000000000000000000000000000000000000000000000000000000000000000000000000000000000000000000000000000000000000000000000000000000000000000000000000000000000000000000000000000000000000
310
0000000000000000000000000000000000000000000000000000000000000000000000000000000000000000000000000000000000000000000000000000000000000000000000F5000000000000000000002D00000000000000000000F5000000000000000000000000000000000000000000000000000000000000000000
310
00000000000000000000000000000000000000000000000000000000000000000000000000000000000000000000000000000000000000000000000000000000000000000000000000000000000000000000000000000000000000000000000000000000000000000000000000000000000000000000000000000000000000
310
00000000000000000000000000000000000000000000000000000000000000000000000000000000000000000000000000000000000000000000000000000000000000000000000000F5000000000000000000002D00000000000000000000F500000000000000000000000000000000000000000000000000000000000000
310
00000000000000000000000000000000000000000000000000000000000000000000000000000000000000000000000000000000000000000000000000000000000000000000000000000000000000000000000000000000000000000000000000000000000000000000000000000000000000000000000000000000000000
310
000000000000000000000000000000000000000000000000000000000000000000000000000000000000000000000000000000000000000000000000000000000000000000000000000000F5000000000000000000002D00000000000000000000F50000000000000000000000000000000000000000000000000000000000
310
00000000000000000000000000000000000000000000000000000000000000000000000000000000000000000000000000000000000000000000000000000000000000000000000000000000000000000000000000000000000000000000000000000000000000000000000000000000000000000000000000000000000000
310
0000000000000000000000000000000000000000000000000000000000000000000000000000000000000000000000000000000000000000000000000000000000000000000000000000000000F5000000000000000000002D00000000000000000000F5000000000000000000000000000000000000000000000000000000
310
00000000000000000000000000000000000000000000000000000000000000000000000000000000000000000000000000000000000000000000000000000000000000000000000000000000000000000000000000000000000000000000000000000000000000000000000000000000000000000000000000000000000000
310
00000000000000000000000000000000000000000000000000000000000000000000000000000000000000000000000000000000000000000000000000000000000000000000000000000000000000F5000000000000000000002D00000000000000000000F500000000000000000000000000000000000000000000000000
310
00000000000000000000000000000000000000000000000000000000000000000000000000000000000000000000000000000000000000000000000000000000000000000000000000000000000000000000000000000000000000000000000000000000000000000000000000000000000000000000000000000000000000
310
000000000000000000000000000000000000000000000000000000000000000000000000000000000000000000000000000000000000000000000000000000000000000000000000000000000000000000F5000000000000000000002D00000000000000000000F50000000000000000000000000000000000000000000000
310
00000000000000000000000000000000000000000000000000000000000000000000000000000000000000000000000000000000000000000000000000000000000000000000000000000000000000000000000000000000000000000000000000000000000000000000000000000000000000000000000000000000000000
310
000000000000000000000000000000000000000000000000000000000000000000000000000000000000000000000000000000000000000000000000000000000000000000000000000000000000000000000000F50000000000000000002D000000000000000000F500000000000000000000000000000000000000000000
310
00000000000000000000000000000000000000000000000000000000000000000000000000000000000000000000000000000000000000000000000000000000000000000000000000000000000000000000000000000000000000000000000000000000000000000000000000000000000000000000000000000000000000
310
0000000000000000000000000000000000000000000000000000000000000000000000000000000000000000000000000000000000000000000000000000000000000000000000000000000000000000000000000000F50000000000000000002D000000000000000000F50000000000000000000000000000000000000000
310
00000000000000000000000000000000000000000000000000000000000000000000000000000000000000000000000000000000000000000000000000000000000000000000000000000000000000000000000000000000000000000000000000000000000000000000000000000000000000000000000000000000000000
310
00000000000000000000000000000000000000000000000000000000000000000000000000000000000000000000000000000000000000000000000000000000000000000000000000000000000000000000000000000000F50000000000000000002D000000000000000000F5000000000000000000000000000000000000
310
00000000000000000000000000000000000000000000000000000000000000000000000000000000000000000000000000000000000000000000000000000000000000000000000000000000000000000000000000000000000000000000000000000000000000000000000000000000000000000000000000000000000000
310
00000000000000000000000000000000000000000000000000000000000000000000000000000000000000000000000000000000000000000000000000000000000000000000000000000000000000000000000000000000F5F5F5F5F5F5F5F5F5F5F5F5F5F5F5F5F5F5F5F5F5F5F5F5F50000000000000000000000000000
310
00000000000000000000000000000000000000000000000000000000000000000000000000000000000000000000000000000000000000000000000000000000000000000000000000000000000000000000000000000000000000000000000000000000000000000000000000000000000000000000000000000000000000
310
000000000000000000000000000000000000000000000000000000000000000000000000000000000000000000000000000000000000000000000000000000000000000000000000000000000000000000000000000000000000F50000000000000000000000000000000000000000000000F5000000000000000000000000
310
00000000000000000000000000000000000000000000000000000000000000000000000000000000000000000000000000000000000000000000000000000000000000000000000000000000000000000000000000000000000000000000000000000000000000000000000000000000000000000000000000000000000000
310
0000000000000000000000000000000000000000000000000000000000000000000000000000000000000000000000000000000000000000000000000000000000000000000000000000000000000000000000000000000000000000F500000000000000000000002D0000000000000000000000F500000000000000000000
310
00000000000000000000000000000000000000000000000000000000000000000000000000000000000000000000000000000000000000000000000000000000000000000000000000000000000000000000000000000000000000000000000000000000000000000000000000000000000000000000000000000000000000
310
00000000000000000000000000000000000000000000000000000000000000000000000000000000000000000000000000000000000000000000000000000000000000000000000000000000000000000000000000000000000000000000F500000000000000000000002D00000000000000000000F5000000000000000000
310
00000000000000000000000000000000000000000000000000000000000000000000000000000000000000000000000000000000000000000000000000000000000000000000000000000000000000000000000000000000000000000000000000000000000000000000000000000000000000000000000000000000000000
310
00000000000000000000000000000000000000000000000000000000000000000000000000000000000000000000000000000000000000000000000000000000000000000000000000000000000000000000000000000000000000000000000000F5000000000000000000002D00000000000000000000F500000000000000
310
00000000000000000000000000000000000000000000000000000000000000000000000000000000000000000000000000000000000000000000000000000000000000000000000000000000000000000000000000000000000000000000000000000000000000000000000000000000000000000000000000000000000000
310
000000000000000000000000000000000000000000000000000000000000000000000000000000000000000000000000000000000000000000000000000000000000000000000000000000000000000000000000000000000000000000000000000000F5000000000000000000002D00000000000000000000F50000000000
310
00000000000000000000000000000000000000000000000000000000000000000000000000000000000000000000000000000000000000000000000000000000000000000000000000000000000000000000000000000000000000000000000000000000000000000000000000000000000000000000000000000000000000
310
0000000000000000000000000000000000000000000000000000000000000000000000000000000000000000000000000000000000000000000000000000000000000000000000000000000000000000000000000000000000000000000000000000000000F5000000000000000000002D00000000000000000000F5000000
310
00000000000000000000000000000000000000000000000000000000000000000000000000000000000000000000000000000000000000000000000000000000000000000000000000000000000000000000000000000000000000000000000000000000000000000000000000000000000000000000000000000000000000
310
00000000000000000000000000000000000000000000000000000000000000000000000000000000000000000000000000000000000000000000000000000000000000000000000000000000000000000000000000000000000000000000000000000000000000F5000000000000000000000000000000000000000000F500
310
00000000000000000000000000000000000000000000000000000000000000000000000000000000000000000000000000000000000000000000000000000000000000000000000000000000000000000000000000000000000000000000000000000000000000000000000000000000000000000000000000000000000000
310
000000000000000000000000000000000000000000000000000000000000000000000000000000000000000000000000000000000000000000000000000000000000000000000000000000000000000000000000000000000000000000000000000000000000000000F5000000000000000000002D00000000000000000000
310
F5000000000000000000000000000000000000000000000000000000000000000000000000000000000000000000000000000000000000000000000000000000000000000000000000000000000000000000000000000000000000000000000000000000000000000000000000000000000000000000000000000000000000
310
0000000000000000000000000000000000000000000000000000000000000000000000000000000000000000000000000000000000000000000000000000000000000000000000000000000000000000000000000000000000000000000000000000000000000000000000F5000000000000000000002D0000000000000000
310
00F50000000000000000000000000000000000000000000000000000000000000000000000000000000000000000000000000000000000000000000000000000000000000000000000000000000000000000000000000000000000000000000000000000000000000000000000000000000000000000000000000000000000
310
0000000000000000000000000000000000000000000000000000000000000000000000000000000000000000000000000000000000000000000000000000000000000000000000000000000000000000000000000000000000000000000000000000000000000000000000000000F50000000000000000002D000000000000
310
000000F5000000000000000000000000000000000000000000000000000000000000000000000000000000000000000000000000000000000000000000000000000000000000000000000000000000000000000000000000000000000000000000000000000000000000000000000000000000000000000000000000000000
310
00000000000000000000000000000000000000000000000000000000000000000000000000000000000000000000000000000000000000000000000000000000000000000000000000000000000000000000000000000000000000000000000000000000000000000000000000000000F50000000000000000002D00000000
310
0000000000F500000000000000000000000000000000000000000000000000000000000000000000000000000000000000000000000000000000000000000000000000000000000000000000000000000000000000000000000000000000000000000000000000000000000000000000000000000000000000000000000000
310
00000000000000000000000000000000000000000000000000000000000000000000000000000000000000000000000000000000000000000000000000000000000000000000000000000000000000000000000000000000000000000000000000000000000000000000000000000000F5F5F5F5F5F5F5F5F5F5F5F5F5F5F5
310
F5F5F5F5F5F5F5F5F5F5000000000000000000000000000000000000000000000000000000000000000000000000000000000000000000000000000000000000000000000000000000000000000000000000000000000000000000000000000000000000000000000000000000000000000000000000000000000000000000
310
000000000000000000000000000000000000000000000000000000000000000000000000000000000000000000000000000000000000000000000000000000000000000000000000000000000000000000000000000000000000000000000000000000000000000000000000000000000000F500000000000000000000002D
310
0000000000000000000000F500000000000000000000000000000000000000000000000000000000000000000000000000000000000000000000000000000000000000000000000000000000000000000000000000000000000000000000000000000000000000000000000000000000000000000000000000000000000000
310
0000000000000000000000000000000000000000000000000000000000000000000000000000000000000000000000000000000000000000000000000000000000000000000000000000000000000000000000000000000000000000000000000000000000000000000000000000000000000000F500000000000000000000
310
002D0000000000000000000000F50000000000000000000000000000000000000000000000000000000000000000000000000000000000000000000000000000000000000000000000000000000000000000000000000000000000000000000000000000000000000000000000000000000000000000000000000000000000
310
0000000000000000000000000000000000000000000000000000000000000000000000000000000000000000000000000000000000000000000000000000000000000000000000000000000000000000000000000000000000000000000000000000000000000000000000000000000000000000000000F500000000000000
310
0000002D0000000000000000000000F5000000000000000000000000000000000000000000000000000000000000000000000000000000000000000000000000000000000000000000000000000000000000000000000000000000000000000000000000000000000000000000000000000000000000000000000000000000
310
00000000000000000000000000000000000000000000000000000000000000000000000000000000000000000000000000000000000000000000000000000000000000000000000000000000000000000000000000000000000000000000000000000000000000000000000000000000000000000000000000F50000000000
310
00000000002D0000000000000000000000F500000000000000000000000000000000000000000000000000000000000000000000000000000000000000000000000000000000000000000000000000000000000000000000000000000000000000000000000000000000000000000000000000000000000000000000000000
310
000000000000000000000000000000000000000000000000000000000000000000000000000000000000000000000000000000000000000000000000000000000000000000000000000000000000000000000000000000000000000000000000000000000000000000000000000000000000000000000000000000F5000000
310
000000000000002D00000000000000000000F5000000000000000000000000000000000000000000000000000000000000000000000000000000000000000000000000000000000000000000000000000000000000000000000000000000000000000000000000000000000000000000000000000000000000000000000000
310
0000000000000000000000000000000000000000000000000000000000000000000000000000000000000000000000000000000000000000000000000000000000000000000000000000000000000000000000000000000000000000000000000000000000000000000000000000000000000000000000000000000000F500
310
0000000000000000002D00000000000000000000F500000000000000000000000000000000000000000000000000000000000000000000000000000000000000000000000000000000000000000000000000000000000000000000000000000000000000000000000000000000000000000000000000000000000000000000
310
00000000000000000000000000000000000000000000000000000000000000000000000000000000000000000000000000000000000000000000000000000000000000000000000000000000000000000000000000000000000000000000000000000000000000000000000000000000000000000000000000000000000000
310
F5000000000000000000002D00000000000000000000F50000000000000000000000000000000000000000000000000000000000000000000000000000000000000000000000000000000000000000000000000000000000000000000000000000000000000000000000000000000000000000000000000000000000000000
310
00000000000000000000000000000000000000000000000000000000000000000000000000000000000000000000000000000000000000000000000000000000000000000000000000000000000000000000000000000000000000000000000000000000000000000000000000000000000000000000000000000000000000
310
000000F50000000000000000002D00000000000000000000F5000000000000000000000000000000000000000000000000000000000000000000000000000000000000000000000000000000000000000000000000000000000000000000000000000000000000000000000000000000000000000000000000000000000000
310
00000000000000000000000000000000000000000000000000000000000000000000000000000000000000000000000000000000000000000000000000000000000000000000000000000000000000000000000000000000000000000000000000000000000000000000000000000000000000000000000000000000000000
310
0000000000F50000000000000000002D00000000000000000000F500000000000000000000000000000000000000000000000000000000000000000000000000000000000000000000000000000000000000000000000000000000000000000000000000000000000000000000000000000000000000000000000000000000
310
00000000000000000000000000000000000000000000000000000000000000000000000000000000000000000000000000000000000000000000000000000000000000000000000000000000000000000000000000000000000000000000000000000000000000000000000000000000000000000000000000000000000000
310
00000000000000F5F5F5F5F5F5F5F5F5F5F5F5F5F5F5F5F5F5F5F5F5F50000000000000000000000000000000000000000000000000000000000000000000000000000000000000000000000000000000000000000000000000000000000000000000000000000000000000000000000000000000000000000000000000000
310
00000000000000000000000000000000000000000000000000000000000000000000000000000000000000000000000000000000000000000000000000000000000000000000000000000000000000000000000000000000000000000000000000000000000000000000000000000000000000000000000000000000000000
310
00000000000000000000F500000000000000002D000000000000000000F500000000000000000000000000000000000000000000000000000000000000000000000000000000000000000000000000000000000000000000000000000000000000000000000000000000000000000000000000000000000000000000000000
310
00000000000000000000000000000000000000000000000000000000000000000000000000000000000000000000000000000000000000000000000000000000000000000000000000000000000000000000000000000000000000000000000000000000000000000000000000000000000000000000000000000000000000
310
000000000000000000000000F5F5F5F5F5F5F5F5F5F5F5F5F5F5F5F5F5F5F5000000000000000000000000000000000000000000000000000000000000000000000000000000000000000000000000000000000000000000000000000000000000000000000000000000000000000000000000000000000000000000000000
310
00000000000000000000000000000000000000000000000000000000000000000000000000000000000000000000000000000000000000000000000000000000000000000000000000000000000000000000000000000000000000000000000000000000000000000000000000000000000000000000000000000000000000
310
00000000000000000000000000000000000000000000002D00000000000000000000000000000000000000000000000000000000000000000000000000000000000000000000000000000000000000000000000000000000000000000000000000000000000000000000000000000000000000000000000000000000000000
310
00000000000000000000000000000000000000000000000000000000000000000000000000000000000000000000000000000000000000000000000000000000000000000000000000000000000000000000000000000000000000000000000000000000000000000000000000000000000000000000000000000000000000
310
000000000000000000000000000000000000000000000000002D0000000000000000000000000000000000000000000000000000000000000000000000000000000000000000000000000000000000000000000000000000000000000000000000000000000000000000000000000000000000000000000000000000000000
310
00000000000000000000000000000000000000000000000000000000000000000000000000000000000000000000000000000000000000000000000000000000000000000000000000000000000000000000000000000000000000000000000000000000000000000000000000000000000000000000000000000000000000
310
0000000000000000000000000000000000000000000000000000002D000000000000000000000000000000000000000000000000000000000000000000000000000000000000000000000000000000000000000000000000000000000000000000000000000000000000000000000000000000000000000000000000000000
310
00000000000000000000000000000000000000000000000000000000000000000000000000000000000000000000000000000000000000000000000000000000000000000000000000000000000000000000000000000000000000000000000000000000000000000000000000000000000000000000000000000000000000
310
00000000000000000000000000000000000000000000000000000000002D00000000000000000000000000000000000000000000000000000000000000000000000000000000000000000000000000000000000000000000000000000000000000000000000000000000000000000000000000000000000000000000000000
310
00000000000000000000000000000000000000000000000000000000000000000000000000000000
  0
XRECORD
  5
18CD
102
{ACAD_REACTORS
330
18CC
102
}
330
18CC
100
AcDbXrecord
280
     1
102
SHADEPLOT
 70
     0
102
SHADEPLOTRESLEVEL
 70
     2
102
SHADEPLOTCUSTOMDPI
 70
   300
  0
XRECORD
  5
18D0
102
{ACAD_REACTORS
330
18CF
102
}
330
18CF
100
AcDbXrecord
280
     1
102
SHADEPLOT
 70
     0
102
SHADEPLOTRESLEVEL
 70
     2
102
SHADEPLOTCUSTOMDPI
 70
   300
  0
XRECORD
  5
18D4
102
{ACAD_REACTORS
330
18D3
102
}
330
18D3
100
AcDbXrecord
280
     1
102
MATERIAL
148
0.0
149
0.0
149
0.0
 93
        0
 94
       63
282
     0
 72
     1
 77
     1
171
     1
175
     1
179
     1
273
     0
  0
XRECORD
  5
18D2
102
{ACAD_REACTORS
330
18D1
102
}
330
18D1
100
AcDbXrecord
280
     1
102
MATERIAL
148
0.0
149
0.0
149
0.0
 93
        0
 94
       63
282
     0
 72
     1
 77
     1
171
     1
175
     1
179
     1
273
     0
  0
XRECORD
  5
18D6
102
{ACAD_REACTORS
330
18D5
102
}
330
18D5
100
AcDbXrecord
280
     1
102
MATERIAL
148
0.0
149
0.0
149
0.0
 93
        0
 94
       63
282
     0
 72
     1
 77
     1
171
     1
175
     1
179
     1
273
     0
  0
CELLSTYLEMAP
  5
18C4
102
{ACAD_REACTORS
330
B4D
102
}
330
B4D
100
AcDbCellStyleMap
 90
        3
300
CELLSTYLE
  1
TABLEFORMAT_BEGIN
 90
        5
170
     1
 91
        0
 92
    32768
 62
   257
 93
        1
300
CONTENTFORMAT
  1
CONTENTFORMAT_BEGIN
 90
        0
 91
        0
 92
      512
 93
        0
300

 40
0.0
140
1.0
 94
        5
 62
     0
340
11
144
6.0
309
CONTENTFORMAT_END
171
     1
301
MARGIN
  1
CELLMARGIN_BEGIN
 40
1.5
 40
1.5
 40
1.5
 40
1.5
 40
0.18
 40
0.18
309
CELLMARGIN_END
 94
        6
 95
        1
302
GRIDFORMAT
  1
GRIDFORMAT_BEGIN
 90
        0
 91
        1
 62
     0
 92
       -2
340
0
 93
        0
 40
0.045
309
GRIDFORMAT_END
 95
        2
302
GRIDFORMAT
  1
GRIDFORMAT_BEGIN
 90
        0
 91
        1
 62
     0
 92
       -2
340
0
 93
        0
 40
0.045
309
GRIDFORMAT_END
 95
        4
302
GRIDFORMAT
  1
GRIDFORMAT_BEGIN
 90
        0
 91
        1
 62
     0
 92
       -2
340
0
 93
        0
 40
0.045
309
GRIDFORMAT_END
 95
        8
302
GRIDFORMAT
  1
GRIDFORMAT_BEGIN
 90
        0
 91
        1
 62
     0
 92
       -2
340
0
 93
        0
 40
0.045
309
GRIDFORMAT_END
 95
       16
302
GRIDFORMAT
  1
GRIDFORMAT_BEGIN
 90
        0
 91
        1
 62
     0
 92
       -2
340
0
 93
        0
 40
0.045
309
GRIDFORMAT_END
 95
       32
302
GRIDFORMAT
  1
GRIDFORMAT_BEGIN
 90
        0
 91
        1
 62
     0
 92
       -2
340
0
 93
        0
 40
0.045
309
GRIDFORMAT_END
309
TABLEFORMAT_END
  1
CELLSTYLE_BEGIN
 90
        1
 91
        1
300
_TITLE
309
CELLSTYLE_END
300
CELLSTYLE
  1
TABLEFORMAT_BEGIN
 90
        5
170
     1
 91
        0
 92
        0
 62
   257
 93
        1
300
CONTENTFORMAT
  1
CONTENTFORMAT_BEGIN
 90
        0
 91
        0
 92
      512
 93
        0
300

 40
0.0
140
1.0
 94
        5
 62
     0
340
11
144
4.5
309
CONTENTFORMAT_END
171
     1
301
MARGIN
  1
CELLMARGIN_BEGIN
 40
1.5
 40
1.5
 40
1.5
 40
1.5
 40
0.18
 40
0.18
309
CELLMARGIN_END
 94
        6
 95
        1
302
GRIDFORMAT
  1
GRIDFORMAT_BEGIN
 90
        0
 91
        1
 62
     0
 92
       -2
340
0
 93
        0
 40
0.045
309
GRIDFORMAT_END
 95
        2
302
GRIDFORMAT
  1
GRIDFORMAT_BEGIN
 90
        0
 91
        1
 62
     0
 92
       -2
340
0
 93
        0
 40
0.045
309
GRIDFORMAT_END
 95
        4
302
GRIDFORMAT
  1
GRIDFORMAT_BEGIN
 90
        0
 91
        1
 62
     0
 92
       -2
340
0
 93
        0
 40
0.045
309
GRIDFORMAT_END
 95
        8
302
GRIDFORMAT
  1
GRIDFORMAT_BEGIN
 90
        0
 91
        1
 62
     0
 92
       -2
340
0
 93
        0
 40
0.045
309
GRIDFORMAT_END
 95
       16
302
GRIDFORMAT
  1
GRIDFORMAT_BEGIN
 90
        0
 91
        1
 62
     0
 92
       -2
340
0
 93
        0
 40
0.045
309
GRIDFORMAT_END
 95
       32
302
GRIDFORMAT
  1
GRIDFORMAT_BEGIN
 90
        0
 91
        1
 62
     0
 92
       -2
340
0
 93
        0
 40
0.045
309
GRIDFORMAT_END
309
TABLEFORMAT_END
  1
CELLSTYLE_BEGIN
 90
        2
 91
        1
300
_HEADER
309
CELLSTYLE_END
300
CELLSTYLE
  1
TABLEFORMAT_BEGIN
 90
        5
170
     1
 91
        0
 92
        0
 62
   257
 93
        1
300
CONTENTFORMAT
  1
CONTENTFORMAT_BEGIN
 90
        0
 91
        0
 92
      512
 93
        0
300

 40
0.0
140
1.0
 94
        2
 62
     0
340
11
144
4.5
309
CONTENTFORMAT_END
171
     1
301
MARGIN
  1
CELLMARGIN_BEGIN
 40
1.5
 40
1.5
 40
1.5
 40
1.5
 40
0.18
 40
0.18
309
CELLMARGIN_END
 94
        6
 95
        1
302
GRIDFORMAT
  1
GRIDFORMAT_BEGIN
 90
        0
 91
        1
 62
     0
 92
       -2
340
0
 93
        0
 40
0.045
309
GRIDFORMAT_END
 95
        2
302
GRIDFORMAT
  1
GRIDFORMAT_BEGIN
 90
        0
 91
        1
 62
     0
 92
       -2
340
0
 93
        0
 40
0.045
309
GRIDFORMAT_END
 95
        4
302
GRIDFORMAT
  1
GRIDFORMAT_BEGIN
 90
        0
 91
        1
 62
     0
 92
       -2
340
0
 93
        0
 40
0.045
309
GRIDFORMAT_END
 95
        8
302
GRIDFORMAT
  1
GRIDFORMAT_BEGIN
 90
        0
 91
        1
 62
     0
 92
       -2
340
0
 93
        0
 40
0.045
309
GRIDFORMAT_END
 95
       16
302
GRIDFORMAT
  1
GRIDFORMAT_BEGIN
 90
        0
 91
        1
 62
     0
 92
       -2
340
0
 93
        0
 40
0.045
309
GRIDFORMAT_END
 95
       32
302
GRIDFORMAT
  1
GRIDFORMAT_BEGIN
 90
        0
 91
        1
 62
     0
 92
       -2
340
0
 93
        0
 40
0.045
309
GRIDFORMAT_END
309
TABLEFORMAT_END
  1
CELLSTYLE_BEGIN
 90
        3
 91
        2
300
_DATA
309
CELLSTYLE_END
  0
XRECORD
  5
18F7
102
{ACAD_REACTORS
330
B4D
102
}
330
B4D
100
AcDbXrecord
280
     1
102
ACAD_ROUNDTRIP_PRE2007_TABLESTYLE
 90
      512
 91
        0
  1

 92
      512
 93
        0
  2

 94
      512
 95
        0
  3

  0
XRECORD
  5
18E2
102
{ACAD_REACTORS
330
18E1
102
}
330
18E1
100
AcDbXrecord
280
     1
102
RTVSPropertyOp0
 70
     1
102
RTVSPropertyOp1
 70
     1
102
RTVSPropertyOp2
 70
     1
102
RTVSPropertyOp3
 70
     1
102
RTVSPropertyOp4
 70
     1
102
RTVSPropertyOp5
 70
     1
102
RTVSPropertyOp6
 70
     1
102
RTVSPropertyOp7
 70
     1
102
RTVSPropertyOp8
 70
     1
102
RTVSPropertyOp9
 70
     1
102
RTVSPropertyOp10
 70
     1
102
RTVSPropertyOp11
 70
     1
102
RTVSPropertyOp12
 70
     1
102
RTVSPropertyOp13
 70
     1
102
RTVSPropertyOp14
 70
     1
102
RTVSPropertyOp15
 70
     1
102
RTVSPropertyOp16
 70
     1
102
RTVSPropertyOp17
 70
     1
102
RTVSPropertyOp18
 70
     1
102
RTVSPropertyOp19
 70
     1
102
RTVSPropertyOp20
 70
     1
102
RTVSPropertyOp21
 70
     1
102
RTVSPropertyOp22
 70
     1
102
RTVSPropertyOp23
 70
     1
102
RTVSPropertyOp24
 70
     1
102
RTVSPropertyOp25
 70
     1
102
RTVSPropertyOp26
 70
     1
102
RTVSPropertyOp27
 70
     1
102
RTVSPropertyOp28
 70
     1
102
RTVSPropertyOp29
 70
     1
102
RTVSPropertyOp30
 70
     1
102
RTVSPropertyOp31
 70
     1
102
RTVSPropertyOp32
 70
     1
  0
XRECORD
  5
18E6
102
{ACAD_REACTORS
330
18E5
102
}
330
18E5
100
AcDbXrecord
280
     1
102
RTVSPropertyOp0
 70
     1
102
RTVSPropertyOp1
 70
     1
102
RTVSPropertyOp2
 70
     1
102
RTVSPropertyOp3
 70
     1
102
RTVSPropertyOp4
 70
     1
102
RTVSPropertyOp5
 70
     1
102
RTVSPropertyOp6
 70
     1
102
RTVSPropertyOp7
 70
     1
102
RTVSPropertyOp8
 70
     1
102
RTVSPropertyOp9
 70
     1
102
RTVSPropertyOp10
 70
     1
102
RTVSPropertyOp11
 70
     1
102
RTVSPropertyOp12
 70
     1
102
RTVSPropertyOp13
 70
     1
102
RTVSPropertyOp14
 70
     1
102
RTVSPropertyOp15
 70
     1
102
RTVSPropertyOp16
 70
     1
102
RTVSPropertyOp17
 70
     1
102
RTVSPropertyOp18
 70
     1
102
RTVSPropertyOp19
 70
     1
102
RTVSPropertyOp20
 70
     1
102
RTVSPropertyOp21
 70
     1
102
RTVSPropertyOp22
 70
     1
102
RTVSPropertyOp23
 70
     1
102
RTVSPropertyOp24
 70
     1
102
RTVSPropertyOp25
 70
     1
102
RTVSPropertyOp26
 70
     1
102
RTVSPropertyOp27
 70
     1
102
RTVSPropertyOp28
 70
     1
102
RTVSPropertyOp29
 70
     1
102
RTVSPropertyOp30
 70
     1
102
RTVSPropertyOp31
 70
     1
102
RTVSPropertyOp32
 70
     1
  0
XRECORD
  5
18E4
102
{ACAD_REACTORS
330
18E3
102
}
330
18E3
100
AcDbXrecord
280
     1
102
RTVSPropertyOp0
 70
     1
102
RTVSPropertyOp1
 70
     1
102
RTVSPropertyOp2
 70
     1
102
RTVSPropertyOp3
 70
     1
102
RTVSPropertyOp4
 70
     1
102
RTVSPropertyOp5
 70
     1
102
RTVSPropertyOp6
 70
     1
102
RTVSPropertyOp7
 70
     1
102
RTVSPropertyOp8
 70
     1
102
RTVSPropertyOp9
 70
     1
102
RTVSPropertyOp10
 70
     1
102
RTVSPropertyOp11
 70
     1
102
RTVSPropertyOp12
 70
     1
102
RTVSPropertyOp13
 70
     1
102
RTVSPropertyOp14
 70
     1
102
RTVSPropertyOp15
 70
     1
102
RTVSPropertyOp16
 70
     1
102
RTVSPropertyOp17
 70
     1
102
RTVSPropertyOp18
 70
     1
102
RTVSPropertyOp19
 70
     1
102
RTVSPropertyOp20
 70
     1
102
RTVSPropertyOp21
 70
     1
102
RTVSPropertyOp22
 70
     1
102
RTVSPropertyOp23
 70
     1
102
RTVSPropertyOp24
 70
     1
102
RTVSPropertyOp25
 70
     1
102
RTVSPropertyOp26
 70
     1
102
RTVSPropertyOp27
 70
     1
102
RTVSPropertyOp28
 70
     1
102
RTVSPropertyOp29
 70
     1
102
RTVSPropertyOp30
 70
     1
102
RTVSPropertyOp31
 70
     1
102
RTVSPropertyOp32
 70
     1
  0
XRECORD
  5
18E0
102
{ACAD_REACTORS
330
18DF
102
}
330
18DF
100
AcDbXrecord
280
     1
102
RTVSPropertyOp0
 70
     1
102
RTVSPropertyOp1
 70
     1
102
RTVSPropertyOp2
 70
     1
102
RTVSPropertyOp3
 70
     1
102
RTVSPropertyOp4
 70
     1
102
RTVSPropertyOp5
 70
     1
102
RTVSPropertyOp6
 70
     1
102
RTVSPropertyOp7
 70
     1
102
RTVSPropertyOp8
 70
     1
102
RTVSPropertyOp9
 70
     1
102
RTVSPropertyOp10
 70
     1
102
RTVSPropertyOp11
 70
     1
102
RTVSPropertyOp12
 70
     1
102
RTVSPropertyOp13
 70
     1
102
RTVSPropertyOp14
 70
     1
102
RTVSPropertyOp15
 70
     1
102
RTVSPropertyOp16
 70
     1
102
RTVSPropertyOp17
 70
     1
102
RTVSPropertyOp18
 70
     1
102
RTVSPropertyOp19
 70
     1
102
RTVSPropertyOp20
 70
     1
102
RTVSPropertyOp21
 70
     1
102
RTVSPropertyOp22
 70
     1
102
RTVSPropertyOp23
 70
     1
102
RTVSPropertyOp24
 70
     1
102
RTVSPropertyOp25
 70
     1
102
RTVSPropertyOp26
 70
     1
102
RTVSPropertyOp27
 70
     1
102
RTVSPropertyOp28
 70
     1
102
RTVSPropertyOp29
 70
     1
102
RTVSPropertyOp30
 70
     1
102
RTVSPropertyOp31
 70
     1
102
RTVSPropertyOp32
 70
     1
  0
XRECORD
  5
18EE
102
{ACAD_REACTORS
330
18ED
102
}
330
18ED
100
AcDbXrecord
280
     1
102
RTVSPropertyOp0
 70
     1
102
RTVSPropertyOp1
 70
     1
102
RTVSPropertyOp2
 70
     1
102
RTVSPropertyOp3
 70
     1
102
RTVSPropertyOp4
 70
     1
102
RTVSPropertyOp5
 70
     1
102
RTVSPropertyOp6
 70
     1
102
RTVSPropertyOp7
 70
     1
102
RTVSPropertyOp8
 70
     1
102
RTVSPropertyOp9
 70
     1
102
RTVSPropertyOp10
 70
     1
102
RTVSPropertyOp11
 70
     1
102
RTVSPropertyOp12
 70
     1
102
RTVSPropertyOp13
 70
     1
102
RTVSPropertyOp14
 70
     1
102
RTVSPropertyOp15
 70
     1
102
RTVSPropertyOp16
 70
     1
102
RTVSPropertyOp17
 70
     1
102
RTVSPropertyOp18
 70
     1
102
RTVSPropertyOp19
 70
     1
102
RTVSPropertyOp20
 70
     1
102
RTVSPropertyOp21
 70
     1
102
RTVSPropertyOp22
 70
     1
102
RTVSPropertyOp23
 70
     1
102
RTVSPropertyOp24
 70
     1
102
RTVSPropertyOp25
 70
     1
102
RTVSPropertyOp26
 70
     1
102
RTVSPropertyOp27
 70
     1
102
RTVSPropertyOp28
 70
     1
102
RTVSPropertyOp29
 70
     1
102
RTVSPropertyOp30
 70
     1
102
RTVSPropertyOp31
 70
     1
102
RTVSPropertyOp32
 70
     1
  0
XRECORD
  5
18F6
102
{ACAD_REACTORS
330
18F5
102
}
330
18F5
100
AcDbXrecord
280
     1
102
RTVSPropertyOp0
 70
     1
102
RTVSPropertyOp1
 70
     1
102
RTVSPropertyOp2
 70
     1
102
RTVSPropertyOp3
 70
     1
102
RTVSPropertyOp4
 70
     1
102
RTVSPropertyOp5
 70
     1
102
RTVSPropertyOp6
 70
     1
102
RTVSPropertyOp7
 70
     1
102
RTVSPropertyOp8
 70
     1
102
RTVSPropertyOp9
 70
     1
102
RTVSPropertyOp10
 70
     1
102
RTVSPropertyOp11
 70
     1
102
RTVSPropertyOp12
 70
     1
102
RTVSPropertyOp13
 70
     1
102
RTVSPropertyOp14
 70
     1
102
RTVSPropertyOp15
 70
     1
102
RTVSPropertyOp16
 70
     1
102
RTVSPropertyOp17
 70
     1
102
RTVSPropertyOp18
 70
     1
102
RTVSPropertyOp19
 70
     1
102
RTVSPropertyOp20
 70
     1
102
RTVSPropertyOp21
 70
     1
102
RTVSPropertyOp22
 70
     1
102
RTVSPropertyOp23
 70
     1
102
RTVSPropertyOp24
 70
     1
102
RTVSPropertyOp25
 70
     1
102
RTVSPropertyOp26
 70
     1
102
RTVSPropertyOp27
 70
     1
102
RTVSPropertyOp28
 70
     1
102
RTVSPropertyOp29
 70
     1
102
RTVSPropertyOp30
 70
     1
102
RTVSPropertyOp31
 70
     1
102
RTVSPropertyOp32
 70
     1
  0
XRECORD
  5
18E8
102
{ACAD_REACTORS
330
18E7
102
}
330
18E7
100
AcDbXrecord
280
     1
102
RTVSPropertyOp0
 70
     1
102
RTVSPropertyOp1
 70
     1
102
RTVSPropertyOp2
 70
     1
102
RTVSPropertyOp3
 70
     1
102
RTVSPropertyOp4
 70
     1
102
RTVSPropertyOp5
 70
     1
102
RTVSPropertyOp6
 70
     1
102
RTVSPropertyOp7
 70
     1
102
RTVSPropertyOp8
 70
     1
102
RTVSPropertyOp9
 70
     1
102
RTVSPropertyOp10
 70
     1
102
RTVSPropertyOp11
 70
     1
102
RTVSPropertyOp12
 70
     1
102
RTVSPropertyOp13
 70
     1
102
RTVSPropertyOp14
 70
     1
102
RTVSPropertyOp15
 70
     1
102
RTVSPropertyOp16
 70
     1
102
RTVSPropertyOp17
 70
     1
102
RTVSPropertyOp18
 70
     1
102
RTVSPropertyOp19
 70
     1
102
RTVSPropertyOp20
 70
     1
102
RTVSPropertyOp21
 70
     1
102
RTVSPropertyOp22
 70
     1
102
RTVSPropertyOp23
 70
     1
102
RTVSPropertyOp24
 70
     1
102
RTVSPropertyOp25
 70
     1
102
RTVSPropertyOp26
 70
     1
102
RTVSPropertyOp27
 70
     1
102
RTVSPropertyOp28
 70
     1
102
RTVSPropertyOp29
 70
     1
102
RTVSPropertyOp30
 70
     1
102
RTVSPropertyOp31
 70
     1
102
RTVSPropertyOp32
 70
     1
  0
XRECORD
  5
18EC
102
{ACAD_REACTORS
330
18EB
102
}
330
18EB
100
AcDbXrecord
280
     1
102
RTVSPropertyOp0
 70
     1
102
RTVSPropertyOp1
 70
     1
102
RTVSPropertyOp2
 70
     1
102
RTVSPropertyOp3
 70
     1
102
RTVSPropertyOp4
 70
     1
102
RTVSPropertyOp5
 70
     1
102
RTVSPropertyOp6
 70
     1
102
RTVSPropertyOp7
 70
     1
102
RTVSPropertyOp8
 70
     1
102
RTVSPropertyOp9
 70
     1
102
RTVSPropertyOp10
 70
     1
102
RTVSPropertyOp11
 70
     1
102
RTVSPropertyOp12
 70
     1
102
RTVSPropertyOp13
 70
     1
102
RTVSPropertyOp14
 70
     1
102
RTVSPropertyOp15
 70
     1
102
RTVSPropertyOp16
 70
     1
102
RTVSPropertyOp17
 70
     1
102
RTVSPropertyOp18
 70
     1
102
RTVSPropertyOp19
 70
     1
102
RTVSPropertyOp20
 70
     1
102
RTVSPropertyOp21
 70
     1
102
RTVSPropertyOp22
 70
     1
102
RTVSPropertyOp23
 70
     1
102
RTVSPropertyOp24
 70
     1
102
RTVSPropertyOp25
 70
     1
102
RTVSPropertyOp26
 70
     1
102
RTVSPropertyOp27
 70
     1
102
RTVSPropertyOp28
 70
     1
102
RTVSPropertyOp29
 70
     1
102
RTVSPropertyOp30
 70
     1
102
RTVSPropertyOp31
 70
     1
102
RTVSPropertyOp32
 70
     1
  0
XRECORD
  5
190B
102
{ACAD_REACTORS
330
190A
102
}
330
190A
100
AcDbXrecord
280
     1
102
RTVSPropertyOp0
 70
     0
102
RTVSPropertyOp1
 70
     0
102
RTVSPropertyOp2
 70
     0
102
RTVSPropertyOp3
 70
     0
102
RTVSPropertyOp4
 70
     0
102
RTVSPropertyOp5
 70
     0
102
RTVSPropertyOp6
 70
     0
102
RTVSPropertyOp7
 70
     0
102
RTVSPropertyOp8
 70
     0
102
RTVSPropertyOp9
 70
     0
102
RTVSPropertyOp10
 70
     0
102
RTVSPropertyOp11
 70
     0
102
RTVSPropertyOp12
 70
     0
102
RTVSPropertyOp13
 70
     0
102
RTVSPropertyOp14
 70
     2
102
RTVSPropertyOp15
 70
     0
102
RTVSPropertyOp16
 70
     0
102
RTVSPropertyOp17
 70
     0
102
RTVSPropertyOp18
 70
     0
102
RTVSPropertyOp19
 70
     0
102
RTVSPropertyOp20
 70
     0
102
RTVSPropertyOp21
 70
     0
102
RTVSPropertyOp22
 70
     0
102
RTVSPropertyOp23
 70
     0
102
RTVSPropertyOp24
 70
     0
102
RTVSPropertyOp25
 70
     0
102
RTVSPropertyOp26
 70
     0
102
RTVSPropertyOp27
 70
     0
102
RTVSPropertyOp28
 70
     0
102
RTVSPropertyOp29
 70
     0
102
RTVSPropertyOp30
 70
     0
102
RTVSPropertyOp31
 70
     0
102
RTVSPropertyOp32
 70
     0
  0
XRECORD
  5
18F4
102
{ACAD_REACTORS
330
18F3
102
}
330
18F3
100
AcDbXrecord
280
     1
102
RTVSPropertyOp0
 70
     1
102
RTVSPropertyOp1
 70
     1
102
RTVSPropertyOp2
 70
     1
102
RTVSPropertyOp3
 70
     1
102
RTVSPropertyOp4
 70
     1
102
RTVSPropertyOp5
 70
     1
102
RTVSPropertyOp6
 70
     1
102
RTVSPropertyOp7
 70
     1
102
RTVSPropertyOp8
 70
     1
102
RTVSPropertyOp9
 70
     1
102
RTVSPropertyOp10
 70
     1
102
RTVSPropertyOp11
 70
     1
102
RTVSPropertyOp12
 70
     1
102
RTVSPropertyOp13
 70
     1
102
RTVSPropertyOp14
 70
     1
102
RTVSPropertyOp15
 70
     1
102
RTVSPropertyOp16
 70
     1
102
RTVSPropertyOp17
 70
     1
102
RTVSPropertyOp18
 70
     1
102
RTVSPropertyOp19
 70
     1
102
RTVSPropertyOp20
 70
     1
102
RTVSPropertyOp21
 70
     1
102
RTVSPropertyOp22
 70
     1
102
RTVSPropertyOp23
 70
     1
102
RTVSPropertyOp24
 70
     1
102
RTVSPropertyOp25
 70
     1
102
RTVSPropertyOp26
 70
     1
102
RTVSPropertyOp27
 70
     1
102
RTVSPropertyOp28
 70
     1
102
RTVSPropertyOp29
 70
     1
102
RTVSPropertyOp30
 70
     1
102
RTVSPropertyOp31
 70
     1
102
RTVSPropertyOp32
 70
     1
  0
XRECORD
  5
18D8
102
{ACAD_REACTORS
330
18D7
102
}
330
18D7
100
AcDbXrecord
280
     1
102
RTVSPropertyOp0
 70
     1
102
RTVSPropertyOp1
 70
     1
102
RTVSPropertyOp2
 70
     1
102
RTVSPropertyOp3
 70
     1
102
RTVSPropertyOp4
 70
     1
102
RTVSPropertyOp5
 70
     1
102
RTVSPropertyOp6
 70
     1
102
RTVSPropertyOp7
 70
     1
102
RTVSPropertyOp8
 70
     1
102
RTVSPropertyOp9
 70
     1
102
RTVSPropertyOp10
 70
     1
102
RTVSPropertyOp11
 70
     1
102
RTVSPropertyOp12
 70
     1
102
RTVSPropertyOp13
 70
     1
102
RTVSPropertyOp14
 70
     1
102
RTVSPropertyOp15
 70
     1
102
RTVSPropertyOp16
 70
     1
102
RTVSPropertyOp17
 70
     1
102
RTVSPropertyOp18
 70
     1
102
RTVSPropertyOp19
 70
     1
102
RTVSPropertyOp20
 70
     1
102
RTVSPropertyOp21
 70
     1
102
RTVSPropertyOp22
 70
     1
102
RTVSPropertyOp23
 70
     1
102
RTVSPropertyOp24
 70
     1
102
RTVSPropertyOp25
 70
     1
102
RTVSPropertyOp26
 70
     1
102
RTVSPropertyOp27
 70
     1
102
RTVSPropertyOp28
 70
     1
102
RTVSPropertyOp29
 70
     1
102
RTVSPropertyOp30
 70
     1
102
RTVSPropertyOp31
 70
     1
102
RTVSPropertyOp32
 70
     1
  0
XRECORD
  5
18DA
102
{ACAD_REACTORS
330
18D9
102
}
330
18D9
100
AcDbXrecord
280
     1
102
RTVSPropertyOp0
 70
     1
102
RTVSPropertyOp1
 70
     1
102
RTVSPropertyOp2
 70
     1
102
RTVSPropertyOp3
 70
     1
102
RTVSPropertyOp4
 70
     1
102
RTVSPropertyOp5
 70
     1
102
RTVSPropertyOp6
 70
     1
102
RTVSPropertyOp7
 70
     1
102
RTVSPropertyOp8
 70
     1
102
RTVSPropertyOp9
 70
     1
102
RTVSPropertyOp10
 70
     1
102
RTVSPropertyOp11
 70
     1
102
RTVSPropertyOp12
 70
     1
102
RTVSPropertyOp13
 70
     1
102
RTVSPropertyOp14
 70
     1
102
RTVSPropertyOp15
 70
     1
102
RTVSPropertyOp16
 70
     1
102
RTVSPropertyOp17
 70
     1
102
RTVSPropertyOp18
 70
     1
102
RTVSPropertyOp19
 70
     1
102
RTVSPropertyOp20
 70
     1
102
RTVSPropertyOp21
 70
     1
102
RTVSPropertyOp22
 70
     1
102
RTVSPropertyOp23
 70
     1
102
RTVSPropertyOp24
 70
     1
102
RTVSPropertyOp25
 70
     1
102
RTVSPropertyOp26
 70
     1
102
RTVSPropertyOp27
 70
     1
102
RTVSPropertyOp28
 70
     1
102
RTVSPropertyOp29
 70
     1
102
RTVSPropertyOp30
 70
     1
102
RTVSPropertyOp31
 70
     1
102
RTVSPropertyOp32
 70
     1
  0
XRECORD
  5
18DC
102
{ACAD_REACTORS
330
18DB
102
}
330
18DB
100
AcDbXrecord
280
     1
102
RTVSPropertyOp0
 70
     1
102
RTVSPropertyOp1
 70
     1
102
RTVSPropertyOp2
 70
     1
102
RTVSPropertyOp3
 70
     1
102
RTVSPropertyOp4
 70
     1
102
RTVSPropertyOp5
 70
     1
102
RTVSPropertyOp6
 70
     1
102
RTVSPropertyOp7
 70
     1
102
RTVSPropertyOp8
 70
     1
102
RTVSPropertyOp9
 70
     1
102
RTVSPropertyOp10
 70
     1
102
RTVSPropertyOp11
 70
     1
102
RTVSPropertyOp12
 70
     1
102
RTVSPropertyOp13
 70
     1
102
RTVSPropertyOp14
 70
     1
102
RTVSPropertyOp15
 70
     1
102
RTVSPropertyOp16
 70
     1
102
RTVSPropertyOp17
 70
     1
102
RTVSPropertyOp18
 70
     1
102
RTVSPropertyOp19
 70
     1
102
RTVSPropertyOp20
 70
     1
102
RTVSPropertyOp21
 70
     1
102
RTVSPropertyOp22
 70
     1
102
RTVSPropertyOp23
 70
     1
102
RTVSPropertyOp24
 70
     1
102
RTVSPropertyOp25
 70
     1
102
RTVSPropertyOp26
 70
     1
102
RTVSPropertyOp27
 70
     1
102
RTVSPropertyOp28
 70
     1
102
RTVSPropertyOp29
 70
     1
102
RTVSPropertyOp30
 70
     1
102
RTVSPropertyOp31
 70
     1
102
RTVSPropertyOp32
 70
     1
  0
XRECORD
  5
18DE
102
{ACAD_REACTORS
330
18DD
102
}
330
18DD
100
AcDbXrecord
280
     1
102
RTVSPropertyOp0
 70
     1
102
RTVSPropertyOp1
 70
     1
102
RTVSPropertyOp2
 70
     1
102
RTVSPropertyOp3
 70
     1
102
RTVSPropertyOp4
 70
     1
102
RTVSPropertyOp5
 70
     1
102
RTVSPropertyOp6
 70
     1
102
RTVSPropertyOp7
 70
     1
102
RTVSPropertyOp8
 70
     1
102
RTVSPropertyOp9
 70
     1
102
RTVSPropertyOp10
 70
     1
102
RTVSPropertyOp11
 70
     1
102
RTVSPropertyOp12
 70
     1
102
RTVSPropertyOp13
 70
     1
102
RTVSPropertyOp14
 70
     1
102
RTVSPropertyOp15
 70
     1
102
RTVSPropertyOp16
 70
     1
102
RTVSPropertyOp17
 70
     1
102
RTVSPropertyOp18
 70
     1
102
RTVSPropertyOp19
 70
     1
102
RTVSPropertyOp20
 70
     1
102
RTVSPropertyOp21
 70
     1
102
RTVSPropertyOp22
 70
     1
102
RTVSPropertyOp23
 70
     1
102
RTVSPropertyOp24
 70
     1
102
RTVSPropertyOp25
 70
     1
102
RTVSPropertyOp26
 70
     1
102
RTVSPropertyOp27
 70
     1
102
RTVSPropertyOp28
 70
     1
102
RTVSPropertyOp29
 70
     1
102
RTVSPropertyOp30
 70
     1
102
RTVSPropertyOp31
 70
     1
102
RTVSPropertyOp32
 70
     1
  0
XRECORD
  5
18FB
102
{ACAD_REACTORS
330
18FA
102
}
330
18FA
100
AcDbXrecord
280
     1
102
RTVSPropertyOp0
 70
     1
102
RTVSPropertyOp1
 70
     1
102
RTVSPropertyOp2
 70
     1
102
RTVSPropertyOp3
 70
     1
102
RTVSPropertyOp4
 70
     1
102
RTVSPropertyOp5
 70
     1
102
RTVSPropertyOp6
 70
     1
102
RTVSPropertyOp7
 70
     1
102
RTVSPropertyOp8
 70
     1
102
RTVSPropertyOp9
 70
     1
102
RTVSPropertyOp10
 70
     1
102
RTVSPropertyOp11
 70
     1
102
RTVSPropertyOp12
 70
     1
102
RTVSPropertyOp13
 70
     1
102
RTVSPropertyOp14
 70
     1
102
RTVSPropertyOp15
 70
     1
102
RTVSPropertyOp16
 70
     1
102
RTVSPropertyOp17
 70
     1
102
RTVSPropertyOp18
 70
     1
102
RTVSPropertyOp19
 70
     1
102
RTVSPropertyOp20
 70
     1
102
RTVSPropertyOp21
 70
     1
102
RTVSPropertyOp22
 70
     1
102
RTVSPropertyOp23
 70
     1
102
RTVSPropertyOp24
 70
     1
102
RTVSPropertyOp25
 70
     1
102
RTVSPropertyOp26
 70
     1
102
RTVSPropertyOp27
 70
     1
102
RTVSPropertyOp28
 70
     1
102
RTVSPropertyOp29
 70
     1
102
RTVSPropertyOp30
 70
     1
102
RTVSPropertyOp31
 70
     1
102
RTVSPropertyOp32
 70
     1
  0
XRECORD
  5
1907
102
{ACAD_REACTORS
330
1906
102
}
330
1906
100
AcDbXrecord
280
     1
102
RTVSPropertyOp0
 70
     0
102
RTVSPropertyOp1
 70
     0
102
RTVSPropertyOp2
 70
     0
102
RTVSPropertyOp3
 70
     0
102
RTVSPropertyOp4
 70
     0
102
RTVSPropertyOp5
 70
     0
102
RTVSPropertyOp6
 70
     0
102
RTVSPropertyOp7
 70
     0
102
RTVSPropertyOp8
 70
     0
102
RTVSPropertyOp9
 70
     0
102
RTVSPropertyOp10
 70
     0
102
RTVSPropertyOp11
 70
     0
102
RTVSPropertyOp12
 70
     0
102
RTVSPropertyOp13
 70
     0
102
RTVSPropertyOp14
 70
     2
102
RTVSPropertyOp15
 70
     0
102
RTVSPropertyOp16
 70
     0
102
RTVSPropertyOp17
 70
     0
102
RTVSPropertyOp18
 70
     0
102
RTVSPropertyOp19
 70
     0
102
RTVSPropertyOp20
 70
     0
102
RTVSPropertyOp21
 70
     0
102
RTVSPropertyOp22
 70
     0
102
RTVSPropertyOp23
 70
     0
102
RTVSPropertyOp24
 70
     0
102
RTVSPropertyOp25
 70
     0
102
RTVSPropertyOp26
 70
     0
102
RTVSPropertyOp27
 70
     0
102
RTVSPropertyOp28
 70
     0
102
RTVSPropertyOp29
 70
     0
102
RTVSPropertyOp30
 70
     0
102
RTVSPropertyOp31
 70
     0
102
RTVSPropertyOp32
 70
     0
  0
XRECORD
  5
18F2
102
{ACAD_REACTORS
330
18F1
102
}
330
18F1
100
AcDbXrecord
280
     1
102
RTVSPropertyOp0
 70
     1
102
RTVSPropertyOp1
 70
     1
102
RTVSPropertyOp2
 70
     1
102
RTVSPropertyOp3
 70
     1
102
RTVSPropertyOp4
 70
     1
102
RTVSPropertyOp5
 70
     1
102
RTVSPropertyOp6
 70
     1
102
RTVSPropertyOp7
 70
     1
102
RTVSPropertyOp8
 70
     1
102
RTVSPropertyOp9
 70
     1
102
RTVSPropertyOp10
 70
     1
102
RTVSPropertyOp11
 70
     1
102
RTVSPropertyOp12
 70
     1
102
RTVSPropertyOp13
 70
     1
102
RTVSPropertyOp14
 70
     1
102
RTVSPropertyOp15
 70
     1
102
RTVSPropertyOp16
 70
     1
102
RTVSPropertyOp17
 70
     1
102
RTVSPropertyOp18
 70
     1
102
RTVSPropertyOp19
 70
     1
102
RTVSPropertyOp20
 70
     1
102
RTVSPropertyOp21
 70
     1
102
RTVSPropertyOp22
 70
     1
102
RTVSPropertyOp23
 70
     1
102
RTVSPropertyOp24
 70
     1
102
RTVSPropertyOp25
 70
     1
102
RTVSPropertyOp26
 70
     1
102
RTVSPropertyOp27
 70
     1
102
RTVSPropertyOp28
 70
     1
102
RTVSPropertyOp29
 70
     1
102
RTVSPropertyOp30
 70
     1
102
RTVSPropertyOp31
 70
     1
102
RTVSPropertyOp32
 70
     1
  0
XRECORD
  5
1909
102
{ACAD_REACTORS
330
1908
102
}
330
1908
100
AcDbXrecord
280
     1
102
RTVSPropertyOp0
 70
     0
102
RTVSPropertyOp1
 70
     0
102
RTVSPropertyOp2
 70
     0
102
RTVSPropertyOp3
 70
     0
102
RTVSPropertyOp4
 70
     0
102
RTVSPropertyOp5
 70
     0
102
RTVSPropertyOp6
 70
     0
102
RTVSPropertyOp7
 70
     0
102
RTVSPropertyOp8
 70
     0
102
RTVSPropertyOp9
 70
     0
102
RTVSPropertyOp10
 70
     0
102
RTVSPropertyOp11
 70
     0
102
RTVSPropertyOp12
 70
     0
102
RTVSPropertyOp13
 70
     0
102
RTVSPropertyOp14
 70
     2
102
RTVSPropertyOp15
 70
     0
102
RTVSPropertyOp16
 70
     0
102
RTVSPropertyOp17
 70
     0
102
RTVSPropertyOp18
 70
     0
102
RTVSPropertyOp19
 70
     0
102
RTVSPropertyOp20
 70
     0
102
RTVSPropertyOp21
 70
     0
102
RTVSPropertyOp22
 70
     0
102
RTVSPropertyOp23
 70
     0
102
RTVSPropertyOp24
 70
     0
102
RTVSPropertyOp25
 70
     0
102
RTVSPropertyOp26
 70
     0
102
RTVSPropertyOp27
 70
     0
102
RTVSPropertyOp28
 70
     0
102
RTVSPropertyOp29
 70
     0
102
RTVSPropertyOp30
 70
     0
102
RTVSPropertyOp31
 70
     0
102
RTVSPropertyOp32
 70
     0
  0
XRECORD
  5
18EA
102
{ACAD_REACTORS
330
18E9
102
}
330
18E9
100
AcDbXrecord
280
     1
102
RTVSPropertyOp0
 70
     1
102
RTVSPropertyOp1
 70
     1
102
RTVSPropertyOp2
 70
     1
102
RTVSPropertyOp3
 70
     1
102
RTVSPropertyOp4
 70
     1
102
RTVSPropertyOp5
 70
     1
102
RTVSPropertyOp6
 70
     1
102
RTVSPropertyOp7
 70
     1
102
RTVSPropertyOp8
 70
     1
102
RTVSPropertyOp9
 70
     1
102
RTVSPropertyOp10
 70
     1
102
RTVSPropertyOp11
 70
     1
102
RTVSPropertyOp12
 70
     1
102
RTVSPropertyOp13
 70
     1
102
RTVSPropertyOp14
 70
     1
102
RTVSPropertyOp15
 70
     1
102
RTVSPropertyOp16
 70
     1
102
RTVSPropertyOp17
 70
     1
102
RTVSPropertyOp18
 70
     1
102
RTVSPropertyOp19
 70
     1
102
RTVSPropertyOp20
 70
     1
102
RTVSPropertyOp21
 70
     1
102
RTVSPropertyOp22
 70
     1
102
RTVSPropertyOp23
 70
     1
102
RTVSPropertyOp24
 70
     1
102
RTVSPropertyOp25
 70
     1
102
RTVSPropertyOp26
 70
     1
102
RTVSPropertyOp27
 70
     1
102
RTVSPropertyOp28
 70
     1
102
RTVSPropertyOp29
 70
     1
102
RTVSPropertyOp30
 70
     1
102
RTVSPropertyOp31
 70
     1
102
RTVSPropertyOp32
 70
     1
  0
XRECORD
  5
1905
102
{ACAD_REACTORS
330
1904
102
}
330
1904
100
AcDbXrecord
280
     1
102
RTVSPropertyOp0
 70
     1
102
RTVSPropertyOp1
 70
     1
102
RTVSPropertyOp2
 70
     1
102
RTVSPropertyOp3
 70
     1
102
RTVSPropertyOp4
 70
     1
102
RTVSPropertyOp5
 70
     1
102
RTVSPropertyOp6
 70
     1
102
RTVSPropertyOp7
 70
     1
102
RTVSPropertyOp8
 70
     1
102
RTVSPropertyOp9
 70
     1
102
RTVSPropertyOp10
 70
     1
102
RTVSPropertyOp11
 70
     1
102
RTVSPropertyOp12
 70
     1
102
RTVSPropertyOp13
 70
     1
102
RTVSPropertyOp14
 70
     1
102
RTVSPropertyOp15
 70
     1
102
RTVSPropertyOp16
 70
     1
102
RTVSPropertyOp17
 70
     1
102
RTVSPropertyOp18
 70
     1
102
RTVSPropertyOp19
 70
     1
102
RTVSPropertyOp20
 70
     1
102
RTVSPropertyOp21
 70
     1
102
RTVSPropertyOp22
 70
     1
102
RTVSPropertyOp23
 70
     1
102
RTVSPropertyOp24
 70
     1
102
RTVSPropertyOp25
 70
     1
102
RTVSPropertyOp26
 70
     1
102
RTVSPropertyOp27
 70
     1
102
RTVSPropertyOp28
 70
     1
102
RTVSPropertyOp29
 70
     1
102
RTVSPropertyOp30
 70
     1
102
RTVSPropertyOp31
 70
     1
102
RTVSPropertyOp32
 70
     1
  0
XRECORD
  5
1903
102
{ACAD_REACTORS
330
1902
102
}
330
1902
100
AcDbXrecord
280
     1
102
RTVSPropertyOp0
 70
     1
102
RTVSPropertyOp1
 70
     1
102
RTVSPropertyOp2
 70
     1
102
RTVSPropertyOp3
 70
     1
102
RTVSPropertyOp4
 70
     1
102
RTVSPropertyOp5
 70
     1
102
RTVSPropertyOp6
 70
     1
102
RTVSPropertyOp7
 70
     1
102
RTVSPropertyOp8
 70
     1
102
RTVSPropertyOp9
 70
     1
102
RTVSPropertyOp10
 70
     1
102
RTVSPropertyOp11
 70
     1
102
RTVSPropertyOp12
 70
     1
102
RTVSPropertyOp13
 70
     1
102
RTVSPropertyOp14
 70
     1
102
RTVSPropertyOp15
 70
     1
102
RTVSPropertyOp16
 70
     1
102
RTVSPropertyOp17
 70
     1
102
RTVSPropertyOp18
 70
     1
102
RTVSPropertyOp19
 70
     1
102
RTVSPropertyOp20
 70
     1
102
RTVSPropertyOp21
 70
     1
102
RTVSPropertyOp22
 70
     1
102
RTVSPropertyOp23
 70
     1
102
RTVSPropertyOp24
 70
     1
102
RTVSPropertyOp25
 70
     1
102
RTVSPropertyOp26
 70
     1
102
RTVSPropertyOp27
 70
     1
102
RTVSPropertyOp28
 70
     1
102
RTVSPropertyOp29
 70
     1
102
RTVSPropertyOp30
 70
     1
102
RTVSPropertyOp31
 70
     1
102
RTVSPropertyOp32
 70
     1
  0
XRECORD
  5
18FD
102
{ACAD_REACTORS
330
18FC
102
}
330
18FC
100
AcDbXrecord
280
     1
102
RTVSPropertyOp0
 70
     1
102
RTVSPropertyOp1
 70
     1
102
RTVSPropertyOp2
 70
     1
102
RTVSPropertyOp3
 70
     1
102
RTVSPropertyOp4
 70
     1
102
RTVSPropertyOp5
 70
     1
102
RTVSPropertyOp6
 70
     1
102
RTVSPropertyOp7
 70
     1
102
RTVSPropertyOp8
 70
     1
102
RTVSPropertyOp9
 70
     1
102
RTVSPropertyOp10
 70
     1
102
RTVSPropertyOp11
 70
     1
102
RTVSPropertyOp12
 70
     1
102
RTVSPropertyOp13
 70
     1
102
RTVSPropertyOp14
 70
     1
102
RTVSPropertyOp15
 70
     1
102
RTVSPropertyOp16
 70
     1
102
RTVSPropertyOp17
 70
     1
102
RTVSPropertyOp18
 70
     1
102
RTVSPropertyOp19
 70
     1
102
RTVSPropertyOp20
 70
     1
102
RTVSPropertyOp21
 70
     1
102
RTVSPropertyOp22
 70
     1
102
RTVSPropertyOp23
 70
     1
102
RTVSPropertyOp24
 70
     1
102
RTVSPropertyOp25
 70
     1
102
RTVSPropertyOp26
 70
     1
102
RTVSPropertyOp27
 70
     1
102
RTVSPropertyOp28
 70
     1
102
RTVSPropertyOp29
 70
     1
102
RTVSPropertyOp30
 70
     1
102
RTVSPropertyOp31
 70
     1
102
RTVSPropertyOp32
 70
     1
  0
XRECORD
  5
18FF
102
{ACAD_REACTORS
330
18FE
102
}
330
18FE
100
AcDbXrecord
280
     1
102
RTVSPropertyOp0
 70
     1
102
RTVSPropertyOp1
 70
     1
102
RTVSPropertyOp2
 70
     1
102
RTVSPropertyOp3
 70
     1
102
RTVSPropertyOp4
 70
     1
102
RTVSPropertyOp5
 70
     1
102
RTVSPropertyOp6
 70
     1
102
RTVSPropertyOp7
 70
     1
102
RTVSPropertyOp8
 70
     1
102
RTVSPropertyOp9
 70
     1
102
RTVSPropertyOp10
 70
     1
102
RTVSPropertyOp11
 70
     1
102
RTVSPropertyOp12
 70
     1
102
RTVSPropertyOp13
 70
     1
102
RTVSPropertyOp14
 70
     1
102
RTVSPropertyOp15
 70
     1
102
RTVSPropertyOp16
 70
     1
102
RTVSPropertyOp17
 70
     1
102
RTVSPropertyOp18
 70
     1
102
RTVSPropertyOp19
 70
     1
102
RTVSPropertyOp20
 70
     1
102
RTVSPropertyOp21
 70
     1
102
RTVSPropertyOp22
 70
     1
102
RTVSPropertyOp23
 70
     1
102
RTVSPropertyOp24
 70
     1
102
RTVSPropertyOp25
 70
     1
102
RTVSPropertyOp26
 70
     1
102
RTVSPropertyOp27
 70
     1
102
RTVSPropertyOp28
 70
     1
102
RTVSPropertyOp29
 70
     1
102
RTVSPropertyOp30
 70
     1
102
RTVSPropertyOp31
 70
     1
102
RTVSPropertyOp32
 70
     1
  0
XRECORD
  5
18F0
102
{ACAD_REACTORS
330
18EF
102
}
330
18EF
100
AcDbXrecord
280
     1
102
RTVSPropertyOp0
 70
     1
102
RTVSPropertyOp1
 70
     1
102
RTVSPropertyOp2
 70
     1
102
RTVSPropertyOp3
 70
     1
102
RTVSPropertyOp4
 70
     1
102
RTVSPropertyOp5
 70
     1
102
RTVSPropertyOp6
 70
     1
102
RTVSPropertyOp7
 70
     1
102
RTVSPropertyOp8
 70
     1
102
RTVSPropertyOp9
 70
     1
102
RTVSPropertyOp10
 70
     1
102
RTVSPropertyOp11
 70
     1
102
RTVSPropertyOp12
 70
     1
102
RTVSPropertyOp13
 70
     1
102
RTVSPropertyOp14
 70
     1
102
RTVSPropertyOp15
 70
     1
102
RTVSPropertyOp16
 70
     1
102
RTVSPropertyOp17
 70
     1
102
RTVSPropertyOp18
 70
     1
102
RTVSPropertyOp19
 70
     1
102
RTVSPropertyOp20
 70
     1
102
RTVSPropertyOp21
 70
     1
102
RTVSPropertyOp22
 70
     1
102
RTVSPropertyOp23
 70
     1
102
RTVSPropertyOp24
 70
     1
102
RTVSPropertyOp25
 70
     1
102
RTVSPropertyOp26
 70
     1
102
RTVSPropertyOp27
 70
     1
102
RTVSPropertyOp28
 70
     1
102
RTVSPropertyOp29
 70
     1
102
RTVSPropertyOp30
 70
     1
102
RTVSPropertyOp31
 70
     1
102
RTVSPropertyOp32
 70
     1
  0
XRECORD
  5
18F9
102
{ACAD_REACTORS
330
18F8
102
}
330
18F8
100
AcDbXrecord
280
     1
102
RTVSPropertyOp0
 70
     1
102
RTVSPropertyOp1
 70
     1
102
RTVSPropertyOp2
 70
     1
102
RTVSPropertyOp3
 70
     1
102
RTVSPropertyOp4
 70
     1
102
RTVSPropertyOp5
 70
     1
102
RTVSPropertyOp6
 70
     1
102
RTVSPropertyOp7
 70
     1
102
RTVSPropertyOp8
 70
     1
102
RTVSPropertyOp9
 70
     1
102
RTVSPropertyOp10
 70
     1
102
RTVSPropertyOp11
 70
     1
102
RTVSPropertyOp12
 70
     1
102
RTVSPropertyOp13
 70
     1
102
RTVSPropertyOp14
 70
     1
102
RTVSPropertyOp15
 70
     1
102
RTVSPropertyOp16
 70
     1
102
RTVSPropertyOp17
 70
     1
102
RTVSPropertyOp18
 70
     1
102
RTVSPropertyOp19
 70
     1
102
RTVSPropertyOp20
 70
     1
102
RTVSPropertyOp21
 70
     1
102
RTVSPropertyOp22
 70
     1
102
RTVSPropertyOp23
 70
     1
102
RTVSPropertyOp24
 70
     1
102
RTVSPropertyOp25
 70
     1
102
RTVSPropertyOp26
 70
     1
102
RTVSPropertyOp27
 70
     1
102
RTVSPropertyOp28
 70
     1
102
RTVSPropertyOp29
 70
     1
102
RTVSPropertyOp30
 70
     1
102
RTVSPropertyOp31
 70
     1
102
RTVSPropertyOp32
 70
     1
  0
XRECORD
  5
1901
102
{ACAD_REACTORS
330
1900
102
}
330
1900
100
AcDbXrecord
280
     1
102
RTVSPropertyOp0
 70
     1
102
RTVSPropertyOp1
 70
     1
102
RTVSPropertyOp2
 70
     1
102
RTVSPropertyOp3
 70
     1
102
RTVSPropertyOp4
 70
     1
102
RTVSPropertyOp5
 70
     1
102
RTVSPropertyOp6
 70
     1
102
RTVSPropertyOp7
 70
     1
102
RTVSPropertyOp8
 70
     1
102
RTVSPropertyOp9
 70
     1
102
RTVSPropertyOp10
 70
     1
102
RTVSPropertyOp11
 70
     1
102
RTVSPropertyOp12
 70
     1
102
RTVSPropertyOp13
 70
     1
102
RTVSPropertyOp14
 70
     1
102
RTVSPropertyOp15
 70
     1
102
RTVSPropertyOp16
 70
     1
102
RTVSPropertyOp17
 70
     1
102
RTVSPropertyOp18
 70
     1
102
RTVSPropertyOp19
 70
     1
102
RTVSPropertyOp20
 70
     1
102
RTVSPropertyOp21
 70
     1
102
RTVSPropertyOp22
 70
     1
102
RTVSPropertyOp23
 70
     1
102
RTVSPropertyOp24
 70
     1
102
RTVSPropertyOp25
 70
     1
102
RTVSPropertyOp26
 70
     1
102
RTVSPropertyOp27
 70
     1
102
RTVSPropertyOp28
 70
     1
102
RTVSPropertyOp29
 70
     1
102
RTVSPropertyOp30
 70
     1
102
RTVSPropertyOp31
 70
     1
102
RTVSPropertyOp32
 70
     1
  0
ENDSEC
  0
EOF
