  0
SECTION
  2
HEADER
  9
$ACADVER
  1
AC1015
  9
$ACADMAINTVER
 70
    20
  9
$DWGCODEPAGE
  3
ANSI_932
  9
$INSBASE
 10
0.0
 20
0.0
 30
0.0
  9
$EXTMIN
 10
265.6137289700672
 20
189.8039899056393
 30
0.0
  9
$EXTMAX
 10
339.5602023463581
 20
292.1412204451392
 30
0.0
  9
$LIMMIN
 10
222.770076765816
 20
167.1114176541369
  9
$LIMMAX
 10
432.7915053372445
 20
315.611417654137
  9
$ORTHOMODE
 70
     0
  9
$REGENMODE
 70
     1
  9
$FILLMODE
 70
     1
  9
$QTEXTMODE
 70
     0
  9
$MIRRTEXT
 70
     1
  9
$LTSCALE
 40
0.5
  9
$ATTMODE
 70
     1
  9
$TEXTSIZE
 40
1.5
  9
$TRACEWID
 40
1.0
  9
$TEXTSTYLE
  7
STANDARD
  9
$CLAYER
  8
0
  9
$CELTYPE
  6
ByLayer
  9
$CECOLOR
 62
   256
  9
$CELTSCALE
 40
1.0
  9
$DISPSILH
 70
     0
  9
$DIMSCALE
 40
0.5
  9
$DIMASZ
 40
2.5
  9
$DIMEXO
 40
1.0
  9
$DIMDLI
 40
10.0
  9
$DIMRND
 40
0.0
  9
$DIMDLE
 40
0.0
  9
$DIMEXE
 40
1.0
  9
$DIMTP
 40
0.1
  9
$DIMTM
 40
0.1
  9
$DIMTXT
 40
3.5
  9
$DIMCEN
 40
0.0
  9
$DIMTSZ
 40
0.0
  9
$DIMTOL
 70
     0
  9
$DIMLIM
 70
     0
  9
$DIMTIH
 70
     0
  9
$DIMTOH
 70
     0
  9
$DIMSE1
 70
     0
  9
$DIMSE2
 70
     0
  9
$DIMTAD
 70
     3
  9
$DIMZIN
 70
     8
  9
$DIMBLK
  1
Open30
  9
$DIMASO
 70
     1
  9
$DIMSHO
 70
     1
  9
$DIMPOST
  1

  9
$DIMAPOST
  1
"
  9
$DIMALT
 70
     0
  9
$DIMALTD
 70
     2
  9
$DIMALTF
 40
0.0393701
  9
$DIMLFAC
 40
1.0
  9
$DIMTOFL
 70
     1
  9
$DIMTVP
 40
0.0
  9
$DIMTIX
 70
     0
  9
$DIMSOXD
 70
     0
  9
$DIMSAH
 70
     0
  9
$DIMBLK1
  1
Open30
  9
$DIMBLK2
  1
Open30
  9
$DIMSTYLE
  2
AM_JIS
  9
$DIMCLRD
 70
   256
  9
$DIMCLRE
 70
   256
  9
$DIMCLRT
 70
     2
  9
$DIMTFAC
 40
0.71
  9
$DIMGAP
 40
1.5
  9
$DIMJUST
 70
     0
  9
$DIMSD1
 70
     0
  9
$DIMSD2
 70
     0
  9
$DIMTOLJ
 70
     0
  9
$DIMTZIN
 70
     8
  9
$DIMALTZ
 70
     0
  9
$DIMALTTZ
 70
     0
  9
$DIMUPT
 70
     0
  9
$DIMDEC
 70
     2
  9
$DIMTDEC
 70
     3
  9
$DIMALTU
 70
     2
  9
$DIMALTTD
 70
     4
  9
$DIMTXSTY
  7
STANDARD
  9
$DIMAUNIT
 70
     0
  9
$DIMADEC
 70
     0
  9
$DIMALTRND
 40
0.0
  9
$DIMAZIN
 70
     2
  9
$DIMDSEP
 70
    46
  9
$DIMATFIT
 70
     3
  9
$DIMFRAC
 70
     0
  9
$DIMLDRBLK
  1
Open30
  9
$DIMLUNIT
 70
     2
  9
$DIMLWD
 70
    -1
  9
$DIMLWE
 70
    -1
  9
$DIMTMOVE
 70
     0
  9
$LUNITS
 70
     2
  9
$LUPREC
 70
     2
  9
$SKETCHINC
 40
1.0
  9
$FILLETRAD
 40
2.5
  9
$AUNITS
 70
     0
  9
$AUPREC
 70
     0
  9
$MENU
  1
.
  9
$ELEVATION
 40
0.0
  9
$PELEVATION
 40
0.0
  9
$THICKNESS
 40
0.0
  9
$LIMCHECK
 70
     0
  9
$CHAMFERA
 40
2.5
  9
$CHAMFERB
 40
2.5
  9
$CHAMFERC
 40
20.0
  9
$CHAMFERD
 40
0.0
  9
$SKPOLY
 70
     0
  9
$TDCREATE
 40
2454784.375539815
  9
$TDUCREATE
 40
2454784.000539814
  9
$TDUPDATE
 40
2456988.587504248
  9
$TDUUPDATE
 40
2456988.212504248
  9
$TDINDWG
 40
0.1035968287
  9
$TDUSRTIMER
 40
0.1035966551
  9
$USRTIMER
 70
     1
  9
$ANGBASE
 50
0.0
  9
$ANGDIR
 70
     0
  9
$PDMODE
 70
     0
  9
$PDSIZE
 40
0.0
  9
$PLINEWID
 40
0.0
  9
$SPLFRAME
 70
     0
  9
$SPLINETYPE
 70
     6
  9
$SPLINESEGS
 70
     8
  9
$HANDSEED
  5
1961
  9
$SURFTAB1
 70
     6
  9
$SURFTAB2
 70
     6
  9
$SURFTYPE
 70
     6
  9
$SURFU
 70
     6
  9
$SURFV
 70
     6
  9
$UCSBASE
  2

  9
$UCSNAME
  2

  9
$UCSORG
 10
0.0
 20
0.0
 30
0.0
  9
$UCSXDIR
 10
1.0
 20
0.0
 30
0.0
  9
$UCSYDIR
 10
0.0
 20
1.0
 30
0.0
  9
$UCSORTHOREF
  2

  9
$UCSORTHOVIEW
 70
     0
  9
$UCSORGTOP
 10
0.0
 20
0.0
 30
0.0
  9
$UCSORGBOTTOM
 10
0.0
 20
0.0
 30
0.0
  9
$UCSORGLEFT
 10
0.0
 20
0.0
 30
0.0
  9
$UCSORGRIGHT
 10
0.0
 20
0.0
 30
0.0
  9
$UCSORGFRONT
 10
0.0
 20
0.0
 30
0.0
  9
$UCSORGBACK
 10
0.0
 20
0.0
 30
0.0
  9
$PUCSBASE
  2

  9
$PUCSNAME
  2

  9
$PUCSORG
 10
0.0
 20
0.0
 30
0.0
  9
$PUCSXDIR
 10
1.0
 20
0.0
 30
0.0
  9
$PUCSYDIR
 10
0.0
 20
1.0
 30
0.0
  9
$PUCSORTHOREF
  2

  9
$PUCSORTHOVIEW
 70
     0
  9
$PUCSORGTOP
 10
0.0
 20
0.0
 30
0.0
  9
$PUCSORGBOTTOM
 10
0.0
 20
0.0
 30
0.0
  9
$PUCSORGLEFT
 10
0.0
 20
0.0
 30
0.0
  9
$PUCSORGRIGHT
 10
0.0
 20
0.0
 30
0.0
  9
$PUCSORGFRONT
 10
0.0
 20
0.0
 30
0.0
  9
$PUCSORGBACK
 10
0.0
 20
0.0
 30
0.0
  9
$USERI1
 70
     0
  9
$USERI2
 70
     0
  9
$USERI3
 70
     0
  9
$USERI4
 70
     0
  9
$USERI5
 70
     0
  9
$USERR1
 40
0.0
  9
$USERR2
 40
0.0
  9
$USERR3
 40
0.0
  9
$USERR4
 40
0.0
  9
$USERR5
 40
0.0
  9
$WORLDVIEW
 70
     1
  9
$SHADEDGE
 70
     3
  9
$SHADEDIF
 70
    70
  9
$TILEMODE
 70
     1
  9
$MAXACTVP
 70
    64
  9
$PINSBASE
 10
0.0
 20
0.0
 30
0.0
  9
$PLIMCHECK
 70
     0
  9
$PEXTMIN
 10
1.000000000000000E+20
 20
1.000000000000000E+20
 30
1.000000000000000E+20
  9
$PEXTMAX
 10
-1.000000000000000E+20
 20
-1.000000000000000E+20
 30
-1.000000000000000E+20
  9
$PLIMMIN
 10
0.0
 20
0.0
  9
$PLIMMAX
 10
420.0
 20
297.0
  9
$UNITMODE
 70
     0
  9
$VISRETAIN
 70
     1
  9
$PLINEGEN
 70
     0
  9
$PSLTSCALE
 70
     1
  9
$TREEDEPTH
 70
  3020
  9
$CMLSTYLE
  2
Standard
  9
$CMLJUST
 70
     0
  9
$CMLSCALE
 40
20.0
  9
$PROXYGRAPHICS
 70
     1
  9
$MEASUREMENT
 70
     1
  9
$CELWEIGHT
370
    -1
  9
$ENDCAPS
280
     0
  9
$JOINSTYLE
280
     0
  9
$LWDISPLAY
290
     0
  9
$INSUNITS
 70
     4
  9
$HYPERLINKBASE
  1

  9
$STYLESHEET
  1
IMAGIO.ctb
  9
$XEDIT
290
     1
  9
$CEPSNTYPE
380
     0
  9
$PSTYLEMODE
290
     1
  9
$FINGERPRINTGUID
  2
{195D72E8-7936-4A99-BEE5-8CE1A826B80A}
  9
$VERSIONGUID
  2
{530DDB45-8C2D-47CE-B3C6-FE91A93FFC17}
  9
$EXTNAMES
290
     1
  9
$PSVPSCALE
 40
0.0
  9
$OLESTARTUP
290
     0
  0
ENDSEC
  0
SECTION
  2
CLASSES
  0
CLASS
  1
ACDBDICTIONARYWDFLT
  2
AcDbDictionaryWithDefault
  3
ObjectDBX Classes
 90
        0
280
     0
281
     0
  0
CLASS
  1
ACDBPLACEHOLDER
  2
AcDbPlaceHolder
  3
ObjectDBX Classes
 90
        0
280
     0
281
     0
  0
CLASS
  1
LAYOUT
  2
AcDbLayout
  3
ObjectDBX Classes
 90
        0
280
     0
281
     0
  0
CLASS
  1
AMGSETTINGSOBJ
  2
AmgSettingsObj
  3
"AcadM|Product Description: AutoCAD Mechanical|Company: Autodesk, Inc."
 90
     1024
280
     0
281
     0
  0
CLASS
  1
ACME_DOCUMENT
  2
AcMeDbDoc
  3
AcMeServices
 90
     1024
280
     0
281
     0
  0
CLASS
  1
ACMESCOPE
  2
AcMeScope
  3
AcMeServices
 90
     1024
280
     0
281
     0
  0
CLASS
  1
ACMECOMMANDHISTORY
  2
AcMeCommandHistory
  3
AcMeServices
 90
     1024
280
     0
281
     0
  0
CLASS
  1
DICTIONARYVAR
  2
AcDbDictionaryVar
  3
ObjectDBX Classes
 90
        0
280
     0
281
     0
  0
CLASS
  1
ACIMSYSVARMAN
  2
AcImSysVarManager
  3
AcMeServices
 90
     1024
280
     0
281
     0
  0
CLASS
  1
ACIMREALSYSVAR
  2
AcImRealSysVar
  3
AcMeServices
 90
     1024
280
     0
281
     0
  0
CLASS
  1
ACIMINTSYSVAR
  2
AcImIntSysVar
  3
AcMeServices
 90
     1024
280
     0
281
     0
  0
CLASS
  1
ACMEDRAWINGMAN
  2
AcMeDrawingMan
  3
AcMeServices
 90
    33792
280
     0
281
     0
  0
CLASS
  1
ACMEVIEW
  2
AcMeView
  3
AcMeServices
 90
    33792
280
     0
281
     0
  0
CLASS
  1
ACDBENTITYCACHE
  2
AcMeEntityCache
  3
AcMeServices
 90
     1024
280
     0
281
     0
  0
CLASS
  1
GSMANAGER
  2
AcMeGSManager
  3
AcMeServices
 90
    32768
280
     0
281
     0
  0
CLASS
  1
AMDTINTERNALREACTOR
  2
AmdtInternalReactor
  3
AcMeServices
 90
     1024
280
     0
281
     0
  0
CLASS
  1
ACMESTATEMGR
  2
AcMeStateMgr
  3
AcMeServices
 90
     1024
280
     0
281
     0
  0
CLASS
  1
ACME_DATABASE
  2
AcMeDbDatabase
  3
AcMeServices
 90
     1024
280
     0
281
     0
  0
CLASS
  1
ACRFINSADJUSTERMGR
  2
AcRfInsAdjusterMgr
  3
AcMeServices
 90
     1024
280
     0
281
     0
  0
CLASS
  1
ACMDATADICTIONARY
  2
AcmDataDictionary
  3
"AcmSymBB|Product Description: AutoCAD Mechanical|Company: Autodesk, Inc."
 90
     1024
280
     0
281
     0
  0
CLASS
  1
ACMDATAENTRYBLOCK
  2
AcmDataEntryBlock
  3
AcmSymBB|Product Description: AutoCAD Mechanical|Company: Autodesk, Inc.
 90
     1024
280
     0
281
     0
  0
CLASS
  1
AMGOBJPROPCFG
  2
AmgObjPropCfg
  3
"AmgLay|Product Description: AutoCAD Mechanical|Company: Autodesk, Inc."
 90
     1025
280
     0
281
     0
  0
CLASS
  1
ACAMGFILTERDAT
  2
AcAmgFilterDat
  3
"AcadM|Product Description: AutoCAD Mechanical|Company: Autodesk, Inc."
 90
     1024
280
     0
281
     0
  0
CLASS
  1
LAYER_INDEX
  2
AcDbLayerIndex
  3
ObjectDBX Classes
 90
    32768
280
     0
281
     0
  0
CLASS
  1
IDBUFFER
  2
AcDbIdBuffer
  3
ObjectDBX Classes
 90
    32768
280
     0
281
     0
  0
CLASS
  1
ACIMSTRSYSVAR
  2
AcImStrSysVar
  3
AcMeServices
 90
     1024
280
     0
281
     0
  0
CLASS
  1
ACMSTANDARDJIS
  2
AcmStandardJIS
  3
"Amdt_StdImp|Product Description: AutoCAD Mechanical|Company: Autodesk, Inc."
 90
     1024
280
     0
281
     0
  0
CLASS
  1
ACMSURFSTANDARDJIS
  2
AcmSurfTextStdJIS
  3
"Amdt_StdImp|Product Description: AutoCAD Mechanical|Company: Autodesk, Inc."
 90
     1024
280
     0
281
     0
  0
CLASS
  1
ACMFCFSTANDARDJIS
  2
AcmFCFStdJIS
  3
"Amdt_StdImp|Product Description: AutoCAD Mechanical|Company: Autodesk, Inc."
 90
     1024
280
     0
281
     0
  0
CLASS
  1
ACMWELDSTANDARDJIS
  2
AcmWeldingStdJIS
  3
"Amdt_StdImp|Product Description: AutoCAD Mechanical|Company: Autodesk, Inc."
 90
     1024
280
     0
281
     0
  0
CLASS
  1
ACMIDSTANDARDJIS
  2
AcmIdStdJIS
  3
"Amdt_StdImp|Product Description: AutoCAD Mechanical|Company: Autodesk, Inc."
 90
     1024
280
     0
281
     0
  0
CLASS
  1
ACMDATUMSTANDARDJIS
  2
AcmDatumStdJIS
  3
"Amdt_StdImp|Product Description: AutoCAD Mechanical|Company: Autodesk, Inc."
 90
     1024
280
     0
281
     0
  0
CLASS
  1
ACMBOMSTANDARDJIS
  2
AcmBOMStdJIS
  3
"Amdt_StdImp|Product Description: AutoCAD Mechanical|Company: Autodesk, Inc."
 90
     1024
280
     0
281
     0
  0
CLASS
  1
MATERIAL
  2
AcDbMaterial
  3
ObjectDBX Classes
 90
     1153
280
     0
281
     0
  0
CLASS
  1
VISUALSTYLE
  2
AcDbVisualStyle
  3
ObjectDBX Classes
 90
     4095
280
     0
281
     0
  0
CLASS
  1
TABLESTYLE
  2
AcDbTableStyle
  3
ObjectDBX Classes
 90
     4095
280
     0
281
     0
  0
CLASS
  1
ACGREFMASTER
  2
AcGrefMaster
  3
AcAttribServices
 90
     1024
280
     0
281
     0
  0
CLASS
  1
AM_DRAWING_MGR
  2
AcDmDwgMgr
  3
AcMechDwgViewMgmt
 90
     1024
280
     0
281
     0
  0
CLASS
  1
AM_DWG_DOCUMENT
  2
AcDmDwgDocument
  3
AcMechDwgViewMgmt
 90
     1024
280
     0
281
     0
  0
CLASS
  1
AM_DWG_SHEET
  2
AcDmSheet
  3
AcMechDwgViewMgmt
 90
     1024
280
     0
281
     0
  0
CLASS
  1
AM_VIEWDIMPARMAP
  2
AcDmViewDimParMap
  3
AcMechDwgViewMgmt
 90
     1024
280
     0
281
     0
  0
CLASS
  1
AM_DWGMGR_NAME
  2
AcDmDwgMgrName
  3
AcMechDwgViewMgmt
 90
     1024
280
     0
281
     0
  0
CLASS
  1
ACGREFACADMASTER
  2
AcGrefacadMaster
  3
AcGrefServices
 90
     1024
280
     0
281
     0
  0
CLASS
  1
AMDTMENUSTATEMGR
  2
AmdtMenuStateMgr
  3
McadcomServices
 90
     1024
280
     0
281
     0
  0
CLASS
  1
AMDTMCOMMENUSTATE
  2
AmdtMcomMenuState
  3
McadcomServices
 90
     1024
280
     0
281
     0
  0
CLASS
  1
AMIMASTER
  2
AmiMaster
  3
AmiServices
 90
     1024
280
     0
281
     0
  0
CLASS
  1
MAPIAMMOUDLE
  2
MApiAmModule
  3
MApiAmServices
 90
     1024
280
     0
281
     0
  0
CLASS
  1
AMDTADMENUSTATE
  2
AmdtAdMenuState
  3
DesignerServices
 90
    32768
280
     0
281
     0
  0
CLASS
  1
ADAPPL
  2
AcAdAppl
  3
DesignerAssemblies
 90
    33792
280
     0
281
     0
  0
CLASS
  1
DEPMGR
  2
AcAdDepMgr
  3
DesignerAssemblies
 90
    33792
280
     0
281
     0
  0
CLASS
  1
PARAMMGR
  2
AcAdParamMgr
  3
DesignerAssemblies
 90
    33792
280
     0
281
     0
  0
CLASS
  1
PARAMSCOPE
  2
AcAdParamScope
  3
DesignerAssemblies
 90
    33792
280
     0
281
     0
  0
CLASS
  1
NAMEDAPPL
  2
AcAdNamedAppl
  3
DesignerAssemblies
 90
    33792
280
     0
281
     0
  0
CLASS
  1
AMDTDMMENUSTATE
  2
AmdtDmMenuState
  3
AcMechDwgViewMgmt
 90
     1024
280
     0
281
     0
  0
CLASS
  1
AMDTAMMENUSTATE
  2
AmdtAmMenuState
  3
DesignerAssemblies
 90
     1024
280
     0
281
     0
  0
CLASS
  1
ACAMPROJECT
  2
AcAmProject
  3
DesignerAssemblies
 90
     1024
280
     0
281
     0
  0
CLASS
  1
ACAMGRCOMPDEF
  2
AcAmGrCompDef
  3
DesignerAssemblies
 90
     1024
280
     0
281
     0
  0
CLASS
  1
ACCMCONTEXT
  2
AcCmContext
  3
DesignerAssemblies
 90
     1024
280
     0
281
     0
  0
CLASS
  1
ACAMCOMPDEF
  2
AcAmCompDef
  3
DesignerAssemblies
 90
     1024
280
     0
281
     0
  0
CLASS
  1
ACAMCOMPDEFMGR
  2
AcAmCompDefMgr
  3
DesignerAssemblies
 90
     1024
280
     0
281
     0
  0
CLASS
  1
AMCONTEXTMGR
  2
AcAmContextMgr
  3
DesignerAssemblies
 90
     1024
280
     0
281
     0
  0
CLASS
  1
ACAMCONTEXTMODELER
  2
AcAmContextModeler
  3
DesignerAssemblies
 90
     1024
280
     0
281
     0
  0
CLASS
  1
ACRFATTGENMGR
  2
AcRfAttGeneralMgr
  3
AcAttribServices
 90
     1024
280
     0
281
     0
  0
CLASS
  1
ACRFOBJATTMGR
  2
AcRfObjAttGroupMgr
  3
AcAttribServices
 90
     1024
280
     0
281
     0
  0
CLASS
  1
ACRFMCADAPIATTHOLDER
  2
AcRfMCADAPIAttHolder
  3
AcAttribServices
 90
     1024
280
     0
281
     0
  0
CLASS
  1
AMDTSYSATTR
  2
AmdtSystemAttribute
  3
AcAttribServices
 90
     1024
280
     0
281
     0
  0
CLASS
  1
ACAMGTITLESTD
  2
AcAmgTitleStd
  3
"AmgTitle|Product Description: AutoCAD Mechanical|Company: Autodesk, Inc."
 90
     4095
280
     0
281
     0
  0
CLASS
  1
ACMDETAILSTANDARDJIS
  2
AmdtDetailSymStdJIS
  3
"Amdt_StdImp|Product Description: AutoCAD Mechanical|Company: Autodesk, Inc."
 90
     1024
280
     0
281
     0
  0
CLASS
  1
ACMSECTIONSTANDARDJIS
  2
AmdtSectionSymStdJIS
  3
"Amdt_StdImp|Product Description: AutoCAD Mechanical|Company: Autodesk, Inc."
 90
     1024
280
     0
281
     0
  0
CLASS
  1
ACMCENTERLINESTANDARDJIS
  2
AmdtCenterLineStdJIS
  3
"Amdt_StdImp|Product Description: AutoCAD Mechanical|Company: Autodesk, Inc."
 90
     1024
280
     0
281
     0
  0
CLASS
  1
ACMTHREADLINESTANDARDJIS
  2
AmdtThreadLineStdJIS
  3
"Amdt_StdImp|Product Description: AutoCAD Mechanical|Company: Autodesk, Inc."
 90
     1024
280
     0
281
     0
  0
CLASS
  1
ACMNOTESTANDARDJIS
  2
AmdtNoteStdJIS
  3
"Amdt_StdImp|Product Description: AutoCAD Mechanical|Company: Autodesk, Inc."
 90
     1024
280
     0
281
     0
  0
CLASS
  1
AMDTNOTETEMPLATEDB
  2
AmdtNoteTemplateDB
  3
AcmSymBB|Product Description: AutoCAD Mechanical|Company: Autodesk, Inc.
 90
     1024
280
     0
281
     0
  0
CLASS
  1
ACMTAPERSTANDARDJIS
  2
AcmTaperStdJIS
  3
"Amdt_StdImp|Product Description: AutoCAD Mechanical|Company: Autodesk, Inc."
 90
     1024
280
     0
281
     0
  0
CLASS
  1
ACAMGLAYSTD
  2
AcAmgLayStd
  3
"AmgLay|Product Description: AutoCAD Mechanical|Company: Autodesk, Inc."
 90
     1024
280
     0
281
     0
  0
CLASS
  1
ACAMGDIMSTD
  2
AcAmgDimStd
  3
"AmgDim|Product Description: AutoCAD Mechanical|Company: Autodesk, Inc."
 90
     1024
280
     0
281
     0
  0
CLASS
  1
ACAMGHOLECHARTSTDJIS
  2
AcAmgHoleChartStdJIS
  3
AmgDim|Product Description: AutoCAD Mechanical|Company: Autodesk, Inc.
 90
     1024
280
     0
281
     0
  0
CLASS
  1
CATALOGSTATE
  2
AcAmCatalogState
  3
DesignerAssemblies
 90
    33792
280
     0
281
     0
  0
CLASS
  1
ACAMGRCOMPDEFSET
  2
AcAmGrCompDefSet
  3
DesignerAssemblies
 90
     1024
280
     0
281
     0
  0
CLASS
  1
AMDTBROWSERDBTAB
  2
AmdtBrowserDbTab
  3
McadcomServices
 90
     1024
280
     0
281
     0
  0
CLASS
  1
CBROWSERAPPOBJECT
  2
CBrowserAppObject
  3
McadcomServices
 90
     1024
280
     0
281
     0
  0
CLASS
  1
DM_PLACEHOLDER
  2
AcDmSelsetPlaceholder
  3
AcMechDwgViewMgmt
 90
     1024
280
     0
281
     0
  0
CLASS
  1
CAMSSTRUCTBTNSTATE
  2
StructBtnState
  3
DesignerAssemblies
 90
     1024
280
     0
281
     0
  0
CLASS
  1
EXACXREFPANELOBJECT
  2
ExAcXREFPanelObject
  3
EXAC_ESW
 90
     1025
280
     0
281
     0
  0
CLASS
  1
NPOCOLLECTION
  2
AcDbImpNonPersistentObjectsCollection
  3
ObjectDBX Classes
 90
     1153
280
     0
281
     0
  0
CLASS
  1
DIMASSOC
  2
AcDbDimAssoc
  3
"AcDbDimAssoc|Product Desc:     AcDim ARX App For Dimension|Company:          Autodesk, Inc.|WEB Address:      www.autodesk.com"
 90
    32768
280
     0
281
     0
  0
CLASS
  1
ACMPARTREF
  2
AcmPartRef
  3
"AcmSymBB|Product Description: AutoCAD Mechanical|Company: Autodesk, Inc."
 90
    36863
280
     0
281
     1
  0
CLASS
  1
ACDBLINERES
  2
AcDbLineRes
  3
AcGrefServices
 90
     1024
280
     0
281
     0
  0
CLASS
  1
NEWSTDPARTPARLIST
  2
AmgNewParListFiler
  3
"AmgParList|Product Description: AutoCAD Mechanical|Company: Autodesk, Inc."
 90
    36863
280
     0
281
     0
  0
CLASS
  1
SORTENTSTABLE
  2
AcDbSortentsTable
  3
ObjectDBX Classes
 90
        0
280
     0
281
     0
  0
CLASS
  1
ACMDATAENTRYPART
  2
AcmDataEntryPart
  3
AcmSymBB|Product Description: AutoCAD Mechanical|Company: Autodesk, Inc.
 90
    33792
280
     0
281
     0
  0
CLASS
  1
AMDTNOTE
  2
AmdtNote
  3
"AcmSymBB|Product Description: AutoCAD Mechanical|Company: Autodesk, Inc."
 90
    36863
280
     0
281
     1
  0
CLASS
  1
AMDTFORMULAUPDATEDISPATCHER
  2
AmdtFormulaUpdateDispatcher
  3
AcMeServices
 90
     1024
280
     0
281
     0
  0
CLASS
  1
ACMSTANDARDISO
  2
AcmStandardISO
  3
"Amdt_StdImp|Product Description: AutoCAD Mechanical|Company: Autodesk, Inc."
 90
     1024
280
     0
281
     0
  0
CLASS
  1
AMDTEDGESTANDARDISO13715
  2
AmdtEdgeStdISO13715
  3
"Amdt_StdImp|Product Description: AutoCAD Mechanical|Company: Autodesk, Inc."
 90
     1024
280
     0
281
     0
  0
CLASS
  1
ACMSURFSTANDARDISO
  2
AcmSurfTextStdISO
  3
"Amdt_StdImp|Product Description: AutoCAD Mechanical|Company: Autodesk, Inc."
 90
     1024
280
     0
281
     0
  0
CLASS
  1
ACMFCFSTANDARDISO
  2
AcmFCFStdISO
  3
"Amdt_StdImp|Product Description: AutoCAD Mechanical|Company: Autodesk, Inc."
 90
     1024
280
     0
281
     0
  0
CLASS
  1
ACMWELDSTANDARDISO
  2
AcmWeldingStdISO
  3
"Amdt_StdImp|Product Description: AutoCAD Mechanical|Company: Autodesk, Inc."
 90
     1024
280
     0
281
     0
  0
CLASS
  1
ACMIDSTANDARDISO
  2
AcmIdStdISO
  3
"Amdt_StdImp|Product Description: AutoCAD Mechanical|Company: Autodesk, Inc."
 90
     1024
280
     0
281
     0
  0
CLASS
  1
ACMDATUMSTANDARDISO
  2
AcmDatumStdISO
  3
"Amdt_StdImp|Product Description: AutoCAD Mechanical|Company: Autodesk, Inc."
 90
     1024
280
     0
281
     0
  0
CLASS
  1
ACMBOMSTANDARDISO
  2
AcmBOMStdISO
  3
"Amdt_StdImp|Product Description: AutoCAD Mechanical|Company: Autodesk, Inc."
 90
     1024
280
     0
281
     0
  0
CLASS
  1
ACMDETAILSTANDARDISO
  2
AmdtDetailSymStdISO
  3
"Amdt_StdImp|Product Description: AutoCAD Mechanical|Company: Autodesk, Inc."
 90
     1024
280
     0
281
     0
  0
CLASS
  1
ACMSECTIONSTANDARDISO
  2
AmdtSectionSymStdISO
  3
"Amdt_StdImp|Product Description: AutoCAD Mechanical|Company: Autodesk, Inc."
 90
     1024
280
     0
281
     0
  0
CLASS
  1
ACMCENTERLINESTANDARDISO
  2
AmdtCenterLineStdISO
  3
"Amdt_StdImp|Product Description: AutoCAD Mechanical|Company: Autodesk, Inc."
 90
     1024
280
     0
281
     0
  0
CLASS
  1
ACMTHREADLINESTANDARDISO
  2
AmdtThreadLineStdISO
  3
"Amdt_StdImp|Product Description: AutoCAD Mechanical|Company: Autodesk, Inc."
 90
     1024
280
     0
281
     0
  0
CLASS
  1
ACMNOTESTANDARDISO
  2
AmdtNoteStdISO
  3
"Amdt_StdImp|Product Description: AutoCAD Mechanical|Company: Autodesk, Inc."
 90
     1024
280
     0
281
     0
  0
CLASS
  1
ACMTAPERSTANDARDISO
  2
AcmTaperStdISO
  3
"Amdt_StdImp|Product Description: AutoCAD Mechanical|Company: Autodesk, Inc."
 90
     1024
280
     0
281
     0
  0
CLASS
  1
ACAMGHOLECHARTSTDISO
  2
AcAmgHoleChartStdISO
  3
AmgDim|Product Description: AutoCAD Mechanical|Company: Autodesk, Inc.
 90
     1024
280
     0
281
     0
  0
CLASS
  1
ACMDATAENTRY
  2
AcmDataEntry
  3
AcmSymBB|Product Description: AutoCAD Mechanical|Company: Autodesk, Inc.
 90
     1024
280
     0
281
     0
  0
CLASS
  1
ACMBOM
  2
AcmBom
  3
"AcmSymBB|Product Description: AutoCAD Mechanical|Company: Autodesk, Inc."
 90
    33792
280
     0
281
     0
  0
CLASS
  1
ACMBOMROW
  2
AcmBomRow
  3
"AcmSymBB|Product Description: AutoCAD Mechanical|Company: Autodesk, Inc."
 90
    33792
280
     0
281
     0
  0
CLASS
  1
ACMPARTLIST
  2
AcmPartList
  3
"AcmSymBB|Product Description: AutoCAD Mechanical|Company: Autodesk, Inc."
 90
    36863
280
     0
281
     1
  0
CLASS
  1
ACDBOPPOLYLINERES
  2
AcDbOpPolylineRes
  3
AcGrefServices
 90
     1024
280
     0
281
     0
  0
CLASS
  1
ACRFINSADJ
  2
AcRfInsAdjuster
  3
AcMeServices
 90
     1024
280
     0
281
     0
  0
CLASS
  1
ACMPICKOBJ
  2
AcmPickEnt
  3
"AcmSymBB|Product Description: AutoCAD Mechanical|Company: Autodesk, Inc."
 90
    33792
280
     0
281
     1
  0
CLASS
  1
ACMBALLOON
  2
AcmBalloon
  3
"AcmSymBB|Product Description: AutoCAD Mechanical|Company: Autodesk, Inc."
 90
    36863
280
     0
281
     1
  0
CLASS
  1
ACDBDIMENSIONRES
  2
AcDbDimensionRes
  3
AcmSymBB|Product Description: AutoCAD Mechanical|Company: Autodesk, Inc.
 90
    33792
280
     0
281
     0
  0
CLASS
  1
SCALE
  2
AcDbScale
  3
ObjectDBX Classes
 90
     1153
280
     0
281
     0
  0
CLASS
  1
MLEADERSTYLE
  2
AcDbMLeaderStyle
  3
ACDB_MLEADERSTYLE_CLASS
 90
     4095
280
     0
281
     0
  0
CLASS
  1
ACMANOOTATIONVIEWSTANDARDJIS
  2
AmdtAnViewStdJIS
  3
"Amdt_StdImp|Product Description: AutoCAD Mechanical|Company: Autodesk, Inc."
 90
     1024
280
     0
281
     0
  0
CLASS
  1
AMDTEDGESTANDARDJIS
  2
AmdtEdgeStdJIS
  3
"Amdt_StdImp|Product Description: AutoCAD Mechanical|Company: Autodesk, Inc."
 90
     1024
280
     0
281
     0
  0
CLASS
  1
ACMANOOTATIONVIEWSTANDARDISO
  2
AmdtAnViewStdISO
  3
"Amdt_StdImp|Product Description: AutoCAD Mechanical|Company: Autodesk, Inc."
 90
     1024
280
     0
281
     0
  0
CLASS
  1
CELLSTYLEMAP
  2
AcDbCellStyleMap
  3
ObjectDBX Classes
 90
     1152
280
     0
281
     0
  0
ENDSEC
  0
SECTION
  2
TABLES
  0
TABLE
  2
VPORT
  5
8
102
{ACAD_XDICTIONARY
360
CA7
102
}
330
0
100
AcDbSymbolTable
 70
     1
  0
VPORT
  5
230
330
8
100
AcDbSymbolTableRecord
100
AcDbViewportTableRecord
  2
*Active
 70
     0
 10
0.0
 20
0.0
 11
1.0
 21
1.0
 12
302.5920642685949
 22
240.9762098695592
 13
0.0
 23
0.0
 14
1.25
 24
1.25
 15
5.0
 25
5.0
 16
0.0
 26
0.0
 36
1.0
 17
0.0
 27
0.0
 37
0.0
 40
103.0428560829613
 41
1.856981981981981
 42
50.0
 43
0.0
 44
0.0
 50
0.0
 51
0.0
 71
    16
 72
   100
 73
     1
 74
     3
 75
     0
 76
     0
 77
     0
 78
     0
281
     0
 65
     1
110
0.0
120
0.0
130
0.0
111
1.0
121
0.0
131
0.0
112
0.0
122
1.0
132
0.0
 79
     0
146
0.0
  0
ENDTAB
  0
TABLE
  2
LTYPE
  5
5
330
0
100
AcDbSymbolTable
 70
    18
  0
LTYPE
  5
14
330
5
100
AcDbSymbolTableRecord
100
AcDbLinetypeTableRecord
  2
ByBlock
 70
     0
  3

 72
    65
 73
     0
 40
0.0
  0
LTYPE
  5
15
330
5
100
AcDbSymbolTableRecord
100
AcDbLinetypeTableRecord
  2
ByLayer
 70
     0
  3

 72
    65
 73
     0
 40
0.0
  0
LTYPE
  5
16
330
5
100
AcDbSymbolTableRecord
100
AcDbLinetypeTableRecord
  2
Continuous
 70
     0
  3
Solid line
 72
    65
 73
     0
 40
0.0
  0
LTYPE
  5
4B
330
5
100
AcDbSymbolTableRecord
100
AcDbLinetypeTableRecord
  2
AM_ISO02W050
 70
     0
  3
__ __ __ __ __ __ __ __ __ __ __ __ __ __ __
 72
    65
 73
     2
 40
7.5
 49
6.0
 74
     0
 49
-1.5
 74
     0
  0
LTYPE
  5
4C
330
5
100
AcDbSymbolTableRecord
100
AcDbLinetypeTableRecord
  2
AM_ISO08W050
 70
     0
  3
____ . ____ . ____ . ____ . ____ . ____ . ____
 72
    65
 73
     4
 40
18.0
 49
12.0
 74
     0
 49
-1.5
 74
     0
 49
3.0
 74
     0
 49
-1.5
 74
     0
  0
LTYPE
  5
4D
330
5
100
AcDbSymbolTableRecord
100
AcDbLinetypeTableRecord
  2
AM_ISO09W050
 70
     0
  3
_____ . . _____ . . _____ . . ____ .. ____
 72
    65
 73
     6
 40
22.5
 49
12.0
 74
     0
 49
-1.5
 74
     0
 49
3.0
 74
     0
 49
-1.5
 74
     0
 49
3.0
 74
     0
 49
-1.5
 74
     0
  0
LTYPE
  5
4E
330
5
100
AcDbSymbolTableRecord
100
AcDbLinetypeTableRecord
  2
Amconstr
 70
     0
  3
_______________________
 72
    65
 73
     2
 40
9999.0
 49
9999.0
 74
     0
 49
0.0
 74
     0
  0
LTYPE
  5
4F
330
5
100
AcDbSymbolTableRecord
100
AcDbLinetypeTableRecord
  2
AM_ISO02W050x2
 70
     0
  3
 _ _ _ _ _ _ _ _ _ _ _ _
 72
    65
 73
     2
 40
3.75
 49
3.0
 74
     0
 49
-0.75
 74
     0
  0
LTYPE
  5
50
330
5
100
AcDbSymbolTableRecord
100
AcDbLinetypeTableRecord
  2
AM_ISO08W050x2
 70
     0
  3
__ . __ . __ . __ . __ . __
 72
    65
 73
     4
 40
9.0
 49
6.0
 74
     0
 49
-0.75
 74
     0
 49
1.5
 74
     0
 49
-0.75
 74
     0
  0
LTYPE
  5
53
330
5
100
AcDbSymbolTableRecord
100
AcDbLinetypeTableRecord
  2
Amzigzag
 70
     0
  3
/\/-/\/-/\/-/\/-/\/-/\/
 72
    65
 73
     2
 40
11.0001
 49
0.0001
 74
     4
 75
   135
340
52
 46
0.04
 50
0.0
 44
0.0
 45
0.0
 49
-11.0
 74
     0
  0
LTYPE
  5
169
330
5
100
AcDbSymbolTableRecord
100
AcDbLinetypeTableRecord
  2
ACJISTGB
 70
     0
  3
__ . . __ . .
 72
    65
 73
     6
 40
9.0
 49
4.0
 74
     0
 49
-1.0
 74
     0
 49
1.0
 74
     0
 49
-1.0
 74
     0
 49
1.0
 74
     0
 49
-1.0
 74
     0
  0
LTYPE
  5
16A
330
5
100
AcDbSymbolTableRecord
100
AcDbLinetypeTableRecord
  2
ACJISTGL
 70
     0
  3
_ _ _ _ _
 72
    65
 73
     2
 40
3.0
 49
2.0
 74
     0
 49
-1.0
 74
     0
  0
LTYPE
  5
27A
330
5
100
AcDbSymbolTableRecord
100
AcDbLinetypeTableRecord
  2
HIDDEN
 70
     0
  3
Hidden __ __ __ __ __ __ __ __ __ __ __ __ __ _
 72
    65
 73
     2
 40
9.524999999999998
 49
6.349999999999999
 74
     0
 49
-3.174999999999999
 74
     0
  0
LTYPE
  5
27B
330
5
100
AcDbSymbolTableRecord
100
AcDbLinetypeTableRecord
  2
PHANTOM2
 70
     0
  3
Phantom (.5x) ___ _ _ ___ _ _ ___ _ _ ___ _ _
 72
    65
 73
     6
 40
31.75
 49
15.875
 74
     0
 49
-3.174999999999999
 74
     0
 49
3.174999999999999
 74
     0
 49
-3.174999999999999
 74
     0
 49
3.174999999999999
 74
     0
 49
-3.174999999999999
 74
     0
  0
LTYPE
  5
27C
330
5
100
AcDbSymbolTableRecord
100
AcDbLinetypeTableRecord
  2
CENTER
 70
     0
  3
Center ____ _ ____ _ ____ _ ____ _ ____ _ ____
 72
    65
 73
     4
 40
50.8
 49
31.75
 74
     0
 49
-6.349999999999999
 74
     0
 49
6.349999999999999
 74
     0
 49
-6.349999999999999
 74
     0
  0
LTYPE
  5
413
330
5
100
AcDbSymbolTableRecord
100
AcDbLinetypeTableRecord
  2
CENTER2
 70
     0
  3
Center (.5x) ___ _ ___ _ ___ _ ___ _ ___ _ ___
 72
    65
 73
     4
 40
28.575
 49
19.05
 74
     0
 49
-3.174999999999999
 74
     0
 49
3.174999999999999
 74
     0
 49
-3.174999999999999
 74
     0
  0
LTYPE
  5
BB2
330
5
100
AcDbSymbolTableRecord
100
AcDbLinetypeTableRecord
  2
ACISOWELD
 70
     0
  3
_ _ _ _ _
 72
    65
 73
     2
 40
2.0
 49
2.0
 74
     0
 49
-1.0
 74
     0
  0
LTYPE
  5
BB3
330
5
100
AcDbSymbolTableRecord
100
AcDbLinetypeTableRecord
  2
ACISOTGB
 70
     0
  3
__ . . __ . .
 72
    65
 73
     6
 40
9.0
 49
4.0
 74
     0
 49
-1.0
 74
     0
 49
1.0
 74
     0
 49
-1.0
 74
     0
 49
1.0
 74
     0
 49
-1.0
 74
     0
  0
LTYPE
  5
BB4
330
5
100
AcDbSymbolTableRecord
100
AcDbLinetypeTableRecord
  2
ACISOTGL
 70
     0
  3
_ _ _ _ _
 72
    65
 73
     2
 40
3.0
 49
2.0
 74
     0
 49
-1.0
 74
     0
  0
ENDTAB
  0
TABLE
  2
LAYER
  5
2
102
{ACAD_XDICTIONARY
360
971
102
}
330
0
100
AcDbSymbolTable
 70
    12
  0
LAYER
  5
10
102
{ACAD_XDICTIONARY
360
13F7
102
}
330
2
100
AcDbSymbolTableRecord
100
AcDbLayerTableRecord
  2
0
 70
     0
 62
     7
  6
Continuous
370
    -3
390
F
  0
LAYER
  5
59
102
{ACAD_XDICTIONARY
360
13F9
102
}
330
2
100
AcDbSymbolTableRecord
100
AcDbLayerTableRecord
  2
AM_0
 70
     0
 62
     7
  6
Continuous
370
    50
390
F
  0
LAYER
  5
5A
102
{ACAD_XDICTIONARY
360
13FB
102
}
330
2
100
AcDbSymbolTableRecord
100
AcDbLayerTableRecord
  2
AM_BOR
 70
     0
 62
     7
  6
Continuous
370
    50
390
F
  0
LAYER
  5
31B
102
{ACAD_XDICTIONARY
360
13FD
102
}
330
2
100
AcDbSymbolTableRecord
100
AcDbLayerTableRecord
  2
AM_5
 70
     0
 62
     3
  6
Continuous
370
    25
390
F
1001
AcAecLayerStandard
1000

1000

  0
LAYER
  5
414
330
2
100
AcDbSymbolTableRecord
100
AcDbLayerTableRecord
  2
Defpoints
 70
     0
 62
     7
  6
Continuous
290
     0
370
    -3
390
F
  0
LAYER
  5
7C0
102
{ACAD_XDICTIONARY
360
13FF
102
}
330
2
100
AcDbSymbolTableRecord
100
AcDbLayerTableRecord
  2
AM_7
 70
     0
 62
     4
  6
AM_ISO08W050
370
    25
390
F
  0
LAYER
  5
7C1
102
{ACAD_XDICTIONARY
360
1401
102
}
330
2
100
AcDbSymbolTableRecord
100
AcDbLayerTableRecord
  2
AM_8
 70
     0
 62
     1
  6
Continuous
370
    25
390
F
  0
LAYER
  5
7C2
102
{ACAD_XDICTIONARY
360
1403
102
}
330
2
100
AcDbSymbolTableRecord
100
AcDbLayerTableRecord
  2
AM_4
 70
     0
 62
     3
  6
Continuous
370
    25
390
F
  0
LAYER
  5
7C3
102
{ACAD_XDICTIONARY
360
1405
102
}
330
2
100
AcDbSymbolTableRecord
100
AcDbLayerTableRecord
  2
AM_11
 70
     0
 62
     3
  6
AM_ISO09W050
370
    25
390
F
  0
LAYER
  5
7C4
102
{ACAD_XDICTIONARY
360
1407
102
}
330
2
100
AcDbSymbolTableRecord
100
AcDbLayerTableRecord
  2
AM_12
 70
     0
 62
     7
  6
Continuous
290
     0
370
    50
390
F
  0
LAYER
  5
7C5
102
{ACAD_XDICTIONARY
360
1409
102
}
330
2
100
AcDbSymbolTableRecord
100
AcDbLayerTableRecord
  2
AM_PAREF
 70
     0
 62
     4
  6
Continuous
290
     0
370
    25
390
F
  0
LAYER
  5
BB5
102
{ACAD_XDICTIONARY
360
140B
102
}
330
2
100
AcDbSymbolTableRecord
100
AcDbLayerTableRecord
  2
AM_CL
 70
     0
 62
     1
  6
Amconstr
370
    25
390
F
  0
ENDTAB
  0
TABLE
  2
STYLE
  5
3
330
0
100
AcDbSymbolTable
 70
    11
  0
STYLE
  5
11
330
3
100
AcDbSymbolTableRecord
100
AcDbTextStyleTableRecord
  2
STANDARD
 70
     0
 40
0.0
 41
1.0
 50
0.0
 71
     0
 42
1.5
  3
ISOCP.SHX
  4
EXTFONT.SHX
  0
STYLE
  5
47
330
3
100
AcDbSymbolTableRecord
100
AcDbTextStyleTableRecord
  2
USER1
 70
     0
 40
0.0
 41
1.0
 50
0.0
 71
     0
 42
2.5
  3
TXT.SHX
  4

  0
STYLE
  5
48
330
3
100
AcDbSymbolTableRecord
100
AcDbTextStyleTableRecord
  2
USER2
 70
     0
 40
0.0
 41
1.0
 50
0.0
 71
     0
 42
2.5
  3
SIMPLEX.SHX
  4

  0
STYLE
  5
49
330
3
100
AcDbSymbolTableRecord
100
AcDbTextStyleTableRecord
  2
USER3
 70
     0
 40
0.0
 41
1.0
 50
0.0
 71
     0
 42
2.5
  3
ITALIC.SHX
  4

  0
STYLE
  5
52
330
3
100
AcDbSymbolTableRecord
100
AcDbTextStyleTableRecord
  2

 70
     1
 40
0.0
 41
1.0
 50
0.0
 71
     0
 42
2.5
  3
ltypeshp.shx
  4

  0
STYLE
  5
161
330
3
100
AcDbSymbolTableRecord
100
AcDbTextStyleTableRecord
  2
ACJISTS
 70
     0
 40
1.0
 41
1.0
 50
0.0
 71
     0
 42
2.5
  3
isocp.shx
  4
bigfont.shx
  0
STYLE
  5
168
330
3
100
AcDbSymbolTableRecord
100
AcDbTextStyleTableRecord
  2
ACJISGDT
 70
     0
 40
0.0
 41
1.0
 50
0.0
 71
     0
 42
2.5
  3
amgdt.shx
  4

  0
STYLE
  5
7C6
330
3
100
AcDbSymbolTableRecord
100
AcDbTextStyleTableRecord
  2
ｽﾀｲﾙ1
 70
     0
 40
0.0
 41
1.0
 50
0.0
 71
     0
 42
44.62462130138407
  3

  4

1001
ACAD
1000
HGPSoeiKakugothicUB
1071
    32818
  0
STYLE
  5
BB6
330
3
100
AcDbSymbolTableRecord
100
AcDbTextStyleTableRecord
  2
ACISOTS
 70
     0
 40
1.0
 41
1.0
 50
0.0
 71
     0
 42
5.0
  3
isocp.shx
  4
extfont.shx
  0
STYLE
  5
BB7
330
3
100
AcDbSymbolTableRecord
100
AcDbTextStyleTableRecord
  2
ACISOGDT
 70
     0
 40
0.0
 41
1.0
 50
0.0
 71
     0
 42
5.0
  3
amgdt.shx
  4

  0
STYLE
  5
1526
330
3
100
AcDbSymbolTableRecord
100
AcDbTextStyleTableRecord
  2

 70
     1
 40
0.0
 41
1.0
 50
0.0
 71
     0
 42
2.5
  3
genltshp.shx
  4

  0
ENDTAB
  0
TABLE
  2
VIEW
  5
6
330
0
100
AcDbSymbolTable
 70
     6
  0
VIEW
  5
7C
330
6
100
AcDbSymbolTableRecord
100
AcDbViewTableRecord
  2
AM_VIEW1
 70
     0
 40
74.25000000000003
 10
279.5633277163863
 20
278.486417654137
 41
113.5865019011407
 11
0.0
 21
0.0
 31
1.0
 12
0.0
 22
0.0
 32
0.0
 42
50.0
 43
0.0
 44
0.0
 50
0.0
 71
    16
281
     0
 72
     0
  0
VIEW
  5
7D
330
6
100
AcDbSymbolTableRecord
100
AcDbViewTableRecord
  2
AM_VIEW2
 70
     0
 40
74.25000000000003
 10
375.9982543866741
 20
278.486417654137
 41
113.5865019011407
 11
0.0
 21
0.0
 31
1.0
 12
0.0
 22
0.0
 32
0.0
 42
50.0
 43
0.0
 44
0.0
 50
0.0
 71
    16
281
     0
 72
     0
  0
VIEW
  5
7E
330
6
100
AcDbSymbolTableRecord
100
AcDbViewTableRecord
  2
AM_VIEW3
 70
     0
 40
74.25000000000003
 10
279.5633277163863
 20
204.2364176541369
 41
113.5865019011407
 11
0.0
 21
0.0
 31
1.0
 12
0.0
 22
0.0
 32
0.0
 42
50.0
 43
0.0
 44
0.0
 50
0.0
 71
    16
281
     0
 72
     0
  0
VIEW
  5
7F
330
6
100
AcDbSymbolTableRecord
100
AcDbViewTableRecord
  2
AM_VIEW4
 70
     0
 40
74.25000000000003
 10
375.9982543866741
 20
204.2364176541369
 41
113.5865019011407
 11
0.0
 21
0.0
 31
1.0
 12
0.0
 22
0.0
 32
0.0
 42
50.0
 43
0.0
 44
0.0
 50
0.0
 71
    16
281
     0
 72
     0
  0
VIEW
  5
80
330
6
100
AcDbSymbolTableRecord
100
AcDbViewTableRecord
  2
AM_VIEW5
 70
     0
 40
74.25000000000006
 10
327.7807910515302
 20
241.3614176541369
 41
113.5865019011407
 11
0.0
 21
0.0
 31
1.0
 12
0.0
 22
0.0
 32
0.0
 42
50.0
 43
0.0
 44
0.0
 50
0.0
 71
    16
281
     0
 72
     0
  0
VIEW
  5
81
330
6
100
AcDbSymbolTableRecord
100
AcDbViewTableRecord
  2
AM_VIEW6
 70
     0
 40
148.498515
 10
327.7807910515302
 20
241.3614176541369
 41
227.1707320722435
 11
0.0
 21
0.0
 31
1.0
 12
0.0
 22
0.0
 32
0.0
 42
50.0
 43
0.0
 44
0.0
 50
0.0
 71
    16
281
     0
 72
     0
  0
ENDTAB
  0
TABLE
  2
UCS
  5
7
330
0
100
AcDbSymbolTable
 70
     0
  0
ENDTAB
  0
TABLE
  2
APPID
  5
9
330
0
100
AcDbSymbolTable
 70
    38
  0
APPID
  5
12
330
9
100
AcDbSymbolTableRecord
100
AcDbRegAppTableRecord
  2
ACAD
 70
     0
  0
APPID
  5
30
330
9
100
AcDbSymbolTableRecord
100
AcDbRegAppTableRecord
  2
MCAD_NO_VIS
 70
     0
  0
APPID
  5
31
330
9
100
AcDbSymbolTableRecord
100
AcDbRegAppTableRecord
  2
ACAD_TEMP_GRAPHIC
 70
     0
  0
APPID
  5
5B
330
9
100
AcDbSymbolTableRecord
100
AcDbRegAppTableRecord
  2
GENIUS_GENREC_14
 70
     0
  0
APPID
  5
5C
330
9
100
AcDbSymbolTableRecord
100
AcDbRegAppTableRecord
  2
GENIUS_GENODEF_13
 70
     0
  0
APPID
  5
5D
330
9
100
AcDbSymbolTableRecord
100
AcDbRegAppTableRecord
  2
GENIUS_GENOBJ-N-REC_13
 70
     0
  0
APPID
  5
96
330
9
100
AcDbSymbolTableRecord
100
AcDbRegAppTableRecord
  2
GENIUS_GENOBJ-N-CEN_13
 70
     0
  0
APPID
  5
C1
330
9
100
AcDbSymbolTableRecord
100
AcDbRegAppTableRecord
  2
GENIUS_GENOBJ-N-TIT_13
 70
     0
  0
APPID
  5
C2
330
9
100
AcDbSymbolTableRecord
100
AcDbRegAppTableRecord
  2
GENIUS_GENTITLE_13
 70
     0
  0
APPID
  5
C3
330
9
100
AcDbSymbolTableRecord
100
AcDbRegAppTableRecord
  2
GENIUS_GENOENT_13
 70
     0
  0
APPID
  5
C4
330
9
100
AcDbSymbolTableRecord
100
AcDbRegAppTableRecord
  2
GENIUS_GENOREF_13
 70
     0
  0
APPID
  5
C5
330
9
100
AcDbSymbolTableRecord
100
AcDbRegAppTableRecord
  2
GENIUS_GENOLIS_13
 70
     0
  0
APPID
  5
C6
330
9
100
AcDbSymbolTableRecord
100
AcDbRegAppTableRecord
  2
GENIUS_GENZVEED_13
 70
     0
  0
APPID
  5
C7
330
9
100
AcDbSymbolTableRecord
100
AcDbRegAppTableRecord
  2
GENIUS_GENSCREG_15
 70
     0
  0
APPID
  5
C8
330
9
100
AcDbSymbolTableRecord
100
AcDbRegAppTableRecord
  2
GENIUS_GENOBJ-N-SDF_13
 70
     0
  0
APPID
  5
27E
330
9
100
AcDbSymbolTableRecord
100
AcDbRegAppTableRecord
  2
AD_DRAW
 70
     0
  0
APPID
  5
281
330
9
100
AcDbSymbolTableRecord
100
AcDbRegAppTableRecord
  2
ACATTRIBSERVICES
 70
     0
  0
APPID
  5
2A0
330
9
100
AcDbSymbolTableRecord
100
AcDbRegAppTableRecord
  2
DESIGNERASSEMBLIES
 70
     0
  0
APPID
  5
2B9
330
9
100
AcDbSymbolTableRecord
100
AcDbRegAppTableRecord
  2
ACADM_DIM_EDIT
 70
     0
  0
APPID
  5
2BA
330
9
100
AcDbSymbolTableRecord
100
AcDbRegAppTableRecord
  2
AMDT_DM_ADJ
 70
     0
  0
APPID
  5
31C
330
9
100
AcDbSymbolTableRecord
100
AcDbRegAppTableRecord
  2
AcAecLayerStandard
 70
     0
  0
APPID
  5
37C
330
9
100
AcDbSymbolTableRecord
100
AcDbRegAppTableRecord
  2
ACAD_PSEXT
 70
     0
  0
APPID
  5
729
330
9
100
AcDbSymbolTableRecord
100
AcDbRegAppTableRecord
  2
GENIUS_GENDIMSH_14
 70
     0
  0
APPID
  5
72B
330
9
100
AcDbSymbolTableRecord
100
AcDbRegAppTableRecord
  2
ACAD_EXEMPT_FROM_CAD_STANDARDS
 70
     0
  0
APPID
  5
7C8
330
9
100
AcDbSymbolTableRecord
100
AcDbRegAppTableRecord
  2
GENIUS_GENOBJ-N-FIL_13
 70
     0
  0
APPID
  5
7C9
330
9
100
AcDbSymbolTableRecord
100
AcDbRegAppTableRecord
  2
GENIUS_GEFSH_13
 70
     0
  0
APPID
  5
7CA
330
9
100
AcDbSymbolTableRecord
100
AcDbRegAppTableRecord
  2
GENIUS_GENOBJ-F-SHS_13
 70
     0
  0
APPID
  5
7CB
330
9
100
AcDbSymbolTableRecord
100
AcDbRegAppTableRecord
  2
GENIUS_GENFIL_13
 70
     0
  0
APPID
  5
7CC
330
9
100
AcDbSymbolTableRecord
100
AcDbRegAppTableRecord
  2
GENIUS_GENOBJ-N-CHA_13
 70
     0
  0
APPID
  5
7CD
330
9
100
AcDbSymbolTableRecord
100
AcDbRegAppTableRecord
  2
GENIUS_GENOBJ-N-HTC_13
 70
     0
  0
APPID
  5
7CE
330
9
100
AcDbSymbolTableRecord
100
AcDbRegAppTableRecord
  2
GENIUS_GENHATCH_13
 70
     0
  0
APPID
  5
978
330
9
100
AcDbSymbolTableRecord
100
AcDbRegAppTableRecord
  2
GENIUS_GENCEN_19
 70
     0
  0
APPID
  5
CBC
330
9
100
AcDbSymbolTableRecord
100
AcDbRegAppTableRecord
  2
ACAD_DSTYLE_DIMARC_LENGTH_SYMBOL
 70
     0
  0
APPID
  5
1342
330
9
100
AcDbSymbolTableRecord
100
AcDbRegAppTableRecord
  2
GENIUS_GENDTOL_13
 70
     0
  0
APPID
  5
1343
330
9
100
AcDbSymbolTableRecord
100
AcDbRegAppTableRecord
  2
ACAD_DSTYLE_DIMINSPECT
 70
     0
  0
APPID
  5
1463
330
9
100
AcDbSymbolTableRecord
100
AcDbRegAppTableRecord
  2
ACAD_MLEADERVER
 70
     0
  0
APPID
  5
1527
330
9
100
AcDbSymbolTableRecord
100
AcDbRegAppTableRecord
  2
ACAD_DSTYLE_DIMJAG
 70
     0
  0
APPID
  5
1528
330
9
100
AcDbSymbolTableRecord
100
AcDbRegAppTableRecord
  2
ACAD_DSTYLE_DIMBREAK
 70
     0
  0
ENDTAB
  0
TABLE
  2
DIMSTYLE
  5
A
330
0
100
AcDbSymbolTable
 70
    19
100
AcDbDimStyleTable
 71
     2
340
8F
340
27
  0
DIMSTYLE
105
2C1
330
A
100
AcDbSymbolTableRecord
100
AcDbDimStyleTableRecord
  2
Standard
 70
     0
340
11
  0
DIMSTYLE
105
8F
330
A
100
AcDbSymbolTableRecord
100
AcDbDimStyleTableRecord
  2
AM_JIS
 70
     0
  4
"
 40
0.5
 41
2.5
 42
1.0
 43
10.0
 44
1.0
 47
0.1
 48
0.1
 73
     0
 74
     0
 77
     3
 78
     8
 79
     2
140
3.5
141
0.0
143
0.0393701
146
0.71
147
1.5
172
     1
176
   256
177
   256
178
     2
271
     2
272
     3
274
     4
283
     0
284
     8
340
11
341
84
342
84
343
84
344
84
371
    -1
372
    -1
1001
ACAD_DSTYLE_DIMARC_LENGTH_SYMBOL
1070
   379
1070
     1
  0
DIMSTYLE
105
90
330
A
100
AcDbSymbolTableRecord
100
AcDbDimStyleTableRecord
  2
AM_JIS$3
 70
     0
  4
"
 40
0.5
 41
2.5
 42
1.0
 43
10.0
 44
1.0
 47
0.1
 48
0.1
 73
     0
 77
     3
 78
     8
 79
     2
140
3.5
141
0.0
143
0.0393701
146
0.71
147
1.5
176
   256
177
   256
178
     2
271
     2
272
     3
274
     4
283
     0
284
     8
288
     1
289
     0
340
11
341
84
342
84
343
84
344
84
371
    -1
372
    -1
1001
ACAD_DSTYLE_DIMARC_LENGTH_SYMBOL
1070
   379
1070
     1
  0
DIMSTYLE
105
91
330
A
100
AcDbSymbolTableRecord
100
AcDbDimStyleTableRecord
  2
AM_JIS$4
 70
     0
  4
"
 40
0.5
 41
2.5
 42
1.0
 43
10.0
 44
1.0
 47
0.1
 48
0.1
 73
     0
 74
     0
 77
     3
 78
     8
 79
     2
140
3.5
141
0.0
143
0.0393701
146
0.71
147
1.5
172
     1
176
   256
177
   256
178
     2
271
     2
272
     3
274
     4
283
     0
284
     8
340
11
341
84
342
84
343
84
344
84
371
    -1
372
    -1
1001
ACAD_DSTYLE_DIMARC_LENGTH_SYMBOL
1070
   379
1070
     1
  0
DIMSTYLE
105
92
330
A
100
AcDbSymbolTableRecord
100
AcDbDimStyleTableRecord
  2
AM_JIS$6
 70
     0
  4
"
 40
0.5
 41
2.5
 42
1.0
 43
10.0
 44
1.0
 47
0.1
 48
0.1
 73
     0
 74
     0
 78
     8
 79
     2
140
3.5
141
0.0
143
0.0393701
146
0.71
147
1.5
172
     1
176
   256
177
   256
178
     2
271
     2
272
     3
274
     4
283
     0
284
     8
340
11
341
84
342
84
343
84
344
84
371
    -1
372
    -1
1001
ACAD_DSTYLE_DIMARC_LENGTH_SYMBOL
1070
   379
1070
     1
  0
DIMSTYLE
105
93
330
A
100
AcDbSymbolTableRecord
100
AcDbDimStyleTableRecord
  2
AM_JIS$7
 70
     0
  4
"
 40
0.5
 41
2.5
 42
1.0
 43
10.0
 44
1.0
 47
0.1
 48
0.1
 73
     0
 74
     0
 77
     3
 78
     8
 79
     2
140
5.0
141
0.0
143
0.0393701
146
0.71
147
1.5
172
     1
176
   256
177
   256
178
     2
271
     2
272
     3
274
     4
283
     0
284
     8
340
11
341
84
342
84
343
84
344
84
371
    -1
372
    -1
1001
ACAD_DSTYLE_DIMARC_LENGTH_SYMBOL
1070
   379
1070
     1
  0
DIMSTYLE
105
94
330
A
100
AcDbSymbolTableRecord
100
AcDbDimStyleTableRecord
  2
AM_JIS$SF
 70
     0
  4
"
 40
0.5
 41
2.5
 42
1.0
 43
10.0
 44
1.0
 47
0.1
 48
0.1
 73
     0
 74
     0
 75
     1
 76
     1
 77
     3
 78
     8
 79
     2
140
3.5
141
0.0
143
0.0393701
146
0.71
147
1.5
172
     1
176
   256
177
   256
178
     2
271
     2
272
     3
274
     4
283
     0
284
     8
340
11
341
84
342
84
343
84
344
84
371
    -1
372
    -1
1001
ACAD_DSTYLE_DIMARC_LENGTH_SYMBOL
1070
   379
1070
     1
  0
DIMSTYLE
105
95
330
A
100
AcDbSymbolTableRecord
100
AcDbDimStyleTableRecord
  2
AM_JIS$SH
 70
     0
  4
"
 40
0.5
 41
2.5
 42
1.0
 43
10.0
 44
1.0
 47
0.1
 48
0.1
 73
     0
 74
     0
 75
     1
 76
     1
 77
     3
 78
     8
 79
     2
140
3.5
141
0.0
143
0.0393701
144
2.0
146
0.71
147
1.5
172
     1
173
     1
176
   256
177
   256
178
     2
271
     2
272
     3
274
     4
283
     0
284
     8
340
11
341
84
342
84
343
8A
344
84
371
    -1
372
    -1
1001
ACAD_DSTYLE_DIMARC_LENGTH_SYMBOL
1070
   379
1070
     1
  0
DIMSTYLE
105
27
330
A
100
AcDbSymbolTableRecord
100
AcDbDimStyleTableRecord
  2
ISO-25
 70
     0
 41
2.5
 42
0.625
 43
3.75
 44
1.25
 73
     0
 74
     0
 77
     1
 78
     8
140
2.5
141
2.5
143
0.03937007874016
147
0.625
171
     3
172
     1
271
     2
272
     2
274
     3
283
     0
284
     8
340
11
  0
DIMSTYLE
105
7C7
330
A
100
AcDbSymbolTableRecord
100
AcDbDimStyleTableRecord
  2
AM_JIS$0
 70
     0
  4
"
 40
0.5
 41
2.5
 42
1.0
 43
10.0
 44
1.0
 47
0.1
 48
0.1
 73
     0
 74
     0
 77
     3
 78
     8
 79
     2
140
3.5
141
0.0
143
0.0393701
146
0.71
147
1.5
172
     1
176
   256
177
   256
178
     2
271
     2
272
     3
274
     4
283
     0
340
11
341
84
342
84
343
84
344
84
371
    -1
372
    -1
  0
DIMSTYLE
105
B9B
330
A
100
AcDbSymbolTableRecord
100
AcDbDimStyleTableRecord
  2
AM_ANSI
 70
     0
  4
mm
 40
0.5
 41
0.1
 42
0.05
 43
0.5
 44
0.1
 47
0.1
 48
0.1
 78
     7
 79
     2
140
0.12
141
0.0
146
0.71
147
0.06
176
   256
177
   256
178
     2
274
     4
284
     7
340
11
371
    -1
372
    -1
  0
DIMSTYLE
105
BB8
330
A
100
AcDbSymbolTableRecord
100
AcDbDimStyleTableRecord
  2
AM_ISO
 70
     0
  4
"
 41
2.5
 42
1.0
 43
10.0
 44
1.0
 47
0.1
 48
0.1
 73
     0
 74
     0
 77
     1
 78
     8
 79
     2
140
3.5
141
0.0
143
0.0393701
146
0.71
147
1.5
172
     1
176
   256
177
   256
178
     2
271
     2
272
     3
274
     4
283
     0
284
     8
340
11
371
    -1
372
    -1
1001
ACAD_DSTYLE_DIMARC_LENGTH_SYMBOL
1070
   379
1070
     1
  0
DIMSTYLE
105
BB9
330
A
100
AcDbSymbolTableRecord
100
AcDbDimStyleTableRecord
  2
AM_ISO$3
 70
     0
  4
"
 41
2.5
 42
1.0
 43
10.0
 44
1.0
 47
0.1
 48
0.1
 73
     0
 77
     1
 78
     8
 79
     2
140
3.5
141
0.0
143
0.0393701
146
0.71
147
1.5
176
   256
177
   256
178
     2
271
     2
272
     3
274
     4
283
     0
284
     8
288
     1
289
     0
340
11
371
    -1
372
    -1
1001
ACAD_DSTYLE_DIMARC_LENGTH_SYMBOL
1070
   379
1070
     1
  0
DIMSTYLE
105
BBA
330
A
100
AcDbSymbolTableRecord
100
AcDbDimStyleTableRecord
  2
AM_ISO$4
 70
     0
  4
"
 41
2.5
 42
1.0
 43
10.0
 44
1.0
 47
0.1
 48
0.1
 73
     0
 77
     1
 78
     8
 79
     2
140
3.5
141
0.0
143
0.0393701
146
0.71
147
1.5
176
   256
177
   256
178
     2
271
     2
272
     3
274
     4
283
     0
284
     8
288
     1
289
     0
340
11
371
    -1
372
    -1
1001
ACAD_DSTYLE_DIMARC_LENGTH_SYMBOL
1070
   379
1070
     1
  0
DIMSTYLE
105
BBB
330
A
100
AcDbSymbolTableRecord
100
AcDbDimStyleTableRecord
  2
AM_ISO$6
 70
     0
  4
"
 41
2.5
 42
1.0
 43
10.0
 44
1.0
 47
0.1
 48
0.1
 73
     0
 74
     0
 78
     8
 79
     2
140
3.5
141
0.0
143
0.0393701
146
0.71
147
1.5
172
     1
176
   256
177
   256
178
     2
271
     2
272
     3
274
     4
283
     0
284
     8
340
11
371
    -1
372
    -1
1001
ACAD_DSTYLE_DIMARC_LENGTH_SYMBOL
1070
   379
1070
     1
  0
DIMSTYLE
105
BBC
330
A
100
AcDbSymbolTableRecord
100
AcDbDimStyleTableRecord
  2
AM_ISO$7
 70
     0
  4
"
 41
2.5
 42
1.0
 43
10.0
 44
1.0
 47
0.1
 48
0.1
 73
     0
 74
     0
 77
     1
 78
     8
 79
     2
140
5.0
141
0.0
143
0.0393701
146
0.71
147
1.5
172
     1
176
   256
177
   256
178
     2
271
     2
272
     3
274
     4
283
     0
284
     8
340
11
371
    -1
372
    -1
1001
ACAD_DSTYLE_DIMARC_LENGTH_SYMBOL
1070
   379
1070
     1
  0
DIMSTYLE
105
BBD
330
A
100
AcDbSymbolTableRecord
100
AcDbDimStyleTableRecord
  2
AM_ISO$SF
 70
     0
  4
"
 41
2.5
 42
1.0
 43
10.0
 44
1.0
 47
0.1
 48
0.1
 73
     0
 74
     0
 75
     1
 76
     1
 77
     1
 78
     8
 79
     2
140
3.5
141
0.0
143
0.0393701
146
0.71
147
1.5
172
     1
176
   256
177
   256
178
     2
271
     2
272
     3
274
     4
283
     0
284
     8
340
11
371
    -1
372
    -1
1001
ACAD_DSTYLE_DIMARC_LENGTH_SYMBOL
1070
   379
1070
     1
  0
DIMSTYLE
105
BBE
330
A
100
AcDbSymbolTableRecord
100
AcDbDimStyleTableRecord
  2
AM_ISO$SH
 70
     0
  4
"
 41
2.5
 42
1.0
 43
10.0
 44
1.0
 47
0.1
 48
0.1
 73
     0
 74
     0
 75
     1
 76
     1
 77
     1
 78
     8
 79
     2
140
3.5
141
0.0
143
0.0393701
144
2.0
146
0.71
147
1.5
172
     1
173
     1
176
   256
177
   256
178
     2
271
     2
272
     3
274
     4
283
     0
284
     8
340
11
343
8A
371
    -1
372
    -1
1001
ACAD_DSTYLE_DIMARC_LENGTH_SYMBOL
1070
   379
1070
     1
  0
ENDTAB
  0
TABLE
  2
BLOCK_RECORD
  5
1
330
0
100
AcDbSymbolTable
 70
    14
  0
BLOCK_RECORD
  5
1F
102
{ACAD_XDICTIONARY
360
C9
102
}
330
1
100
AcDbSymbolTableRecord
100
AcDbBlockTableRecord
  2
*Model_Space
340
22
  0
BLOCK_RECORD
  5
1B
330
1
100
AcDbSymbolTableRecord
100
AcDbBlockTableRecord
  2
*Paper_Space
340
1E
  0
BLOCK_RECORD
  5
23
330
1
100
AcDbSymbolTableRecord
100
AcDbBlockTableRecord
  2
*Paper_Space0
340
26
  0
BLOCK_RECORD
  5
84
330
1
100
AcDbSymbolTableRecord
100
AcDbBlockTableRecord
  2
_Open30
340
0
102
{BLKREFS
331
1582
331
1583
331
170D
331
170E
102
}
  0
BLOCK_RECORD
  5
8A
330
1
100
AcDbSymbolTableRecord
100
AcDbBlockTableRecord
  2
GENAXEH
340
0
  0
BLOCK_RECORD
  5
BBF
102
{ACAD_XDICTIONARY
360
BCD
102
}
330
1
100
AcDbSymbolTableRecord
100
AcDbBlockTableRecord
  2
AA-3-BW
340
0
  0
BLOCK_RECORD
  5
BED
330
1
100
AcDbSymbolTableRecord
100
AcDbBlockTableRecord
  2
A$C2D292097
340
0
  0
BLOCK_RECORD
  5
C02
102
{ACAD_XDICTIONARY
360
C33
102
}
330
1
100
AcDbSymbolTableRecord
100
AcDbBlockTableRecord
  2
ASO-A
340
0
  0
BLOCK_RECORD
  5
1170
102
{ACAD_XDICTIONARY
360
11A3
102
}
330
1
100
AcDbSymbolTableRecord
100
AcDbBlockTableRecord
  2
A$C4A8F646D
340
0
1001
ACAD
1000
DesignCenter Data
1002
{
1070
     1
1070
     4
1002
}
  0
BLOCK_RECORD
  5
11A9
102
{ACAD_XDICTIONARY
360
11D7
102
}
330
1
100
AcDbSymbolTableRecord
100
AcDbBlockTableRecord
  2
A$C360254A4
340
0
1001
ACAD
1000
DesignCenter Data
1002
{
1070
     1
1070
     4
1002
}
  0
BLOCK_RECORD
  5
1228
102
{ACAD_XDICTIONARY
360
1274
102
}
330
1
100
AcDbSymbolTableRecord
100
AcDbBlockTableRecord
  2
A$C131B32AB
340
0
1001
ACAD
1000
DesignCenter Data
1002
{
1070
     1
1070
     4
1002
}
  0
ENDTAB
  0
ENDSEC
  0
SECTION
  2
BLOCKS
  0
BLOCK
  5
20
330
1F
100
AcDbEntity
  8
0
100
AcDbBlockBegin
  2
*Model_Space
 70
     0
 10
0.0
 20
0.0
 30
0.0
  3
*Model_Space
  1

  0
ENDBLK
  5
21
330
1F
100
AcDbEntity
  8
0
100
AcDbBlockEnd
  0
BLOCK
  5
1C
330
1B
100
AcDbEntity
 67
     1
  8
0
100
AcDbBlockBegin
  2
*Paper_Space
 70
     0
 10
0.0
 20
0.0
 30
0.0
  3
*Paper_Space
  1

  0
ENDBLK
  5
1D
330
1B
100
AcDbEntity
 67
     1
  8
0
100
AcDbBlockEnd
  0
BLOCK
  5
24
330
23
100
AcDbEntity
 67
     1
  8
0
100
AcDbBlockBegin
  2
*Paper_Space0
 70
     0
 10
0.0
 20
0.0
 30
0.0
  3
*Paper_Space0
  1

  0
ENDBLK
  5
25
330
23
100
AcDbEntity
 67
     1
  8
0
100
AcDbBlockEnd
  0
BLOCK
  5
88
330
84
100
AcDbEntity
  8
0
100
AcDbBlockBegin
  2
_Open30
 70
     0
 10
0.0
 20
0.0
 30
0.0
  3
_Open30
  1

  0
LINE
  5
85
330
84
100
AcDbEntity
  8
0
 62
     0
370
    -2
100
AcDbLine
 10
-1.0
 20
0.26794919
 30
0.0
 11
0.0
 21
0.0
 31
0.0
  0
LINE
  5
86
330
84
100
AcDbEntity
  8
0
 62
     0
370
    -2
100
AcDbLine
 10
0.0
 20
0.0
 30
0.0
 11
-1.0
 21
-0.26794919
 31
0.0
  0
LINE
  5
87
330
84
100
AcDbEntity
  8
0
 62
     0
370
    -2
100
AcDbLine
 10
0.0
 20
0.0
 30
0.0
 11
-1.0
 21
0.0
 31
0.0
  0
ENDBLK
  5
89
330
84
100
AcDbEntity
  8
0
100
AcDbBlockEnd
  0
BLOCK
  5
8C
330
8A
100
AcDbEntity
  8
0
100
AcDbBlockBegin
  2
GENAXEH
 70
     0
 10
0.0
 20
0.0
 30
0.0
  3
GENAXEH
  1

  0
LINE
  5
8B
330
8A
100
AcDbEntity
  8
0
100
AcDbLine
 10
-1.0
 20
0.0
 30
0.0
 11
1.0
 21
0.0
 31
0.0
  0
ENDBLK
  5
8D
330
8A
100
AcDbEntity
  8
0
100
AcDbBlockEnd
  0
BLOCK
  5
BCE
330
BBF
100
AcDbEntity
  8
0
100
AcDbBlockBegin
  2
AA-3-BW
 70
     0
 10
0.0
 20
0.0
 30
0.0
  3
AA-3-BW
  1

  0
LWPOLYLINE
  5
BC0
330
BBF
100
AcDbEntity
  8
AM_BOR
 62
   231
100
AcDbPolyline
 90
        4
 70
     1
 43
0.0
 10
11.31798825946299
 20
285.680442839147
 10
11.31798825946292
 20
11.31955716085312
 10
408.7322739737486
 20
11.31955716085296
 10
408.7322739737486
 20
285.680442839147
1001
GENIUS_GENREC_14
1002
{
1000
PYDIR
1011
408.7322739737486
1021
285.680442839147
1031
0.0
1002
}
1002
{
1000
PXDIR
1011
11.31798825946292
1021
11.31955716085312
1031
0.0
1002
}
1002
{
1000
PORI
1011
11.31798825946299
1021
285.680442839147
1031
0.0
1002
}
1002
{
1000
PINS
1011
11.31798825946299
1021
285.680442839147
1031
0.0
1002
}
1002
{
1000
HVAL
1000
281
1002
}
1002
{
1000
H
1070
     2
1002
}
1002
{
1000
WVAL
1000
183
1002
}
1002
{
1000
W
1070
     2
1002
}
1002
{
1000
C
1070
     1
1002
}
1001
GENIUS_GENODEF_13
1002
{
1000
HIER
1070
     0
1002
}
1002
{
1000
MANEDIT
1070
     0
1002
}
1002
{
1000
NOSEL
1070
     0
1002
}
1002
{
1000
BEHIND
1070
     0
1002
}
1002
{
1000
REACTOR
1002
}
1001
GENIUS_GENOBJ-N-REC_13
1002
{
1000
OWNER
1000
GEN
1002
}
  0
TEXT
  5
BC1
330
BBF
100
AcDbEntity
  8
AM_BOR
 60
     1
100
AcDbText
 10
420.0428571428571
 20
296.9999999999998
 30
0.0
 40
5.0
  1
!GENTITLE-MAX
100
AcDbText
  0
LINE
  5
BC2
330
BBF
100
AcDbEntity
  8
AM_BOR
100
AcDbLine
 10
0.0000000000000799
 20
297.0
 30
0.0
 11
0.0000000000000799
 21
275.7857142857142
 31
0.0
1001
GENIUS_GENREC_14
1002
{
1000
PYDIR
1011
420.0428571428571
1021
296.9999999999998
1031
0.0
1002
}
1002
{
1000
PXDIR
1011
0.0
1021
0.0
1031
0.0
1002
}
1002
{
1000
PORI
1011
0.0000000000000799
1021
297.0
1031
0.0
1002
}
1002
{
1000
PINS
1011
0.0000000000000799
1021
297.0
1031
0.0
1002
}
1002
{
1000
HVAL
1000
297
1002
}
1002
{
1000
H
1070
     2
1002
}
1002
{
1000
WVAL
1000
210
1002
}
1002
{
1000
W
1070
     2
1002
}
1002
{
1000
C
1070
     1
1002
}
1001
GENIUS_GENODEF_13
1002
{
1000
HIER
1070
     0
1002
}
1002
{
1000
MANEDIT
1070
     0
1002
}
1002
{
1000
NOSEL
1070
     0
1002
}
1002
{
1000
BEHIND
1070
     0
1002
}
1002
{
1000
REACTOR
1002
}
1001
GENIUS_GENOBJ-N-REC_13
1002
{
1000
OWNER
1000
GEN
1002
}
  0
LINE
  5
BC3
330
BBF
100
AcDbEntity
  8
AM_BOR
100
AcDbLine
 10
0.0
 20
0.0
 30
0.0
 11
21.21428571428571
 21
0.0
 31
0.0
1001
GENIUS_GENREC_14
1002
{
1000
PYDIR
1011
420.0428571428571
1021
296.9999999999998
1031
0.0
1002
}
1002
{
1000
PXDIR
1011
0.0
1021
0.0
1031
0.0
1002
}
1002
{
1000
PORI
1011
0.0000000000000799
1021
297.0
1031
0.0
1002
}
1002
{
1000
PINS
1011
0.0000000000000799
1021
297.0
1031
0.0
1002
}
1002
{
1000
HVAL
1000
297
1002
}
1002
{
1000
H
1070
     2
1002
}
1002
{
1000
WVAL
1000
210
1002
}
1002
{
1000
W
1070
     2
1002
}
1002
{
1000
C
1070
     1
1002
}
1001
GENIUS_GENODEF_13
1002
{
1000
HIER
1070
     0
1002
}
1002
{
1000
MANEDIT
1070
     0
1002
}
1002
{
1000
NOSEL
1070
     0
1002
}
1002
{
1000
BEHIND
1070
     0
1002
}
1002
{
1000
REACTOR
1002
}
1001
GENIUS_GENOBJ-N-REC_13
1002
{
1000
OWNER
1000
GEN
1002
}
  0
LINE
  5
BC4
330
BBF
100
AcDbEntity
  8
AM_BOR
100
AcDbLine
 10
420.0428571428571
 20
-0.0000000000000799
 30
0.0
 11
420.0428571428571
 21
21.21428571428563
 31
0.0
1001
GENIUS_GENREC_14
1002
{
1000
PYDIR
1011
420.0428571428571
1021
296.9999999999998
1031
0.0
1002
}
1002
{
1000
PXDIR
1011
0.0
1021
0.0
1031
0.0
1002
}
1002
{
1000
PORI
1011
0.0000000000000799
1021
297.0
1031
0.0
1002
}
1002
{
1000
PINS
1011
0.0000000000000799
1021
297.0
1031
0.0
1002
}
1002
{
1000
HVAL
1000
297
1002
}
1002
{
1000
H
1070
     2
1002
}
1002
{
1000
WVAL
1000
210
1002
}
1002
{
1000
W
1070
     2
1002
}
1002
{
1000
C
1070
     1
1002
}
1001
GENIUS_GENODEF_13
1002
{
1000
HIER
1070
     0
1002
}
1002
{
1000
MANEDIT
1070
     0
1002
}
1002
{
1000
NOSEL
1070
     0
1002
}
1002
{
1000
BEHIND
1070
     0
1002
}
1002
{
1000
REACTOR
1002
}
1001
GENIUS_GENOBJ-N-REC_13
1002
{
1000
OWNER
1000
GEN
1002
}
  0
LINE
  5
BC5
330
BBF
100
AcDbEntity
  8
AM_BOR
100
AcDbLine
 10
420.0428571428571
 20
296.9999999999998
 30
0.0
 11
398.8285714285715
 21
296.9999999999998
 31
0.0
1001
GENIUS_GENREC_14
1002
{
1000
PYDIR
1011
420.0428571428571
1021
296.9999999999998
1031
0.0
1002
}
1002
{
1000
PXDIR
1011
0.0
1021
0.0
1031
0.0
1002
}
1002
{
1000
PORI
1011
0.0000000000000799
1021
297.0
1031
0.0
1002
}
1002
{
1000
PINS
1011
0.0000000000000799
1021
297.0
1031
0.0
1002
}
1002
{
1000
HVAL
1000
297
1002
}
1002
{
1000
H
1070
     2
1002
}
1002
{
1000
WVAL
1000
210
1002
}
1002
{
1000
W
1070
     2
1002
}
1002
{
1000
C
1070
     1
1002
}
1001
GENIUS_GENODEF_13
1002
{
1000
HIER
1070
     0
1002
}
1002
{
1000
MANEDIT
1070
     0
1002
}
1002
{
1000
NOSEL
1070
     0
1002
}
1002
{
1000
BEHIND
1070
     0
1002
}
1002
{
1000
REACTOR
1002
}
1001
GENIUS_GENOBJ-N-REC_13
1002
{
1000
OWNER
1000
GEN
1002
}
  0
LINE
  5
BC6
330
BBF
100
AcDbEntity
  8
AM_BOR
100
AcDbLine
 10
21.2142857142858
 20
297.0
 30
0.0
 11
0.0000000000000799
 21
297.0
 31
0.0
1001
GENIUS_GENREC_14
1002
{
1000
PYDIR
1011
420.0428571428571
1021
296.9999999999998
1031
0.0
1002
}
1002
{
1000
PXDIR
1011
0.0
1021
0.0
1031
0.0
1002
}
1002
{
1000
PORI
1011
0.0000000000000799
1021
297.0
1031
0.0
1002
}
1002
{
1000
PINS
1011
0.0000000000000799
1021
297.0
1031
0.0
1002
}
1002
{
1000
HVAL
1000
297
1002
}
1002
{
1000
H
1070
     2
1002
}
1002
{
1000
WVAL
1000
210
1002
}
1002
{
1000
W
1070
     2
1002
}
1002
{
1000
C
1070
     1
1002
}
1001
GENIUS_GENODEF_13
1002
{
1000
HIER
1070
     0
1002
}
1002
{
1000
MANEDIT
1070
     0
1002
}
1002
{
1000
NOSEL
1070
     0
1002
}
1002
{
1000
BEHIND
1070
     0
1002
}
1002
{
1000
REACTOR
1002
}
1001
GENIUS_GENOBJ-N-REC_13
1002
{
1000
OWNER
1000
GEN
1002
}
  0
LINE
  5
BC7
330
BBF
100
AcDbEntity
  8
AM_BOR
100
AcDbLine
 10
420.0428571428571
 20
275.7857142857141
 30
0.0
 11
420.0428571428571
 21
296.9999999999998
 31
0.0
1001
GENIUS_GENREC_14
1002
{
1000
PYDIR
1011
420.0428571428571
1021
296.9999999999998
1031
0.0
1002
}
1002
{
1000
PXDIR
1011
0.0
1021
0.0
1031
0.0
1002
}
1002
{
1000
PORI
1011
0.0000000000000799
1021
297.0
1031
0.0
1002
}
1002
{
1000
PINS
1011
0.0000000000000799
1021
297.0
1031
0.0
1002
}
1002
{
1000
HVAL
1000
297
1002
}
1002
{
1000
H
1070
     2
1002
}
1002
{
1000
WVAL
1000
210
1002
}
1002
{
1000
W
1070
     2
1002
}
1002
{
1000
C
1070
     1
1002
}
1001
GENIUS_GENODEF_13
1002
{
1000
HIER
1070
     0
1002
}
1002
{
1000
MANEDIT
1070
     0
1002
}
1002
{
1000
NOSEL
1070
     0
1002
}
1002
{
1000
BEHIND
1070
     0
1002
}
1002
{
1000
REACTOR
1002
}
1001
GENIUS_GENOBJ-N-REC_13
1002
{
1000
OWNER
1000
GEN
1002
}
  0
LINE
  5
BC8
330
BBF
100
AcDbEntity
  8
AM_BOR
100
AcDbLine
 10
398.8285714285715
 20
-0.0000000000000799
 30
0.0
 11
420.0428571428571
 21
-0.0000000000000799
 31
0.0
1001
GENIUS_GENREC_14
1002
{
1000
PYDIR
1011
420.0428571428571
1021
296.9999999999998
1031
0.0
1002
}
1002
{
1000
PXDIR
1011
0.0
1021
0.0
1031
0.0
1002
}
1002
{
1000
PORI
1011
0.0000000000000799
1021
297.0
1031
0.0
1002
}
1002
{
1000
PINS
1011
0.0000000000000799
1021
297.0
1031
0.0
1002
}
1002
{
1000
HVAL
1000
297
1002
}
1002
{
1000
H
1070
     2
1002
}
1002
{
1000
WVAL
1000
210
1002
}
1002
{
1000
W
1070
     2
1002
}
1002
{
1000
C
1070
     1
1002
}
1001
GENIUS_GENODEF_13
1002
{
1000
HIER
1070
     0
1002
}
1002
{
1000
MANEDIT
1070
     0
1002
}
1002
{
1000
NOSEL
1070
     0
1002
}
1002
{
1000
BEHIND
1070
     0
1002
}
1002
{
1000
REACTOR
1002
}
1001
GENIUS_GENOBJ-N-REC_13
1002
{
1000
OWNER
1000
GEN
1002
}
  0
LINE
  5
BC9
330
BBF
100
AcDbEntity
  8
AM_BOR
100
AcDbLine
 10
0.0
 20
21.21428571428571
 30
0.0
 11
0.0
 21
0.0
 31
0.0
1001
GENIUS_GENREC_14
1002
{
1000
PYDIR
1011
420.0428571428571
1021
296.9999999999998
1031
0.0
1002
}
1002
{
1000
PXDIR
1011
0.0
1021
0.0
1031
0.0
1002
}
1002
{
1000
PORI
1011
0.0000000000000799
1021
297.0
1031
0.0
1002
}
1002
{
1000
PINS
1011
0.0000000000000799
1021
297.0
1031
0.0
1002
}
1002
{
1000
HVAL
1000
297
1002
}
1002
{
1000
H
1070
     2
1002
}
1002
{
1000
WVAL
1000
210
1002
}
1002
{
1000
W
1070
     2
1002
}
1002
{
1000
C
1070
     1
1002
}
1001
GENIUS_GENODEF_13
1002
{
1000
HIER
1070
     0
1002
}
1002
{
1000
MANEDIT
1070
     0
1002
}
1002
{
1000
NOSEL
1070
     0
1002
}
1002
{
1000
BEHIND
1070
     0
1002
}
1002
{
1000
REACTOR
1002
}
1001
GENIUS_GENOBJ-N-REC_13
1002
{
1000
OWNER
1000
GEN
1002
}
  0
TEXT
  5
BCA
330
BBF
100
AcDbEntity
  8
AM_0
 60
     1
100
AcDbText
 10
408.7322739737486
 20
285.680442839147
 30
0.0
 40
5.0
  1
!GENTITLE-RU
100
AcDbText
  0
TEXT
  5
BCB
330
BBF
100
AcDbEntity
  8
AM_0
 60
     1
100
AcDbText
 10
16.00523592247285
 20
16.0074545709034
 30
0.0
 40
5.0
  1
!GENTITLE-LL
100
AcDbText
  0
TEXT
  5
BCC
330
BBF
100
AcDbEntity
  8
AM_0
 60
     1
100
AcDbText
 10
408.7322739737486
 20
11.31955716085296
 30
0.0
 40
5.0
  1
!GENTITLE-INSERT
100
AcDbText
  0
ENDBLK
  5
BCF
330
BBF
100
AcDbEntity
  8
0
100
AcDbBlockEnd
  0
BLOCK
  5
BEE
330
BED
100
AcDbEntity
  8
0
100
AcDbBlockBegin
  2
A$C2D292097
 70
     0
 10
0.0
 20
0.0
 30
0.0
  3
A$C2D292097
  1

  0
TEXT
  5
BEF
330
BED
100
AcDbEntity
  8
0
100
AcDbText
 10
197.1044423511698
 20
31.0035981017752
 30
0.0
 40
10.0
  1
ASOH   CO.LTD
 41
5.0
  7
ｽﾀｲﾙ1
100
AcDbText
  0
TEXT
  5
BF0
330
BED
100
AcDbEntity
  8
0
100
AcDbText
 10
127.3589261501835
 20
61.98001452360745
 30
0.0
 40
66.93693195207612
  1
アソー株式会社
  7
ｽﾀｲﾙ1
100
AcDbText
  0
HATCH
  5
BF1
330
BED
100
AcDbEntity
  8
AM_8
100
AcDbHatch
 10
0.0
 20
0.0
 30
0.0
210
0.0
220
0.0
230
1.0
  2
SOLID
 70
     1
 71
     0
 91
        1
 92
        1
 93
       10
 72
     1
 10
26.27998696211468
 20
119.622038302041
 11
19.72254667781421
 21
94.20654351522143
 72
     1
 10
19.72254667781422
 20
94.20654351522143
 11
20.10217910550261
 21
94.65251979790156
 72
     3
 10
29.97494128357687
 20
79.68778553387966
 11
0.2402016329913203
 21
19.99855752736961
 40
0.7499999999999996
 50
-34.10238568201522
 51
52.41091053102508
 73
     0
 72
     1
 10
43.0844862433824
 20
89.53104876041368
 11
63.55518980891033
 21
40.6543652059048
 72
     3
 10
76.66473476871587
 20
50.49762843243886
 11
0.2402016329913132
 21
19.99855752736961
 40
0.7499999999999999
 50
127.589089468975
 51
243.9002512902304
 73
     1
 72
     1
 10
90.66060611817196
 20
43.43151697692579
 11
98.94218718925374
 21
72.13430932636422
 72
     1
 10
98.94218718925376
 20
72.13430932636422
 11
97.4258024259505
 21
70.16225780455534
 72
     3
 10
86.98981389832653
 20
84.43075959876276
 11
-0.2402016329912594
 21
-19.99855752736953
 40
0.7499999999999996
 50
-36.86989764584386
 51
52.41091053102518
 73
     0
 72
     1
 10
73.88026893852099
 20
74.58749637222874
 11
53.57102076277776
 21
123.0786824781806
 72
     3
 10
40.46147580297221
 20
113.2354192516466
 11
-0.2402016329912798
 21
-19.9985575273696
 40
0.7500000000000002
 50
127.5890894689749
 51
246.4437724078177
 73
     1
 97
        0
 75
     0
 76
     1
 98
        1
 10
-11.02788873631791
 20
-99.90118815091953
1001
GENIUS_GENODEF_13
1002
{
1000
HIER
1070
     0
1002
}
1002
{
1000
MANEDIT
1070
     0
1002
}
1002
{
1000
NOSEL
1070
     0
1002
}
1002
{
1000
BEHIND
1070
     0
1002
}
1002
{
1000
REACTOR
1002
}
1001
GENIUS_GENOBJ-N-HTC_13
1002
{
1000
OWNER
1000
GEN
1002
}
1001
GENIUS_GENHATCH_13
1002
{
1000
DATA
1040
0.0
1042
0.9999999999999998
1000
SOLID
1070
     0
1011
65.16661907668134
1021
74.10910423558471
1031
0.0
1002
}
1002
{
1000
UCS
1010
0.0
1020
0.0
1030
0.0
1010
1.0
1020
0.0
1030
0.0
1010
0.0
1020
1.0
1030
0.0
1002
}
  0
HATCH
  5
BF2
330
BED
100
AcDbEntity
  8
AM_8
100
AcDbHatch
 10
0.0
 20
0.0
 30
0.0
210
0.0
220
0.0
230
1.0
  2
SOLID
 70
     1
 71
     0
 91
        1
 92
        1
 93
        2
 72
     2
 10
27.87973327687144
 20
49.81037059826576
 40
18.33631541869489
 50
10.7710123686058
 51
355.3294096482469
 73
     1
 72
     2
 10
27.87973327687144
 20
49.81037059826576
 40
18.33631541869488
 50
355.3294096482469
 51
370.7710123686058
 73
     1
 97
        0
 75
     0
 76
     1
 98
        1
 10
-11.02788873631791
 20
-99.90118815091953
1001
GENIUS_GENODEF_13
1002
{
1000
HIER
1070
     0
1002
}
1002
{
1000
MANEDIT
1070
     0
1002
}
1002
{
1000
NOSEL
1070
     0
1002
}
1002
{
1000
BEHIND
1070
     0
1002
}
1002
{
1000
REACTOR
1002
}
1001
GENIUS_GENOBJ-N-HTC_13
1002
{
1000
OWNER
1000
GEN
1002
}
1001
GENIUS_GENHATCH_13
1002
{
1000
DATA
1040
0.0
1042
0.9999999999999998
1000
SOLID
1070
     0
1011
30.27624113759819
1021
49.61458016509695
1031
0.0
1002
}
1002
{
1000
UCS
1010
0.0
1020
0.0
1030
0.0
1010
1.0
1020
0.0
1030
0.0
1010
0.0
1020
1.0
1030
0.0
1002
}
  0
CIRCLE
  5
BF3
330
BED
100
AcDbEntity
  8
0
100
AcDbCircle
 10
27.87973327687145
 20
49.81037059826573
 30
0.0
 40
18.33631541869488
  0
LINE
  5
BF4
330
BED
100
AcDbEntity
  8
0
100
AcDbLine
 10
98.94218718925376
 20
72.13430932636422
 30
0.0
 11
90.66060611817196
 21
43.43151697692576
 31
0.0
  0
LINE
  5
BF5
330
BED
100
AcDbEntity
  8
0
100
AcDbLine
 10
43.0844862433824
 20
89.5310487604137
 30
0.0
 11
63.55518980891034
 21
40.6543652059048
 31
0.0
  0
ELLIPSE
  5
BF6
330
BED
100
AcDbEntity
  8
0
100
AcDbEllipse
 10
76.66473476871587
 20
50.49762843243886
 30
0.0
 11
0.2402016329913116
 21
19.99855752736953
 31
0.0
210
0.0
220
0.0
230
0.9999999999999998
 40
0.7499999999999999
 41
2.094395102393195
 42
4.360282821964076
1001
GENIUS_GENODEF_13
1002
{
1000
HIER
1070
     0
1002
}
1002
{
1000
MANEDIT
1070
     0
1002
}
1002
{
1000
NOSEL
1070
     0
1002
}
1002
{
1000
BEHIND
1070
     0
1002
}
1002
{
1000
REACTOR
1002
}
1001
GENIUS_GENOBJ-N-FIL_13
1002
{
1000
OWNER
1000
GEN
1002
}
  0
ELLIPSE
  5
BF7
330
BED
100
AcDbEntity
  8
0
100
AcDbEllipse
 10
86.98981389832653
 20
84.43075959876276
 30
0.0
 11
0.2402016329912594
 21
19.99855752736953
 31
0.0
210
0.0
220
0.0
230
1.0
 40
0.7499999999999996
 41
2.094395102393192
 42
3.926990816987234
1001
GENIUS_GENODEF_13
1002
{
1000
HIER
1070
     0
1002
}
1002
{
1000
MANEDIT
1070
     0
1002
}
1002
{
1000
NOSEL
1070
     0
1002
}
1002
{
1000
BEHIND
1070
     0
1002
}
1002
{
1000
REACTOR
1002
}
1001
GENIUS_GENOBJ-N-FIL_13
1002
{
1000
OWNER
1000
GEN
1002
}
  0
ELLIPSE
  5
BF8
330
BED
100
AcDbEntity
  8
0
100
AcDbEllipse
 10
29.97494128357687
 20
79.68778553387966
 30
0.0
 11
0.2402016329913188
 21
19.99855752736953
 31
0.0
210
0.0
220
0.0
230
0.9999999999999998
 40
0.7499999999999996
 41
-1.047197551196598
 42
0.7343684516294112
1001
GENIUS_GENODEF_13
1002
{
1000
HIER
1070
     0
1002
}
1002
{
1000
MANEDIT
1070
     0
1002
}
1002
{
1000
NOSEL
1070
     0
1002
}
1002
{
1000
BEHIND
1070
     0
1002
}
1002
{
1000
REACTOR
1002
}
1001
GENIUS_GENOBJ-N-FIL_13
1002
{
1000
OWNER
1000
GEN
1002
}
  0
ELLIPSE
  5
BF9
330
BED
100
AcDbEntity
  8
0
100
AcDbEllipse
 10
40.46147580297221
 20
113.2354192516466
 30
0.0
 11
0.2402016329912781
 21
19.99855752736952
 31
0.0
210
0.0
220
0.0
230
0.9999999999999998
 40
0.75
 41
-1.047197551196599
 42
1.254770269777095
1001
GENIUS_GENODEF_13
1002
{
1000
HIER
1070
     0
1002
}
1002
{
1000
MANEDIT
1070
     0
1002
}
1002
{
1000
NOSEL
1070
     0
1002
}
1002
{
1000
BEHIND
1070
     0
1002
}
1002
{
1000
REACTOR
1002
}
1001
GENIUS_GENOBJ-N-FIL_13
1002
{
1000
OWNER
1000
GEN
1002
}
  0
LINE
  5
BFA
330
BED
100
AcDbEntity
  8
0
100
AcDbLine
 10
73.88026893852099
 20
74.58749637222874
 30
0.0
 11
53.57102076277774
 21
123.0786824781806
 31
0.0
  0
LINE
  5
BFB
330
BED
100
AcDbEntity
  8
0
100
AcDbLine
 10
26.27998696211472
 20
119.6220383020412
 30
0.0
 11
19.72254667781422
 21
94.20654351522143
 31
0.0
  0
LINE
  5
BFC
330
BED
100
AcDbEntity
  8
0
100
AcDbLine
 10
19.72254667781422
 20
94.20654351522143
 30
0.0
 11
20.1021791055026
 21
94.65251979790158
 31
0.0
  0
LINE
  5
BFD
330
BED
100
AcDbEntity
  8
0
100
AcDbLine
 10
98.94218718925372
 20
72.13430932636422
 30
0.0
 11
97.42580242595048
 21
70.16225780455531
 31
0.0
  0
ENDBLK
  5
BFE
330
BED
100
AcDbEntity
  8
0
100
AcDbBlockEnd
  0
BLOCK
  5
C34
330
C02
100
AcDbEntity
  8
0
100
AcDbBlockBegin
  2
ASO-A
 70
     2
 10
0.0
 20
0.0
 30
0.0
  3
ASO-A
  1

  0
LINE
  5
C03
330
C02
100
AcDbEntity
  8
AM_BOR
 62
   211
100
AcDbLine
 10
-110.0
 20
0.0
 30
0.0
 11
0.0
 21
0.0
 31
0.0
1001
GENIUS_GENREC_14
1002
{
1000
PYDIR
1011
-110.0
1021
40.0
1031
0.0
1002
}
1002
{
1000
PXDIR
1011
0.0
1021
0.0
1031
0.0
1002
}
1002
{
1000
PORI
1011
-110.0
1021
0.0
1031
0.0
1002
}
1002
{
1000
PINS
1011
-110.0
1021
0.0
1031
0.0
1002
}
1002
{
1000
HVAL
1000
40
1002
}
1002
{
1000
H
1070
     2
1002
}
1002
{
1000
WVAL
1000
110
1002
}
1002
{
1000
W
1070
     2
1002
}
1002
{
1000
C
1070
     1
1002
}
1001
GENIUS_GENODEF_13
1002
{
1000
HIER
1070
     0
1002
}
1002
{
1000
MANEDIT
1070
     0
1002
}
1002
{
1000
NOSEL
1070
     0
1002
}
1002
{
1000
BEHIND
1070
     0
1002
}
1002
{
1000
REACTOR
1002
}
1001
GENIUS_GENOBJ-N-REC_13
1002
{
1000
OWNER
1000
GEN
1002
}
  0
LINE
  5
C04
330
C02
100
AcDbEntity
  8
AM_BOR
 62
   211
100
AcDbLine
 10
0.0
 20
0.0
 30
0.0
 11
0.0
 21
40.0
 31
0.0
1001
GENIUS_GENREC_14
1002
{
1000
PYDIR
1011
-110.0
1021
40.0
1031
0.0
1002
}
1002
{
1000
PXDIR
1011
0.0
1021
0.0
1031
0.0
1002
}
1002
{
1000
PORI
1011
-110.0
1021
0.0
1031
0.0
1002
}
1002
{
1000
PINS
1011
-110.0
1021
0.0
1031
0.0
1002
}
1002
{
1000
HVAL
1000
40
1002
}
1002
{
1000
H
1070
     2
1002
}
1002
{
1000
WVAL
1000
110
1002
}
1002
{
1000
W
1070
     2
1002
}
1002
{
1000
C
1070
     1
1002
}
1001
GENIUS_GENODEF_13
1002
{
1000
HIER
1070
     0
1002
}
1002
{
1000
MANEDIT
1070
     0
1002
}
1002
{
1000
NOSEL
1070
     0
1002
}
1002
{
1000
BEHIND
1070
     0
1002
}
1002
{
1000
REACTOR
1002
}
1001
GENIUS_GENOBJ-N-REC_13
1002
{
1000
OWNER
1000
GEN
1002
}
  0
LINE
  5
C05
330
C02
100
AcDbEntity
  8
AM_BOR
 62
   211
100
AcDbLine
 10
0.0
 20
40.0
 30
0.0
 11
-110.0
 21
40.00000000000001
 31
0.0
1001
GENIUS_GENREC_14
1002
{
1000
PYDIR
1011
-110.0
1021
40.0
1031
0.0
1002
}
1002
{
1000
PXDIR
1011
0.0
1021
0.0
1031
0.0
1002
}
1002
{
1000
PORI
1011
-110.0
1021
0.0
1031
0.0
1002
}
1002
{
1000
PINS
1011
-110.0
1021
0.0
1031
0.0
1002
}
1002
{
1000
HVAL
1000
40
1002
}
1002
{
1000
H
1070
     2
1002
}
1002
{
1000
WVAL
1000
110
1002
}
1002
{
1000
W
1070
     2
1002
}
1002
{
1000
C
1070
     1
1002
}
1001
GENIUS_GENODEF_13
1002
{
1000
HIER
1070
     0
1002
}
1002
{
1000
MANEDIT
1070
     0
1002
}
1002
{
1000
NOSEL
1070
     0
1002
}
1002
{
1000
BEHIND
1070
     0
1002
}
1002
{
1000
REACTOR
1002
}
1001
GENIUS_GENOBJ-N-REC_13
1002
{
1000
OWNER
1000
GEN
1002
}
  0
LINE
  5
C06
330
C02
100
AcDbEntity
  8
AM_BOR
 62
   211
100
AcDbLine
 10
-110.0
 20
40.00000000000001
 30
0.0
 11
-110.0
 21
0.0
 31
0.0
1001
GENIUS_GENREC_14
1002
{
1000
PYDIR
1011
-110.0
1021
40.0
1031
0.0
1002
}
1002
{
1000
PXDIR
1011
0.0
1021
0.0
1031
0.0
1002
}
1002
{
1000
PORI
1011
-110.0
1021
0.0
1031
0.0
1002
}
1002
{
1000
PINS
1011
-110.0
1021
0.0
1031
0.0
1002
}
1002
{
1000
HVAL
1000
40
1002
}
1002
{
1000
H
1070
     2
1002
}
1002
{
1000
WVAL
1000
110
1002
}
1002
{
1000
W
1070
     2
1002
}
1002
{
1000
C
1070
     1
1002
}
1001
GENIUS_GENODEF_13
1002
{
1000
HIER
1070
     0
1002
}
1002
{
1000
MANEDIT
1070
     0
1002
}
1002
{
1000
NOSEL
1070
     0
1002
}
1002
{
1000
BEHIND
1070
     0
1002
}
1002
{
1000
REACTOR
1002
}
1001
GENIUS_GENOBJ-N-REC_13
1002
{
1000
OWNER
1000
GEN
1002
}
  0
LINE
  5
C07
330
C02
100
AcDbEntity
  8
AM_BOR
 62
     5
100
AcDbLine
 10
-60.0
 20
9.999999999999992
 30
0.0
 11
0.0
 21
10.0
 31
0.0
1001
GENIUS_GENREC_14
1002
{
1000
PYDIR
1011
-110.0
1021
40.0
1031
0.0
1002
}
1002
{
1000
PXDIR
1011
0.0
1021
0.0
1031
0.0
1002
}
1002
{
1000
PORI
1011
-110.0
1021
0.0
1031
0.0
1002
}
1002
{
1000
PINS
1011
-110.0
1021
0.0
1031
0.0
1002
}
1002
{
1000
HVAL
1000
40
1002
}
1002
{
1000
H
1070
     2
1002
}
1002
{
1000
WVAL
1000
110
1002
}
1002
{
1000
W
1070
     2
1002
}
1002
{
1000
C
1070
     1
1002
}
  0
LINE
  5
C08
330
C02
100
AcDbEntity
  8
AM_BOR
 62
     5
100
AcDbLine
 10
-110.0
 20
19.0
 30
0.0
 11
0.0
 21
19.0
 31
0.0
1001
GENIUS_GENREC_14
1002
{
1000
PYDIR
1011
-110.0
1021
40.0
1031
0.0
1002
}
1002
{
1000
PXDIR
1011
0.0
1021
0.0
1031
0.0
1002
}
1002
{
1000
PORI
1011
-110.0
1021
0.0
1031
0.0
1002
}
1002
{
1000
PINS
1011
-110.0
1021
0.0
1031
0.0
1002
}
1002
{
1000
HVAL
1000
40
1002
}
1002
{
1000
H
1070
     2
1002
}
1002
{
1000
WVAL
1000
110
1002
}
1002
{
1000
W
1070
     2
1002
}
1002
{
1000
C
1070
     1
1002
}
1001
GENIUS_GENODEF_13
1002
{
1000
HIER
1070
     0
1002
}
1002
{
1000
MANEDIT
1070
     0
1002
}
1002
{
1000
NOSEL
1070
     0
1002
}
1002
{
1000
BEHIND
1070
     0
1002
}
1002
{
1000
REACTOR
1002
}
1001
GENIUS_GENOBJ-N-REC_13
1002
{
1000
OWNER
1000
GEN
1002
}
  0
LINE
  5
C09
330
C02
100
AcDbEntity
  8
AM_BOR
 62
     5
100
AcDbLine
 10
-110.0
 20
26.0
 30
0.0
 11
0.0
 21
26.0
 31
0.0
1001
GENIUS_GENREC_14
1002
{
1000
PYDIR
1011
-110.0
1021
40.0
1031
0.0
1002
}
1002
{
1000
PXDIR
1011
0.0
1021
0.0
1031
0.0
1002
}
1002
{
1000
PORI
1011
-110.0
1021
0.0
1031
0.0
1002
}
1002
{
1000
PINS
1011
-110.0
1021
0.0
1031
0.0
1002
}
1002
{
1000
HVAL
1000
40
1002
}
1002
{
1000
H
1070
     2
1002
}
1002
{
1000
WVAL
1000
110
1002
}
1002
{
1000
W
1070
     2
1002
}
1002
{
1000
C
1070
     1
1002
}
1001
GENIUS_GENODEF_13
1002
{
1000
HIER
1070
     0
1002
}
1002
{
1000
MANEDIT
1070
     0
1002
}
1002
{
1000
NOSEL
1070
     0
1002
}
1002
{
1000
BEHIND
1070
     0
1002
}
1002
{
1000
REACTOR
1002
}
1001
GENIUS_GENOBJ-N-REC_13
1002
{
1000
OWNER
1000
GEN
1002
}
  0
LINE
  5
C0A
330
C02
100
AcDbEntity
  8
AM_BOR
 62
     5
100
AcDbLine
 10
-110.0
 20
33.0
 30
0.0
 11
0.0
 21
33.0
 31
0.0
1001
GENIUS_GENREC_14
1002
{
1000
PYDIR
1011
-110.0
1021
40.0
1031
0.0
1002
}
1002
{
1000
PXDIR
1011
0.0
1021
0.0
1031
0.0
1002
}
1002
{
1000
PORI
1011
-110.0
1021
0.0
1031
0.0
1002
}
1002
{
1000
PINS
1011
-110.0
1021
0.0
1031
0.0
1002
}
1002
{
1000
HVAL
1000
40
1002
}
1002
{
1000
H
1070
     2
1002
}
1002
{
1000
WVAL
1000
110
1002
}
1002
{
1000
W
1070
     2
1002
}
1002
{
1000
C
1070
     1
1002
}
1001
GENIUS_GENODEF_13
1002
{
1000
HIER
1070
     0
1002
}
1002
{
1000
MANEDIT
1070
     0
1002
}
1002
{
1000
NOSEL
1070
     0
1002
}
1002
{
1000
BEHIND
1070
     0
1002
}
1002
{
1000
REACTOR
1002
}
1001
GENIUS_GENOBJ-N-REC_13
1002
{
1000
OWNER
1000
GEN
1002
}
  0
LINE
  5
C0B
330
C02
100
AcDbEntity
  8
AM_BOR
 62
     5
100
AcDbLine
 10
-85.0
 20
33.0
 30
0.0
 11
-85.0
 21
18.99999999999998
 31
0.0
1001
GENIUS_GENREC_14
1002
{
1000
PYDIR
1011
-110.0
1021
40.0
1031
0.0
1002
}
1002
{
1000
PXDIR
1011
0.0
1021
0.0
1031
0.0
1002
}
1002
{
1000
PORI
1011
-110.0
1021
0.0
1031
0.0
1002
}
1002
{
1000
PINS
1011
-110.0
1021
0.0
1031
0.0
1002
}
1002
{
1000
HVAL
1000
40
1002
}
1002
{
1000
H
1070
     2
1002
}
1002
{
1000
WVAL
1000
110
1002
}
1002
{
1000
W
1070
     2
1002
}
1002
{
1000
C
1070
     1
1002
}
1001
GENIUS_GENODEF_13
1002
{
1000
HIER
1070
     0
1002
}
1002
{
1000
MANEDIT
1070
     0
1002
}
1002
{
1000
NOSEL
1070
     0
1002
}
1002
{
1000
BEHIND
1070
     0
1002
}
1002
{
1000
REACTOR
1002
}
1001
GENIUS_GENOBJ-N-REC_13
1002
{
1000
OWNER
1000
GEN
1002
}
  0
LINE
  5
C0C
330
C02
100
AcDbEntity
  8
AM_BOR
 62
     5
100
AcDbLine
 10
-60.0
 20
40.00000000000001
 30
0.0
 11
-60.0
 21
0.0
 31
0.0
1001
GENIUS_GENREC_14
1002
{
1000
PYDIR
1011
-110.0
1021
40.0
1031
0.0
1002
}
1002
{
1000
PXDIR
1011
0.0
1021
0.0
1031
0.0
1002
}
1002
{
1000
PORI
1011
-110.0
1021
0.0
1031
0.0
1002
}
1002
{
1000
PINS
1011
-110.0
1021
0.0
1031
0.0
1002
}
1002
{
1000
HVAL
1000
40
1002
}
1002
{
1000
H
1070
     2
1002
}
1002
{
1000
WVAL
1000
110
1002
}
1002
{
1000
W
1070
     2
1002
}
1002
{
1000
C
1070
     1
1002
}
1001
GENIUS_GENODEF_13
1002
{
1000
HIER
1070
     0
1002
}
1002
{
1000
MANEDIT
1070
     0
1002
}
1002
{
1000
NOSEL
1070
     0
1002
}
1002
{
1000
BEHIND
1070
     0
1002
}
1002
{
1000
REACTOR
1002
}
1001
GENIUS_GENOBJ-N-REC_13
1002
{
1000
OWNER
1000
GEN
1002
}
  0
LINE
  5
C0D
330
C02
100
AcDbEntity
  8
AM_BOR
 62
     5
100
AcDbLine
 10
-20.0
 20
33.0
 30
0.0
 11
-20.0
 21
40.0
 31
0.0
1001
GENIUS_GENREC_14
1002
{
1000
PYDIR
1011
-110.0
1021
40.0
1031
0.0
1002
}
1002
{
1000
PXDIR
1011
0.0
1021
0.0
1031
0.0
1002
}
1002
{
1000
PORI
1011
-110.0
1021
0.0
1031
0.0
1002
}
1002
{
1000
PINS
1011
-110.0
1021
0.0
1031
0.0
1002
}
1002
{
1000
HVAL
1000
40
1002
}
1002
{
1000
H
1070
     2
1002
}
1002
{
1000
WVAL
1000
110
1002
}
1002
{
1000
W
1070
     2
1002
}
1002
{
1000
C
1070
     1
1002
}
1001
GENIUS_GENODEF_13
1002
{
1000
HIER
1070
     0
1002
}
1002
{
1000
MANEDIT
1070
     0
1002
}
1002
{
1000
NOSEL
1070
     0
1002
}
1002
{
1000
BEHIND
1070
     0
1002
}
1002
{
1000
REACTOR
1002
}
1001
GENIUS_GENOBJ-N-REC_13
1002
{
1000
OWNER
1000
GEN
1002
}
  0
LINE
  5
C0E
330
C02
100
AcDbEntity
  8
AM_BOR
 62
     5
100
AcDbLine
 10
-40.0
 20
33.0
 30
0.0
 11
-40.0
 21
40.0
 31
0.0
1001
GENIUS_GENREC_14
1002
{
1000
PYDIR
1011
-110.0
1021
40.0
1031
0.0
1002
}
1002
{
1000
PXDIR
1011
0.0
1021
0.0
1031
0.0
1002
}
1002
{
1000
PORI
1011
-110.0
1021
0.0
1031
0.0
1002
}
1002
{
1000
PINS
1011
-110.0
1021
0.0
1031
0.0
1002
}
1002
{
1000
HVAL
1000
40
1002
}
1002
{
1000
H
1070
     2
1002
}
1002
{
1000
WVAL
1000
110
1002
}
1002
{
1000
W
1070
     2
1002
}
1002
{
1000
C
1070
     1
1002
}
1001
GENIUS_GENODEF_13
1002
{
1000
HIER
1070
     0
1002
}
1002
{
1000
MANEDIT
1070
     0
1002
}
1002
{
1000
NOSEL
1070
     0
1002
}
1002
{
1000
BEHIND
1070
     0
1002
}
1002
{
1000
REACTOR
1002
}
1001
GENIUS_GENOBJ-N-REC_13
1002
{
1000
OWNER
1000
GEN
1002
}
  0
LINE
  5
C0F
330
C02
100
AcDbEntity
  8
AM_BOR
 62
     5
100
AcDbLine
 10
-80.0
 20
33.0
 30
0.0
 11
-80.0
 21
40.0
 31
0.0
1001
GENIUS_GENREC_14
1002
{
1000
PYDIR
1011
-110.0
1021
40.0
1031
0.0
1002
}
1002
{
1000
PXDIR
1011
0.0
1021
0.0
1031
0.0
1002
}
1002
{
1000
PORI
1011
-110.0
1021
0.0
1031
0.0
1002
}
1002
{
1000
PINS
1011
-110.0
1021
0.0
1031
0.0
1002
}
1002
{
1000
HVAL
1000
40
1002
}
1002
{
1000
H
1070
     2
1002
}
1002
{
1000
WVAL
1000
110
1002
}
1002
{
1000
W
1070
     2
1002
}
1002
{
1000
C
1070
     1
1002
}
1001
GENIUS_GENODEF_13
1002
{
1000
HIER
1070
     0
1002
}
1002
{
1000
MANEDIT
1070
     0
1002
}
1002
{
1000
NOSEL
1070
     0
1002
}
1002
{
1000
BEHIND
1070
     0
1002
}
1002
{
1000
REACTOR
1002
}
1001
GENIUS_GENOBJ-N-REC_13
1002
{
1000
OWNER
1000
GEN
1002
}
  0
TEXT
  5
C10
330
C02
100
AcDbEntity
  8
AM_BOR
 62
     2
100
AcDbText
 10
-57.4
 20
35.0
 30
0.0
 40
3.0
  1
単位 ｍｍ
 72
     4
 11
-50.0
 21
36.5
 31
0.0
100
AcDbText
  0
TEXT
  5
C11
330
C02
100
AcDbEntity
  8
AM_BOR
 62
     2
100
AcDbText
 10
-39.0
 20
35.0
 30
0.0
 40
3.0
  1
尺度
 41
0.9
 11
-39.0
 21
36.5
 31
0.0
100
AcDbText
 73
     2
  0
TEXT
  5
C12
330
C02
100
AcDbEntity
  8
AM_BOR
 62
     2
100
AcDbText
 10
-19.0
 20
35.0
 30
0.0
 40
3.0
  1
日付
 41
0.9
 11
-19.0
 21
36.5
 31
0.0
100
AcDbText
 73
     2
  0
TEXT
  5
C13
330
C02
100
AcDbEntity
  8
AM_BOR
 62
     2
100
AcDbText
 10
-76.79999999999999
 20
34.99999999999999
 30
0.0
 40
3.0
  1
第３角法
 72
     4
 11
-70.0
 21
36.49999999999999
 31
0.0
100
AcDbText
  0
TEXT
  5
C14
330
C02
100
AcDbEntity
  8
AM_BOR
 62
     2
100
AcDbText
 10
-59.0
 20
29.5
 30
0.0
 40
3.0
  1
材 質
 11
-59.0
 21
31.0
 31
0.0
100
AcDbText
 73
     2
  0
TEXT
  5
C15
330
C02
100
AcDbEntity
  8
AM_BOR
 62
     2
100
AcDbText
 10
-59.0
 20
22.5
 30
0.0
 40
3.0
  1
備 考
 11
-59.0
 21
24.0
 31
0.0
100
AcDbText
 73
     2
  0
TEXT
  5
C16
330
C02
100
AcDbEntity
  8
AM_BOR
 62
     2
100
AcDbText
 10
-59.0
 20
15.5
 30
0.0
 40
3.0
  1
品 名
 11
-59.0
 21
17.0
 31
0.0
100
AcDbText
 73
     2
  0
TEXT
  5
C17
330
C02
100
AcDbEntity
  8
AM_BOR
 62
     2
100
AcDbText
 10
-59.0
 20
6.499999999999992
 30
0.0
 40
3.0
  1
図 番
 11
-59.0
 21
7.999999999999992
 31
0.0
100
AcDbText
 73
     2
  0
TEXT
  5
C18
330
C02
100
AcDbEntity
  8
AM_BOR
 62
     2
100
AcDbText
 10
-109.0
 20
29.5
 30
0.0
 40
3.0
  1
承認
 11
-109.0
 21
31.0
 31
0.0
100
AcDbText
 73
     2
  0
TEXT
  5
C19
330
C02
100
AcDbEntity
  8
AM_BOR
 62
     2
100
AcDbText
 10
-109.0
 20
22.5
 30
0.0
 40
3.0
  1
設計
 11
-109.0
 21
24.0
 31
0.0
100
AcDbText
 73
     2
  0
TEXT
  5
C1A
330
C02
100
AcDbEntity
  8
AM_BOR
 62
     2
100
AcDbText
 10
-84.0
 20
22.5
 30
0.0
 40
3.0
  1
製図
 11
-84.0
 21
24.0
 31
0.0
100
AcDbText
 73
     2
  0
TEXT
  5
C1B
330
C02
100
AcDbEntity
  8
AM_BOR
 62
     2
100
AcDbText
 10
-84.0
 20
29.5
 30
0.0
 40
3.0
  1
検図
 11
-84.0
 21
31.0
 31
0.0
100
AcDbText
 73
     2
  0
ATTDEF
  5
C1C
330
C02
100
AcDbEntity
  8
AM_BOR
100
AcDbText
 10
-50.25926794017573
 20
12.75
 30
0.0
 40
3.5
  1

 11
-50.25926794017573
 21
14.5
 31
0.0
100
AcDbAttributeDefinition
  3
品名
  2
HINMEI{14}
 70
     0
 74
     2
  0
ATTDEF
  5
C1D
330
C02
100
AcDbEntity
  8
AM_BOR
100
AcDbText
 10
-50.10873010396898
 20
3.249999999999992
 30
0.0
 40
3.5
  1

 11
-50.10873010396898
 21
4.999999999999992
 31
0.0
100
AcDbAttributeDefinition
  3
図番
  2
ZUBAN{14}
 70
     0
 74
     2
  0
ATTDEF
  5
C1E
330
C02
100
AcDbEntity
  8
AM_BOR
 62
     2
100
AcDbText
 10
-11.91705654530994
 20
35.0
 30
0.0
 40
3.0
  1

 41
0.8
 11
-11.91705654530994
 21
36.5
 31
0.0
100
AcDbAttributeDefinition
  3
日付
  2
GEN-TITLE-DAT{3.5}
 70
     0
 74
     2
  0
ATTDEF
  5
C1F
330
C02
100
AcDbEntity
  8
AM_BOR
 62
     2
100
AcDbText
 10
-71.63012018472975
 20
20.00000000000001
 30
0.0
 40
3.0
  1
水 田
 72
     4
 11
-67.63012018472974
 21
21.50000000000002
 31
0.0
100
AcDbAttributeDefinition
  3
製図
  2
SEIZU
 70
     0
  0
ATTDEF
  5
C20
330
C02
100
AcDbEntity
  8
AM_BOR
 62
     2
100
AcDbText
 10
-31.91705654530995
 20
35.0
 30
0.0
 40
3.0
  1

 11
-31.91705654530995
 21
36.5
 31
0.0
100
AcDbAttributeDefinition
  3
尺度
  2
GEN-TITLE-SCA
 70
     0
 74
     2
  0
LINE
  5
C21
330
C02
100
AcDbEntity
  8
0
100
AcDbLine
 10
-106.9502221859465
 20
14.71456568209314
 30
0.0
 11
-107.7139711131768
 21
11.16237652835879
 31
0.0
  0
LINE
  5
C22
330
C02
100
AcDbEntity
  8
0
100
AcDbLine
 10
-107.7139711131768
 20
11.16237652835879
 30
0.0
 11
-107.6697551010107
 21
11.22470827233807
 31
0.0
  0
ELLIPSE
  5
C23
330
C02
100
AcDbEntity
  8
0
100
AcDbEllipse
 10
-106.5198686826232
 20
9.133166589319488
 30
0.0
 11
0.0200858413762701
 21
2.795177724472429
 31
0.0
210
0.0
220
0.0
230
1.0
 40
0.6250197778053533
 41
-1.051714224928873
 42
0.7298517778971401
1001
GENIUS_GENODEF_13
1002
{
1000
HIER
1070
     0
1002
}
1002
{
1000
MANEDIT
1070
     0
1002
}
1002
{
1000
NOSEL
1070
     0
1002
}
1002
{
1000
BEHIND
1070
     0
1002
}
1002
{
1000
REACTOR
1002
}
1001
GENIUS_GENOBJ-N-FIL_13
1002
{
1000
OWNER
1000
GEN
1002
}
  0
ELLIPSE
  5
C24
330
C02
100
AcDbEntity
  8
0
100
AcDbEllipse
 10
-105.2984958385996
 20
13.8219417489321
 30
0.0
 11
0.0200858413762916
 21
2.795177724472415
 31
0.0
210
0.0
220
0.0
230
1.0
 40
0.6250197778053527
 41
-1.051714224928867
 42
1.250253596044828
1001
GENIUS_GENODEF_13
1002
{
1000
HIER
1070
     0
1002
}
1002
{
1000
MANEDIT
1070
     0
1002
}
1002
{
1000
NOSEL
1070
     0
1002
}
1002
{
1000
BEHIND
1070
     0
1002
}
1002
{
1000
REACTOR
1002
}
1001
GENIUS_GENOBJ-N-FIL_13
1002
{
1000
OWNER
1000
GEN
1002
}
  0
LINE
  5
C25
330
C02
100
AcDbEntity
  8
0
100
AcDbLine
 10
-98.48721298302093
 20
8.077457208786752
 30
0.0
 11
-99.45177360188811
 21
4.065819878065248
 31
0.0
  0
ELLIPSE
  5
C26
330
C02
100
AcDbEntity
  8
0
100
AcDbEllipse
 10
-101.0818809708247
 20
5.053412867376919
 30
0.0
 11
0.0200858413762853
 21
2.795177724472413
 31
0.0
210
0.0
220
0.0
230
1.0
 40
0.6250197778053547
 41
2.089878428660925
 42
4.355766148231805
1001
GENIUS_GENODEF_13
1002
{
1000
HIER
1070
     0
1002
}
1002
{
1000
MANEDIT
1070
     0
1002
}
1002
{
1000
NOSEL
1070
     0
1002
}
1002
{
1000
BEHIND
1070
     0
1002
}
1002
{
1000
REACTOR
1002
}
1001
GENIUS_GENOBJ-N-FIL_13
1002
{
1000
OWNER
1000
GEN
1002
}
  0
LINE
  5
C27
330
C02
100
AcDbEntity
  8
0
100
AcDbLine
 10
-98.48721298302093
 20
8.077457208786752
 30
0.0
 11
-98.66382720839389
 21
7.801834007856294
 31
0.0
  0
ELLIPSE
  5
C28
330
C02
100
AcDbEntity
  8
0
100
AcDbEllipse
 10
-99.87931293102301
 20
9.796066964505511
 30
0.0
 11
0.0200858413762724
 21
2.795177724472415
 31
0.0
210
0.0
220
0.0
230
0.9999999999999998
 40
0.6250197778053552
 41
2.08987842866092
 42
3.922474143254961
1001
GENIUS_GENODEF_13
1002
{
1000
HIER
1070
     0
1002
}
1002
{
1000
MANEDIT
1070
     0
1002
}
1002
{
1000
NOSEL
1070
     0
1002
}
1002
{
1000
BEHIND
1070
     0
1002
}
1002
{
1000
REACTOR
1002
}
1001
GENIUS_GENOBJ-N-FIL_13
1002
{
1000
OWNER
1000
GEN
1002
}
  0
HATCH
  5
C29
330
C02
100
AcDbEntity
  8
AM_8
100
AcDbHatch
 10
0.0
 20
0.0
 30
0.0
210
0.0
220
0.0
230
1.0
  2
SOLID
 70
     1
 71
     0
 91
        1
 92
        1
 93
        2
 72
     3
 10
-106.7638987916396
 20
4.957358478318376
 11
0.0000000000000547
 21
2.56276973145977
 40
0.8333333333333941
 50
-77.14069946214277
 51
264.4007371808275
 73
     1
 72
     3
 10
-106.7638987916396
 20
4.957358478318376
 11
-0.0000000000003928
 21
2.562769731461267
 40
0.8333333333328997
 50
264.4007371808174
 51
282.8593005378472
 73
     1
 97
        0
 75
     0
 76
     1
 98
        1
 10
65.20293740923941
 20
-32.16820874956388
1001
GENIUS_GENODEF_13
1002
{
1000
HIER
1070
     0
1002
}
1002
{
1000
MANEDIT
1070
     0
1002
}
1002
{
1000
NOSEL
1070
     0
1002
}
1002
{
1000
BEHIND
1070
     0
1002
}
1002
{
1000
REACTOR
1002
}
1001
GENIUS_GENOBJ-N-HTC_13
1002
{
1000
OWNER
1000
GEN
1002
}
1001
GENIUS_GENHATCH_13
1002
{
1000
DATA
1040
0.0
1042
0.0015799698758396
1000
SOLID
1070
     0
1011
70.0136537122014
1021
-14.7540192633455
1031
0.0
1002
}
1002
{
1000
UCS
1010
0.0
1020
0.0
1030
0.0
1010
1.0
1020
0.0
1030
0.0
1010
0.0
1020
1.0
1030
0.0
1002
}
  0
ELLIPSE
  5
C2A
330
C02
100
AcDbEntity
  8
0
100
AcDbEllipse
 10
-106.7638987916396
 20
4.957358478318417
 30
0.0
 11
0.0000000000000006
 21
2.562769731459943
 31
0.0
210
0.0
220
0.0
230
1.0
 40
0.8333333333333353
 41
-1.570796326794896
 42
4.712388980384689
  0
HATCH
  5
C2B
330
C02
100
AcDbEntity
  8
AM_8
100
AcDbHatch
 10
0.0
 20
0.0
 30
0.0
210
0.0
220
0.0
230
1.0
  2
SOLID
 70
     1
 71
     0
 91
        1
 92
        1
 93
       10
 72
     1
 10
-106.9502221859465
 20
14.71456568209311
 11
-107.7139711131768
 21
11.16237652835879
 72
     1
 10
-107.7139711131768
 20
11.16237652835879
 11
-107.6697551010108
 21
11.22470827233809
 72
     3
 10
-106.5198686826232
 20
9.133166589319488
 11
0.0200858413762859
 21
2.795177724472421
 40
0.6250197778053525
 50
-29.21280058452436
 51
47.56891328106518
 73
     0
 72
     1
 10
-104.9929922696577
 20
10.5089073790986
 11
-102.6087573837903
 21
3.677672077597827
 72
     3
 10
-101.0818809708247
 20
5.053412867376919
 11
0.0200858413762844
 21
2.79517772447242
 40
0.625019777805353
 50
132.4310867189347
 51
239.202331800838
 73
     1
 72
     1
 10
-99.45177360188809
 20
4.065819878065248
 11
-98.48721298302093
 21
8.077457208786761
 72
     1
 10
-98.48721298302095
 20
8.077457208786752
 11
-98.66382720839393
 21
7.801834007856288
 72
     3
 10
-99.87931293102301
 20
9.796066964505511
 11
0.0200858413762811
 21
2.795177724472416
 40
0.6250197778053536
 50
148.2259629226598
 51
227.5689132810653
 73
     0
 72
     1
 10
-101.4061893439886
 20
8.420326174726406
 11
-103.771619425634
 21
15.19768253871121
 72
     3
 10
-105.2984958385996
 20
13.8219417489321
 11
0.02008584137625
 21
2.795177724472417
 40
0.6250197778053583
 50
-47.56891328106589
 51
62.02409398278944
 73
     1
 97
        0
 75
     0
 76
     1
 98
        1
 10
65.20293740923941
 20
-32.16820874956388
1001
GENIUS_GENODEF_13
1002
{
1000
HIER
1070
     0
1002
}
1002
{
1000
MANEDIT
1070
     0
1002
}
1002
{
1000
NOSEL
1070
     0
1002
}
1002
{
1000
BEHIND
1070
     0
1002
}
1002
{
1000
REACTOR
1002
}
1001
GENIUS_GENOBJ-N-HTC_13
1002
{
1000
OWNER
1000
GEN
1002
}
1001
GENIUS_GENHATCH_13
1002
{
1000
DATA
1040
0.0
1042
0.0015799698758396
1000
SOLID
1070
     0
1011
74.07735655451816
1021
-11.90112763631223
1031
0.0
1002
}
1002
{
1000
UCS
1010
0.0
1020
0.0
1030
0.0
1010
1.0
1020
0.0
1030
0.0
1010
0.0
1020
1.0
1030
0.0
1002
}
  0
LINE
  5
C2C
330
C02
100
AcDbEntity
  8
0
100
AcDbLine
 10
-104.9929922696577
 20
10.5089073790986
 30
0.0
 11
-102.6087573837903
 21
3.677672077597847
 31
0.0
  0
LINE
  5
C2D
330
C02
100
AcDbEntity
  8
0
100
AcDbLine
 10
-101.4061893439886
 20
8.420326174726406
 30
0.0
 11
-103.771619425634
 21
15.1976825387112
 31
0.0
  0
TEXT
  5
C2E
330
C02
100
AcDbEntity
  8
0
100
AcDbText
 10
-92.04358977334541
 20
2.736280326823534
 30
0.0
 40
1.397647058823528
  1
ASOH   CO.LTD
 41
2.222222222222219
  7
ｽﾀｲﾙ1
100
AcDbText
  0
TEXT
  5
C2F
330
C02
100
AcDbEntity
  8
0
100
AcDbText
 10
-96.37601713265375
 20
7.065690057310197
 30
0.0
 40
9.355420606948992
  1
アソー株式会社
 41
0.4444444444444381
  7
ｽﾀｲﾙ1
100
AcDbText
  0
ATTDEF
  5
C30
330
C02
100
AcDbEntity
  8
AM_BOR
 62
     2
100
AcDbText
 10
-98.50320560717072
 20
20.29902073441097
 30
0.0
 40
3.0
  1
水 田
 72
     4
 11
-94.50320560717072
 21
21.79902073441097
 31
0.0
100
AcDbAttributeDefinition
  3
設計
  2
SEKKEI
 70
     0
  0
ATTDEF
  5
C31
330
C02
100
AcDbEntity
  8
AM_BOR
 62
     2
100
AcDbText
 10
-97.04186970375872
 20
27.05583171251668
 30
0.0
 40
3.0
  1
樫井
 72
     4
 11
-93.8418697037587
 21
28.55583171251668
 31
0.0
100
AcDbAttributeDefinition
  3
承認
  2
SYOUNIN
 70
     0
  0
ATTDEF
  5
C32
330
C02
100
AcDbEntity
  8
AM_BOR
 62
     2
100
AcDbText
 10
-72.04186970375871
 20
27.05583171251668
 30
0.0
 40
3.0
  1
樫井
 72
     4
 11
-68.8418697037587
 21
28.55583171251668
 31
0.0
100
AcDbAttributeDefinition
  3
検図
  2
KENZU
 70
     0
  0
ENDBLK
  5
C35
330
C02
100
AcDbEntity
  8
0
100
AcDbBlockEnd
  0
BLOCK
  5
11A5
330
1170
100
AcDbEntity
  8
0
100
AcDbBlockBegin
  2
A$C4A8F646D
 70
     0
 10
0.0
 20
0.0
 30
0.0
  3
A$C4A8F646D
  1

  0
LINE
  5
1171
330
1170
100
AcDbEntity
  8
0
 62
     0
100
AcDbLine
 10
6.458500000028351
 20
15.40125853865362
 30
0.0
 11
7.000000000030695
 21
15.40125853861701
 31
0.0
  0
LINE
  5
1172
330
1170
100
AcDbEntity
  8
0
 62
     0
100
AcDbLine
 10
-9.249999999115459
 20
24.06698729836199
 30
0.0
 11
-8.499999999187167
 21
24.50000000021285
 31
0.0
  0
LINE
  5
1173
330
1170
100
AcDbEntity
  8
0
 62
     0
100
AcDbLine
 10
-0.0000000000000284
 20
24.50000000021288
 30
0.0
 11
-8.499999999187167
 21
24.5000000002128
 31
0.0
  0
LINE
  5
1174
330
1170
100
AcDbEntity
  8
0
 62
     0
100
AcDbLine
 10
-9.250590403690779
 20
19.29903817949525
 30
0.0
 11
-8.500697664767727
 21
18.86583974924983
 31
0.0
  0
LINE
  5
1175
330
1170
100
AcDbEntity
  8
0
 62
     0
100
AcDbLine
 10
-7.999999999234972
 20
18.57735026996877
 30
0.0
 11
-9.249999999115459
 21
19.29903810638677
 31
0.0
  0
LINE
  5
1176
330
1170
100
AcDbEntity
  8
0
 62
     0
100
AcDbLine
 10
-7.999999999234972
 20
18.57735026996877
 30
0.0
 11
-7.999999999234972
 21
16.50000000097776
 31
0.0
  0
LINE
  5
1177
330
1170
100
AcDbEntity
  8
0
 62
     0
100
AcDbLine
 10
-7.999999999234972
 20
16.50000000097776
 30
0.0
 11
-0.0000000000000284
 21
16.50000000017746
 31
0.0
  0
LINE
  5
1178
330
1170
100
AcDbEntity
  8
0
 62
     0
100
AcDbLine
 10
-9.249999999115459
 20
24.06698729836199
 30
0.0
 11
-9.249999999115459
 21
19.29903810638677
 31
0.0
  0
ARC
  5
1179
330
1170
100
AcDbEntity
  8
0
 62
     0
100
AcDbCircle
 10
-6.499999999378388
 20
13.95788286669088
 30
0.0
 40
0.9999999999043879
100
AcDbArc
 50
0.0
 51
60.00000000000028
  0
LINE
  5
117A
330
1170
100
AcDbEntity
  8
0
 62
     0
100
AcDbLine
 10
8.500000000037147
 20
24.50000000021285
 30
0.0
 11
9.250000000040557
 21
24.06698729831862
 31
0.0
  0
LINE
  5
117B
330
1170
100
AcDbEntity
  8
0
 62
     0
100
AcDbLine
 10
8.000000000035072
 20
18.57735026937641
 30
0.0
 11
9.250000000040557
 21
19.2990381058666
 31
0.0
  0
LINE
  5
117C
330
1170
100
AcDbEntity
  8
0
 62
     0
100
AcDbLine
 10
6.00000000002629
 20
14.82390826942483
 30
0.0
 11
7.000000000030695
 21
15.40125853861701
 31
0.0
  0
LINE
  5
117D
330
1170
100
AcDbEntity
  8
0
 62
     0
100
AcDbLine
 10
8.000000000035072
 20
16.50000000017769
 30
0.0
 11
-0.0000000000000284
 21
16.50000000017746
 31
0.0
  0
LINE
  5
117E
330
1170
100
AcDbEntity
  8
0
 62
     0
100
AcDbLine
 10
8.000000000035072
 20
18.57735026937641
 30
0.0
 11
8.000000000035072
 21
16.50000000017769
 31
0.0
  0
LINE
  5
117F
330
1170
100
AcDbEntity
  8
0
 62
     0
100
AcDbLine
 10
9.250000000040557
 20
24.06698729831862
 30
0.0
 11
9.250000000040557
 21
19.2990381058666
 31
0.0
  0
ARC
  5
1180
330
1170
100
AcDbEntity
  8
0
 62
     0
100
AcDbCircle
 10
6.500000000028506
 20
13.95788286563657
 30
0.0
 40
1.000000000004388
100
AcDbArc
 50
119.9999999999997
 51
180.0
  0
LINE
  5
1181
330
1170
100
AcDbEntity
  8
0
 62
     0
100
AcDbLine
 10
8.50000000003726
 20
24.5000000002128
 30
0.0
 11
-0.0000000000000284
 21
24.50000000021288
 31
0.0
  0
LINE
  5
1182
330
1170
100
AcDbEntity
  8
AM_0
100
AcDbLine
 10
5.472431864336357
 20
24.06698729832749
 30
0.0
 11
5.472431864336527
 21
19.29903810585759
 31
0.0
  0
LINE
  5
1183
330
1170
100
AcDbEntity
  8
AM_0
100
AcDbLine
 10
3.777568135665404
 20
24.06698729832746
 30
0.0
 11
3.777568135665319
 21
19.29903810585378
 31
0.0
  0
LINE
  5
1184
330
1170
100
AcDbEntity
  8
AM_4
100
AcDbLine
 10
6.458500000028436
 20
16.50000000017763
 30
0.0
 11
6.458500000028465
 21
15.08862336784918
 31
0.0
  0
LINE
  5
1185
330
1170
100
AcDbEntity
  8
0
 62
     0
100
AcDbLine
 10
7.000000000030809
 20
16.50000000017766
 30
0.0
 11
7.000000000030837
 21
15.40125853861676
 31
0.0
  0
LINE
  5
1186
330
1170
100
AcDbEntity
  8
0
 62
     0
100
AcDbLine
 10
6.458500000028493
 20
15.40125853865336
 30
0.0
 11
7.000000000030837
 21
15.40125853861676
 31
0.0
  0
LINE
  5
1187
330
1170
100
AcDbEntity
  8
AM_0
100
AcDbLine
 10
6.458500000028493
 20
15.40125853865336
 30
0.0
 11
-0.0000000000000284
 21
15.40125853909023
 31
0.0
  0
LINE
  5
1188
330
1170
100
AcDbEntity
  8
AM_0
100
AcDbLine
 10
-5.472431864336357
 20
24.06698729727333
 30
0.0
 11
-5.472431864336556
 21
19.29903810690851
 31
0.0
  0
LINE
  5
1189
330
1170
100
AcDbEntity
  8
AM_0
100
AcDbLine
 10
-3.777568135665404
 20
24.06698729759976
 30
0.0
 11
-3.777568136583795
 21
19.29903810658544
 31
0.0
  0
ARC
  5
118A
330
1170
100
AcDbEntity
  8
AM_0
100
AcDbCircle
 10
-0.0000000000381988
 20
7.805892694520025
 30
0.0
 40
16.69410730569285
100
AcDbArc
 50
76.92175184739792
 51
103.0782481523331
  0
ARC
  5
118B
330
1170
100
AcDbEntity
  8
AM_0
100
AcDbCircle
 10
7.361215932179248
 20
20.16409341065733
 30
0.0
 40
4.335906589555475
100
AcDbArc
 50
64.17559387687287
 51
115.8244061228576
  0
LINE
  5
118C
330
1170
100
AcDbEntity
  8
AM_0
100
AcDbLine
 10
5.4724318643363
 20
24.06698729832749
 30
0.0
 11
3.777568135665347
 21
24.06698729832746
 31
0.0
  0
ARC
  5
118D
330
1170
100
AcDbEntity
  8
AM_0
100
AcDbCircle
 10
-7.36121593142073
 20
20.16409340923932
 30
0.0
 40
4.335906589555475
100
AcDbArc
 50
64.17559388818007
 51
115.8244061341663
  0
LINE
  5
118E
330
1170
100
AcDbEntity
  8
AM_0
100
AcDbLine
 10
-5.472431864329621
 20
24.06698729727333
 30
0.0
 11
-3.777568135658668
 21
24.06698729759978
 31
0.0
  0
ARC
  5
118F
330
1170
100
AcDbEntity
  8
AM_0
100
AcDbCircle
 10
-0.0000000000381988
 20
35.5601327096652
 30
0.0
 40
16.69410730569285
100
AcDbArc
 50
256.9217518476669
 51
283.0782481526021
  0
ARC
  5
1190
330
1170
100
AcDbEntity
  8
AM_0
100
AcDbCircle
 10
7.361215932179248
 20
23.2019319935279
 30
0.0
 40
4.335906589555475
100
AcDbArc
 50
244.1755938771409
 51
295.8244061231286
  0
LINE
  5
1191
330
1170
100
AcDbEntity
  8
AM_0
100
AcDbLine
 10
5.4724318643363
 20
19.29903810585773
 30
0.0
 11
3.777568135665347
 21
19.29903810585776
 31
0.0
  0
ARC
  5
1192
330
1170
100
AcDbEntity
  8
AM_0
100
AcDbCircle
 10
-7.36121593142073
 20
23.20193199494591
 30
0.0
 40
4.335906589555475
100
AcDbArc
 50
244.1755938658337
 51
295.8244061118199
  0
LINE
  5
1193
330
1170
100
AcDbEntity
  8
AM_0
100
AcDbLine
 10
-5.472431864329621
 20
19.29903810691189
 30
0.0
 11
-3.777568135658668
 21
19.29903810658544
 31
0.0
  0
LINE
  5
1194
330
1170
100
AcDbEntity
  8
AM_0
100
AcDbLine
 10
8.000000000035072
 20
18.57735026937641
 30
0.0
 11
-7.999999999234972
 21
18.57735026996877
 31
0.0
  0
LINE
  5
1195
330
1170
100
AcDbEntity
  8
0
 62
     0
100
AcDbLine
 10
-6.458499999657988
 20
15.40125853952747
 30
0.0
 11
-6.999999999660332
 21
15.40125853956414
 31
0.0
  0
LINE
  5
1196
330
1170
100
AcDbEntity
  8
AM_4
100
AcDbLine
 10
-6.458499999509427
 20
16.50000000105149
 30
0.0
 11
-6.458499999700421
 21
15.08862336872303
 31
0.0
  0
LINE
  5
1197
330
1170
100
AcDbEntity
  8
0
 62
     0
100
AcDbLine
 10
-6.9999999995118
 20
16.50000000112479
 30
0.0
 11
-6.999999999660474
 21
15.40125853956388
 31
0.0
  0
LINE
  5
1198
330
1170
100
AcDbEntity
  8
0
 62
     0
100
AcDbLine
 10
-6.45849999965813
 20
15.40125853952722
 30
0.0
 11
-6.999999999660474
 21
15.40125853956388
 31
0.0
  0
LINE
  5
1199
330
1170
100
AcDbEntity
  8
AM_0
100
AcDbLine
 10
-6.45849999965813
 20
15.40125853952722
 30
0.0
 11
0.0000000003703917
 21
15.40125853909023
 31
0.0
  0
LINE
  5
119A
330
1170
100
AcDbEntity
  8
0
 62
     0
100
AcDbLine
 10
-6.000000000534271
 20
14.82390827023678
 30
0.0
 11
-7.000000000460545
 21
15.40125853956428
 31
0.0
  0
LINE
  5
119B
330
1170
100
AcDbEntity
  8
AM_0
100
AcDbLine
 10
-5.499999999473999
 20
13.95788286666172
 30
0.0
 11
5.500000000024101
 21
13.95788286563657
 31
0.0
  0
LINE
  5
119C
330
1170
100
AcDbEntity
  8
0
100
AcDbLine
 10
0.0
 20
0.0
 30
0.0
 11
4.0
 21
-0.0000000000000284
 31
0.0
  0
LINE
  5
119D
330
1170
100
AcDbEntity
  8
0
100
AcDbLine
 10
0.0
 20
4.000000000000028
 30
0.0
 11
4.0
 21
-0.0000000000000284
 31
0.0
  0
LINE
  5
119E
330
1170
100
AcDbEntity
  8
0
100
AcDbLine
 10
-2.0
 20
0.0000000000000284
 30
0.0
 11
-2.0
 21
-2.999999999999971
 31
0.0
  0
LINE
  5
119F
330
1170
100
AcDbEntity
  8
0
 62
     0
100
AcDbLine
 10
0.0
 20
-3.0
 30
0.0
 11
0.0
 21
0.0
 31
0.0
  0
LINE
  5
11A0
330
1170
100
AcDbEntity
  8
0
100
AcDbLine
 10
-2.0
 20
-2.999999999999971
 30
0.0
 11
0.0
 21
-3.0
 31
0.0
  0
LINE
  5
11A1
330
1170
100
AcDbEntity
  8
0
 62
     0
100
AcDbLine
 10
0.0
 20
4.000000000000028
 30
0.0
 11
0.0
 21
2.0
 31
0.0
  0
ARC
  5
11A2
330
1170
100
AcDbEntity
  8
0
 62
     0
100
AcDbCircle
 10
0.0
 20
0.0
 30
0.0
 40
2.0
100
AcDbArc
 50
90.0
 51
180.0
  0
ENDBLK
  5
11A6
330
1170
100
AcDbEntity
  8
0
100
AcDbBlockEnd
  0
BLOCK
  5
11D9
330
11A9
100
AcDbEntity
  8
0
100
AcDbBlockBegin
  2
A$C360254A4
 70
     0
 10
0.0
 20
0.0
 30
0.0
  3
A$C360254A4
  1

  0
LINE
  5
11AA
330
11A9
100
AcDbEntity
  8
AM_0
100
AcDbLine
 10
2.999999999450011
 20
21.09874146112264
 30
0.0
 11
2.999999999450011
 21
21.09874146112264
 31
0.0
  0
LINE
  5
11AB
330
11A9
100
AcDbEntity
  8
AM_0
100
AcDbLine
 10
-7.000000001380897
 20
12.00000000047407
 30
0.0
 11
6.999999999929997
 21
12.0
 31
0.0
  0
LINE
  5
11AC
330
11A9
100
AcDbEntity
  8
0
 62
     0
100
AcDbLine
 10
6.458499999107999
 20
11.99999999956338
 30
0.0
 11
6.999999999110343
 21
11.99999999952678
 31
0.0
  0
LINE
  5
11AD
330
11A9
100
AcDbEntity
  8
0
 62
     0
100
AcDbLine
 10
-9.250000000035811
 20
20.66572875927176
 30
0.0
 11
-8.500000000107519
 21
21.09874146112259
 31
0.0
  0
LINE
  5
11AE
330
11A9
100
AcDbEntity
  8
0
 62
     0
100
AcDbLine
 10
-0.0000000009203802
 20
21.09874146112264
 30
0.0
 11
-8.500000000107519
 21
21.09874146112259
 31
0.0
  0
LINE
  5
11AF
330
11A9
100
AcDbEntity
  8
0
 62
     0
100
AcDbLine
 10
-9.250590404611131
 20
15.89777964040502
 30
0.0
 11
-8.500697665688079
 21
15.46458121015962
 31
0.0
  0
LINE
  5
11B0
330
11A9
100
AcDbEntity
  8
0
 62
     0
100
AcDbLine
 10
-8.000000000155324
 20
15.17609173087851
 30
0.0
 11
-9.250000000035811
 21
15.89777956729654
 31
0.0
  0
LINE
  5
11B1
330
11A9
100
AcDbEntity
  8
0
 62
     0
100
AcDbLine
 10
-8.000000000155324
 20
15.17609173087851
 30
0.0
 11
-8.000000000155324
 21
13.09874146188753
 31
0.0
  0
LINE
  5
11B2
330
11A9
100
AcDbEntity
  8
0
 62
     0
100
AcDbLine
 10
-8.000000000155324
 20
13.09874146188753
 30
0.0
 11
-0.0000000009203802
 21
13.09874146108723
 31
0.0
  0
LINE
  5
11B3
330
11A9
100
AcDbEntity
  8
0
 62
     0
100
AcDbLine
 10
-9.250000000035811
 20
20.66572875927176
 30
0.0
 11
-9.250000000035811
 21
15.89777956729654
 31
0.0
  0
ARC
  5
11B4
330
11A9
100
AcDbEntity
  8
0
 62
     0
100
AcDbCircle
 10
-6.50000000029874
 20
10.55662432760061
 30
0.0
 40
0.9999999999043879
100
AcDbArc
 50
0.0
 51
59.99999999999946
  0
LINE
  5
11B5
330
11A9
100
AcDbEntity
  8
0
 62
     0
100
AcDbLine
 10
8.499999999116795
 20
21.09874146112259
 30
0.0
 11
9.249999999120205
 21
20.66572875922839
 31
0.0
  0
LINE
  5
11B6
330
11A9
100
AcDbEntity
  8
0
 62
     0
100
AcDbLine
 10
7.99999999911472
 20
15.1760917302862
 30
0.0
 11
9.249999999120205
 21
15.89777956677636
 31
0.0
  0
LINE
  5
11B7
330
11A9
100
AcDbEntity
  8
0
 62
     0
100
AcDbLine
 10
5.999999999105938
 20
11.42264973033457
 30
0.0
 11
6.999999999110343
 21
11.99999999952678
 31
0.0
  0
LINE
  5
11B8
330
11A9
100
AcDbEntity
  8
0
 62
     0
100
AcDbLine
 10
7.99999999911472
 20
13.09874146108745
 30
0.0
 11
-0.0000000009203802
 21
13.09874146108723
 31
0.0
  0
LINE
  5
11B9
330
11A9
100
AcDbEntity
  8
0
 62
     0
100
AcDbLine
 10
7.99999999911472
 20
15.1760917302862
 30
0.0
 11
7.99999999911472
 21
13.09874146108745
 31
0.0
  0
LINE
  5
11BA
330
11A9
100
AcDbEntity
  8
0
 62
     0
100
AcDbLine
 10
9.249999999120205
 20
20.66572875922839
 30
0.0
 11
9.249999999120205
 21
15.89777956677636
 31
0.0
  0
ARC
  5
11BB
330
11A9
100
AcDbEntity
  8
0
 62
     0
100
AcDbCircle
 10
6.499999999108155
 20
10.55662432654634
 30
0.0
 40
1.000000000004388
100
AcDbArc
 50
120.0000000000005
 51
180.0
  0
LINE
  5
11BC
330
11A9
100
AcDbEntity
  8
0
 62
     0
100
AcDbLine
 10
8.499999999116909
 20
21.09874146112259
 30
0.0
 11
-0.0000000009203802
 21
21.09874146112264
 31
0.0
  0
LINE
  5
11BD
330
11A9
100
AcDbEntity
  8
AM_0
100
AcDbLine
 10
5.472431863416005
 20
20.66572875923725
 30
0.0
 11
5.472431863416176
 21
15.89777956676732
 31
0.0
  0
LINE
  5
11BE
330
11A9
100
AcDbEntity
  8
AM_0
100
AcDbLine
 10
3.777568134745052
 20
20.66572875923725
 30
0.0
 11
3.777568134744967
 21
15.89777956676357
 31
0.0
  0
LINE
  5
11BF
330
11A9
100
AcDbEntity
  8
AM_4
100
AcDbLine
 10
6.458499999108084
 20
13.0987414610874
 30
0.0
 11
6.458499999108113
 21
11.68736482875897
 31
0.0
  0
LINE
  5
11C0
330
11A9
100
AcDbEntity
  8
0
 62
     0
100
AcDbLine
 10
6.999999999110457
 20
13.09874146108745
 30
0.0
 11
6.999999999110485
 21
11.99999999952649
 31
0.0
  0
LINE
  5
11C1
330
11A9
100
AcDbEntity
  8
0
 62
     0
100
AcDbLine
 10
6.458499999108141
 20
11.9999999995631
 30
0.0
 11
6.999999999110485
 21
11.99999999952649
 31
0.0
  0
LINE
  5
11C2
330
11A9
100
AcDbEntity
  8
AM_0
100
AcDbLine
 10
6.458499999108141
 20
11.9999999995631
 30
0.0
 11
-0.0000000009203802
 21
12.0
 31
0.0
  0
LINE
  5
11C3
330
11A9
100
AcDbEntity
  8
AM_0
100
AcDbLine
 10
-5.472431865256709
 20
20.66572875818309
 30
0.0
 11
-5.472431865256908
 21
15.89777956781825
 31
0.0
  0
LINE
  5
11C4
330
11A9
100
AcDbEntity
  8
AM_0
100
AcDbLine
 10
-3.777568136585756
 20
20.66572875850955
 30
0.0
 11
-3.777568137504147
 21
15.8977795674952
 31
0.0
  0
ARC
  5
11C5
330
11A9
100
AcDbEntity
  8
AM_0
100
AcDbCircle
 10
-0.0000000009585506
 20
4.404634155429789
 30
0.0
 40
16.69410730569285
100
AcDbArc
 50
76.92175184739792
 51
103.0782481523327
  0
ARC
  5
11C6
330
11A9
100
AcDbEntity
  8
AM_0
100
AcDbCircle
 10
7.361215931258897
 20
16.76283487156706
 30
0.0
 40
4.335906589555475
100
AcDbArc
 50
64.17559387687216
 51
115.8244061228569
  0
LINE
  5
11C7
330
11A9
100
AcDbEntity
  8
AM_0
100
AcDbLine
 10
5.472431863415948
 20
20.66572875923725
 30
0.0
 11
3.777568134744996
 21
20.66572875923725
 31
0.0
  0
ARC
  5
11C8
330
11A9
100
AcDbEntity
  8
AM_0
100
AcDbCircle
 10
-7.361215932341082
 20
16.76283487014905
 30
0.0
 40
4.335906589555475
100
AcDbArc
 50
64.17559388818007
 51
115.8244061341663
  0
LINE
  5
11C9
330
11A9
100
AcDbEntity
  8
AM_0
100
AcDbLine
 10
-5.472431865249973
 20
20.66572875818309
 30
0.0
 11
-3.77756813657902
 21
20.66572875850955
 31
0.0
  0
ARC
  5
11CA
330
11A9
100
AcDbEntity
  8
AM_0
100
AcDbCircle
 10
-0.0000000009585506
 20
32.15887417057496
 30
0.0
 40
16.69410730569285
100
AcDbArc
 50
256.9217518476673
 51
283.0782481526021
  0
ARC
  5
11CB
330
11A9
100
AcDbEntity
  8
AM_0
100
AcDbCircle
 10
7.361215931258897
 20
19.80067345443763
 30
0.0
 40
4.335906589555475
100
AcDbArc
 50
244.1755938771402
 51
295.8244061231293
  0
LINE
  5
11CC
330
11A9
100
AcDbEntity
  8
AM_0
100
AcDbLine
 10
5.472431863415948
 20
15.8977795667675
 30
0.0
 11
3.777568134744996
 21
15.89777956676755
 31
0.0
  0
ARC
  5
11CD
330
11A9
100
AcDbEntity
  8
AM_0
100
AcDbCircle
 10
-7.361215932341082
 20
19.80067345585564
 30
0.0
 40
4.335906589555475
100
AcDbArc
 50
244.1755938658337
 51
295.8244061118199
  0
LINE
  5
11CE
330
11A9
100
AcDbEntity
  8
AM_0
100
AcDbLine
 10
-5.472431865249973
 20
15.89777956782166
 30
0.0
 11
-3.77756813657902
 21
15.8977795674952
 31
0.0
  0
LINE
  5
11CF
330
11A9
100
AcDbEntity
  8
AM_0
100
AcDbLine
 10
7.99999999911472
 20
15.1760917302862
 30
0.0
 11
-8.000000000155324
 21
15.17609173087851
 31
0.0
  0
LINE
  5
11D0
330
11A9
100
AcDbEntity
  8
0
 62
     0
100
AcDbLine
 10
-6.458500000578339
 20
12.00000000043724
 30
0.0
 11
-7.000000000580683
 21
12.0000000004739
 31
0.0
  0
LINE
  5
11D1
330
11A9
100
AcDbEntity
  8
AM_4
100
AcDbLine
 10
-6.458500000429779
 20
13.09874146196125
 30
0.0
 11
-6.458500000620773
 21
11.68736482963277
 31
0.0
  0
LINE
  5
11D2
330
11A9
100
AcDbEntity
  8
0
 62
     0
100
AcDbLine
 10
-7.000000000432152
 20
13.09874146203458
 30
0.0
 11
-7.000000000580826
 21
12.00000000047362
 31
0.0
  0
LINE
  5
11D3
330
11A9
100
AcDbEntity
  8
0
 62
     0
100
AcDbLine
 10
-6.458500000578482
 20
12.00000000043701
 30
0.0
 11
-7.000000000580826
 21
12.00000000047362
 31
0.0
  0
LINE
  5
11D4
330
11A9
100
AcDbEntity
  8
AM_0
100
AcDbLine
 10
-6.458500000578482
 20
12.00000000043701
 30
0.0
 11
-0.0000000005499601
 21
12.0
 31
0.0
  0
LINE
  5
11D5
330
11A9
100
AcDbEntity
  8
0
 62
     0
100
AcDbLine
 10
-6.000000001454623
 20
11.42264973114652
 30
0.0
 11
-7.000000001380897
 21
12.00000000047407
 31
0.0
  0
LINE
  5
11D6
330
11A9
100
AcDbEntity
  8
AM_0
100
AcDbLine
 10
-5.500000000394351
 20
10.55662432757151
 30
0.0
 11
5.499999999103749
 21
10.55662432654634
 31
0.0
  0
ENDBLK
  5
11DA
330
11A9
100
AcDbEntity
  8
0
100
AcDbBlockEnd
  0
BLOCK
  5
1276
330
1228
100
AcDbEntity
  8
0
100
AcDbBlockBegin
  2
A$C131B32AB
 70
     0
 10
0.0
 20
0.0
 30
0.0
  3
A$C131B32AB
  1

  0
LINE
  5
1229
330
1228
100
AcDbEntity
  8
0
 62
     0
100
AcDbLine
 10
56.00145174733771
 20
11.77499724838088
 30
0.0
 11
56.54295174734002
 21
11.77499724834428
 31
0.0
  0
LINE
  5
122A
330
1228
100
AcDbEntity
  8
0
 62
     0
100
AcDbLine
 10
49.54295174730933
 20
20.87373870994014
 30
0.0
 11
41.54295174807439
 21
20.87373870994008
 31
0.0
  0
LINE
  5
122B
330
1228
100
AcDbEntity
  8
0
 62
     0
100
AcDbLine
 10
41.54295174807439
 20
14.95108897969607
 30
0.0
 11
41.04295174730933
 21
15.23976411473262
 31
0.0
  0
LINE
  5
122C
330
1228
100
AcDbEntity
  8
0
 62
     0
100
AcDbLine
 10
41.54295174807439
 20
14.95108897969607
 30
0.0
 11
41.54295174807439
 21
12.87373871070502
 31
0.0
  0
LINE
  5
122D
330
1228
100
AcDbEntity
  8
0
 62
     0
100
AcDbLine
 10
41.54295174807439
 20
12.87373871070502
 30
0.0
 11
49.54295174730933
 21
12.87373870990478
 31
0.0
  0
ARC
  5
122E
330
1228
100
AcDbEntity
  8
0
 62
     0
100
AcDbCircle
 10
43.04295174793097
 20
10.33162157641817
 30
0.0
 40
0.9999999999043879
100
AcDbArc
 50
0.0
 51
59.99999999999946
  0
LINE
  5
122F
330
1228
100
AcDbEntity
  8
0
 62
     0
100
AcDbLine
 10
55.54295174733565
 20
11.19764697915212
 30
0.0
 11
56.54295174734002
 21
11.77499724834428
 31
0.0
  0
LINE
  5
1230
330
1228
100
AcDbEntity
  8
0
 62
     0
100
AcDbLine
 10
57.54295174734446
 20
12.87373870990501
 30
0.0
 11
49.54295174730933
 21
12.87373870990478
 31
0.0
  0
LINE
  5
1231
330
1228
100
AcDbEntity
  8
0
 62
     0
100
AcDbLine
 10
57.54295174734446
 20
14.9510889791037
 30
0.0
 11
57.54295174734446
 21
12.87373870990501
 31
0.0
  0
ARC
  5
1232
330
1228
100
AcDbEntity
  8
0
 62
     0
100
AcDbCircle
 10
56.04295174733787
 20
10.33162157536384
 30
0.0
 40
1.000000000004388
100
AcDbArc
 50
120.0000000000005
 51
180.0
  0
LINE
  5
1233
330
1228
100
AcDbEntity
  8
0
 62
     0
100
AcDbLine
 10
57.54295174654427
 20
20.87373870994008
 30
0.0
 11
49.54295174730933
 21
20.87373870994014
 31
0.0
  0
LINE
  5
1234
330
1228
100
AcDbEntity
  8
AM_0
100
AcDbLine
 10
46.54295174730939
 20
26.00504516109089
 30
0.0
 11
46.5429517473095
 21
20.87373870994014
 31
0.0
  0
LINE
  5
1235
330
1228
100
AcDbEntity
  8
AM_0
100
AcDbLine
 10
52.54295174730933
 20
26.00504516109089
 30
0.0
 11
52.54295174730938
 21
20.87373870994014
 31
0.0
  0
ARC
  5
1236
330
1228
100
AcDbEntity
  8
AM_0
100
AcDbCircle
 10
49.54295174730927
 20
35.3245302873467
 30
0.0
 40
3.182186574793173
100
AcDbArc
 50
21.77582284696156
 51
158.2241771530348
  0
LINE
  5
1237
330
1228
100
AcDbEntity
  8
AM_0
100
AcDbLine
 10
52.49806528652598
 20
36.50504516109123
 30
0.0
 11
52.49806528652604
 21
27.50504516109123
 31
0.0
  0
LINE
  5
1238
330
1228
100
AcDbEntity
  8
AM_0
100
AcDbLine
 10
46.58783820809256
 20
36.50504516109106
 30
0.0
 11
46.58783820809262
 21
27.50504516109123
 31
0.0
  0
ARC
  5
1239
330
1228
100
AcDbEntity
  8
AM_0
100
AcDbCircle
 10
39.04295174730928
 20
36.50504516109123
 30
0.0
 40
2.0
100
AcDbArc
 50
90.0
 51
180.0
1001
GENIUS_GENODEF_13
1002
{
1000
HIER
1070
     0
1002
}
1002
{
1000
MANEDIT
1070
     0
1002
}
1002
{
1000
NOSEL
1070
     0
1002
}
1002
{
1000
BEHIND
1070
     0
1002
}
1002
{
1000
REACTOR
1002
}
1001
GENIUS_GENOBJ-N-FIL_13
1002
{
1000
OWNER
1000
GEN
1002
}
  0
LINE
  5
123A
330
1228
100
AcDbEntity
  8
AM_0
100
AcDbLine
 10
39.04295174730928
 20
38.50504516109123
 30
0.0
 11
49.54295174730933
 21
38.50504516109123
 31
0.0
  0
LINE
  5
123B
330
1228
100
AcDbEntity
  8
AM_0
100
AcDbLine
 10
39.04295174730888
 20
26.50504516109089
 30
0.0
 11
49.54295174730933
 21
26.50504516109089
 31
0.0
  0
LINE
  5
123C
330
1228
100
AcDbEntity
  8
AM_0
100
AcDbLine
 10
37.04295174730939
 20
27.50504516109089
 30
0.0
 11
49.54295174730933
 21
27.50504516109123
 31
0.0
  0
LINE
  5
123D
330
1228
100
AcDbEntity
  8
AM_0
100
AcDbLine
 10
39.04295174730888
 20
27.50504516109089
 30
0.0
 11
39.04295174730888
 21
26.50504516109089
 31
0.0
  0
LINE
  5
123E
330
1228
100
AcDbEntity
  8
AM_0
100
AcDbLine
 10
37.04295174730928
 20
36.50504516109123
 30
0.0
 11
37.04295174730939
 21
27.50504516109123
 31
0.0
  0
LINE
  5
123F
330
1228
100
AcDbEntity
  8
AM_0
100
AcDbLine
 10
39.04295174730928
 20
40.50504516109123
 30
0.0
 11
60.04295174730933
 21
40.50504516109123
 31
0.0
  0
LINE
  5
1240
330
1228
100
AcDbEntity
  8
AM_0
100
AcDbLine
 10
39.04295174730928
 20
38.50504516109123
 30
0.0
 11
39.04295174730928
 21
40.50504516109123
 31
0.0
  0
LINE
  5
1241
330
1228
100
AcDbEntity
  8
AM_0
100
AcDbLine
 10
47.04295174730932
 20
26.50504516109089
 30
0.0
 11
46.54295174730933
 21
26.00504516109089
 31
0.0
1001
GENIUS_GENFIL_13
1070
     0
1040
0.5
1040
0.5
1040
0.5
1040
45.0000000000002
1000
~T
1001
GENIUS_GENOREF_13
1005
1273
  0
LINE
  5
1242
330
1228
100
AcDbEntity
  8
AM_0
100
AcDbLine
 10
46.54295174730933
 20
26.00504516109089
 30
0.0
 11
52.54295174730938
 21
26.00504516109089
 31
0.0
  0
ARC
  5
1243
330
1228
100
AcDbEntity
  8
AM_0
100
AcDbCircle
 10
60.04295174731002
 20
36.5050451610918
 30
0.0
 40
2.0
100
AcDbArc
 50
0.0000000000032569
 51
90.00000000000325
1001
GENIUS_GENODEF_13
1002
{
1000
HIER
1070
     0
1002
}
1002
{
1000
MANEDIT
1070
     0
1002
}
1002
{
1000
NOSEL
1070
     0
1002
}
1002
{
1000
BEHIND
1070
     0
1002
}
1002
{
1000
REACTOR
1002
}
1001
GENIUS_GENOBJ-N-FIL_13
1002
{
1000
OWNER
1000
GEN
1002
}
  0
LINE
  5
1244
330
1228
100
AcDbEntity
  8
AM_0
100
AcDbLine
 10
60.0429517473099
 20
38.5050451610918
 30
0.0
 11
49.54295174730984
 21
38.50504516109123
 31
0.0
  0
LINE
  5
1245
330
1228
100
AcDbEntity
  8
AM_0
100
AcDbLine
 10
60.04295174731097
 20
26.50504516109146
 30
0.0
 11
49.54295174731052
 21
26.50504516109089
 31
0.0
  0
LINE
  5
1246
330
1228
100
AcDbEntity
  8
AM_0
100
AcDbLine
 10
62.04295174731041
 20
27.50504516109157
 30
0.0
 11
49.54295174731047
 21
27.50504516109123
 31
0.0
  0
LINE
  5
1247
330
1228
100
AcDbEntity
  8
AM_0
100
AcDbLine
 10
60.04295174731092
 20
27.50504516109146
 30
0.0
 11
60.04295174731097
 21
26.50504516109146
 31
0.0
  0
LINE
  5
1248
330
1228
100
AcDbEntity
  8
AM_0
100
AcDbLine
 10
62.04295174731001
 20
36.50504516109192
 30
0.0
 11
62.04295174731041
 21
27.50504516109192
 31
0.0
  0
LINE
  5
1249
330
1228
100
AcDbEntity
  8
AM_0
100
AcDbLine
 10
60.0429517473099
 20
38.5050451610918
 30
0.0
 11
60.04295174730978
 21
40.5050451610918
 31
0.0
  0
LINE
  5
124A
330
1228
100
AcDbEntity
  8
AM_0
100
AcDbLine
 10
52.04295174731052
 20
26.50504516109106
 30
0.0
 11
52.54295174731052
 21
26.00504516109112
 31
0.0
1001
GENIUS_GENFIL_13
1070
     0
1040
0.5
1040
0.5
1040
0.5
1040
45.0000000000002
1000
~T
1001
GENIUS_GENOREF_13
1005
1272
  0
LINE
  5
124B
330
1228
100
AcDbEntity
  8
AM_0
100
AcDbLine
 10
52.54295174731052
 20
26.00504516109112
 30
0.0
 11
46.54295174731046
 21
26.00504516109066
 31
0.0
  0
LINE
  5
124C
330
1228
100
AcDbEntity
  8
AM_4
100
AcDbLine
 10
56.00145174733782
 20
12.8737387099049
 30
0.0
 11
56.00145174733782
 21
11.46236207757647
 31
0.0
  0
LINE
  5
124D
330
1228
100
AcDbEntity
  8
0
 62
     0
100
AcDbLine
 10
56.54295174734014
 20
12.87373870990495
 30
0.0
 11
56.5429517473402
 21
11.77499724834405
 31
0.0
  0
LINE
  5
124E
330
1228
100
AcDbEntity
  8
0
 62
     0
100
AcDbLine
 10
56.00145174733782
 20
11.77499724838066
 30
0.0
 11
56.5429517473402
 21
11.77499724834405
 31
0.0
  0
LINE
  5
124F
330
1228
100
AcDbEntity
  8
AM_0
100
AcDbLine
 10
56.00145174733782
 20
11.77499724838066
 30
0.0
 11
49.54295174730933
 21
11.77499724881755
 31
0.0
  0
LINE
  5
1250
330
1228
100
AcDbEntity
  8
AM_0
100
AcDbLine
 10
57.54295174734446
 20
14.9510889791037
 30
0.0
 11
41.54295174807439
 21
14.95108897969607
 31
0.0
  0
LINE
  5
1251
330
1228
100
AcDbEntity
  8
0
 62
     0
100
AcDbLine
 10
43.08445174765134
 20
11.77499724925479
 30
0.0
 11
42.54295174764902
 21
11.7749972492914
 31
0.0
  0
LINE
  5
1252
330
1228
100
AcDbEntity
  8
AM_4
100
AcDbLine
 10
43.08445174779993
 20
12.87373871077881
 30
0.0
 11
43.08445174760893
 21
11.46236207845032
 31
0.0
  0
LINE
  5
1253
330
1228
100
AcDbEntity
  8
0
 62
     0
100
AcDbLine
 10
42.54295174779755
 20
12.87373871085208
 30
0.0
 11
42.54295174764891
 21
11.77499724929117
 31
0.0
  0
LINE
  5
1254
330
1228
100
AcDbEntity
  8
0
 62
     0
100
AcDbLine
 10
43.08445174765123
 20
11.77499724925451
 30
0.0
 11
42.54295174764891
 21
11.77499724929117
 31
0.0
  0
LINE
  5
1255
330
1228
100
AcDbEntity
  8
AM_0
100
AcDbLine
 10
43.08445174765123
 20
11.77499724925451
 30
0.0
 11
49.54295174767972
 21
11.77499724881755
 31
0.0
  0
LINE
  5
1256
330
1228
100
AcDbEntity
  8
0
 62
     0
100
AcDbLine
 10
43.54295174677512
 20
11.19764697996407
 30
0.0
 11
42.54295174684878
 21
11.77499724929157
 31
0.0
  0
LINE
  5
1257
330
1228
100
AcDbEntity
  8
AM_0
100
AcDbLine
 10
44.04295174783536
 20
10.33162157638901
 30
0.0
 11
55.04295174733343
 21
10.33162157536384
 31
0.0
  0
LINE
  5
1258
330
1228
100
AcDbEntity
  8
AM_0
100
AcDbLine
 10
41.04295174730933
 20
20.44072600808926
 30
0.0
 11
41.54295174807439
 21
20.87373870994008
 31
0.0
  0
ARC
  5
1259
330
1228
100
AcDbEntity
  8
AM_0
100
AcDbCircle
 10
45.29295174727971
 20
8.299031642623788
 30
0.0
 40
12.57470706731631
100
AcDbArc
 50
74.92028252247211
 51
105.0797174772482
  0
LINE
  5
125A
330
1228
100
AcDbEntity
  8
AM_0
100
AcDbLine
 10
48.56442171732144
 20
20.4407260080709
 30
0.0
 11
50.52148177729717
 21
20.4407260080709
 31
0.0
  0
LINE
  5
125B
330
1228
100
AcDbEntity
  8
AM_0
100
AcDbLine
 10
48.56442171732138
 20
15.6727768154704
 30
0.0
 11
48.56442171732144
 21
20.4407260080709
 31
0.0
  0
LINE
  5
125C
330
1228
100
AcDbEntity
  8
AM_0
100
AcDbLine
 10
50.52148177751647
 20
15.6727768154704
 30
0.0
 11
50.52148177751647
 21
20.4407260080709
 31
0.0
  0
LINE
  5
125D
330
1228
100
AcDbEntity
  8
AM_0
100
AcDbLine
 10
42.02148177729722
 20
20.44072600808687
 30
0.0
 11
41.04295174730933
 21
20.44072600808687
 31
0.0
  0
LINE
  5
125E
330
1228
100
AcDbEntity
  8
AM_0
100
AcDbLine
 10
42.02148177729728
 20
20.44072600808687
 30
0.0
 11
42.02148177712078
 21
15.67277681545443
 31
0.0
  0
LINE
  5
125F
330
1228
100
AcDbEntity
  8
AM_0
100
AcDbLine
 10
41.04295174730933
 20
20.44072600808687
 30
0.0
 11
41.04295174730933
 21
15.23976411473262
 31
0.0
  0
ARC
  5
1260
330
1228
100
AcDbEntity
  8
AM_0
100
AcDbCircle
 10
45.29295174727971
 20
27.81447118091751
 30
0.0
 40
12.57470706731631
100
AcDbArc
 50
254.9202825227518
 51
285.079717477528
  0
LINE
  5
1261
330
1228
100
AcDbEntity
  8
AM_0
100
AcDbLine
 10
42.02148177729722
 20
15.67277681545443
 30
0.0
 11
41.04295174730933
 21
15.67277681545443
 31
0.0
  0
LINE
  5
1262
330
1228
100
AcDbEntity
  8
AM_0
100
AcDbLine
 10
48.56442171732138
 20
15.6727768154704
 30
0.0
 11
50.52148177751647
 21
15.6727768154704
 31
0.0
  0
ARC
  5
1263
330
1228
100
AcDbEntity
  8
AM_0
100
AcDbCircle
 10
53.79295174640796
 20
8.299031642309103
 30
0.0
 40
12.57470706731631
100
AcDbArc
 50
74.92028251850687
 51
105.079717473283
  0
LINE
  5
1264
330
1228
100
AcDbEntity
  8
AM_0
100
AcDbLine
 10
57.06442171728937
 20
20.44072600753003
 30
0.0
 11
58.04295174727727
 21
20.44072600745756
 31
0.0
  0
LINE
  5
1265
330
1228
100
AcDbEntity
  8
AM_0
100
AcDbLine
 10
57.06442171728932
 20
20.44072600753003
 30
0.0
 11
57.06442171711282
 21
15.67277681489753
 31
0.0
  0
ARC
  5
1266
330
1228
100
AcDbEntity
  8
AM_0
100
AcDbCircle
 10
53.79295174785281
 20
27.81447118060288
 30
0.0
 40
12.57470706731631
100
AcDbArc
 50
254.9202825182303
 51
285.0797174730065
  0
LINE
  5
1267
330
1228
100
AcDbEntity
  8
AM_0
100
AcDbLine
 10
57.06442171693637
 20
15.67277681489753
 30
0.0
 11
58.04295174692427
 21
15.67277681482511
 31
0.0
  0
LINE
  5
1268
330
1228
100
AcDbEntity
  8
0
 62
     0
100
AcDbLine
 10
57.54295174654427
 20
14.95108897969607
 30
0.0
 11
58.04295174730933
 21
15.23976411473262
 31
0.0
  0
LINE
  5
1269
330
1228
100
AcDbEntity
  8
AM_0
100
AcDbLine
 10
58.04295174730933
 20
20.44072600808926
 30
0.0
 11
57.54295174654427
 21
20.87373870994008
 31
0.0
  0
LINE
  5
126A
330
1228
100
AcDbEntity
  8
AM_0
100
AcDbLine
 10
58.04295174730933
 20
20.44072600808687
 30
0.0
 11
58.04295174730933
 21
15.23976411473262
 31
0.0
  0
LINE
  5
126B
330
1228
100
AcDbEntity
  8
AM_0
100
AcDbLine
 10
44.84592631129951
 20
36.50504516109123
 30
0.0
 11
44.84592631129951
 21
27.50504516109106
 31
0.0
  0
LINE
  5
126C
330
1228
100
AcDbEntity
  8
AM_0
100
AcDbLine
 10
40.06445216423188
 20
36.50504516109123
 30
0.0
 11
40.06445216423188
 21
27.50504516109095
 31
0.0
  0
LINE
  5
126D
330
1228
100
AcDbEntity
  8
AM_0
100
AcDbLine
 10
44.84592631129951
 20
38.50504516109123
 30
0.0
 11
40.06445216423188
 21
38.50504516109123
 31
0.0
  0
ARC
  5
126E
330
1228
100
AcDbEntity
  8
AM_0
100
AcDbCircle
 10
42.45518923776572
 20
36.07613922239898
 30
0.0
 40
2.428905938692222
100
AcDbArc
 50
10.17085060932878
 51
169.8291493906712
  0
LINE
  5
126F
330
1228
100
AcDbEntity
  8
AM_0
100
AcDbLine
 10
54.23997718331915
 20
36.50504516109123
 30
0.0
 11
54.23997718331915
 21
27.50504516109106
 31
0.0
  0
LINE
  5
1270
330
1228
100
AcDbEntity
  8
AM_0
100
AcDbLine
 10
59.02145133038678
 20
36.50504516109123
 30
0.0
 11
59.02145133038678
 21
27.50504516109095
 31
0.0
  0
ARC
  5
1271
330
1228
100
AcDbEntity
  8
AM_0
100
AcDbCircle
 10
56.63071425685294
 20
36.07613922239898
 30
0.0
 40
2.428905938692222
100
AcDbArc
 50
10.17085060933199
 51
169.829149390668
  0
POINT
  5
1272
330
1228
100
AcDbEntity
  8
0
 60
     1
100
AcDbPoint
 10
-246.5652203787855
 20
-205.5867720714473
 30
0.0
 50
180.0000000000031
1001
GENIUS_GENOENT_13
1002
{
1000
MYREF
1005
1272
1002
}
1002
{
1000
GRP
1005
0
1002
}
1001
GENIUS_GENOBJ-N-CHA_13
1002
{
1000
OWNER
1000
GEN
1002
}
1001
GENIUS_GENODEF_13
1002
{
1000
HIER
1070
     1
1002
}
1002
{
1000
MANEDIT
1070
     0
1002
}
1002
{
1000
NOSEL
1070
     0
1002
}
1002
{
1000
BEHIND
1070
     0
1002
}
1002
{
1000
OTHER
1070
     0
1002
}
1002
{
1000
REACTOR
1002
}
1001
GENIUS_GENOLIS_13
1002
{
1000
ENT
1005
124A
1002
}
  0
POINT
  5
1273
330
1228
100
AcDbEntity
  8
0
 60
     1
100
AcDbPoint
 10
323.196977376907
 20
-205.5867720714318
 30
0.0
1001
GENIUS_GENOENT_13
1002
{
1000
MYREF
1005
1273
1002
}
1002
{
1000
GRP
1005
0
1002
}
1001
GENIUS_GENOBJ-N-CHA_13
1002
{
1000
OWNER
1000
GEN
1002
}
1001
GENIUS_GENODEF_13
1002
{
1000
HIER
1070
     1
1002
}
1002
{
1000
MANEDIT
1070
     0
1002
}
1002
{
1000
NOSEL
1070
     0
1002
}
1002
{
1000
BEHIND
1070
     0
1002
}
1002
{
1000
OTHER
1070
     0
1002
}
1002
{
1000
REACTOR
1002
}
1001
GENIUS_GENOLIS_13
1002
{
1000
ENT
1005
1241
1002
}
  0
ENDBLK
  5
1277
330
1228
100
AcDbEntity
  8
0
100
AcDbBlockEnd
  0
ENDSEC
  0
SECTION
  2
ENTITIES
  0
ARC
  5
5A7
330
1F
100
AcDbEntity
  8
0
 62
     0
100
AcDbCircle
 10
333.6934519270681
 20
203.2009899056394
 30
0.0
 40
5.0
100
AcDbArc
 50
90.0
 51
103.0999181547553
  0
LINE
  5
5B4
330
1F
100
AcDbEntity
  8
0
 62
     0
100
AcDbLine
 10
334.0602023463573
 20
218.2009899056394
 30
0.0
 11
334.0602023463573
 21
208.2009899056394
 31
0.0
  0
LINE
  5
5B5
330
1F
100
AcDbEntity
  8
0
 62
     0
100
AcDbLine
 10
333.6934519270681
 20
208.2009899056394
 30
0.0
 11
334.0602023463573
 21
208.2009899056394
 31
0.0
  0
ARC
  5
5B6
330
1F
100
AcDbEntity
  8
0
 62
     0
100
AcDbCircle
 10
333.6934519270681
 20
223.2009899056394
 30
0.0
 40
5.0
100
AcDbArc
 50
256.90008184777
 51
270.0
  0
LINE
  5
5B7
330
1F
100
AcDbEntity
  8
0
 62
     0
100
AcDbLine
 10
334.0602023463573
 20
218.2009899056394
 30
0.0
 11
333.6934519270681
 21
218.2009899056394
 31
0.0
  0
LINE
  5
74E
330
1F
100
AcDbEntity
  8
AM_0
100
AcDbLine
 10
267.0107289700673
 20
206.2014604862006
 30
0.0
 11
275.0107289700673
 21
206.2014604862006
 31
0.0
  0
LINE
  5
74F
330
1F
100
AcDbEntity
  8
AM_0
100
AcDbLine
 10
267.0107289700673
 20
220.200519325078
 30
0.0
 11
276.5107289700672
 21
220.200519325078
 31
0.0
  0
ARC
  5
750
330
1F
100
AcDbEntity
  8
AM_0
100
AcDbCircle
 10
276.5107289700672
 20
221.2005193250781
 30
0.0
 40
1.0
100
AcDbArc
 50
270.0
 51
0.000000000000007
  0
LINE
  5
761
330
1F
100
AcDbEntity
  8
AM_0
100
AcDbLine
 10
267.0107289700673
 20
220.200519325078
 30
0.0
 11
267.0107289700673
 21
206.2014604862006
 31
0.0
  0
LINE
  5
766
330
1F
100
AcDbEntity
  8
AM_0
100
AcDbLine
 10
279.0107289700673
 20
191.2009899056393
 30
0.0
 11
287.0107289700673
 21
191.2009899056393
 31
0.0
  0
LINE
  5
768
330
1F
100
AcDbEntity
  8
AM_0
100
AcDbLine
 10
278.0031693705428
 20
199.7648970904173
 30
0.0
 11
278.0031693705428
 21
200.2009899056393
 31
0.0
  0
LINE
  5
769
330
1F
100
AcDbEntity
  8
AM_4
100
AcDbLine
 10
287.1787614974005
 20
191.4920307803048
 30
0.0
 11
287.404041470067
 21
198.7009899056393
 31
0.0
  0
LINE
  5
76A
330
1F
100
AcDbEntity
  8
AM_0
100
AcDbLine
 10
287.793008596925
 20
192.5559379650829
 30
0.0
 11
288.0182885695917
 21
199.7648970904173
 31
0.0
  0
LINE
  5
76B
330
1F
100
AcDbEntity
  8
AM_0
100
AcDbLine
 10
287.0107289700673
 20
191.2009899056393
 30
0.0
 11
287.793008596925
 21
192.5559379650828
 31
0.0
  0
LINE
  5
76C
330
1F
100
AcDbEntity
  8
AM_0
100
AcDbLine
 10
287.2120085969248
 20
192.5559379650828
 30
0.0
 11
287.7930085969249
 21
192.5559379650828
 31
0.0
  0
LINE
  5
76E
330
1F
100
AcDbEntity
  8
AM_4
100
AcDbLine
 10
287.4040414700672
 20
198.7009899056393
 30
0.0
 11
288.0182885695916
 21
199.7648970904172
 31
0.0
  0
LINE
  5
770
330
1F
100
AcDbEntity
  8
AM_0
100
AcDbLine
 10
288.0182885695917
 20
199.7648970904172
 30
0.0
 11
288.0182885695917
 21
200.2009899056393
 31
0.0
  0
LINE
  5
771
330
1F
100
AcDbEntity
  8
AM_4
100
AcDbLine
 10
278.842696442734
 20
191.4920307803048
 30
0.0
 11
278.617416470067
 21
198.7009899056392
 31
0.0
  0
LINE
  5
772
330
1F
100
AcDbEntity
  8
AM_0
100
AcDbLine
 10
278.2284493432094
 20
192.5559379650832
 30
0.0
 11
278.0031693705428
 21
199.7648970904172
 31
0.0
  0
LINE
  5
774
330
1F
100
AcDbEntity
  8
AM_0
100
AcDbLine
 10
279.0107289700673
 20
191.2009899056393
 30
0.0
 11
278.2284493432094
 21
192.5559379650831
 31
0.0
  0
LINE
  5
775
330
1F
100
AcDbEntity
  8
AM_0
100
AcDbLine
 10
278.2284493432094
 20
192.5559379650831
 30
0.0
 11
278.8094493432096
 21
192.5559379650831
 31
0.0
  0
LINE
  5
776
330
1F
100
AcDbEntity
  8
AM_0
100
AcDbLine
 10
278.0364164700671
 20
198.7009899056393
 30
0.0
 11
278.617416470067
 21
198.7009899056393
 31
0.0
  0
LINE
  5
777
330
1F
100
AcDbEntity
  8
AM_4
100
AcDbLine
 10
278.617416470067
 20
198.7009899056393
 30
0.0
 11
278.0031693705429
 21
199.7648970904171
 31
0.0
  0
LINE
  5
77B
330
1F
100
AcDbEntity
  8
AM_0
100
AcDbLine
 10
288.5107289700672
 20
223.635788342673
 30
0.0
 11
288.5107289700673
 21
207.6298955559342
 31
0.0
  0
LINE
  5
77E
330
1F
100
AcDbEntity
  8
AM_0
100
AcDbLine
 10
278.0031693705428
 20
200.2009899056393
 30
0.0
 11
276.0107289700672
 21
200.2009899056393
 31
0.0
  0
LINE
  5
77F
330
1F
100
AcDbEntity
  8
AM_0
100
AcDbLine
 10
288.0182885695917
 20
200.2009899056393
 30
0.0
 11
290.0107289700672
 21
200.2009899056393
 31
0.0
  0
LINE
  5
780
330
1F
100
AcDbEntity
  8
AM_0
100
AcDbLine
 10
276.0107289700672
 20
205.2014604862006
 30
0.0
 11
276.0107289700672
 21
200.2009899056393
 31
0.0
  0
LINE
  5
781
330
1F
100
AcDbEntity
  8
AM_0
100
AcDbLine
 10
290.0107289700672
 20
204.7576142326653
 30
0.0
 11
290.0107289700672
 21
200.2009899056393
 31
0.0
  0
LINE
  5
782
330
1F
100
AcDbEntity
  8
AM_0
100
AcDbLine
 10
287.404041470067
 20
198.7009899056389
 30
0.0
 11
287.9850414700674
 21
198.7009899056389
 31
0.0
  0
ARC
  5
783
330
1F
100
AcDbEntity
  8
AM_0
100
AcDbCircle
 10
275.0107289700673
 20
205.2014604862006
 30
0.0
 40
1.0
100
AcDbArc
 50
0.000000000000007
 51
90.0
  0
ARC
  5
784
330
1F
100
AcDbEntity
  8
AM_0
100
AcDbCircle
 10
287.5107289700673
 20
204.7576142326653
 30
0.0
 40
2.5
100
AcDbArc
 50
0.000000000000007
 51
55.15009542095346
  0
ARC
  5
785
330
1F
100
AcDbEntity
  8
AM_0
100
AcDbCircle
 10
289.5107289700673
 20
207.6298955559342
 30
0.0
 40
1.0
100
AcDbArc
 50
180.0
 51
235.1500954209535
  0
LINE
  5
789
330
1F
100
AcDbEntity
  8
AM_0
100
AcDbLine
 10
277.5107289698289
 20
223.6357658683759
 30
0.0
 11
277.5107289700672
 21
221.2005193250781
 31
0.0
  0
LINE
  5
790
330
1F
100
AcDbEntity
  8
0
 62
     0
100
AcDbLine
 10
288.5107289703888
 20
223.6357892006077
 30
0.0
 11
288.5107289692173
 21
221.6778642456587
 31
0.0
  0
TEXT
  5
8CC
330
1F
100
AcDbEntity
  8
AM_0
100
AcDbText
 10
291.0222571418374
 20
276.4934247665247
 30
0.0
 40
3.0
  1
▲
 50
180.0
 41
0.5
  7
ｽﾀｲﾙ1
100
AcDbText
  0
TEXT
  5
8CD
330
1F
100
AcDbEntity
  8
AM_0
100
AcDbText
 10
275.1525023726618
 20
280.3092417440515
 30
0.0
 40
3.0
  1
▲
 41
0.5
  7
ｽﾀｲﾙ1
100
AcDbText
  0
TEXT
  5
8CE
330
1F
100
AcDbEntity
  8
AM_0
100
AcDbText
 10
274.0772282752513
 20
277.1521740469615
 30
0.0
 40
3.0
  1
clccolo
 41
1.5
  7
ｽﾀｲﾙ1
100
AcDbText
  0
ARC
  5
8CF
330
1F
100
AcDbEntity
  8
AM_0
100
AcDbCircle
 10
294.2194879183546
 20
282.5295118983691
 30
0.0
 40
0.5
100
AcDbArc
 50
20.92267102050543
 51
89.94427401306012
1001
GENIUS_GENODEF_13
1002
{
1000
HIER
1070
     0
1002
}
1002
{
1000
MANEDIT
1070
     0
1002
}
1002
{
1000
NOSEL
1070
     0
1002
}
1002
{
1000
BEHIND
1070
     0
1002
}
1002
{
1000
REACTOR
1002
}
1001
GENIUS_GENOBJ-N-FIL_13
1002
{
1000
OWNER
1000
GEN
1002
}
  0
ARC
  5
8D0
330
1F
100
AcDbEntity
  8
AM_0
100
AcDbCircle
 10
294.5976365630669
 20
281.3656900399329
 30
0.0
 40
0.5
100
AcDbArc
 50
306.055725986937
 51
15.07732897949275
1001
GENIUS_GENODEF_13
1002
{
1000
HIER
1070
     0
1002
}
1002
{
1000
MANEDIT
1070
     0
1002
}
1002
{
1000
NOSEL
1070
     0
1002
}
1002
{
1000
BEHIND
1070
     0
1002
}
1002
{
1000
REACTOR
1002
}
1001
GENIUS_GENOBJ-N-FIL_13
1002
{
1000
OWNER
1000
GEN
1002
}
  0
ARC
  5
8D1
330
1F
100
AcDbEntity
  8
AM_0
100
AcDbCircle
 10
294.597636563067
 20
275.1227508503457
 30
0.0
 40
0.5
100
AcDbArc
 50
344.9226710205071
 51
53.94427401306391
1001
GENIUS_GENODEF_13
1002
{
1000
HIER
1070
     0
1002
}
1002
{
1000
MANEDIT
1070
     0
1002
}
1002
{
1000
NOSEL
1070
     0
1002
}
1002
{
1000
BEHIND
1070
     0
1002
}
1002
{
1000
REACTOR
1002
}
1001
GENIUS_GENOBJ-N-FIL_13
1002
{
1000
OWNER
1000
GEN
1002
}
  0
ARC
  5
8D2
330
1F
100
AcDbEntity
  8
AM_0
100
AcDbCircle
 10
294.2194879183546
 20
273.9589289919095
 30
0.0
 40
0.5
100
AcDbArc
 50
270.0557259869399
 51
339.0773289794946
1001
GENIUS_GENODEF_13
1002
{
1000
HIER
1070
     0
1002
}
1002
{
1000
MANEDIT
1070
     0
1002
}
1002
{
1000
NOSEL
1070
     0
1002
}
1002
{
1000
BEHIND
1070
     0
1002
}
1002
{
1000
REACTOR
1002
}
1001
GENIUS_GENOBJ-N-FIL_13
1002
{
1000
OWNER
1000
GEN
1002
}
  0
ARC
  5
8D3
330
1F
100
AcDbEntity
  8
AM_0
100
AcDbCircle
 10
290.5499803317565
 20
268.908285092684
 30
0.0
 40
0.5
100
AcDbArc
 50
308.9226710205079
 51
17.94427401306077
1001
GENIUS_GENODEF_13
1002
{
1000
HIER
1070
     0
1002
}
1002
{
1000
MANEDIT
1070
     0
1002
}
1002
{
1000
NOSEL
1070
     0
1002
}
1002
{
1000
BEHIND
1070
     0
1002
}
1002
{
1000
REACTOR
1002
}
1001
GENIUS_GENOBJ-N-FIL_13
1002
{
1000
OWNER
1000
GEN
1002
}
  0
ARC
  5
8D4
330
1F
100
AcDbEntity
  8
AM_0
100
AcDbCircle
 10
289.5599743271
 20
268.1890036273204
 30
0.0
 40
0.5
100
AcDbArc
 50
234.0557259869389
 51
303.0773289794912
1001
GENIUS_GENODEF_13
1002
{
1000
HIER
1070
     0
1002
}
1002
{
1000
MANEDIT
1070
     0
1002
}
1002
{
1000
NOSEL
1070
     0
1002
}
1002
{
1000
BEHIND
1070
     0
1002
}
1002
{
1000
REACTOR
1002
}
1001
GENIUS_GENOBJ-N-FIL_13
1002
{
1000
OWNER
1000
GEN
1002
}
  0
ARC
  5
8D5
330
1F
100
AcDbEntity
  8
AM_0
100
AcDbCircle
 10
283.6225863300088
 20
266.2598293228886
 30
0.0
 40
0.5
100
AcDbArc
 50
272.9226710205083
 51
341.9442740130646
1001
GENIUS_GENODEF_13
1002
{
1000
HIER
1070
     0
1002
}
1002
{
1000
MANEDIT
1070
     0
1002
}
1002
{
1000
NOSEL
1070
     0
1002
}
1002
{
1000
BEHIND
1070
     0
1002
}
1002
{
1000
REACTOR
1002
}
1001
GENIUS_GENOBJ-N-FIL_13
1002
{
1000
OWNER
1000
GEN
1002
}
  0
ARC
  5
8D6
330
1F
100
AcDbEntity
  8
AM_0
100
AcDbCircle
 10
282.3988716101202
 20
266.2598293228886
 30
0.0
 40
0.5
100
AcDbArc
 50
198.0557259869353
 51
267.0773289794917
1001
GENIUS_GENODEF_13
1002
{
1000
HIER
1070
     0
1002
}
1002
{
1000
MANEDIT
1070
     0
1002
}
1002
{
1000
NOSEL
1070
     0
1002
}
1002
{
1000
BEHIND
1070
     0
1002
}
1002
{
1000
REACTOR
1002
}
1001
GENIUS_GENOBJ-N-FIL_13
1002
{
1000
OWNER
1000
GEN
1002
}
  0
ARC
  5
8D7
330
1F
100
AcDbEntity
  8
AM_0
100
AcDbCircle
 10
276.4614836130289
 20
268.1890036273204
 30
0.0
 40
0.5
100
AcDbArc
 50
236.9226710205087
 51
305.9442740130612
1001
GENIUS_GENODEF_13
1002
{
1000
HIER
1070
     0
1002
}
1002
{
1000
MANEDIT
1070
     0
1002
}
1002
{
1000
NOSEL
1070
     0
1002
}
1002
{
1000
BEHIND
1070
     0
1002
}
1002
{
1000
REACTOR
1002
}
1001
GENIUS_GENOBJ-N-FIL_13
1002
{
1000
OWNER
1000
GEN
1002
}
  0
ARC
  5
8D8
330
1F
100
AcDbEntity
  8
AM_0
100
AcDbCircle
 10
275.4714776083723
 20
268.908285092684
 30
0.0
 40
0.5
100
AcDbArc
 50
162.0557259869392
 51
231.0773289794921
1001
GENIUS_GENODEF_13
1002
{
1000
HIER
1070
     0
1002
}
1002
{
1000
MANEDIT
1070
     0
1002
}
1002
{
1000
NOSEL
1070
     0
1002
}
1002
{
1000
BEHIND
1070
     0
1002
}
1002
{
1000
REACTOR
1002
}
1001
GENIUS_GENOBJ-N-FIL_13
1002
{
1000
OWNER
1000
GEN
1002
}
  0
ARC
  5
8D9
330
1F
100
AcDbEntity
  8
AM_0
100
AcDbCircle
 10
271.8019700217743
 20
273.9589289919095
 30
0.0
 40
0.5
100
AcDbArc
 50
200.9226710205054
 51
269.9442740130601
1001
GENIUS_GENODEF_13
1002
{
1000
HIER
1070
     0
1002
}
1002
{
1000
MANEDIT
1070
     0
1002
}
1002
{
1000
NOSEL
1070
     0
1002
}
1002
{
1000
BEHIND
1070
     0
1002
}
1002
{
1000
REACTOR
1002
}
1001
GENIUS_GENOBJ-N-FIL_13
1002
{
1000
OWNER
1000
GEN
1002
}
  0
ARC
  5
8DA
330
1F
100
AcDbEntity
  8
AM_0
100
AcDbCircle
 10
271.4238213770619
 20
275.1227508503457
 30
0.0
 40
0.5
100
AcDbArc
 50
126.0557259869361
 51
195.0773289794927
1001
GENIUS_GENODEF_13
1002
{
1000
HIER
1070
     0
1002
}
1002
{
1000
MANEDIT
1070
     0
1002
}
1002
{
1000
NOSEL
1070
     0
1002
}
1002
{
1000
BEHIND
1070
     0
1002
}
1002
{
1000
REACTOR
1002
}
1001
GENIUS_GENOBJ-N-FIL_13
1002
{
1000
OWNER
1000
GEN
1002
}
  0
ARC
  5
8DB
330
1F
100
AcDbEntity
  8
AM_0
100
AcDbCircle
 10
271.4238213770619
 20
281.3656900399329
 30
0.0
 40
0.5
100
AcDbArc
 50
164.9226710205072
 51
233.9442740130629
1001
GENIUS_GENODEF_13
1002
{
1000
HIER
1070
     0
1002
}
1002
{
1000
MANEDIT
1070
     0
1002
}
1002
{
1000
NOSEL
1070
     0
1002
}
1002
{
1000
BEHIND
1070
     0
1002
}
1002
{
1000
REACTOR
1002
}
1001
GENIUS_GENOBJ-N-FIL_13
1002
{
1000
OWNER
1000
GEN
1002
}
  0
ARC
  5
8DC
330
1F
100
AcDbEntity
  8
AM_0
100
AcDbCircle
 10
271.8019700217743
 20
282.5295118983691
 30
0.0
 40
0.5
100
AcDbArc
 50
90.05572598693987
 51
159.0773289794945
1001
GENIUS_GENODEF_13
1002
{
1000
HIER
1070
     0
1002
}
1002
{
1000
MANEDIT
1070
     0
1002
}
1002
{
1000
NOSEL
1070
     0
1002
}
1002
{
1000
BEHIND
1070
     0
1002
}
1002
{
1000
REACTOR
1002
}
1001
GENIUS_GENOBJ-N-FIL_13
1002
{
1000
OWNER
1000
GEN
1002
}
  0
ARC
  5
8DD
330
1F
100
AcDbEntity
  8
AM_0
100
AcDbCircle
 10
275.4714776083723
 20
287.5801557975945
 30
0.0
 40
0.5
100
AcDbArc
 50
128.9226710205079
 51
197.9442740130608
1001
GENIUS_GENODEF_13
1002
{
1000
HIER
1070
     0
1002
}
1002
{
1000
MANEDIT
1070
     0
1002
}
1002
{
1000
NOSEL
1070
     0
1002
}
1002
{
1000
BEHIND
1070
     0
1002
}
1002
{
1000
REACTOR
1002
}
1001
GENIUS_GENOBJ-N-FIL_13
1002
{
1000
OWNER
1000
GEN
1002
}
  0
ARC
  5
8DE
330
1F
100
AcDbEntity
  8
AM_0
100
AcDbCircle
 10
276.4614836130289
 20
288.2994372629582
 30
0.0
 40
0.5
100
AcDbArc
 50
54.05572598693886
 51
123.0773289794912
1001
GENIUS_GENODEF_13
1002
{
1000
HIER
1070
     0
1002
}
1002
{
1000
MANEDIT
1070
     0
1002
}
1002
{
1000
NOSEL
1070
     0
1002
}
1002
{
1000
BEHIND
1070
     0
1002
}
1002
{
1000
REACTOR
1002
}
1001
GENIUS_GENOBJ-N-FIL_13
1002
{
1000
OWNER
1000
GEN
1002
}
  0
ARC
  5
8DF
330
1F
100
AcDbEntity
  8
AM_0
100
AcDbCircle
 10
282.3988716101202
 20
290.22861156739
 30
0.0
 40
0.5
100
AcDbArc
 50
92.92267102050834
 51
161.9442740130646
1001
GENIUS_GENODEF_13
1002
{
1000
HIER
1070
     0
1002
}
1002
{
1000
MANEDIT
1070
     0
1002
}
1002
{
1000
NOSEL
1070
     0
1002
}
1002
{
1000
BEHIND
1070
     0
1002
}
1002
{
1000
REACTOR
1002
}
1001
GENIUS_GENOBJ-N-FIL_13
1002
{
1000
OWNER
1000
GEN
1002
}
  0
ARC
  5
8E0
330
1F
100
AcDbEntity
  8
AM_0
100
AcDbCircle
 10
283.6225863300088
 20
290.22861156739
 30
0.0
 40
0.5
100
AcDbArc
 50
18.05572598693531
 51
87.07732897949167
1001
GENIUS_GENODEF_13
1002
{
1000
HIER
1070
     0
1002
}
1002
{
1000
MANEDIT
1070
     0
1002
}
1002
{
1000
NOSEL
1070
     0
1002
}
1002
{
1000
BEHIND
1070
     0
1002
}
1002
{
1000
REACTOR
1002
}
1001
GENIUS_GENOBJ-N-FIL_13
1002
{
1000
OWNER
1000
GEN
1002
}
  0
ARC
  5
8E1
330
1F
100
AcDbEntity
  8
AM_0
100
AcDbCircle
 10
289.5599743271
 20
288.2994372629582
 30
0.0
 40
0.5
100
AcDbArc
 50
56.92267102050876
 51
125.9442740130611
1001
GENIUS_GENODEF_13
1002
{
1000
HIER
1070
     0
1002
}
1002
{
1000
MANEDIT
1070
     0
1002
}
1002
{
1000
NOSEL
1070
     0
1002
}
1002
{
1000
BEHIND
1070
     0
1002
}
1002
{
1000
REACTOR
1002
}
1001
GENIUS_GENOBJ-N-FIL_13
1002
{
1000
OWNER
1000
GEN
1002
}
  0
ARC
  5
8E2
330
1F
100
AcDbEntity
  8
AM_0
100
AcDbCircle
 10
290.5499803317565
 20
287.5801557975945
 30
0.0
 40
0.5
100
AcDbArc
 50
342.0557259869391
 51
51.07732897949213
1001
GENIUS_GENODEF_13
1002
{
1000
HIER
1070
     0
1002
}
1002
{
1000
MANEDIT
1070
     0
1002
}
1002
{
1000
NOSEL
1070
     0
1002
}
1002
{
1000
BEHIND
1070
     0
1002
}
1002
{
1000
REACTOR
1002
}
1001
GENIUS_GENOBJ-N-FIL_13
1002
{
1000
OWNER
1000
GEN
1002
}
  0
ARC
  5
8E3
330
1F
100
AcDbEntity
  8
AM_0
100
AcDbCircle
 10
283.0107289700644
 20
278.2442204451393
 30
0.0
 40
12.5
100
AcDbArc
 50
303.0773289794912
 51
308.9226710205079
  0
ARC
  5
8E4
330
1F
100
AcDbEntity
  8
AM_0
100
AcDbCircle
 10
283.0107289700644
 20
278.2442204451393
 30
0.0
 40
12.5
100
AcDbArc
 50
339.0773289794904
 51
344.9226710205071
  0
ARC
  5
8E5
330
1F
100
AcDbEntity
  8
AM_0
100
AcDbCircle
 10
283.0107289700644
 20
278.2442204451393
 30
0.0
 40
12.5
100
AcDbArc
 50
15.07732897949275
 51
20.92267102050963
  0
ARC
  5
8E6
330
1F
100
AcDbEntity
  8
AM_0
100
AcDbCircle
 10
283.0107289700644
 20
278.2442204451393
 30
0.0
 40
12.5
100
AcDbArc
 50
51.07732897949213
 51
56.92267102050876
  0
ARC
  5
8E7
330
1F
100
AcDbEntity
  8
AM_0
100
AcDbCircle
 10
283.0107289700644
 20
278.2442204451393
 30
0.0
 40
12.5
100
AcDbArc
 50
87.07732897949167
 51
92.92267102050834
  0
ARC
  5
8E8
330
1F
100
AcDbEntity
  8
AM_0
100
AcDbCircle
 10
283.0107289700644
 20
278.2442204451393
 30
0.0
 40
12.5
100
AcDbArc
 50
123.0773289794912
 51
128.9226710205079
  0
ARC
  5
8E9
330
1F
100
AcDbEntity
  8
AM_0
100
AcDbCircle
 10
283.0107289700644
 20
278.2442204451393
 30
0.0
 40
12.5
100
AcDbArc
 50
159.0773289794903
 51
164.9226710205072
  0
ARC
  5
8EA
330
1F
100
AcDbEntity
  8
AM_0
100
AcDbCircle
 10
283.0107289700644
 20
278.2442204451393
 30
0.0
 40
12.5
100
AcDbArc
 50
195.0773289794927
 51
200.9226710205096
  0
ARC
  5
8EB
330
1F
100
AcDbEntity
  8
AM_0
100
AcDbCircle
 10
283.0107289700644
 20
278.2442204451393
 30
0.0
 40
12.5
100
AcDbArc
 50
231.0773289794921
 51
236.9226710205087
  0
ARC
  5
8EC
330
1F
100
AcDbEntity
  8
AM_0
100
AcDbCircle
 10
278.727929629541
 20
265.0631194217853
 30
0.0
 40
3.361078814551376
100
AcDbArc
 50
18.05572598693531
 51
125.9442740130611
  0
ARC
  5
8ED
330
1F
100
AcDbEntity
  8
AM_0
100
AcDbCircle
 10
271.7982147295784
 20
270.0978520035604
 30
0.0
 40
3.361078814551376
100
AcDbArc
 50
342.0557259869351
 51
89.94427401306339
  0
ARC
  5
8EE
330
1F
100
AcDbEntity
  8
AM_0
100
AcDbCircle
 10
269.1512991701393
 20
278.2442204451393
 30
0.0
 40
3.361078814551376
100
AcDbArc
 50
306.0557259869361
 51
53.94427401306295
  0
ARC
  5
8EF
330
1F
100
AcDbEntity
  8
AM_0
100
AcDbCircle
 10
271.7982147295784
 20
286.3905888867181
 30
0.0
 40
3.361078814551376
100
AcDbArc
 50
270.0557259869366
 51
17.94427401306489
  0
ARC
  5
8F0
330
1F
100
AcDbEntity
  8
AM_0
100
AcDbCircle
 10
278.727929629541
 20
291.4253214684933
 30
0.0
 40
3.361078814551376
100
AcDbArc
 50
234.0557259869389
 51
341.9442740130646
  0
ARC
  5
8F1
330
1F
100
AcDbEntity
  8
AM_0
100
AcDbCircle
 10
294.2232432105504
 20
286.3905888867181
 30
0.0
 40
3.361078814551376
100
AcDbArc
 50
162.0557259869351
 51
269.9442740130634
  0
ARC
  5
8F2
330
1F
100
AcDbEntity
  8
AM_0
100
AcDbCircle
 10
296.8701587699897
 20
278.2442204451393
 30
0.0
 40
3.361078814551376
100
AcDbArc
 50
126.0557259869369
 51
233.9442740130639
  0
ARC
  5
8F3
330
1F
100
AcDbEntity
  8
AM_0
100
AcDbCircle
 10
294.2232432105504
 20
270.0978520035604
 30
0.0
 40
3.361078814551376
100
AcDbArc
 50
90.05572598693657
 51
197.9442740130649
  0
ARC
  5
8F4
330
1F
100
AcDbEntity
  8
AM_0
100
AcDbCircle
 10
287.2935283105879
 20
265.0631194217853
 30
0.0
 40
3.361078814551376
100
AcDbArc
 50
54.05572598693886
 51
161.9442740130646
  0
ARC
  5
8F5
330
1F
100
AcDbEntity
  8
AM_0
100
AcDbCircle
 10
287.2935283105879
 20
291.4253214684933
 30
0.0
 40
3.361078814551376
100
AcDbArc
 50
198.0557259869353
 51
305.9442740130612
  0
CIRCLE
  5
8F6
330
1F
100
AcDbEntity
  8
AM_0
100
AcDbCircle
 10
283.0107289700644
 20
278.2442204451393
 30
0.0
 40
9.0
  0
CIRCLE
  5
8F7
330
1F
100
AcDbEntity
  8
AM_0
100
AcDbCircle
 10
283.0107289700644
 20
278.2442204451393
 30
0.0
 40
10.5
  0
ARC
  5
8F8
330
1F
100
AcDbEntity
  8
AM_0
100
AcDbCircle
 10
283.0107289700644
 20
278.2442204451393
 30
0.0
 40
12.5
100
AcDbArc
 50
267.0773289794917
 51
272.9226710205083
  0
LINE
  5
913
330
1F
100
AcDbEntity
  8
AM_0
100
AcDbLine
 10
286.0107289704759
 20
234.1778642444083
 30
0.0
 11
286.0107289704759
 21
239.7615979702303
 31
0.0
  0
LINE
  5
914
330
1F
100
AcDbEntity
  8
AM_0
100
AcDbLine
 10
280.0107289700673
 20
234.1778642444083
 30
0.0
 11
280.0107289700673
 21
239.7615979702303
 31
0.0
  0
LINE
  5
979
330
1F
100
AcDbEntity
  8
AM_7
100
AcDbLine
 10
289.9077289700673
 20
213.2009899056393
 30
0.0
 11
265.6137289700672
 21
213.2009899056393
 31
0.0
1001
GENIUS_GENODEF_13
1002
{
1000
HIER
1070
     0
1002
}
1002
{
1000
MANEDIT
1070
     0
1002
}
1002
{
1000
NOSEL
1070
     0
1002
}
1002
{
1000
BEHIND
1070
     0
1002
}
1002
{
1000
OTHER
1070
     0
1002
}
1002
{
1000
REACTOR
1002
}
1001
GENIUS_GENOBJ-N-CEN_13
1002
{
1000
OWNER
1000
GEN
1002
}
1001
GENIUS_GENCEN_19
1002
{
1040
1.397
1002
}
  0
LINE
  5
9BE
330
1F
100
AcDbEntity
  8
AM_7
100
AcDbLine
 10
318.6632023463573
 20
213.2009899056394
 30
0.0
 11
335.4572023463573
 21
213.2009899056394
 31
0.0
1001
GENIUS_GENOBJ-N-CEN_13
1002
{
1000
OWNER
1000
GEN
1002
}
1001
GENIUS_GENODEF_13
1002
{
1000
HIER
1070
     0
1002
}
1002
{
1000
MANEDIT
1070
     0
1002
}
1002
{
1000
NOSEL
1070
     0
1002
}
1002
{
1000
BEHIND
1070
     0
1002
}
1002
{
1000
OTHER
1070
     0
1002
}
1002
{
1000
REACTOR
1002
}
1001
GENIUS_GENCEN_19
1002
{
1040
1.397
1002
}
  0
LINE
  5
B6A
330
1F
100
AcDbEntity
  8
AM_7
100
AcDbLine
 10
283.0107289700644
 20
292.1412204451392
 30
0.0
 11
283.0107289700644
 21
264.3472204451393
 31
0.0
1001
GENIUS_GENOBJ-N-CEN_13
1002
{
1000
OWNER
1000
GEN
1002
}
1001
GENIUS_GENODEF_13
1002
{
1000
HIER
1070
     0
1002
}
1002
{
1000
MANEDIT
1070
     0
1002
}
1002
{
1000
NOSEL
1070
     0
1002
}
1002
{
1000
BEHIND
1070
     0
1002
}
1002
{
1000
OTHER
1070
     0
1002
}
1002
{
1000
REACTOR
1002
}
1001
GENIUS_GENCEN_19
1002
{
1040
1.397
1002
}
  0
LINE
  5
1153
330
1F
100
AcDbEntity
  8
0
100
AcDbLine
 10
288.0182885695917
 20
200.2009899056393
 30
0.0
 11
278.0031693705428
 21
200.2009899056395
 31
0.0
  0
LINE
  5
1154
330
1F
100
AcDbEntity
  8
0
100
AcDbLine
 10
278.617416470067
 20
198.7009899056392
 30
0.0
 11
287.4040414700672
 21
198.7009899056393
 31
0.0
  0
LINE
  5
1155
330
1F
100
AcDbEntity
  8
0
100
AcDbLine
 10
278.8094493432096
 20
192.5559379650831
 30
0.0
 11
287.2120085969248
 21
192.5559379650831
 31
0.0
  0
LINE
  5
1156
330
1F
100
AcDbEntity
  8
AM_0
100
AcDbLine
 10
323.0602023463573
 20
191.2009899056393
 30
0.0
 11
331.0602023463573
 21
191.2009899056393
 31
0.0
  0
LINE
  5
1157
330
1F
100
AcDbEntity
  8
AM_0
100
AcDbLine
 10
332.0677619458817
 20
199.7648970904173
 30
0.0
 11
332.0677619458817
 21
200.2009899056393
 31
0.0
  0
LINE
  5
1158
330
1F
100
AcDbEntity
  8
AM_4
100
AcDbLine
 10
331.2282348736906
 20
191.4920307803048
 30
0.0
 11
331.4535148463571
 21
198.7009899056393
 31
0.0
  0
LINE
  5
1159
330
1F
100
AcDbEntity
  8
AM_0
100
AcDbLine
 10
331.842481973215
 20
192.5559379650829
 30
0.0
 11
332.0677619458817
 21
199.7648970904173
 31
0.0
  0
LINE
  5
115A
330
1F
100
AcDbEntity
  8
AM_0
100
AcDbLine
 10
331.0602023463573
 20
191.2009899056393
 30
0.0
 11
331.842481973215
 21
192.5559379650828
 31
0.0
  0
LINE
  5
115B
330
1F
100
AcDbEntity
  8
AM_0
100
AcDbLine
 10
331.2614819732148
 20
192.5559379650828
 30
0.0
 11
331.8424819732149
 21
192.5559379650828
 31
0.0
  0
LINE
  5
115C
330
1F
100
AcDbEntity
  8
AM_4
100
AcDbLine
 10
331.4535148463573
 20
198.7009899056393
 30
0.0
 11
332.0677619458817
 21
199.7648970904172
 31
0.0
  0
LINE
  5
115E
330
1F
100
AcDbEntity
  8
AM_4
100
AcDbLine
 10
322.892169819024
 20
191.4920307803048
 30
0.0
 11
322.6668898463571
 21
198.7009899056392
 31
0.0
  0
LINE
  5
115F
330
1F
100
AcDbEntity
  8
AM_0
100
AcDbLine
 10
322.2779227194994
 20
192.5559379650832
 30
0.0
 11
322.0526427468329
 21
199.7648970904172
 31
0.0
  0
LINE
  5
1160
330
1F
100
AcDbEntity
  8
AM_0
100
AcDbLine
 10
323.0602023463573
 20
191.2009899056393
 30
0.0
 11
322.2779227194994
 21
192.5559379650831
 31
0.0
  0
LINE
  5
1161
330
1F
100
AcDbEntity
  8
AM_0
100
AcDbLine
 10
322.2779227194994
 20
192.5559379650831
 30
0.0
 11
322.8589227194997
 21
192.5559379650831
 31
0.0
  0
LINE
  5
1162
330
1F
100
AcDbEntity
  8
AM_0
100
AcDbLine
 10
322.0858898463572
 20
198.7009899056393
 30
0.0
 11
322.6668898463571
 21
198.7009899056393
 31
0.0
  0
LINE
  5
1163
330
1F
100
AcDbEntity
  8
AM_4
100
AcDbLine
 10
322.6668898463571
 20
198.7009899056393
 30
0.0
 11
322.0526427468329
 21
199.7648970904171
 31
0.0
  0
LINE
  5
1164
330
1F
100
AcDbEntity
  8
AM_0
100
AcDbLine
 10
332.0677619458817
 20
200.2009899056393
 30
0.0
 11
334.0602023463573
 21
200.2009899056393
 31
0.0
  0
LINE
  5
1167
330
1F
100
AcDbEntity
  8
AM_0
100
AcDbLine
 10
331.4535148463571
 20
198.7009899056389
 30
0.0
 11
332.0345148463574
 21
198.7009899056389
 31
0.0
  0
LINE
  5
116A
330
1F
100
AcDbEntity
  8
0
100
AcDbLine
 10
322.0526427468329
 20
200.2009899056393
 30
0.0
 11
332.0677619458817
 21
200.2009899056395
 31
0.0
  0
LINE
  5
116B
330
1F
100
AcDbEntity
  8
0
100
AcDbLine
 10
322.6668898463571
 20
198.7009899056392
 30
0.0
 11
331.4535148463573
 21
198.7009899056393
 31
0.0
  0
LINE
  5
116C
330
1F
100
AcDbEntity
  8
0
100
AcDbLine
 10
322.8589227194997
 20
192.5559379650831
 30
0.0
 11
331.2614819732149
 21
192.5559379650831
 31
0.0
  0
LINE
  5
11DE
330
1F
100
AcDbEntity
  8
AM_0
100
AcDbLine
 10
276.010728969645
 20
225.0791227837597
 30
0.0
 11
290.0107289709559
 21
225.0791227832857
 31
0.0
  0
LINE
  5
11DF
330
1F
100
AcDbEntity
  8
0
 62
     0
100
AcDbLine
 10
289.4692289701339
 20
225.079122782849
 30
0.0
 11
290.0107289701363
 21
225.0791227828124
 31
0.0
  0
LINE
  5
11E1
330
1F
100
AcDbEntity
  8
0
 62
     0
100
AcDbLine
 10
283.0107289701055
 20
234.1778642444083
 30
0.0
 11
274.5107289709184
 21
234.1778642444082
 31
0.0
  0
ARC
  5
11E7
330
1F
100
AcDbEntity
  8
0
 62
     0
100
AcDbCircle
 10
276.5107289707271
 20
223.6357471108862
 30
0.0
 40
0.9999999999043879
100
AcDbArc
 50
0.0
 51
59.99999999999946
  0
LINE
  5
11EA
330
1F
100
AcDbEntity
  8
0
 62
     0
100
AcDbLine
 10
289.0107289701319
 20
224.5017725136202
 30
0.0
 11
290.0107289701363
 21
225.0791227828124
 31
0.0
  0
ARC
  5
11EE
330
1F
100
AcDbEntity
  8
0
 62
     0
100
AcDbCircle
 10
289.5107289701341
 20
223.635747109832
 30
0.0
 40
1.000000000004388
100
AcDbArc
 50
119.9999999999997
 51
180.0
  0
LINE
  5
11F2
330
1F
100
AcDbEntity
  8
AM_4
100
AcDbLine
 10
289.469228970134
 20
226.177864244373
 30
0.0
 11
289.469228970134
 21
224.7664876120446
 31
0.0
  0
LINE
  5
11F3
330
1F
100
AcDbEntity
  8
0
 62
     0
100
AcDbLine
 10
290.0107289701363
 20
226.1778642443731
 30
0.0
 11
290.0107289701364
 21
225.0791227828121
 31
0.0
  0
LINE
  5
11F4
330
1F
100
AcDbEntity
  8
0
 62
     0
100
AcDbLine
 10
289.4692289701341
 20
225.0791227828488
 30
0.0
 11
290.0107289701364
 21
225.0791227828121
 31
0.0
  0
LINE
  5
11F5
330
1F
100
AcDbEntity
  8
AM_0
100
AcDbLine
 10
289.4692289701341
 20
225.0791227828488
 30
0.0
 11
283.0107289701055
 21
225.0791227832857
 31
0.0
  0
LINE
  5
1203
330
1F
100
AcDbEntity
  8
0
 62
     0
100
AcDbLine
 10
276.5522289704476
 20
225.0791227837229
 30
0.0
 11
276.0107289704452
 21
225.0791227837595
 31
0.0
  0
LINE
  5
1204
330
1F
100
AcDbEntity
  8
AM_4
100
AcDbLine
 10
276.5522289705961
 20
226.1778642452469
 30
0.0
 11
276.5522289704051
 21
224.7664876129184
 31
0.0
  0
LINE
  5
1205
330
1F
100
AcDbEntity
  8
0
 62
     0
100
AcDbLine
 10
276.0107289705938
 20
226.1778642453202
 30
0.0
 11
276.0107289704451
 21
225.0791227837593
 31
0.0
  0
LINE
  5
1206
330
1F
100
AcDbEntity
  8
0
 62
     0
100
AcDbLine
 10
276.5522289704474
 20
225.0791227837226
 30
0.0
 11
276.0107289704451
 21
225.0791227837593
 31
0.0
  0
LINE
  5
1207
330
1F
100
AcDbEntity
  8
AM_0
100
AcDbLine
 10
276.5522289704474
 20
225.0791227837226
 30
0.0
 11
283.010728970476
 21
225.0791227832857
 31
0.0
  0
LINE
  5
1208
330
1F
100
AcDbEntity
  8
0
 62
     0
100
AcDbLine
 10
277.0107289695713
 20
224.5017725144322
 30
0.0
 11
276.010728969645
 21
225.0791227837597
 31
0.0
  0
LINE
  5
1209
330
1F
100
AcDbEntity
  8
AM_0
100
AcDbLine
 10
288.510728969503
 20
223.6357471108572
 30
0.0
 11
277.5107289700049
 21
223.635747109832
 31
0.0
  0
LINE
  5
12D6
330
1F
100
AcDbEntity
  8
0
 62
     0
100
AcDbLine
 10
333.5187023463857
 20
225.079122782849
 30
0.0
 11
334.060202346388
 21
225.0791227828124
 31
0.0
  0
ARC
  5
12DB
330
1F
100
AcDbEntity
  8
0
 62
     0
100
AcDbCircle
 10
320.5602023469789
 20
223.6357471108863
 30
0.0
 40
0.9999999999043879
100
AcDbArc
 50
0.0
 51
59.99999999999941
  0
LINE
  5
12DC
330
1F
100
AcDbEntity
  8
0
 62
     0
100
AcDbLine
 10
333.0602023463837
 20
224.5017725136203
 30
0.0
 11
334.060202346388
 21
225.0791227828124
 31
0.0
  0
ARC
  5
12DF
330
1F
100
AcDbEntity
  8
0
 62
     0
100
AcDbCircle
 10
333.5602023463859
 20
223.635747109832
 30
0.0
 40
1.000000000004388
100
AcDbArc
 50
119.9999999999997
 51
180.0
  0
LINE
  5
12E1
330
1F
100
AcDbEntity
  8
AM_0
100
AcDbLine
 10
324.0602023463575
 20
239.7615979702303
 30
0.0
 11
324.0602023463575
 21
234.1778642444083
 31
0.0
  0
LINE
  5
12E2
330
1F
100
AcDbEntity
  8
AM_0
100
AcDbLine
 10
330.060202346357
 20
239.7615979702305
 30
0.0
 11
330.0602023463573
 21
234.1778642444083
 31
0.0
  0
LINE
  5
12F9
330
1F
100
AcDbEntity
  8
AM_4
100
AcDbLine
 10
333.5187023463858
 20
226.177864244373
 30
0.0
 11
333.5187023463858
 21
224.7664876120446
 31
0.0
  0
LINE
  5
12FA
330
1F
100
AcDbEntity
  8
0
 62
     0
100
AcDbLine
 10
334.0602023463881
 20
226.1778642443731
 30
0.0
 11
334.0602023463882
 21
225.0791227828122
 31
0.0
  0
LINE
  5
12FB
330
1F
100
AcDbEntity
  8
0
 62
     0
100
AcDbLine
 10
333.5187023463858
 20
225.0791227828488
 30
0.0
 11
334.0602023463882
 21
225.0791227828122
 31
0.0
  0
LINE
  5
12FC
330
1F
100
AcDbEntity
  8
AM_0
100
AcDbLine
 10
333.5187023463858
 20
225.0791227828488
 30
0.0
 11
327.0602023463573
 21
225.0791227832857
 31
0.0
  0
LINE
  5
12FE
330
1F
100
AcDbEntity
  8
0
 62
     0
100
AcDbLine
 10
320.6017023466993
 20
225.0791227837229
 30
0.0
 11
320.060202346697
 21
225.0791227837595
 31
0.0
  0
LINE
  5
12FF
330
1F
100
AcDbEntity
  8
AM_4
100
AcDbLine
 10
320.6017023468479
 20
226.1778642452469
 30
0.0
 11
320.6017023466569
 21
224.7664876129185
 31
0.0
  0
LINE
  5
1300
330
1F
100
AcDbEntity
  8
0
 62
     0
100
AcDbLine
 10
320.0602023468456
 20
226.1778642453202
 30
0.0
 11
320.0602023466969
 21
225.0791227837593
 31
0.0
  0
LINE
  5
1301
330
1F
100
AcDbEntity
  8
0
 62
     0
100
AcDbLine
 10
320.6017023466992
 20
225.0791227837226
 30
0.0
 11
320.0602023466969
 21
225.0791227837593
 31
0.0
  0
LINE
  5
1302
330
1F
100
AcDbEntity
  8
AM_0
100
AcDbLine
 10
320.6017023466992
 20
225.0791227837226
 30
0.0
 11
327.0602023467277
 21
225.0791227832857
 31
0.0
  0
LINE
  5
1303
330
1F
100
AcDbEntity
  8
0
 62
     0
100
AcDbLine
 10
321.0602023458231
 20
224.5017725144322
 30
0.0
 11
320.0602023458968
 21
225.0791227837597
 31
0.0
  0
LINE
  5
1304
330
1F
100
AcDbEntity
  8
AM_0
100
AcDbLine
 10
321.5602023468833
 20
223.6357471108572
 30
0.0
 11
332.5602023463814
 21
223.635747109832
 31
0.0
  0
LINE
  5
1321
330
1F
100
AcDbEntity
  8
0
100
AcDbLine
 10
321.5602023468833
 20
223.6357471108572
 30
0.0
 11
321.5602023468833
 21
208.0708713608571
 31
0.0
  0
LINE
  5
1322
330
1F
100
AcDbEntity
  8
0
100
AcDbLine
 10
332.560202346572
 20
223.6357471108572
 30
0.0
 11
332.560202346572
 21
207.6298748340814
 31
0.0
  0
LINE
  5
1323
330
1F
100
AcDbEntity
  8
AM_0
100
AcDbLine
 10
334.0602023463573
 20
204.7576142326653
 30
0.0
 11
334.0602023463573
 21
200.2009899056393
 31
0.0
  0
ARC
  5
1324
330
1F
100
AcDbEntity
  8
AM_0
100
AcDbCircle
 10
331.5602023463573
 20
204.7576142326653
 30
0.0
 40
2.5
100
AcDbArc
 50
0.000000000000007
 51
55.15009542095353
  0
ARC
  5
1325
330
1F
100
AcDbEntity
  8
AM_0
100
AcDbCircle
 10
333.5602023463573
 20
207.6298955559342
 30
0.0
 40
1.0
100
AcDbArc
 50
180.0
 51
235.1500954209535
  0
LINE
  5
1326
330
1F
100
AcDbEntity
  8
0
100
AcDbLine
 10
332.5602023463574
 20
207.6298955559342
 30
0.0
 11
332.5602023463574
 21
208.0708713608515
 31
0.0
  0
LINE
  5
14EC
330
1F
100
AcDbEntity
  8
AM_0
100
AcDbLine
 10
286.0107289704751
 20
234.1778642444083
 30
0.0
 11
286.0107289704751
 21
234.1778642444083
 31
0.0
  0
LINE
  5
14ED
330
1F
100
AcDbEntity
  8
0
 62
     0
100
AcDbLine
 10
273.7607289709893
 20
233.7448515425574
 30
0.0
 11
274.5107289709176
 21
234.1778642444082
 31
0.0
  0
LINE
  5
14EF
330
1F
100
AcDbEntity
  8
0
 62
     0
100
AcDbLine
 10
273.7601385659756
 20
228.3995521541955
 30
0.0
 11
274.5100313048986
 21
227.9663537239501
 31
0.0
  0
LINE
  5
14F0
330
1F
100
AcDbEntity
  8
0
 62
     0
100
AcDbLine
 10
275.0107289704315
 20
227.677864244669
 30
0.0
 11
273.7607289705509
 21
228.399552081087
 31
0.0
  0
LINE
  5
14F1
330
1F
100
AcDbEntity
  8
0
 62
     0
100
AcDbLine
 10
275.0107289704315
 20
227.677864244669
 30
0.0
 11
275.0107289708698
 21
226.1778642451732
 31
0.0
  0
LINE
  5
14F2
330
1F
100
AcDbEntity
  8
0
 62
     0
100
AcDbLine
 10
275.0107289708698
 20
226.1778642451732
 30
0.0
 11
283.0107289701047
 21
226.1778642443729
 31
0.0
  0
LINE
  5
14F3
330
1F
100
AcDbEntity
  8
0
 62
     0
100
AcDbLine
 10
273.7607289709893
 20
233.7448515425574
 30
0.0
 11
273.7607289696324
 21
228.3995520823487
 31
0.0
  0
LINE
  5
14F4
330
1F
100
AcDbEntity
  8
0
 62
     0
100
AcDbLine
 10
291.5107289701419
 20
234.1778642444082
 30
0.0
 11
292.2607289701453
 21
233.744851542514
 31
0.0
  0
LINE
  5
14F5
330
1F
100
AcDbEntity
  8
0
 62
     0
100
AcDbLine
 10
291.0107289697015
 20
227.6778642440767
 30
0.0
 11
292.2607289697069
 21
228.3995520805669
 31
0.0
  0
LINE
  5
14F6
330
1F
100
AcDbEntity
  8
0
 62
     0
100
AcDbLine
 10
291.0107289701398
 20
226.1778642443731
 30
0.0
 11
283.0107289701047
 21
226.1778642443729
 31
0.0
  0
LINE
  5
14F7
330
1F
100
AcDbEntity
  8
0
 62
     0
100
AcDbLine
 10
291.0107289702144
 20
227.6778642443729
 30
0.0
 11
291.0107289701398
 21
226.1778642443731
 31
0.0
  0
LINE
  5
14F8
330
1F
100
AcDbEntity
  8
0
 62
     0
100
AcDbLine
 10
292.2607289701453
 20
233.744851542514
 30
0.0
 11
292.2607289701453
 21
228.39955208082
 31
0.0
  0
LINE
  5
14F9
330
1F
100
AcDbEntity
  8
0
 62
     0
100
AcDbLine
 10
291.510728970142
 20
234.1778642444082
 30
0.0
 11
283.0107289701047
 21
234.1778642444083
 31
0.0
  0
LINE
  5
14FA
330
1F
100
AcDbEntity
  8
AM_0
100
AcDbLine
 10
288.4831608344411
 20
233.7448515425229
 30
0.0
 11
288.4831608340026
 21
228.399552080558
 31
0.0
  0
LINE
  5
14FB
330
1F
100
AcDbEntity
  8
AM_0
100
AcDbLine
 10
286.7882971057701
 20
233.7448515425229
 30
0.0
 11
286.7882971057701
 21
228.3995520805581
 31
0.0
  0
LINE
  5
14FC
330
1F
100
AcDbEntity
  8
AM_0
100
AcDbLine
 10
277.5382971057684
 20
233.7448515414688
 30
0.0
 11
277.5382971047388
 21
228.3995520816121
 31
0.0
  0
LINE
  5
14FD
330
1F
100
AcDbEntity
  8
AM_0
100
AcDbLine
 10
279.2331608344394
 20
233.7448515417952
 30
0.0
 11
279.2331608307751
 21
228.3995520812857
 31
0.0
  0
ARC
  5
14FE
330
1F
100
AcDbEntity
  8
AM_0
100
AcDbCircle
 10
283.0107289700666
 20
217.4837569387154
 30
0.0
 40
16.69410730569285
100
AcDbArc
 50
76.92175184739949
 51
103.0782481523331
  0
ARC
  5
14FF
330
1F
100
AcDbEntity
  8
AM_0
100
AcDbCircle
 10
290.371944902284
 20
229.8419576548527
 30
0.0
 40
4.335906589555475
100
AcDbArc
 50
64.17559387687287
 51
115.8244061228562
  0
LINE
  5
1500
330
1F
100
AcDbEntity
  8
AM_0
100
AcDbLine
 10
288.4831608344411
 20
233.7448515425229
 30
0.0
 11
286.7882971057701
 21
233.7448515425229
 31
0.0
  0
ARC
  5
1501
330
1F
100
AcDbEntity
  8
AM_0
100
AcDbCircle
 10
275.649513038684
 20
229.8419576534347
 30
0.0
 40
4.335906589555475
100
AcDbArc
 50
64.17559388818007
 51
115.8244061341663
  0
LINE
  5
1502
330
1F
100
AcDbEntity
  8
AM_0
100
AcDbLine
 10
277.5382971057752
 20
233.7448515414688
 30
0.0
 11
279.2331608344461
 21
233.7448515417952
 31
0.0
  0
ARC
  5
1503
330
1F
100
AcDbEntity
  8
AM_0
100
AcDbCircle
 10
283.0107289696282
 20
244.6606466843655
 30
0.0
 40
16.69410730569285
100
AcDbArc
 50
256.9217518476669
 51
283.0782481526005
  0
ARC
  5
1504
330
1F
100
AcDbEntity
  8
AM_0
100
AcDbCircle
 10
290.3719449018457
 20
232.3024459682281
 30
0.0
 40
4.335906589555475
100
AcDbArc
 50
244.1755938771402
 51
295.8244061231308
  0
LINE
  5
1505
330
1F
100
AcDbEntity
  8
AM_0
100
AcDbLine
 10
288.4831608340027
 20
228.399552080558
 30
0.0
 11
286.7882971053317
 21
228.3995520805581
 31
0.0
  0
ARC
  5
1506
330
1F
100
AcDbEntity
  8
AM_0
100
AcDbCircle
 10
275.6495130382456
 20
232.3024459696461
 30
0.0
 40
4.335906589555475
100
AcDbArc
 50
244.1755938658337
 51
295.8244061118199
  0
LINE
  5
1507
330
1F
100
AcDbEntity
  8
AM_0
100
AcDbLine
 10
277.5382971053367
 20
228.3995520816122
 30
0.0
 11
279.2331608340077
 21
228.3995520812857
 31
0.0
  0
LINE
  5
1508
330
1F
100
AcDbEntity
  8
AM_0
100
AcDbLine
 10
291.0107289697015
 20
227.6778642440767
 30
0.0
 11
275.0107289704315
 21
227.677864244669
 31
0.0
  0
LINE
  5
1509
330
1F
100
AcDbEntity
  8
0
 62
     0
100
AcDbLine
 10
327.0602023463565
 20
234.1778642444083
 30
0.0
 11
319.0602023471216
 21
234.1778642444082
 31
0.0
  0
LINE
  5
150A
330
1F
100
AcDbEntity
  8
0
 62
     0
100
AcDbLine
 10
319.0602023471216
 20
227.6778642443729
 30
0.0
 11
319.0602023471216
 21
226.1778642451732
 31
0.0
  0
LINE
  5
150B
330
1F
100
AcDbEntity
  8
0
 62
     0
100
AcDbLine
 10
319.0602023471216
 20
226.1778642451732
 30
0.0
 11
327.0602023463565
 21
226.1778642443729
 31
0.0
  0
LINE
  5
150C
330
1F
100
AcDbEntity
  8
0
 62
     0
100
AcDbLine
 10
335.0602023463916
 20
226.1778642443732
 30
0.0
 11
327.0602023463565
 21
226.1778642443729
 31
0.0
  0
LINE
  5
150D
330
1F
100
AcDbEntity
  8
0
 62
     0
100
AcDbLine
 10
335.0602023463916
 20
227.6778642448348
 30
0.0
 11
335.0602023463916
 21
226.1778642443732
 31
0.0
  0
LINE
  5
150E
330
1F
100
AcDbEntity
  8
0
 62
     0
100
AcDbLine
 10
335.0602023455915
 20
234.1778642444082
 30
0.0
 11
327.0602023463565
 21
234.1778642444083
 31
0.0
  0
LINE
  5
150F
330
1F
100
AcDbEntity
  8
AM_0
100
AcDbLine
 10
335.0602023463916
 20
227.6778642437805
 30
0.0
 11
319.0602023471216
 21
227.6778642443729
 31
0.0
  0
LINE
  5
1510
330
1F
100
AcDbEntity
  8
AM_0
100
AcDbLine
 10
318.5602023463565
 20
233.7448515425574
 30
0.0
 11
319.0602023471216
 21
234.1778642444082
 31
0.0
  0
ARC
  5
1511
330
1F
100
AcDbEntity
  8
AM_0
100
AcDbCircle
 10
322.8102023463269
 20
221.6031571770919
 30
0.0
 40
12.57470706731631
100
AcDbArc
 50
74.92028252247369
 51
105.0797174772498
  0
LINE
  5
1512
330
1F
100
AcDbEntity
  8
AM_0
100
AcDbLine
 10
326.0816723163687
 20
233.7448515425391
 30
0.0
 11
328.0387323763443
 21
233.7448515425391
 31
0.0
  0
LINE
  5
1513
330
1F
100
AcDbEntity
  8
AM_0
100
AcDbLine
 10
326.0816723163684
 20
228.3995520801472
 30
0.0
 11
326.0816723163687
 21
233.7448515425391
 31
0.0
  0
LINE
  5
1514
330
1F
100
AcDbEntity
  8
AM_0
100
AcDbLine
 10
328.0387323765637
 20
228.3995520801473
 30
0.0
 11
328.0387323765637
 21
233.7448515425391
 31
0.0
  0
LINE
  5
1515
330
1F
100
AcDbEntity
  8
AM_0
100
AcDbLine
 10
319.5387323763445
 20
233.744851542555
 30
0.0
 11
318.5602023463565
 21
233.744851542555
 31
0.0
  0
LINE
  5
1516
330
1F
100
AcDbEntity
  8
AM_0
100
AcDbLine
 10
319.5387323763445
 20
233.744851542555
 30
0.0
 11
319.5387323763445
 21
228.3995520801313
 31
0.0
  0
LINE
  5
1517
330
1F
100
AcDbEntity
  8
AM_0
100
AcDbLine
 10
318.5602023463565
 20
233.744851542555
 30
0.0
 11
318.5602023463565
 21
228.1108769459276
 31
0.0
  0
ARC
  5
1518
330
1F
100
AcDbEntity
  8
AM_0
100
AcDbCircle
 10
322.8102023463269
 20
240.5412464455944
 30
0.0
 40
12.57470706731631
100
AcDbArc
 50
254.9202825227502
 51
285.0797174775262
  0
LINE
  5
1519
330
1F
100
AcDbEntity
  8
AM_0
100
AcDbLine
 10
319.5387323763445
 20
228.3995520801313
 30
0.0
 11
318.5602023463565
 21
228.3995520801313
 31
0.0
  0
LINE
  5
151A
330
1F
100
AcDbEntity
  8
AM_0
100
AcDbLine
 10
326.0816723163685
 20
228.3995520801472
 30
0.0
 11
328.0387323765637
 21
228.3995520801472
 31
0.0
  0
ARC
  5
151B
330
1F
100
AcDbEntity
  8
AM_0
100
AcDbCircle
 10
331.3102023454552
 20
221.6031571767772
 30
0.0
 40
12.57470706731631
100
AcDbArc
 50
74.92028251850689
 51
105.079717473283
  0
LINE
  5
151C
330
1F
100
AcDbEntity
  8
AM_0
100
AcDbLine
 10
334.5816723163366
 20
233.7448515419982
 30
0.0
 11
335.5602023463244
 21
233.7448515419257
 31
0.0
  0
LINE
  5
151D
330
1F
100
AcDbEntity
  8
AM_0
100
AcDbLine
 10
334.5816723163365
 20
233.7448515419982
 30
0.0
 11
334.58167231616
 21
228.3995520795744
 31
0.0
  0
ARC
  5
151E
330
1F
100
AcDbEntity
  8
AM_0
100
AcDbCircle
 10
331.3102023469
 20
240.5412464452797
 30
0.0
 40
12.57470706731631
100
AcDbArc
 50
254.9202825182303
 51
285.0797174730065
  0
LINE
  5
151F
330
1F
100
AcDbEntity
  8
AM_0
100
AcDbLine
 10
334.5816723159836
 20
228.3995520795744
 30
0.0
 11
335.5602023459714
 21
228.3995520795019
 31
0.0
  0
LINE
  5
1520
330
1F
100
AcDbEntity
  8
AM_0
100
AcDbLine
 10
335.5602023463565
 20
233.7448515425574
 30
0.0
 11
335.0602023455915
 21
234.1778642444082
 31
0.0
  0
LINE
  5
1521
330
1F
100
AcDbEntity
  8
AM_0
100
AcDbLine
 10
335.5602023463565
 20
233.744851542555
 30
0.0
 11
335.5602023463565
 21
228.1108769459276
 31
0.0
  0
LINE
  5
1522
330
1F
100
AcDbEntity
  8
0
100
AcDbLine
 10
291.0107289701398
 20
227.6778642443729
 30
0.0
 11
275.0107289708698
 21
227.6778642443729
 31
0.0
  0
LINE
  5
1523
330
1F
100
AcDbEntity
  8
AM_0
100
AcDbLine
 10
318.5602023463565
 20
228.1108769459276
 30
0.0
 11
319.0602023471216
 21
227.6778642440768
 31
0.0
  0
LINE
  5
1524
330
1F
100
AcDbEntity
  8
AM_0
100
AcDbLine
 10
335.5602023463565
 20
228.1108769459276
 30
0.0
 11
335.0602023455914
 21
227.6778642440768
 31
0.0
  0
LINE
  5
153F
330
1F
100
AcDbEntity
  8
0
 62
     0
100
AcDbLine
 10
278.6088051818608
 20
208.2765554112675
 30
0.0
 11
278.6088051818608
 21
213.2009899056392
 31
0.0
  0
LINE
  5
1540
330
1F
100
AcDbEntity
  8
0
100
AcDbLine
 10
276.0107289707673
 20
217.5343232385393
 30
0.0
 11
276.0107289707672
 21
208.8676565727393
 31
0.0
  0
ARC
  5
1541
330
1F
100
AcDbEntity
  8
0
 62
     0
100
AcDbCircle
 10
287.3440623029672
 20
205.5343232397393
 30
0.0
 40
0.6666666666
100
AcDbArc
 50
0.000000000000007
 51
90.0
  0
LINE
  5
1544
330
1F
100
AcDbEntity
  8
0
 62
     0
100
AcDbLine
 10
276.3078928289015
 20
206.3169998231351
 30
0.0
 11
278.3247760985053
 21
207.7306314932676
 31
0.0
  0
LINE
  5
1545
330
1F
100
AcDbEntity
  8
0
 62
     0
100
AcDbLine
 10
267.0107289700673
 20
208.2009899061393
 30
0.0
 11
275.3440623041673
 21
208.2009899061393
 31
0.0
  0
ARC
  5
1546
330
1F
100
AcDbEntity
  8
0
 62
     0
100
AcDbCircle
 10
275.3440623041673
 20
208.8676565727393
 30
0.0
 40
0.6666666666
100
AcDbArc
 50
270.0
 51
0.000000000000007
  0
LINE
  5
1547
330
1F
100
AcDbEntity
  8
0
 62
     0
100
AcDbLine
 10
278.0107289705672
 20
205.5343232397393
 30
0.0
 11
278.0107289705672
 21
200.2009899056395
 31
0.0
  0
LINE
  5
1548
330
1F
100
AcDbEntity
  8
0
100
AcDbLine
 10
287.3440623029672
 20
206.2009899063393
 30
0.0
 11
278.6773956371673
 21
206.2009899063393
 31
0.0
  0
ARC
  5
1549
330
1F
100
AcDbEntity
  8
0
 62
     0
100
AcDbCircle
 10
278.6773956371673
 20
205.5343232397393
 30
0.0
 40
0.6666666666
100
AcDbArc
 50
90.0
 51
180.0
  0
ARC
  5
154A
330
1F
100
AcDbEntity
  8
0
 62
     0
100
AcDbCircle
 10
277.9421385152608
 20
208.2765554112675
 30
0.0
 40
0.6666666666
100
AcDbArc
 50
305.026579209233
 51
0.000000000000007
  0
LINE
  5
154B
330
1F
100
AcDbEntity
  8
0
 62
     0
100
AcDbLine
 10
288.0107289695672
 20
205.5343232397393
 30
0.0
 11
288.0107289695672
 21
200.2009899056393
 31
0.0
  0
LINE
  5
154C
330
1F
100
AcDbEntity
  8
0
 62
     0
100
AcDbLine
 10
267.0107289700673
 20
218.2009899051393
 30
0.0
 11
275.3440623041673
 21
218.2009899051393
 31
0.0
  0
ARC
  5
154D
330
1F
100
AcDbEntity
  8
0
 62
     0
100
AcDbCircle
 10
275.3440623041673
 20
217.5343232385393
 30
0.0
 40
0.6666666666
100
AcDbArc
 50
0.000000000000007
 51
90.0
  0
LINE
  5
154E
330
1F
100
AcDbEntity
  8
0
 62
     0
100
AcDbLine
 10
279.1965820640593
 20
218.3507120786499
 30
0.0
 11
279.1965820640593
 21
213.2009899056393
 31
0.0
  0
ARC
  5
154F
330
1F
100
AcDbEntity
  8
0
 62
     0
100
AcDbCircle
 10
277.5107289706173
 20
218.3507120786499
 30
0.0
 40
1.685853093442103
100
AcDbArc
 50
0.000000000000007
 51
90.0
  0
LINE
  5
1573
330
1F
100
AcDbEntity
  8
0
 62
     0
100
AcDbLine
 10
288.5753955086835
 20
207.2761282369013
 30
0.0
 11
278.7873403865344
 21
207.2761282369013
 31
0.0
  0
MTEXT
  5
157E
330
1F
100
AcDbEntity
  8
AM_0
100
AcDbMText
 10
309.9553546709779
 20
278.8559133096037
 30
0.0
 40
1.6
 41
32.31955848564906
 71
     1
 72
     5
  1
{\fMS PGothic|b0|i0|c128|p50;チッコロ　アングル　CM-3011}
 73
     1
 44
1.0
1001
ACAD
1000
ACAD_MTEXT_COLUMN_INFO_BEGIN
1070
    75
1070
     2
1070
    79
1070
     0
1070
    76
1070
     1
1070
    78
1070
     0
1070
    48
1040
32.31955848564906
1070
    49
1040
8.0
1070
    50
1070
     1
1040
0.0
1000
ACAD_MTEXT_COLUMN_INFO_END
1000
MTEXTBEGIN
1070
    73
1070
     1
1070
    44
1040
1.0
1070
    74
1070
     0
1000
MTEXTEND
  0
LINE
  5
16E6
330
1F
100
AcDbEntity
  8
0
 62
     0
100
AcDbLine
 10
282.6540827764922
 20
216.3984753361985
 30
0.0
 11
281.4090675892209
 21
212.5667125908004
 31
0.0
  0
LINE
  5
16E7
330
1F
100
AcDbEntity
  8
0
 62
     0
100
AcDbLine
 10
283.3673751636423
 20
216.3984753361985
 30
0.0
 11
284.6123903509135
 21
212.5667125908004
 31
0.0
  0
ARC
  5
16E8
330
1F
100
AcDbEntity
  8
0
 62
     0
100
AcDbCircle
 10
283.0107289700673
 20
214.3409531770137
 30
0.0
 40
0.149999999985
100
AcDbArc
 50
18.00000000000103
 51
161.9999999999989
  0
ARC
  5
16E9
330
1F
100
AcDbEntity
  8
0
 62
     0
100
AcDbCircle
 10
283.0107289700673
 20
208.2434531776236
 30
0.0
 40
2.999999999699999
100
AcDbArc
 50
55.822409278222
 51
124.177590721778
  0
LINE
  5
16EA
330
1F
100
AcDbEntity
  8
0
 62
     0
100
AcDbLine
 10
282.3210869148819
 20
212.068453177241
 30
0.0
 11
283.7003710252526
 21
212.068453177241
 31
0.0
  0
LINE
  5
16EB
330
1F
100
AcDbEntity
  8
0
 62
     0
100
AcDbLine
 10
282.8680704926372
 20
214.3873057261654
 30
0.0
 11
282.1784284374518
 21
212.2648057263776
 31
0.0
  0
ARC
  5
16EC
330
1F
100
AcDbEntity
  8
0
 62
     0
100
AcDbCircle
 10
280.8744384850963
 20
211.9325939637545
 30
0.0
 40
0.3749999999625
100
AcDbArc
 50
90.0
 51
194.9999999999992
  0
LINE
  5
16ED
330
1F
100
AcDbEntity
  8
0
 62
     0
100
AcDbLine
 10
280.7525672893855
 20
210.9385347188375
 30
0.0
 11
280.5122163002741
 21
211.8355368218507
 31
0.0
  0
ARC
  5
16EE
330
1F
100
AcDbEntity
  8
0
 62
     0
100
AcDbCircle
 10
281.0524213956459
 20
212.6825939636794
 30
0.0
 40
0.3749999999625
100
AcDbArc
 50
270.0
 51
341.999999999999
  0
LINE
  5
16EF
330
1F
100
AcDbEntity
  8
0
 62
     0
100
AcDbLine
 10
280.8744384850963
 20
212.3075939637169
 30
0.0
 11
281.0524213956459
 21
212.3075939637169
 31
0.0
  0
ARC
  5
16F0
330
1F
100
AcDbEntity
  8
0
 62
     0
100
AcDbCircle
 10
282.3210869148819
 20
212.218453177226
 30
0.0
 40
0.149999999985
100
AcDbArc
 50
161.9999999999989
 51
270.0
  0
ARC
  5
16F1
330
1F
100
AcDbEntity
  8
0
 62
     0
100
AcDbCircle
 10
281.1147894742077
 20
211.0355918607412
 30
0.0
 40
0.3749999999625
100
AcDbArc
 50
194.9999999999976
 51
304.1775907217779
  0
ARC
  5
16F2
330
1F
100
AcDbEntity
  8
0
 62
     0
100
AcDbCircle
 10
285.1470194550381
 20
211.9325939637544
 30
0.0
 40
0.3749999999625
100
AcDbArc
 50
344.9999999999984
 51
90.0
  0
LINE
  5
16F3
330
1F
100
AcDbEntity
  8
0
 62
     0
100
AcDbLine
 10
285.5092416398603
 20
211.8355368218507
 30
0.0
 11
285.2688906507489
 21
210.9385347188375
 31
0.0
  0
LINE
  5
16F4
330
1F
100
AcDbEntity
  8
0
 62
     0
100
AcDbLine
 10
285.2688906507489
 20
210.9385347188375
 30
0.0
 11
285.5092416398603
 21
211.8355368218507
 31
0.0
  0
LINE
  5
16F5
330
1F
100
AcDbEntity
  8
0
 62
     0
100
AcDbLine
 10
284.9690365444885
 20
212.3075939637169
 30
0.0
 11
285.1470194550381
 21
212.3075939637169
 31
0.0
  0
ARC
  5
16F6
330
1F
100
AcDbEntity
  8
0
 62
     0
100
AcDbCircle
 10
283.7003710252526
 20
212.218453177226
 30
0.0
 40
0.149999999985
100
AcDbArc
 50
270.0
 51
18.00000000000103
  0
ARC
  5
16F7
330
1F
100
AcDbEntity
  8
0
 62
     0
100
AcDbCircle
 10
284.9690365444885
 20
212.6825939636794
 30
0.0
 40
0.3749999999625
100
AcDbArc
 50
198.000000000001
 51
270.0
  0
ARC
  5
16F8
330
1F
100
AcDbEntity
  8
0
 62
     0
100
AcDbCircle
 10
284.9066684659268
 20
211.0355918607412
 30
0.0
 40
0.3749999999625
100
AcDbArc
 50
235.822409278222
 51
345.0000000000024
  0
ARC
  5
16F9
330
1F
100
AcDbEntity
  8
0
 62
     0
100
AcDbCircle
 10
283.0107289700673
 20
216.2825939633195
 30
0.0
 40
0.3749999999625
100
AcDbArc
 50
18.00000000000103
 51
161.9999999999989
  0
LINE
  5
16FA
330
1F
100
AcDbEntity
  8
0
 62
     0
100
AcDbLine
 10
281.0524213956459
 20
212.3075939637169
 30
0.0
 11
280.8744384850963
 21
212.3075939637169
 31
0.0
  0
LINE
  5
16FB
330
1F
100
AcDbEntity
  8
0
 62
     0
100
AcDbLine
 10
280.7525672893856
 20
210.9385347188375
 30
0.0
 11
280.5122163002741
 21
211.8355368218507
 31
0.0
  0
LINE
  5
16FC
330
1F
100
AcDbEntity
  8
0
 62
     0
100
AcDbLine
 10
280.5122163002741
 20
211.8355368218507
 30
0.0
 11
280.7525672893856
 21
210.9385347188375
 31
0.0
  0
ARC
  5
16FD
330
1F
100
AcDbEntity
  8
0
 62
     0
100
AcDbCircle
 10
280.8744384850963
 20
211.9325939637544
 30
0.0
 40
0.3749999999625
100
AcDbArc
 50
90.0
 51
194.9999999999992
  0
LINE
  5
16FE
330
1F
100
AcDbEntity
  8
0
 62
     0
100
AcDbLine
 10
283.1533874474973
 20
214.3873057261654
 30
0.0
 11
283.8430295026827
 21
212.2648057263776
 31
0.0
  0
ARC
  5
16FF
330
1F
100
AcDbEntity
  8
0
 62
     0
100
AcDbCircle
 10
320.4269527661966
 20
203.2009899056394
 30
0.0
 40
5.0
100
AcDbArc
 50
76.9000818452447
 51
90.0
  0
LINE
  5
1700
330
1F
100
AcDbEntity
  8
0
 62
     0
100
AcDbLine
 10
320.0602023469074
 20
218.2009899056394
 30
0.0
 11
320.0602023469074
 21
208.2009899056394
 31
0.0
  0
LINE
  5
1701
330
1F
100
AcDbEntity
  8
0
 62
     0
100
AcDbLine
 10
320.4269527661966
 20
208.2009899056394
 30
0.0
 11
320.0602023469074
 21
208.2009899056394
 31
0.0
  0
ARC
  5
1702
330
1F
100
AcDbEntity
  8
0
 62
     0
100
AcDbCircle
 10
320.4269527661966
 20
223.2009899056394
 30
0.0
 40
5.0
100
AcDbArc
 50
270.0
 51
283.0999181522274
  0
LINE
  5
1703
330
1F
100
AcDbEntity
  8
0
 62
     0
100
AcDbLine
 10
320.0602023469074
 20
218.2009899056394
 30
0.0
 11
320.4269527661966
 21
218.2009899056394
 31
0.0
  0
LINE
  5
1704
330
1F
100
AcDbEntity
  8
AM_0
100
AcDbLine
 10
322.052642747383
 20
199.7648970904173
 30
0.0
 11
322.052642747383
 21
200.2009899056393
 31
0.0
  0
LINE
  5
1705
330
1F
100
AcDbEntity
  8
AM_0
100
AcDbLine
 10
322.052642747383
 20
200.2009899056393
 30
0.0
 11
320.0602023469074
 21
200.2009899056393
 31
0.0
  0
LINE
  5
1706
330
1F
100
AcDbEntity
  8
AM_0
100
AcDbLine
 10
320.0602023469074
 20
204.7576142326653
 30
0.0
 11
320.0602023469074
 21
200.2009899056393
 31
0.0
  0
ARC
  5
1707
330
1F
100
AcDbEntity
  8
AM_0
100
AcDbCircle
 10
322.5602023469074
 20
204.7576142326653
 30
0.0
 40
2.5
100
AcDbArc
 50
124.8499045790457
 51
180.0
  0
ARC
  5
1708
330
1F
100
AcDbEntity
  8
AM_0
100
AcDbCircle
 10
320.5602023469074
 20
207.6298955559342
 30
0.0
 40
1.0
100
AcDbArc
 50
304.8499045790457
 51
0.000000000000007
  0
LINE
  5
1709
330
1F
100
AcDbEntity
  8
0
100
AcDbLine
 10
321.5602023469074
 20
207.6298955559342
 30
0.0
 11
321.5602023469074
 21
208.0708713608515
 31
0.0
  0
ARC
  5
17FC
330
1F
100
AcDbEntity
  8
AM_0
100
AcDbCircle
 10
273.255260795338
 20
250.0073299015074
 30
0.0
 40
1.754268068723236
100
AcDbArc
 50
8.052279597304684
 51
171.9477204026921
  0
ARC
  5
17FD
330
1F
100
AcDbEntity
  8
AM_0
100
AcDbCircle
 10
279.2844717034885
 20
248.7868985296845
 30
0.0
 40
2.97469944054606
100
AcDbArc
 50
19.12700048611884
 51
160.8729995138811
  0
LINE
  5
17FE
330
1F
100
AcDbEntity
  8
AM_0
100
AcDbLine
 10
271.5182886381366
 20
250.2530618327841
 30
0.0
 11
271.5182886381366
 21
240.7615979702306
 31
0.0
  0
LINE
  5
17FF
330
1F
100
AcDbEntity
  8
AM_0
100
AcDbLine
 10
282.0949516913525
 20
249.7615979702306
 30
0.0
 11
282.0949516913525
 21
240.7615979702306
 31
0.0
  0
LINE
  5
1800
330
1F
100
AcDbEntity
  8
AM_0
100
AcDbLine
 10
276.4739917156244
 20
249.7615979702304
 30
0.0
 11
276.4739917156244
 21
240.7615979702306
 31
0.0
  0
LINE
  5
1801
330
1F
100
AcDbEntity
  8
AM_0
100
AcDbLine
 10
274.9922329525393
 20
250.2530618327846
 30
0.0
 11
274.9922329525394
 21
240.7615979702306
 31
0.0
  0
ARC
  5
1802
330
1F
100
AcDbEntity
  8
AM_0
100
AcDbCircle
 10
272.5107289700672
 20
249.7615979702306
 30
0.0
 40
2.0
100
AcDbArc
 50
90.0
 51
180.0
1001
GENIUS_GENODEF_13
1002
{
1000
HIER
1070
     0
1002
}
1002
{
1000
MANEDIT
1070
     0
1002
}
1002
{
1000
NOSEL
1070
     0
1002
}
1002
{
1000
BEHIND
1070
     0
1002
}
1002
{
1000
REACTOR
1002
}
1001
GENIUS_GENOBJ-N-FIL_13
1002
{
1000
OWNER
1000
GEN
1002
}
  0
LINE
  5
1803
330
1F
100
AcDbEntity
  8
AM_0
100
AcDbLine
 10
272.5107289700672
 20
251.7615979702306
 30
0.0
 11
283.0107289700673
 21
251.7615979702306
 31
0.0
  0
LINE
  5
1804
330
1F
100
AcDbEntity
  8
AM_0
100
AcDbLine
 10
272.5107289700668
 20
239.7615979702303
 30
0.0
 11
283.0107289700673
 21
239.7615979702303
 31
0.0
  0
LINE
  5
1805
330
1F
100
AcDbEntity
  8
AM_0
100
AcDbLine
 10
271.0107289700673
 20
240.7615979702303
 30
0.0
 11
283.0107289700673
 21
240.7615979702306
 31
0.0
  0
LINE
  5
1806
330
1F
100
AcDbEntity
  8
AM_0
100
AcDbLine
 10
272.5107289700668
 20
240.7615979702303
 30
0.0
 11
272.5107289700668
 21
239.7615979702303
 31
0.0
  0
LINE
  5
1807
330
1F
100
AcDbEntity
  8
AM_0
100
AcDbLine
 10
270.5107289700672
 20
249.7615979702306
 30
0.0
 11
270.5107289700673
 21
241.2615979702303
 31
0.0
  0
ARC
  5
1808
330
1F
100
AcDbEntity
  8
AM_0
100
AcDbCircle
 10
271.0107289700673
 20
241.2615979702303
 30
0.0
 40
0.5
100
AcDbArc
 50
180.0
 51
270.0
  0
LINE
  5
1809
330
1F
100
AcDbEntity
  8
AM_0
100
AcDbLine
 10
273.0107289700672
 20
253.7615979702306
 30
0.0
 11
293.0107289700672
 21
253.7615979702306
 31
0.0
  0
ARC
  5
180A
330
1F
100
AcDbEntity
  8
AM_0
100
AcDbCircle
 10
273.0107289700672
 20
253.2615979702306
 30
0.0
 40
0.5
100
AcDbArc
 50
90.0
 51
180.0
  0
ARC
  5
180B
330
1F
100
AcDbEntity
  8
AM_0
100
AcDbCircle
 10
293.0107289700672
 20
253.2615979702306
 30
0.0
 40
0.5
100
AcDbArc
 50
0.0
 51
90.0
  0
LINE
  5
180C
330
1F
100
AcDbEntity
  8
AM_0
100
AcDbLine
 10
272.5107289700672
 20
251.7615979702306
 30
0.0
 11
272.5107289700672
 21
253.2615979702306
 31
0.0
  0
ARC
  5
180D
330
1F
100
AcDbEntity
  8
AM_0
100
AcDbCircle
 10
292.7661971447965
 20
250.0073299015073
 30
0.0
 40
1.754268068723236
100
AcDbArc
 50
8.052279597307908
 51
171.9477204026953
  0
ARC
  5
180E
330
1F
100
AcDbEntity
  8
AM_0
100
AcDbCircle
 10
286.736986236646
 20
248.7868985296845
 30
0.0
 40
2.97469944054606
100
AcDbArc
 50
19.12700048611884
 51
160.8729995138811
  0
LINE
  5
180F
330
1F
100
AcDbEntity
  8
AM_0
100
AcDbLine
 10
294.5031693019979
 20
250.2530618327841
 30
0.0
 11
294.5031693019978
 21
240.7615979702306
 31
0.0
  0
LINE
  5
1810
330
1F
100
AcDbEntity
  8
AM_0
100
AcDbLine
 10
283.926506248782
 20
249.7615979702306
 30
0.0
 11
283.9265062487818
 21
240.7615979702306
 31
0.0
  0
LINE
  5
1811
330
1F
100
AcDbEntity
  8
AM_0
100
AcDbLine
 10
289.5474662245101
 20
249.7615979702304
 30
0.0
 11
289.5474662245099
 21
240.7615979702306
 31
0.0
  0
LINE
  5
1812
330
1F
100
AcDbEntity
  8
AM_0
100
AcDbLine
 10
291.0292249875951
 20
250.2530618327846
 30
0.0
 11
291.0292249875949
 21
240.7615979702306
 31
0.0
  0
ARC
  5
1813
330
1F
100
AcDbEntity
  8
AM_0
100
AcDbCircle
 10
293.5107289700673
 20
249.7615979702306
 30
0.0
 40
2.0
100
AcDbArc
 50
0.0
 51
90.0
1001
GENIUS_GENODEF_13
1002
{
1000
HIER
1070
     0
1002
}
1002
{
1000
MANEDIT
1070
     0
1002
}
1002
{
1000
NOSEL
1070
     0
1002
}
1002
{
1000
BEHIND
1070
     0
1002
}
1002
{
1000
REACTOR
1002
}
1001
GENIUS_GENOBJ-N-FIL_13
1002
{
1000
OWNER
1000
GEN
1002
}
  0
LINE
  5
1814
330
1F
100
AcDbEntity
  8
AM_0
100
AcDbLine
 10
293.5107289700673
 20
251.7615979702306
 30
0.0
 11
283.0107289700672
 21
251.7615979702306
 31
0.0
  0
LINE
  5
1815
330
1F
100
AcDbEntity
  8
AM_0
100
AcDbLine
 10
293.5107289700676
 20
239.7615979702303
 30
0.0
 11
283.0107289700671
 21
239.7615979702303
 31
0.0
  0
LINE
  5
1816
330
1F
100
AcDbEntity
  8
AM_0
100
AcDbLine
 10
295.010728970067
 20
240.7615979702302
 30
0.0
 11
283.0107289700671
 21
240.7615979702306
 31
0.0
  0
LINE
  5
1817
330
1F
100
AcDbEntity
  8
AM_0
100
AcDbLine
 10
293.5107289700676
 20
240.7615979702303
 30
0.0
 11
293.5107289700676
 21
239.7615979702303
 31
0.0
  0
LINE
  5
1818
330
1F
100
AcDbEntity
  8
AM_0
100
AcDbLine
 10
295.5107289700673
 20
249.7615979702305
 30
0.0
 11
295.510728970067
 21
241.2615979702302
 31
0.0
  0
ARC
  5
1819
330
1F
100
AcDbEntity
  8
AM_0
100
AcDbCircle
 10
295.010728970067
 20
241.2615979702302
 30
0.0
 40
0.5
100
AcDbArc
 50
269.9999999999968
 51
0.0
  0
LINE
  5
181A
330
1F
100
AcDbEntity
  8
AM_0
100
AcDbLine
 10
293.5107289700673
 20
251.7615979702306
 30
0.0
 11
293.5107289700673
 21
253.2615979702306
 31
0.0
  0
ARC
  5
181B
330
1F
100
AcDbEntity
  8
AM_0
100
AcDbCircle
 10
327.060202346357
 20
248.5810830964861
 30
0.0
 40
3.182186574793173
100
AcDbArc
 50
21.77582284696096
 51
158.2241771530348
  0
LINE
  5
181C
330
1F
100
AcDbEntity
  8
AM_0
100
AcDbLine
 10
330.0153158855738
 20
249.7615979702306
 30
0.0
 11
330.0153158855738
 21
240.7615979702306
 31
0.0
  0
LINE
  5
181D
330
1F
100
AcDbEntity
  8
AM_0
100
AcDbLine
 10
324.1050888071403
 20
249.7615979702304
 30
0.0
 11
324.1050888071403
 21
240.7615979702306
 31
0.0
  0
ARC
  5
181E
330
1F
100
AcDbEntity
  8
AM_0
100
AcDbCircle
 10
316.560202346357
 20
249.7615979702306
 30
0.0
 40
2.0
100
AcDbArc
 50
90.0
 51
180.0
1001
GENIUS_GENODEF_13
1002
{
1000
HIER
1070
     0
1002
}
1002
{
1000
MANEDIT
1070
     0
1002
}
1002
{
1000
NOSEL
1070
     0
1002
}
1002
{
1000
BEHIND
1070
     0
1002
}
1002
{
1000
REACTOR
1002
}
1001
GENIUS_GENOBJ-N-FIL_13
1002
{
1000
OWNER
1000
GEN
1002
}
  0
LINE
  5
181F
330
1F
100
AcDbEntity
  8
AM_0
100
AcDbLine
 10
316.560202346357
 20
251.7615979702306
 30
0.0
 11
327.0602023463571
 21
251.7615979702306
 31
0.0
  0
LINE
  5
1820
330
1F
100
AcDbEntity
  8
AM_0
100
AcDbLine
 10
316.5602023463567
 20
239.7615979702303
 30
0.0
 11
327.0602023463571
 21
239.7615979702303
 31
0.0
  0
LINE
  5
1821
330
1F
100
AcDbEntity
  8
AM_0
100
AcDbLine
 10
315.0602023463571
 20
240.7615979702303
 30
0.0
 11
327.0602023463571
 21
240.7615979702306
 31
0.0
  0
LINE
  5
1822
330
1F
100
AcDbEntity
  8
AM_0
100
AcDbLine
 10
316.5602023463567
 20
240.7615979702303
 30
0.0
 11
316.5602023463567
 21
239.7615979702303
 31
0.0
  0
LINE
  5
1823
330
1F
100
AcDbEntity
  8
AM_0
100
AcDbLine
 10
314.560202346357
 20
249.7615979702306
 30
0.0
 11
314.5602023463571
 21
241.2615979702303
 31
0.0
  0
ARC
  5
1824
330
1F
100
AcDbEntity
  8
AM_0
100
AcDbCircle
 10
315.0602023463571
 20
241.2615979702303
 30
0.0
 40
0.5
100
AcDbArc
 50
180.0
 51
270.0
  0
LINE
  5
1825
330
1F
100
AcDbEntity
  8
AM_0
100
AcDbLine
 10
317.060202346357
 20
253.7615979702306
 30
0.0
 11
337.0602023463576
 21
253.7615979702306
 31
0.0
  0
ARC
  5
1826
330
1F
100
AcDbEntity
  8
AM_0
100
AcDbCircle
 10
317.060202346357
 20
253.2615979702306
 30
0.0
 40
0.5
100
AcDbArc
 50
90.0
 51
180.0
  0
ARC
  5
1827
330
1F
100
AcDbEntity
  8
AM_0
100
AcDbCircle
 10
337.0602023463576
 20
253.2615979702306
 30
0.0
 40
0.5
100
AcDbArc
 50
0.0000000000032569
 51
90.0
  0
LINE
  5
1828
330
1F
100
AcDbEntity
  8
AM_0
100
AcDbLine
 10
316.560202346357
 20
251.7615979702306
 30
0.0
 11
316.560202346357
 21
253.2615979702306
 31
0.0
  0
ARC
  5
1829
330
1F
100
AcDbEntity
  8
AM_0
100
AcDbCircle
 10
337.5602023463578
 20
249.7615979702312
 30
0.0
 40
2.0
100
AcDbArc
 50
0.0000000000032569
 51
90.00000000000323
1001
GENIUS_GENODEF_13
1002
{
1000
HIER
1070
     0
1002
}
1002
{
1000
MANEDIT
1070
     0
1002
}
1002
{
1000
NOSEL
1070
     0
1002
}
1002
{
1000
BEHIND
1070
     0
1002
}
1002
{
1000
REACTOR
1002
}
1001
GENIUS_GENOBJ-N-FIL_13
1002
{
1000
OWNER
1000
GEN
1002
}
  0
LINE
  5
182A
330
1F
100
AcDbEntity
  8
AM_0
100
AcDbLine
 10
337.5602023463577
 20
251.7615979702312
 30
0.0
 11
327.0602023463576
 21
251.7615979702306
 31
0.0
  0
LINE
  5
182B
330
1F
100
AcDbEntity
  8
AM_0
100
AcDbLine
 10
337.5602023463587
 20
239.7615979702308
 30
0.0
 11
327.0602023463583
 21
239.7615979702303
 31
0.0
  0
LINE
  5
182C
330
1F
100
AcDbEntity
  8
AM_0
100
AcDbLine
 10
339.0602023463582
 20
240.761597970231
 30
0.0
 11
327.0602023463583
 21
240.7615979702306
 31
0.0
  0
LINE
  5
182D
330
1F
100
AcDbEntity
  8
AM_0
100
AcDbLine
 10
337.5602023463587
 20
240.7615979702308
 30
0.0
 11
337.5602023463587
 21
239.7615979702308
 31
0.0
  0
LINE
  5
182E
330
1F
100
AcDbEntity
  8
AM_0
100
AcDbLine
 10
339.5602023463578
 20
249.7615979702313
 30
0.0
 11
339.5602023463581
 21
241.261597970231
 31
0.0
  0
ARC
  5
182F
330
1F
100
AcDbEntity
  8
AM_0
100
AcDbCircle
 10
339.0602023463582
 20
241.261597970231
 30
0.0
 40
0.5
100
AcDbArc
 50
270.0
 51
0.0000000000032569
  0
LINE
  5
1830
330
1F
100
AcDbEntity
  8
AM_0
100
AcDbLine
 10
337.5602023463577
 20
251.7615979702312
 30
0.0
 11
337.5602023463576
 21
253.2615979702307
 31
0.0
  0
LINE
  5
1831
330
1F
100
AcDbEntity
  8
AM_0
100
AcDbLine
 10
322.3631769103473
 20
249.7615979702306
 30
0.0
 11
322.3631769103473
 21
240.7615979702304
 31
0.0
  0
LINE
  5
1832
330
1F
100
AcDbEntity
  8
AM_0
100
AcDbLine
 10
317.5817027632797
 20
249.7615979702306
 30
0.0
 11
317.5817027632797
 21
240.7615979702303
 31
0.0
  0
LINE
  5
1833
330
1F
100
AcDbEntity
  8
AM_0
100
AcDbLine
 10
322.3631769103473
 20
251.7615979702306
 30
0.0
 11
317.5817027632797
 21
251.7615979702306
 31
0.0
  0
ARC
  5
1834
330
1F
100
AcDbEntity
  8
AM_0
100
AcDbCircle
 10
319.9724398368135
 20
249.3326920315384
 30
0.0
 40
2.428905938692222
100
AcDbArc
 50
10.1708506093285
 51
169.8291493906715
  0
LINE
  5
1835
330
1F
100
AcDbEntity
  8
AM_0
100
AcDbLine
 10
331.7572277823669
 20
249.7615979702306
 30
0.0
 11
331.7572277823669
 21
240.7615979702304
 31
0.0
  0
LINE
  5
1836
330
1F
100
AcDbEntity
  8
AM_0
100
AcDbLine
 10
336.5387019294346
 20
249.7615979702306
 30
0.0
 11
336.5387019294346
 21
240.7615979702303
 31
0.0
  0
ARC
  5
1837
330
1F
100
AcDbEntity
  8
AM_0
100
AcDbCircle
 10
334.1479648559007
 20
249.3326920315384
 30
0.0
 40
2.428905938692222
100
AcDbArc
 50
10.17085060933228
 51
169.8291493906677
  0
LINE
  5
1838
330
1F
100
AcDbEntity
  8
AM_0
100
AcDbLine
 10
270.5107289700672
 20
249.7615979702304
 30
0.0
 11
271.5182886381366
 21
249.7615979702306
 31
0.0
  0
LINE
  5
1839
330
1F
100
AcDbEntity
  8
AM_0
100
AcDbLine
 10
274.9922329525393
 20
249.7615979702304
 30
0.0
 11
276.4739917156244
 21
249.7615979702306
 31
0.0
  0
LINE
  5
183A
330
1F
100
AcDbEntity
  8
AM_0
100
AcDbLine
 10
282.0949516913525
 20
249.7615979702304
 30
0.0
 11
283.9265062487818
 21
249.7615979702304
 31
0.0
  0
LINE
  5
183B
330
1F
100
AcDbEntity
  8
AM_0
100
AcDbLine
 10
289.5474662245101
 20
249.7615979702304
 30
0.0
 11
291.0292249875951
 21
249.7615979702303
 31
0.0
  0
LINE
  5
183C
330
1F
100
AcDbEntity
  8
AM_0
100
AcDbLine
 10
294.5031693019979
 20
249.7615979702304
 30
0.0
 11
295.5107289700673
 21
249.7615979702303
 31
0.0
  0
LINE
  5
183D
330
1F
100
AcDbEntity
  8
AM_0
100
AcDbLine
 10
314.560202346357
 20
249.7615979702304
 30
0.0
 11
317.5817027632797
 21
249.7615979702306
 31
0.0
  0
LINE
  5
183E
330
1F
100
AcDbEntity
  8
AM_0
100
AcDbLine
 10
322.3631769103473
 20
249.7615979702304
 30
0.0
 11
324.1050888071403
 21
249.7615979702304
 31
0.0
  0
LINE
  5
183F
330
1F
100
AcDbEntity
  8
AM_0
100
AcDbLine
 10
330.0153158855738
 20
249.7615979702304
 30
0.0
 11
331.7572277823669
 21
249.7615979702306
 31
0.0
  0
LINE
  5
1840
330
1F
100
AcDbEntity
  8
AM_0
100
AcDbLine
 10
336.5387019294346
 20
249.7615979702306
 30
0.0
 11
339.5602023463578
 21
249.7615979702323
 31
0.0
  0
LINE
  5
18FC
330
1F
100
AcDbEntity
  8
AM_7
100
AcDbLine
 10
327.0602023463573
 20
255.1585979702306
 30
0.0
 11
327.0602023463573
 21
189.8039899056393
 31
0.0
1001
GENIUS_GENOBJ-N-CEN_13
1002
{
1000
OWNER
1000
GEN
1002
}
1001
GENIUS_GENODEF_13
1002
{
1000
HIER
1070
     0
1002
}
1002
{
1000
MANEDIT
1070
     0
1002
}
1002
{
1000
NOSEL
1070
     0
1002
}
1002
{
1000
BEHIND
1070
     0
1002
}
1002
{
1000
OTHER
1070
     0
1002
}
1002
{
1000
REACTOR
1002
}
1001
GENIUS_GENCEN_19
1002
{
1040
1.397
1002
}
  0
LINE
  5
18FD
330
1F
100
AcDbEntity
  8
AM_7
100
AcDbLine
 10
283.0107289700673
 20
255.1585979702306
 30
0.0
 11
283.0107289700673
 21
189.8039899056393
 31
0.0
1001
GENIUS_GENODEF_13
1002
{
1000
HIER
1070
     0
1002
}
1002
{
1000
MANEDIT
1070
     0
1002
}
1002
{
1000
NOSEL
1070
     0
1002
}
1002
{
1000
BEHIND
1070
     0
1002
}
1002
{
1000
OTHER
1070
     0
1002
}
1002
{
1000
REACTOR
1002
}
1001
GENIUS_GENOBJ-N-CEN_13
1002
{
1000
OWNER
1000
GEN
1002
}
1001
GENIUS_GENCEN_19
1002
{
1040
1.397
1002
}
  0
LINE
  5
18FE
330
1F
100
AcDbEntity
  8
AM_7
100
AcDbLine
 10
271.114128777891
 20
278.3358490679177
 30
0.0
 11
294.9073291622383
 21
278.335849067866
 31
0.0
1001
GENIUS_GENODEF_13
1002
{
1000
HIER
1070
     0
1002
}
1002
{
1000
MANEDIT
1070
     0
1002
}
1002
{
1000
NOSEL
1070
     0
1002
}
1002
{
1000
BEHIND
1070
     0
1002
}
1002
{
1000
OTHER
1070
     0
1002
}
1002
{
1000
REACTOR
1002
}
1001
GENIUS_GENOBJ-N-CEN_13
1002
{
1000
OWNER
1000
GEN
1002
}
1001
GENIUS_GENCEN_19
1002
{
1040
1.397
1002
}
  0
ENDSEC
  0
SECTION
  2
OBJECTS
  0
DICTIONARY
  5
C
330
0
100
AcDbDictionary
281
     1
  3
ACAD_2007HEADERVARS_RT
350
191F
  3
ACAD_COLOR
350
247
  3
ACAD_GROUP
350
D
  3
ACAD_LAYOUT
350
1A
  3
ACAD_MATERIAL
350
232
  3
ACAD_MLEADERSTYLE
350
10F0
  3
ACAD_MLINESTYLE
350
17
  3
ACAD_PLOTSETTINGS
350
19
  3
ACAD_PLOTSTYLENAME
350
E
  3
ACAD_SCALELIST
350
10DE
  3
ACAD_TABLESTYLE
350
248
  3
ACAD_VISUALSTYLE
350
236
  3
ACDB_RECOMPOSE_DATA
350
191D
  3
AcDbVariableDictionary
350
34
  3
AcmDictionary
350
43
  3
AMG
350
2B
  3
AMGSNAPSETTINGS
350
74
  3
DWGPROPS
350
191E
  0
DICTIONARY
  5
CA7
330
8
100
AcDbDictionary
280
     1
281
     1
  0
DICTIONARY
  5
971
330
2
100
AcDbDictionary
280
     1
281
     1
  3
ACAD_LAYERSTATES
360
116F
  3
AMLAYER_GROUPCOLORS
360
972
  0
DICTIONARY
  5
13F7
330
10
100
AcDbDictionary
280
     1
281
     1
  3
ADSK_XREC_LAYER_RECONCILED
360
13F8
  0
DICTIONARY
  5
13F9
330
59
100
AcDbDictionary
280
     1
281
     1
  3
ADSK_XREC_LAYER_RECONCILED
360
13FA
  0
DICTIONARY
  5
13FB
330
5A
100
AcDbDictionary
280
     1
281
     1
  3
ADSK_XREC_LAYER_RECONCILED
360
13FC
  0
DICTIONARY
  5
13FD
330
31B
100
AcDbDictionary
280
     1
281
     1
  3
ADSK_XREC_LAYER_RECONCILED
360
13FE
  0
DICTIONARY
  5
13FF
330
7C0
100
AcDbDictionary
280
     1
281
     1
  3
ADSK_XREC_LAYER_RECONCILED
360
1400
  0
DICTIONARY
  5
1401
330
7C1
100
AcDbDictionary
280
     1
281
     1
  3
ADSK_XREC_LAYER_RECONCILED
360
1402
  0
DICTIONARY
  5
1403
330
7C2
100
AcDbDictionary
280
     1
281
     1
  3
ADSK_XREC_LAYER_RECONCILED
360
1404
  0
DICTIONARY
  5
1405
330
7C3
100
AcDbDictionary
280
     1
281
     1
  3
ADSK_XREC_LAYER_RECONCILED
360
1406
  0
DICTIONARY
  5
1407
330
7C4
100
AcDbDictionary
280
     1
281
     1
  3
ADSK_XREC_LAYER_RECONCILED
360
1408
  0
DICTIONARY
  5
1409
330
7C5
100
AcDbDictionary
280
     1
281
     1
  3
ADSK_XREC_LAYER_RECONCILED
360
140A
  0
DICTIONARY
  5
140B
330
BB5
100
AcDbDictionary
280
     1
281
     1
  3
ADSK_XREC_LAYER_RECONCILED
360
140C
  0
DICTIONARY
  5
C9
330
1F
100
AcDbDictionary
280
     1
281
     1
  3
ACAD_SORTENTS
360
97C
  0
DICTIONARY
  5
BCD
330
BBF
100
AcDbDictionary
280
     1
281
     1
  0
DICTIONARY
  5
C33
330
C02
100
AcDbDictionary
280
     1
281
     1
  0
DICTIONARY
  5
11A3
330
1170
100
AcDbDictionary
280
     1
281
     1
  3
ACAD_SORTENTS
360
11A4
  0
DICTIONARY
  5
11D7
330
11A9
100
AcDbDictionary
280
     1
281
     1
  3
ACAD_SORTENTS
360
11D8
  0
DICTIONARY
  5
1274
330
1228
100
AcDbDictionary
280
     1
281
     1
  3
ACAD_SORTENTS
360
1275
  0
DICTIONARY
  5
191F
102
{ACAD_REACTORS
330
C
102
}
330
C
100
AcDbDictionary
281
     1
  3
DIMARCSYM
350
1920
  0
DICTIONARY
  5
247
102
{ACAD_REACTORS
330
C
102
}
330
C
100
AcDbDictionary
281
     1
  0
DICTIONARY
  5
D
102
{ACAD_REACTORS
330
C
102
}
330
C
100
AcDbDictionary
281
     1
  0
DICTIONARY
  5
1A
102
{ACAD_REACTORS
330
C
102
}
330
C
100
AcDbDictionary
281
     1
  3
Model
350
22
  3
ﾚｲｱｳﾄ1
350
1E
  3
ﾚｲｱｳﾄ2
350
26
  0
DICTIONARY
  5
232
102
{ACAD_REACTORS
330
C
102
}
330
C
100
AcDbDictionary
281
     1
  3
ByBlock
350
234
  3
ByLayer
350
233
  3
Global
350
235
  0
DICTIONARY
  5
10F0
102
{ACAD_REACTORS
330
C
102
}
330
C
100
AcDbDictionary
281
     1
  3
Standard
350
10F1
  0
DICTIONARY
  5
17
102
{ACAD_REACTORS
330
C
102
}
330
C
100
AcDbDictionary
281
     1
  3
Standard
350
18
  0
DICTIONARY
  5
19
102
{ACAD_REACTORS
330
C
102
}
330
C
100
AcDbDictionary
281
     1
  0
ACDBDICTIONARYWDFLT
  5
E
102
{ACAD_REACTORS
330
C
102
}
330
C
100
AcDbDictionary
281
     1
  3
Normal
350
F
100
AcDbDictionaryWithDefault
340
F
  0
DICTIONARY
  5
10DE
102
{ACAD_REACTORS
330
C
102
}
330
C
100
AcDbDictionary
281
     1
  3
A0
350
10DF
  3
A1
350
10E0
  3
A2
350
10E1
  3
A3
350
10E2
  3
A4
350
10E3
  3
A5
350
10E4
  3
A6
350
10E5
  3
A7
350
10E6
  3
A8
350
10E7
  3
A9
350
10E8
  3
B0
350
10E9
  3
B1
350
10EA
  3
B2
350
10EB
  3
B3
350
10EC
  3
B4
350
10ED
  3
B5
350
10EE
  3
B6
350
10EF
  0
DICTIONARY
  5
248
102
{ACAD_REACTORS
330
C
102
}
330
C
100
AcDbDictionary
281
     1
  3
Standard
350
249
  0
DICTIONARY
  5
236
102
{ACAD_REACTORS
330
C
102
}
330
C
100
AcDbDictionary
281
     1
  3
2dWireframe
350
23C
  3
3D Hidden
350
23E
  3
3dWireframe
350
23D
  3
Basic
350
23B
  3
Brighten
350
242
  3
ColorChange
350
246
  3
Conceptual
350
23F
  3
Dim
350
241
  3
EdgeColorOff
350
10DD
  3
Facepattern
350
245
  3
Flat
350
237
  3
FlatWithEdges
350
238
  3
Gouraud
350
239
  3
GouraudWithEdges
350
23A
  3
Hidden
350
10D5
  3
JitterOff
350
10DB
  3
Linepattern
350
244
  3
OverhangOff
350
10DC
  3
Realistic
350
240
  3
Shaded
350
10DA
  3
Shaded with edges
350
10D9
  3
Shades of Gray
350
10D6
  3
Sketchy
350
10D7
  3
Thicken
350
243
  3
Wireframe
350
10D4
  3
X-Ray
350
10D8
  0
XRECORD
  5
191D
102
{ACAD_REACTORS
330
C
102
}
330
C
100
AcDbXrecord
280
     1
 90
        1
330
249
330
157E
  0
DICTIONARY
  5
34
102
{ACAD_REACTORS
330
C
102
}
330
C
100
AcDbDictionary
281
     1
  3
CANNOSCALE
350
1465
  3
CMLEADERSTYLE
350
1464
  3
CTABLESTYLE
350
2C0
  3
DIMASSOC
350
191B
  3
INDEXCTL
350
35
  3
SORTENTS
350
1919
  3
XCLIPFRAME
350
191A
  0
DICTIONARY
  5
43
102
{ACAD_REACTORS
330
C
102
}
330
C
100
AcDbDictionary
281
     1
  3
AcmBOM
350
C4E
  3
AcmStdDictionary
350
15F
  3
AMDTSECTSYM_ARROWCOLOR
350
2A8
  0
DICTIONARY
  5
2B
102
{ACAD_REACTORS
330
C
102
}
330
C
100
AcDbDictionary
281
     1
  0
DICTIONARY
  5
74
102
{ACAD_REACTORS
330
C
102
}
330
C
100
AcDbDictionary
281
     1
  0
XRECORD
  5
191E
102
{ACAD_REACTORS
330
C
102
}
330
C
100
AcDbXrecord
280
     1
  1
DWGPROPS COOKIE
  2

  3

  4

  6

  7

  8
N WATANABE
  9

300
AmdtFileType=84
301
=
302
=
303
=
304
=
305
=
306
=
307
=
308
=
309
=
 40
0.1035965972222222
 41
2454784.375539815
 42
2456988.587504248
  1

 90
        1
  0
DICTIONARY
  5
116F
102
{ACAD_REACTORS
330
971
102
}
330
971
100
AcDbDictionary
281
     1
  0
DICTIONARY
  5
972
102
{ACAD_REACTORS
330
971
102
}
330
971
100
AcDbDictionary
280
     1
281
     1
  0
XRECORD
  5
13F8
102
{ACAD_REACTORS
330
13F7
102
}
330
13F7
100
AcDbXrecord
280
     1
290
     1
  0
XRECORD
  5
13FA
102
{ACAD_REACTORS
330
13F9
102
}
330
13F9
100
AcDbXrecord
280
     1
290
     1
  0
XRECORD
  5
13FC
102
{ACAD_REACTORS
330
13FB
102
}
330
13FB
100
AcDbXrecord
280
     1
290
     1
  0
XRECORD
  5
13FE
102
{ACAD_REACTORS
330
13FD
102
}
330
13FD
100
AcDbXrecord
280
     1
290
     1
  0
XRECORD
  5
1400
102
{ACAD_REACTORS
330
13FF
102
}
330
13FF
100
AcDbXrecord
280
     1
290
     1
  0
XRECORD
  5
1402
102
{ACAD_REACTORS
330
1401
102
}
330
1401
100
AcDbXrecord
280
     1
290
     1
  0
XRECORD
  5
1404
102
{ACAD_REACTORS
330
1403
102
}
330
1403
100
AcDbXrecord
280
     1
290
     1
  0
XRECORD
  5
1406
102
{ACAD_REACTORS
330
1405
102
}
330
1405
100
AcDbXrecord
280
     1
290
     1
  0
XRECORD
  5
1408
102
{ACAD_REACTORS
330
1407
102
}
330
1407
100
AcDbXrecord
280
     1
290
     1
  0
XRECORD
  5
140A
102
{ACAD_REACTORS
330
1409
102
}
330
1409
100
AcDbXrecord
280
     1
290
     1
  0
XRECORD
  5
140C
102
{ACAD_REACTORS
330
140B
102
}
330
140B
100
AcDbXrecord
280
     1
290
     1
  0
SORTENTSTABLE
  5
97C
102
{ACAD_REACTORS
330
C9
102
}
330
C9
100
AcDbSortentsTable
330
1F
331
16F7
  5
16F8
331
16F3
  5
16F4
331
11E1
  5
11EA
331
5B7
  5
76E
331
1323
  5
1356
331
1505
  5
1506
331
784
  5
8D3
331
116B
  5
11DE
331
780
  5
8B0
331
1501
  5
1502
331
14FD
  5
14FE
331
1544
  5
1545
331
14F9
  5
14FA
331
1540
  5
1541
331
16EF
  5
16F0
331
16EB
  5
16EC
331
16E7
  5
16E8
331
5A7
  5
76A
331
1167
  5
116D
331
1163
  5
1167
331
1303
  5
1307
331
115F
  5
1163
331
14F5
  5
14F6
331
8F6
  5
933
331
774
  5
785
331
12FF
  5
1303
331
115B
  5
115F
331
770
  5
782
331
14F1
  5
14F2
331
8F2
  5
916
331
12FB
  5
12FF
331
14ED
  5
14EF
331
76C
  5
780
331
8EE
  5
8FA
331
768
  5
777
331
8EA
  5
8F6
331
1208
  5
1213
331
1204
  5
1208
331
1157
  5
115B
331
1153
  5
1157
331
1524
  5
153F
331
8E6
  5
8F2
331
979
  5
1151
331
1520
  5
1521
331
8E2
  5
8EE
331
151C
  5
151D
331
8DE
  5
8EA
331
750
  5
773
331
1518
  5
1519
331
8DA
  5
8E6
331
1706
  5
1707
331
1702
  5
1703
331
11F4
  5
11F8
331
154C
  5
154D
331
B6A
  5
1156
331
16FE
  5
16FF
331
16FA
  5
16FB
331
1548
  5
1549
331
1514
  5
1515
331
8D6
  5
8E2
331
12DF
  5
12E4
331
1510
  5
1511
331
8D2
  5
8DE
331
150C
  5
150D
331
8CE
  5
8DA
331
12DB
  5
12DF
331
1508
  5
1509
331
16F6
  5
16F7
331
16F2
  5
16F3
331
12D6
  5
12DE
331
1326
  5
14EC
331
5B6
  5
76D
331
1322
  5
1326
331
1504
  5
1505
331
783
  5
8B6
331
116A
  5
11DD
331
77F
  5
8AE
331
1500
  5
1501
331
1547
  5
1548
331
14FC
  5
14FD
331
77B
  5
792
331
14F8
  5
14F9
331
16EE
  5
16EF
331
16EA
  5
16EB
331
16E6
  5
16E7
331
1162
  5
1166
331
777
  5
78B
331
153F
  5
1540
331
14F4
  5
14F5
331
8F5
  5
932
331
1302
  5
1306
331
115E
  5
1162
331
12FE
  5
1302
331
115A
  5
115E
331
14F0
  5
14F1
331
8F1
  5
915
331
12FA
  5
12FE
331
14EC
  5
14ED
331
8ED
  5
8F9
331
76B
  5
77D
331
8E9
  5
8F5
331
1207
  5
1212
331
1709
  5
17AE
331
1203
  5
1207
331
1156
  5
115A
331
1523
  5
1524
331
8E5
  5
8F1
331
151F
  5
1520
331
8E1
  5
8ED
331
151B
  5
151C
331
8DD
  5
8E9
331
8D9
  5
8E5
331
1573
  5
157E
331
1705
  5
1706
331
1701
  5
1702
331
154F
  5
1573
331
11F3
  5
11F7
331
154B
  5
154C
331
16FD
  5
16FE
331
16F9
  5
16FA
331
74F
  5
772
331
1517
  5
1518
331
1513
  5
1514
331
8D5
  5
8E1
331
12E2
  5
12E6
331
150F
  5
1510
331
8D1
  5
8DD
331
150B
  5
150C
331
8CD
  5
8D9
331
11E7
  5
11ED
331
16F5
  5
16F6
331
16F1
  5
16F2
331
1325
  5
1397
331
1507
  5
1508
331
5B5
  5
76C
331
782
  5
8B5
331
1503
  5
1504
331
914
  5
93B
331
1321
  5
1325
331
1546
  5
1547
331
77E
  5
8AD
331
14FF
  5
1500
331
14FB
  5
14FC
331
8F8
  5
935
331
11DF
  5
11E4
331
16ED
  5
16EE
331
16E9
  5
16EA
331
1161
  5
1165
331
776
  5
788
331
14F7
  5
14F8
331
772
  5
784
331
14F3
  5
14F4
331
8F4
  5
931
331
1301
  5
1305
331
1159
  5
115D
331
76E
  5
781
331
8F0
  5
8FD
331
14EF
  5
14F0
331
76A
  5
779
331
8EC
  5
8F8
331
12F9
  5
12FD
331
8E8
  5
8F4
331
157E
  5
16E6
331
1206
  5
1211
331
1708
  5
1709
331
1155
  5
1159
331
766
  5
776
331
1522
  5
1523
331
8E4
  5
8F0
331
151E
  5
151F
331
8E0
  5
8EC
331
151A
  5
151B
331
8DC
  5
8E8
331
8D8
  5
8E4
331
1704
  5
1705
331
154E
  5
154F
331
11F2
  5
11F6
331
1700
  5
1701
331
16FC
  5
16FD
331
154A
  5
154B
331
11EE
  5
11F5
331
11EA
  5
11F1
331
16F8
  5
16F9
331
1516
  5
1517
331
74E
  5
770
331
1512
  5
1513
331
8D4
  5
8E0
331
12E1
  5
12E5
331
150E
  5
150F
331
8D0
  5
8DC
331
789
  5
8D5
331
150A
  5
150B
331
8CC
  5
8D8
331
16F4
  5
16F5
331
16F0
  5
16F1
331
1324
  5
1396
331
785
  5
8D4
331
1506
  5
1507
331
5B4
  5
76B
331
116C
  5
11E1
331
781
  5
8B4
331
1502
  5
1503
331
913
  5
93A
331
1545
  5
1546
331
14FE
  5
14FF
331
14FA
  5
14FB
331
1541
  5
1544
331
16EC
  5
16ED
331
11DE
  5
11E2
331
16E8
  5
16E9
331
1164
  5
116A
331
1304
  5
131B
331
1160
  5
1164
331
775
  5
787
331
8F7
  5
934
331
14F6
  5
14F7
331
115C
  5
1161
331
771
  5
783
331
14F2
  5
14F3
331
8F3
  5
929
331
1300
  5
1304
331
12FC
  5
1301
331
1158
  5
115C
331
8EF
  5
8FB
331
9BE
  5
1155
331
769
  5
778
331
8EB
  5
8F7
331
1209
  5
1214
331
1205
  5
1209
331
1154
  5
1158
331
8E7
  5
8F3
331
761
  5
774
331
1521
  5
1522
331
8E3
  5
8EF
331
151D
  5
151E
331
8DF
  5
8EB
331
1519
  5
151A
331
8DB
  5
8E7
331
1707
  5
1708
331
1703
  5
1704
331
11F5
  5
1206
331
154D
  5
154E
331
16FF
  5
1700
331
16FB
  5
16FC
331
1549
  5
154A
331
1515
  5
1516
331
8D7
  5
8E3
331
790
  5
8D7
331
1511
  5
1512
331
8D3
  5
8DF
331
150D
  5
150E
331
8CF
  5
8DB
331
12DC
  5
12E2
331
1509
  5
150A
  0
SORTENTSTABLE
  5
11A4
102
{ACAD_REACTORS
330
11A3
102
}
330
11A3
100
AcDbSortentsTable
330
1170
  0
SORTENTSTABLE
  5
11D8
102
{ACAD_REACTORS
330
11D7
102
}
330
11D7
100
AcDbSortentsTable
330
11A9
  0
SORTENTSTABLE
  5
1275
102
{ACAD_REACTORS
330
1274
102
}
330
1274
100
AcDbSortentsTable
330
1228
  0
XRECORD
  5
1920
102
{ACAD_REACTORS
330
191F
102
}
330
191F
100
AcDbXrecord
280
     1
 70
     1
  0
LAYOUT
  5
22
102
{ACAD_XDICTIONARY
360
1414
102
}
102
{ACAD_REACTORS
330
1A
102
}
330
1A
100
AcDbPlotSettings
  1

  2
RICOH imagio MP 5000 RPCS
  4
A3
  6
AM_VIEW1
 40
5.873749732971191
 41
5.873747825622558
 42
5.873748779296875
 43
5.873748779296875
 44
296.9259948730469
 45
419.9466552734374
 46
-5.910751819610652
 47
-5.921849237169539
 48
0.0
 49
0.0
140
0.0
141
0.0
142
1.0
143
0.5
 70
 11956
 72
     1
 73
     1
 74
     2
  7
IMAGIO.ctb
 75
    27
147
2.0
148
-222.770076765816
149
-167.1114176541369
100
AcDbLayout
  1
Model
 70
     1
 71
     0
 10
0.0
 20
0.0
 11
12.0
 21
9.0
 12
0.0
 22
0.0
 32
0.0
 14
0.0
 24
0.0
 34
0.0
 15
0.0
 25
0.0
 35
0.0
146
0.0
 13
0.0
 23
0.0
 33
0.0
 16
1.0
 26
0.0
 36
0.0
 17
0.0
 27
1.0
 37
0.0
 76
     0
330
1F
331
230
1001
ACAD_PSEXT
1000
RICOH imagio MP 5000 RPCS
1000
RICOH imagio MP 5000 RPCS
1000
192.168.1.151@
1000
RPCS Driver (Windows 2000/XP/Server 2003/Vista)
1070
     0
  0
LAYOUT
  5
1E
102
{ACAD_XDICTIONARY
360
1921
102
}
102
{ACAD_REACTORS
330
1A
102
}
330
1A
100
AcDbPlotSettings
  1

  2
MF2730
  4

  6

 40
0.0
 41
0.0
 42
0.0
 43
0.0
 44
0.0
 45
0.0
 46
0.0
 47
0.0
 48
0.0
 49
0.0
140
0.0
141
0.0
142
1.0
143
1.0
 70
   688
 72
     0
 73
     0
 74
     5
  7
IMAGIO.ctb
 75
    16
147
1.0
148
0.0
149
0.0
100
AcDbLayout
  1
ﾚｲｱｳﾄ1
 70
     1
 71
     1
 10
0.0
 20
0.0
 11
420.0
 21
297.0
 12
0.0
 22
0.0
 32
0.0
 14
1.000000000000000E+20
 24
1.000000000000000E+20
 34
1.000000000000000E+20
 15
-1.000000000000000E+20
 25
-1.000000000000000E+20
 35
-1.000000000000000E+20
146
0.0
 13
0.0
 23
0.0
 33
0.0
 16
1.0
 26
0.0
 36
0.0
 17
0.0
 27
1.0
 37
0.0
 76
     0
330
1B
  0
LAYOUT
  5
26
102
{ACAD_XDICTIONARY
360
1924
102
}
102
{ACAD_REACTORS
330
1A
102
}
330
1A
100
AcDbPlotSettings
  1

  2
MF2730
  4

  6

 40
0.0
 41
0.0
 42
0.0
 43
0.0
 44
0.0
 45
0.0
 46
0.0
 47
0.0
 48
0.0
 49
0.0
140
0.0
141
0.0
142
1.0
143
1.0
 70
   688
 72
     0
 73
     0
 74
     5
  7
IMAGIO.ctb
 75
    16
147
1.0
148
0.0
149
0.0
100
AcDbLayout
  1
ﾚｲｱｳﾄ2
 70
     1
 71
     2
 10
0.0
 20
0.0
 11
12.0
 21
9.0
 12
0.0
 22
0.0
 32
0.0
 14
0.0
 24
0.0
 34
0.0
 15
0.0
 25
0.0
 35
0.0
146
0.0
 13
0.0
 23
0.0
 33
0.0
 16
1.0
 26
0.0
 36
0.0
 17
0.0
 27
1.0
 37
0.0
 76
     0
330
23
  0
MATERIAL
  5
234
102
{ACAD_XDICTIONARY
360
1928
102
}
102
{ACAD_REACTORS
330
232
102
}
330
232
100
AcDbMaterial
  1
ByBlock
 73
     1
 78
     1
172
     1
176
     1
270
     1
274
     1
  0
MATERIAL
  5
233
102
{ACAD_XDICTIONARY
360
1926
102
}
102
{ACAD_REACTORS
330
232
102
}
330
232
100
AcDbMaterial
  1
ByLayer
 73
     1
 78
     1
172
     1
176
     1
270
     1
274
     1
  0
MATERIAL
  5
235
102
{ACAD_XDICTIONARY
360
192A
102
}
102
{ACAD_REACTORS
330
232
102
}
330
232
100
AcDbMaterial
  1
Global
 73
     1
 78
     1
172
     1
176
     1
270
     1
274
     1
  0
MLEADERSTYLE
  5
10F1
102
{ACAD_REACTORS
330
10F0
102
}
330
10F0
100
AcDbMLeaderStyle
170
     2
171
     1
172
     0
 90
        2
 40
0.0
 41
0.0
173
     1
 91
-1056964608
340
14
 92
       -2
290
     1
 42
2.0
291
     1
 43
0.36
  3
Standard
 44
4.0
300

342
11
174
     1
178
     6
175
     1
176
     0
 93
-1056964608
 45
4.0
292
     0
297
     0
 46
4.0
 94
-1056964608
 47
1.0
 49
1.0
140
1.0
293
     1
141
0.0
294
     1
177
     0
142
1.0
295
     0
296
     0
143
0.125
1001
ACAD_MLEADERVER
1070
     2
  0
MLINESTYLE
  5
18
102
{ACAD_REACTORS
330
17
102
}
330
17
100
AcDbMlineStyle
  2
STANDARD
 70
     0
  3

 62
   256
 51
90.0
 52
90.0
 71
     2
 49
0.5
 62
   256
  6
BYLAYER
 49
-0.5
 62
   256
  6
BYLAYER
  0
ACDBPLACEHOLDER
  5
F
102
{ACAD_REACTORS
330
E
102
}
330
E
  0
SCALE
  5
10DF
102
{ACAD_REACTORS
330
10DE
102
}
330
10DE
100
AcDbScale
 70
     0
300
1:1
140
1.0
141
1.0
290
     1
  0
SCALE
  5
10E0
102
{ACAD_REACTORS
330
10DE
102
}
330
10DE
100
AcDbScale
 70
     0
300
1:2
140
1.0
141
2.0
290
     0
  0
SCALE
  5
10E1
102
{ACAD_REACTORS
330
10DE
102
}
330
10DE
100
AcDbScale
 70
     0
300
1:4
140
1.0
141
4.0
290
     0
  0
SCALE
  5
10E2
102
{ACAD_REACTORS
330
10DE
102
}
330
10DE
100
AcDbScale
 70
     0
300
1:5
140
1.0
141
5.0
290
     0
  0
SCALE
  5
10E3
102
{ACAD_REACTORS
330
10DE
102
}
330
10DE
100
AcDbScale
 70
     0
300
1:8
140
1.0
141
8.0
290
     0
  0
SCALE
  5
10E4
102
{ACAD_REACTORS
330
10DE
102
}
330
10DE
100
AcDbScale
 70
     0
300
1:10
140
1.0
141
10.0
290
     0
  0
SCALE
  5
10E5
102
{ACAD_REACTORS
330
10DE
102
}
330
10DE
100
AcDbScale
 70
     0
300
1:16
140
1.0
141
16.0
290
     0
  0
SCALE
  5
10E6
102
{ACAD_REACTORS
330
10DE
102
}
330
10DE
100
AcDbScale
 70
     0
300
1:20
140
1.0
141
20.0
290
     0
  0
SCALE
  5
10E7
102
{ACAD_REACTORS
330
10DE
102
}
330
10DE
100
AcDbScale
 70
     0
300
1:30
140
1.0
141
30.0
290
     0
  0
SCALE
  5
10E8
102
{ACAD_REACTORS
330
10DE
102
}
330
10DE
100
AcDbScale
 70
     0
300
1:40
140
1.0
141
40.0
290
     0
  0
SCALE
  5
10E9
102
{ACAD_REACTORS
330
10DE
102
}
330
10DE
100
AcDbScale
 70
     0
300
1:50
140
1.0
141
50.0
290
     0
  0
SCALE
  5
10EA
102
{ACAD_REACTORS
330
10DE
102
}
330
10DE
100
AcDbScale
 70
     0
300
1:100
140
1.0
141
100.0
290
     0
  0
SCALE
  5
10EB
102
{ACAD_REACTORS
330
10DE
102
}
330
10DE
100
AcDbScale
 70
     0
300
2:1
140
2.0
141
1.0
290
     0
  0
SCALE
  5
10EC
102
{ACAD_REACTORS
330
10DE
102
}
330
10DE
100
AcDbScale
 70
     0
300
4:1
140
4.0
141
1.0
290
     0
  0
SCALE
  5
10ED
102
{ACAD_REACTORS
330
10DE
102
}
330
10DE
100
AcDbScale
 70
     0
300
8:1
140
8.0
141
1.0
290
     0
  0
SCALE
  5
10EE
102
{ACAD_REACTORS
330
10DE
102
}
330
10DE
100
AcDbScale
 70
     0
300
10:1
140
10.0
141
1.0
290
     0
  0
SCALE
  5
10EF
102
{ACAD_REACTORS
330
10DE
102
}
330
10DE
100
AcDbScale
 70
     0
300
100:1
140
100.0
141
1.0
290
     0
  0
TABLESTYLE
  5
249
102
{ACAD_XDICTIONARY
360
1416
102
}
102
{ACAD_REACTORS
330
248
102
}
330
248
100
AcDbTableStyle
  3
Standard
 70
     0
 71
     0
 40
1.5
 41
1.5
280
     0
281
     0
  7
STANDARD
140
4.5
170
     2
 62
     0
 63
     7
283
     0
274
    -2
284
     1
 64
     0
275
    -2
285
     1
 65
     0
276
    -2
286
     1
 66
     0
277
    -2
287
     1
 67
     0
278
    -2
288
     1
 68
     0
279
    -2
289
     1
 69
     0
  7
STANDARD
140
6.0
170
     5
 62
     0
 63
     7
283
     0
274
    -2
284
     1
 64
     0
275
    -2
285
     1
 65
     0
276
    -2
286
     1
 66
     0
277
    -2
287
     1
 67
     0
278
    -2
288
     1
 68
     0
279
    -2
289
     1
 69
     0
  7
STANDARD
140
4.5
170
     5
 62
     0
 63
     7
283
     0
274
    -2
284
     1
 64
     0
275
    -2
285
     1
 65
     0
276
    -2
286
     1
 66
     0
277
    -2
287
     1
 67
     0
278
    -2
288
     1
 68
     0
279
    -2
289
     1
 69
     0
  0
VISUALSTYLE
  5
23C
102
{ACAD_XDICTIONARY
360
1936
102
}
102
{ACAD_REACTORS
330
236
102
}
330
236
100
AcDbVisualStyle
  2
2dWireframe
 70
     4
 71
     0
 72
     2
 73
     0
 90
        0
 40
-0.6
 41
-30.0
 62
     5
 63
     7
 74
     1
 91
        4
 64
     7
 65
   257
 75
     1
175
     1
 42
1.0
 92
        0
 66
   257
 43
1.0
 76
     1
 77
     6
 78
     2
 67
     7
 79
     5
170
     0
171
     0
290
     0
174
     0
 93
        1
 44
0.0
173
     0
291
     0
 45
0.0
1001
ACAD
1000
AcDbSavedByObjectVersion
1070
     0
  0
VISUALSTYLE
  5
23E
102
{ACAD_XDICTIONARY
360
193A
102
}
102
{ACAD_REACTORS
330
236
102
}
330
236
100
AcDbVisualStyle
  2
3D Hidden
 70
     6
 71
     1
 72
     2
 73
     2
 90
        0
 40
-0.6
 41
-30.0
 62
     5
 63
     7
 74
     2
 91
        2
 64
     7
 65
   257
 75
     2
175
     1
 42
40.0
 92
        0
 66
   257
 43
1.0
 76
     1
 77
     6
 78
     2
 67
     7
 79
     3
170
     0
171
     0
290
     0
174
     0
 93
        1
 44
0.0
173
     0
291
     0
 45
0.0
1001
ACAD
1000
AcDbSavedByObjectVersion
1070
     0
  0
VISUALSTYLE
  5
23D
102
{ACAD_XDICTIONARY
360
1938
102
}
102
{ACAD_REACTORS
330
236
102
}
330
236
100
AcDbVisualStyle
  2
3dWireframe
 70
     5
 71
     0
 72
     2
 73
     0
 90
        0
 40
-0.6
 41
-30.0
 62
     5
 63
     7
 74
     1
 91
        4
 64
     7
 65
   257
 75
     1
175
     1
 42
1.0
 92
        0
 66
   257
 43
1.0
 76
     1
 77
     6
 78
     2
 67
     7
 79
     5
170
     0
171
     0
290
     0
174
     0
 93
        1
 44
0.0
173
     0
291
     0
 45
0.0
1001
ACAD
1000
AcDbSavedByObjectVersion
1070
     0
  0
VISUALSTYLE
  5
23B
102
{ACAD_XDICTIONARY
360
1934
102
}
102
{ACAD_REACTORS
330
236
102
}
330
236
100
AcDbVisualStyle
  2
Basic
 70
     7
 71
     1
 72
     0
 73
     1
 90
        0
 40
-0.6
 41
-30.0
 62
     5
 63
     7
 74
     0
 91
        4
 64
     7
 65
   257
 75
     1
175
     1
 42
1.0
 92
        8
 66
     7
 43
1.0
 76
     1
 77
     6
 78
     2
 67
     7
 79
     5
170
     0
171
     0
290
     0
174
     0
 93
        1
 44
0.0
173
     0
291
     1
 45
0.0
1001
ACAD
1000
AcDbSavedByObjectVersion
1070
     0
  0
VISUALSTYLE
  5
242
102
{ACAD_XDICTIONARY
360
1942
102
}
102
{ACAD_REACTORS
330
236
102
}
330
236
100
AcDbVisualStyle
  2
Brighten
 70
    12
 71
     2
 72
     2
 73
     0
 90
        0
 40
-0.6
 41
-30.0
 62
     5
 63
     7
 74
     1
 91
        4
 64
     7
 65
   257
 75
     1
175
     1
 42
1.0
 92
        8
 66
     7
 43
1.0
 76
     1
 77
     6
 78
     2
 67
     7
 79
     5
170
     0
171
     0
290
     0
174
     0
 93
        1
 44
50.0
173
     0
291
     1
 45
0.0
1001
ACAD
1000
AcDbSavedByObjectVersion
1070
     0
  0
VISUALSTYLE
  5
246
102
{ACAD_XDICTIONARY
360
194A
102
}
102
{ACAD_REACTORS
330
236
102
}
330
236
100
AcDbVisualStyle
  2
ColorChange
 70
    16
 71
     2
 72
     2
 73
     3
 90
        0
 40
-0.6
 41
-30.0
 62
     5
 63
     8
 74
     1
 91
        4
 64
     7
 65
   257
 75
     1
175
     1
 42
1.0
 92
        8
 66
     8
 43
1.0
 76
     1
 77
     6
 78
     2
 67
     7
 79
     5
170
     0
171
     0
290
     0
174
     0
 93
        1
 44
0.0
173
     0
291
     1
 45
0.0
1001
ACAD
1000
AcDbSavedByObjectVersion
1070
     0
  0
VISUALSTYLE
  5
23F
102
{ACAD_XDICTIONARY
360
193C
102
}
102
{ACAD_REACTORS
330
236
102
}
330
236
100
AcDbVisualStyle
  2
Conceptual
 70
     9
 71
     3
 72
     2
 73
     0
 90
        0
 40
-0.6
 41
-30.0
 62
     5
 63
     7
 74
     2
 91
        2
 64
     7
 65
   257
 75
     1
175
     1
 42
40.0
 92
        8
 66
     7
 43
1.0
 76
     1
 77
     6
 78
     2
 67
     7
 79
     3
170
     0
171
     0
290
     0
174
     0
 93
        1
 44
0.0
173
     0
291
     0
 45
0.0
1001
ACAD
1000
AcDbSavedByObjectVersion
1070
     0
  0
VISUALSTYLE
  5
241
102
{ACAD_XDICTIONARY
360
1940
102
}
102
{ACAD_REACTORS
330
236
102
}
330
236
100
AcDbVisualStyle
  2
Dim
 70
    11
 71
     2
 72
     2
 73
     0
 90
        0
 40
-0.6
 41
-30.0
 62
     5
 63
     7
 74
     1
 91
        4
 64
     7
 65
   257
 75
     1
175
     1
 42
1.0
 92
        8
 66
     7
 43
1.0
 76
     1
 77
     6
 78
     2
 67
     7
 79
     5
170
     0
171
     0
290
     0
174
     0
 93
        1
 44
-50.0
173
     0
291
     1
 45
0.0
1001
ACAD
1000
AcDbSavedByObjectVersion
1070
     0
  0
VISUALSTYLE
  5
10DD
102
{ACAD_XDICTIONARY
360
195F
102
}
102
{ACAD_REACTORS
330
236
102
}
330
236
100
AcDbVisualStyle
  2
EdgeColorOff
 70
    22
 71
     2
 72
     2
 73
     0
 90
        0
 40
-0.6
 41
-30.0
 62
     5
 63
     7
 74
     1
 91
        4
 64
     7
 65
   257
 75
     1
175
     1
 42
1.0
 92
        8
 66
     7
 43
1.0
 76
     1
 77
     6
 78
     2
 67
     7
 79
     5
170
     0
171
     0
290
     0
174
     0
 93
        1
 44
0.0
173
     0
291
     1
 45
0.0
1001
ACAD
1000
AcDbSavedByObjectVersion
1070
     0
  0
VISUALSTYLE
  5
245
102
{ACAD_XDICTIONARY
360
1948
102
}
102
{ACAD_REACTORS
330
236
102
}
330
236
100
AcDbVisualStyle
  2
Facepattern
 70
    15
 71
     2
 72
     2
 73
     0
 90
        0
 40
-0.6
 41
-30.0
 62
     5
 63
     7
 74
     1
 91
        4
 64
     7
 65
   257
 75
     1
175
     1
 42
1.0
 92
        8
 66
     7
 43
1.0
 76
     1
 77
     6
 78
     2
 67
     7
 79
     5
170
     0
171
     0
290
     0
174
     0
 93
        1
 44
0.0
173
     0
291
     1
 45
0.0
1001
ACAD
1000
AcDbSavedByObjectVersion
1070
     0
  0
VISUALSTYLE
  5
237
102
{ACAD_XDICTIONARY
360
192C
102
}
102
{ACAD_REACTORS
330
236
102
}
330
236
100
AcDbVisualStyle
  2
Flat
 70
     0
 71
     2
 72
     1
 73
     1
 90
        2
 40
-0.6
 41
30.0
 62
     5
 63
     7
 74
     0
 91
        4
 64
     7
 65
   257
 75
     1
175
     1
 42
1.0
 92
        8
 66
     7
 43
1.0
 76
     1
 77
     6
 78
     2
 67
     7
 79
     5
170
     0
171
     0
290
     0
174
     0
 93
       13
 44
0.0
173
     0
291
     1
 45
0.0
1001
ACAD
1000
AcDbSavedByObjectVersion
1070
     0
  0
VISUALSTYLE
  5
238
102
{ACAD_XDICTIONARY
360
192E
102
}
102
{ACAD_REACTORS
330
236
102
}
330
236
100
AcDbVisualStyle
  2
FlatWithEdges
 70
     1
 71
     2
 72
     1
 73
     1
 90
        2
 40
-0.6
 41
30.0
 62
     5
 63
     7
 74
     1
 91
        4
 64
     7
 65
   257
 75
     1
175
     1
 42
1.0
 92
        0
 66
   257
 43
1.0
 76
     1
 77
     6
 78
     2
 67
     7
 79
     5
170
     0
171
     0
290
     0
174
     0
 93
       13
 44
0.0
173
     0
291
     1
 45
0.0
1001
ACAD
1000
AcDbSavedByObjectVersion
1070
     0
  0
VISUALSTYLE
  5
239
102
{ACAD_XDICTIONARY
360
1930
102
}
102
{ACAD_REACTORS
330
236
102
}
330
236
100
AcDbVisualStyle
  2
Gouraud
 70
     2
 71
     2
 72
     2
 73
     1
 90
        2
 40
-0.6
 41
30.0
 62
     5
 63
     7
 74
     0
 91
        4
 64
     7
 65
   257
 75
     1
175
     1
 42
1.0
 92
        0
 66
     7
 43
1.0
 76
     1
 77
     6
 78
     2
 67
     7
 79
     5
170
     0
171
     0
290
     0
174
     0
 93
       13
 44
0.0
173
     0
291
     1
 45
0.0
1001
ACAD
1000
AcDbSavedByObjectVersion
1070
     0
  0
VISUALSTYLE
  5
23A
102
{ACAD_XDICTIONARY
360
1932
102
}
102
{ACAD_REACTORS
330
236
102
}
330
236
100
AcDbVisualStyle
  2
GouraudWithEdges
 70
     3
 71
     2
 72
     2
 73
     1
 90
        2
 40
-0.6
 41
30.0
 62
     5
 63
     7
 74
     1
 91
        4
 64
     7
 65
   257
 75
     1
175
     1
 42
1.0
 92
        0
 66
   257
 43
1.0
 76
     1
 77
     6
 78
     2
 67
     7
 79
     5
170
     0
171
     0
290
     0
174
     0
 93
       13
 44
0.0
173
     0
291
     1
 45
0.0
1001
ACAD
1000
AcDbSavedByObjectVersion
1070
     0
  0
VISUALSTYLE
  5
10D5
102
{ACAD_XDICTIONARY
360
194F
102
}
102
{ACAD_REACTORS
330
236
102
}
330
236
100
AcDbVisualStyle
  2
Hidden
 70
     6
 71
     1
 72
     2
 73
     2
 90
        0
 40
-0.6
 41
-30.0
 62
     5
 63
     7
 74
     2
 91
        2
 64
     7
 65
   257
 75
     2
175
     1
 42
40.0
 92
        0
 66
   257
 43
1.0
 76
     1
 77
     6
 78
     2
 67
     7
 79
     3
170
     0
171
     0
290
     0
174
     0
 93
        1
 44
0.0
173
     0
291
     0
 45
0.0
1001
ACAD
1000
AcDbSavedByObjectVersion
1070
     0
  0
VISUALSTYLE
  5
10DB
102
{ACAD_XDICTIONARY
360
195B
102
}
102
{ACAD_REACTORS
330
236
102
}
330
236
100
AcDbVisualStyle
  2
JitterOff
 70
    20
 71
     2
 72
     2
 73
     0
 90
        0
 40
-0.6
 41
-30.0
 62
     5
 63
     7
 74
     1
 91
        4
 64
     7
 65
   257
 75
     1
175
     1
 42
1.0
 92
       10
 66
     7
 43
1.0
 76
     1
 77
     6
 78
     2
 67
     7
 79
     5
170
     0
171
     0
290
     0
174
     0
 93
        1
 44
0.0
173
     0
291
     1
 45
0.0
1001
ACAD
1000
AcDbSavedByObjectVersion
1070
     0
  0
VISUALSTYLE
  5
244
102
{ACAD_XDICTIONARY
360
1946
102
}
102
{ACAD_REACTORS
330
236
102
}
330
236
100
AcDbVisualStyle
  2
Linepattern
 70
    14
 71
     2
 72
     2
 73
     0
 90
        0
 40
-0.6
 41
-30.0
 62
     5
 63
     7
 74
     1
 91
        4
 64
     7
 65
   257
 75
     7
175
     7
 42
1.0
 92
        8
 66
     7
 43
1.0
 76
     1
 77
     6
 78
     2
 67
     7
 79
     5
170
     0
171
     0
290
     0
174
     0
 93
        1
 44
0.0
173
     0
291
     1
 45
0.0
1001
ACAD
1000
AcDbSavedByObjectVersion
1070
     0
  0
VISUALSTYLE
  5
10DC
102
{ACAD_XDICTIONARY
360
195D
102
}
102
{ACAD_REACTORS
330
236
102
}
330
236
100
AcDbVisualStyle
  2
OverhangOff
 70
    21
 71
     2
 72
     2
 73
     0
 90
        0
 40
-0.6
 41
-30.0
 62
     5
 63
     7
 74
     1
 91
        4
 64
     7
 65
   257
 75
     1
175
     1
 42
1.0
 92
        9
 66
     7
 43
1.0
 76
     1
 77
     6
 78
     2
 67
     7
 79
     5
170
     0
171
     0
290
     0
174
     0
 93
        1
 44
0.0
173
     0
291
     1
 45
0.0
1001
ACAD
1000
AcDbSavedByObjectVersion
1070
     0
  0
VISUALSTYLE
  5
240
102
{ACAD_XDICTIONARY
360
193E
102
}
102
{ACAD_REACTORS
330
236
102
}
330
236
100
AcDbVisualStyle
  2
Realistic
 70
     8
 71
     2
 72
     2
 73
     0
 90
        0
 40
-0.6
 41
-30.0
 62
     5
 63
     7
 74
     1
 91
        0
 64
     7
 65
   257
 75
     1
175
     1
 42
1.0
 92
        8
 66
     8
 43
1.0
 76
     1
 77
     6
 78
     2
 67
     7
 79
     5
170
     0
171
     0
290
     0
174
     0
 93
       13
 44
0.0
173
     0
291
     0
 45
0.0
1001
ACAD
1000
AcDbSavedByObjectVersion
1070
     0
  0
VISUALSTYLE
  5
10DA
102
{ACAD_XDICTIONARY
360
1959
102
}
102
{ACAD_REACTORS
330
236
102
}
330
236
100
AcDbVisualStyle
  2
Shaded
 70
    27
 71
     2
 72
     2
 73
     1
 90
        2
 40
-0.6
 41
30.0
 62
     5
 63
     7
 74
     0
 91
        4
 64
     7
 65
   257
 75
     1
175
     1
 42
1.0
 92
        8
 66
   257
 43
1.0
 76
     1
 77
     6
 78
     2
 67
     8
 79
     3
170
     0
171
     0
290
     0
174
     0
 93
        5
 44
0.0
173
     0
291
     0
 45
0.0
1001
ACAD
1000
AcDbSavedByObjectVersion
1070
     0
  0
VISUALSTYLE
  5
10D9
102
{ACAD_XDICTIONARY
360
1957
102
}
102
{ACAD_REACTORS
330
236
102
}
330
236
100
AcDbVisualStyle
  2
Shaded with edges
 70
    26
 71
     2
 72
     2
 73
     1
 90
        2
 40
-0.6
 41
30.0
 62
     5
 63
     7
 74
     1
 91
       10
 64
     7
 65
   257
 75
     2
175
     1
 42
1.0
 92
        8
 66
   257
 43
1.0
 76
     1
 77
     6
 78
     2
 67
     7
 79
     3
170
     0
171
     0
290
     0
174
     0
 93
        5
 44
0.0
173
     0
291
     0
 45
0.0
1001
ACAD
1000
AcDbSavedByObjectVersion
1070
     0
  0
VISUALSTYLE
  5
10D6
102
{ACAD_XDICTIONARY
360
1951
102
}
102
{ACAD_REACTORS
330
236
102
}
330
236
100
AcDbVisualStyle
  2
Shades of Gray
 70
    23
 71
     2
 72
     2
 73
     3
 90
        0
 40
-0.6
 41
-30.0
 62
     5
 63
     7
 74
     2
 91
        2
 64
     7
 65
     7
 75
     1
175
     1
 42
40.0
 92
        8
 66
     7
 43
1.0
 76
     1
 77
     6
 78
     2
 67
     7
 79
     3
170
     0
171
     0
290
     0
174
     0
 93
        1
 44
0.0
173
     0
291
     0
 45
0.0
1001
ACAD
1000
AcDbSavedByObjectVersion
1070
     0
  0
VISUALSTYLE
  5
10D7
102
{ACAD_XDICTIONARY
360
1953
102
}
102
{ACAD_REACTORS
330
236
102
}
330
236
100
AcDbVisualStyle
  2
Sketchy
 70
    24
 71
     1
 72
     2
 73
     2
 90
        0
 40
-0.6
 41
-30.0
 62
     5
 63
     7
 74
     2
 91
        2
 64
     7
 65
     7
 75
     1
175
     1
 42
40.0
 92
       11
 66
     7
 43
1.0
 76
     1
 77
     6
 78
     2
 67
     7
 79
     6
170
     0
171
     0
290
     0
174
     0
 93
        1
 44
0.0
173
     0
291
     0
 45
0.0
1001
ACAD
1000
AcDbSavedByObjectVersion
1070
     0
  0
VISUALSTYLE
  5
243
102
{ACAD_XDICTIONARY
360
1944
102
}
102
{ACAD_REACTORS
330
236
102
}
330
236
100
AcDbVisualStyle
  2
Thicken
 70
    13
 71
     2
 72
     2
 73
     0
 90
        0
 40
-0.6
 41
-30.0
 62
     5
 63
     7
 74
     1
 91
        4
 64
     7
 65
   257
 75
     1
175
     1
 42
1.0
 92
       12
 66
     7
 43
1.0
 76
     1
 77
     6
 78
     2
 67
     7
 79
     5
170
     0
171
     0
290
     0
174
     0
 93
        1
 44
0.0
173
     0
291
     1
 45
0.0
1001
ACAD
1000
AcDbSavedByObjectVersion
1070
     0
  0
VISUALSTYLE
  5
10D4
102
{ACAD_XDICTIONARY
360
194D
102
}
102
{ACAD_REACTORS
330
236
102
}
330
236
100
AcDbVisualStyle
  2
Wireframe
 70
     5
 71
     0
 72
     2
 73
     0
 90
        0
 40
-0.6
 41
-30.0
 62
     5
 63
     7
 74
     1
 91
        4
 64
     7
 65
   257
 75
     1
175
     1
 42
1.0
 92
        0
 66
   257
 43
1.0
 76
     1
 77
     6
 78
     2
 67
     7
 79
     3
170
     0
171
     0
290
     0
174
     0
 93
        1
 44
0.0
173
     0
291
     0
 45
0.0
1001
ACAD
1000
AcDbSavedByObjectVersion
1070
     0
  0
VISUALSTYLE
  5
10D8
102
{ACAD_XDICTIONARY
360
1955
102
}
102
{ACAD_REACTORS
330
236
102
}
330
236
100
AcDbVisualStyle
  2
X-Ray
 70
    25
 71
     2
 72
     2
 73
     1
 90
        1
 40
0.5
 41
-30.0
 62
     5
 63
     7
 74
     1
 91
        0
 64
     7
 65
   257
 75
     1
175
     1
 42
1.0
 92
        8
 66
     7
 43
1.0
 76
     1
 77
     6
 78
     2
 67
     7
 79
     3
170
     0
171
     0
290
     0
174
     0
 93
       13
 44
0.0
173
     0
291
     0
 45
0.0
1001
ACAD
1000
AcDbSavedByObjectVersion
1070
     0
  0
DICTIONARYVAR
  5
1465
102
{ACAD_REACTORS
330
34
102
}
330
34
100
DictionaryVariables
280
     0
  1
1:1
  0
DICTIONARYVAR
  5
1464
102
{ACAD_REACTORS
330
34
102
}
330
34
100
DictionaryVariables
280
     0
  1
STANDARD
  0
DICTIONARYVAR
  5
2C0
102
{ACAD_REACTORS
330
34
102
}
330
34
100
DictionaryVariables
280
     0
  1
STANDARD
  0
DICTIONARYVAR
  5
191B
102
{ACAD_REACTORS
330
34
102
}
330
34
100
DictionaryVariables
280
     0
  1
2
  0
DICTIONARYVAR
  5
35
102
{ACAD_REACTORS
330
34
102
}
330
34
100
DictionaryVariables
280
     0
  1
0
  0
DICTIONARYVAR
  5
1919
102
{ACAD_REACTORS
330
34
102
}
330
34
100
DictionaryVariables
280
     0
  1
127
  0
DICTIONARYVAR
  5
191A
102
{ACAD_REACTORS
330
34
102
}
330
34
100
DictionaryVariables
280
     0
  1
0
  0
DICTIONARY
  5
C4E
102
{ACAD_REACTORS
330
43
102
}
330
43
100
AcDbDictionary
281
     1
  0
DICTIONARY
  5
15F
102
{ACAD_REACTORS
330
43
102
}
330
43
100
AcDbDictionary
281
     1
  0
XRECORD
  5
2A8
102
{ACAD_REACTORS
330
43
102
}
330
43
100
AcDbXrecord
280
     1
 90
-1023410169
  0
DICTIONARY
  5
1414
330
22
100
AcDbDictionary
280
     1
281
     1
  3
ACAD_XREC_ROUNDTRIP
360
1923
  3
ADSK_XREC_LAYOUTTHUMBNAIL
360
1415
  0
DICTIONARY
  5
1921
330
1E
100
AcDbDictionary
280
     1
281
     1
  3
ACAD_XREC_ROUNDTRIP
360
1922
  0
DICTIONARY
  5
1924
330
26
100
AcDbDictionary
280
     1
281
     1
  3
ACAD_XREC_ROUNDTRIP
360
1925
  0
DICTIONARY
  5
1928
330
234
100
AcDbDictionary
280
     1
281
     1
  3
ACAD_XREC_ROUNDTRIP
360
1929
  0
DICTIONARY
  5
1926
330
233
100
AcDbDictionary
280
     1
281
     1
  3
ACAD_XREC_ROUNDTRIP
360
1927
  0
DICTIONARY
  5
192A
330
235
100
AcDbDictionary
280
     1
281
     1
  3
ACAD_XREC_ROUNDTRIP
360
192B
  0
DICTIONARY
  5
1416
330
249
100
AcDbDictionary
280
     1
281
     1
  3
ACAD_ROUNDTRIP_2008_TABLESTYLE_CELLSTYLEMAP
360
191C
  3
ACAD_XREC_ROUNDTRIP
360
194C
  0
DICTIONARY
  5
1936
330
23C
100
AcDbDictionary
280
     1
281
     1
  3
ACAD_XREC_ROUNDTRIP
360
1937
  0
DICTIONARY
  5
193A
330
23E
100
AcDbDictionary
280
     1
281
     1
  3
ACAD_XREC_ROUNDTRIP
360
193B
  0
DICTIONARY
  5
1938
330
23D
100
AcDbDictionary
280
     1
281
     1
  3
ACAD_XREC_ROUNDTRIP
360
1939
  0
DICTIONARY
  5
1934
330
23B
100
AcDbDictionary
280
     1
281
     1
  3
ACAD_XREC_ROUNDTRIP
360
1935
  0
DICTIONARY
  5
1942
330
242
100
AcDbDictionary
280
     1
281
     1
  3
ACAD_XREC_ROUNDTRIP
360
1943
  0
DICTIONARY
  5
194A
330
246
100
AcDbDictionary
280
     1
281
     1
  3
ACAD_XREC_ROUNDTRIP
360
194B
  0
DICTIONARY
  5
193C
330
23F
100
AcDbDictionary
280
     1
281
     1
  3
ACAD_XREC_ROUNDTRIP
360
193D
  0
DICTIONARY
  5
1940
330
241
100
AcDbDictionary
280
     1
281
     1
  3
ACAD_XREC_ROUNDTRIP
360
1941
  0
DICTIONARY
  5
195F
330
10DD
100
AcDbDictionary
280
     1
281
     1
  3
ACAD_XREC_ROUNDTRIP
360
1960
  0
DICTIONARY
  5
1948
330
245
100
AcDbDictionary
280
     1
281
     1
  3
ACAD_XREC_ROUNDTRIP
360
1949
  0
DICTIONARY
  5
192C
330
237
100
AcDbDictionary
280
     1
281
     1
  3
ACAD_XREC_ROUNDTRIP
360
192D
  0
DICTIONARY
  5
192E
330
238
100
AcDbDictionary
280
     1
281
     1
  3
ACAD_XREC_ROUNDTRIP
360
192F
  0
DICTIONARY
  5
1930
330
239
100
AcDbDictionary
280
     1
281
     1
  3
ACAD_XREC_ROUNDTRIP
360
1931
  0
DICTIONARY
  5
1932
330
23A
100
AcDbDictionary
280
     1
281
     1
  3
ACAD_XREC_ROUNDTRIP
360
1933
  0
DICTIONARY
  5
194F
330
10D5
100
AcDbDictionary
280
     1
281
     1
  3
ACAD_XREC_ROUNDTRIP
360
1950
  0
DICTIONARY
  5
195B
330
10DB
100
AcDbDictionary
280
     1
281
     1
  3
ACAD_XREC_ROUNDTRIP
360
195C
  0
DICTIONARY
  5
1946
330
244
100
AcDbDictionary
280
     1
281
     1
  3
ACAD_XREC_ROUNDTRIP
360
1947
  0
DICTIONARY
  5
195D
330
10DC
100
AcDbDictionary
280
     1
281
     1
  3
ACAD_XREC_ROUNDTRIP
360
195E
  0
DICTIONARY
  5
193E
330
240
100
AcDbDictionary
280
     1
281
     1
  3
ACAD_XREC_ROUNDTRIP
360
193F
  0
DICTIONARY
  5
1959
330
10DA
100
AcDbDictionary
280
     1
281
     1
  3
ACAD_XREC_ROUNDTRIP
360
195A
  0
DICTIONARY
  5
1957
330
10D9
100
AcDbDictionary
280
     1
281
     1
  3
ACAD_XREC_ROUNDTRIP
360
1958
  0
DICTIONARY
  5
1951
330
10D6
100
AcDbDictionary
280
     1
281
     1
  3
ACAD_XREC_ROUNDTRIP
360
1952
  0
DICTIONARY
  5
1953
330
10D7
100
AcDbDictionary
280
     1
281
     1
  3
ACAD_XREC_ROUNDTRIP
360
1954
  0
DICTIONARY
  5
1944
330
243
100
AcDbDictionary
280
     1
281
     1
  3
ACAD_XREC_ROUNDTRIP
360
1945
  0
DICTIONARY
  5
194D
330
10D4
100
AcDbDictionary
280
     1
281
     1
  3
ACAD_XREC_ROUNDTRIP
360
194E
  0
DICTIONARY
  5
1955
330
10D8
100
AcDbDictionary
280
     1
281
     1
  3
ACAD_XREC_ROUNDTRIP
360
1956
  0
XRECORD
  5
1923
102
{ACAD_REACTORS
330
1414
102
}
330
1414
100
AcDbXrecord
280
     1
102
SHADEPLOT
 70
     0
102
SHADEPLOTRESLEVEL
 70
     2
102
SHADEPLOTCUSTOMDPI
 70
   300
  0
XRECORD
  5
1415
102
{ACAD_REACTORS
330
1414
102
}
330
1414
100
AcDbXrecord
280
     1
310
28000000000100007B0000000100080000000000007B0000000000000000000000010000000000000000000000000000FFFFFF000000000000000000000000000000000000000000000000000000000000000000330000006600000099000000CC000000FF00000000330000333300006633000099330000CC330000FF3300
310
0000660000336600006666000099660000CC660000FF66000000990000339900006699000099990000CC990000FF99000000CC000033CC000066CC000099CC0000CCCC0000FFCC000000FF000033FF000066FF000099FF0000CCFF0000FFFF000000003300330033006600330099003300CC003300FF003300003333003333
310
33006633330099333300CC333300FF33330000663300336633006666330099663300CC663300FF66330000993300339933006699330099993300CC993300FF99330000CC330033CC330066CC330099CC3300CCCC3300FFCC330000FF330033FF330066FF330099FF3300CCFF3300FFFF330000006600330066006600660099
310
006600CC006600FF00660000336600333366006633660099336600CC336600FF33660000666600336666006666660099666600CC666600FF66660000996600339966006699660099996600CC996600FF99660000CC660033CC660066CC660099CC6600CCCC6600FFCC660000FF660033FF660066FF660099FF6600CCFF6600
310
FFFF660000009900330099006600990099009900CC009900FF00990000339900333399006633990099339900CC339900FF33990000669900336699006666990099669900CC669900FF66990000999900339999006699990099999900CC999900FF99990000CC990033CC990066CC990099CC9900CCCC9900FFCC990000FF99
310
0033FF990066FF990099FF9900CCFF9900FFFF99000000CC003300CC006600CC009900CC00CC00CC00FF00CC000033CC003333CC006633CC009933CC00CC33CC00FF33CC000066CC003366CC006666CC009966CC00CC66CC00FF66CC000099CC003399CC006699CC009999CC00CC99CC00FF99CC0000CCCC0033CCCC0066CC
310
CC0099CCCC00CCCCCC00FFCCCC0000FFCC0033FFCC0066FFCC0099FFCC00CCFFCC00FFFFCC000000FF003300FF006600FF009900FF00CC00FF00FF00FF000033FF003333FF006633FF009933FF00CC33FF00FF33FF000066FF003366FF006666FF009966FF00CC66FF00FF66FF000099FF003399FF006699FF009999FF00CC
310
99FF00FF99FF0000CCFF0033CCFF0066CCFF0099CCFF00CCCCFF00FFCCFF0000FFFF0033FFFF0066FFFF0099FFFF00CCFFFF00FFFFFF00000000000D0D0D001A1A1A00282828003535350043434300505050005D5D5D006B6B6B00787878008686860093939300A1A1A100AEAEAE00BBBBBB00C9C9C900D6D6D600E4E4E400
310
F1F1F100FFFFFF000000000000000000000000000000000000000000000000000000000000000000000000000000000000000000000000000000000000000000000000000000000000000000000000000000000000000000000000000000000000000000000000000000000000000000000000000000000000000000000000
310
000000000000000000000000000000000000000000000000000000000000000000000000000000000000000000000000000000000000000000000000000000000000000000000000000000000000002D0000000000000000000000000000000000000000000000000000000000000000000000000000000000000000000000
310
00000000000000000000000000000000000000000000000000000000000000000000000000000000000000000000000000000000000000000000000000000000000000000000000000000000000000000000000000000000000000000000000000000000000000000000000000000000000000000000000000000000000000
310
00000000000000000000000000000000000000000000000000002D0000000000000000000000000000000000000000000000000000000000000000000000000000000000000000000000000000000000002D000000000000000000000000000000000000000000000000000000000000000000000000000000000000000000
310
00000000000000000000000000000000000000000000000000000000000000000000000000000000000000000000000000000000000000000000000000000000000000000000000000000000000000000000000000000000000000000000000000000000000000000000000000000000000000000000000000000000000000
310
0000000000000000000000000000000000000000000000F5F5F5F5F52DF5F5F5F5F50000000000000000000000000000000000000000000000000000000000000000000000000000000000000000F5F5F5F5F5F5F5F5F5F5F50000000000000000000000000000000000000000000000000000000000000000000000000000
310
00000000000000000000000000000000000000000000000000000000000000000000000000000000000000000000000000000000000000000000000000000000000000000000000000000000000000000000000000000000000000000000000000000000000000000000000000000000000000000000000000000000000000
310
00000000000000000000000000000000000000000000000000F5000000002D0000000028F500000000000000000000000000000000000000000000000000000000000000000000000000000000000000F5000000002D0000000028F50000000000000000000000000000000000000000000000000000000000000000000000
310
00000000000000000000000000000000000000000000000000000000000000000000000000000000000000000000000000000000000000000000000000000000000000000000000000000000000000000000000000000000000000000000000000000000000000000000000000000000000000000000000000000000000000
310
0000000000000000000000000000000000000000000000000000F5F5F5F5F5F5F5F5F5F5F5F5F5000000000000000000000000000000000000000000000000000000000000000000000000000000000000F5F5F5F5F5F5F5F5F5F5F5F5F5000000000000000000000000000000000000000000000000000000000000000000
310
00000000000000000000000000000000000000000000000000000000000000000000000000000000000000000000000000000000000000000000000000000000000000000000000000000000000000000000000000000000000000000000000000000000000000000000000000000000000000000000000000000000000000
310
00000000000000000000000000000000000000000000000000000000F528000000002D0000000028F5000000000000000000000000000000000000000000000000000000000000000000000000000000000000F528000000002D0000000028F500000000000000000000000000000000000000000000000000000000000000
310
00000000000000000000000000000000000000000000000000000000000000000000000000000000000000000000000000000000000000000000000000000000000000000000000000000000000000000000000000000000000000000000000000000000000000000000000000000000000000000000000000000000000000
310
000000000000000000000000000000000000000000000000000000000000F528000000002D0000000028F5000000000000000000000000000000000000000000000000000000000000000000000000000000000000F528000000002D0000000028F50000000000000000000000000000000000000000000000000000000000
310
00000000000000000000000000000000000000000000000000000000000000000000000000000000000000000000000000000000000000000000000000000000000000000000000000000000000000000000000000000000000000000000000000000000000000000000000000000000000000000000000000000000000000
310
0000000000000000000000000000000000000000000000000000000000000000F528000000002D0000000028F5000000000000000000000000000000000000000000000000000000000000000000000000000000000000F528000000002D0000000028F5000000000000000000000000000000000000000000000000000000
310
00000000000000000000000000000000000000000000000000000000000000000000000000000000000000000000000000000000000000000000000000000000000000000000000000000000000000000000000000000000000000000000000000000000000000000000000000000000000000000000000000000000000000
310
00000000000000000000000000000000000000000000000000000000000000000000F500000000002D0000000028F5000000000000000000000000000000000000000000000000000000000000000000000000000000000000F528000000002D0000000000F500000000000000000000000000000000000000000000000000
310
00000000000000000000000000000000000000000000000000000000000000000000000000000000000000000000000000000000000000000000000000000000000000000000000000000000000000000000000000000000000000000000000000000000000000000000000000000000000000000000000000000000000000
310
000000000000000000000000000000000000000000000000000000000000000000000000F500000000002D0000000028F5000000000000000000000000000000000000000000000000000000000000000000000000000000000000F528000000002D0000000000F50000000000000000000000000000000000000000000000
310
00000000000000000000000000000000000000000000000000000000000000000000000000000000000000000000000000000000000000000000000000000000000000000000000000000000000000000000000000000000000000000000000000000000000000000000000000000000000000000000000000000000000000
310
0000000000000000000000000000000000000000000000000000000000000000000000000000F500000000002D0000000028F5000000000000000000000000000000000000000000000000000000000000000000000000000000000000F528000000002D0000000000F5000000000000000000000000000000000000000000
310
00000000000000000000000000000000000000000000000000000000000000000000000000000000000000000000000000000000000000000000000000000000000000000000000000000000000000000000000000000000000000000000000000000000000000000000000000000000000000000000000000000000000000
310
00000000000000000000000000000000000000000000000000000000000000000000000000000000F500000000002D0000000028F5000000000000000000000000000000000000000000000000000000000000000000000000000000000000F528000000002D0000000000F500000000000000000000000000000000000000
310
00000000000000000000000000000000000000000000000000000000000000000000000000000000000000000000000000000000000000000000000000000000000000000000000000000000000000000000000000000000000000000000000000000000000000000000000000000000000000000000000000000000000000
310
000000000000000000000000000000000000000000000000000000000000000000000000000000000000F5F5F5F5F5F5F5F5F5F5F5F5F5000000000000000000000000000000000000000000000000000000000000000000000000000000000000F5F5F5F5F5F5F5F5F5F5F5F5F50000000000000000000000000000000000
310
00000000000000000000000000000000000000000000000000000000000000000000000000000000000000000000000000000000000000000000000000000000000000000000000000000000000000000000000000000000000000000000000000000000000000000000000000000000000000000000000000000000000000
310
0000000000000000000000000000000000000000000000000000000000000000000000000000000000F5F5F5F5F5F5F5F5F5F5F5F5F5F5F5F5F5F5F5000000000000000000000000000000000000000000000000000000000000000000000000F5F5F5F5F5F5F5F5F5F5F5F5F5F5F5F5F5F5F5000000000000000000000000
310
00000000000000000000000000000000000000000000000000000000000000000000000000000000000000000000000000000000000000000000000000000000000000000000000000000000000000000000000000000000000000000000000000000000000000000000000000000000000000000000000000000000000000
310
00000000000000000000000000000000000000000000000000000000000000000000000000000000000000F50000F500000000002D0000000000F50000F5000000000000000000000000000000000000000000000000000000000000000000000000F500000000000000002D0000000000000000F500000000000000000000
310
00000000000000000000000000000000000000000000000000000000000000000000000000000000000000000000000000000000000000000000000000000000000000000000000000000000000000000000000000000000000000000000000000000000000000000000000000000000000000000000000000000000000000
310
000000000000000000000000000000000000000000000000000000000000000000000000000000000000000000F50000F500000000002D0000000000F50000F5000000000000000000000000000000000000000000000000000000000000000000000000F500000000000000002D0000000000000000F50000000000000000
310
00000000000000000000000000000000000000000000000000000000000000000000000000000000000000000000000000000000000000000000000000000000000000000000000000000000000000000000000000000000000000000000000000000000000000000000000000000000000000000000000000000000000000
310
0000000000000000000000000000000000000000000000000000000000000000000000000000000000000000000000F50000F500000000002D0000000000F50000F5000000000000000000000000000000000000000000000000000000000000000000000000F500000000000000002D0000000000000000F5000000000000
310
00000000000000000000000000000000000000000000000000000000000000000000000000000000000000000000000000000000000000000000000000000000000000000000000000000000000000000000000000000000000000000000000000000000000000000000000000000000000000000000000000000000000000
310
00000000000000000000000000000000000000000000000000000000000000000000000000000000000000000000000000F50000F500000000002D0000000000F50000F5000000000000000000000000000000000000000000000000000000000000000000000000F500000000000000002D0000000000000000F500000000
310
00000000000000000000000000000000000000000000000000000000000000000000000000000000000000000000000000000000000000000000000000000000000000000000000000000000000000000000000000000000000000000000000000000000000000000000000000000000000000000000000000000000000000
310
000000000000000000000000000000000000000000000000000000000000000000000000000000000000000000000000000000F50000F500000000002D0000000000F50000F5000000000000000000000000000000000000000000000000000000000000000000000000F500000000000000002D0000000000000000F50000
310
00000000000000000000000000000000000000000000000000000000000000000000000000000000000000000000000000000000000000000000000000000000000000000000000000000000000000000000000000000000000000000000000000000000000000000000000000000000000000000000000000000000000000
310
0000000000000000000000000000000000000000000000000000000000000000000000000000000000000000000000000000000000F50000F500000000002D0000000000F50000F5000000000000000000000000000000000000000000000000000000000000000000000000F500000000000000002D0000000000000000F5
310
00000000000000000000000000000000000000000000000000000000000000000000000000000000000000000000000000000000000000000000000000000000000000000000000000000000000000000000000000000000000000000000000000000000000000000000000000000000000000000000000000000000000000
310
00000000000000000000000000000000000000000000000000000000000000000000000000000000000000000000000000000000000000F50000F500000000002D0000000000F50000F500000000000000000000000000000000000000000000000000000000000000000000000000F5000000000000002D00000000000000
310
00F50000000000000000000000000000000000000000000000000000000000000000000000000000000000000000000000000000000000000000000000000000000000000000000000000000000000000000000000000000000000000000000000000000000000000000000000000000000000000000000000000000000000
310
00000000000000000000000000000000000000000000000000000000000000000000000000000000000000000000F5F5F5F5F5F5F5F5F5F5F5F5F500F5F5F5F5F5F5F5F5F5F5F5F5F500F50000000000000000000000000000000000000000000000000000000000000000000000000000F5000000000000002D0000000000
310
000000F5000000000000000000000000000000000000000000000000000000000000000000000000000000000000000000000000000000000000000000000000000000000000000000000000000000000000000000000000000000000000000000000000000000000000000000000000000000000000000000000000000000
310
000000000000000000000000000000000000000000000000000000000000000000000000000000000000000000000000F5000000000000000000000000F500F5F5F5F5F5F5F5F5F5F5F5F5F500000000000000000000000000000000000000000000000000000000000000000000000000000000F50000000000002D000000
310
000000F5F50000000000000000000000000000000000000000000000000000000000000000000000000000000000000000000000000000000000000000000000000000000000000000000000000000000000000000000000000000000000000000000000000000000000000000000000000000000000000000000000000000
310
0000000000000000000000000000000000000000000000000000000000000000000000000000000000000000000000000000F5F5F5F5F5F5F5F5F5F5F5000000F500000000002D000000000000F50000000000000000000000000000000000000000000000000000000000000000000000000000F5F5F50000000000002D00
310
0000000000F5F5F50000000000000000000000000000000000000000000000000000000000000000000000000000000000000000000000000000000000000000000000000000000000000000000000000000000000000000000000000000000000000000000000000000000000000000000000000000000000000000000000
310
00000000000000000000000000000000000000000000000000000000000000000000000000000000000000000000000000000000F500000000000000000000F50000F500000000002D000000000000F50000000000000000000000000000000000000000000000000000000000000000000000000000F500F5000000000000
310
2D000000000000F500F5000000000000000000000000000000000000000000000000000000000000000000000000000000000000000000000000000000000000000000000000000000000000000000000000000000000000000000000000000000000000000000000000000000000000000000000000000000000000000000
310
000000000000000000000000000000000000000000000000000000000000000000000000000000000000000000000000000000000000F500000000000000000000F50000F500000000002D000000000000F50000000000000000000000000000000000000000000000000000000000000000000000000000F500F500000000
310
00002D000000000000F500F500000000000000000000000000000000000000000000000000000000000000000000000000000000000000000000000000000000000000000000000000000000000000000000000000000000000000000000000000000000000000000000000000000000000000000000000000000000000000
310
0000000000000000000000000000000000000000000000000000000000000000000000000000000000000000000000000000000000000000F500000000000000000000F50000F500000000002D000000000000F50000000000000000000000000000000000000000000000000000000000000000000000000000F500F50000
310
000000002D000000000000F500F50000000000000000000000000000000000000000000000000000000000000000000000000000000000000000000000000000000000000000000000000000000000000000000000000000000000000000000000000000000000000000000000000000000000000000000000000000000000
310
00000000000000000000000000000000000000000000000000000000000000000000000000000000000000000000000000000000000000000000F500000000000000000000F50000F50000F5F5F5F5F5F5F5000000F50000000000000000000000000000000000000000000000000000000000000000000000000000F500F5
310
0000000000002D000000000000F500F5000000000000000000000000000000000000000000000000000000000000000000000000000000000000000000000000000000000000000000000000000000000000000000000000000000000000000000000000000000000000000000000000000000000000000000000000000000
310
000000000000000000000000000000000000000000000000000000000000000000000000000000000000000000000000000000000000000000000000F500000000000000000000F50000F50000F500F5F5F500F5000000F50000000000000000000000000000000000000000000000000000000000000000000000000000F5
310
00F50000000000002D000000000000F500F500000000000000000000000000000000000000000000000000000000000000000000000000000000000000000000000000000000000000000000000000000000000000000000000000000000000000000000000000000000000000000000000000000000000000000000000000
310
0000000000000000000000000000000000000000000000000000000000000000000000000000000000000000000000000000000000000000000000000000F500000000000000000000F50000F50000F5F5F52DF5F5F5000000F500000000000000000000000000000000000000000000000000000000000000000000000000
310
00F500F50000000000002D000000000000F500F50000000000000000000000000000000000000000000000000000000000000000000000000000000000000000000000000000000000000000000000000000000000000000000000000000000000000000000000000000000000000000000000000000000000000000000000
310
00000000000000000000000000000000000000000000000000000000000000000000000000000000000000000000000000000000000000000000000000002D2D2D2D2D2D2D2D2D2D2D2D2DF52D2DF5F52D2DF52DF52DF52D2D2D2D2D2D2D000000000000000000000000000000000000000000000000000000000000000000
310
00002DF52DF52D2D2D2D2D2D2D2D2D2D2D2D2DF52D2D2D2D00000000000000000000000000000000000000000000000000000000000000000000000000000000000000000000000000000000000000000000000000000000000000000000000000000000000000000000000000000000000000000000000000000000000000
310
000000000000000000000000000000000000000000000000000000000000000000000000000000000000000000000000000000000000000000000000000000000000F500000000000000000000F5000000F50000F500F5F50000000000F5000000000000000000000000000000000000000000000000000000000000000000
310
0000000000F500F50000000000002D000000000000F500F500000000000000000000000000000000000000000000000000000000000000000000000000000000000000000000000000000000000000000000000000000000000000000000000000000000000000000000000000000000000000000000000000000000000000
310
0000000000000000000000000000000000000000000000000000000000000000000000000000000000000000000000000000000000000000000000000000000000000000F500000000000000000000F5000000F5000000F52DF50000000000F500000000000000000000000000000000000000000000000000000000000000
310
00000000000000F500F50000000000002D000000000000F500F50000000000000000000000000000000000000000000000000000000000000000000000000000000000000000000000000000000000000000000000000000000000000000000000000000000000000000000000000000000000000000000000000000000000
310
00000000000000000000000000000000000000000000000000000000000000000000000000000000000000000000000000000000000000000000000000000000000000000000F500000000000000000000F5000000F5000000F5F5000000000000F50000000000000000000000000000000000000000000000000000000000
310
000000000000000000F500F50000000000002D000000000000F500F5000000000000000000000000000000000000000000000000000000000000000000000000000000000000000000000000000000000000000000000000000000000000000000000000000000000000000000000000000000000000000000000000000000
310
000000000000000000000000000000000000000000000000000000000000000000000000000000000000000000000000000000000000000000000000000000000000000000000000F500000000000000000000F5000000F5000000F5F5000000000000F5000000000000000000000000000000000000000000000000000000
310
0000000000000000000000F500F50000000000002D000000000000F500F500000000000000000000000000000000000000000000000000000000000000000000000000000000000000000000000000000000000000000000000000000000000000000000000000000000000000000000000000000000000000000000000000
310
0000000000000000000000000000000000000000000000000000000000000000000000000000000000000000000000000000000000000000000000000000000000000000000000000000F500000000000000000000F5000000F5000000002D000000000000F500000000000000000000000000000000000000000000000000
310
00000000000000000000000000F500F50000000000002D000000000000F500F50000000000000000000000000000000000000000000000000000000000000000000000000000000000000000000000000000000000000000000000000000000000000000000000000000000000000000000000000000000000000000000000
310
00000000000000000000000000000000000000000000000000000000000000000000000000000000000000000000000000000000000000000000000000000000000000000000000000000000F5F5F5F5F5F5F5F5F5F5F5F5000000F5000000002D000000000000F50000000000000000000000000000000000000000000000
310
000000000000000000000000000000F5F5F50000000000002D000000000000F5F5F5000000000000000000000000000000000000000000000000000000000000000000000000000000000000000000000000000000000000000000000000000000000000000000000000000000000000000000000000000000000000000000
310
000000000000000000000000000000000000000000000000000000000000000000000000000000000000000000000000000000000000000000000000000000000000000000000000000000000000F50000000000000000000000000000F5000000002D000000000000F5000000000000000000000000000000000000000000
310
00000000000000000000000000000000000000F50000000000002D000000000000F5000000000000000000000000000000000000000000000000000000000000000000000000000000000000000000000000000000000000000000000000000000000000000000000000000000000000000000000000000000000000000000
310
0000000000000000000000000000000000000000000000000000000000000000000000000000000000000000000000000000000000000000000000000000000000000000000000000000000000000000F5F5F5F5F5F5F5F5F5F5F5F5F5F5F500000000002D000000000000F500000000000000000000000000000000000000
310
000000000000000000000000000000000000000000F50000000000002D000000000000F500000000000000000000000000000000000000000000000000000000000000000000000000000000000000000000000000000000000000000000000000000000000000000000000000000000000000000000000000000000000000
310
00000000000000000000000000000000000000000000000000000000000000000000000000000000000000000000000000000000000000000000000000000000000000000000000000000000000000000000000000000000000000000000F5F50000000000002D000000000000F50000000000000000000000000000000000
310
0000000000000000000000000000000000000000000000F50000000000002D000000000000F50000000000000000000000000000000000000000000000000000000000000000000000000000000000000000000000000000000000000000000000000000000000000000000000000000000000000000000000000000000000
310
00000000000000000000000000000000000000000000000000000000000000000000000000000000000000000000000000000000000000000000000000000000000000000000000000000000000000000000000000000000000000000000000000F50000000000002D000000000000F5000000000000000000000000000000
310
00000000000000000000000000000000000000000000000000F50000000000002D000000000000F5000000000000000000000000000000000000000000000000000000000000000000000000000000000000000000000000000000000000000000000000000000000000000000000000000000000000000000000000000000
310
000000000000000000000000000000000000000000000000000000000000000000000000000000000000000000000000000000000000000000000000000000000000000000000000000000000000000000000000000000000000000000000000000000F50000000000002D000000000000F500000000000000000000000000
310
000000000000000000000000000000000000000000000000000000F50000000000002D000000000000F500000000000000000000000000000000000000000000000000000000000000000000000000000000000000000000000000000000000000000000000000000000000000000000000000000000000000000000000000
310
0000000000000000000000000000000000000000000000000000000000000000000000000000000000000000000000000000000000000000000000000000000000000000000000000000000000000000000000000000000000000000000000000000000000F50000000000002D000000000000F50000000000000000000000
310
0000000000000000000000000000000000000000000000000000000000F50000000000002D000000000000F50000000000000000000000000000000000000000000000000000000000000000000000000000000000000000000000000000000000000000000000000000000000000000000000000000000000000000000000
310
00000000000000000000000000000000000000000000000000000000000000000000000000000000000000000000000000000000000000000000000000000000000000000000000000000000000000000000000000000000000000000000000000000000000000F5F5F5F5F5F5F5F5F5F5F5F5F5F5F5000000000000000000
310
00000000000000000000000000000000000000000000000000000000000000F5F5F5F5F5F5F5F5F5F5F5F5F5F5F5000000000000000000000000000000000000000000000000000000000000000000000000000000000000000000000000000000000000000000000000000000000000000000000000000000000000000000
310
00000000000000000000000000000000000000000000000000000000000000000000000000000000000000000000000000000000000000000000000000000000000000000000000000000000000000000000000000000000000000000000000000000000000000F5F5F5F5F5F5F5F5F5F5F5F5F5F5F5F5F5F5F50000000000
310
00000000000000000000000000000000000000000000000000000000000000F5F5F5F5F5F5F5F5F5F5F5F5F5F5F5F5F5F5F50000000000000000000000000000000000000000000000000000000000000000000000000000000000000000000000000000000000000000000000000000000000000000000000000000000000
310
000000000000000000000000000000000000000000000000000000000000000000000000000000000000000000000000000000000000000000000000000000000000000000000000000000000000000000000000000000000000000000000000000000000000000000F528000000000000002D0000000000000028F5000000
310
000000000000000000000000000000000000000000000000000000000000000000F528000000000000002D0000000000000028F5000000000000000000000000000000000000000000000000000000000000000000000000000000000000000000000000000000000000000000000000000000000000000000000000000000
310
00000000000000000000000000000000000000000000000000000000000000000000000000000000000000000000000000000000000000000000000000000000000000000000000000000000000000000000000000000000000000000000000000000000000000000000F5F5F5F5F5F5F5F5F5F5F5F5F5F5F5F5F5F5F5F5F5
310
00000000000000000000000000000000000000000000000000000000000000000000F5F5F5F5F5F5F5F5F5F5F5F5F5F5F5F5F5F5F5F5F5000000000000000000000000000000000000000000000000000000000000000000000000000000000000000000000000000000000000000000000000000000000000000000000000
310
000000000000000000000000000000000000000000000000000000000000000000000000000000000000000000000000000000000000000000000000000000000000000000000000000000000000000000000000000000000000000000000000000000000000000000000000F50000000000000000002D0000000000000000
310
00F500000000000000000000000000000000000000000000000000000000000000000000F50000000000000000002D000000000000000000F500000000000000000000000000000000000000000000000000000000000000000000000000000000000000000000000000000000000000000000000000000000000000000000
310
00000000000000000000000000000000000000000000000000000000000000000000000000000000000000000000000000000000000000000000000000000000000000000000000000000000000000000000000000000000000000000000000000000000000000000000000000F5F5F5F5F5F5F5F5F5F5F5F5F5F5F5F5F5F5
310
F5F5F5F500000000000000000000000000000000000000000000000000000000000000000000F5F5F5F5F5F5F5F5F5F5F5F5F5F5F5F5F5F5F5F5F5F500000000000000000000000000000000000000000000000000000000000000000000000000000000000000000000000000000000000000000000000000000000000000
310
0000000000000000000000000000000000000000000000000000000000000000000000000000000000000000000000000000000000000000000000000000000000000000000000000000000000000000000000000000000000000000000000000000000000000000000000000000F5F5000000F5F5F5F50000002D000000F5
310
F5F5F5000000F5F50000000000000000000000000000000000000000000000000000000000000000F5F5F50000000000F5F5F5F5F5000000000000F5F5F50000000000000000000000000000000000000000000000000000000000000000000000000000000000000000000000000000000000000000000000000000000000
310
00000000000000000000000000000000000000000000000000000000000000000000000000000000000000000000000000000000000000000000000000000000000000000000000000000000000000000000000000000000000000000000000000000000000000000000000000000000F500000000F500F5000000002D0000
310
0000F500F500000000F50000000000000000000000000000000000000000000000000000000000000000F5F500000000000000F52DF50000000000000000F5F5000000000000000000000000000000000000000000000000000000000000000000000000000000000000000000000000000000000000000000000000000000
310
000000000000000000000000000000000000000000000000000000000000000000000000000000000000000000000000000000000000000000000000000000000000000000000000000000000000000000000000000000000000000000000000000000000000000000000000000000000000F500000000F500F5000000002D
310
00000000F500F500000000F50000000000000000000000000000000000000000000000000000000000000000F5F500000000000000F52DF50000000000000000F5F500000000000000000000000000000000000000000000000000000000000000000000000000000000000000000000000000000000000000000000000000
310
0000000000000000000000000000000000000000000000000000000000000000000000000000000000000000000000000000000000000000000000000000000000000000000000000000000000000000000000000000000000000000000000000000000000000000000000000000000000000000F500000000F500F5000000
310
002D00000000F500F500000000F50000000000000000000000000000000000000000000000000000000000000000F5F500000000000000F52DF50000000000000000F5F50000000000000000000000000000000000000000000000000000000000000000000000000000000000000000000000000000000000000000000000
310
00000000000000000000000000000000000000000000000000000000000000000000000000000000000000000000000000000000000000000000000000000000000000000000000000000000000000000000000000000000000000000000000000000000000000000000000000000000000000000000F500000000F500F500
310
0000002D00000000F500F500000000F50000000000000000000000000000000000000000000000000000000000000000F5F500000000000000F52DF50000000000000000F5F5000000000000000000000000000000000000000000000000000000000000000000000000000000000000000000000000000000000000000000
310
000000000000000000000000000000000000000000000000000000000000000000000000000000000000000000000000000000000000000000000000000000000000000000000000000000000000000000000000000000000000000000000000000000000000000000000000000000000000000000000000F500000000F500
310
F5000000002D00000000F500F500000000F50000000000000000000000000000000000000000000000000000000000000000F5F500000000000000F52DF50000000000000000F5F500000000000000000000000000000000000000000000000000000000000000000000000000000000000000000000000000000000000000
310
0000000000000000000000000000000000000000000000000000000000000000000000000000000000000000000000000000000000000000000000000000000000000000000000000000000000000000000000000000000000000000000000000000000000000000000000000000000000000000000000000000F500000000
310
F5F5F5F50000002D000000F5F5F5F500000000F50000000000000000000000000000000000000000000000000000000000000000F5F5000000000000F5F5F5F5F5000000000000F5F5F50000000000000000000000000000000000000000000000000000000000000000000000000000000000000000000000000000000000
310
0000000000000000000000000000000000000000000000000000000000000000000000000000000000000000000000000000000000000000000000000000000000000000000000000000000000000000000000000000000000000000000000000000000000000000000000000000000000000000000000000000000000F5F5
310
F5F5F5F5F5F5F5F5F5F5F5F5F5F5F5F5F5F5F5F5F5000000000000000000000000000000000000000000000000000000000000000000F5F5F5F5F5F5F5F5F5F5F5F5F5F5F5F5F5F5F5F5F500000000000000000000000000000000000000000000000000000000000000000000000000000000000000000000000000000000
310
00000000000000000000000000000000000000000000000000000000000000000000000000000000000000000000000000000000000000000000000000000000000000000000000000000000000000000000000000000000000000000000000000000000000000000000000000000000000000000000000000000000000000
310
00000000000000F50000002D000000F500000000000000000000000000000000000000000000000000000000000000000000000000000000000000000000F50000002D000000F50000000000000000000000000000000000000000000000000000000000000000000000000000000000000000000000000000000000000000
310
00000000000000000000000000000000000000000000000000000000000000000000000000000000000000000000000000000000000000000000000000000000000000000000000000000000000000000000000000000000000000000000000000000000000000000000000000000000000000000000000000000000000000
310
000000000000000000F50000002D000000F500000000000000000000000000000000000000000000000000000000000000000000000000000000000000000000F50000002D000000F5000000000000000000000000000000000000000000000000000000000000000000000000000000000000000000000000000000000000
310
00000000000000000000000000000000000000000000000000000000000000000000000000000000000000000000000000000000000000000000000000000000000000000000000000000000000000000000000000000000000000000000000000000000000000000000000000000000000000000000000000000000000000
310
0000000000000000000000F50000002D000000F500000000000000000000000000000000000000000000000000000000000000000000000000000000000000000000F50000002D000000F500000000000000000000000000000000000000000000000000000000000000000000000000000000000000000000000000000000
310
00000000000000000000000000000000000000000000000000000000000000000000000000000000000000000000000000000000000000000000000000000000000000000000000000000000000000000000000000000000000000000000000000000000000000000000000000000000000000000000000000000000000000
310
00000000000000000000000000F50000002D000000F500000000000000000000000000000000000000000000000000000000000000000000000000000000000000000000F50000002D000000F50000000000000000000000000000000000000000000000000000000000000000000000000000000000000000000000000000
310
00000000000000000000000000000000000000000000000000000000000000000000000000000000000000000000000000000000000000000000000000000000000000000000000000000000000000000000000000000000000000000000000000000000000000000000000000000000000000000000000000000000000000
310
000000000000000000000000000000F5F5F5F5F5F5F5F5F500000000000000000000000000000000000000000000000000000000000000000000000000000000000000000000F5F5F5F5F5F5F5F5F5000000000000000000000000000000000000000000000000000000000000000000000000000000000000000000000000
310
00000000000000000000000000000000000000000000000000000000000000000000000000000000000000000000000000000000000000000000000000000000000000000000000000000000000000000000000000000000000000000000000000000000000000000000000000000000000000000000000000000000000000
310
0000000000000000F5F5F5F5F5F5F5F5F5F5F5F5F5F5F5F5F5F5F5F5F5F5F5F5F5F5F500000000000000000000000000000000000000000000000000000000F5F5F5F5F5F5F5F5F5F5F5F5F5F5F5F5F5F5F5F5F5F5F5F5F5F5F500000000000000000000000000000000000000000000000000000000000000000000000000
310
00000000000000000000000000000000000000000000000000000000000000000000000000000000000000000000000000000000000000000000000000000000000000000000000000000000000000000000000000000000000000000000000000000000000000000000000000000000000000000000000000000000000000
310
00000000000000F5F5F5F5F5F5F5F5F5F5F5F5F5F5F5F5F5F5F5F5F5F5F5F5F5F5F5F5F5F5F5F5000000000000000000000000000000000000000000000000F5F5F5F5F5F5F5F5F5F5F5F5F5F5F5F5F5F5F5F5F5F5F5F5F5F5F5F5F5F5F5F50000000000000000000000000000000000000000000000000000000000000000
310
00000000000000000000000000000000000000000000000000000000000000000000000000000000000000000000000000000000000000000000000000000000000000000000000000000000000000000000000000000000000000000000000000000000000000000000000000000000000000000000000000000000000000
310
000000000000000000F500F5000000F500F5000000000000F52DF5000000000000F500F5000000F500F50000000000000000000000000000000000000000000000F50000F50000000000F500F50000002D000000F500F50000000000F5000000F5000000000000000000000000000000000000000000000000000000000000
310
00000000000000000000000000000000000000000000000000000000000000000000000000000000000000000000000000000000000000000000000000000000000000000000000000000000000000000000000000000000000000000000000000000000000000000000000000000000000000000000000000000000000000
310
0000000000000000000000F500F5000000F500F5000000000000F52DF5000000000000F500F5000000F500F50000000000000000000000000000000000000000000000F50000F50000000000F500F50000002D000000F500F50000000000F5000000F500000000000000000000000000000000000000000000000000000000
310
00000000000000000000000000000000000000000000000000000000000000000000000000000000000000000000000000000000000000000000000000000000000000000000000000000000000000000000000000000000000000000000000000000000000000000000000000000000000000000000000000000000000000
310
00000000000000000000000000F500F5000000F500F5000000000000F52DF5000000000000F500F5000000F500F50000000000000000000000000000000000000000000000F50000F50000000000F500F50000002D000000F500F50000000000F5000000F50000000000000000000000000000000000000000000000000000
310
00000000000000000000000000000000000000000000000000000000000000000000000000000000000000000000000000000000000000000000000000000000000000000000000000000000000000000000000000000000000000000000000000000000000000000000000000000000000000000000000000000000000000
310
000000000000000000000000000000F500F5000000F500F5000000000000F52DF5000000000000F500F5000000F500F50000000000000000000000000000000000000000000000F50000F50000000000F500F50000002D000000F500F50000000000F5000000F5000000000000000000000000000000000000000000000000
310
00000000000000000000000000000000000000000000000000000000000000000000000000000000000000000000000000000000000000000000000000000000000000000000000000000000000000000000000000000000000000000000000000000000000000000000000000000000000000000000000000000000000000
310
0000000000000000000000000000000000F500F5000000F500F5000000000000F52DF5000000000000F500F5000000F500F50000000000000000000000000000000000000000000000F50000F50000000000F500F50000002D000000F500F50000000000F5000000F500000000000000000000000000000000000000000000
310
00000000000000000000000000000000000000000000000000000000000000000000000000000000000000000000000000000000000000000000000000000000000000000000000000000000000000000000000000000000000000000000000000000000000000000000000000000000000000000000000000000000000000
310
00000000000000000000000000000000000000F500F5000000F500F5000000000000F52DF5000000000000F500F5000000F500F50000000000000000000000000000000000000000000000F50000F50000000000F500F50000002D000000F500F50000000000F5000000F50000000000000000000000000000000000000000
310
00000000000000000000000000000000000000000000000000000000000000000000000000000000000000000000000000000000000000000000000000000000000000000000000000000000000000000000000000000000000000000000000000000000000000000000000000000000000000000000000000000000000000
310
000000000000000000000000000000000000000000F500F5000000F500F5000000000000F52DF5000000000000F500F5000000F500F50000000000000000000000000000000000000000000000F50000F50000000000F500F50000002D000000F500F50000000000F5000000F5000000000000000000000000000000000000
310
00000000000000000000000000000000000000000000000000000000000000000000000000000000000000000000000000000000000000000000000000000000000000000000000000000000000000000000000000000000000000000000000000000000000000000000000000000000000000000000000000000000000000
310
0000000000000000000000000000000000000000000000F500F5000000F500F5000000000000F52DF5000000000000F500F5000000F500F50000000000000000000000000000000000000000000000F50000F50000000000F500F50000002D000000F500F50000000000F5000000F500000000000000000000000000000000
310
00000000000000000000000000000000000000000000000000000000000000000000000000000000000000000000000000000000000000000000000000000000000000000000000000000000000000000000000000000000000000000000000000000000000000000000000000000000000000000000000000000000000000
310
00000000000000000000000000000000000000000000000000F500F5000000F500F5000000000000F52DF5000000000000F500F5000000F500F50000000000000000000000000000000000000000000000F50000F50000000000F500F50000002D000000F500F50000000000F5000000F50000000000000000000000000000
310
00000000000000000000000000000000000000000000000000000000000000000000000000000000000000000000000000000000000000000000000000000000000000000000000000000000000000000000000000000000000000000000000000000000000000000000000000000000000000000000000000000000000000
310
000000000000000000000000000000000000000000000000000000F500F5000000F500F5000000000000F52DF5000000000000F500F5000000F500F50000000000000000000000000000000000000000000000F50000F50000000000F500F50000002D000000F500F50000000000F5000000F5000000000000000000000000
310
00000000000000000000000000000000000000000000000000000000000000000000000000000000000000000000000000000000000000000000000000000000000000000000000000000000000000000000000000000000000000000000000000000000000000000000000000000000000000000000000000000000000000
310
0000000000000000000000000000000000000000000000000000000000F5F5F5000000F5F5F5000000000000F5F5F5000000000000F5F5F5000000F5F5F50000000000000000000000000000000000000000000000F5F5F5F50000000000F5F5F50000002D000000F5F5F50000000000F5F5F5F5F500000000000000000000
310
00000000000000000000000000000000000000000000000000000000000000000000000000000000000000000000000000000000000000000000000000000000000000000000000000000000000000000000000000000000000000000000000000000000000000000000000000000000000000000000000000000000000000
310
0000000000000000000000000000000000000000000000000000000000000000F5F5000000F50000F50000000000F52D00F50000000000F500F5000000F500F50000000000000000000000000000000000000000000000F5000000F500000000F50000F500002D000000F50000F500000000F5000000F50000000000000000
310
00000000000000000000000000000000000000000000000000000000000000000000000000000000000000000000000000000000000000000000000000000000000000000000000000000000000000000000000000000000000000000000000000000000000000000000000000000000000000000000000000000000000000
310
00000000000000000000000000000000000000000000000000000000000000000000F5F50000F5000000F500000000F5002D00F500000000F5000000F50000F5F5000000000000000000000000000000000000000000000000F5000000F5F50000F5F50000F500002D0000F5000000F5000000F5F5000000F5000000000000
310
00000000000000000000000000000000000000000000000000000000000000000000000000000000000000000000000000000000000000000000000000000000000000000000000000000000000000000000000000000000000000000000000000000000000000000000000000000000000000000000000000000000000000
310
000000000000000000000000000000000000000000000000000000000000000000000000F5F5F5F5F5F5F5F5F5F5F5F5F5F5F5F5F5F5F5F5F5F5F5F5F5F5F5F5F5F50000000000000000000000000000000000000000000000000000F5F5F5F5F5F5F5F5F5F5F5F5F5F5F5F5F5F5F5F5F5F5F5F5F5F5F5F5F5F50000000000
310
00000000000000000000000000000000000000000000000000000000000000000000000000000000000000000000000000000000000000000000000000000000000000000000000000000000000000000000000000000000000000000000000000000000000000000000000000000000000000000000000000000000000000
310
00000000000000000000000000000000000000000000000000000000000000000000000000000000F50000000000000000000000002D000000000000000000000000F500000000000000000000000000000000000000000000000000000000F50000000000000000000000002D000000000000000000000000F50000000000
310
00000000000000000000000000000000000000000000000000000000000000000000000000000000000000000000000000000000000000000000000000000000000000000000000000000000000000000000000000000000000000000000000000000000000000000000000000000000000000000000000000000000000000
310
000000000000000000000000000000000000000000000000000000000000000000000000000000000000F5F5F5F5F5F5F5F5F5F5F5F5F5F5F5F5F5F5F5F5F5F5F5F5F5F5F500000000000000000000000000000000000000000000000000000000F5F5F5F5F5F5F5F5F5F5F5F5F5F5F5F5F5F5F5F5F5F5F5F5F5F5F5000000
310
00000000000000000000000000000000000000000000000000000000000000000000000000000000000000000000000000000000000000000000000000000000000000000000000000000000000000000000000000000000000000000000000000000000000000000000000000000000000000000000000000000000000000
310
0000000000000000000000000000000000000000000000000000000000000000000000000000000000000000000000000000000000000000002D0000000000000000000000000000000000000000000000000000000000000000000000000000000000000000000000000000000000002D0000000000000000000000000000
310
00000000000000000000000000000000000000000000000000000000000000000000000000000000000000000000000000000000000000000000000000000000000000000000000000000000000000000000000000000000000000000000000000000000000000000000000000000000000000000000000000000000000000
310
00000000000000000000000000000000000000000000000000000000000000000000000000000000000000000000000000000000000000000000002D0000000000000000000000000000000000000000000000000000000000000000000000000000000000000000000000000000000000002D000000000000000000000000
310
00000000000000000000000000000000000000000000000000000000000000000000000000000000000000000000000000000000000000000000000000000000000000000000000000000000000000000000000000000000000000000000000000000000000000000000000000000000000000000000000000000000000000
310
000000000000000000000000000000000000000000000000000000000000000000000000000000000000000000000000000000000000000000000000002D0000000000000000000000000000000000000000000000000000000000000000000000000000000000000000000000000000000000000000000000000000000000
310
00000000000000000000000000000000000000000000000000000000000000000000000000000000000000000000000000000000000000000000000000000000000000000000000000000000000000000000000000000000000000000000000000000000000000000000000000000000000000000000000000000000000000
310
00000000000000000000000000000000000000000000000000000000000000000000000000000000000000000000000000000000000000000000000000000000000000000000000000000000000000000000000000000000000000000000000000000000000000000000000000000000000000000000000000000000000000
310
00000000000000000000000000000000000000000000000000000000000000000000000000000000000000000000000000000000000000000000000000000000000000000000000000000000000000000000000000000000000000000000000000000000000000000000000000000000000000000000000000000000000000
310
00000000000000000000000000000000000000000000000000000000000000000000000000000000000000000000000000000000000000000000000000000000000000000000000000000000000000000000000000000000000000000000000000000000000000000000000000000000000000000000000000000000000000
310
00000000000000000000000000000000000000000000000000000000000000000000000000000000000000000000000000000000000000000000000000000000000000000000000000000000000000000000000000000000000000000000000000000000000000000000000000000000000000000000000000000000000000
310
00000000000000000000000000000000000000000000000000000000000000000000000000000000000000000000000000000000000000000000000000000000000000000000000000000000000000000000000000000000000000000000000000000000000000000000000000000000000000000000000000000000000000
310
00000000000000000000000000000000000000000000000000000000000000000000000000000000000000000000000000000000000000000000000000000000000000000000000000000000000000000000000000000000000000000000000000000000000000000000000000000000000000000000000000000000000000
310
00000000000000000000000000000000000000000000000000000000000000000000000000000000000000000000000000000000000000000000000000000000000000000000000000000000000000000000000000000000000000000000000000000000000000000000000000000000000000000000000000000000000000
310
00000000000000000000000000000000000000000000000000000000000000000000000000000000000000000000000000000000000000000000000000000000000000000000000000000000000000000000000000000000000000000000000000000000000000000000000000000000000000000000000000000000000000
310
00000000000000000000000000000000000000000000000000000000000000000000000000000000000000000000000000000000000000000000000000000000000000000000002D00000000000000000000000000000000000000000000000000000000000000000000000000000000000000000000000000000000000000
310
00000000000000000000000000000000000000000000000000000000000000000000000000000000000000000000000000000000000000000000000000000000000000000000000000000000000000000000000000000000000000000000000000000000000000000000000000000000000000000000000000000000000000
310
000000000000000000000000000000000000000000000000000000000000000000000000000000000000000000000000000000000000000000000000000000000000000000000000002D0000000000000000000000000000000000000000000000000000000000000000000000000000000000000000000000000000000000
310
00000000000000000000000000000000000000000000000000000000000000000000000000000000000000000000000000000000000000000000000000000000000000000000000000000000000000000000000000000000000000000000000000000000000000000000000000000000000000000000000000000000000000
310
0000000000000000000000000000000000000000000000000000000000000000000000000000000000000000000000000000000000000000000000000000000000000000000000000000F52DF50000000000000000000000000000000000000000000000000000000000000000000000000000000000000000000000000000
310
00000000000000000000000000000000000000000000000000000000000000000000000000000000000000000000000000000000000000000000000000000000000000000000000000000000000000000000000000000000000000000000000000000000000000000000000000000000000000000000000000000000000000
310
00000000000000000000000000000000000000000000000000000000000000000000000000000000000000000000000000000000000000000000000000000000000000000000000000000000F52D00F50000000000000000000000000000000000000000000000000000000000000000000000000000000000000000000000
310
00000000000000000000000000000000000000000000000000000000000000000000000000000000000000000000000000000000000000000000000000000000000000000000000000000000000000000000000000000000000000000000000000000000000000000000000000000000000000000000000000000000000000
310
00000000000000000000000000000000000000000000000000000000000000000000000000000000000000000000000000000000000000000000000000000000000000000000F5F500000000F5F5F52DF5F5F500000000F5000000000000000000000000000000000000000000000000000000000000000000000000000000
310
00000000000000000000000000000000000000000000000000000000000000000000000000000000000000000000000000000000000000000000000000000000000000000000000000000000000000000000000000000000000000000000000000000000000000000000000000000000000000000000000000000000000000
310
0000000000000000000000000000000000000000000000000000000000000000000000000000000000000000000000000000000000000000000000000000000000000000000000F50000F5F5F5F5F500002D0000F5F5F5F5F500F5F50000000000000000000000000000000000000000000000000000000000000000000000
310
00000000000000000000000000000000000000000000000000000000000000000000000000000000000000000000000000000000000000000000000000000000000000000000000000000000000000000000000000000000000000000000000000000000000000000000000000000000000000000000000000000000000000
310
00000000000000000000000000000000000000000000000000000000000000000000000000000000000000000000000000000000000000000000000000000000000000000000000000F50000F5F50000F5F5F52DF5F5F50000F5F50000F5000000000000000000000000000000000000000000000000000000000000000000
310
00000000000000000000000000000000000000000000000000000000000000000000000000000000000000000000000000000000000000000000000000000000000000000000000000000000000000000000000000000000000000000000000000000000000000000000000000000000000000000000000000000000000000
310
000000000000000000000000000000000000000000000000000000000000000000000000000000000000000000000000000000000000000000000000000000000000000000000000000000F500F50000F5F50000002D000000F5F50000F500F500000000000000000000000000000000000000000000000000000000000000
310
00000000000000000000000000000000000000000000000000000000000000000000000000000000000000000000000000000000000000000000000000000000000000000000000000000000000000000000000000000000000000000000000000000000000000000000000000000000000000000000000000000000000000
310
0000000000000000000000000000000000000000000000000000000000000000000000000000000000000000000000000000000000000000000000000000000000000000000000000000000000F5F50000F500000000002D0000000000F50000F5F50000000000000000000000000000000000000000000000000000000000
310
00000000000000000000000000000000000000000000000000000000000000000000000000000000000000000000000000000000000000000000000000000000000000000000000000000000000000000000000000000000000000000000000000000000000000000000000000000000000000000000000000000000000000
310
00000000000000000000000000000000000000000000000000000000000000000000000000000000000000000000000000000000000000000000000000000000000000000000000000000000000000F50000F50000000000002D000000000000F50000F5000000000000000000000000000000000000000000000000000000
310
00000000000000000000000000000000000000000000000000000000000000000000000000000000000000000000000000000000000000000000000000000000000000000000000000000000000000000000000000000000000000000000000000000000000000000000000000000000000000000000000000000000000000
310
0000000000000000000000000000000000000000000000000000000000000000000000000000000000000000000000000000000000000000000000000000000000000000000000000000000000000000F500F5F5000000000000002D00000000000000F5F500F5000000000000000000000000000000000000000000000000
310
00000000000000000000000000000000000000000000000000000000000000000000000000000000000000000000000000000000000000000000000000000000000000000000000000000000000000000000000000000000000000000000000000000000000000000000000000000000000000000000000000000000000000
310
00000000000000000000000000000000000000000000000000000000000000000000000000000000000000000000000000000000000000000000000000000000000000000000000000000000000000F5F5F5F500F500000000000000002D00000000000000F5F5F500F5F5F500000000000000000000000000000000000000
310
00000000000000000000000000000000000000000000000000000000000000000000000000000000000000000000000000000000000000000000000000000000000000000000000000000000000000000000000000000000000000000000000000000000000000000000000000000000000000000000000000000000000000
310
0000000000000000000000000000000000000000000000000000000000000000000000000000000000000000000000000000000000000000000000000000000000000000000000000000000000000000F50000F500F50000000000000000002D00000000000000F5F5F500F50000F500000000000000000000000000000000
310
00000000000000000000000000000000000000000000000000000000000000000000000000000000000000000000000000000000000000000000000000000000000000000000000000000000000000000000000000000000000000000000000000000000000000000000000000000000000000000000000000000000000000
310
00000000000000000000000000000000000000000000000000000000000000000000000000000000000000000000000000000000000000000000000000000000000000000000000000000000000000000000F50000F500F50000000000000000002D00000000000000F5F5F500F50000F50000000000000000000000000000
310
00000000000000000000000000000000000000000000000000000000000000000000000000000000000000000000000000000000000000000000000000000000000000000000000000000000000000000000000000000000000000000000000000000000000000000000000000000000000000000000000000000000000000
310
000000000000000000000000000000000000000000000000000000000000000000000000000000000000000000000000000000000000000000000000000000000000000000000000000000000000000000000000F500F500F5000000000000000000002D00000000000000F5F5F5F500F500F5000000000000000000000000
310
00000000000000000000000000000000000000000000000000000000000000000000000000000000000000000000000000000000000000000000000000000000000000000000000000000000000000000000000000000000000000000000000000000000000000000000000000000000000000000000000000000000000000
310
000000000000000000000000000000000000000000000000000000000000000000000000000000000000000000000000000000000000000000000000000000000000000000000000000000000000000000000000000000F5F500F5F5F5F5F5F5F5F5F5F5F52DF5F5F5F5F5F5F5F5F5F5F500F5F50000000000000000000000
310
0000000000000000F5F5F5F5F5F5F5F5F5F5F5F5F5F5F5F5F5F5F5F5F5F5F5F5F5F5F5F5F5F5F5F5F5F5F5000000000000000000000000000000000000000000000000000000000000000000000000000000000000000000000000000000000000000000000000000000000000000000000000000000000000000000000000
310
000000000000000000000000000000000000000000000000000000000000000000000000000000000000000000000000000000000000000000000000000000000000000000000000000000000000000000000000000000000000F500F5F5F5F5F5F5F5F5F5F5F52DF5F5F5F5F5F5F5F5F5F5F500F5F5000000000000000000
310
00000000000000000000F5F5F5F5F5F5F5F5F5F5F5F5F5F5F5F5F5F5F5F5F5F5F5F5F5F5F5F5F5F5F5F5F5F5F500000000000000000000000000000000000000000000000000000000000000000000000000000000000000000000000000000000000000000000000000000000000000000000000000000000000000000000
310
0000000000000000000000000000000000000000000000000000000000000000000000000000000000000000000000000000000000000000000000000000000000000000000000000000000000000000000000000000002D2D2D2D2D2D2D2D2D2D2D2D2D2D2D2D2D2D2D2D2D2D2D2D2D2D2D2D2D2D2D2D2D2D2D2D00000000
310
000000000000000000000000F5F5F5F5F5F5F5F5F5F5F5F5F5F5F5F5F5F5F5F5F5F5F5F5F5F5F5F5F5F5F5F5F5F5F50000000000000000000000000000000000000000000000000000000000000000000000000000000000000000000000000000000000000000000000000000000000000000000000000000000000000000
310
00000000000000000000000000000000000000000000000000000000000000000000000000000000000000000000000000000000000000000000000000000000000000000000000000000000000000000000000000000000000000000000F500F5F5F5F5F5F5F5F5F5F5F52DF5F5F5F5F5F5F5F5F5F5F500F5000000000000
310
00000000000000000000000000000000000000000000000000000000000000000000000000000000000000000000000000000000000000000000000000000000000000000000000000000000000000000000000000000000000000000000000000000000000000000000000000000000000000000000000000000000000000
310
000000000000000000000000000000000000000000000000000000000000000000000000000000000000000000000000000000000000000000000000000000000000000000000000000000000000000000000000000000000000000000000000F500F5F5F5F5F5F5F5F5F5F5F52DF5F5F5F5F5F5F5F5F5F5F500F5F5000000
310
00000000000000000000000000000000000000000000000000000000000000000000000000000000000000000000000000000000000000000000000000000000000000000000000000000000000000000000000000000000000000000000000000000000000000000000000000000000000000000000000000000000000000
310
00000000000000000000000000000000000000000000000000000000000000000000000000000000000000000000000000000000000000000000000000000000000000000000000000000000000000000000000000000000000000000000000000F5F500F5F5F5F5000000000000002D00000000000000000000F500F5F500
310
00000000000000000000000000000000000000000000000000000000000000000000000000000000000000000000000000000000000000000000000000000000000000000000000000000000000000000000000000000000000000000000000000000000000000000000000000000000000000000000000000000000000000
310
0000000000000000000000000000000000000000000000000000000000000000000000000000000000000000000000000000000000000000000000000000000000000000000000000000000000000000000000000000000000000000000000000000F50000F500F5F5F5000000000000002D00000000000000000000F500F5
310
00F50000000000000000000000000000000000000000000000000000000000000000000000000000000000000000000000000000000000000000000000000000000000000000000000000000000000000000000000000000000000000000000000000000000000000000000000000000000000000000000000000000000000
310
00000000000000000000000000000000000000000000000000000000000000000000000000000000000000000000000000000000000000000000000000000000000000000000000000000000000000000000000000000000000000000000000000000000F50000F500F5F5F5000000000000002D000000000000000000F500
310
F50000F5000000000000000000000000000000000000000000000000000000000000000000000000000000000000000000000000000000000000000000000000000000000000000000000000000000000000000000000000000000000000000000000000000000000000000000000000000000000000000000000000000000
310
000000000000000000000000000000000000000000000000000000000000000000000000000000000000000000000000000000000000000000000000000000000000000000000000000000000000000000000000000000000000000000000000000000000000F5F500F500F5F5F5000000000000002D000000000000000000
310
F500F500F5F500000000000000000000000000000000000000000000000000000000000000000000000000000000000000000000000000000000000000000000000000000000000000000000000000000000000000000000000000000000000000000000000000000000000000000000000000000000000000000000000000
310
00000000000000000000000000000000000000000000000000000000000000000000000000000000000000000000000000000000000000000000000000000000000000000000000000000000000000000000000000000000000000000000000000000000000000000000F5F5F500F500000000000000002D00000000000000
310
00F500F5F5F500000000000000000000000000000000000000000000000000000000000000000000000000000000000000000000000000000000000000000000000000000000000000000000000000000000000000000000000000000000000000000000000000000000000000000000000000000000000000000000000000
310
0000000000000000000000000000000000000000000000000000000000000000000000000000000000000000000000000000000000000000000000000000000000000000000000000000000000000000000000000000000000000000000000000000000000000000000000000000F5F500F5000000000000002D0000000000
310
0000F50000F500000000000000000000000000000000000000000000000000000000000000000000000000000000000000000000000000000000000000000000000000000000000000000000000000000000000000000000000000000000000000000000000000000000000000000000000000000000000000000000000000
310
0000000000000000000000000000000000000000000000000000000000000000000000000000000000000000000000000000000000000000000000000000000000000000000000000000000000000000000000000000000000000000000000000000000000000000000000000000000000F50000F50000000000002D000000
310
000000F50000F5000000000000000000000000000000000000000000000000000000000000000000000000000000000000000000000000000000000000000000000000000000000000000000000000000000000000000000000000000000000000000000000000000000000000000000000000000000000000000000000000
310
00000000000000000000000000000000000000000000000000000000000000000000000000000000000000000000000000000000000000000000000000000000000000000000000000000000000000000000000000000000000000000000000000000000000000000000000000000000000000F5F50000F5F5000000002D00
310
0000F5F5F50000F5F500000000000000000000000000000000000000000000000000000000000000000000000000000000000000000000000000000000000000000000000000000000000000000000000000000000000000000000000000000000000000000000000000000000000000000000000000000000000000000000
310
000000000000000000000000000000000000000000000000000000000000000000000000000000000000000000000000000000000000000000000000000000000000000000000000000000000000000000000000000000000000000000000000000000000000000000000000000000000000000000F500F5F50000F5F5F5F5
310
2DF5F5F5000000F5F500F50000000000000000000000000000000000000000000000000000000000000000000000000000000000000000000000000000000000000000000000000000000000000000000000000000000000000000000000000000000000000000000000000000000000000000000000000000000000000000
310
0000000000000000000000000000000000000000000000000000000000000000000000000000000000000000000000000000000000000000000000000000000000000000000000000000000000000000000000000000000000000000000000000000000000000000000000000000000000000000000000F5000000F5F50000
310
00002D000000F5F5F5000000F5000000000000000000000000000000000000000000000000000000000000000000000000000000000000000000000000000000000000000000000000000000000000000000000000000000000000000000000000000000000000000000000000000000000000000000000000000000000000
310
0000000000000000000000000000000000000000000000000000000000000000000000000000000000000000000000000000000000000000000000000000000000000000000000000000000000000000000000000000000000000000000000000000000000000000000000000000000000000000000000000000F5F5F5F5F5
310
F5F5F5F52DF5F5F5F5F5F5F5F5F50000000000000000000000000000000000000000000000000000000000000000000000000000000000000000000000000000000000000000000000000000000000000000000000000000000000000000000000000000000000000000000000000000000000000000000000000000000000
310
00000000000000000000000000000000000000000000000000000000000000000000000000000000000000000000000000000000000000000000000000000000000000000000000000000000000000000000000000000000000000000000000000000000000000000000000000000000000000000000000000000000000000
310
00000000F5002D00F500000000000000000000000000000000000000000000000000000000000000000000000000000000000000000000000000000000000000000000000000000000000000000000000000000000000000000000000000000000000000000000000000000000000000000000000000000000000000000000
310
00000000000000000000000000000000000000000000000000000000000000000000000000000000000000000000000000000000000000000000000000000000000000000000000000000000000000000000000000000000000000000000000000000000000000000000000000000000000000000000000000000000000000
310
00000000000000F52DF5000000000000000000000000000000000000000000000000000000000000000000000000000000000000000000000000000000000000000000000000000000000000000000000000000000000000000000000000000000000000000000000000000000000000000000000000000000000000000000
310
00000000000000000000000000000000000000000000000000000000000000000000000000000000000000000000000000000000000000000000000000000000000000000000000000000000000000000000000000000000000000000000000000000000000000000000000000000000000000000000000000000000000000
310
000000000000000000F52DF500000000000000000000000000000000000000000000000000000000000000000000000000000000000000000000000000000000000000000000000000000000000000000000000000000000000000000000000000000000000000000000000000000000000000000000000000000000000000
310
00000000000000000000000000000000000000000000000000000000000000000000000000000000000000000000000000000000000000000000000000000000000000000000000000000000000000000000000000000000000000000000000000000000000000000000000000000000000000000000000000000000000000
310
0000000000000000000000002D000000000000000000000000000000000000000000000000000000000000000000000000000000000000000000000000000000000000000000000000000000000000000000000000000000000000000000000000000000000000000000000000000000000000000000000000000000000000
310
00000000000000000000000000000000000000000000000000000000000000000000000000000000000000000000000000000000000000000000000000000000000000000000000000000000000000000000000000000000000000000000000000000000000000000000000000000000000000000000000000000000000000
310
00000000000000000000000000002D00000000000000000000000000000000000000000000000000000000000000000000000000000000000000000000000000000000000000000000000000000000000000000000000000000000000000000000000000000000000000000000000000000000000000000000000000000000
310
00000000000000000000000000000000000000000000000000000000000000000000000000000000
  0
XRECORD
  5
1922
102
{ACAD_REACTORS
330
1921
102
}
330
1921
100
AcDbXrecord
280
     1
102
SHADEPLOT
 70
     0
102
SHADEPLOTRESLEVEL
 70
     2
102
SHADEPLOTCUSTOMDPI
 70
   300
  0
XRECORD
  5
1925
102
{ACAD_REACTORS
330
1924
102
}
330
1924
100
AcDbXrecord
280
     1
102
SHADEPLOT
 70
     0
102
SHADEPLOTRESLEVEL
 70
     2
102
SHADEPLOTCUSTOMDPI
 70
   300
  0
XRECORD
  5
1929
102
{ACAD_REACTORS
330
1928
102
}
330
1928
100
AcDbXrecord
280
     1
102
MATERIAL
148
0.0
149
0.0
149
0.0
 93
        0
 94
       63
282
     0
 72
     1
 77
     1
171
     1
175
     1
179
     1
273
     0
  0
XRECORD
  5
1927
102
{ACAD_REACTORS
330
1926
102
}
330
1926
100
AcDbXrecord
280
     1
102
MATERIAL
148
0.0
149
0.0
149
0.0
 93
        0
 94
       63
282
     0
 72
     1
 77
     1
171
     1
175
     1
179
     1
273
     0
  0
XRECORD
  5
192B
102
{ACAD_REACTORS
330
192A
102
}
330
192A
100
AcDbXrecord
280
     1
102
MATERIAL
148
0.0
149
0.0
149
0.0
 93
        0
 94
       63
282
     0
 72
     1
 77
     1
171
     1
175
     1
179
     1
273
     0
  0
CELLSTYLEMAP
  5
191C
102
{ACAD_REACTORS
330
1416
102
}
330
1416
100
AcDbCellStyleMap
 90
        3
300
CELLSTYLE
  1
TABLEFORMAT_BEGIN
 90
        5
170
     1
 91
        0
 92
    32768
 62
   257
 93
        1
300
CONTENTFORMAT
  1
CONTENTFORMAT_BEGIN
 90
        0
 91
        0
 92
      512
 93
        0
300

 40
0.0
140
1.0
 94
        5
 62
     0
340
11
144
6.0
309
CONTENTFORMAT_END
171
     1
301
MARGIN
  1
CELLMARGIN_BEGIN
 40
1.5
 40
1.5
 40
1.5
 40
1.5
 40
0.18
 40
0.18
309
CELLMARGIN_END
 94
        6
 95
        1
302
GRIDFORMAT
  1
GRIDFORMAT_BEGIN
 90
        0
 91
        1
 62
     0
 92
       -2
340
0
 93
        0
 40
0.045
309
GRIDFORMAT_END
 95
        2
302
GRIDFORMAT
  1
GRIDFORMAT_BEGIN
 90
        0
 91
        1
 62
     0
 92
       -2
340
0
 93
        0
 40
0.045
309
GRIDFORMAT_END
 95
        4
302
GRIDFORMAT
  1
GRIDFORMAT_BEGIN
 90
        0
 91
        1
 62
     0
 92
       -2
340
0
 93
        0
 40
0.045
309
GRIDFORMAT_END
 95
        8
302
GRIDFORMAT
  1
GRIDFORMAT_BEGIN
 90
        0
 91
        1
 62
     0
 92
       -2
340
0
 93
        0
 40
0.045
309
GRIDFORMAT_END
 95
       16
302
GRIDFORMAT
  1
GRIDFORMAT_BEGIN
 90
        0
 91
        1
 62
     0
 92
       -2
340
0
 93
        0
 40
0.045
309
GRIDFORMAT_END
 95
       32
302
GRIDFORMAT
  1
GRIDFORMAT_BEGIN
 90
        0
 91
        1
 62
     0
 92
       -2
340
0
 93
        0
 40
0.045
309
GRIDFORMAT_END
309
TABLEFORMAT_END
  1
CELLSTYLE_BEGIN
 90
        1
 91
        1
300
_TITLE
309
CELLSTYLE_END
300
CELLSTYLE
  1
TABLEFORMAT_BEGIN
 90
        5
170
     1
 91
        0
 92
        0
 62
   257
 93
        1
300
CONTENTFORMAT
  1
CONTENTFORMAT_BEGIN
 90
        0
 91
        0
 92
      512
 93
        0
300

 40
0.0
140
1.0
 94
        5
 62
     0
340
11
144
4.5
309
CONTENTFORMAT_END
171
     1
301
MARGIN
  1
CELLMARGIN_BEGIN
 40
1.5
 40
1.5
 40
1.5
 40
1.5
 40
0.18
 40
0.18
309
CELLMARGIN_END
 94
        6
 95
        1
302
GRIDFORMAT
  1
GRIDFORMAT_BEGIN
 90
        0
 91
        1
 62
     0
 92
       -2
340
0
 93
        0
 40
0.045
309
GRIDFORMAT_END
 95
        2
302
GRIDFORMAT
  1
GRIDFORMAT_BEGIN
 90
        0
 91
        1
 62
     0
 92
       -2
340
0
 93
        0
 40
0.045
309
GRIDFORMAT_END
 95
        4
302
GRIDFORMAT
  1
GRIDFORMAT_BEGIN
 90
        0
 91
        1
 62
     0
 92
       -2
340
0
 93
        0
 40
0.045
309
GRIDFORMAT_END
 95
        8
302
GRIDFORMAT
  1
GRIDFORMAT_BEGIN
 90
        0
 91
        1
 62
     0
 92
       -2
340
0
 93
        0
 40
0.045
309
GRIDFORMAT_END
 95
       16
302
GRIDFORMAT
  1
GRIDFORMAT_BEGIN
 90
        0
 91
        1
 62
     0
 92
       -2
340
0
 93
        0
 40
0.045
309
GRIDFORMAT_END
 95
       32
302
GRIDFORMAT
  1
GRIDFORMAT_BEGIN
 90
        0
 91
        1
 62
     0
 92
       -2
340
0
 93
        0
 40
0.045
309
GRIDFORMAT_END
309
TABLEFORMAT_END
  1
CELLSTYLE_BEGIN
 90
        2
 91
        1
300
_HEADER
309
CELLSTYLE_END
300
CELLSTYLE
  1
TABLEFORMAT_BEGIN
 90
        5
170
     1
 91
        0
 92
        0
 62
   257
 93
        1
300
CONTENTFORMAT
  1
CONTENTFORMAT_BEGIN
 90
        0
 91
        0
 92
      512
 93
        0
300

 40
0.0
140
1.0
 94
        2
 62
     0
340
11
144
4.5
309
CONTENTFORMAT_END
171
     1
301
MARGIN
  1
CELLMARGIN_BEGIN
 40
1.5
 40
1.5
 40
1.5
 40
1.5
 40
0.18
 40
0.18
309
CELLMARGIN_END
 94
        6
 95
        1
302
GRIDFORMAT
  1
GRIDFORMAT_BEGIN
 90
        0
 91
        1
 62
     0
 92
       -2
340
0
 93
        0
 40
0.045
309
GRIDFORMAT_END
 95
        2
302
GRIDFORMAT
  1
GRIDFORMAT_BEGIN
 90
        0
 91
        1
 62
     0
 92
       -2
340
0
 93
        0
 40
0.045
309
GRIDFORMAT_END
 95
        4
302
GRIDFORMAT
  1
GRIDFORMAT_BEGIN
 90
        0
 91
        1
 62
     0
 92
       -2
340
0
 93
        0
 40
0.045
309
GRIDFORMAT_END
 95
        8
302
GRIDFORMAT
  1
GRIDFORMAT_BEGIN
 90
        0
 91
        1
 62
     0
 92
       -2
340
0
 93
        0
 40
0.045
309
GRIDFORMAT_END
 95
       16
302
GRIDFORMAT
  1
GRIDFORMAT_BEGIN
 90
        0
 91
        1
 62
     0
 92
       -2
340
0
 93
        0
 40
0.045
309
GRIDFORMAT_END
 95
       32
302
GRIDFORMAT
  1
GRIDFORMAT_BEGIN
 90
        0
 91
        1
 62
     0
 92
       -2
340
0
 93
        0
 40
0.045
309
GRIDFORMAT_END
309
TABLEFORMAT_END
  1
CELLSTYLE_BEGIN
 90
        3
 91
        2
300
_DATA
309
CELLSTYLE_END
  0
XRECORD
  5
194C
102
{ACAD_REACTORS
330
1416
102
}
330
1416
100
AcDbXrecord
280
     1
102
ACAD_ROUNDTRIP_PRE2007_TABLESTYLE
 90
      512
 91
        0
  1

 92
      512
 93
        0
  2

 94
      512
 95
        0
  3

  0
XRECORD
  5
1937
102
{ACAD_REACTORS
330
1936
102
}
330
1936
100
AcDbXrecord
280
     1
102
RTVSPropertyOp0
 70
     1
102
RTVSPropertyOp1
 70
     1
102
RTVSPropertyOp2
 70
     1
102
RTVSPropertyOp3
 70
     1
102
RTVSPropertyOp4
 70
     1
102
RTVSPropertyOp5
 70
     1
102
RTVSPropertyOp6
 70
     1
102
RTVSPropertyOp7
 70
     1
102
RTVSPropertyOp8
 70
     1
102
RTVSPropertyOp9
 70
     1
102
RTVSPropertyOp10
 70
     1
102
RTVSPropertyOp11
 70
     1
102
RTVSPropertyOp12
 70
     1
102
RTVSPropertyOp13
 70
     1
102
RTVSPropertyOp14
 70
     1
102
RTVSPropertyOp15
 70
     1
102
RTVSPropertyOp16
 70
     1
102
RTVSPropertyOp17
 70
     1
102
RTVSPropertyOp18
 70
     1
102
RTVSPropertyOp19
 70
     1
102
RTVSPropertyOp20
 70
     1
102
RTVSPropertyOp21
 70
     1
102
RTVSPropertyOp22
 70
     1
102
RTVSPropertyOp23
 70
     1
102
RTVSPropertyOp24
 70
     1
102
RTVSPropertyOp25
 70
     1
102
RTVSPropertyOp26
 70
     1
102
RTVSPropertyOp27
 70
     1
102
RTVSPropertyOp28
 70
     1
102
RTVSPropertyOp29
 70
     1
102
RTVSPropertyOp30
 70
     1
102
RTVSPropertyOp31
 70
     1
102
RTVSPropertyOp32
 70
     1
  0
XRECORD
  5
193B
102
{ACAD_REACTORS
330
193A
102
}
330
193A
100
AcDbXrecord
280
     1
102
RTVSPropertyOp0
 70
     1
102
RTVSPropertyOp1
 70
     1
102
RTVSPropertyOp2
 70
     1
102
RTVSPropertyOp3
 70
     1
102
RTVSPropertyOp4
 70
     1
102
RTVSPropertyOp5
 70
     1
102
RTVSPropertyOp6
 70
     1
102
RTVSPropertyOp7
 70
     1
102
RTVSPropertyOp8
 70
     1
102
RTVSPropertyOp9
 70
     1
102
RTVSPropertyOp10
 70
     1
102
RTVSPropertyOp11
 70
     1
102
RTVSPropertyOp12
 70
     1
102
RTVSPropertyOp13
 70
     1
102
RTVSPropertyOp14
 70
     1
102
RTVSPropertyOp15
 70
     1
102
RTVSPropertyOp16
 70
     1
102
RTVSPropertyOp17
 70
     1
102
RTVSPropertyOp18
 70
     1
102
RTVSPropertyOp19
 70
     1
102
RTVSPropertyOp20
 70
     1
102
RTVSPropertyOp21
 70
     1
102
RTVSPropertyOp22
 70
     1
102
RTVSPropertyOp23
 70
     1
102
RTVSPropertyOp24
 70
     1
102
RTVSPropertyOp25
 70
     1
102
RTVSPropertyOp26
 70
     1
102
RTVSPropertyOp27
 70
     1
102
RTVSPropertyOp28
 70
     1
102
RTVSPropertyOp29
 70
     1
102
RTVSPropertyOp30
 70
     1
102
RTVSPropertyOp31
 70
     1
102
RTVSPropertyOp32
 70
     1
  0
XRECORD
  5
1939
102
{ACAD_REACTORS
330
1938
102
}
330
1938
100
AcDbXrecord
280
     1
102
RTVSPropertyOp0
 70
     1
102
RTVSPropertyOp1
 70
     1
102
RTVSPropertyOp2
 70
     1
102
RTVSPropertyOp3
 70
     1
102
RTVSPropertyOp4
 70
     1
102
RTVSPropertyOp5
 70
     1
102
RTVSPropertyOp6
 70
     1
102
RTVSPropertyOp7
 70
     1
102
RTVSPropertyOp8
 70
     1
102
RTVSPropertyOp9
 70
     1
102
RTVSPropertyOp10
 70
     1
102
RTVSPropertyOp11
 70
     1
102
RTVSPropertyOp12
 70
     1
102
RTVSPropertyOp13
 70
     1
102
RTVSPropertyOp14
 70
     1
102
RTVSPropertyOp15
 70
     1
102
RTVSPropertyOp16
 70
     1
102
RTVSPropertyOp17
 70
     1
102
RTVSPropertyOp18
 70
     1
102
RTVSPropertyOp19
 70
     1
102
RTVSPropertyOp20
 70
     1
102
RTVSPropertyOp21
 70
     1
102
RTVSPropertyOp22
 70
     1
102
RTVSPropertyOp23
 70
     1
102
RTVSPropertyOp24
 70
     1
102
RTVSPropertyOp25
 70
     1
102
RTVSPropertyOp26
 70
     1
102
RTVSPropertyOp27
 70
     1
102
RTVSPropertyOp28
 70
     1
102
RTVSPropertyOp29
 70
     1
102
RTVSPropertyOp30
 70
     1
102
RTVSPropertyOp31
 70
     1
102
RTVSPropertyOp32
 70
     1
  0
XRECORD
  5
1935
102
{ACAD_REACTORS
330
1934
102
}
330
1934
100
AcDbXrecord
280
     1
102
RTVSPropertyOp0
 70
     1
102
RTVSPropertyOp1
 70
     1
102
RTVSPropertyOp2
 70
     1
102
RTVSPropertyOp3
 70
     1
102
RTVSPropertyOp4
 70
     1
102
RTVSPropertyOp5
 70
     1
102
RTVSPropertyOp6
 70
     1
102
RTVSPropertyOp7
 70
     1
102
RTVSPropertyOp8
 70
     1
102
RTVSPropertyOp9
 70
     1
102
RTVSPropertyOp10
 70
     1
102
RTVSPropertyOp11
 70
     1
102
RTVSPropertyOp12
 70
     1
102
RTVSPropertyOp13
 70
     1
102
RTVSPropertyOp14
 70
     1
102
RTVSPropertyOp15
 70
     1
102
RTVSPropertyOp16
 70
     1
102
RTVSPropertyOp17
 70
     1
102
RTVSPropertyOp18
 70
     1
102
RTVSPropertyOp19
 70
     1
102
RTVSPropertyOp20
 70
     1
102
RTVSPropertyOp21
 70
     1
102
RTVSPropertyOp22
 70
     1
102
RTVSPropertyOp23
 70
     1
102
RTVSPropertyOp24
 70
     1
102
RTVSPropertyOp25
 70
     1
102
RTVSPropertyOp26
 70
     1
102
RTVSPropertyOp27
 70
     1
102
RTVSPropertyOp28
 70
     1
102
RTVSPropertyOp29
 70
     1
102
RTVSPropertyOp30
 70
     1
102
RTVSPropertyOp31
 70
     1
102
RTVSPropertyOp32
 70
     1
  0
XRECORD
  5
1943
102
{ACAD_REACTORS
330
1942
102
}
330
1942
100
AcDbXrecord
280
     1
102
RTVSPropertyOp0
 70
     1
102
RTVSPropertyOp1
 70
     1
102
RTVSPropertyOp2
 70
     1
102
RTVSPropertyOp3
 70
     1
102
RTVSPropertyOp4
 70
     1
102
RTVSPropertyOp5
 70
     1
102
RTVSPropertyOp6
 70
     1
102
RTVSPropertyOp7
 70
     1
102
RTVSPropertyOp8
 70
     1
102
RTVSPropertyOp9
 70
     1
102
RTVSPropertyOp10
 70
     1
102
RTVSPropertyOp11
 70
     1
102
RTVSPropertyOp12
 70
     1
102
RTVSPropertyOp13
 70
     1
102
RTVSPropertyOp14
 70
     1
102
RTVSPropertyOp15
 70
     1
102
RTVSPropertyOp16
 70
     1
102
RTVSPropertyOp17
 70
     1
102
RTVSPropertyOp18
 70
     1
102
RTVSPropertyOp19
 70
     1
102
RTVSPropertyOp20
 70
     1
102
RTVSPropertyOp21
 70
     1
102
RTVSPropertyOp22
 70
     1
102
RTVSPropertyOp23
 70
     1
102
RTVSPropertyOp24
 70
     1
102
RTVSPropertyOp25
 70
     1
102
RTVSPropertyOp26
 70
     1
102
RTVSPropertyOp27
 70
     1
102
RTVSPropertyOp28
 70
     1
102
RTVSPropertyOp29
 70
     1
102
RTVSPropertyOp30
 70
     1
102
RTVSPropertyOp31
 70
     1
102
RTVSPropertyOp32
 70
     1
  0
XRECORD
  5
194B
102
{ACAD_REACTORS
330
194A
102
}
330
194A
100
AcDbXrecord
280
     1
102
RTVSPropertyOp0
 70
     1
102
RTVSPropertyOp1
 70
     1
102
RTVSPropertyOp2
 70
     1
102
RTVSPropertyOp3
 70
     1
102
RTVSPropertyOp4
 70
     1
102
RTVSPropertyOp5
 70
     1
102
RTVSPropertyOp6
 70
     1
102
RTVSPropertyOp7
 70
     1
102
RTVSPropertyOp8
 70
     1
102
RTVSPropertyOp9
 70
     1
102
RTVSPropertyOp10
 70
     1
102
RTVSPropertyOp11
 70
     1
102
RTVSPropertyOp12
 70
     1
102
RTVSPropertyOp13
 70
     1
102
RTVSPropertyOp14
 70
     1
102
RTVSPropertyOp15
 70
     1
102
RTVSPropertyOp16
 70
     1
102
RTVSPropertyOp17
 70
     1
102
RTVSPropertyOp18
 70
     1
102
RTVSPropertyOp19
 70
     1
102
RTVSPropertyOp20
 70
     1
102
RTVSPropertyOp21
 70
     1
102
RTVSPropertyOp22
 70
     1
102
RTVSPropertyOp23
 70
     1
102
RTVSPropertyOp24
 70
     1
102
RTVSPropertyOp25
 70
     1
102
RTVSPropertyOp26
 70
     1
102
RTVSPropertyOp27
 70
     1
102
RTVSPropertyOp28
 70
     1
102
RTVSPropertyOp29
 70
     1
102
RTVSPropertyOp30
 70
     1
102
RTVSPropertyOp31
 70
     1
102
RTVSPropertyOp32
 70
     1
  0
XRECORD
  5
193D
102
{ACAD_REACTORS
330
193C
102
}
330
193C
100
AcDbXrecord
280
     1
102
RTVSPropertyOp0
 70
     1
102
RTVSPropertyOp1
 70
     1
102
RTVSPropertyOp2
 70
     1
102
RTVSPropertyOp3
 70
     1
102
RTVSPropertyOp4
 70
     1
102
RTVSPropertyOp5
 70
     1
102
RTVSPropertyOp6
 70
     1
102
RTVSPropertyOp7
 70
     1
102
RTVSPropertyOp8
 70
     1
102
RTVSPropertyOp9
 70
     1
102
RTVSPropertyOp10
 70
     1
102
RTVSPropertyOp11
 70
     1
102
RTVSPropertyOp12
 70
     1
102
RTVSPropertyOp13
 70
     1
102
RTVSPropertyOp14
 70
     1
102
RTVSPropertyOp15
 70
     1
102
RTVSPropertyOp16
 70
     1
102
RTVSPropertyOp17
 70
     1
102
RTVSPropertyOp18
 70
     1
102
RTVSPropertyOp19
 70
     1
102
RTVSPropertyOp20
 70
     1
102
RTVSPropertyOp21
 70
     1
102
RTVSPropertyOp22
 70
     1
102
RTVSPropertyOp23
 70
     1
102
RTVSPropertyOp24
 70
     1
102
RTVSPropertyOp25
 70
     1
102
RTVSPropertyOp26
 70
     1
102
RTVSPropertyOp27
 70
     1
102
RTVSPropertyOp28
 70
     1
102
RTVSPropertyOp29
 70
     1
102
RTVSPropertyOp30
 70
     1
102
RTVSPropertyOp31
 70
     1
102
RTVSPropertyOp32
 70
     1
  0
XRECORD
  5
1941
102
{ACAD_REACTORS
330
1940
102
}
330
1940
100
AcDbXrecord
280
     1
102
RTVSPropertyOp0
 70
     1
102
RTVSPropertyOp1
 70
     1
102
RTVSPropertyOp2
 70
     1
102
RTVSPropertyOp3
 70
     1
102
RTVSPropertyOp4
 70
     1
102
RTVSPropertyOp5
 70
     1
102
RTVSPropertyOp6
 70
     1
102
RTVSPropertyOp7
 70
     1
102
RTVSPropertyOp8
 70
     1
102
RTVSPropertyOp9
 70
     1
102
RTVSPropertyOp10
 70
     1
102
RTVSPropertyOp11
 70
     1
102
RTVSPropertyOp12
 70
     1
102
RTVSPropertyOp13
 70
     1
102
RTVSPropertyOp14
 70
     1
102
RTVSPropertyOp15
 70
     1
102
RTVSPropertyOp16
 70
     1
102
RTVSPropertyOp17
 70
     1
102
RTVSPropertyOp18
 70
     1
102
RTVSPropertyOp19
 70
     1
102
RTVSPropertyOp20
 70
     1
102
RTVSPropertyOp21
 70
     1
102
RTVSPropertyOp22
 70
     1
102
RTVSPropertyOp23
 70
     1
102
RTVSPropertyOp24
 70
     1
102
RTVSPropertyOp25
 70
     1
102
RTVSPropertyOp26
 70
     1
102
RTVSPropertyOp27
 70
     1
102
RTVSPropertyOp28
 70
     1
102
RTVSPropertyOp29
 70
     1
102
RTVSPropertyOp30
 70
     1
102
RTVSPropertyOp31
 70
     1
102
RTVSPropertyOp32
 70
     1
  0
XRECORD
  5
1960
102
{ACAD_REACTORS
330
195F
102
}
330
195F
100
AcDbXrecord
280
     1
102
RTVSPropertyOp0
 70
     0
102
RTVSPropertyOp1
 70
     0
102
RTVSPropertyOp2
 70
     0
102
RTVSPropertyOp3
 70
     0
102
RTVSPropertyOp4
 70
     0
102
RTVSPropertyOp5
 70
     0
102
RTVSPropertyOp6
 70
     0
102
RTVSPropertyOp7
 70
     0
102
RTVSPropertyOp8
 70
     0
102
RTVSPropertyOp9
 70
     0
102
RTVSPropertyOp10
 70
     0
102
RTVSPropertyOp11
 70
     0
102
RTVSPropertyOp12
 70
     0
102
RTVSPropertyOp13
 70
     0
102
RTVSPropertyOp14
 70
     2
102
RTVSPropertyOp15
 70
     0
102
RTVSPropertyOp16
 70
     0
102
RTVSPropertyOp17
 70
     0
102
RTVSPropertyOp18
 70
     0
102
RTVSPropertyOp19
 70
     0
102
RTVSPropertyOp20
 70
     0
102
RTVSPropertyOp21
 70
     0
102
RTVSPropertyOp22
 70
     0
102
RTVSPropertyOp23
 70
     0
102
RTVSPropertyOp24
 70
     0
102
RTVSPropertyOp25
 70
     0
102
RTVSPropertyOp26
 70
     0
102
RTVSPropertyOp27
 70
     0
102
RTVSPropertyOp28
 70
     0
102
RTVSPropertyOp29
 70
     0
102
RTVSPropertyOp30
 70
     0
102
RTVSPropertyOp31
 70
     0
102
RTVSPropertyOp32
 70
     0
  0
XRECORD
  5
1949
102
{ACAD_REACTORS
330
1948
102
}
330
1948
100
AcDbXrecord
280
     1
102
RTVSPropertyOp0
 70
     1
102
RTVSPropertyOp1
 70
     1
102
RTVSPropertyOp2
 70
     1
102
RTVSPropertyOp3
 70
     1
102
RTVSPropertyOp4
 70
     1
102
RTVSPropertyOp5
 70
     1
102
RTVSPropertyOp6
 70
     1
102
RTVSPropertyOp7
 70
     1
102
RTVSPropertyOp8
 70
     1
102
RTVSPropertyOp9
 70
     1
102
RTVSPropertyOp10
 70
     1
102
RTVSPropertyOp11
 70
     1
102
RTVSPropertyOp12
 70
     1
102
RTVSPropertyOp13
 70
     1
102
RTVSPropertyOp14
 70
     1
102
RTVSPropertyOp15
 70
     1
102
RTVSPropertyOp16
 70
     1
102
RTVSPropertyOp17
 70
     1
102
RTVSPropertyOp18
 70
     1
102
RTVSPropertyOp19
 70
     1
102
RTVSPropertyOp20
 70
     1
102
RTVSPropertyOp21
 70
     1
102
RTVSPropertyOp22
 70
     1
102
RTVSPropertyOp23
 70
     1
102
RTVSPropertyOp24
 70
     1
102
RTVSPropertyOp25
 70
     1
102
RTVSPropertyOp26
 70
     1
102
RTVSPropertyOp27
 70
     1
102
RTVSPropertyOp28
 70
     1
102
RTVSPropertyOp29
 70
     1
102
RTVSPropertyOp30
 70
     1
102
RTVSPropertyOp31
 70
     1
102
RTVSPropertyOp32
 70
     1
  0
XRECORD
  5
192D
102
{ACAD_REACTORS
330
192C
102
}
330
192C
100
AcDbXrecord
280
     1
102
RTVSPropertyOp0
 70
     1
102
RTVSPropertyOp1
 70
     1
102
RTVSPropertyOp2
 70
     1
102
RTVSPropertyOp3
 70
     1
102
RTVSPropertyOp4
 70
     1
102
RTVSPropertyOp5
 70
     1
102
RTVSPropertyOp6
 70
     1
102
RTVSPropertyOp7
 70
     1
102
RTVSPropertyOp8
 70
     1
102
RTVSPropertyOp9
 70
     1
102
RTVSPropertyOp10
 70
     1
102
RTVSPropertyOp11
 70
     1
102
RTVSPropertyOp12
 70
     1
102
RTVSPropertyOp13
 70
     1
102
RTVSPropertyOp14
 70
     1
102
RTVSPropertyOp15
 70
     1
102
RTVSPropertyOp16
 70
     1
102
RTVSPropertyOp17
 70
     1
102
RTVSPropertyOp18
 70
     1
102
RTVSPropertyOp19
 70
     1
102
RTVSPropertyOp20
 70
     1
102
RTVSPropertyOp21
 70
     1
102
RTVSPropertyOp22
 70
     1
102
RTVSPropertyOp23
 70
     1
102
RTVSPropertyOp24
 70
     1
102
RTVSPropertyOp25
 70
     1
102
RTVSPropertyOp26
 70
     1
102
RTVSPropertyOp27
 70
     1
102
RTVSPropertyOp28
 70
     1
102
RTVSPropertyOp29
 70
     1
102
RTVSPropertyOp30
 70
     1
102
RTVSPropertyOp31
 70
     1
102
RTVSPropertyOp32
 70
     1
  0
XRECORD
  5
192F
102
{ACAD_REACTORS
330
192E
102
}
330
192E
100
AcDbXrecord
280
     1
102
RTVSPropertyOp0
 70
     1
102
RTVSPropertyOp1
 70
     1
102
RTVSPropertyOp2
 70
     1
102
RTVSPropertyOp3
 70
     1
102
RTVSPropertyOp4
 70
     1
102
RTVSPropertyOp5
 70
     1
102
RTVSPropertyOp6
 70
     1
102
RTVSPropertyOp7
 70
     1
102
RTVSPropertyOp8
 70
     1
102
RTVSPropertyOp9
 70
     1
102
RTVSPropertyOp10
 70
     1
102
RTVSPropertyOp11
 70
     1
102
RTVSPropertyOp12
 70
     1
102
RTVSPropertyOp13
 70
     1
102
RTVSPropertyOp14
 70
     1
102
RTVSPropertyOp15
 70
     1
102
RTVSPropertyOp16
 70
     1
102
RTVSPropertyOp17
 70
     1
102
RTVSPropertyOp18
 70
     1
102
RTVSPropertyOp19
 70
     1
102
RTVSPropertyOp20
 70
     1
102
RTVSPropertyOp21
 70
     1
102
RTVSPropertyOp22
 70
     1
102
RTVSPropertyOp23
 70
     1
102
RTVSPropertyOp24
 70
     1
102
RTVSPropertyOp25
 70
     1
102
RTVSPropertyOp26
 70
     1
102
RTVSPropertyOp27
 70
     1
102
RTVSPropertyOp28
 70
     1
102
RTVSPropertyOp29
 70
     1
102
RTVSPropertyOp30
 70
     1
102
RTVSPropertyOp31
 70
     1
102
RTVSPropertyOp32
 70
     1
  0
XRECORD
  5
1931
102
{ACAD_REACTORS
330
1930
102
}
330
1930
100
AcDbXrecord
280
     1
102
RTVSPropertyOp0
 70
     1
102
RTVSPropertyOp1
 70
     1
102
RTVSPropertyOp2
 70
     1
102
RTVSPropertyOp3
 70
     1
102
RTVSPropertyOp4
 70
     1
102
RTVSPropertyOp5
 70
     1
102
RTVSPropertyOp6
 70
     1
102
RTVSPropertyOp7
 70
     1
102
RTVSPropertyOp8
 70
     1
102
RTVSPropertyOp9
 70
     1
102
RTVSPropertyOp10
 70
     1
102
RTVSPropertyOp11
 70
     1
102
RTVSPropertyOp12
 70
     1
102
RTVSPropertyOp13
 70
     1
102
RTVSPropertyOp14
 70
     1
102
RTVSPropertyOp15
 70
     1
102
RTVSPropertyOp16
 70
     1
102
RTVSPropertyOp17
 70
     1
102
RTVSPropertyOp18
 70
     1
102
RTVSPropertyOp19
 70
     1
102
RTVSPropertyOp20
 70
     1
102
RTVSPropertyOp21
 70
     1
102
RTVSPropertyOp22
 70
     1
102
RTVSPropertyOp23
 70
     1
102
RTVSPropertyOp24
 70
     1
102
RTVSPropertyOp25
 70
     1
102
RTVSPropertyOp26
 70
     1
102
RTVSPropertyOp27
 70
     1
102
RTVSPropertyOp28
 70
     1
102
RTVSPropertyOp29
 70
     1
102
RTVSPropertyOp30
 70
     1
102
RTVSPropertyOp31
 70
     1
102
RTVSPropertyOp32
 70
     1
  0
XRECORD
  5
1933
102
{ACAD_REACTORS
330
1932
102
}
330
1932
100
AcDbXrecord
280
     1
102
RTVSPropertyOp0
 70
     1
102
RTVSPropertyOp1
 70
     1
102
RTVSPropertyOp2
 70
     1
102
RTVSPropertyOp3
 70
     1
102
RTVSPropertyOp4
 70
     1
102
RTVSPropertyOp5
 70
     1
102
RTVSPropertyOp6
 70
     1
102
RTVSPropertyOp7
 70
     1
102
RTVSPropertyOp8
 70
     1
102
RTVSPropertyOp9
 70
     1
102
RTVSPropertyOp10
 70
     1
102
RTVSPropertyOp11
 70
     1
102
RTVSPropertyOp12
 70
     1
102
RTVSPropertyOp13
 70
     1
102
RTVSPropertyOp14
 70
     1
102
RTVSPropertyOp15
 70
     1
102
RTVSPropertyOp16
 70
     1
102
RTVSPropertyOp17
 70
     1
102
RTVSPropertyOp18
 70
     1
102
RTVSPropertyOp19
 70
     1
102
RTVSPropertyOp20
 70
     1
102
RTVSPropertyOp21
 70
     1
102
RTVSPropertyOp22
 70
     1
102
RTVSPropertyOp23
 70
     1
102
RTVSPropertyOp24
 70
     1
102
RTVSPropertyOp25
 70
     1
102
RTVSPropertyOp26
 70
     1
102
RTVSPropertyOp27
 70
     1
102
RTVSPropertyOp28
 70
     1
102
RTVSPropertyOp29
 70
     1
102
RTVSPropertyOp30
 70
     1
102
RTVSPropertyOp31
 70
     1
102
RTVSPropertyOp32
 70
     1
  0
XRECORD
  5
1950
102
{ACAD_REACTORS
330
194F
102
}
330
194F
100
AcDbXrecord
280
     1
102
RTVSPropertyOp0
 70
     1
102
RTVSPropertyOp1
 70
     1
102
RTVSPropertyOp2
 70
     1
102
RTVSPropertyOp3
 70
     1
102
RTVSPropertyOp4
 70
     1
102
RTVSPropertyOp5
 70
     1
102
RTVSPropertyOp6
 70
     1
102
RTVSPropertyOp7
 70
     1
102
RTVSPropertyOp8
 70
     1
102
RTVSPropertyOp9
 70
     1
102
RTVSPropertyOp10
 70
     1
102
RTVSPropertyOp11
 70
     1
102
RTVSPropertyOp12
 70
     1
102
RTVSPropertyOp13
 70
     1
102
RTVSPropertyOp14
 70
     1
102
RTVSPropertyOp15
 70
     1
102
RTVSPropertyOp16
 70
     1
102
RTVSPropertyOp17
 70
     1
102
RTVSPropertyOp18
 70
     1
102
RTVSPropertyOp19
 70
     1
102
RTVSPropertyOp20
 70
     1
102
RTVSPropertyOp21
 70
     1
102
RTVSPropertyOp22
 70
     1
102
RTVSPropertyOp23
 70
     1
102
RTVSPropertyOp24
 70
     1
102
RTVSPropertyOp25
 70
     1
102
RTVSPropertyOp26
 70
     1
102
RTVSPropertyOp27
 70
     1
102
RTVSPropertyOp28
 70
     1
102
RTVSPropertyOp29
 70
     1
102
RTVSPropertyOp30
 70
     1
102
RTVSPropertyOp31
 70
     1
102
RTVSPropertyOp32
 70
     1
  0
XRECORD
  5
195C
102
{ACAD_REACTORS
330
195B
102
}
330
195B
100
AcDbXrecord
280
     1
102
RTVSPropertyOp0
 70
     0
102
RTVSPropertyOp1
 70
     0
102
RTVSPropertyOp2
 70
     0
102
RTVSPropertyOp3
 70
     0
102
RTVSPropertyOp4
 70
     0
102
RTVSPropertyOp5
 70
     0
102
RTVSPropertyOp6
 70
     0
102
RTVSPropertyOp7
 70
     0
102
RTVSPropertyOp8
 70
     0
102
RTVSPropertyOp9
 70
     0
102
RTVSPropertyOp10
 70
     0
102
RTVSPropertyOp11
 70
     0
102
RTVSPropertyOp12
 70
     0
102
RTVSPropertyOp13
 70
     0
102
RTVSPropertyOp14
 70
     2
102
RTVSPropertyOp15
 70
     0
102
RTVSPropertyOp16
 70
     0
102
RTVSPropertyOp17
 70
     0
102
RTVSPropertyOp18
 70
     0
102
RTVSPropertyOp19
 70
     0
102
RTVSPropertyOp20
 70
     0
102
RTVSPropertyOp21
 70
     0
102
RTVSPropertyOp22
 70
     0
102
RTVSPropertyOp23
 70
     0
102
RTVSPropertyOp24
 70
     0
102
RTVSPropertyOp25
 70
     0
102
RTVSPropertyOp26
 70
     0
102
RTVSPropertyOp27
 70
     0
102
RTVSPropertyOp28
 70
     0
102
RTVSPropertyOp29
 70
     0
102
RTVSPropertyOp30
 70
     0
102
RTVSPropertyOp31
 70
     0
102
RTVSPropertyOp32
 70
     0
  0
XRECORD
  5
1947
102
{ACAD_REACTORS
330
1946
102
}
330
1946
100
AcDbXrecord
280
     1
102
RTVSPropertyOp0
 70
     1
102
RTVSPropertyOp1
 70
     1
102
RTVSPropertyOp2
 70
     1
102
RTVSPropertyOp3
 70
     1
102
RTVSPropertyOp4
 70
     1
102
RTVSPropertyOp5
 70
     1
102
RTVSPropertyOp6
 70
     1
102
RTVSPropertyOp7
 70
     1
102
RTVSPropertyOp8
 70
     1
102
RTVSPropertyOp9
 70
     1
102
RTVSPropertyOp10
 70
     1
102
RTVSPropertyOp11
 70
     1
102
RTVSPropertyOp12
 70
     1
102
RTVSPropertyOp13
 70
     1
102
RTVSPropertyOp14
 70
     1
102
RTVSPropertyOp15
 70
     1
102
RTVSPropertyOp16
 70
     1
102
RTVSPropertyOp17
 70
     1
102
RTVSPropertyOp18
 70
     1
102
RTVSPropertyOp19
 70
     1
102
RTVSPropertyOp20
 70
     1
102
RTVSPropertyOp21
 70
     1
102
RTVSPropertyOp22
 70
     1
102
RTVSPropertyOp23
 70
     1
102
RTVSPropertyOp24
 70
     1
102
RTVSPropertyOp25
 70
     1
102
RTVSPropertyOp26
 70
     1
102
RTVSPropertyOp27
 70
     1
102
RTVSPropertyOp28
 70
     1
102
RTVSPropertyOp29
 70
     1
102
RTVSPropertyOp30
 70
     1
102
RTVSPropertyOp31
 70
     1
102
RTVSPropertyOp32
 70
     1
  0
XRECORD
  5
195E
102
{ACAD_REACTORS
330
195D
102
}
330
195D
100
AcDbXrecord
280
     1
102
RTVSPropertyOp0
 70
     0
102
RTVSPropertyOp1
 70
     0
102
RTVSPropertyOp2
 70
     0
102
RTVSPropertyOp3
 70
     0
102
RTVSPropertyOp4
 70
     0
102
RTVSPropertyOp5
 70
     0
102
RTVSPropertyOp6
 70
     0
102
RTVSPropertyOp7
 70
     0
102
RTVSPropertyOp8
 70
     0
102
RTVSPropertyOp9
 70
     0
102
RTVSPropertyOp10
 70
     0
102
RTVSPropertyOp11
 70
     0
102
RTVSPropertyOp12
 70
     0
102
RTVSPropertyOp13
 70
     0
102
RTVSPropertyOp14
 70
     2
102
RTVSPropertyOp15
 70
     0
102
RTVSPropertyOp16
 70
     0
102
RTVSPropertyOp17
 70
     0
102
RTVSPropertyOp18
 70
     0
102
RTVSPropertyOp19
 70
     0
102
RTVSPropertyOp20
 70
     0
102
RTVSPropertyOp21
 70
     0
102
RTVSPropertyOp22
 70
     0
102
RTVSPropertyOp23
 70
     0
102
RTVSPropertyOp24
 70
     0
102
RTVSPropertyOp25
 70
     0
102
RTVSPropertyOp26
 70
     0
102
RTVSPropertyOp27
 70
     0
102
RTVSPropertyOp28
 70
     0
102
RTVSPropertyOp29
 70
     0
102
RTVSPropertyOp30
 70
     0
102
RTVSPropertyOp31
 70
     0
102
RTVSPropertyOp32
 70
     0
  0
XRECORD
  5
193F
102
{ACAD_REACTORS
330
193E
102
}
330
193E
100
AcDbXrecord
280
     1
102
RTVSPropertyOp0
 70
     1
102
RTVSPropertyOp1
 70
     1
102
RTVSPropertyOp2
 70
     1
102
RTVSPropertyOp3
 70
     1
102
RTVSPropertyOp4
 70
     1
102
RTVSPropertyOp5
 70
     1
102
RTVSPropertyOp6
 70
     1
102
RTVSPropertyOp7
 70
     1
102
RTVSPropertyOp8
 70
     1
102
RTVSPropertyOp9
 70
     1
102
RTVSPropertyOp10
 70
     1
102
RTVSPropertyOp11
 70
     1
102
RTVSPropertyOp12
 70
     1
102
RTVSPropertyOp13
 70
     1
102
RTVSPropertyOp14
 70
     1
102
RTVSPropertyOp15
 70
     1
102
RTVSPropertyOp16
 70
     1
102
RTVSPropertyOp17
 70
     1
102
RTVSPropertyOp18
 70
     1
102
RTVSPropertyOp19
 70
     1
102
RTVSPropertyOp20
 70
     1
102
RTVSPropertyOp21
 70
     1
102
RTVSPropertyOp22
 70
     1
102
RTVSPropertyOp23
 70
     1
102
RTVSPropertyOp24
 70
     1
102
RTVSPropertyOp25
 70
     1
102
RTVSPropertyOp26
 70
     1
102
RTVSPropertyOp27
 70
     1
102
RTVSPropertyOp28
 70
     1
102
RTVSPropertyOp29
 70
     1
102
RTVSPropertyOp30
 70
     1
102
RTVSPropertyOp31
 70
     1
102
RTVSPropertyOp32
 70
     1
  0
XRECORD
  5
195A
102
{ACAD_REACTORS
330
1959
102
}
330
1959
100
AcDbXrecord
280
     1
102
RTVSPropertyOp0
 70
     1
102
RTVSPropertyOp1
 70
     1
102
RTVSPropertyOp2
 70
     1
102
RTVSPropertyOp3
 70
     1
102
RTVSPropertyOp4
 70
     1
102
RTVSPropertyOp5
 70
     1
102
RTVSPropertyOp6
 70
     1
102
RTVSPropertyOp7
 70
     1
102
RTVSPropertyOp8
 70
     1
102
RTVSPropertyOp9
 70
     1
102
RTVSPropertyOp10
 70
     1
102
RTVSPropertyOp11
 70
     1
102
RTVSPropertyOp12
 70
     1
102
RTVSPropertyOp13
 70
     1
102
RTVSPropertyOp14
 70
     1
102
RTVSPropertyOp15
 70
     1
102
RTVSPropertyOp16
 70
     1
102
RTVSPropertyOp17
 70
     1
102
RTVSPropertyOp18
 70
     1
102
RTVSPropertyOp19
 70
     1
102
RTVSPropertyOp20
 70
     1
102
RTVSPropertyOp21
 70
     1
102
RTVSPropertyOp22
 70
     1
102
RTVSPropertyOp23
 70
     1
102
RTVSPropertyOp24
 70
     1
102
RTVSPropertyOp25
 70
     1
102
RTVSPropertyOp26
 70
     1
102
RTVSPropertyOp27
 70
     1
102
RTVSPropertyOp28
 70
     1
102
RTVSPropertyOp29
 70
     1
102
RTVSPropertyOp30
 70
     1
102
RTVSPropertyOp31
 70
     1
102
RTVSPropertyOp32
 70
     1
  0
XRECORD
  5
1958
102
{ACAD_REACTORS
330
1957
102
}
330
1957
100
AcDbXrecord
280
     1
102
RTVSPropertyOp0
 70
     1
102
RTVSPropertyOp1
 70
     1
102
RTVSPropertyOp2
 70
     1
102
RTVSPropertyOp3
 70
     1
102
RTVSPropertyOp4
 70
     1
102
RTVSPropertyOp5
 70
     1
102
RTVSPropertyOp6
 70
     1
102
RTVSPropertyOp7
 70
     1
102
RTVSPropertyOp8
 70
     1
102
RTVSPropertyOp9
 70
     1
102
RTVSPropertyOp10
 70
     1
102
RTVSPropertyOp11
 70
     1
102
RTVSPropertyOp12
 70
     1
102
RTVSPropertyOp13
 70
     1
102
RTVSPropertyOp14
 70
     1
102
RTVSPropertyOp15
 70
     1
102
RTVSPropertyOp16
 70
     1
102
RTVSPropertyOp17
 70
     1
102
RTVSPropertyOp18
 70
     1
102
RTVSPropertyOp19
 70
     1
102
RTVSPropertyOp20
 70
     1
102
RTVSPropertyOp21
 70
     1
102
RTVSPropertyOp22
 70
     1
102
RTVSPropertyOp23
 70
     1
102
RTVSPropertyOp24
 70
     1
102
RTVSPropertyOp25
 70
     1
102
RTVSPropertyOp26
 70
     1
102
RTVSPropertyOp27
 70
     1
102
RTVSPropertyOp28
 70
     1
102
RTVSPropertyOp29
 70
     1
102
RTVSPropertyOp30
 70
     1
102
RTVSPropertyOp31
 70
     1
102
RTVSPropertyOp32
 70
     1
  0
XRECORD
  5
1952
102
{ACAD_REACTORS
330
1951
102
}
330
1951
100
AcDbXrecord
280
     1
102
RTVSPropertyOp0
 70
     1
102
RTVSPropertyOp1
 70
     1
102
RTVSPropertyOp2
 70
     1
102
RTVSPropertyOp3
 70
     1
102
RTVSPropertyOp4
 70
     1
102
RTVSPropertyOp5
 70
     1
102
RTVSPropertyOp6
 70
     1
102
RTVSPropertyOp7
 70
     1
102
RTVSPropertyOp8
 70
     1
102
RTVSPropertyOp9
 70
     1
102
RTVSPropertyOp10
 70
     1
102
RTVSPropertyOp11
 70
     1
102
RTVSPropertyOp12
 70
     1
102
RTVSPropertyOp13
 70
     1
102
RTVSPropertyOp14
 70
     1
102
RTVSPropertyOp15
 70
     1
102
RTVSPropertyOp16
 70
     1
102
RTVSPropertyOp17
 70
     1
102
RTVSPropertyOp18
 70
     1
102
RTVSPropertyOp19
 70
     1
102
RTVSPropertyOp20
 70
     1
102
RTVSPropertyOp21
 70
     1
102
RTVSPropertyOp22
 70
     1
102
RTVSPropertyOp23
 70
     1
102
RTVSPropertyOp24
 70
     1
102
RTVSPropertyOp25
 70
     1
102
RTVSPropertyOp26
 70
     1
102
RTVSPropertyOp27
 70
     1
102
RTVSPropertyOp28
 70
     1
102
RTVSPropertyOp29
 70
     1
102
RTVSPropertyOp30
 70
     1
102
RTVSPropertyOp31
 70
     1
102
RTVSPropertyOp32
 70
     1
  0
XRECORD
  5
1954
102
{ACAD_REACTORS
330
1953
102
}
330
1953
100
AcDbXrecord
280
     1
102
RTVSPropertyOp0
 70
     1
102
RTVSPropertyOp1
 70
     1
102
RTVSPropertyOp2
 70
     1
102
RTVSPropertyOp3
 70
     1
102
RTVSPropertyOp4
 70
     1
102
RTVSPropertyOp5
 70
     1
102
RTVSPropertyOp6
 70
     1
102
RTVSPropertyOp7
 70
     1
102
RTVSPropertyOp8
 70
     1
102
RTVSPropertyOp9
 70
     1
102
RTVSPropertyOp10
 70
     1
102
RTVSPropertyOp11
 70
     1
102
RTVSPropertyOp12
 70
     1
102
RTVSPropertyOp13
 70
     1
102
RTVSPropertyOp14
 70
     1
102
RTVSPropertyOp15
 70
     1
102
RTVSPropertyOp16
 70
     1
102
RTVSPropertyOp17
 70
     1
102
RTVSPropertyOp18
 70
     1
102
RTVSPropertyOp19
 70
     1
102
RTVSPropertyOp20
 70
     1
102
RTVSPropertyOp21
 70
     1
102
RTVSPropertyOp22
 70
     1
102
RTVSPropertyOp23
 70
     1
102
RTVSPropertyOp24
 70
     1
102
RTVSPropertyOp25
 70
     1
102
RTVSPropertyOp26
 70
     1
102
RTVSPropertyOp27
 70
     1
102
RTVSPropertyOp28
 70
     1
102
RTVSPropertyOp29
 70
     1
102
RTVSPropertyOp30
 70
     1
102
RTVSPropertyOp31
 70
     1
102
RTVSPropertyOp32
 70
     1
  0
XRECORD
  5
1945
102
{ACAD_REACTORS
330
1944
102
}
330
1944
100
AcDbXrecord
280
     1
102
RTVSPropertyOp0
 70
     1
102
RTVSPropertyOp1
 70
     1
102
RTVSPropertyOp2
 70
     1
102
RTVSPropertyOp3
 70
     1
102
RTVSPropertyOp4
 70
     1
102
RTVSPropertyOp5
 70
     1
102
RTVSPropertyOp6
 70
     1
102
RTVSPropertyOp7
 70
     1
102
RTVSPropertyOp8
 70
     1
102
RTVSPropertyOp9
 70
     1
102
RTVSPropertyOp10
 70
     1
102
RTVSPropertyOp11
 70
     1
102
RTVSPropertyOp12
 70
     1
102
RTVSPropertyOp13
 70
     1
102
RTVSPropertyOp14
 70
     1
102
RTVSPropertyOp15
 70
     1
102
RTVSPropertyOp16
 70
     1
102
RTVSPropertyOp17
 70
     1
102
RTVSPropertyOp18
 70
     1
102
RTVSPropertyOp19
 70
     1
102
RTVSPropertyOp20
 70
     1
102
RTVSPropertyOp21
 70
     1
102
RTVSPropertyOp22
 70
     1
102
RTVSPropertyOp23
 70
     1
102
RTVSPropertyOp24
 70
     1
102
RTVSPropertyOp25
 70
     1
102
RTVSPropertyOp26
 70
     1
102
RTVSPropertyOp27
 70
     1
102
RTVSPropertyOp28
 70
     1
102
RTVSPropertyOp29
 70
     1
102
RTVSPropertyOp30
 70
     1
102
RTVSPropertyOp31
 70
     1
102
RTVSPropertyOp32
 70
     1
  0
XRECORD
  5
194E
102
{ACAD_REACTORS
330
194D
102
}
330
194D
100
AcDbXrecord
280
     1
102
RTVSPropertyOp0
 70
     1
102
RTVSPropertyOp1
 70
     1
102
RTVSPropertyOp2
 70
     1
102
RTVSPropertyOp3
 70
     1
102
RTVSPropertyOp4
 70
     1
102
RTVSPropertyOp5
 70
     1
102
RTVSPropertyOp6
 70
     1
102
RTVSPropertyOp7
 70
     1
102
RTVSPropertyOp8
 70
     1
102
RTVSPropertyOp9
 70
     1
102
RTVSPropertyOp10
 70
     1
102
RTVSPropertyOp11
 70
     1
102
RTVSPropertyOp12
 70
     1
102
RTVSPropertyOp13
 70
     1
102
RTVSPropertyOp14
 70
     1
102
RTVSPropertyOp15
 70
     1
102
RTVSPropertyOp16
 70
     1
102
RTVSPropertyOp17
 70
     1
102
RTVSPropertyOp18
 70
     1
102
RTVSPropertyOp19
 70
     1
102
RTVSPropertyOp20
 70
     1
102
RTVSPropertyOp21
 70
     1
102
RTVSPropertyOp22
 70
     1
102
RTVSPropertyOp23
 70
     1
102
RTVSPropertyOp24
 70
     1
102
RTVSPropertyOp25
 70
     1
102
RTVSPropertyOp26
 70
     1
102
RTVSPropertyOp27
 70
     1
102
RTVSPropertyOp28
 70
     1
102
RTVSPropertyOp29
 70
     1
102
RTVSPropertyOp30
 70
     1
102
RTVSPropertyOp31
 70
     1
102
RTVSPropertyOp32
 70
     1
  0
XRECORD
  5
1956
102
{ACAD_REACTORS
330
1955
102
}
330
1955
100
AcDbXrecord
280
     1
102
RTVSPropertyOp0
 70
     1
102
RTVSPropertyOp1
 70
     1
102
RTVSPropertyOp2
 70
     1
102
RTVSPropertyOp3
 70
     1
102
RTVSPropertyOp4
 70
     1
102
RTVSPropertyOp5
 70
     1
102
RTVSPropertyOp6
 70
     1
102
RTVSPropertyOp7
 70
     1
102
RTVSPropertyOp8
 70
     1
102
RTVSPropertyOp9
 70
     1
102
RTVSPropertyOp10
 70
     1
102
RTVSPropertyOp11
 70
     1
102
RTVSPropertyOp12
 70
     1
102
RTVSPropertyOp13
 70
     1
102
RTVSPropertyOp14
 70
     1
102
RTVSPropertyOp15
 70
     1
102
RTVSPropertyOp16
 70
     1
102
RTVSPropertyOp17
 70
     1
102
RTVSPropertyOp18
 70
     1
102
RTVSPropertyOp19
 70
     1
102
RTVSPropertyOp20
 70
     1
102
RTVSPropertyOp21
 70
     1
102
RTVSPropertyOp22
 70
     1
102
RTVSPropertyOp23
 70
     1
102
RTVSPropertyOp24
 70
     1
102
RTVSPropertyOp25
 70
     1
102
RTVSPropertyOp26
 70
     1
102
RTVSPropertyOp27
 70
     1
102
RTVSPropertyOp28
 70
     1
102
RTVSPropertyOp29
 70
     1
102
RTVSPropertyOp30
 70
     1
102
RTVSPropertyOp31
 70
     1
102
RTVSPropertyOp32
 70
     1
  0
ENDSEC
  0
EOF
