  0
SECTION
  2
HEADER
  9
$ACADVER
  1
AC1015
  9
$ACADMAINTVER
 70
    20
  9
$DWGCODEPAGE
  3
ANSI_932
  9
$INSBASE
 10
0.0
 20
0.0
 30
0.0
  9
$EXTMIN
 10
182.0209183854953
 20
145.743014833549
 30
0.0
  9
$EXTMAX
 10
281.8690090610369
 20
249.1163725547951
 30
0.0
  9
$LIMMIN
 10
152.054894752037
 20
126.4965168676539
  9
$LIMMAX
 10
362.0763233234656
 20
274.996516867654
  9
$ORTHOMODE
 70
     0
  9
$REGENMODE
 70
     1
  9
$FILLMODE
 70
     1
  9
$QTEXTMODE
 70
     0
  9
$MIRRTEXT
 70
     1
  9
$LTSCALE
 40
0.5
  9
$ATTMODE
 70
     1
  9
$TEXTSIZE
 40
1.6
  9
$TRACEWID
 40
0.05
  9
$TEXTSTYLE
  7
STANDARD
  9
$CLAYER
  8
AM_0
  9
$CELTYPE
  6
ByLayer
  9
$CECOLOR
 62
   256
  9
$CELTSCALE
 40
1.0
  9
$DISPSILH
 70
     0
  9
$DIMSCALE
 40
0.5
  9
$DIMASZ
 40
2.5
  9
$DIMEXO
 40
1.0
  9
$DIMDLI
 40
10.0
  9
$DIMRND
 40
0.0
  9
$DIMDLE
 40
0.0
  9
$DIMEXE
 40
1.0
  9
$DIMTP
 40
0.1
  9
$DIMTM
 40
0.1
  9
$DIMTXT
 40
3.5
  9
$DIMCEN
 40
0.0
  9
$DIMTSZ
 40
0.0
  9
$DIMTOL
 70
     0
  9
$DIMLIM
 70
     0
  9
$DIMTIH
 70
     0
  9
$DIMTOH
 70
     0
  9
$DIMSE1
 70
     0
  9
$DIMSE2
 70
     0
  9
$DIMTAD
 70
     3
  9
$DIMZIN
 70
     8
  9
$DIMBLK
  1
Open30
  9
$DIMASO
 70
     1
  9
$DIMSHO
 70
     1
  9
$DIMPOST
  1

  9
$DIMAPOST
  1
"
  9
$DIMALT
 70
     0
  9
$DIMALTD
 70
     2
  9
$DIMALTF
 40
0.0393701
  9
$DIMLFAC
 40
1.0
  9
$DIMTOFL
 70
     1
  9
$DIMTVP
 40
0.0
  9
$DIMTIX
 70
     0
  9
$DIMSOXD
 70
     0
  9
$DIMSAH
 70
     0
  9
$DIMBLK1
  1
Open30
  9
$DIMBLK2
  1
Open30
  9
$DIMSTYLE
  2
AM_JIS
  9
$DIMCLRD
 70
   256
  9
$DIMCLRE
 70
   256
  9
$DIMCLRT
 70
     2
  9
$DIMTFAC
 40
0.71
  9
$DIMGAP
 40
1.5
  9
$DIMJUST
 70
     0
  9
$DIMSD1
 70
     0
  9
$DIMSD2
 70
     0
  9
$DIMTOLJ
 70
     0
  9
$DIMTZIN
 70
     8
  9
$DIMALTZ
 70
     0
  9
$DIMALTTZ
 70
     0
  9
$DIMUPT
 70
     0
  9
$DIMDEC
 70
     2
  9
$DIMTDEC
 70
     3
  9
$DIMALTU
 70
     2
  9
$DIMALTTD
 70
     4
  9
$DIMTXSTY
  7
STANDARD
  9
$DIMAUNIT
 70
     0
  9
$DIMADEC
 70
     0
  9
$DIMALTRND
 40
0.0
  9
$DIMAZIN
 70
     2
  9
$DIMDSEP
 70
    46
  9
$DIMATFIT
 70
     3
  9
$DIMFRAC
 70
     0
  9
$DIMLDRBLK
  1
Open30
  9
$DIMLUNIT
 70
     2
  9
$DIMLWD
 70
    -1
  9
$DIMLWE
 70
    -1
  9
$DIMTMOVE
 70
     0
  9
$LUNITS
 70
     2
  9
$LUPREC
 70
     2
  9
$SKETCHINC
 40
0.1
  9
$FILLETRAD
 40
1.0
  9
$AUNITS
 70
     0
  9
$AUPREC
 70
     0
  9
$MENU
  1
.
  9
$ELEVATION
 40
0.0
  9
$PELEVATION
 40
0.0
  9
$THICKNESS
 40
0.0
  9
$LIMCHECK
 70
     0
  9
$CHAMFERA
 40
1.25
  9
$CHAMFERB
 40
1.25
  9
$CHAMFERC
 40
1.0
  9
$CHAMFERD
 40
0.0
  9
$SKPOLY
 70
     0
  9
$TDCREATE
 40
2454658.658775313
  9
$TDUCREATE
 40
2454658.283775312
  9
$TDUPDATE
 40
2455694.578088102
  9
$TDUUPDATE
 40
2455694.203088102
  9
$TDINDWG
 40
0.3703136111
  9
$TDUSRTIMER
 40
0.3703134954
  9
$USRTIMER
 70
     1
  9
$ANGBASE
 50
0.0
  9
$ANGDIR
 70
     0
  9
$PDMODE
 70
     0
  9
$PDSIZE
 40
0.0
  9
$PLINEWID
 40
0.0
  9
$SPLFRAME
 70
     0
  9
$SPLINETYPE
 70
     6
  9
$SPLINESEGS
 70
     8
  9
$HANDSEED
  5
2CCE
  9
$SURFTAB1
 70
     6
  9
$SURFTAB2
 70
     6
  9
$SURFTYPE
 70
     6
  9
$SURFU
 70
     6
  9
$SURFV
 70
     6
  9
$UCSBASE
  2

  9
$UCSNAME
  2

  9
$UCSORG
 10
0.0
 20
0.0
 30
0.0
  9
$UCSXDIR
 10
1.0
 20
0.0
 30
0.0
  9
$UCSYDIR
 10
0.0
 20
1.0
 30
0.0
  9
$UCSORTHOREF
  2

  9
$UCSORTHOVIEW
 70
     0
  9
$UCSORGTOP
 10
0.0
 20
0.0
 30
0.0
  9
$UCSORGBOTTOM
 10
0.0
 20
0.0
 30
0.0
  9
$UCSORGLEFT
 10
0.0
 20
0.0
 30
0.0
  9
$UCSORGRIGHT
 10
0.0
 20
0.0
 30
0.0
  9
$UCSORGFRONT
 10
0.0
 20
0.0
 30
0.0
  9
$UCSORGBACK
 10
0.0
 20
0.0
 30
0.0
  9
$PUCSBASE
  2

  9
$PUCSNAME
  2

  9
$PUCSORG
 10
0.0
 20
0.0
 30
0.0
  9
$PUCSXDIR
 10
1.0
 20
0.0
 30
0.0
  9
$PUCSYDIR
 10
0.0
 20
1.0
 30
0.0
  9
$PUCSORTHOREF
  2

  9
$PUCSORTHOVIEW
 70
     0
  9
$PUCSORGTOP
 10
0.0
 20
0.0
 30
0.0
  9
$PUCSORGBOTTOM
 10
0.0
 20
0.0
 30
0.0
  9
$PUCSORGLEFT
 10
0.0
 20
0.0
 30
0.0
  9
$PUCSORGRIGHT
 10
0.0
 20
0.0
 30
0.0
  9
$PUCSORGFRONT
 10
0.0
 20
0.0
 30
0.0
  9
$PUCSORGBACK
 10
0.0
 20
0.0
 30
0.0
  9
$USERI1
 70
     0
  9
$USERI2
 70
     0
  9
$USERI3
 70
     0
  9
$USERI4
 70
     0
  9
$USERI5
 70
     0
  9
$USERR1
 40
0.0
  9
$USERR2
 40
0.0
  9
$USERR3
 40
0.0
  9
$USERR4
 40
0.0
  9
$USERR5
 40
0.0
  9
$WORLDVIEW
 70
     1
  9
$SHADEDGE
 70
     3
  9
$SHADEDIF
 70
    70
  9
$TILEMODE
 70
     1
  9
$MAXACTVP
 70
    64
  9
$PINSBASE
 10
0.0
 20
0.0
 30
0.0
  9
$PLIMCHECK
 70
     0
  9
$PEXTMIN
 10
1.000000000000000E+20
 20
1.000000000000000E+20
 30
1.000000000000000E+20
  9
$PEXTMAX
 10
-1.000000000000000E+20
 20
-1.000000000000000E+20
 30
-1.000000000000000E+20
  9
$PLIMMIN
 10
0.0
 20
0.0
  9
$PLIMMAX
 10
12.0
 20
9.0
  9
$UNITMODE
 70
     0
  9
$VISRETAIN
 70
     1
  9
$PLINEGEN
 70
     0
  9
$PSLTSCALE
 70
     1
  9
$TREEDEPTH
 70
  3020
  9
$CMLSTYLE
  2
Standard
  9
$CMLJUST
 70
     0
  9
$CMLSCALE
 40
1.0
  9
$PROXYGRAPHICS
 70
     1
  9
$MEASUREMENT
 70
     1
  9
$CELWEIGHT
370
    -1
  9
$ENDCAPS
280
     0
  9
$JOINSTYLE
280
     0
  9
$LWDISPLAY
290
     0
  9
$INSUNITS
 70
     4
  9
$HYPERLINKBASE
  1

  9
$STYLESHEET
  1
IMAGIO.ctb
  9
$XEDIT
290
     1
  9
$CEPSNTYPE
380
     0
  9
$PSTYLEMODE
290
     1
  9
$FINGERPRINTGUID
  2
{FDEAD576-A652-11D2-9A35-0060089B3A3F}
  9
$VERSIONGUID
  2
{1286F00B-DB7E-4B4D-97D0-E70978C41154}
  9
$EXTNAMES
290
     1
  9
$PSVPSCALE
 40
0.0
  9
$OLESTARTUP
290
     0
  0
ENDSEC
  0
SECTION
  2
CLASSES
  0
CLASS
  1
ACDBDICTIONARYWDFLT
  2
AcDbDictionaryWithDefault
  3
ObjectDBX Classes
 90
        0
280
     0
281
     0
  0
CLASS
  1
ACDBPLACEHOLDER
  2
AcDbPlaceHolder
  3
ObjectDBX Classes
 90
        0
280
     0
281
     0
  0
CLASS
  1
LAYOUT
  2
AcDbLayout
  3
ObjectDBX Classes
 90
        0
280
     0
281
     0
  0
CLASS
  1
ACME_DOCUMENT
  2
AcMeDbDoc
  3
AcMeServices
 90
     1024
280
     0
281
     0
  0
CLASS
  1
AMGSETTINGSOBJ
  2
AmgSettingsObj
  3
"AcadM|Product Description: AutoCAD Mechanical|Company: Autodesk, Inc."
 90
     1024
280
     0
281
     0
  0
CLASS
  1
ACMESCOPE
  2
AcMeScope
  3
AcMeServices
 90
     1024
280
     0
281
     0
  0
CLASS
  1
ACMECOMMANDHISTORY
  2
AcMeCommandHistory
  3
AcMeServices
 90
     1024
280
     0
281
     0
  0
CLASS
  1
ACIMSYSVARMAN
  2
AcImSysVarManager
  3
AcMeServices
 90
     1024
280
     0
281
     0
  0
CLASS
  1
ACIMREALSYSVAR
  2
AcImRealSysVar
  3
AcMeServices
 90
     1024
280
     0
281
     0
  0
CLASS
  1
ACIMINTSYSVAR
  2
AcImIntSysVar
  3
AcMeServices
 90
     1024
280
     0
281
     0
  0
CLASS
  1
ACMEDRAWINGMAN
  2
AcMeDrawingMan
  3
AcMeServices
 90
    33792
280
     0
281
     0
  0
CLASS
  1
ACMEVIEW
  2
AcMeView
  3
AcMeServices
 90
    33792
280
     0
281
     0
  0
CLASS
  1
ACDBENTITYCACHE
  2
AcMeEntityCache
  3
AcMeServices
 90
     1024
280
     0
281
     0
  0
CLASS
  1
GSMANAGER
  2
AcMeGSManager
  3
AcMeServices
 90
    32768
280
     0
281
     0
  0
CLASS
  1
AMDTINTERNALREACTOR
  2
AmdtInternalReactor
  3
AcMeServices
 90
     1024
280
     0
281
     0
  0
CLASS
  1
ACMESTATEMGR
  2
AcMeStateMgr
  3
AcMeServices
 90
     1024
280
     0
281
     0
  0
CLASS
  1
ACGREFMASTER
  2
AcGrefMaster
  3
AcAttribServices
 90
     1024
280
     0
281
     0
  0
CLASS
  1
ACME_DATABASE
  2
AcMeDbDatabase
  3
AcMeServices
 90
     1024
280
     0
281
     0
  0
CLASS
  1
ACRFINSADJUSTERMGR
  2
AcRfInsAdjusterMgr
  3
AcMeServices
 90
     1024
280
     0
281
     0
  0
CLASS
  1
ACGREFACADMASTER
  2
AcGrefacadMaster
  3
AcGrefServices
 90
     1024
280
     0
281
     0
  0
CLASS
  1
AMIMASTER
  2
AmiMaster
  3
AmiServices
 90
     1024
280
     0
281
     0
  0
CLASS
  1
ACMDATADICTIONARY
  2
AcmDataDictionary
  3
"AcmSymBB|Product Description: AutoCAD Mechanical|Company: Autodesk, Inc."
 90
     1024
280
     0
281
     0
  0
CLASS
  1
ACMDATAENTRYBLOCK
  2
AcmDataEntryBlock
  3
AcmSymBB|Product Description: AutoCAD Mechanical|Company: Autodesk, Inc.
 90
     1024
280
     0
281
     0
  0
CLASS
  1
ACIMSTRSYSVAR
  2
AcImStrSysVar
  3
AcMeServices
 90
     1024
280
     0
281
     0
  0
CLASS
  1
ACMSTANDARDANSI
  2
AcmStandardANSI
  3
"Amdt_StdImp|Product Description: AutoCAD Mechanical|Company: Autodesk, Inc."
 90
     1024
280
     0
281
     0
  0
CLASS
  1
AMGOBJPROPCFG
  2
AmgObjPropCfg
  3
"AmgLay|Product Description: AutoCAD Mechanical|Company: Autodesk, Inc."
 90
     1025
280
     0
281
     0
  0
CLASS
  1
ACMSURFSTANDARDANSI
  2
AcmSurfTextStdANSI
  3
"Amdt_StdImp|Product Description: AutoCAD Mechanical|Company: Autodesk, Inc."
 90
     1024
280
     0
281
     0
  0
CLASS
  1
ACMFCFSTANDARDANSI
  2
AcmFCFStdANSI
  3
"Amdt_StdImp|Product Description: AutoCAD Mechanical|Company: Autodesk, Inc."
 90
     1024
280
     0
281
     0
  0
CLASS
  1
ACMWELDSTANDARDANSI
  2
AcmWeldingStdANSI
  3
"Amdt_StdImp|Product Description: AutoCAD Mechanical|Company: Autodesk, Inc."
 90
     1024
280
     0
281
     0
  0
CLASS
  1
ACMIDSTANDARDANSI
  2
AcmIdStdANSI
  3
"Amdt_StdImp|Product Description: AutoCAD Mechanical|Company: Autodesk, Inc."
 90
     1024
280
     0
281
     0
  0
CLASS
  1
ACMDATUMSTANDARDANSI
  2
AcmDatumStdANSI
  3
"Amdt_StdImp|Product Description: AutoCAD Mechanical|Company: Autodesk, Inc."
 90
     1024
280
     0
281
     0
  0
CLASS
  1
ACMBOMSTANDARDANSI
  2
AcmBOMStdANSI
  3
"Amdt_StdImp|Product Description: AutoCAD Mechanical|Company: Autodesk, Inc."
 90
     1024
280
     0
281
     0
  0
CLASS
  1
ACMDETAILSTANDARDANSI
  2
AmdtDetailSymStdANSI
  3
"Amdt_StdImp|Product Description: AutoCAD Mechanical|Company: Autodesk, Inc."
 90
     1024
280
     0
281
     0
  0
CLASS
  1
ACMSECTIONSTANDARDANSI
  2
AmdtSectionSymStdANSI
  3
"Amdt_StdImp|Product Description: AutoCAD Mechanical|Company: Autodesk, Inc."
 90
     1024
280
     0
281
     0
  0
CLASS
  1
ACMCENTERLINESTANDARDANSI
  2
AmdtCenterLineStdANSI
  3
"Amdt_StdImp|Product Description: AutoCAD Mechanical|Company: Autodesk, Inc."
 90
     1024
280
     0
281
     0
  0
CLASS
  1
ACMNOTESTANDARDANSI
  2
AmdtNoteStdANSI
  3
"Amdt_StdImp|Product Description: AutoCAD Mechanical|Company: Autodesk, Inc."
 90
     1024
280
     0
281
     0
  0
CLASS
  1
ACAMGLAYSTD
  2
AcAmgLayStd
  3
"AmgLay|Product Description: AutoCAD Mechanical|Company: Autodesk, Inc."
 90
     1024
280
     0
281
     0
  0
CLASS
  1
ACAMGDIMSTD
  2
AcAmgDimStd
  3
"AmgDim|Product Description: AutoCAD Mechanical|Company: Autodesk, Inc."
 90
     1024
280
     0
281
     0
  0
CLASS
  1
ACAMGHOLECHARTSTDANSI
  2
AcAmgHoleChartStdANSI
  3
AmgDim|Product Description: AutoCAD Mechanical|Company: Autodesk, Inc.
 90
     1024
280
     0
281
     0
  0
CLASS
  1
ACAMGTITLESTD
  2
AcAmgTitleStd
  3
"AmgTitle|Product Description: AutoCAD Mechanical|Company: Autodesk, Inc."
 90
     4095
280
     0
281
     0
  0
CLASS
  1
LAYER_INDEX
  2
AcDbLayerIndex
  3
ObjectDBX Classes
 90
    32768
280
     0
281
     0
  0
CLASS
  1
IDBUFFER
  2
AcDbIdBuffer
  3
ObjectDBX Classes
 90
    32768
280
     0
281
     0
  0
CLASS
  1
DICTIONARYVAR
  2
AcDbDictionaryVar
  3
ObjectDBX Classes
 90
        0
280
     0
281
     0
  0
CLASS
  1
ACMSTANDARDJIS
  2
AcmStandardJIS
  3
"Amdt_StdImp|Product Description: AutoCAD Mechanical|Company: Autodesk, Inc."
 90
     1024
280
     0
281
     0
  0
CLASS
  1
ACMSURFSTANDARDJIS
  2
AcmSurfTextStdJIS
  3
"Amdt_StdImp|Product Description: AutoCAD Mechanical|Company: Autodesk, Inc."
 90
     1024
280
     0
281
     0
  0
CLASS
  1
ACMFCFSTANDARDJIS98
  2
AcmFCFStdJIS98
  3
"Amdt_StdImp|Product Description: AutoCAD Mechanical|Company: Autodesk, Inc."
 90
     1024
280
     0
281
     0
  0
CLASS
  1
ACMWELDSTANDARDJIS
  2
AcmWeldingStdJIS
  3
"Amdt_StdImp|Product Description: AutoCAD Mechanical|Company: Autodesk, Inc."
 90
     1024
280
     0
281
     0
  0
CLASS
  1
ACMIDSTANDARDJIS
  2
AcmIdStdJIS
  3
"Amdt_StdImp|Product Description: AutoCAD Mechanical|Company: Autodesk, Inc."
 90
     1024
280
     0
281
     0
  0
CLASS
  1
ACMDATUMSTANDARDJIS
  2
AcmDatumStdJIS
  3
"Amdt_StdImp|Product Description: AutoCAD Mechanical|Company: Autodesk, Inc."
 90
     1024
280
     0
281
     0
  0
CLASS
  1
ACMBOMSTANDARDJIS
  2
AcmBOMStdJIS
  3
"Amdt_StdImp|Product Description: AutoCAD Mechanical|Company: Autodesk, Inc."
 90
     1024
280
     0
281
     0
  0
CLASS
  1
ACMDETAILSTANDARDJIS
  2
AmdtDetailSymStdJIS
  3
"Amdt_StdImp|Product Description: AutoCAD Mechanical|Company: Autodesk, Inc."
 90
     1024
280
     0
281
     0
  0
CLASS
  1
ACMSECTIONSTANDARDJIS
  2
AmdtSectionSymStdJIS
  3
"Amdt_StdImp|Product Description: AutoCAD Mechanical|Company: Autodesk, Inc."
 90
     1024
280
     0
281
     0
  0
CLASS
  1
ACMCENTERLINESTANDARDJIS
  2
AmdtCenterLineStdJIS
  3
"Amdt_StdImp|Product Description: AutoCAD Mechanical|Company: Autodesk, Inc."
 90
     1024
280
     0
281
     0
  0
CLASS
  1
ACMNOTESTANDARDJIS
  2
AmdtNoteStdJIS
  3
"Amdt_StdImp|Product Description: AutoCAD Mechanical|Company: Autodesk, Inc."
 90
     1024
280
     0
281
     0
  0
CLASS
  1
ACAMGHOLECHARTSTDJIS
  2
AcAmgHoleChartStdJIS
  3
AmgDim|Product Description: AutoCAD Mechanical|Company: Autodesk, Inc.
 90
     1024
280
     0
281
     0
  0
CLASS
  1
ACAMGFILTERDAT
  2
AcAmgFilterDat
  3
"AcadM|Product Description: AutoCAD Mechanical|Company: Autodesk, Inc."
 90
     1024
280
     0
281
     0
  0
CLASS
  1
AM_DRAWING_MGR
  2
AcDmDwgMgr
  3
AcMechDwgViewMgmt
 90
     1024
280
     0
281
     0
  0
CLASS
  1
AM_DWG_DOCUMENT
  2
AcDmDwgDocument
  3
AcMechDwgViewMgmt
 90
     1024
280
     0
281
     0
  0
CLASS
  1
AM_DWG_SHEET
  2
AcDmSheet
  3
AcMechDwgViewMgmt
 90
     1024
280
     0
281
     0
  0
CLASS
  1
AM_VIEWDIMPARMAP
  2
AcDmViewDimParMap
  3
AcMechDwgViewMgmt
 90
     1024
280
     0
281
     0
  0
CLASS
  1
AM_DWGMGR_NAME
  2
AcDmDwgMgrName
  3
AcMechDwgViewMgmt
 90
     1024
280
     0
281
     0
  0
CLASS
  1
AMDTMENUSTATEMGR
  2
AmdtMenuStateMgr
  3
McadcomServices
 90
     1024
280
     0
281
     0
  0
CLASS
  1
AMDTMCOMMENUSTATE
  2
AmdtMcomMenuState
  3
McadcomServices
 90
     1024
280
     0
281
     0
  0
CLASS
  1
MAPIAMMOUDLE
  2
MApiAmModule
  3
MApiAmServices
 90
     1024
280
     0
281
     0
  0
CLASS
  1
AMDTADMENUSTATE
  2
AmdtAdMenuState
  3
DesignerServices
 90
    32768
280
     0
281
     0
  0
CLASS
  1
ADAPPL
  2
AcAdAppl
  3
DesignerAssemblies
 90
    33792
280
     0
281
     0
  0
CLASS
  1
DEPMGR
  2
AcAdDepMgr
  3
DesignerAssemblies
 90
    33792
280
     0
281
     0
  0
CLASS
  1
PARAMMGR
  2
AcAdParamMgr
  3
DesignerAssemblies
 90
    33792
280
     0
281
     0
  0
CLASS
  1
PARAMSCOPE
  2
AcAdParamScope
  3
DesignerAssemblies
 90
    33792
280
     0
281
     0
  0
CLASS
  1
NAMEDAPPL
  2
AcAdNamedAppl
  3
DesignerAssemblies
 90
    33792
280
     0
281
     0
  0
CLASS
  1
AMDTDMMENUSTATE
  2
AmdtDmMenuState
  3
AcMechDwgViewMgmt
 90
     1024
280
     0
281
     0
  0
CLASS
  1
AMDTAMMENUSTATE
  2
AmdtAmMenuState
  3
DesignerAssemblies
 90
     1024
280
     0
281
     0
  0
CLASS
  1
ACAMPROJECT
  2
AcAmProject
  3
DesignerAssemblies
 90
     1024
280
     0
281
     0
  0
CLASS
  1
ACAMGRCOMPDEF
  2
AcAmGrCompDef
  3
DesignerAssemblies
 90
     1024
280
     0
281
     0
  0
CLASS
  1
ACCMCONTEXT
  2
AcCmContext
  3
DesignerAssemblies
 90
     1024
280
     0
281
     0
  0
CLASS
  1
ACAMCOMPDEF
  2
AcAmCompDef
  3
DesignerAssemblies
 90
     1024
280
     0
281
     0
  0
CLASS
  1
ACAMCOMPDEFMGR
  2
AcAmCompDefMgr
  3
DesignerAssemblies
 90
     1024
280
     0
281
     0
  0
CLASS
  1
AMCONTEXTMGR
  2
AcAmContextMgr
  3
DesignerAssemblies
 90
     1024
280
     0
281
     0
  0
CLASS
  1
ACAMCONTEXTMODELER
  2
AcAmContextModeler
  3
DesignerAssemblies
 90
     1024
280
     0
281
     0
  0
CLASS
  1
ACMTHREADLINESTANDARDANSI
  2
AmdtThreadLineStdANSI
  3
"Amdt_StdImp|Product Description: AutoCAD Mechanical|Company: Autodesk, Inc."
 90
     1024
280
     0
281
     0
  0
CLASS
  1
ACMTHREADLINESTANDARDJIS
  2
AmdtThreadLineStdJIS
  3
"Amdt_StdImp|Product Description: AutoCAD Mechanical|Company: Autodesk, Inc."
 90
     1024
280
     0
281
     0
  0
CLASS
  1
CATALOGSTATE
  2
AcAmCatalogState
  3
DesignerAssemblies
 90
    33792
280
     0
281
     0
  0
CLASS
  1
ACAMGRCOMPDEFSET
  2
AcAmGrCompDefSet
  3
DesignerAssemblies
 90
     1024
280
     0
281
     0
  0
CLASS
  1
AMDTBROWSERDBTAB
  2
AmdtBrowserDbTab
  3
McadcomServices
 90
     1024
280
     0
281
     0
  0
CLASS
  1
CBROWSERAPPOBJECT
  2
CBrowserAppObject
  3
McadcomServices
 90
     1024
280
     0
281
     0
  0
CLASS
  1
DM_PLACEHOLDER
  2
AcDmSelsetPlaceholder
  3
AcMechDwgViewMgmt
 90
     1024
280
     0
281
     0
  0
CLASS
  1
AMDTNOTETEMPLATEDB
  2
AmdtNoteTemplateDB
  3
AcmSymBB|Product Description: AutoCAD Mechanical|Company: Autodesk, Inc.
 90
     1024
280
     0
281
     0
  0
CLASS
  1
MATERIAL
  2
AcDbMaterial
  3
ObjectDBX Classes
 90
     1153
280
     0
281
     0
  0
CLASS
  1
DIMASSOC
  2
AcDbDimAssoc
  3
"AcDbDimAssoc|Product Desc:     AcDim ARX App For Dimension|Company:          Autodesk, Inc.|WEB Address:      www.autodesk.com"
 90
    32768
280
     0
281
     0
  0
CLASS
  1
SORTENTSTABLE
  2
AcDbSortentsTable
  3
ObjectDBX Classes
 90
        0
280
     0
281
     0
  0
CLASS
  1
ACMSTANDARDISO
  2
AcmStandardISO
  3
"Amdt_StdImp|Product Description: AutoCAD Mechanical|Company: Autodesk, Inc."
 90
     1024
280
     0
281
     0
  0
CLASS
  1
ACMSURFSTANDARDISO
  2
AcmSurfTextStdISO
  3
"Amdt_StdImp|Product Description: AutoCAD Mechanical|Company: Autodesk, Inc."
 90
     1024
280
     0
281
     0
  0
CLASS
  1
ACMFCFSTANDARDISO
  2
AcmFCFStdISO
  3
"Amdt_StdImp|Product Description: AutoCAD Mechanical|Company: Autodesk, Inc."
 90
     1024
280
     0
281
     0
  0
CLASS
  1
ACMWELDSTANDARDISO
  2
AcmWeldingStdISO
  3
"Amdt_StdImp|Product Description: AutoCAD Mechanical|Company: Autodesk, Inc."
 90
     1024
280
     0
281
     0
  0
CLASS
  1
ACMIDSTANDARDISO
  2
AcmIdStdISO
  3
"Amdt_StdImp|Product Description: AutoCAD Mechanical|Company: Autodesk, Inc."
 90
     1024
280
     0
281
     0
  0
CLASS
  1
ACMDATUMSTANDARDISO
  2
AcmDatumStdISO
  3
"Amdt_StdImp|Product Description: AutoCAD Mechanical|Company: Autodesk, Inc."
 90
     1024
280
     0
281
     0
  0
CLASS
  1
ACMBOMSTANDARDISO
  2
AcmBOMStdISO
  3
"Amdt_StdImp|Product Description: AutoCAD Mechanical|Company: Autodesk, Inc."
 90
     1024
280
     0
281
     0
  0
CLASS
  1
ACMDETAILSTANDARDISO
  2
AmdtDetailSymStdISO
  3
"Amdt_StdImp|Product Description: AutoCAD Mechanical|Company: Autodesk, Inc."
 90
     1024
280
     0
281
     0
  0
CLASS
  1
ACMSECTIONSTANDARDISO
  2
AmdtSectionSymStdISO
  3
"Amdt_StdImp|Product Description: AutoCAD Mechanical|Company: Autodesk, Inc."
 90
     1024
280
     0
281
     0
  0
CLASS
  1
ACMCENTERLINESTANDARDISO
  2
AmdtCenterLineStdISO
  3
"Amdt_StdImp|Product Description: AutoCAD Mechanical|Company: Autodesk, Inc."
 90
     1024
280
     0
281
     0
  0
CLASS
  1
ACMTHREADLINESTANDARDISO
  2
AmdtThreadLineStdISO
  3
"Amdt_StdImp|Product Description: AutoCAD Mechanical|Company: Autodesk, Inc."
 90
     1024
280
     0
281
     0
  0
CLASS
  1
ACMNOTESTANDARDISO
  2
AmdtNoteStdISO
  3
"Amdt_StdImp|Product Description: AutoCAD Mechanical|Company: Autodesk, Inc."
 90
     1024
280
     0
281
     0
  0
CLASS
  1
ACAMGHOLECHARTSTDISO
  2
AcAmgHoleChartStdISO
  3
AmgDim|Product Description: AutoCAD Mechanical|Company: Autodesk, Inc.
 90
     1024
280
     0
281
     0
  0
CLASS
  1
ACMPARTREF
  2
AcmPartRef
  3
"AcmSymBB|Product Description: AutoCAD Mechanical|Company: Autodesk, Inc."
 90
    36863
280
     0
281
     1
  0
CLASS
  1
ACMDATAENTRYPART
  2
AcmDataEntryPart
  3
AcmSymBB|Product Description: AutoCAD Mechanical|Company: Autodesk, Inc.
 90
    33792
280
     0
281
     0
  0
CLASS
  1
AMDTFORMULAUPDATEDISPATCHER
  2
AmdtFormulaUpdateDispatcher
  3
AcMeServices
 90
     1024
280
     0
281
     0
  0
CLASS
  1
ACDBDIMENSIONRES
  2
AcDbDimensionRes
  3
AcmSymBB|Product Description: AutoCAD Mechanical|Company: Autodesk, Inc.
 90
    33792
280
     0
281
     0
  0
CLASS
  1
ACDBLINERES
  2
AcDbLineRes
  3
AcGrefServices
 90
     1024
280
     0
281
     0
  0
CLASS
  1
ACMDATAENTRY
  2
AcmDataEntry
  3
AcmSymBB|Product Description: AutoCAD Mechanical|Company: Autodesk, Inc.
 90
     1024
280
     0
281
     0
  0
CLASS
  1
ACMBOM
  2
AcmBom
  3
"AcmSymBB|Product Description: AutoCAD Mechanical|Company: Autodesk, Inc."
 90
     1024
280
     0
281
     0
  0
CLASS
  1
ACMBOMROW
  2
AcmBomRow
  3
"AcmSymBB|Product Description: AutoCAD Mechanical|Company: Autodesk, Inc."
 90
    33792
280
     0
281
     0
  0
CLASS
  1
ACMPARTLIST
  2
AcmPartList
  3
"AcmSymBB|Product Description: AutoCAD Mechanical|Company: Autodesk, Inc."
 90
    36863
280
     0
281
     1
  0
CLASS
  1
ACDBOPPOLYLINERES
  2
AcDbOpPolylineRes
  3
AcGrefServices
 90
     1024
280
     0
281
     0
  0
CLASS
  1
ACRFINSADJ
  2
AcRfInsAdjuster
  3
AcMeServices
 90
     1024
280
     0
281
     0
  0
CLASS
  1
ACMPICKOBJ
  2
AcmPickEnt
  3
"AcmSymBB|Product Description: AutoCAD Mechanical|Company: Autodesk, Inc."
 90
    33792
280
     0
281
     1
  0
CLASS
  1
ACMBALLOON
  2
AcmBalloon
  3
"AcmSymBB|Product Description: AutoCAD Mechanical|Company: Autodesk, Inc."
 90
    36863
280
     0
281
     1
  0
CLASS
  1
AMDTNOTE
  2
AmdtNote
  3
"AcmSymBB|Product Description: AutoCAD Mechanical|Company: Autodesk, Inc."
 90
    36863
280
     0
281
     1
  0
CLASS
  1
VISUALSTYLE
  2
AcDbVisualStyle
  3
ObjectDBX Classes
 90
     4095
280
     0
281
     0
  0
CLASS
  1
TABLESTYLE
  2
AcDbTableStyle
  3
ObjectDBX Classes
 90
     4095
280
     0
281
     0
  0
CLASS
  1
ACRFATTGENMGR
  2
AcRfAttGeneralMgr
  3
AcAttribServices
 90
     1024
280
     0
281
     0
  0
CLASS
  1
ACRFOBJATTMGR
  2
AcRfObjAttGroupMgr
  3
AcAttribServices
 90
     1024
280
     0
281
     0
  0
CLASS
  1
ACRFMCADAPIATTHOLDER
  2
AcRfMCADAPIAttHolder
  3
AcAttribServices
 90
     1024
280
     0
281
     0
  0
CLASS
  1
AMDTSYSATTR
  2
AmdtSystemAttribute
  3
AcAttribServices
 90
     1024
280
     0
281
     0
  0
CLASS
  1
ACMTAPERSTANDARDJIS
  2
AcmTaperStdJIS
  3
"Amdt_StdImp|Product Description: AutoCAD Mechanical|Company: Autodesk, Inc."
 90
     1024
280
     0
281
     0
  0
CLASS
  1
ACMTAPERSTANDARDANSI
  2
AcmTaperStdANSI
  3
"Amdt_StdImp|Product Description: AutoCAD Mechanical|Company: Autodesk, Inc."
 90
     1024
280
     0
281
     0
  0
CLASS
  1
AMDTEDGESTANDARDISO13715
  2
AmdtEdgeStdISO13715
  3
"Amdt_StdImp|Product Description: AutoCAD Mechanical|Company: Autodesk, Inc."
 90
     1024
280
     0
281
     0
  0
CLASS
  1
ACMTAPERSTANDARDISO
  2
AcmTaperStdISO
  3
"Amdt_StdImp|Product Description: AutoCAD Mechanical|Company: Autodesk, Inc."
 90
     1024
280
     0
281
     0
  0
CLASS
  1
CAMSSTRUCTBTNSTATE
  2
StructBtnState
  3
DesignerAssemblies
 90
    33792
280
     0
281
     0
  0
CLASS
  1
AMDTACMWBLOCKBOMENTITY
  2
AmdtAcmWblockBomEntity
  3
"AcmSymBB|Product Description: AutoCAD Mechanical|Company: Autodesk, Inc."
 90
     4095
280
     0
281
     1
  0
CLASS
  1
SCALE
  2
AcDbScale
  3
ObjectDBX Classes
 90
     1153
280
     0
281
     0
  0
CLASS
  1
MLEADERSTYLE
  2
AcDbMLeaderStyle
  3
ACDB_MLEADERSTYLE_CLASS
 90
     4095
280
     0
281
     0
  0
CLASS
  1
ACMANOOTATIONVIEWSTANDARDJIS
  2
AmdtAnViewStdJIS
  3
"Amdt_StdImp|Product Description: AutoCAD Mechanical|Company: Autodesk, Inc."
 90
     1024
280
     0
281
     0
  0
CLASS
  1
AMDTEDGESTANDARDJIS
  2
AmdtEdgeStdJIS
  3
"Amdt_StdImp|Product Description: AutoCAD Mechanical|Company: Autodesk, Inc."
 90
     1024
280
     0
281
     0
  0
CLASS
  1
ACMANOOTATIONVIEWSTANDARDANSI
  2
AmdtAnViewStdANSI
  3
"Amdt_StdImp|Product Description: AutoCAD Mechanical|Company: Autodesk, Inc."
 90
     1024
280
     0
281
     0
  0
CLASS
  1
ACMANOOTATIONVIEWSTANDARDISO
  2
AmdtAnViewStdISO
  3
"Amdt_StdImp|Product Description: AutoCAD Mechanical|Company: Autodesk, Inc."
 90
     1024
280
     0
281
     0
  0
CLASS
  1
CELLSTYLEMAP
  2
AcDbCellStyleMap
  3
ObjectDBX Classes
 90
     1152
280
     0
281
     0
  0
ENDSEC
  0
SECTION
  2
TABLES
  0
TABLE
  2
VPORT
  5
8
102
{ACAD_XDICTIONARY
360
1064
102
}
330
0
100
AcDbSymbolTable
 70
     1
  0
VPORT
  5
F71
330
8
100
AcDbSymbolTableRecord
100
AcDbViewportTableRecord
  2
*Active
 70
     0
 10
0.0
 20
0.0
 11
1.0
 21
1.0
 12
231.9409757084341
 22
197.4325943274694
 13
0.0
 23
0.0
 14
1.25
 24
1.25
 15
5.0
 25
5.0
 16
0.0
 26
0.0
 36
1.0
 17
0.0
 27
0.0
 37
0.0
 40
104.0919766578451
 41
2.070938215102974
 42
50.0
 43
0.0
 44
0.0
 50
0.0
 51
0.0
 71
    16
 72
   100
 73
     1
 74
     3
 75
     0
 76
     0
 77
     0
 78
     0
281
     0
 65
     1
110
0.0
120
0.0
130
0.0
111
1.0
121
0.0
131
0.0
112
0.0
122
1.0
132
0.0
 79
     0
146
0.0
  0
ENDTAB
  0
TABLE
  2
LTYPE
  5
5
330
0
100
AcDbSymbolTable
 70
    19
  0
LTYPE
  5
14
330
5
100
AcDbSymbolTableRecord
100
AcDbLinetypeTableRecord
  2
ByBlock
 70
     0
  3

 72
    65
 73
     0
 40
0.0
  0
LTYPE
  5
15
330
5
100
AcDbSymbolTableRecord
100
AcDbLinetypeTableRecord
  2
ByLayer
 70
     0
  3

 72
    65
 73
     0
 40
0.0
  0
LTYPE
  5
16
330
5
100
AcDbSymbolTableRecord
100
AcDbLinetypeTableRecord
  2
Continuous
 70
     0
  3
Solid line
 72
    65
 73
     0
 40
0.0
  0
LTYPE
  5
6C
330
5
100
AcDbSymbolTableRecord
100
AcDbLinetypeTableRecord
  2
AM_ISO02W050
 70
     0
  3
__ __ __ __ __ __ __ __ __ __ __ __ __ __ __
 72
    65
 73
     2
 40
7.5
 49
6.0
 74
     0
 49
-1.5
 74
     0
  0
LTYPE
  5
6D
330
5
100
AcDbSymbolTableRecord
100
AcDbLinetypeTableRecord
  2
AM_ISO08W050
 70
     0
  3
____ . ____ . ____ . ____ . ____ . ____ . ____
 72
    65
 73
     4
 40
18.0
 49
12.0
 74
     0
 49
-1.5
 74
     0
 49
3.0
 74
     0
 49
-1.5
 74
     0
  0
LTYPE
  5
6E
330
5
100
AcDbSymbolTableRecord
100
AcDbLinetypeTableRecord
  2
AM_ISO09W050
 70
     0
  3
_____ . . _____ . . _____ . . ____ .. ____
 72
    65
 73
     6
 40
22.5
 49
12.0
 74
     0
 49
-1.5
 74
     0
 49
3.0
 74
     0
 49
-1.5
 74
     0
 49
3.0
 74
     0
 49
-1.5
 74
     0
  0
LTYPE
  5
6F
330
5
100
AcDbSymbolTableRecord
100
AcDbLinetypeTableRecord
  2
Amconstr
 70
     0
  3
_______________________
 72
    65
 73
     2
 40
9999.0
 49
9999.0
 74
     0
 49
0.0
 74
     0
  0
LTYPE
  5
70
330
5
100
AcDbSymbolTableRecord
100
AcDbLinetypeTableRecord
  2
AM_ISO08W050x2
 70
     0
  3
__ . __ . __ . __ . __ . __
 72
    65
 73
     4
 40
9.0
 49
6.0
 74
     0
 49
-0.75
 74
     0
 49
1.5
 74
     0
 49
-0.75
 74
     0
  0
LTYPE
  5
71
330
5
100
AcDbSymbolTableRecord
100
AcDbLinetypeTableRecord
  2
AM_ISO02W050x2
 70
     0
  3
 _ _ _ _ _ _ _ _ _ _ _ _
 72
    65
 73
     2
 40
3.75
 49
3.0
 74
     0
 49
-0.75
 74
     0
  0
LTYPE
  5
74
330
5
100
AcDbSymbolTableRecord
100
AcDbLinetypeTableRecord
  2
Amzigzag
 70
     0
  3
/\/-/\/-/\/-/\/-/\/-/\/
 72
    65
 73
     2
 40
11.0001
 49
0.0001
 74
     4
 75
   135
340
73
 46
0.04
 50
0.0
 44
0.0
 45
0.0
 49
-11.0
 74
     0
  0
LTYPE
  5
75
330
5
100
AcDbSymbolTableRecord
100
AcDbLinetypeTableRecord
  2
HIDDEN
 70
     0
  3
Hidden __ __ __ __ __ __ __ __ __ __ __ __ __ _
 72
    65
 73
     2
 40
0.375
 49
0.25
 74
     0
 49
-0.125
 74
     0
  0
LTYPE
  5
76
330
5
100
AcDbSymbolTableRecord
100
AcDbLinetypeTableRecord
  2
CENTER
 70
     0
  3
Center ____ _ ____ _ ____ _ ____ _ ____ _ ____
 72
    65
 73
     4
 40
2.0
 49
1.25
 74
     0
 49
-0.25
 74
     0
 49
0.25
 74
     0
 49
-0.25
 74
     0
  0
LTYPE
  5
77
330
5
100
AcDbSymbolTableRecord
100
AcDbLinetypeTableRecord
  2
PHANTOM2
 70
     0
  3
Phantom (.5x) ___ _ _ ___ _ _ ___ _ _ ___ _ _
 72
    65
 73
     6
 40
1.25
 49
0.625
 74
     0
 49
-0.125
 74
     0
 49
0.125
 74
     0
 49
-0.125
 74
     0
 49
0.125
 74
     0
 49
-0.125
 74
     0
  0
LTYPE
  5
87
330
5
100
AcDbSymbolTableRecord
100
AcDbLinetypeTableRecord
  2
ACANSTGB
 70
     0
  3
__ . . __ . .
 72
    65
 73
     6
 40
0.35433070866
 49
0.15748031496
 74
     0
 49
-0.03937007874
 74
     0
 49
0.03937007874
 74
     0
 49
-0.03937007874
 74
     0
 49
0.03937007874
 74
     0
 49
-0.03937007874
 74
     0
  0
LTYPE
  5
88
330
5
100
AcDbSymbolTableRecord
100
AcDbLinetypeTableRecord
  2
ACANSTGL
 70
     0
  3
_ _ _ _ _
 72
    65
 73
     2
 40
0.11811023622
 49
0.07874015748
 74
     0
 49
-0.03937007874
 74
     0
  0
LTYPE
  5
C2
330
5
100
AcDbSymbolTableRecord
100
AcDbLinetypeTableRecord
  2
ACJISTGB
 70
     0
  3
__ . . __ . .
 72
    65
 73
     6
 40
9.0
 49
4.0
 74
     0
 49
-1.0
 74
     0
 49
1.0
 74
     0
 49
-1.0
 74
     0
 49
1.0
 74
     0
 49
-1.0
 74
     0
  0
LTYPE
  5
C3
330
5
100
AcDbSymbolTableRecord
100
AcDbLinetypeTableRecord
  2
ACJISTGL
 70
     0
  3
_ _ _ _ _
 72
    65
 73
     2
 40
3.0
 49
2.0
 74
     0
 49
-1.0
 74
     0
  0
LTYPE
  5
9CC
330
5
100
AcDbSymbolTableRecord
100
AcDbLinetypeTableRecord
  2
ACISOWELD
 70
     0
  3
_ _ _ _ _
 72
    65
 73
     2
 40
2.0
 49
2.0
 74
     0
 49
-1.0
 74
     0
  0
LTYPE
  5
9CD
330
5
100
AcDbSymbolTableRecord
100
AcDbLinetypeTableRecord
  2
ACISOTGB
 70
     0
  3
__ . . __ . .
 72
    65
 73
     6
 40
9.0
 49
4.0
 74
     0
 49
-1.0
 74
     0
 49
1.0
 74
     0
 49
-1.0
 74
     0
 49
1.0
 74
     0
 49
-1.0
 74
     0
  0
LTYPE
  5
9CE
330
5
100
AcDbSymbolTableRecord
100
AcDbLinetypeTableRecord
  2
ACISOTGL
 70
     0
  3
_ _ _ _ _
 72
    65
 73
     2
 40
3.0
 49
2.0
 74
     0
 49
-1.0
 74
     0
  0
LTYPE
  5
1C44
330
5
100
AcDbSymbolTableRecord
100
AcDbLinetypeTableRecord
  2
CENTER2
 70
     0
  3
Center (.5x) ___ _ ___ _ ___ _ ___ _ ___ _ ___
 72
    65
 73
     4
 40
28.575
 49
19.05
 74
     0
 49
-3.174999999999999
 74
     0
 49
3.174999999999999
 74
     0
 49
-3.174999999999999
 74
     0
  0
ENDTAB
  0
TABLE
  2
LAYER
  5
2
102
{ACAD_XDICTIONARY
360
179
102
}
330
0
100
AcDbSymbolTable
 70
    12
  0
LAYER
  5
10
102
{ACAD_XDICTIONARY
360
2377
102
}
330
2
100
AcDbSymbolTableRecord
100
AcDbLayerTableRecord
  2
0
 70
     0
 62
     7
  6
Continuous
370
    -3
390
F
  0
LAYER
  5
10D
102
{ACAD_XDICTIONARY
360
2379
102
}
330
2
100
AcDbSymbolTableRecord
100
AcDbLayerTableRecord
  2
AM_0
 70
     0
 62
     7
  6
Continuous
370
    50
390
F
  0
LAYER
  5
170
102
{ACAD_XDICTIONARY
360
237B
102
}
330
2
100
AcDbSymbolTableRecord
100
AcDbLayerTableRecord
  2
AM_5
 70
     0
 62
     3
  6
Continuous
370
    25
390
F
  0
LAYER
  5
2AF
330
2
100
AcDbSymbolTableRecord
100
AcDbLayerTableRecord
  2
Defpoints
 70
     0
 62
     7
  6
Continuous
290
     0
370
    -3
390
F
  0
LAYER
  5
66F
102
{ACAD_XDICTIONARY
360
237D
102
}
330
2
100
AcDbSymbolTableRecord
100
AcDbLayerTableRecord
  2
AM_7
 70
     0
 62
     4
  6
AM_ISO08W050
370
    25
390
F
  0
LAYER
  5
6B7
102
{ACAD_XDICTIONARY
360
237F
102
}
330
2
100
AcDbSymbolTableRecord
100
AcDbLayerTableRecord
  2
AM_11
 70
     0
 62
     3
  6
AM_ISO09W050
370
    25
390
F
  0
LAYER
  5
99A
102
{ACAD_XDICTIONARY
360
2381
102
}
330
2
100
AcDbSymbolTableRecord
100
AcDbLayerTableRecord
  2
AM_BOR
 70
     0
 62
     7
  6
Continuous
370
    50
390
F
  0
LAYER
  5
9CF
102
{ACAD_XDICTIONARY
360
2383
102
}
330
2
100
AcDbSymbolTableRecord
100
AcDbLayerTableRecord
  2
AM_8
 70
     0
 62
     1
  6
Continuous
370
    25
390
F
  0
LAYER
  5
B4B
102
{ACAD_XDICTIONARY
360
2385
102
}
330
2
100
AcDbSymbolTableRecord
100
AcDbLayerTableRecord
  2
AM_PAREF
 70
     0
 62
     4
  6
Continuous
290
     0
370
    25
390
F
  0
LAYER
  5
B4E
102
{ACAD_XDICTIONARY
360
2387
102
}
330
2
100
AcDbSymbolTableRecord
100
AcDbLayerTableRecord
  2
AM_12
 70
     0
 62
     7
  6
Continuous
290
     0
370
    50
390
F
  0
LAYER
  5
CD1
102
{ACAD_XDICTIONARY
360
2389
102
}
330
2
100
AcDbSymbolTableRecord
100
AcDbLayerTableRecord
  2
AM_4
 70
     0
 62
     3
  6
Continuous
370
    25
390
F
  0
LAYER
  5
1BEE
102
{ACAD_XDICTIONARY
360
238B
102
}
330
2
100
AcDbSymbolTableRecord
100
AcDbLayerTableRecord
  2
AM_CL
 70
     0
 62
     1
  6
Amconstr
370
    25
390
F
1001
AcAecLayerStandard
1000

1000

  0
ENDTAB
  0
TABLE
  2
STYLE
  5
3
330
0
100
AcDbSymbolTable
 70
    13
  0
STYLE
  5
11
330
3
100
AcDbSymbolTableRecord
100
AcDbTextStyleTableRecord
  2
STANDARD
 70
     0
 40
0.0
 41
1.0
 50
0.0
 71
     0
 42
1.6
  3
ISOCP.SHX
  4
EXTFONT.SHX
  0
STYLE
  5
73
330
3
100
AcDbSymbolTableRecord
100
AcDbTextStyleTableRecord
  2

 70
     1
 40
0.0
 41
1.0
 50
0.0
 71
     0
 42
0.2
  3
ltypeshp.shx
  4

  0
STYLE
  5
7B
330
3
100
AcDbSymbolTableRecord
100
AcDbTextStyleTableRecord
  2
ACANSTS
 70
     0
 40
1.0
 41
1.0
 50
0.0
 71
     0
 42
0.2
  3
romans.shx
  4

  0
STYLE
  5
86
330
3
100
AcDbSymbolTableRecord
100
AcDbTextStyleTableRecord
  2
ACANSGDT
 70
     0
 40
0.0
 41
1.0
 50
0.0
 71
     0
 42
0.2
  3
amgdtans.shx
  4

  0
STYLE
  5
B6
330
3
100
AcDbSymbolTableRecord
100
AcDbTextStyleTableRecord
  2
ACJISTS
 70
     0
 40
1.0
 41
1.0
 50
0.0
 71
     0
 42
0.2
  3
isocp.shx
  4
extfont.shx
  0
STYLE
  5
C1
330
3
100
AcDbSymbolTableRecord
100
AcDbTextStyleTableRecord
  2
ACJISGDT
 70
     0
 40
0.0
 41
1.0
 50
0.0
 71
     0
 42
0.2
  3
amgdt.shx
  4

  0
STYLE
  5
8A5
330
3
100
AcDbSymbolTableRecord
100
AcDbTextStyleTableRecord
  2
ｽﾀｲﾙ1
 70
     0
 40
0.0
 41
1.0
 50
0.0
 71
     0
 42
44.62462130138407
  3

  4

1001
ACAD
1000
HGPSoeiKakugothicUB
1071
    32818
  0
STYLE
  5
9D2
330
3
100
AcDbSymbolTableRecord
100
AcDbTextStyleTableRecord
  2
ACISOTS
 70
     0
 40
1.0
 41
1.0
 50
0.0
 71
     0
 42
3.0
  3
isocp.shx
  4
extfont.shx
  0
STYLE
  5
9D3
330
3
100
AcDbSymbolTableRecord
100
AcDbTextStyleTableRecord
  2
ACISOGDT
 70
     0
 40
0.0
 41
1.0
 50
0.0
 71
     0
 42
3.0
  3
amgdt.shx
  4

  0
STYLE
  5
1B72
330
3
100
AcDbSymbolTableRecord
100
AcDbTextStyleTableRecord
  2
USER1
 70
     0
 40
0.0
 41
1.0
 50
0.0
 71
     0
 42
2.5
  3
TXT.SHX
  4

  0
STYLE
  5
1B73
330
3
100
AcDbSymbolTableRecord
100
AcDbTextStyleTableRecord
  2
USER2
 70
     0
 40
0.0
 41
1.0
 50
0.0
 71
     0
 42
2.5
  3
SIMPLEX.SHX
  4

  0
STYLE
  5
1B74
330
3
100
AcDbSymbolTableRecord
100
AcDbTextStyleTableRecord
  2
USER3
 70
     0
 40
0.0
 41
1.0
 50
0.0
 71
     0
 42
2.5
  3
ITALIC.SHX
  4

  0
STYLE
  5
2467
330
3
100
AcDbSymbolTableRecord
100
AcDbTextStyleTableRecord
  2

 70
     1
 40
0.0
 41
1.0
 50
0.0
 71
     0
 42
2.5
  3
genltshp.shx
  4

  0
ENDTAB
  0
TABLE
  2
VIEW
  5
6
330
0
100
AcDbSymbolTable
 70
     6
  0
VIEW
  5
A37
330
6
100
AcDbSymbolTableRecord
100
AcDbViewTableRecord
  2
AM_VIEW1
 70
     0
 40
99.30877504848092
 10
204.5602518948942
 20
225.3421293434135
 41
105.0107142857142
 11
0.0
 21
0.0
 31
1.0
 12
0.0
 22
0.0
 32
0.0
 42
50.0
 43
0.0
 44
0.0
 50
0.0
 71
    16
281
     0
 72
     0
  0
VIEW
  5
A38
330
6
100
AcDbSymbolTableRecord
100
AcDbViewTableRecord
  2
AM_VIEW2
 70
     0
 40
99.30877504848092
 10
309.5709661806085
 20
225.3421293434135
 41
105.0107142857143
 11
0.0
 21
0.0
 31
1.0
 12
0.0
 22
0.0
 32
0.0
 42
50.0
 43
0.0
 44
0.0
 50
0.0
 71
    16
281
     0
 72
     0
  0
VIEW
  5
A39
330
6
100
AcDbSymbolTableRecord
100
AcDbViewTableRecord
  2
AM_VIEW3
 70
     0
 40
99.30877504848092
 10
204.5602518948942
 20
176.1509043918944
 41
105.0107142857142
 11
0.0
 21
0.0
 31
1.0
 12
0.0
 22
0.0
 32
0.0
 42
50.0
 43
0.0
 44
0.0
 50
0.0
 71
    16
281
     0
 72
     0
  0
VIEW
  5
A3A
330
6
100
AcDbSymbolTableRecord
100
AcDbViewTableRecord
  2
AM_VIEW4
 70
     0
 40
99.30877504848092
 10
309.5709661806085
 20
176.1509043918944
 41
105.0107142857143
 11
0.0
 21
0.0
 31
1.0
 12
0.0
 22
0.0
 32
0.0
 42
50.0
 43
0.0
 44
0.0
 50
0.0
 71
    16
281
     0
 72
     0
  0
VIEW
  5
A3B
330
6
100
AcDbSymbolTableRecord
100
AcDbViewTableRecord
  2
AM_VIEW5
 70
     0
 40
99.30877504848092
 10
257.0656090377513
 20
200.746516867654
 41
105.0107142857142
 11
0.0
 21
0.0
 31
1.0
 12
0.0
 22
0.0
 32
0.0
 42
50.0
 43
0.0
 44
0.0
 50
0.0
 71
    16
281
     0
 72
     0
  0
VIEW
  5
A3C
330
6
100
AcDbSymbolTableRecord
100
AcDbViewTableRecord
  2
AM_VIEW6
 70
     0
 40
198.6155639214608
 10
257.0656090377513
 20
200.746516867654
 41
210.0193283571428
 11
0.0
 21
0.0
 31
1.0
 12
0.0
 22
0.0
 32
0.0
 42
50.0
 43
0.0
 44
0.0
 50
0.0
 71
    16
281
     0
 72
     0
  0
ENDTAB
  0
TABLE
  2
UCS
  5
7
330
0
100
AcDbSymbolTable
 70
     0
  0
ENDTAB
  0
TABLE
  2
APPID
  5
9
330
0
100
AcDbSymbolTable
 70
    41
  0
APPID
  5
12
330
9
100
AcDbSymbolTableRecord
100
AcDbRegAppTableRecord
  2
ACAD
 70
     0
  0
APPID
  5
4E
330
9
100
AcDbSymbolTableRecord
100
AcDbRegAppTableRecord
  2
MCAD_NO_VIS
 70
     0
  0
APPID
  5
4F
330
9
100
AcDbSymbolTableRecord
100
AcDbRegAppTableRecord
  2
ACAD_TEMP_GRAPHIC
 70
     0
  0
APPID
  5
60
330
9
100
AcDbSymbolTableRecord
100
AcDbRegAppTableRecord
  2
ACATTRIBSERVICES
 70
     0
  0
APPID
  5
145
330
9
100
AcDbSymbolTableRecord
100
AcDbRegAppTableRecord
  2
AD_DRAW
 70
     0
  0
APPID
  5
163
330
9
100
AcDbSymbolTableRecord
100
AcDbRegAppTableRecord
  2
DESIGNERASSEMBLIES
 70
     0
  0
APPID
  5
169
330
9
100
AcDbSymbolTableRecord
100
AcDbRegAppTableRecord
  2
ACADM_DIM_EDIT
 70
     0
  0
APPID
  5
16A
330
9
100
AcDbSymbolTableRecord
100
AcDbRegAppTableRecord
  2
AMDT_DM_ADJ
 70
     0
  0
APPID
  5
2B3
330
9
100
AcDbSymbolTableRecord
100
AcDbRegAppTableRecord
  2
ACAD_PSEXT
 70
     0
  0
APPID
  5
660
330
9
100
AcDbSymbolTableRecord
100
AcDbRegAppTableRecord
  2
GENIUS_GENDIMSH_14
 70
     0
  0
APPID
  5
671
330
9
100
AcDbSymbolTableRecord
100
AcDbRegAppTableRecord
  2
GENIUS_GENODEF_13
 70
     0
  0
APPID
  5
672
330
9
100
AcDbSymbolTableRecord
100
AcDbRegAppTableRecord
  2
GENIUS_GENOBJ-N-CEN_13
 70
     0
  0
APPID
  5
8A7
330
9
100
AcDbSymbolTableRecord
100
AcDbRegAppTableRecord
  2
GENIUS_GENOENT_13
 70
     0
  0
APPID
  5
8A8
330
9
100
AcDbSymbolTableRecord
100
AcDbRegAppTableRecord
  2
GENIUS_GENOREF_13
 70
     0
  0
APPID
  5
8A9
330
9
100
AcDbSymbolTableRecord
100
AcDbRegAppTableRecord
  2
GENIUS_GENOLIS_13
 70
     0
  0
APPID
  5
8AA
330
9
100
AcDbSymbolTableRecord
100
AcDbRegAppTableRecord
  2
GENIUS_GENOBJ-N-FIL_13
 70
     0
  0
APPID
  5
8AB
330
9
100
AcDbSymbolTableRecord
100
AcDbRegAppTableRecord
  2
GENIUS_GENOBJ-N-CRS_13
 70
     0
  0
APPID
  5
99C
330
9
100
AcDbSymbolTableRecord
100
AcDbRegAppTableRecord
  2
GENIUS_GENREC_14
 70
     0
  0
APPID
  5
99D
330
9
100
AcDbSymbolTableRecord
100
AcDbRegAppTableRecord
  2
GENIUS_GENOBJ-N-REC_13
 70
     0
  0
APPID
  5
9D4
330
9
100
AcDbSymbolTableRecord
100
AcDbRegAppTableRecord
  2
GENIUS_GENOBJ-N-HTC_13
 70
     0
  0
APPID
  5
9D5
330
9
100
AcDbSymbolTableRecord
100
AcDbRegAppTableRecord
  2
GENIUS_GENHATCH_13
 70
     0
  0
APPID
  5
A35
330
9
100
AcDbSymbolTableRecord
100
AcDbRegAppTableRecord
  2
GENIUS_GENOBJ-N-TIT_13
 70
     0
  0
APPID
  5
A36
330
9
100
AcDbSymbolTableRecord
100
AcDbRegAppTableRecord
  2
GENIUS_GENTITLE_13
 70
     0
  0
APPID
  5
A3D
330
9
100
AcDbSymbolTableRecord
100
AcDbRegAppTableRecord
  2
GENIUS_GENSCREG_15
 70
     0
  0
APPID
  5
A3E
330
9
100
AcDbSymbolTableRecord
100
AcDbRegAppTableRecord
  2
GENIUS_GENOBJ-N-SDF_13
 70
     0
  0
APPID
  5
CD4
330
9
100
AcDbSymbolTableRecord
100
AcDbRegAppTableRecord
  2
GENIUS_GEFSH_13
 70
     0
  0
APPID
  5
CD5
330
9
100
AcDbSymbolTableRecord
100
AcDbRegAppTableRecord
  2
GENIUS_GENOBJ-F-SHS_13
 70
     0
  0
APPID
  5
D71
330
9
100
AcDbSymbolTableRecord
100
AcDbRegAppTableRecord
  2
GENIUS_GENFIL_13
 70
     0
  0
APPID
  5
D72
330
9
100
AcDbSymbolTableRecord
100
AcDbRegAppTableRecord
  2
GENIUS_GENOBJ-N-CHA_13
 70
     0
  0
APPID
  5
162D
330
9
100
AcDbSymbolTableRecord
100
AcDbRegAppTableRecord
  2
GENIUS_GENCEN_19
 70
     0
  0
APPID
  5
1648
330
9
100
AcDbSymbolTableRecord
100
AcDbRegAppTableRecord
  2
ACAD_EXEMPT_FROM_CAD_STANDARDS
 70
     0
  0
APPID
  5
1BEF
330
9
100
AcDbSymbolTableRecord
100
AcDbRegAppTableRecord
  2
AcAecLayerStandard
 70
     0
  0
APPID
  5
23E1
330
9
100
AcDbSymbolTableRecord
100
AcDbRegAppTableRecord
  2
ACAD_MLEADERVER
 70
     0
  0
APPID
  5
2447
330
9
100
AcDbSymbolTableRecord
100
AcDbRegAppTableRecord
  2
GENIUS_GENDTOL_13
 70
     0
  0
APPID
  5
2448
330
9
100
AcDbSymbolTableRecord
100
AcDbRegAppTableRecord
  2
ACAD_DSTYLE_DIMINSPECT
 70
     0
  0
APPID
  5
246F
330
9
100
AcDbSymbolTableRecord
100
AcDbRegAppTableRecord
  2
ACAD_DSTYLE_DIMJAG
 70
     0
  0
APPID
  5
2470
330
9
100
AcDbSymbolTableRecord
100
AcDbRegAppTableRecord
  2
ACAD_DSTYLE_DIMBREAK
 70
     0
  0
APPID
  5
26ED
330
9
100
AcDbSymbolTableRecord
100
AcDbRegAppTableRecord
  2
ACAD_DSTYLE_DIMARC_LENGTH_SYMBOL
 70
     0
  0
APPID
  5
26EE
330
9
100
AcDbSymbolTableRecord
100
AcDbRegAppTableRecord
  2
ACAD_DSTYLE_DIM_LINETYPE
 70
     0
  0
APPID
  5
26EF
330
9
100
AcDbSymbolTableRecord
100
AcDbRegAppTableRecord
  2
ACAD_DSTYLE_DIM_EXT1_LINETYPE
 70
     0
  0
APPID
  5
26F0
330
9
100
AcDbSymbolTableRecord
100
AcDbRegAppTableRecord
  2
ACAD_DSTYLE_DIM_EXT2_LINETYPE
 70
     0
  0
ENDTAB
  0
TABLE
  2
DIMSTYLE
  5
A
330
0
100
AcDbSymbolTable
 70
    23
100
AcDbDimStyleTable
 71
     2
340
C8
340
8C
  0
DIMSTYLE
105
27
330
A
100
AcDbSymbolTableRecord
100
AcDbDimStyleTableRecord
  2
Standard
 70
     0
340
11
  0
DIMSTYLE
105
8C
330
A
100
AcDbSymbolTableRecord
100
AcDbDimStyleTableRecord
  2
AM_ANSI
 70
     0
  4
mm
 40
0.5
 41
0.1
 42
0.05
 43
0.5
 44
0.1
 47
0.1
 48
0.1
 78
     7
 79
     2
140
0.12
141
0.0
146
0.71
147
0.06
176
   256
177
   256
178
     2
274
     4
284
     7
340
11
371
    -1
372
    -1
  0
DIMSTYLE
105
8D
330
A
100
AcDbSymbolTableRecord
100
AcDbDimStyleTableRecord
  2
AM_ANSI$3
 70
     0
  4
mm
 40
0.5
 41
0.1
 42
0.05
 43
0.5
 44
0.1
 47
0.1
 48
0.1
 78
     7
 79
     2
140
0.12
141
0.0
146
0.71
147
0.06
176
   256
177
   256
178
     2
274
     4
284
     7
288
     1
289
     0
340
11
371
    -1
372
    -1
  0
DIMSTYLE
105
8E
330
A
100
AcDbSymbolTableRecord
100
AcDbDimStyleTableRecord
  2
AM_ANSI$4
 70
     0
  4
mm
 40
0.5
 41
0.1
 42
0.05
 43
0.5
 44
0.1
 47
0.1
 48
0.1
 78
     7
 79
     2
140
0.12
141
0.0
146
0.71
147
0.06
176
   256
177
   256
178
     2
274
     4
284
     7
288
     1
289
     0
340
11
371
    -1
372
    -1
  0
DIMSTYLE
105
8F
330
A
100
AcDbSymbolTableRecord
100
AcDbDimStyleTableRecord
  2
AM_ANSI$7
 70
     0
  4
mm
 40
0.5
 41
0.1
 42
0.05
 43
0.5
 44
0.1
 47
0.1
 48
0.1
 78
     7
 79
     2
140
0.24
141
0.0
146
0.71
147
0.06
176
   256
177
   256
178
     2
274
     4
284
     7
340
11
371
    -1
372
    -1
  0
DIMSTYLE
105
90
330
A
100
AcDbSymbolTableRecord
100
AcDbDimStyleTableRecord
  2
AM_ANSI$SF
 70
     0
  4
mm
 40
0.5
 41
0.1
 42
0.05
 43
0.5
 44
0.1
 47
0.1
 48
0.1
 75
     1
 76
     1
 78
     7
 79
     2
140
0.12
141
0.0
146
0.71
147
0.06
176
   256
177
   256
178
     2
274
     4
284
     7
340
11
371
    -1
372
    -1
  0
DIMSTYLE
105
95
330
A
100
AcDbSymbolTableRecord
100
AcDbDimStyleTableRecord
  2
AM_ANSI$SH
 70
     0
  4
mm
 40
0.5
 41
0.1
 42
0.05
 43
0.5
 44
0.1
 47
0.1
 48
0.1
 75
     1
 76
     1
 78
     7
 79
     2
140
0.12
141
0.0
146
0.71
147
0.06
173
     1
176
   256
177
   256
178
     2
274
     4
284
     7
340
11
343
91
371
    -1
372
    -1
  0
DIMSTYLE
105
C8
330
A
100
AcDbSymbolTableRecord
100
AcDbDimStyleTableRecord
  2
AM_JIS
 70
     0
  4
"
 40
0.5
 41
2.5
 42
1.0
 43
10.0
 44
1.0
 47
0.1
 48
0.1
 73
     0
 74
     0
 77
     3
 78
     8
 79
     2
140
3.5
141
0.0
143
0.0393701
146
0.71
147
1.5
172
     1
176
   256
177
   256
178
     2
271
     2
272
     3
274
     4
283
     0
284
     8
340
11
341
C9
342
C9
343
C9
344
C9
371
    -1
372
    -1
  0
DIMSTYLE
105
CF
330
A
100
AcDbSymbolTableRecord
100
AcDbDimStyleTableRecord
  2
AM_JIS$3
 70
     0
  4
"
 40
0.5
 41
2.5
 42
1.0
 43
10.0
 44
1.0
 47
0.1
 48
0.1
 73
     0
 77
     3
 78
     8
 79
     2
140
3.5
141
0.0
143
0.0393701
146
0.71
147
1.5
176
   256
177
   256
178
     2
271
     2
272
     3
274
     4
283
     0
284
     8
288
     1
289
     0
340
11
341
C9
342
C9
343
C9
344
C9
371
    -1
372
    -1
  0
DIMSTYLE
105
D0
330
A
100
AcDbSymbolTableRecord
100
AcDbDimStyleTableRecord
  2
AM_JIS$4
 70
     0
  4
"
 40
0.5
 41
2.5
 42
1.0
 43
10.0
 44
1.0
 47
0.1
 48
0.1
 73
     0
 77
     3
 78
     8
 79
     2
140
3.5
141
0.0
143
0.0393701
146
0.71
147
1.5
176
   256
177
   256
178
     2
271
     2
272
     3
274
     4
283
     0
284
     8
288
     1
289
     0
340
11
341
C9
342
C9
343
C9
344
C9
371
    -1
372
    -1
  0
DIMSTYLE
105
D1
330
A
100
AcDbSymbolTableRecord
100
AcDbDimStyleTableRecord
  2
AM_JIS$6
 70
     0
  4
"
 40
0.5
 41
2.5
 42
1.0
 43
10.0
 44
1.0
 47
0.1
 48
0.1
 73
     0
 74
     0
 78
     8
 79
     2
140
3.5
141
0.0
143
0.0393701
146
0.71
147
1.5
172
     1
176
   256
177
   256
178
     2
271
     2
272
     3
274
     4
283
     0
284
     8
340
11
341
C9
342
C9
343
C9
344
C9
371
    -1
372
    -1
  0
DIMSTYLE
105
D2
330
A
100
AcDbSymbolTableRecord
100
AcDbDimStyleTableRecord
  2
AM_JIS$7
 70
     0
  4
"
 40
0.5
 41
2.5
 42
1.0
 43
10.0
 44
1.0
 47
0.1
 48
0.1
 73
     0
 74
     0
 77
     3
 78
     8
 79
     2
140
5.0
141
0.0
143
0.0393701
146
0.71
147
1.5
172
     1
176
   256
177
   256
178
     2
271
     2
272
     3
274
     4
283
     0
284
     8
340
11
341
C9
342
C9
343
C9
344
C9
371
    -1
372
    -1
  0
DIMSTYLE
105
D3
330
A
100
AcDbSymbolTableRecord
100
AcDbDimStyleTableRecord
  2
AM_JIS$SF
 70
     0
  4
"
 40
0.5
 41
2.5
 42
1.0
 43
10.0
 44
1.0
 47
0.1
 48
0.1
 73
     0
 74
     0
 75
     1
 76
     1
 77
     3
 78
     8
 79
     2
140
3.5
141
0.0
143
0.0393701
146
0.71
147
1.5
172
     1
176
   256
177
   256
178
     2
271
     2
272
     3
274
     4
283
     0
284
     8
340
11
341
C9
342
C9
343
C9
344
C9
371
    -1
372
    -1
  0
DIMSTYLE
105
D4
330
A
100
AcDbSymbolTableRecord
100
AcDbDimStyleTableRecord
  2
AM_JIS$SH
 70
     0
  4
"
 40
0.5
 41
2.5
 42
1.0
 43
10.0
 44
1.0
 47
0.1
 48
0.1
 73
     0
 74
     0
 75
     1
 76
     1
 77
     3
 78
     8
 79
     2
140
3.5
141
0.0
143
0.0393701
144
2.0
146
0.71
147
1.5
172
     1
173
     1
176
   256
177
   256
178
     2
271
     2
272
     3
274
     4
283
     0
284
     8
340
11
341
C9
342
C9
343
91
344
C9
371
    -1
372
    -1
  0
DIMSTYLE
105
8A6
330
A
100
AcDbSymbolTableRecord
100
AcDbDimStyleTableRecord
  2
AM_JIS$0
 70
     0
  4
"
 40
0.5
 41
2.5
 42
1.0
 43
10.0
 44
1.0
 47
0.1
 48
0.1
 73
     0
 74
     0
 77
     3
 78
     8
 79
     2
140
3.5
141
0.0
143
0.0393701
146
0.71
147
1.5
172
     1
176
   256
177
   256
178
     2
271
     2
272
     3
274
     4
283
     0
340
11
341
C9
342
C9
343
C9
344
C9
371
    -1
372
    -1
  0
DIMSTYLE
105
1B75
330
A
100
AcDbSymbolTableRecord
100
AcDbDimStyleTableRecord
  2
ISO-25
 70
     0
 41
2.5
 42
0.625
 43
3.75
 44
1.25
 73
     0
 74
     0
 77
     1
 78
     8
140
2.5
141
2.5
143
0.03937007874016
147
0.625
171
     3
172
     1
271
     2
272
     2
274
     3
283
     0
284
     8
340
11
  0
DIMSTYLE
105
2468
102
{ACAD_REACTORS
330
A10
102
}
330
A
100
AcDbSymbolTableRecord
100
AcDbDimStyleTableRecord
  2
AM_ISO
 70
     0
  4
"
 41
3.5
 42
1.0
 43
10.0
 44
1.0
 47
0.1
 48
0.1
 73
     0
 74
     0
 77
     1
 78
     8
 79
     2
140
3.5
141
0.0
143
0.0393701
146
0.71
147
1.5
172
     1
176
   256
177
   256
178
     2
271
     2
272
     3
274
     4
283
     0
284
     8
340
11
371
    -1
372
    -1
1001
ACAD_DSTYLE_DIMJAG
1070
   388
1040
1.5
1001
ACAD_DSTYLE_DIMBREAK
1070
   391
1040
3.75
1001
ACAD_DSTYLE_DIMARC_LENGTH_SYMBOL
1070
   379
1070
     1
1001
ACAD_DSTYLE_DIM_LINETYPE
1070
   380
1005
14
1001
ACAD_DSTYLE_DIM_EXT1_LINETYPE
1070
   381
1005
14
1001
ACAD_DSTYLE_DIM_EXT2_LINETYPE
1070
   382
1005
14
  0
DIMSTYLE
105
2469
330
A
100
AcDbSymbolTableRecord
100
AcDbDimStyleTableRecord
  2
AM_ISO$3
 70
     0
  4
"
 41
3.5
 42
1.0
 43
10.0
 44
1.0
 47
0.1
 48
0.1
 73
     0
 77
     1
 78
     8
 79
     2
140
3.5
141
0.0
143
0.0393701
146
0.71
147
1.5
176
   256
177
   256
178
     2
271
     2
272
     3
274
     4
283
     0
284
     8
288
     1
289
     0
340
11
371
    -1
372
    -1
1001
ACAD_DSTYLE_DIMBREAK
1070
   391
1040
3.75
1001
ACAD_DSTYLE_DIMJAG
1070
   388
1040
1.5
1001
ACAD_DSTYLE_DIMARC_LENGTH_SYMBOL
1070
   379
1070
     1
1001
ACAD_DSTYLE_DIM_LINETYPE
1070
   380
1005
14
1001
ACAD_DSTYLE_DIM_EXT1_LINETYPE
1070
   381
1005
14
1001
ACAD_DSTYLE_DIM_EXT2_LINETYPE
1070
   382
1005
14
  0
DIMSTYLE
105
246A
330
A
100
AcDbSymbolTableRecord
100
AcDbDimStyleTableRecord
  2
AM_ISO$4
 70
     0
  4
"
 41
3.5
 42
1.0
 43
10.0
 44
1.0
 47
0.1
 48
0.1
 73
     0
 77
     1
 78
     8
 79
     2
140
3.5
141
0.0
143
0.0393701
146
0.71
147
1.5
176
   256
177
   256
178
     2
271
     2
272
     3
274
     4
283
     0
284
     8
288
     1
289
     0
340
11
371
    -1
372
    -1
1001
ACAD_DSTYLE_DIMBREAK
1070
   391
1040
3.75
1001
ACAD_DSTYLE_DIMJAG
1070
   388
1040
1.5
1001
ACAD_DSTYLE_DIMARC_LENGTH_SYMBOL
1070
   379
1070
     1
1001
ACAD_DSTYLE_DIM_LINETYPE
1070
   380
1005
14
1001
ACAD_DSTYLE_DIM_EXT1_LINETYPE
1070
   381
1005
14
1001
ACAD_DSTYLE_DIM_EXT2_LINETYPE
1070
   382
1005
14
  0
DIMSTYLE
105
246B
330
A
100
AcDbSymbolTableRecord
100
AcDbDimStyleTableRecord
  2
AM_ISO$6
 70
     0
  4
"
 41
3.5
 42
1.0
 43
10.0
 44
1.0
 47
0.1
 48
0.1
 73
     0
 74
     0
 78
     8
 79
     2
140
3.5
141
0.0
143
0.0393701
146
0.71
147
1.5
172
     1
176
   256
177
   256
178
     2
271
     2
272
     3
274
     4
283
     0
284
     8
340
11
371
    -1
372
    -1
1001
ACAD_DSTYLE_DIMBREAK
1070
   391
1040
3.75
1001
ACAD_DSTYLE_DIMJAG
1070
   388
1040
1.5
1001
ACAD_DSTYLE_DIMARC_LENGTH_SYMBOL
1070
   379
1070
     1
1001
ACAD_DSTYLE_DIM_LINETYPE
1070
   380
1005
14
1001
ACAD_DSTYLE_DIM_EXT1_LINETYPE
1070
   381
1005
14
1001
ACAD_DSTYLE_DIM_EXT2_LINETYPE
1070
   382
1005
14
  0
DIMSTYLE
105
246C
330
A
100
AcDbSymbolTableRecord
100
AcDbDimStyleTableRecord
  2
AM_ISO$7
 70
     0
  4
"
 41
3.5
 42
1.0
 43
10.0
 44
1.0
 47
0.1
 48
0.1
 73
     0
 74
     0
 77
     1
 78
     8
 79
     2
140
3.5
141
0.0
143
0.0393701
146
0.71
147
1.5
172
     1
176
   256
177
   256
178
     2
271
     2
272
     3
274
     4
283
     0
284
     8
340
11
371
    -1
372
    -1
1001
ACAD_DSTYLE_DIMBREAK
1070
   391
1040
3.75
1001
ACAD_DSTYLE_DIMJAG
1070
   388
1040
1.5
1001
ACAD_DSTYLE_DIMARC_LENGTH_SYMBOL
1070
   379
1070
     1
1001
ACAD_DSTYLE_DIM_LINETYPE
1070
   380
1005
14
1001
ACAD_DSTYLE_DIM_EXT1_LINETYPE
1070
   381
1005
14
1001
ACAD_DSTYLE_DIM_EXT2_LINETYPE
1070
   382
1005
14
  0
DIMSTYLE
105
246D
330
A
100
AcDbSymbolTableRecord
100
AcDbDimStyleTableRecord
  2
AM_ISO$SF
 70
     0
  4
"
 41
3.5
 42
1.0
 43
10.0
 44
1.0
 47
0.1
 48
0.1
 73
     0
 74
     0
 75
     1
 76
     1
 77
     1
 78
     8
 79
     2
140
3.5
141
0.0
143
0.0393701
146
0.71
147
1.5
172
     1
176
   256
177
   256
178
     2
271
     2
272
     3
274
     4
283
     0
284
     8
340
11
371
    -1
372
    -1
1001
ACAD_DSTYLE_DIMBREAK
1070
   391
1040
3.75
1001
ACAD_DSTYLE_DIMJAG
1070
   388
1040
1.5
1001
ACAD_DSTYLE_DIMARC_LENGTH_SYMBOL
1070
   379
1070
     1
1001
ACAD_DSTYLE_DIM_LINETYPE
1070
   380
1005
14
1001
ACAD_DSTYLE_DIM_EXT1_LINETYPE
1070
   381
1005
14
1001
ACAD_DSTYLE_DIM_EXT2_LINETYPE
1070
   382
1005
14
  0
DIMSTYLE
105
246E
330
A
100
AcDbSymbolTableRecord
100
AcDbDimStyleTableRecord
  2
AM_ISO$SH
 70
     0
  4
"
 41
3.5
 42
1.0
 43
10.0
 44
1.0
 47
0.1
 48
0.1
 73
     0
 74
     0
 75
     1
 76
     1
 77
     1
 78
     8
 79
     2
140
3.5
141
0.0
143
0.0393701
144
2.0
146
0.71
147
1.5
172
     1
173
     1
176
   256
177
   256
178
     2
271
     2
272
     3
274
     4
283
     0
284
     8
340
11
343
91
371
    -1
372
    -1
1001
ACAD_DSTYLE_DIMBREAK
1070
   391
1040
3.75
1001
ACAD_DSTYLE_DIMJAG
1070
   388
1040
1.5
1001
ACAD_DSTYLE_DIMARC_LENGTH_SYMBOL
1070
   379
1070
     1
1001
ACAD_DSTYLE_DIM_LINETYPE
1070
   380
1005
14
1001
ACAD_DSTYLE_DIM_EXT1_LINETYPE
1070
   381
1005
14
1001
ACAD_DSTYLE_DIM_EXT2_LINETYPE
1070
   382
1005
14
  0
ENDTAB
  0
TABLE
  2
BLOCK_RECORD
  5
1
330
0
100
AcDbSymbolTable
 70
    18
  0
BLOCK_RECORD
  5
1F
102
{ACAD_XDICTIONARY
360
99
102
}
330
1
100
AcDbSymbolTableRecord
100
AcDbBlockTableRecord
  2
*Model_Space
340
22
  0
BLOCK_RECORD
  5
1B
330
1
100
AcDbSymbolTableRecord
100
AcDbBlockTableRecord
  2
*Paper_Space
340
1E
  0
BLOCK_RECORD
  5
23
330
1
100
AcDbSymbolTableRecord
100
AcDbBlockTableRecord
  2
*Paper_Space0
340
26
  0
BLOCK_RECORD
  5
91
330
1
100
AcDbSymbolTableRecord
100
AcDbBlockTableRecord
  2
GENAXEH
340
0
  0
BLOCK_RECORD
  5
C9
330
1
100
AcDbSymbolTableRecord
100
AcDbBlockTableRecord
  2
_Open30
340
0
102
{BLKREFS
331
27E8
331
27E9
331
2A56
331
2A57
331
2A71
331
2A72
331
2ABF
331
2AC0
331
2AE8
331
2AE9
102
}
  0
BLOCK_RECORD
  5
758
330
1
100
AcDbSymbolTableRecord
100
AcDbBlockTableRecord
  2
*D4
340
0
  0
BLOCK_RECORD
  5
919
330
1
100
AcDbSymbolTableRecord
100
AcDbBlockTableRecord
  2
*D5
340
0
  0
BLOCK_RECORD
  5
99E
102
{ACAD_XDICTIONARY
360
9AC
102
}
330
1
100
AcDbSymbolTableRecord
100
AcDbBlockTableRecord
  2
AA-3-BW
340
0
  0
BLOCK_RECORD
  5
1B18
102
{ACAD_XDICTIONARY
360
1B46
102
}
330
1
100
AcDbSymbolTableRecord
100
AcDbBlockTableRecord
  2
ASO1
340
0
  0
BLOCK_RECORD
  5
1B53
330
1
100
AcDbSymbolTableRecord
100
AcDbBlockTableRecord
  2
A$C2D292097
340
0
  0
BLOCK_RECORD
  5
1B68
102
{ACAD_XDICTIONARY
360
1B69
102
}
330
1
100
AcDbSymbolTableRecord
100
AcDbBlockTableRecord
  2
A$C676C2959
340
0
1001
ACAD
1000
DesignCenter Data
1002
{
1070
     1
1070
     4
1002
}
  0
BLOCK_RECORD
  5
1B6D
102
{ACAD_XDICTIONARY
360
1B6E
102
}
330
1
100
AcDbSymbolTableRecord
100
AcDbBlockTableRecord
  2
A$C1FED437B
340
0
1001
ACAD
1000
DesignCenter Data
1002
{
1070
     1
1070
     4
1002
}
  0
BLOCK_RECORD
  5
1B76
102
{ACAD_XDICTIONARY
360
1BA9
102
}
330
1
100
AcDbSymbolTableRecord
100
AcDbBlockTableRecord
  2
ASO-A
340
0
  0
BLOCK_RECORD
  5
1F5C
330
1
100
AcDbSymbolTableRecord
100
AcDbBlockTableRecord
  2
*D13
340
0
  0
BLOCK_RECORD
  5
24C5
330
1
100
AcDbSymbolTableRecord
100
AcDbBlockTableRecord
  2
A$C06FF2691
340
0
1001
ACAD
1000
DesignCenter Data
1002
{
1070
     1
1070
     4
1002
}
  0
BLOCK_RECORD
  5
2A78
330
1
100
AcDbSymbolTableRecord
100
AcDbBlockTableRecord
  2
A$C265579AA
340
0
1001
ACAD
1000
DesignCenter Data
1002
{
1070
     1
1070
     4
1002
}
  0
ENDTAB
  0
ENDSEC
  0
SECTION
  2
BLOCKS
  0
BLOCK
  5
20
330
1F
100
AcDbEntity
  8
0
100
AcDbBlockBegin
  2
*Model_Space
 70
     0
 10
0.0
 20
0.0
 30
0.0
  3
*Model_Space
  1

  0
ENDBLK
  5
21
330
1F
100
AcDbEntity
  8
0
100
AcDbBlockEnd
  0
BLOCK
  5
1C
330
1B
100
AcDbEntity
 67
     1
  8
0
100
AcDbBlockBegin
  2
*Paper_Space
 70
     0
 10
0.0
 20
0.0
 30
0.0
  3
*Paper_Space
  1

  0
ENDBLK
  5
1D
330
1B
100
AcDbEntity
 67
     1
  8
0
100
AcDbBlockEnd
  0
BLOCK
  5
24
330
23
100
AcDbEntity
 67
     1
  8
0
100
AcDbBlockBegin
  2
*Paper_Space0
 70
     0
 10
0.0
 20
0.0
 30
0.0
  3
*Paper_Space0
  1

  0
ENDBLK
  5
25
330
23
100
AcDbEntity
 67
     1
  8
0
100
AcDbBlockEnd
  0
BLOCK
  5
93
330
91
100
AcDbEntity
  8
0
100
AcDbBlockBegin
  2
GENAXEH
 70
     0
 10
0.0
 20
0.0
 30
0.0
  3
GENAXEH
  1

  0
LINE
  5
92
330
91
100
AcDbEntity
  8
0
100
AcDbLine
 10
-1.0
 20
0.0
 30
0.0
 11
1.0
 21
0.0
 31
0.0
  0
ENDBLK
  5
94
330
91
100
AcDbEntity
  8
0
100
AcDbBlockEnd
  0
BLOCK
  5
CD
330
C9
100
AcDbEntity
  8
0
100
AcDbBlockBegin
  2
_Open30
 70
     0
 10
0.0
 20
0.0
 30
0.0
  3
_Open30
  1

  0
LINE
  5
CA
330
C9
100
AcDbEntity
  8
0
  6
ByBlock
 62
     0
370
    -2
100
AcDbLine
 10
-1.0
 20
0.26794919
 30
0.0
 11
0.0
 21
0.0
 31
0.0
  0
LINE
  5
CB
330
C9
100
AcDbEntity
  8
0
  6
ByBlock
 62
     0
370
    -2
100
AcDbLine
 10
0.0
 20
0.0
 30
0.0
 11
-1.0
 21
-0.26794919
 31
0.0
  0
LINE
  5
CC
330
C9
100
AcDbEntity
  8
0
  6
ByBlock
 62
     0
370
    -2
100
AcDbLine
 10
0.0
 20
0.0
 30
0.0
 11
-1.0
 21
0.0
 31
0.0
  0
ENDBLK
  5
CE
330
C9
100
AcDbEntity
  8
0
100
AcDbBlockEnd
  0
BLOCK
  5
762
330
758
100
AcDbEntity
  8
0
100
AcDbBlockBegin
  2
*D4
 70
     1
 10
0.0
 20
0.0
 30
0.0
  3
*D4
  1

  0
LINE
  5
2A6E
330
758
100
AcDbEntity
  8
AM_5
100
AcDbLine
 10
227.4179183942237
 20
214.9634109343197
 30
0.0
 11
238.003220562185
 21
214.9634109343197
 31
0.0
  0
LINE
  5
2A6F
330
758
100
AcDbEntity
  8
AM_5
100
AcDbLine
 10
223.8149183853977
 20
170.8321044816705
 30
0.0
 11
238.003220562185
 21
170.8321044816705
 31
0.0
  0
LINE
  5
2A70
330
758
100
AcDbEntity
  8
AM_5
100
AcDbLine
 10
237.503220562185
 20
213.7134109343197
 30
0.0
 11
237.503220562185
 21
172.0821044816705
 31
0.0
  0
INSERT
  5
2A71
330
758
100
AcDbEntity
  8
AM_5
100
AcDbBlockReference
  2
_Open30
 10
237.503220562185
 20
214.9634109343197
 30
0.0
 41
1.25
 42
1.25
 43
1.25
 50
90.0
  0
INSERT
  5
2A72
330
758
100
AcDbEntity
  8
AM_5
100
AcDbBlockReference
  2
_Open30
 10
237.503220562185
 20
170.8321044816705
 30
0.0
 41
1.25
 42
1.25
 43
1.25
 50
270.0
  0
MTEXT
  5
2A73
330
758
100
AcDbEntity
  8
AM_5
 62
     2
100
AcDbMText
 10
235.8782205621849
 20
192.8977577079951
 30
0.0
 40
1.75
 41
0.0
 71
     5
 72
     1
  1
44
 11
0.0000000000000001
 21
1.0
 31
0.0
 73
     1
 44
1.0
1001
ACAD
1000
MTEXTBEGIN
1070
    73
1070
     1
1070
    44
1040
1.0
1070
    74
1070
     0
1000
MTEXTEND
  0
POINT
  5
2A74
330
758
100
AcDbEntity
  8
Defpoints
 62
     0
100
AcDbPoint
 10
226.9179183942237
 20
214.9634109343197
 30
0.0
  0
POINT
  5
2A75
330
758
100
AcDbEntity
  8
Defpoints
 62
     0
100
AcDbPoint
 10
223.3149183853977
 20
170.8321044816705
 30
0.0
  0
POINT
  5
2A76
330
758
100
AcDbEntity
  8
Defpoints
 62
     0
100
AcDbPoint
 10
237.503220562185
 20
170.8321044816705
 30
0.0
  0
ENDBLK
  5
763
330
758
100
AcDbEntity
  8
0
100
AcDbBlockEnd
  0
BLOCK
  5
923
330
919
100
AcDbEntity
  8
0
100
AcDbBlockBegin
  2
*D5
 70
     1
 10
0.0
 20
0.0
 30
0.0
  3
*D5
  1

  0
LINE
  5
27E5
330
919
100
AcDbEntity
  8
AM_5
100
AcDbLine
 10
204.6842204377216
 20
239.4546132426295
 30
0.0
 11
209.7830011570154
 21
255.1470467220666
 31
0.0
  0
LINE
  5
27E6
330
919
100
AcDbEntity
  8
AM_5
100
AcDbLine
 10
228.4606333451005
 20
231.7291883832558
 30
0.0
 11
233.5594140643943
 21
247.4216218626929
 31
0.0
  0
LINE
  5
27E7
330
919
100
AcDbEntity
  8
AM_5
100
AcDbLine
 10
210.8173133051969
 20
254.2852472209503
 30
0.0
 11
232.2160849218379
 21
247.332364847514
 31
0.0
  0
INSERT
  5
27E8
330
919
100
AcDbEntity
  8
AM_5
100
AcDbBlockReference
  2
_Open30
 10
209.6284926598279
 20
254.6715184639189
 30
0.0
 41
1.25
 42
1.25
 43
1.25
 50
162.0
  0
INSERT
  5
27E9
330
919
100
AcDbEntity
  8
AM_5
100
AcDbBlockReference
  2
_Open30
 10
233.4049055672068
 20
246.9460936045453
 30
0.0
 41
1.25
 42
1.25
 43
1.25
 50
342.0000000000001
  0
MTEXT
  5
27EA
330
919
100
AcDbEntity
  8
AM_5
 62
     2
100
AcDbMText
 10
222.0189049557291
 20
252.3544366870802
 30
0.0
 40
1.75
 41
0.0
 71
     5
 72
     1
  1
25
 11
0.9510565162951538
 21
-0.3090169943749466
 31
0.0
 73
     1
 44
1.0
1001
ACAD
1000
MTEXTBEGIN
1070
    73
1070
     1
1070
    44
1040
1.0
1070
    74
1070
     0
1000
MTEXTEND
  0
POINT
  5
27EB
330
919
100
AcDbEntity
  8
Defpoints
 62
     0
100
AcDbPoint
 10
204.5297119405342
 20
238.9790849844819
 30
0.0
  0
POINT
  5
27EC
330
919
100
AcDbEntity
  8
Defpoints
 62
     0
100
AcDbPoint
 10
228.3061248479131
 20
231.2536601251082
 30
0.0
  0
POINT
  5
27ED
330
919
100
AcDbEntity
  8
Defpoints
 62
     0
100
AcDbPoint
 10
233.4049055672068
 20
246.9460936045453
 30
0.0
  0
ENDBLK
  5
924
330
919
100
AcDbEntity
  8
0
100
AcDbBlockEnd
  0
BLOCK
  5
9AD
330
99E
100
AcDbEntity
  8
0
100
AcDbBlockBegin
  2
AA-3-BW
 70
     0
 10
0.0
 20
0.0
 30
0.0
  3
AA-3-BW
  1

  0
LWPOLYLINE
  5
99F
330
99E
100
AcDbEntity
  8
AM_BOR
 62
   231
100
AcDbPolyline
 90
        4
 70
     1
 43
0.0
 10
11.31798825946299
 20
285.680442839147
 10
11.31798825946292
 20
11.31955716085312
 10
408.7322739737486
 20
11.31955716085296
 10
408.7322739737486
 20
285.680442839147
1001
GENIUS_GENREC_14
1002
{
1000
PYDIR
1011
408.7322739737486
1021
285.680442839147
1031
0.0
1002
}
1002
{
1000
PXDIR
1011
11.31798825946292
1021
11.31955716085312
1031
0.0
1002
}
1002
{
1000
PORI
1011
11.31798825946299
1021
285.680442839147
1031
0.0
1002
}
1002
{
1000
PINS
1011
11.31798825946299
1021
285.680442839147
1031
0.0
1002
}
1002
{
1000
HVAL
1000
281
1002
}
1002
{
1000
H
1070
     2
1002
}
1002
{
1000
WVAL
1000
183
1002
}
1002
{
1000
W
1070
     2
1002
}
1002
{
1000
C
1070
     1
1002
}
1001
GENIUS_GENODEF_13
1002
{
1000
HIER
1070
     0
1002
}
1002
{
1000
MANEDIT
1070
     0
1002
}
1002
{
1000
NOSEL
1070
     0
1002
}
1002
{
1000
BEHIND
1070
     0
1002
}
1002
{
1000
REACTOR
1002
}
1001
GENIUS_GENOBJ-N-REC_13
1002
{
1000
OWNER
1000
GEN
1002
}
  0
TEXT
  5
9A0
330
99E
100
AcDbEntity
  8
AM_BOR
 60
     1
100
AcDbText
 10
420.0428571428571
 20
296.9999999999998
 30
0.0
 40
5.0
  1
!GENTITLE-MAX
100
AcDbText
  0
LINE
  5
9A1
330
99E
100
AcDbEntity
  8
AM_BOR
100
AcDbLine
 10
0.0000000000000799
 20
297.0
 30
0.0
 11
0.0000000000000799
 21
275.7857142857142
 31
0.0
1001
GENIUS_GENREC_14
1002
{
1000
PYDIR
1011
420.0428571428571
1021
296.9999999999998
1031
0.0
1002
}
1002
{
1000
PXDIR
1011
0.0
1021
0.0
1031
0.0
1002
}
1002
{
1000
PORI
1011
0.0000000000000799
1021
297.0
1031
0.0
1002
}
1002
{
1000
PINS
1011
0.0000000000000799
1021
297.0
1031
0.0
1002
}
1002
{
1000
HVAL
1000
297
1002
}
1002
{
1000
H
1070
     2
1002
}
1002
{
1000
WVAL
1000
210
1002
}
1002
{
1000
W
1070
     2
1002
}
1002
{
1000
C
1070
     1
1002
}
1001
GENIUS_GENODEF_13
1002
{
1000
HIER
1070
     0
1002
}
1002
{
1000
MANEDIT
1070
     0
1002
}
1002
{
1000
NOSEL
1070
     0
1002
}
1002
{
1000
BEHIND
1070
     0
1002
}
1002
{
1000
REACTOR
1002
}
1001
GENIUS_GENOBJ-N-REC_13
1002
{
1000
OWNER
1000
GEN
1002
}
  0
LINE
  5
9A2
330
99E
100
AcDbEntity
  8
AM_BOR
100
AcDbLine
 10
0.0
 20
0.0
 30
0.0
 11
21.21428571428571
 21
0.0
 31
0.0
1001
GENIUS_GENREC_14
1002
{
1000
PYDIR
1011
420.0428571428571
1021
296.9999999999998
1031
0.0
1002
}
1002
{
1000
PXDIR
1011
0.0
1021
0.0
1031
0.0
1002
}
1002
{
1000
PORI
1011
0.0000000000000799
1021
297.0
1031
0.0
1002
}
1002
{
1000
PINS
1011
0.0000000000000799
1021
297.0
1031
0.0
1002
}
1002
{
1000
HVAL
1000
297
1002
}
1002
{
1000
H
1070
     2
1002
}
1002
{
1000
WVAL
1000
210
1002
}
1002
{
1000
W
1070
     2
1002
}
1002
{
1000
C
1070
     1
1002
}
1001
GENIUS_GENODEF_13
1002
{
1000
HIER
1070
     0
1002
}
1002
{
1000
MANEDIT
1070
     0
1002
}
1002
{
1000
NOSEL
1070
     0
1002
}
1002
{
1000
BEHIND
1070
     0
1002
}
1002
{
1000
REACTOR
1002
}
1001
GENIUS_GENOBJ-N-REC_13
1002
{
1000
OWNER
1000
GEN
1002
}
  0
LINE
  5
9A3
330
99E
100
AcDbEntity
  8
AM_BOR
100
AcDbLine
 10
420.0428571428571
 20
-0.0000000000000799
 30
0.0
 11
420.0428571428571
 21
21.21428571428563
 31
0.0
1001
GENIUS_GENREC_14
1002
{
1000
PYDIR
1011
420.0428571428571
1021
296.9999999999998
1031
0.0
1002
}
1002
{
1000
PXDIR
1011
0.0
1021
0.0
1031
0.0
1002
}
1002
{
1000
PORI
1011
0.0000000000000799
1021
297.0
1031
0.0
1002
}
1002
{
1000
PINS
1011
0.0000000000000799
1021
297.0
1031
0.0
1002
}
1002
{
1000
HVAL
1000
297
1002
}
1002
{
1000
H
1070
     2
1002
}
1002
{
1000
WVAL
1000
210
1002
}
1002
{
1000
W
1070
     2
1002
}
1002
{
1000
C
1070
     1
1002
}
1001
GENIUS_GENODEF_13
1002
{
1000
HIER
1070
     0
1002
}
1002
{
1000
MANEDIT
1070
     0
1002
}
1002
{
1000
NOSEL
1070
     0
1002
}
1002
{
1000
BEHIND
1070
     0
1002
}
1002
{
1000
REACTOR
1002
}
1001
GENIUS_GENOBJ-N-REC_13
1002
{
1000
OWNER
1000
GEN
1002
}
  0
LINE
  5
9A4
330
99E
100
AcDbEntity
  8
AM_BOR
100
AcDbLine
 10
420.0428571428571
 20
296.9999999999998
 30
0.0
 11
398.8285714285715
 21
296.9999999999998
 31
0.0
1001
GENIUS_GENREC_14
1002
{
1000
PYDIR
1011
420.0428571428571
1021
296.9999999999998
1031
0.0
1002
}
1002
{
1000
PXDIR
1011
0.0
1021
0.0
1031
0.0
1002
}
1002
{
1000
PORI
1011
0.0000000000000799
1021
297.0
1031
0.0
1002
}
1002
{
1000
PINS
1011
0.0000000000000799
1021
297.0
1031
0.0
1002
}
1002
{
1000
HVAL
1000
297
1002
}
1002
{
1000
H
1070
     2
1002
}
1002
{
1000
WVAL
1000
210
1002
}
1002
{
1000
W
1070
     2
1002
}
1002
{
1000
C
1070
     1
1002
}
1001
GENIUS_GENODEF_13
1002
{
1000
HIER
1070
     0
1002
}
1002
{
1000
MANEDIT
1070
     0
1002
}
1002
{
1000
NOSEL
1070
     0
1002
}
1002
{
1000
BEHIND
1070
     0
1002
}
1002
{
1000
REACTOR
1002
}
1001
GENIUS_GENOBJ-N-REC_13
1002
{
1000
OWNER
1000
GEN
1002
}
  0
LINE
  5
9A5
330
99E
100
AcDbEntity
  8
AM_BOR
100
AcDbLine
 10
21.2142857142858
 20
297.0
 30
0.0
 11
0.0000000000000799
 21
297.0
 31
0.0
1001
GENIUS_GENREC_14
1002
{
1000
PYDIR
1011
420.0428571428571
1021
296.9999999999998
1031
0.0
1002
}
1002
{
1000
PXDIR
1011
0.0
1021
0.0
1031
0.0
1002
}
1002
{
1000
PORI
1011
0.0000000000000799
1021
297.0
1031
0.0
1002
}
1002
{
1000
PINS
1011
0.0000000000000799
1021
297.0
1031
0.0
1002
}
1002
{
1000
HVAL
1000
297
1002
}
1002
{
1000
H
1070
     2
1002
}
1002
{
1000
WVAL
1000
210
1002
}
1002
{
1000
W
1070
     2
1002
}
1002
{
1000
C
1070
     1
1002
}
1001
GENIUS_GENODEF_13
1002
{
1000
HIER
1070
     0
1002
}
1002
{
1000
MANEDIT
1070
     0
1002
}
1002
{
1000
NOSEL
1070
     0
1002
}
1002
{
1000
BEHIND
1070
     0
1002
}
1002
{
1000
REACTOR
1002
}
1001
GENIUS_GENOBJ-N-REC_13
1002
{
1000
OWNER
1000
GEN
1002
}
  0
LINE
  5
9A6
330
99E
100
AcDbEntity
  8
AM_BOR
100
AcDbLine
 10
420.0428571428571
 20
275.7857142857141
 30
0.0
 11
420.0428571428571
 21
296.9999999999998
 31
0.0
1001
GENIUS_GENREC_14
1002
{
1000
PYDIR
1011
420.0428571428571
1021
296.9999999999998
1031
0.0
1002
}
1002
{
1000
PXDIR
1011
0.0
1021
0.0
1031
0.0
1002
}
1002
{
1000
PORI
1011
0.0000000000000799
1021
297.0
1031
0.0
1002
}
1002
{
1000
PINS
1011
0.0000000000000799
1021
297.0
1031
0.0
1002
}
1002
{
1000
HVAL
1000
297
1002
}
1002
{
1000
H
1070
     2
1002
}
1002
{
1000
WVAL
1000
210
1002
}
1002
{
1000
W
1070
     2
1002
}
1002
{
1000
C
1070
     1
1002
}
1001
GENIUS_GENODEF_13
1002
{
1000
HIER
1070
     0
1002
}
1002
{
1000
MANEDIT
1070
     0
1002
}
1002
{
1000
NOSEL
1070
     0
1002
}
1002
{
1000
BEHIND
1070
     0
1002
}
1002
{
1000
REACTOR
1002
}
1001
GENIUS_GENOBJ-N-REC_13
1002
{
1000
OWNER
1000
GEN
1002
}
  0
LINE
  5
9A7
330
99E
100
AcDbEntity
  8
AM_BOR
100
AcDbLine
 10
398.8285714285715
 20
-0.0000000000000799
 30
0.0
 11
420.0428571428571
 21
-0.0000000000000799
 31
0.0
1001
GENIUS_GENREC_14
1002
{
1000
PYDIR
1011
420.0428571428571
1021
296.9999999999998
1031
0.0
1002
}
1002
{
1000
PXDIR
1011
0.0
1021
0.0
1031
0.0
1002
}
1002
{
1000
PORI
1011
0.0000000000000799
1021
297.0
1031
0.0
1002
}
1002
{
1000
PINS
1011
0.0000000000000799
1021
297.0
1031
0.0
1002
}
1002
{
1000
HVAL
1000
297
1002
}
1002
{
1000
H
1070
     2
1002
}
1002
{
1000
WVAL
1000
210
1002
}
1002
{
1000
W
1070
     2
1002
}
1002
{
1000
C
1070
     1
1002
}
1001
GENIUS_GENODEF_13
1002
{
1000
HIER
1070
     0
1002
}
1002
{
1000
MANEDIT
1070
     0
1002
}
1002
{
1000
NOSEL
1070
     0
1002
}
1002
{
1000
BEHIND
1070
     0
1002
}
1002
{
1000
REACTOR
1002
}
1001
GENIUS_GENOBJ-N-REC_13
1002
{
1000
OWNER
1000
GEN
1002
}
  0
LINE
  5
9A8
330
99E
100
AcDbEntity
  8
AM_BOR
100
AcDbLine
 10
0.0
 20
21.21428571428571
 30
0.0
 11
0.0
 21
0.0
 31
0.0
1001
GENIUS_GENREC_14
1002
{
1000
PYDIR
1011
420.0428571428571
1021
296.9999999999998
1031
0.0
1002
}
1002
{
1000
PXDIR
1011
0.0
1021
0.0
1031
0.0
1002
}
1002
{
1000
PORI
1011
0.0000000000000799
1021
297.0
1031
0.0
1002
}
1002
{
1000
PINS
1011
0.0000000000000799
1021
297.0
1031
0.0
1002
}
1002
{
1000
HVAL
1000
297
1002
}
1002
{
1000
H
1070
     2
1002
}
1002
{
1000
WVAL
1000
210
1002
}
1002
{
1000
W
1070
     2
1002
}
1002
{
1000
C
1070
     1
1002
}
1001
GENIUS_GENODEF_13
1002
{
1000
HIER
1070
     0
1002
}
1002
{
1000
MANEDIT
1070
     0
1002
}
1002
{
1000
NOSEL
1070
     0
1002
}
1002
{
1000
BEHIND
1070
     0
1002
}
1002
{
1000
REACTOR
1002
}
1001
GENIUS_GENOBJ-N-REC_13
1002
{
1000
OWNER
1000
GEN
1002
}
  0
TEXT
  5
9A9
330
99E
100
AcDbEntity
  8
AM_0
 60
     1
100
AcDbText
 10
408.7322739737486
 20
285.680442839147
 30
0.0
 40
5.0
  1
!GENTITLE-RU
100
AcDbText
  0
TEXT
  5
9AA
330
99E
100
AcDbEntity
  8
AM_0
 60
     1
100
AcDbText
 10
16.00523592247285
 20
16.0074545709034
 30
0.0
 40
5.0
  1
!GENTITLE-LL
100
AcDbText
  0
TEXT
  5
9AB
330
99E
100
AcDbEntity
  8
AM_0
 60
     1
100
AcDbText
 10
408.7322739737486
 20
11.31955716085296
 30
0.0
 40
5.0
  1
!GENTITLE-INSERT
100
AcDbText
  0
ENDBLK
  5
9AE
330
99E
100
AcDbEntity
  8
0
100
AcDbBlockEnd
  0
BLOCK
  5
1B47
330
1B18
100
AcDbEntity
  8
0
100
AcDbBlockBegin
  2
ASO1
 70
     2
 10
0.0
 20
0.0
 30
0.0
  3
ASO1
  1

  0
LINE
  5
1B19
330
1B18
100
AcDbEntity
  8
AM_BOR
 62
   211
100
AcDbLine
 10
-110.0
 20
0.0
 30
0.0
 11
0.0
 21
0.0
 31
0.0
1001
GENIUS_GENREC_14
1002
{
1000
PYDIR
1011
-110.0
1021
40.0
1031
0.0
1002
}
1002
{
1000
PXDIR
1011
0.0
1021
0.0
1031
0.0
1002
}
1002
{
1000
PORI
1011
-110.0
1021
0.0
1031
0.0
1002
}
1002
{
1000
PINS
1011
-110.0
1021
0.0
1031
0.0
1002
}
1002
{
1000
HVAL
1000
40
1002
}
1002
{
1000
H
1070
     2
1002
}
1002
{
1000
WVAL
1000
110
1002
}
1002
{
1000
W
1070
     2
1002
}
1002
{
1000
C
1070
     1
1002
}
1001
GENIUS_GENODEF_13
1002
{
1000
HIER
1070
     0
1002
}
1002
{
1000
MANEDIT
1070
     0
1002
}
1002
{
1000
NOSEL
1070
     0
1002
}
1002
{
1000
BEHIND
1070
     0
1002
}
1002
{
1000
REACTOR
1002
}
1001
GENIUS_GENOBJ-N-REC_13
1002
{
1000
OWNER
1000
GEN
1002
}
  0
LINE
  5
1B1A
330
1B18
100
AcDbEntity
  8
AM_BOR
 62
   211
100
AcDbLine
 10
0.0
 20
0.0
 30
0.0
 11
0.0
 21
40.0
 31
0.0
1001
GENIUS_GENREC_14
1002
{
1000
PYDIR
1011
-110.0
1021
40.0
1031
0.0
1002
}
1002
{
1000
PXDIR
1011
0.0
1021
0.0
1031
0.0
1002
}
1002
{
1000
PORI
1011
-110.0
1021
0.0
1031
0.0
1002
}
1002
{
1000
PINS
1011
-110.0
1021
0.0
1031
0.0
1002
}
1002
{
1000
HVAL
1000
40
1002
}
1002
{
1000
H
1070
     2
1002
}
1002
{
1000
WVAL
1000
110
1002
}
1002
{
1000
W
1070
     2
1002
}
1002
{
1000
C
1070
     1
1002
}
1001
GENIUS_GENODEF_13
1002
{
1000
HIER
1070
     0
1002
}
1002
{
1000
MANEDIT
1070
     0
1002
}
1002
{
1000
NOSEL
1070
     0
1002
}
1002
{
1000
BEHIND
1070
     0
1002
}
1002
{
1000
REACTOR
1002
}
1001
GENIUS_GENOBJ-N-REC_13
1002
{
1000
OWNER
1000
GEN
1002
}
  0
LINE
  5
1B1B
330
1B18
100
AcDbEntity
  8
AM_BOR
 62
   211
100
AcDbLine
 10
0.0
 20
40.0
 30
0.0
 11
-110.0
 21
40.00000000000001
 31
0.0
1001
GENIUS_GENREC_14
1002
{
1000
PYDIR
1011
-110.0
1021
40.0
1031
0.0
1002
}
1002
{
1000
PXDIR
1011
0.0
1021
0.0
1031
0.0
1002
}
1002
{
1000
PORI
1011
-110.0
1021
0.0
1031
0.0
1002
}
1002
{
1000
PINS
1011
-110.0
1021
0.0
1031
0.0
1002
}
1002
{
1000
HVAL
1000
40
1002
}
1002
{
1000
H
1070
     2
1002
}
1002
{
1000
WVAL
1000
110
1002
}
1002
{
1000
W
1070
     2
1002
}
1002
{
1000
C
1070
     1
1002
}
1001
GENIUS_GENODEF_13
1002
{
1000
HIER
1070
     0
1002
}
1002
{
1000
MANEDIT
1070
     0
1002
}
1002
{
1000
NOSEL
1070
     0
1002
}
1002
{
1000
BEHIND
1070
     0
1002
}
1002
{
1000
REACTOR
1002
}
1001
GENIUS_GENOBJ-N-REC_13
1002
{
1000
OWNER
1000
GEN
1002
}
  0
LINE
  5
1B1C
330
1B18
100
AcDbEntity
  8
AM_BOR
 62
   211
100
AcDbLine
 10
-110.0
 20
40.00000000000001
 30
0.0
 11
-110.0
 21
0.0
 31
0.0
1001
GENIUS_GENREC_14
1002
{
1000
PYDIR
1011
-110.0
1021
40.0
1031
0.0
1002
}
1002
{
1000
PXDIR
1011
0.0
1021
0.0
1031
0.0
1002
}
1002
{
1000
PORI
1011
-110.0
1021
0.0
1031
0.0
1002
}
1002
{
1000
PINS
1011
-110.0
1021
0.0
1031
0.0
1002
}
1002
{
1000
HVAL
1000
40
1002
}
1002
{
1000
H
1070
     2
1002
}
1002
{
1000
WVAL
1000
110
1002
}
1002
{
1000
W
1070
     2
1002
}
1002
{
1000
C
1070
     1
1002
}
1001
GENIUS_GENODEF_13
1002
{
1000
HIER
1070
     0
1002
}
1002
{
1000
MANEDIT
1070
     0
1002
}
1002
{
1000
NOSEL
1070
     0
1002
}
1002
{
1000
BEHIND
1070
     0
1002
}
1002
{
1000
REACTOR
1002
}
1001
GENIUS_GENOBJ-N-REC_13
1002
{
1000
OWNER
1000
GEN
1002
}
  0
LINE
  5
1B1D
330
1B18
100
AcDbEntity
  8
AM_BOR
 62
     5
100
AcDbLine
 10
-60.0
 20
9.999999999999992
 30
0.0
 11
0.0
 21
10.0
 31
0.0
1001
GENIUS_GENREC_14
1002
{
1000
PYDIR
1011
-110.0
1021
40.0
1031
0.0
1002
}
1002
{
1000
PXDIR
1011
0.0
1021
0.0
1031
0.0
1002
}
1002
{
1000
PORI
1011
-110.0
1021
0.0
1031
0.0
1002
}
1002
{
1000
PINS
1011
-110.0
1021
0.0
1031
0.0
1002
}
1002
{
1000
HVAL
1000
40
1002
}
1002
{
1000
H
1070
     2
1002
}
1002
{
1000
WVAL
1000
110
1002
}
1002
{
1000
W
1070
     2
1002
}
1002
{
1000
C
1070
     1
1002
}
  0
LINE
  5
1B1E
330
1B18
100
AcDbEntity
  8
AM_BOR
 62
     5
100
AcDbLine
 10
-110.0
 20
19.0
 30
0.0
 11
0.0
 21
19.0
 31
0.0
1001
GENIUS_GENREC_14
1002
{
1000
PYDIR
1011
-110.0
1021
40.0
1031
0.0
1002
}
1002
{
1000
PXDIR
1011
0.0
1021
0.0
1031
0.0
1002
}
1002
{
1000
PORI
1011
-110.0
1021
0.0
1031
0.0
1002
}
1002
{
1000
PINS
1011
-110.0
1021
0.0
1031
0.0
1002
}
1002
{
1000
HVAL
1000
40
1002
}
1002
{
1000
H
1070
     2
1002
}
1002
{
1000
WVAL
1000
110
1002
}
1002
{
1000
W
1070
     2
1002
}
1002
{
1000
C
1070
     1
1002
}
1001
GENIUS_GENODEF_13
1002
{
1000
HIER
1070
     0
1002
}
1002
{
1000
MANEDIT
1070
     0
1002
}
1002
{
1000
NOSEL
1070
     0
1002
}
1002
{
1000
BEHIND
1070
     0
1002
}
1002
{
1000
REACTOR
1002
}
1001
GENIUS_GENOBJ-N-REC_13
1002
{
1000
OWNER
1000
GEN
1002
}
  0
LINE
  5
1B1F
330
1B18
100
AcDbEntity
  8
AM_BOR
 62
     5
100
AcDbLine
 10
-110.0
 20
26.0
 30
0.0
 11
0.0
 21
26.0
 31
0.0
1001
GENIUS_GENREC_14
1002
{
1000
PYDIR
1011
-110.0
1021
40.0
1031
0.0
1002
}
1002
{
1000
PXDIR
1011
0.0
1021
0.0
1031
0.0
1002
}
1002
{
1000
PORI
1011
-110.0
1021
0.0
1031
0.0
1002
}
1002
{
1000
PINS
1011
-110.0
1021
0.0
1031
0.0
1002
}
1002
{
1000
HVAL
1000
40
1002
}
1002
{
1000
H
1070
     2
1002
}
1002
{
1000
WVAL
1000
110
1002
}
1002
{
1000
W
1070
     2
1002
}
1002
{
1000
C
1070
     1
1002
}
1001
GENIUS_GENODEF_13
1002
{
1000
HIER
1070
     0
1002
}
1002
{
1000
MANEDIT
1070
     0
1002
}
1002
{
1000
NOSEL
1070
     0
1002
}
1002
{
1000
BEHIND
1070
     0
1002
}
1002
{
1000
REACTOR
1002
}
1001
GENIUS_GENOBJ-N-REC_13
1002
{
1000
OWNER
1000
GEN
1002
}
  0
LINE
  5
1B20
330
1B18
100
AcDbEntity
  8
AM_BOR
 62
     5
100
AcDbLine
 10
-110.0
 20
33.0
 30
0.0
 11
0.0
 21
33.0
 31
0.0
1001
GENIUS_GENREC_14
1002
{
1000
PYDIR
1011
-110.0
1021
40.0
1031
0.0
1002
}
1002
{
1000
PXDIR
1011
0.0
1021
0.0
1031
0.0
1002
}
1002
{
1000
PORI
1011
-110.0
1021
0.0
1031
0.0
1002
}
1002
{
1000
PINS
1011
-110.0
1021
0.0
1031
0.0
1002
}
1002
{
1000
HVAL
1000
40
1002
}
1002
{
1000
H
1070
     2
1002
}
1002
{
1000
WVAL
1000
110
1002
}
1002
{
1000
W
1070
     2
1002
}
1002
{
1000
C
1070
     1
1002
}
1001
GENIUS_GENODEF_13
1002
{
1000
HIER
1070
     0
1002
}
1002
{
1000
MANEDIT
1070
     0
1002
}
1002
{
1000
NOSEL
1070
     0
1002
}
1002
{
1000
BEHIND
1070
     0
1002
}
1002
{
1000
REACTOR
1002
}
1001
GENIUS_GENOBJ-N-REC_13
1002
{
1000
OWNER
1000
GEN
1002
}
  0
LINE
  5
1B21
330
1B18
100
AcDbEntity
  8
AM_BOR
 62
     5
100
AcDbLine
 10
-85.0
 20
33.0
 30
0.0
 11
-85.0
 21
18.99999999999998
 31
0.0
1001
GENIUS_GENREC_14
1002
{
1000
PYDIR
1011
-110.0
1021
40.0
1031
0.0
1002
}
1002
{
1000
PXDIR
1011
0.0
1021
0.0
1031
0.0
1002
}
1002
{
1000
PORI
1011
-110.0
1021
0.0
1031
0.0
1002
}
1002
{
1000
PINS
1011
-110.0
1021
0.0
1031
0.0
1002
}
1002
{
1000
HVAL
1000
40
1002
}
1002
{
1000
H
1070
     2
1002
}
1002
{
1000
WVAL
1000
110
1002
}
1002
{
1000
W
1070
     2
1002
}
1002
{
1000
C
1070
     1
1002
}
1001
GENIUS_GENODEF_13
1002
{
1000
HIER
1070
     0
1002
}
1002
{
1000
MANEDIT
1070
     0
1002
}
1002
{
1000
NOSEL
1070
     0
1002
}
1002
{
1000
BEHIND
1070
     0
1002
}
1002
{
1000
REACTOR
1002
}
1001
GENIUS_GENOBJ-N-REC_13
1002
{
1000
OWNER
1000
GEN
1002
}
  0
LINE
  5
1B22
330
1B18
100
AcDbEntity
  8
AM_BOR
 62
     5
100
AcDbLine
 10
-60.0
 20
40.00000000000001
 30
0.0
 11
-60.0
 21
0.0
 31
0.0
1001
GENIUS_GENREC_14
1002
{
1000
PYDIR
1011
-110.0
1021
40.0
1031
0.0
1002
}
1002
{
1000
PXDIR
1011
0.0
1021
0.0
1031
0.0
1002
}
1002
{
1000
PORI
1011
-110.0
1021
0.0
1031
0.0
1002
}
1002
{
1000
PINS
1011
-110.0
1021
0.0
1031
0.0
1002
}
1002
{
1000
HVAL
1000
40
1002
}
1002
{
1000
H
1070
     2
1002
}
1002
{
1000
WVAL
1000
110
1002
}
1002
{
1000
W
1070
     2
1002
}
1002
{
1000
C
1070
     1
1002
}
1001
GENIUS_GENODEF_13
1002
{
1000
HIER
1070
     0
1002
}
1002
{
1000
MANEDIT
1070
     0
1002
}
1002
{
1000
NOSEL
1070
     0
1002
}
1002
{
1000
BEHIND
1070
     0
1002
}
1002
{
1000
REACTOR
1002
}
1001
GENIUS_GENOBJ-N-REC_13
1002
{
1000
OWNER
1000
GEN
1002
}
  0
LINE
  5
1B23
330
1B18
100
AcDbEntity
  8
AM_BOR
 62
     5
100
AcDbLine
 10
-20.0
 20
33.0
 30
0.0
 11
-20.0
 21
40.0
 31
0.0
1001
GENIUS_GENREC_14
1002
{
1000
PYDIR
1011
-110.0
1021
40.0
1031
0.0
1002
}
1002
{
1000
PXDIR
1011
0.0
1021
0.0
1031
0.0
1002
}
1002
{
1000
PORI
1011
-110.0
1021
0.0
1031
0.0
1002
}
1002
{
1000
PINS
1011
-110.0
1021
0.0
1031
0.0
1002
}
1002
{
1000
HVAL
1000
40
1002
}
1002
{
1000
H
1070
     2
1002
}
1002
{
1000
WVAL
1000
110
1002
}
1002
{
1000
W
1070
     2
1002
}
1002
{
1000
C
1070
     1
1002
}
1001
GENIUS_GENODEF_13
1002
{
1000
HIER
1070
     0
1002
}
1002
{
1000
MANEDIT
1070
     0
1002
}
1002
{
1000
NOSEL
1070
     0
1002
}
1002
{
1000
BEHIND
1070
     0
1002
}
1002
{
1000
REACTOR
1002
}
1001
GENIUS_GENOBJ-N-REC_13
1002
{
1000
OWNER
1000
GEN
1002
}
  0
LINE
  5
1B24
330
1B18
100
AcDbEntity
  8
AM_BOR
 62
     5
100
AcDbLine
 10
-40.0
 20
33.0
 30
0.0
 11
-40.0
 21
40.0
 31
0.0
1001
GENIUS_GENREC_14
1002
{
1000
PYDIR
1011
-110.0
1021
40.0
1031
0.0
1002
}
1002
{
1000
PXDIR
1011
0.0
1021
0.0
1031
0.0
1002
}
1002
{
1000
PORI
1011
-110.0
1021
0.0
1031
0.0
1002
}
1002
{
1000
PINS
1011
-110.0
1021
0.0
1031
0.0
1002
}
1002
{
1000
HVAL
1000
40
1002
}
1002
{
1000
H
1070
     2
1002
}
1002
{
1000
WVAL
1000
110
1002
}
1002
{
1000
W
1070
     2
1002
}
1002
{
1000
C
1070
     1
1002
}
1001
GENIUS_GENODEF_13
1002
{
1000
HIER
1070
     0
1002
}
1002
{
1000
MANEDIT
1070
     0
1002
}
1002
{
1000
NOSEL
1070
     0
1002
}
1002
{
1000
BEHIND
1070
     0
1002
}
1002
{
1000
REACTOR
1002
}
1001
GENIUS_GENOBJ-N-REC_13
1002
{
1000
OWNER
1000
GEN
1002
}
  0
LINE
  5
1B25
330
1B18
100
AcDbEntity
  8
AM_BOR
 62
     5
100
AcDbLine
 10
-80.0
 20
33.0
 30
0.0
 11
-80.0
 21
40.0
 31
0.0
1001
GENIUS_GENREC_14
1002
{
1000
PYDIR
1011
-110.0
1021
40.0
1031
0.0
1002
}
1002
{
1000
PXDIR
1011
0.0
1021
0.0
1031
0.0
1002
}
1002
{
1000
PORI
1011
-110.0
1021
0.0
1031
0.0
1002
}
1002
{
1000
PINS
1011
-110.0
1021
0.0
1031
0.0
1002
}
1002
{
1000
HVAL
1000
40
1002
}
1002
{
1000
H
1070
     2
1002
}
1002
{
1000
WVAL
1000
110
1002
}
1002
{
1000
W
1070
     2
1002
}
1002
{
1000
C
1070
     1
1002
}
1001
GENIUS_GENODEF_13
1002
{
1000
HIER
1070
     0
1002
}
1002
{
1000
MANEDIT
1070
     0
1002
}
1002
{
1000
NOSEL
1070
     0
1002
}
1002
{
1000
BEHIND
1070
     0
1002
}
1002
{
1000
REACTOR
1002
}
1001
GENIUS_GENOBJ-N-REC_13
1002
{
1000
OWNER
1000
GEN
1002
}
  0
TEXT
  5
1B26
330
1B18
100
AcDbEntity
  8
AM_BOR
 62
     2
100
AcDbText
 10
-57.4
 20
35.0
 30
0.0
 40
3.0
  1
単位 ｍｍ
 72
     4
 11
-50.0
 21
36.5
 31
0.0
100
AcDbText
  0
TEXT
  5
1B27
330
1B18
100
AcDbEntity
  8
AM_BOR
 62
     2
100
AcDbText
 10
-39.0
 20
35.0
 30
0.0
 40
3.0
  1
尺度
 41
0.9
 11
-39.0
 21
36.5
 31
0.0
100
AcDbText
 73
     2
  0
TEXT
  5
1B28
330
1B18
100
AcDbEntity
  8
AM_BOR
 62
     2
100
AcDbText
 10
-19.0
 20
35.0
 30
0.0
 40
3.0
  1
日付
 41
0.9
 11
-19.0
 21
36.5
 31
0.0
100
AcDbText
 73
     2
  0
TEXT
  5
1B29
330
1B18
100
AcDbEntity
  8
AM_BOR
 62
     2
100
AcDbText
 10
-75.75
 20
34.99999999999999
 30
0.0
 40
3.0
  1
第1角法
 72
     4
 11
-70.0
 21
36.49999999999999
 31
0.0
100
AcDbText
  0
TEXT
  5
1B2A
330
1B18
100
AcDbEntity
  8
AM_BOR
 62
     2
100
AcDbText
 10
-59.0
 20
29.5
 30
0.0
 40
3.0
  1
材 質
 11
-59.0
 21
31.0
 31
0.0
100
AcDbText
 73
     2
  0
TEXT
  5
1B2B
330
1B18
100
AcDbEntity
  8
AM_BOR
 62
     2
100
AcDbText
 10
-59.0
 20
22.5
 30
0.0
 40
3.0
  1
備 考
 11
-59.0
 21
24.0
 31
0.0
100
AcDbText
 73
     2
  0
TEXT
  5
1B2C
330
1B18
100
AcDbEntity
  8
AM_BOR
 62
     2
100
AcDbText
 10
-59.0
 20
15.5
 30
0.0
 40
3.0
  1
品 名
 11
-59.0
 21
17.0
 31
0.0
100
AcDbText
 73
     2
  0
TEXT
  5
1B2D
330
1B18
100
AcDbEntity
  8
AM_BOR
 62
     2
100
AcDbText
 10
-59.0
 20
6.499999999999992
 30
0.0
 40
3.0
  1
図 番
 11
-59.0
 21
7.999999999999992
 31
0.0
100
AcDbText
 73
     2
  0
TEXT
  5
1B2E
330
1B18
100
AcDbEntity
  8
AM_BOR
 62
     2
100
AcDbText
 10
-109.0
 20
29.5
 30
0.0
 40
3.0
  1
承認
 11
-109.0
 21
31.0
 31
0.0
100
AcDbText
 73
     2
  0
TEXT
  5
1B2F
330
1B18
100
AcDbEntity
  8
AM_BOR
 62
     2
100
AcDbText
 10
-109.0
 20
22.5
 30
0.0
 40
3.0
  1
設計
 11
-109.0
 21
24.0
 31
0.0
100
AcDbText
 73
     2
  0
TEXT
  5
1B30
330
1B18
100
AcDbEntity
  8
AM_BOR
 62
     2
100
AcDbText
 10
-84.0
 20
22.5
 30
0.0
 40
3.0
  1
製図
 11
-84.0
 21
24.0
 31
0.0
100
AcDbText
 73
     2
  0
TEXT
  5
1B31
330
1B18
100
AcDbEntity
  8
AM_BOR
 62
     2
100
AcDbText
 10
-84.0
 20
29.5
 30
0.0
 40
3.0
  1
検図
 11
-84.0
 21
31.0
 31
0.0
100
AcDbText
 73
     2
  0
ATTDEF
  5
1B32
330
1B18
100
AcDbEntity
  8
AM_BOR
100
AcDbText
 10
-49.48020001333898
 20
12.75
 30
0.0
 40
3.5
  1

 11
-49.48020001333898
 21
14.5
 31
0.0
100
AcDbAttributeDefinition
  3
品名
  2
HINMEI{14}
 70
     0
 74
     2
  0
ATTDEF
  5
1B33
330
1B18
100
AcDbEntity
  8
AM_BOR
100
AcDbText
 10
-49.48020001333898
 20
3.249999999999992
 30
0.0
 40
3.5
  1

 11
-49.48020001333898
 21
4.999999999999992
 31
0.0
100
AcDbAttributeDefinition
  3
図番
  2
ZUBAN{14}
 70
     0
 74
     2
  0
ATTDEF
  5
1B34
330
1B18
100
AcDbEntity
  8
AM_BOR
 62
     2
100
AcDbText
 10
-11.91705654530994
 20
35.0
 30
0.0
 40
3.0
  1

 41
0.8
 11
-11.91705654530994
 21
36.5
 31
0.0
100
AcDbAttributeDefinition
  3
日付
  2
GEN-TITLE-DAT{3.5}
 70
     0
 74
     2
  0
ATTDEF
  5
1B35
330
1B18
100
AcDbEntity
  8
AM_BOR
 62
     2
100
AcDbText
 10
-71.63012018472975
 20
20.00000000000001
 30
0.0
 40
3.0
  1
水 田
 72
     4
 11
-67.63012018472974
 21
21.50000000000002
 31
0.0
100
AcDbAttributeDefinition
  3
製図
  2
SEIZU
 70
     0
  0
ATTDEF
  5
1B36
330
1B18
100
AcDbEntity
  8
AM_BOR
 62
     2
100
AcDbText
 10
-31.91705654530995
 20
35.0
 30
0.0
 40
3.0
  1

 11
-31.91705654530995
 21
36.5
 31
0.0
100
AcDbAttributeDefinition
  3
尺度
  2
GEN-TITLE-SCA
 70
     0
 74
     2
  0
LINE
  5
1B37
330
1B18
100
AcDbEntity
  8
0
100
AcDbLine
 10
-106.9502221859465
 20
14.71456568209314
 30
0.0
 11
-107.7139711131768
 21
11.16237652835879
 31
0.0
  0
LINE
  5
1B38
330
1B18
100
AcDbEntity
  8
0
100
AcDbLine
 10
-107.7139711131768
 20
11.16237652835879
 30
0.0
 11
-107.6697551010107
 21
11.22470827233807
 31
0.0
  0
ELLIPSE
  5
1B39
330
1B18
100
AcDbEntity
  8
0
100
AcDbEllipse
 10
-106.5198686826232
 20
9.133166589319488
 30
0.0
 11
0.0200858413762701
 21
2.795177724472429
 31
0.0
210
0.0
220
0.0
230
1.0
 40
0.6250197778053533
 41
-1.051714224928873
 42
0.7298517778971401
1001
GENIUS_GENODEF_13
1002
{
1000
HIER
1070
     0
1002
}
1002
{
1000
MANEDIT
1070
     0
1002
}
1002
{
1000
NOSEL
1070
     0
1002
}
1002
{
1000
BEHIND
1070
     0
1002
}
1002
{
1000
REACTOR
1002
}
1001
GENIUS_GENOBJ-N-FIL_13
1002
{
1000
OWNER
1000
GEN
1002
}
  0
ELLIPSE
  5
1B3A
330
1B18
100
AcDbEntity
  8
0
100
AcDbEllipse
 10
-105.2984958385996
 20
13.8219417489321
 30
0.0
 11
0.0200858413762916
 21
2.795177724472415
 31
0.0
210
0.0
220
0.0
230
1.0
 40
0.6250197778053527
 41
-1.051714224928867
 42
1.250253596044828
1001
GENIUS_GENODEF_13
1002
{
1000
HIER
1070
     0
1002
}
1002
{
1000
MANEDIT
1070
     0
1002
}
1002
{
1000
NOSEL
1070
     0
1002
}
1002
{
1000
BEHIND
1070
     0
1002
}
1002
{
1000
REACTOR
1002
}
1001
GENIUS_GENOBJ-N-FIL_13
1002
{
1000
OWNER
1000
GEN
1002
}
  0
LINE
  5
1B3B
330
1B18
100
AcDbEntity
  8
0
100
AcDbLine
 10
-98.48721298302093
 20
8.077457208786752
 30
0.0
 11
-99.45177360188811
 21
4.065819878065248
 31
0.0
  0
ELLIPSE
  5
1B3C
330
1B18
100
AcDbEntity
  8
0
100
AcDbEllipse
 10
-101.0818809708247
 20
5.053412867376919
 30
0.0
 11
0.0200858413762853
 21
2.795177724472413
 31
0.0
210
0.0
220
0.0
230
1.0
 40
0.6250197778053547
 41
2.089878428660925
 42
4.355766148231805
1001
GENIUS_GENODEF_13
1002
{
1000
HIER
1070
     0
1002
}
1002
{
1000
MANEDIT
1070
     0
1002
}
1002
{
1000
NOSEL
1070
     0
1002
}
1002
{
1000
BEHIND
1070
     0
1002
}
1002
{
1000
REACTOR
1002
}
1001
GENIUS_GENOBJ-N-FIL_13
1002
{
1000
OWNER
1000
GEN
1002
}
  0
LINE
  5
1B3D
330
1B18
100
AcDbEntity
  8
0
100
AcDbLine
 10
-98.48721298302093
 20
8.077457208786752
 30
0.0
 11
-98.66382720839389
 21
7.801834007856294
 31
0.0
  0
ELLIPSE
  5
1B3E
330
1B18
100
AcDbEntity
  8
0
100
AcDbEllipse
 10
-99.87931293102301
 20
9.796066964505511
 30
0.0
 11
0.0200858413762724
 21
2.795177724472415
 31
0.0
210
0.0
220
0.0
230
0.9999999999999998
 40
0.6250197778053552
 41
2.08987842866092
 42
3.922474143254961
1001
GENIUS_GENODEF_13
1002
{
1000
HIER
1070
     0
1002
}
1002
{
1000
MANEDIT
1070
     0
1002
}
1002
{
1000
NOSEL
1070
     0
1002
}
1002
{
1000
BEHIND
1070
     0
1002
}
1002
{
1000
REACTOR
1002
}
1001
GENIUS_GENOBJ-N-FIL_13
1002
{
1000
OWNER
1000
GEN
1002
}
  0
HATCH
  5
1B3F
330
1B18
100
AcDbEntity
  8
AM_8
100
AcDbHatch
 10
0.0
 20
0.0
 30
0.0
210
0.0
220
0.0
230
1.0
  2
SOLID
 70
     1
 71
     0
 91
        1
 92
        1
 93
        2
 72
     3
 10
-106.7638987916396
 20
4.957358478318376
 11
0.0000000000000547
 21
2.56276973145977
 40
0.8333333333333941
 50
-77.14069946214277
 51
264.4007371808275
 73
     1
 72
     3
 10
-106.7638987916396
 20
4.957358478318376
 11
-0.0000000000003928
 21
2.562769731461267
 40
0.8333333333328997
 50
264.4007371808174
 51
282.8593005378472
 73
     1
 97
        0
 75
     0
 76
     1
 98
        1
 10
65.20293740923941
 20
-32.16820874956388
1001
GENIUS_GENODEF_13
1002
{
1000
HIER
1070
     0
1002
}
1002
{
1000
MANEDIT
1070
     0
1002
}
1002
{
1000
NOSEL
1070
     0
1002
}
1002
{
1000
BEHIND
1070
     0
1002
}
1002
{
1000
REACTOR
1002
}
1001
GENIUS_GENOBJ-N-HTC_13
1002
{
1000
OWNER
1000
GEN
1002
}
1001
GENIUS_GENHATCH_13
1002
{
1000
DATA
1040
0.0
1042
0.0015799698758396
1000
SOLID
1070
     0
1011
70.0136537122014
1021
-14.7540192633455
1031
0.0
1002
}
1002
{
1000
UCS
1010
0.0
1020
0.0
1030
0.0
1010
1.0
1020
0.0
1030
0.0
1010
0.0
1020
1.0
1030
0.0
1002
}
  0
ELLIPSE
  5
1B40
330
1B18
100
AcDbEntity
  8
0
100
AcDbEllipse
 10
-106.7638987916396
 20
4.957358478318417
 30
0.0
 11
0.0000000000000006
 21
2.562769731459943
 31
0.0
210
0.0
220
0.0
230
1.0
 40
0.8333333333333353
 41
-1.570796326794896
 42
4.712388980384689
  0
HATCH
  5
1B41
330
1B18
100
AcDbEntity
  8
AM_8
100
AcDbHatch
 10
0.0
 20
0.0
 30
0.0
210
0.0
220
0.0
230
1.0
  2
SOLID
 70
     1
 71
     0
 91
        1
 92
        1
 93
       10
 72
     1
 10
-106.9502221859465
 20
14.71456568209311
 11
-107.7139711131768
 21
11.16237652835879
 72
     1
 10
-107.7139711131768
 20
11.16237652835879
 11
-107.6697551010108
 21
11.22470827233809
 72
     3
 10
-106.5198686826232
 20
9.133166589319488
 11
0.0200858413762859
 21
2.795177724472421
 40
0.6250197778053525
 50
-29.21280058452436
 51
47.56891328106517
 73
     0
 72
     1
 10
-104.9929922696577
 20
10.5089073790986
 11
-102.6087573837903
 21
3.677672077597827
 72
     3
 10
-101.0818809708247
 20
5.053412867376919
 11
0.0200858413762844
 21
2.79517772447242
 40
0.625019777805353
 50
132.4310867189347
 51
239.202331800838
 73
     1
 72
     1
 10
-99.45177360188809
 20
4.065819878065248
 11
-98.48721298302093
 21
8.077457208786761
 72
     1
 10
-98.48721298302095
 20
8.077457208786752
 11
-98.66382720839393
 21
7.801834007856288
 72
     3
 10
-99.87931293102301
 20
9.796066964505511
 11
0.0200858413762811
 21
2.795177724472416
 40
0.6250197778053536
 50
148.2259629226598
 51
227.5689132810653
 73
     0
 72
     1
 10
-101.4061893439886
 20
8.420326174726406
 11
-103.771619425634
 21
15.19768253871121
 72
     3
 10
-105.2984958385996
 20
13.8219417489321
 11
0.02008584137625
 21
2.795177724472417
 40
0.6250197778053583
 50
-47.56891328106589
 51
62.02409398278944
 73
     1
 97
        0
 75
     0
 76
     1
 98
        1
 10
65.20293740923941
 20
-32.16820874956388
1001
GENIUS_GENODEF_13
1002
{
1000
HIER
1070
     0
1002
}
1002
{
1000
MANEDIT
1070
     0
1002
}
1002
{
1000
NOSEL
1070
     0
1002
}
1002
{
1000
BEHIND
1070
     0
1002
}
1002
{
1000
REACTOR
1002
}
1001
GENIUS_GENOBJ-N-HTC_13
1002
{
1000
OWNER
1000
GEN
1002
}
1001
GENIUS_GENHATCH_13
1002
{
1000
DATA
1040
0.0
1042
0.0015799698758396
1000
SOLID
1070
     0
1011
74.07735655451816
1021
-11.90112763631223
1031
0.0
1002
}
1002
{
1000
UCS
1010
0.0
1020
0.0
1030
0.0
1010
1.0
1020
0.0
1030
0.0
1010
0.0
1020
1.0
1030
0.0
1002
}
  0
LINE
  5
1B42
330
1B18
100
AcDbEntity
  8
0
100
AcDbLine
 10
-104.9929922696577
 20
10.5089073790986
 30
0.0
 11
-102.6087573837903
 21
3.677672077597847
 31
0.0
  0
LINE
  5
1B43
330
1B18
100
AcDbEntity
  8
0
100
AcDbLine
 10
-101.4061893439886
 20
8.420326174726406
 30
0.0
 11
-103.771619425634
 21
15.1976825387112
 31
0.0
  0
TEXT
  5
1B44
330
1B18
100
AcDbEntity
  8
0
100
AcDbText
 10
-92.04358977334541
 20
2.736280326823534
 30
0.0
 40
1.397647058823528
  1
ASOH   CO.LTD
 41
2.222222222222219
  7
ｽﾀｲﾙ1
100
AcDbText
  0
TEXT
  5
1B45
330
1B18
100
AcDbEntity
  8
0
100
AcDbText
 10
-96.37601713265375
 20
7.065690057310197
 30
0.0
 40
9.355420606948992
  1
アソー株式会社
 41
0.4444444444444381
  7
ｽﾀｲﾙ1
100
AcDbText
  0
ENDBLK
  5
1B48
330
1B18
100
AcDbEntity
  8
0
100
AcDbBlockEnd
  0
BLOCK
  5
1B54
330
1B53
100
AcDbEntity
  8
0
100
AcDbBlockBegin
  2
A$C2D292097
 70
     0
 10
0.0
 20
0.0
 30
0.0
  3
A$C2D292097
  1

  0
TEXT
  5
1B55
330
1B53
100
AcDbEntity
  8
0
100
AcDbText
 10
197.1044423511698
 20
31.0035981017752
 30
0.0
 40
10.0
  1
ASOH   CO.LTD
 41
5.0
  7
ｽﾀｲﾙ1
100
AcDbText
  0
TEXT
  5
1B56
330
1B53
100
AcDbEntity
  8
0
100
AcDbText
 10
127.3589261501835
 20
61.98001452360745
 30
0.0
 40
66.93693195207612
  1
アソー株式会社
  7
ｽﾀｲﾙ1
100
AcDbText
  0
HATCH
  5
1B57
330
1B53
100
AcDbEntity
  8
AM_8
100
AcDbHatch
 10
0.0
 20
0.0
 30
0.0
210
0.0
220
0.0
230
1.0
  2
SOLID
 70
     1
 71
     0
 91
        1
 92
        1
 93
       10
 72
     1
 10
26.27998696211468
 20
119.622038302041
 11
19.72254667781421
 21
94.20654351522143
 72
     1
 10
19.72254667781422
 20
94.20654351522143
 11
20.10217910550261
 21
94.65251979790156
 72
     3
 10
29.97494128357687
 20
79.68778553387966
 11
0.2402016329913208
 21
19.99855752736963
 40
0.7499999999999996
 50
-34.10238568201522
 51
52.41091053102508
 73
     0
 72
     1
 10
43.0844862433824
 20
89.53104876041368
 11
63.55518980891033
 21
40.6543652059048
 72
     3
 10
76.66473476871587
 20
50.49762843243886
 11
0.2402016329913136
 21
19.99855752736963
 40
0.7499999999999999
 50
127.589089468975
 51
243.9002512902304
 73
     1
 72
     1
 10
90.66060611817196
 20
43.43151697692579
 11
98.94218718925374
 21
72.13430932636422
 72
     1
 10
98.94218718925376
 20
72.13430932636422
 11
97.4258024259505
 21
70.16225780455534
 72
     3
 10
86.98981389832653
 20
84.43075959876276
 11
-0.2402016329912594
 21
-19.99855752736953
 40
0.7499999999999996
 50
-36.86989764584386
 51
52.41091053102518
 73
     0
 72
     1
 10
73.88026893852099
 20
74.58749637222874
 11
53.57102076277776
 21
123.0786824781806
 72
     3
 10
40.46147580297221
 20
113.2354192516466
 11
-0.2402016329912802
 21
-19.99855752736962
 40
0.7500000000000002
 50
127.5890894689749
 51
246.4437724078177
 73
     1
 97
        0
 75
     0
 76
     1
 98
        1
 10
-11.02788873631791
 20
-99.90118815091953
1001
GENIUS_GENODEF_13
1002
{
1000
HIER
1070
     0
1002
}
1002
{
1000
MANEDIT
1070
     0
1002
}
1002
{
1000
NOSEL
1070
     0
1002
}
1002
{
1000
BEHIND
1070
     0
1002
}
1002
{
1000
REACTOR
1002
}
1001
GENIUS_GENOBJ-N-HTC_13
1002
{
1000
OWNER
1000
GEN
1002
}
1001
GENIUS_GENHATCH_13
1002
{
1000
DATA
1040
0.0
1042
0.9999999999999998
1000
SOLID
1070
     0
1011
65.16661907668134
1021
74.10910423558471
1031
0.0
1002
}
1002
{
1000
UCS
1010
0.0
1020
0.0
1030
0.0
1010
1.0
1020
0.0
1030
0.0
1010
0.0
1020
1.0
1030
0.0
1002
}
  0
HATCH
  5
1B58
330
1B53
100
AcDbEntity
  8
AM_8
100
AcDbHatch
 10
0.0
 20
0.0
 30
0.0
210
0.0
220
0.0
230
1.0
  2
SOLID
 70
     1
 71
     0
 91
        1
 92
        1
 93
        2
 72
     2
 10
27.87973327687144
 20
49.81037059826576
 40
18.33631541869489
 50
10.7710123686058
 51
355.3294096482469
 73
     1
 72
     2
 10
27.87973327687144
 20
49.81037059826576
 40
18.33631541869488
 50
355.3294096482469
 51
370.7710123686058
 73
     1
 97
        0
 75
     0
 76
     1
 98
        1
 10
-11.02788873631791
 20
-99.90118815091953
1001
GENIUS_GENODEF_13
1002
{
1000
HIER
1070
     0
1002
}
1002
{
1000
MANEDIT
1070
     0
1002
}
1002
{
1000
NOSEL
1070
     0
1002
}
1002
{
1000
BEHIND
1070
     0
1002
}
1002
{
1000
REACTOR
1002
}
1001
GENIUS_GENOBJ-N-HTC_13
1002
{
1000
OWNER
1000
GEN
1002
}
1001
GENIUS_GENHATCH_13
1002
{
1000
DATA
1040
0.0
1042
0.9999999999999998
1000
SOLID
1070
     0
1011
30.27624113759819
1021
49.61458016509695
1031
0.0
1002
}
1002
{
1000
UCS
1010
0.0
1020
0.0
1030
0.0
1010
1.0
1020
0.0
1030
0.0
1010
0.0
1020
1.0
1030
0.0
1002
}
  0
CIRCLE
  5
1B59
330
1B53
100
AcDbEntity
  8
0
100
AcDbCircle
 10
27.87973327687145
 20
49.81037059826573
 30
0.0
 40
18.33631541869488
  0
LINE
  5
1B5A
330
1B53
100
AcDbEntity
  8
0
100
AcDbLine
 10
98.94218718925376
 20
72.13430932636422
 30
0.0
 11
90.66060611817196
 21
43.43151697692576
 31
0.0
  0
LINE
  5
1B5B
330
1B53
100
AcDbEntity
  8
0
100
AcDbLine
 10
43.0844862433824
 20
89.5310487604137
 30
0.0
 11
63.55518980891034
 21
40.6543652059048
 31
0.0
  0
ELLIPSE
  5
1B5C
330
1B53
100
AcDbEntity
  8
0
100
AcDbEllipse
 10
76.66473476871587
 20
50.49762843243886
 30
0.0
 11
0.2402016329913116
 21
19.99855752736953
 31
0.0
210
0.0
220
0.0
230
0.9999999999999998
 40
0.7499999999999999
 41
2.094395102393195
 42
4.360282821964076
1001
GENIUS_GENODEF_13
1002
{
1000
HIER
1070
     0
1002
}
1002
{
1000
MANEDIT
1070
     0
1002
}
1002
{
1000
NOSEL
1070
     0
1002
}
1002
{
1000
BEHIND
1070
     0
1002
}
1002
{
1000
REACTOR
1002
}
1001
GENIUS_GENOBJ-N-FIL_13
1002
{
1000
OWNER
1000
GEN
1002
}
  0
ELLIPSE
  5
1B5D
330
1B53
100
AcDbEntity
  8
0
100
AcDbEllipse
 10
86.98981389832653
 20
84.43075959876276
 30
0.0
 11
0.2402016329912594
 21
19.99855752736953
 31
0.0
210
0.0
220
0.0
230
1.0
 40
0.7499999999999996
 41
2.094395102393192
 42
3.926990816987234
1001
GENIUS_GENODEF_13
1002
{
1000
HIER
1070
     0
1002
}
1002
{
1000
MANEDIT
1070
     0
1002
}
1002
{
1000
NOSEL
1070
     0
1002
}
1002
{
1000
BEHIND
1070
     0
1002
}
1002
{
1000
REACTOR
1002
}
1001
GENIUS_GENOBJ-N-FIL_13
1002
{
1000
OWNER
1000
GEN
1002
}
  0
ELLIPSE
  5
1B5E
330
1B53
100
AcDbEntity
  8
0
100
AcDbEllipse
 10
29.97494128357687
 20
79.68778553387966
 30
0.0
 11
0.2402016329913188
 21
19.99855752736953
 31
0.0
210
0.0
220
0.0
230
0.9999999999999998
 40
0.7499999999999996
 41
-1.047197551196598
 42
0.7343684516294112
1001
GENIUS_GENODEF_13
1002
{
1000
HIER
1070
     0
1002
}
1002
{
1000
MANEDIT
1070
     0
1002
}
1002
{
1000
NOSEL
1070
     0
1002
}
1002
{
1000
BEHIND
1070
     0
1002
}
1002
{
1000
REACTOR
1002
}
1001
GENIUS_GENOBJ-N-FIL_13
1002
{
1000
OWNER
1000
GEN
1002
}
  0
ELLIPSE
  5
1B5F
330
1B53
100
AcDbEntity
  8
0
100
AcDbEllipse
 10
40.46147580297221
 20
113.2354192516466
 30
0.0
 11
0.2402016329912781
 21
19.99855752736952
 31
0.0
210
0.0
220
0.0
230
0.9999999999999998
 40
0.75
 41
-1.047197551196599
 42
1.254770269777095
1001
GENIUS_GENODEF_13
1002
{
1000
HIER
1070
     0
1002
}
1002
{
1000
MANEDIT
1070
     0
1002
}
1002
{
1000
NOSEL
1070
     0
1002
}
1002
{
1000
BEHIND
1070
     0
1002
}
1002
{
1000
REACTOR
1002
}
1001
GENIUS_GENOBJ-N-FIL_13
1002
{
1000
OWNER
1000
GEN
1002
}
  0
LINE
  5
1B60
330
1B53
100
AcDbEntity
  8
0
100
AcDbLine
 10
73.88026893852099
 20
74.58749637222874
 30
0.0
 11
53.57102076277774
 21
123.0786824781806
 31
0.0
  0
LINE
  5
1B61
330
1B53
100
AcDbEntity
  8
0
100
AcDbLine
 10
26.27998696211472
 20
119.6220383020412
 30
0.0
 11
19.72254667781422
 21
94.20654351522143
 31
0.0
  0
LINE
  5
1B62
330
1B53
100
AcDbEntity
  8
0
100
AcDbLine
 10
19.72254667781422
 20
94.20654351522143
 30
0.0
 11
20.1021791055026
 21
94.65251979790158
 31
0.0
  0
LINE
  5
1B63
330
1B53
100
AcDbEntity
  8
0
100
AcDbLine
 10
98.94218718925372
 20
72.13430932636422
 30
0.0
 11
97.42580242595048
 21
70.16225780455531
 31
0.0
  0
ENDBLK
  5
1B64
330
1B53
100
AcDbEntity
  8
0
100
AcDbBlockEnd
  0
BLOCK
  5
1B6A
330
1B68
100
AcDbEntity
  8
0
100
AcDbBlockBegin
  2
A$C676C2959
 70
     2
 10
0.0
 20
0.0
 30
0.0
  3
A$C676C2959
  1

  0
ATTDEF
  5
1B6B
330
1B68
100
AcDbEntity
  8
AM_BOR
 62
     2
100
AcDbText
 10
12.15813029624129
 20
1.055831712516678
 30
0.0
 40
3.0
  1
水 田
 72
     4
 11
16.15813029624129
 21
2.555831712516678
 31
0.0
100
AcDbAttributeDefinition
  3
検図
  2
KENZU
 70
     0
  0
ENDBLK
  5
1B6C
330
1B68
100
AcDbEntity
  8
0
100
AcDbBlockEnd
  0
BLOCK
  5
1B6F
330
1B6D
100
AcDbEntity
  8
0
100
AcDbBlockBegin
  2
A$C1FED437B
 70
     2
 10
0.0
 20
0.0
 30
0.0
  3
A$C1FED437B
  1

  0
ATTDEF
  5
1B70
330
1B6D
100
AcDbEntity
  8
AM_BOR
 62
     2
100
AcDbText
 10
18.03041271546894
 20
2.555831712516678
 30
0.0
 40
3.0
  1

 72
     4
 11
18.03041271546894
 21
2.555831712516678
 31
0.0
100
AcDbAttributeDefinition
  3
材質
  2
ZAISITU
 70
     0
  0
ENDBLK
  5
1B71
330
1B6D
100
AcDbEntity
  8
0
100
AcDbBlockEnd
  0
BLOCK
  5
1BAA
330
1B76
100
AcDbEntity
  8
0
100
AcDbBlockBegin
  2
ASO-A
 70
     2
 10
0.0
 20
0.0
 30
0.0
  3
ASO-A
  1

  0
LINE
  5
1B77
330
1B76
100
AcDbEntity
  8
AM_BOR
 62
   211
100
AcDbLine
 10
-110.0
 20
0.0
 30
0.0
 11
0.0
 21
0.0
 31
0.0
1001
GENIUS_GENREC_14
1002
{
1000
PYDIR
1011
-110.0
1021
40.0
1031
0.0
1002
}
1002
{
1000
PXDIR
1011
0.0
1021
0.0
1031
0.0
1002
}
1002
{
1000
PORI
1011
-110.0
1021
0.0
1031
0.0
1002
}
1002
{
1000
PINS
1011
-110.0
1021
0.0
1031
0.0
1002
}
1002
{
1000
HVAL
1000
40
1002
}
1002
{
1000
H
1070
     2
1002
}
1002
{
1000
WVAL
1000
110
1002
}
1002
{
1000
W
1070
     2
1002
}
1002
{
1000
C
1070
     1
1002
}
1001
GENIUS_GENODEF_13
1002
{
1000
HIER
1070
     0
1002
}
1002
{
1000
MANEDIT
1070
     0
1002
}
1002
{
1000
NOSEL
1070
     0
1002
}
1002
{
1000
BEHIND
1070
     0
1002
}
1002
{
1000
REACTOR
1002
}
1001
GENIUS_GENOBJ-N-REC_13
1002
{
1000
OWNER
1000
GEN
1002
}
  0
LINE
  5
1B78
330
1B76
100
AcDbEntity
  8
AM_BOR
 62
   211
100
AcDbLine
 10
0.0
 20
0.0
 30
0.0
 11
0.0
 21
40.0
 31
0.0
1001
GENIUS_GENREC_14
1002
{
1000
PYDIR
1011
-110.0
1021
40.0
1031
0.0
1002
}
1002
{
1000
PXDIR
1011
0.0
1021
0.0
1031
0.0
1002
}
1002
{
1000
PORI
1011
-110.0
1021
0.0
1031
0.0
1002
}
1002
{
1000
PINS
1011
-110.0
1021
0.0
1031
0.0
1002
}
1002
{
1000
HVAL
1000
40
1002
}
1002
{
1000
H
1070
     2
1002
}
1002
{
1000
WVAL
1000
110
1002
}
1002
{
1000
W
1070
     2
1002
}
1002
{
1000
C
1070
     1
1002
}
1001
GENIUS_GENODEF_13
1002
{
1000
HIER
1070
     0
1002
}
1002
{
1000
MANEDIT
1070
     0
1002
}
1002
{
1000
NOSEL
1070
     0
1002
}
1002
{
1000
BEHIND
1070
     0
1002
}
1002
{
1000
REACTOR
1002
}
1001
GENIUS_GENOBJ-N-REC_13
1002
{
1000
OWNER
1000
GEN
1002
}
  0
LINE
  5
1B79
330
1B76
100
AcDbEntity
  8
AM_BOR
 62
   211
100
AcDbLine
 10
0.0
 20
40.0
 30
0.0
 11
-110.0
 21
40.00000000000001
 31
0.0
1001
GENIUS_GENREC_14
1002
{
1000
PYDIR
1011
-110.0
1021
40.0
1031
0.0
1002
}
1002
{
1000
PXDIR
1011
0.0
1021
0.0
1031
0.0
1002
}
1002
{
1000
PORI
1011
-110.0
1021
0.0
1031
0.0
1002
}
1002
{
1000
PINS
1011
-110.0
1021
0.0
1031
0.0
1002
}
1002
{
1000
HVAL
1000
40
1002
}
1002
{
1000
H
1070
     2
1002
}
1002
{
1000
WVAL
1000
110
1002
}
1002
{
1000
W
1070
     2
1002
}
1002
{
1000
C
1070
     1
1002
}
1001
GENIUS_GENODEF_13
1002
{
1000
HIER
1070
     0
1002
}
1002
{
1000
MANEDIT
1070
     0
1002
}
1002
{
1000
NOSEL
1070
     0
1002
}
1002
{
1000
BEHIND
1070
     0
1002
}
1002
{
1000
REACTOR
1002
}
1001
GENIUS_GENOBJ-N-REC_13
1002
{
1000
OWNER
1000
GEN
1002
}
  0
LINE
  5
1B7A
330
1B76
100
AcDbEntity
  8
AM_BOR
 62
   211
100
AcDbLine
 10
-110.0
 20
40.00000000000001
 30
0.0
 11
-110.0
 21
0.0
 31
0.0
1001
GENIUS_GENREC_14
1002
{
1000
PYDIR
1011
-110.0
1021
40.0
1031
0.0
1002
}
1002
{
1000
PXDIR
1011
0.0
1021
0.0
1031
0.0
1002
}
1002
{
1000
PORI
1011
-110.0
1021
0.0
1031
0.0
1002
}
1002
{
1000
PINS
1011
-110.0
1021
0.0
1031
0.0
1002
}
1002
{
1000
HVAL
1000
40
1002
}
1002
{
1000
H
1070
     2
1002
}
1002
{
1000
WVAL
1000
110
1002
}
1002
{
1000
W
1070
     2
1002
}
1002
{
1000
C
1070
     1
1002
}
1001
GENIUS_GENODEF_13
1002
{
1000
HIER
1070
     0
1002
}
1002
{
1000
MANEDIT
1070
     0
1002
}
1002
{
1000
NOSEL
1070
     0
1002
}
1002
{
1000
BEHIND
1070
     0
1002
}
1002
{
1000
REACTOR
1002
}
1001
GENIUS_GENOBJ-N-REC_13
1002
{
1000
OWNER
1000
GEN
1002
}
  0
LINE
  5
1B7B
330
1B76
100
AcDbEntity
  8
AM_BOR
 62
     5
100
AcDbLine
 10
-60.0
 20
9.999999999999992
 30
0.0
 11
0.0
 21
10.0
 31
0.0
1001
GENIUS_GENREC_14
1002
{
1000
PYDIR
1011
-110.0
1021
40.0
1031
0.0
1002
}
1002
{
1000
PXDIR
1011
0.0
1021
0.0
1031
0.0
1002
}
1002
{
1000
PORI
1011
-110.0
1021
0.0
1031
0.0
1002
}
1002
{
1000
PINS
1011
-110.0
1021
0.0
1031
0.0
1002
}
1002
{
1000
HVAL
1000
40
1002
}
1002
{
1000
H
1070
     2
1002
}
1002
{
1000
WVAL
1000
110
1002
}
1002
{
1000
W
1070
     2
1002
}
1002
{
1000
C
1070
     1
1002
}
  0
LINE
  5
1B7C
330
1B76
100
AcDbEntity
  8
AM_BOR
 62
     5
100
AcDbLine
 10
-110.0
 20
19.0
 30
0.0
 11
0.0
 21
19.0
 31
0.0
1001
GENIUS_GENREC_14
1002
{
1000
PYDIR
1011
-110.0
1021
40.0
1031
0.0
1002
}
1002
{
1000
PXDIR
1011
0.0
1021
0.0
1031
0.0
1002
}
1002
{
1000
PORI
1011
-110.0
1021
0.0
1031
0.0
1002
}
1002
{
1000
PINS
1011
-110.0
1021
0.0
1031
0.0
1002
}
1002
{
1000
HVAL
1000
40
1002
}
1002
{
1000
H
1070
     2
1002
}
1002
{
1000
WVAL
1000
110
1002
}
1002
{
1000
W
1070
     2
1002
}
1002
{
1000
C
1070
     1
1002
}
1001
GENIUS_GENODEF_13
1002
{
1000
HIER
1070
     0
1002
}
1002
{
1000
MANEDIT
1070
     0
1002
}
1002
{
1000
NOSEL
1070
     0
1002
}
1002
{
1000
BEHIND
1070
     0
1002
}
1002
{
1000
REACTOR
1002
}
1001
GENIUS_GENOBJ-N-REC_13
1002
{
1000
OWNER
1000
GEN
1002
}
  0
LINE
  5
1B7D
330
1B76
100
AcDbEntity
  8
AM_BOR
 62
     5
100
AcDbLine
 10
-110.0
 20
26.0
 30
0.0
 11
0.0
 21
26.0
 31
0.0
1001
GENIUS_GENREC_14
1002
{
1000
PYDIR
1011
-110.0
1021
40.0
1031
0.0
1002
}
1002
{
1000
PXDIR
1011
0.0
1021
0.0
1031
0.0
1002
}
1002
{
1000
PORI
1011
-110.0
1021
0.0
1031
0.0
1002
}
1002
{
1000
PINS
1011
-110.0
1021
0.0
1031
0.0
1002
}
1002
{
1000
HVAL
1000
40
1002
}
1002
{
1000
H
1070
     2
1002
}
1002
{
1000
WVAL
1000
110
1002
}
1002
{
1000
W
1070
     2
1002
}
1002
{
1000
C
1070
     1
1002
}
1001
GENIUS_GENODEF_13
1002
{
1000
HIER
1070
     0
1002
}
1002
{
1000
MANEDIT
1070
     0
1002
}
1002
{
1000
NOSEL
1070
     0
1002
}
1002
{
1000
BEHIND
1070
     0
1002
}
1002
{
1000
REACTOR
1002
}
1001
GENIUS_GENOBJ-N-REC_13
1002
{
1000
OWNER
1000
GEN
1002
}
  0
LINE
  5
1B7E
330
1B76
100
AcDbEntity
  8
AM_BOR
 62
     5
100
AcDbLine
 10
-110.0
 20
33.0
 30
0.0
 11
0.0
 21
33.0
 31
0.0
1001
GENIUS_GENREC_14
1002
{
1000
PYDIR
1011
-110.0
1021
40.0
1031
0.0
1002
}
1002
{
1000
PXDIR
1011
0.0
1021
0.0
1031
0.0
1002
}
1002
{
1000
PORI
1011
-110.0
1021
0.0
1031
0.0
1002
}
1002
{
1000
PINS
1011
-110.0
1021
0.0
1031
0.0
1002
}
1002
{
1000
HVAL
1000
40
1002
}
1002
{
1000
H
1070
     2
1002
}
1002
{
1000
WVAL
1000
110
1002
}
1002
{
1000
W
1070
     2
1002
}
1002
{
1000
C
1070
     1
1002
}
1001
GENIUS_GENODEF_13
1002
{
1000
HIER
1070
     0
1002
}
1002
{
1000
MANEDIT
1070
     0
1002
}
1002
{
1000
NOSEL
1070
     0
1002
}
1002
{
1000
BEHIND
1070
     0
1002
}
1002
{
1000
REACTOR
1002
}
1001
GENIUS_GENOBJ-N-REC_13
1002
{
1000
OWNER
1000
GEN
1002
}
  0
LINE
  5
1B7F
330
1B76
100
AcDbEntity
  8
AM_BOR
 62
     5
100
AcDbLine
 10
-85.0
 20
33.0
 30
0.0
 11
-85.0
 21
18.99999999999998
 31
0.0
1001
GENIUS_GENREC_14
1002
{
1000
PYDIR
1011
-110.0
1021
40.0
1031
0.0
1002
}
1002
{
1000
PXDIR
1011
0.0
1021
0.0
1031
0.0
1002
}
1002
{
1000
PORI
1011
-110.0
1021
0.0
1031
0.0
1002
}
1002
{
1000
PINS
1011
-110.0
1021
0.0
1031
0.0
1002
}
1002
{
1000
HVAL
1000
40
1002
}
1002
{
1000
H
1070
     2
1002
}
1002
{
1000
WVAL
1000
110
1002
}
1002
{
1000
W
1070
     2
1002
}
1002
{
1000
C
1070
     1
1002
}
1001
GENIUS_GENODEF_13
1002
{
1000
HIER
1070
     0
1002
}
1002
{
1000
MANEDIT
1070
     0
1002
}
1002
{
1000
NOSEL
1070
     0
1002
}
1002
{
1000
BEHIND
1070
     0
1002
}
1002
{
1000
REACTOR
1002
}
1001
GENIUS_GENOBJ-N-REC_13
1002
{
1000
OWNER
1000
GEN
1002
}
  0
LINE
  5
1B80
330
1B76
100
AcDbEntity
  8
AM_BOR
 62
     5
100
AcDbLine
 10
-60.0
 20
40.00000000000001
 30
0.0
 11
-60.0
 21
0.0
 31
0.0
1001
GENIUS_GENREC_14
1002
{
1000
PYDIR
1011
-110.0
1021
40.0
1031
0.0
1002
}
1002
{
1000
PXDIR
1011
0.0
1021
0.0
1031
0.0
1002
}
1002
{
1000
PORI
1011
-110.0
1021
0.0
1031
0.0
1002
}
1002
{
1000
PINS
1011
-110.0
1021
0.0
1031
0.0
1002
}
1002
{
1000
HVAL
1000
40
1002
}
1002
{
1000
H
1070
     2
1002
}
1002
{
1000
WVAL
1000
110
1002
}
1002
{
1000
W
1070
     2
1002
}
1002
{
1000
C
1070
     1
1002
}
1001
GENIUS_GENODEF_13
1002
{
1000
HIER
1070
     0
1002
}
1002
{
1000
MANEDIT
1070
     0
1002
}
1002
{
1000
NOSEL
1070
     0
1002
}
1002
{
1000
BEHIND
1070
     0
1002
}
1002
{
1000
REACTOR
1002
}
1001
GENIUS_GENOBJ-N-REC_13
1002
{
1000
OWNER
1000
GEN
1002
}
  0
LINE
  5
1B81
330
1B76
100
AcDbEntity
  8
AM_BOR
 62
     5
100
AcDbLine
 10
-20.0
 20
33.0
 30
0.0
 11
-20.0
 21
40.0
 31
0.0
1001
GENIUS_GENREC_14
1002
{
1000
PYDIR
1011
-110.0
1021
40.0
1031
0.0
1002
}
1002
{
1000
PXDIR
1011
0.0
1021
0.0
1031
0.0
1002
}
1002
{
1000
PORI
1011
-110.0
1021
0.0
1031
0.0
1002
}
1002
{
1000
PINS
1011
-110.0
1021
0.0
1031
0.0
1002
}
1002
{
1000
HVAL
1000
40
1002
}
1002
{
1000
H
1070
     2
1002
}
1002
{
1000
WVAL
1000
110
1002
}
1002
{
1000
W
1070
     2
1002
}
1002
{
1000
C
1070
     1
1002
}
1001
GENIUS_GENODEF_13
1002
{
1000
HIER
1070
     0
1002
}
1002
{
1000
MANEDIT
1070
     0
1002
}
1002
{
1000
NOSEL
1070
     0
1002
}
1002
{
1000
BEHIND
1070
     0
1002
}
1002
{
1000
REACTOR
1002
}
1001
GENIUS_GENOBJ-N-REC_13
1002
{
1000
OWNER
1000
GEN
1002
}
  0
LINE
  5
1B82
330
1B76
100
AcDbEntity
  8
AM_BOR
 62
     5
100
AcDbLine
 10
-40.0
 20
33.0
 30
0.0
 11
-40.0
 21
40.0
 31
0.0
1001
GENIUS_GENREC_14
1002
{
1000
PYDIR
1011
-110.0
1021
40.0
1031
0.0
1002
}
1002
{
1000
PXDIR
1011
0.0
1021
0.0
1031
0.0
1002
}
1002
{
1000
PORI
1011
-110.0
1021
0.0
1031
0.0
1002
}
1002
{
1000
PINS
1011
-110.0
1021
0.0
1031
0.0
1002
}
1002
{
1000
HVAL
1000
40
1002
}
1002
{
1000
H
1070
     2
1002
}
1002
{
1000
WVAL
1000
110
1002
}
1002
{
1000
W
1070
     2
1002
}
1002
{
1000
C
1070
     1
1002
}
1001
GENIUS_GENODEF_13
1002
{
1000
HIER
1070
     0
1002
}
1002
{
1000
MANEDIT
1070
     0
1002
}
1002
{
1000
NOSEL
1070
     0
1002
}
1002
{
1000
BEHIND
1070
     0
1002
}
1002
{
1000
REACTOR
1002
}
1001
GENIUS_GENOBJ-N-REC_13
1002
{
1000
OWNER
1000
GEN
1002
}
  0
LINE
  5
1B83
330
1B76
100
AcDbEntity
  8
AM_BOR
 62
     5
100
AcDbLine
 10
-80.0
 20
33.0
 30
0.0
 11
-80.0
 21
40.0
 31
0.0
1001
GENIUS_GENREC_14
1002
{
1000
PYDIR
1011
-110.0
1021
40.0
1031
0.0
1002
}
1002
{
1000
PXDIR
1011
0.0
1021
0.0
1031
0.0
1002
}
1002
{
1000
PORI
1011
-110.0
1021
0.0
1031
0.0
1002
}
1002
{
1000
PINS
1011
-110.0
1021
0.0
1031
0.0
1002
}
1002
{
1000
HVAL
1000
40
1002
}
1002
{
1000
H
1070
     2
1002
}
1002
{
1000
WVAL
1000
110
1002
}
1002
{
1000
W
1070
     2
1002
}
1002
{
1000
C
1070
     1
1002
}
1001
GENIUS_GENODEF_13
1002
{
1000
HIER
1070
     0
1002
}
1002
{
1000
MANEDIT
1070
     0
1002
}
1002
{
1000
NOSEL
1070
     0
1002
}
1002
{
1000
BEHIND
1070
     0
1002
}
1002
{
1000
REACTOR
1002
}
1001
GENIUS_GENOBJ-N-REC_13
1002
{
1000
OWNER
1000
GEN
1002
}
  0
TEXT
  5
1B84
330
1B76
100
AcDbEntity
  8
AM_BOR
 62
     2
100
AcDbText
 10
-57.4
 20
35.0
 30
0.0
 40
3.0
  1
単位 ｍｍ
 72
     4
 11
-50.0
 21
36.5
 31
0.0
100
AcDbText
  0
TEXT
  5
1B85
330
1B76
100
AcDbEntity
  8
AM_BOR
 62
     2
100
AcDbText
 10
-39.0
 20
35.0
 30
0.0
 40
3.0
  1
尺度
 41
0.9
 11
-39.0
 21
36.5
 31
0.0
100
AcDbText
 73
     2
  0
TEXT
  5
1B86
330
1B76
100
AcDbEntity
  8
AM_BOR
 62
     2
100
AcDbText
 10
-19.0
 20
35.0
 30
0.0
 40
3.0
  1
日付
 41
0.9
 11
-19.0
 21
36.5
 31
0.0
100
AcDbText
 73
     2
  0
TEXT
  5
1B87
330
1B76
100
AcDbEntity
  8
AM_BOR
 62
     2
100
AcDbText
 10
-76.79999999999999
 20
34.99999999999999
 30
0.0
 40
3.0
  1
第３角法
 72
     4
 11
-70.0
 21
36.49999999999999
 31
0.0
100
AcDbText
  0
TEXT
  5
1B88
330
1B76
100
AcDbEntity
  8
AM_BOR
 62
     2
100
AcDbText
 10
-59.0
 20
29.5
 30
0.0
 40
3.0
  1
材 質
 11
-59.0
 21
31.0
 31
0.0
100
AcDbText
 73
     2
  0
TEXT
  5
1B89
330
1B76
100
AcDbEntity
  8
AM_BOR
 62
     2
100
AcDbText
 10
-59.0
 20
22.5
 30
0.0
 40
3.0
  1
備 考
 11
-59.0
 21
24.0
 31
0.0
100
AcDbText
 73
     2
  0
TEXT
  5
1B8A
330
1B76
100
AcDbEntity
  8
AM_BOR
 62
     2
100
AcDbText
 10
-59.0
 20
15.5
 30
0.0
 40
3.0
  1
品 名
 11
-59.0
 21
17.0
 31
0.0
100
AcDbText
 73
     2
  0
TEXT
  5
1B8B
330
1B76
100
AcDbEntity
  8
AM_BOR
 62
     2
100
AcDbText
 10
-59.0
 20
6.499999999999992
 30
0.0
 40
3.0
  1
図 番
 11
-59.0
 21
7.999999999999992
 31
0.0
100
AcDbText
 73
     2
  0
TEXT
  5
1B8C
330
1B76
100
AcDbEntity
  8
AM_BOR
 62
     2
100
AcDbText
 10
-109.0
 20
29.5
 30
0.0
 40
3.0
  1
承認
 11
-109.0
 21
31.0
 31
0.0
100
AcDbText
 73
     2
  0
TEXT
  5
1B8D
330
1B76
100
AcDbEntity
  8
AM_BOR
 62
     2
100
AcDbText
 10
-109.0
 20
22.5
 30
0.0
 40
3.0
  1
設計
 11
-109.0
 21
24.0
 31
0.0
100
AcDbText
 73
     2
  0
TEXT
  5
1B8E
330
1B76
100
AcDbEntity
  8
AM_BOR
 62
     2
100
AcDbText
 10
-84.0
 20
22.5
 30
0.0
 40
3.0
  1
製図
 11
-84.0
 21
24.0
 31
0.0
100
AcDbText
 73
     2
  0
TEXT
  5
1B8F
330
1B76
100
AcDbEntity
  8
AM_BOR
 62
     2
100
AcDbText
 10
-84.0
 20
29.5
 30
0.0
 40
3.0
  1
検図
 11
-84.0
 21
31.0
 31
0.0
100
AcDbText
 73
     2
  0
ATTDEF
  5
1B90
330
1B76
100
AcDbEntity
  8
AM_BOR
100
AcDbText
 10
-50.25926794017573
 20
12.75
 30
0.0
 40
3.5
  1

 11
-50.25926794017573
 21
14.5
 31
0.0
100
AcDbAttributeDefinition
  3
品名
  2
HINMEI{14}
 70
     0
 74
     2
  0
ATTDEF
  5
1B91
330
1B76
100
AcDbEntity
  8
AM_BOR
100
AcDbText
 10
-50.10873010396898
 20
3.249999999999992
 30
0.0
 40
3.5
  1

 11
-50.10873010396898
 21
4.999999999999992
 31
0.0
100
AcDbAttributeDefinition
  3
図番
  2
ZUBAN{14}
 70
     0
 74
     2
  0
ATTDEF
  5
1B92
330
1B76
100
AcDbEntity
  8
AM_BOR
 62
     2
100
AcDbText
 10
-11.91705654530994
 20
35.0
 30
0.0
 40
3.0
  1

 41
0.8
 11
-11.91705654530994
 21
36.5
 31
0.0
100
AcDbAttributeDefinition
  3
日付
  2
GEN-TITLE-DAT{3.5}
 70
     0
 74
     2
  0
ATTDEF
  5
1B93
330
1B76
100
AcDbEntity
  8
AM_BOR
 62
     2
100
AcDbText
 10
-71.63012018472975
 20
20.00000000000001
 30
0.0
 40
3.0
  1
水 田
 72
     4
 11
-67.63012018472974
 21
21.50000000000002
 31
0.0
100
AcDbAttributeDefinition
  3
製図
  2
SEIZU
 70
     0
  0
ATTDEF
  5
1B94
330
1B76
100
AcDbEntity
  8
AM_BOR
 62
     2
100
AcDbText
 10
-31.91705654530995
 20
35.0
 30
0.0
 40
3.0
  1

 11
-31.91705654530995
 21
36.5
 31
0.0
100
AcDbAttributeDefinition
  3
尺度
  2
GEN-TITLE-SCA
 70
     0
 74
     2
  0
LINE
  5
1B95
330
1B76
100
AcDbEntity
  8
0
100
AcDbLine
 10
-106.9502221859465
 20
14.71456568209314
 30
0.0
 11
-107.7139711131768
 21
11.16237652835879
 31
0.0
  0
LINE
  5
1B96
330
1B76
100
AcDbEntity
  8
0
100
AcDbLine
 10
-107.7139711131768
 20
11.16237652835879
 30
0.0
 11
-107.6697551010107
 21
11.22470827233807
 31
0.0
  0
ELLIPSE
  5
1B97
330
1B76
100
AcDbEntity
  8
0
100
AcDbEllipse
 10
-106.5198686826232
 20
9.133166589319488
 30
0.0
 11
0.0200858413762701
 21
2.795177724472429
 31
0.0
210
0.0
220
0.0
230
1.0
 40
0.6250197778053533
 41
-1.051714224928873
 42
0.7298517778971401
1001
GENIUS_GENODEF_13
1002
{
1000
HIER
1070
     0
1002
}
1002
{
1000
MANEDIT
1070
     0
1002
}
1002
{
1000
NOSEL
1070
     0
1002
}
1002
{
1000
BEHIND
1070
     0
1002
}
1002
{
1000
REACTOR
1002
}
1001
GENIUS_GENOBJ-N-FIL_13
1002
{
1000
OWNER
1000
GEN
1002
}
  0
ELLIPSE
  5
1B98
330
1B76
100
AcDbEntity
  8
0
100
AcDbEllipse
 10
-105.2984958385996
 20
13.8219417489321
 30
0.0
 11
0.0200858413762916
 21
2.795177724472415
 31
0.0
210
0.0
220
0.0
230
1.0
 40
0.6250197778053527
 41
-1.051714224928867
 42
1.250253596044828
1001
GENIUS_GENODEF_13
1002
{
1000
HIER
1070
     0
1002
}
1002
{
1000
MANEDIT
1070
     0
1002
}
1002
{
1000
NOSEL
1070
     0
1002
}
1002
{
1000
BEHIND
1070
     0
1002
}
1002
{
1000
REACTOR
1002
}
1001
GENIUS_GENOBJ-N-FIL_13
1002
{
1000
OWNER
1000
GEN
1002
}
  0
LINE
  5
1B99
330
1B76
100
AcDbEntity
  8
0
100
AcDbLine
 10
-98.48721298302093
 20
8.077457208786752
 30
0.0
 11
-99.45177360188811
 21
4.065819878065248
 31
0.0
  0
ELLIPSE
  5
1B9A
330
1B76
100
AcDbEntity
  8
0
100
AcDbEllipse
 10
-101.0818809708247
 20
5.053412867376919
 30
0.0
 11
0.0200858413762853
 21
2.795177724472413
 31
0.0
210
0.0
220
0.0
230
1.0
 40
0.6250197778053547
 41
2.089878428660925
 42
4.355766148231805
1001
GENIUS_GENODEF_13
1002
{
1000
HIER
1070
     0
1002
}
1002
{
1000
MANEDIT
1070
     0
1002
}
1002
{
1000
NOSEL
1070
     0
1002
}
1002
{
1000
BEHIND
1070
     0
1002
}
1002
{
1000
REACTOR
1002
}
1001
GENIUS_GENOBJ-N-FIL_13
1002
{
1000
OWNER
1000
GEN
1002
}
  0
LINE
  5
1B9B
330
1B76
100
AcDbEntity
  8
0
100
AcDbLine
 10
-98.48721298302093
 20
8.077457208786752
 30
0.0
 11
-98.66382720839389
 21
7.801834007856294
 31
0.0
  0
ELLIPSE
  5
1B9C
330
1B76
100
AcDbEntity
  8
0
100
AcDbEllipse
 10
-99.87931293102301
 20
9.796066964505511
 30
0.0
 11
0.0200858413762724
 21
2.795177724472415
 31
0.0
210
0.0
220
0.0
230
0.9999999999999998
 40
0.6250197778053552
 41
2.08987842866092
 42
3.922474143254961
1001
GENIUS_GENODEF_13
1002
{
1000
HIER
1070
     0
1002
}
1002
{
1000
MANEDIT
1070
     0
1002
}
1002
{
1000
NOSEL
1070
     0
1002
}
1002
{
1000
BEHIND
1070
     0
1002
}
1002
{
1000
REACTOR
1002
}
1001
GENIUS_GENOBJ-N-FIL_13
1002
{
1000
OWNER
1000
GEN
1002
}
  0
HATCH
  5
1B9D
330
1B76
100
AcDbEntity
  8
AM_8
100
AcDbHatch
 10
0.0
 20
0.0
 30
0.0
210
0.0
220
0.0
230
1.0
  2
SOLID
 70
     1
 71
     0
 91
        1
 92
        1
 93
        2
 72
     3
 10
-106.7638987916396
 20
4.957358478318376
 11
0.0000000000000547
 21
2.56276973145977
 40
0.8333333333333941
 50
-77.14069946214277
 51
264.4007371808275
 73
     1
 72
     3
 10
-106.7638987916396
 20
4.957358478318376
 11
-0.0000000000003928
 21
2.562769731461267
 40
0.8333333333328997
 50
264.4007371808174
 51
282.8593005378472
 73
     1
 97
        0
 75
     0
 76
     1
 98
        1
 10
65.20293740923941
 20
-32.16820874956388
1001
GENIUS_GENODEF_13
1002
{
1000
HIER
1070
     0
1002
}
1002
{
1000
MANEDIT
1070
     0
1002
}
1002
{
1000
NOSEL
1070
     0
1002
}
1002
{
1000
BEHIND
1070
     0
1002
}
1002
{
1000
REACTOR
1002
}
1001
GENIUS_GENOBJ-N-HTC_13
1002
{
1000
OWNER
1000
GEN
1002
}
1001
GENIUS_GENHATCH_13
1002
{
1000
DATA
1040
0.0
1042
0.0015799698758396
1000
SOLID
1070
     0
1011
70.0136537122014
1021
-14.7540192633455
1031
0.0
1002
}
1002
{
1000
UCS
1010
0.0
1020
0.0
1030
0.0
1010
1.0
1020
0.0
1030
0.0
1010
0.0
1020
1.0
1030
0.0
1002
}
  0
ELLIPSE
  5
1B9E
330
1B76
100
AcDbEntity
  8
0
100
AcDbEllipse
 10
-106.7638987916396
 20
4.957358478318417
 30
0.0
 11
0.0000000000000006
 21
2.562769731459943
 31
0.0
210
0.0
220
0.0
230
1.0
 40
0.8333333333333353
 41
-1.570796326794896
 42
4.712388980384689
  0
HATCH
  5
1B9F
330
1B76
100
AcDbEntity
  8
AM_8
100
AcDbHatch
 10
0.0
 20
0.0
 30
0.0
210
0.0
220
0.0
230
1.0
  2
SOLID
 70
     1
 71
     0
 91
        1
 92
        1
 93
       10
 72
     1
 10
-106.9502221859465
 20
14.71456568209311
 11
-107.7139711131768
 21
11.16237652835879
 72
     1
 10
-107.7139711131768
 20
11.16237652835879
 11
-107.6697551010108
 21
11.22470827233809
 72
     3
 10
-106.5198686826232
 20
9.133166589319488
 11
0.0200858413762859
 21
2.795177724472421
 40
0.6250197778053525
 50
-29.21280058452436
 51
47.56891328106517
 73
     0
 72
     1
 10
-104.9929922696577
 20
10.5089073790986
 11
-102.6087573837903
 21
3.677672077597827
 72
     3
 10
-101.0818809708247
 20
5.053412867376919
 11
0.0200858413762844
 21
2.79517772447242
 40
0.625019777805353
 50
132.4310867189347
 51
239.202331800838
 73
     1
 72
     1
 10
-99.45177360188809
 20
4.065819878065248
 11
-98.48721298302093
 21
8.077457208786761
 72
     1
 10
-98.48721298302095
 20
8.077457208786752
 11
-98.66382720839393
 21
7.801834007856288
 72
     3
 10
-99.87931293102301
 20
9.796066964505511
 11
0.0200858413762811
 21
2.795177724472416
 40
0.6250197778053536
 50
148.2259629226598
 51
227.5689132810653
 73
     0
 72
     1
 10
-101.4061893439886
 20
8.420326174726406
 11
-103.771619425634
 21
15.19768253871121
 72
     3
 10
-105.2984958385996
 20
13.8219417489321
 11
0.02008584137625
 21
2.795177724472417
 40
0.6250197778053583
 50
-47.56891328106589
 51
62.02409398278944
 73
     1
 97
        0
 75
     0
 76
     1
 98
        1
 10
65.20293740923941
 20
-32.16820874956388
1001
GENIUS_GENODEF_13
1002
{
1000
HIER
1070
     0
1002
}
1002
{
1000
MANEDIT
1070
     0
1002
}
1002
{
1000
NOSEL
1070
     0
1002
}
1002
{
1000
BEHIND
1070
     0
1002
}
1002
{
1000
REACTOR
1002
}
1001
GENIUS_GENOBJ-N-HTC_13
1002
{
1000
OWNER
1000
GEN
1002
}
1001
GENIUS_GENHATCH_13
1002
{
1000
DATA
1040
0.0
1042
0.0015799698758396
1000
SOLID
1070
     0
1011
74.07735655451816
1021
-11.90112763631223
1031
0.0
1002
}
1002
{
1000
UCS
1010
0.0
1020
0.0
1030
0.0
1010
1.0
1020
0.0
1030
0.0
1010
0.0
1020
1.0
1030
0.0
1002
}
  0
LINE
  5
1BA0
330
1B76
100
AcDbEntity
  8
0
100
AcDbLine
 10
-104.9929922696577
 20
10.5089073790986
 30
0.0
 11
-102.6087573837903
 21
3.677672077597847
 31
0.0
  0
LINE
  5
1BA1
330
1B76
100
AcDbEntity
  8
0
100
AcDbLine
 10
-101.4061893439886
 20
8.420326174726406
 30
0.0
 11
-103.771619425634
 21
15.1976825387112
 31
0.0
  0
TEXT
  5
1BA2
330
1B76
100
AcDbEntity
  8
0
100
AcDbText
 10
-92.04358977334541
 20
2.736280326823534
 30
0.0
 40
1.397647058823528
  1
ASOH   CO.LTD
 41
2.222222222222219
  7
ｽﾀｲﾙ1
100
AcDbText
  0
TEXT
  5
1BA3
330
1B76
100
AcDbEntity
  8
0
100
AcDbText
 10
-96.37601713265375
 20
7.065690057310197
 30
0.0
 40
9.355420606948992
  1
アソー株式会社
 41
0.4444444444444381
  7
ｽﾀｲﾙ1
100
AcDbText
  0
ATTDEF
  5
1BA4
330
1B76
100
AcDbEntity
  8
AM_BOR
 62
     2
100
AcDbText
 10
-98.50320560717072
 20
20.29902073441097
 30
0.0
 40
3.0
  1
水 田
 72
     4
 11
-94.50320560717072
 21
21.79902073441097
 31
0.0
100
AcDbAttributeDefinition
  3
設計
  2
SEKKEI
 70
     0
  0
ATTDEF
  5
1BA5
330
1B76
100
AcDbEntity
  8
AM_BOR
 62
     2
100
AcDbText
 10
-97.8418697037587
 20
27.05583171251668
 30
0.0
 40
3.0
  1
水 田
 72
     4
 11
-93.8418697037587
 21
28.55583171251668
 31
0.0
100
AcDbAttributeDefinition
  3
承認
  2
SYOUNIN
 70
     0
  0
ATTDEF
  5
1BA6
330
1B76
100
AcDbEntity
  8
AM_BOR
 62
     2
100
AcDbText
 10
-72.8418697037587
 20
27.05583171251668
 30
0.0
 40
3.0
  1
水 田
 72
     4
 11
-68.8418697037587
 21
28.55583171251668
 31
0.0
100
AcDbAttributeDefinition
  3
検図
  2
KENZU
 70
     0
  0
ATTDEF
  5
1BA7
330
1B76
100
AcDbEntity
  8
AM_BOR
 62
     2
100
AcDbText
 10
-28.88427375716205
 20
27.48523221998006
 30
0.0
 40
2.5
  1

 72
     4
 11
-28.88427375716205
 21
27.48523221998006
 31
0.0
100
AcDbAttributeDefinition
  3
材質
  2
ZAISITU
 70
     0
  0
ATTDEF
  5
1BA8
330
1B76
100
AcDbEntity
  8
AM_BOR
 62
     2
100
AcDbText
 10
-28.88427375716205
 20
20.49352515660299
 30
0.0
 40
2.5
  1

 72
     4
 11
-28.88427375716205
 21
20.49352515660299
 31
0.0
100
AcDbAttributeDefinition
  3
備考
  2
BIKOU
 70
     0
  0
ENDBLK
  5
1BAB
330
1B76
100
AcDbEntity
  8
0
100
AcDbBlockEnd
  0
BLOCK
  5
1F66
330
1F5C
100
AcDbEntity
  8
0
100
AcDbBlockBegin
  2
*D13
 70
     1
 10
0.0
 20
0.0
 30
0.0
  3
*D13
  1

  0
LINE
  5
2A53
330
1F5C
100
AcDbEntity
  8
AM_5
100
AcDbLine
 10
186.9179183860545
 20
173.8321044883611
 30
0.0
 11
178.8013279939632
 21
173.8321044883611
 31
0.0
  0
LINE
  5
2A54
330
1F5C
100
AcDbEntity
  8
AM_5
100
AcDbLine
 10
186.9179183849361
 20
167.8321044883611
 30
0.0
 11
178.8013279939632
 21
167.8321044883611
 31
0.0
  0
LINE
  5
2A55
330
1F5C
100
AcDbEntity
  8
AM_5
100
AcDbLine
 10
179.3013279939632
 20
172.5821044883611
 30
0.0
 11
179.3013279939632
 21
169.0821044883611
 31
0.0
  0
INSERT
  5
2A56
330
1F5C
100
AcDbEntity
  8
AM_5
100
AcDbBlockReference
  2
_Open30
 10
179.3013279939632
 20
173.8321044883611
 30
0.0
 41
1.25
 42
1.25
 43
1.25
 50
90.0
  0
INSERT
  5
2A57
330
1F5C
100
AcDbEntity
  8
AM_5
100
AcDbBlockReference
  2
_Open30
 10
179.3013279939632
 20
167.8321044883611
 30
0.0
 41
1.25
 42
1.25
 43
1.25
 50
270.0
  0
MTEXT
  5
2A58
330
1F5C
100
AcDbEntity
  8
AM_5
 62
     2
100
AcDbMText
 10
177.6763279939632
 20
170.8321044883611
 30
0.0
 40
1.75
 41
0.0
 71
     5
 72
     1
  1
%%c6
 11
0.0000000000000001
 21
1.0
 31
0.0
 73
     1
 44
1.0
1001
ACAD
1000
MTEXTBEGIN
1070
    73
1070
     1
1070
    44
1040
1.0
1070
    74
1070
     0
1000
MTEXTEND
  0
POINT
  5
2A59
330
1F5C
100
AcDbEntity
  8
Defpoints
 62
     0
100
AcDbPoint
 10
187.4179183860545
 20
173.8321044883611
 30
0.0
  0
POINT
  5
2A5A
330
1F5C
100
AcDbEntity
  8
Defpoints
 62
     0
100
AcDbPoint
 10
187.4179183849362
 20
167.8321044883611
 30
0.0
  0
POINT
  5
2A5B
330
1F5C
100
AcDbEntity
  8
Defpoints
 62
     0
100
AcDbPoint
 10
179.3013279939632
 20
167.8321044883611
 30
0.0
  0
ENDBLK
  5
1F67
330
1F5C
100
AcDbEntity
  8
0
100
AcDbBlockEnd
  0
BLOCK
  5
24D2
330
24C5
100
AcDbEntity
  8
0
100
AcDbBlockBegin
  2
A$C06FF2691
 70
     0
 10
0.0
 20
0.0
 30
0.0
  3
A$C06FF2691
  1

  0
LINE
  5
24C6
330
24C5
100
AcDbEntity
  8
0
 62
     0
100
AcDbLine
 10
6.819007428090259
 20
16.39302555285921
 30
0.0
 11
3.610427106864761
 21
18.28153013001345
 31
0.0
  0
LINE
  5
24C7
330
24C5
100
AcDbEntity
  8
0
 62
     0
100
AcDbLine
 10
3.610427106864676
 20
29.05029378529885
 30
0.0
 11
3.610427106864761
 21
18.28153013001345
 31
0.0
  0
LINE
  5
24C8
330
24C5
100
AcDbEntity
  8
0
 62
     0
100
AcDbLine
 10
-5.576120467483264
 20
18.28153013001345
 30
0.0
 11
3.610427106864761
 21
18.28153013001345
 31
0.0
  0
ARC
  5
24C9
330
24C5
100
AcDbEntity
  8
0
 62
     0
100
AcDbCircle
 10
5.499999999994486
 20
29.05029378529885
 30
0.0
 40
1.889572893129809
100
AcDbArc
 50
90.0
 51
180.0
  0
LINE
  5
24CA
330
24C5
100
AcDbEntity
  8
0
100
AcDbLine
 10
-0.0000000000000284
 20
23.50000000000004
 30
0.0
 11
3.999999999999971
 21
23.50000000000003
 31
0.0
  0
LINE
  5
24CB
330
24C5
100
AcDbEntity
  8
0
100
AcDbLine
 10
-0.0000000000000284
 20
27.50000000000007
 30
0.0
 11
3.999999999999971
 21
23.50000000000003
 31
0.0
  0
HATCH
  5
24CC
330
24C5
100
AcDbEntity
  8
0
 62
     0
100
AcDbHatch
 10
0.0
 20
0.0
 30
0.0
210
0.0
220
0.0
230
1.0
  2
SOLID
 70
     1
 71
     0
 91
        3
 92
        7
 72
     0
 73
     1
 93
        3
 10
-0.0000000000000568
 20
27.50000000000007
 10
1.999999999999943
 20
25.50000000000004
 10
-0.0000000000000853
 20
25.50000000000005
 97
        0
 92
        7
 72
     0
 73
     1
 93
        4
 10
-0.0000000000000284
 20
25.50000000000004
 10
1.999999999999943
 20
25.50000000000004
 10
3.999999999999943
 20
23.50000000000003
 10
-0.0000000000000284
 20
23.50000000000004
 97
        0
 92
        7
 72
     1
 73
     1
 93
        4
 10
-2.000000000000028
 20
23.50000000000054
 42
-0.4142135623730244
 10
-0.0000000000000284
 20
25.50000000000004
 42
0.0
 10
-0.0000000000000284
 20
20.50000000000004
 42
0.0
 10
-2.000000000000028
 20
20.50000000000006
 42
0.0
 97
        0
 75
     0
 76
     1
 47
0.0737418593757319
 98
        3
 10
0.6141615350007328
 20
26.11137115958711
 10
1.204595908734091
 20
24.4890500109256
 10
-0.8619250089770673
 20
23.38292216801511
  0
LINE
  5
24CD
330
24C5
100
AcDbEntity
  8
0
100
AcDbLine
 10
-2.000000000000028
 20
23.50000000000006
 30
0.0
 11
-2.000000000000028
 21
20.50000000000006
 31
0.0
  0
LINE
  5
24CE
330
24C5
100
AcDbEntity
  8
0
 62
     0
100
AcDbLine
 10
-0.0000000000000284
 20
20.50000000000004
 30
0.0
 11
-0.0000000000000284
 21
23.50000000000004
 31
0.0
  0
LINE
  5
24CF
330
24C5
100
AcDbEntity
  8
0
100
AcDbLine
 10
-2.000000000000028
 20
20.50000000000006
 30
0.0
 11
-0.0000000000000284
 21
20.50000000000004
 31
0.0
  0
LINE
  5
24D0
330
24C5
100
AcDbEntity
  8
0
 62
     0
100
AcDbLine
 10
-0.0000000000000284
 20
27.50000000000007
 30
0.0
 11
-0.0000000000000284
 21
25.50000000000004
 31
0.0
  0
ARC
  5
24D1
330
24C5
100
AcDbEntity
  8
0
 62
     0
100
AcDbCircle
 10
-0.0000000000000284
 20
23.50000000000004
 30
0.0
 40
2.0
100
AcDbArc
 50
90.0
 51
179.9999999999996
  0
ENDBLK
  5
24D3
330
24C5
100
AcDbEntity
  8
0
100
AcDbBlockEnd
  0
BLOCK
  5
2A95
330
2A78
100
AcDbEntity
  8
0
100
AcDbBlockBegin
  2
A$C265579AA
 70
     0
 10
0.0
 20
0.0
 30
0.0
  3
A$C265579AA
  1

  0
LINE
  5
2A79
330
2A78
100
AcDbEntity
  8
0
 62
     0
100
AcDbLine
 10
-0.3566461935750453
 20
3.197485430559197
 30
0.0
 11
-1.601661380846337
 21
-0.6342773148388688
 31
0.0
  0
LINE
  5
2A7A
330
2A78
100
AcDbEntity
  8
0
 62
     0
100
AcDbLine
 10
0.3566461935749885
 20
3.197485430559197
 30
0.0
 11
1.60166138084628
 21
-0.6342773148388688
 31
0.0
  0
ARC
  5
2A7B
330
2A78
100
AcDbEntity
  8
0
 62
     0
100
AcDbCircle
 10
0.0
 20
1.139963271374455
 30
0.0
 40
0.149999999985
100
AcDbArc
 50
18.00000000000053
 51
161.9999999999994
  0
ARC
  5
2A7C
330
2A78
100
AcDbEntity
  8
0
 62
     0
100
AcDbCircle
 10
0.0
 20
-4.957536728015725
 30
0.0
 40
2.999999999699999
100
AcDbArc
 50
55.822409278222
 51
124.177590721778
  0
LINE
  5
2A7D
330
2A78
100
AcDbEntity
  8
0
 62
     0
100
AcDbLine
 10
-0.6896420551854022
 20
-1.132536728398264
 30
0.0
 11
0.6896420551853453
 21
-1.132536728398264
 31
0.0
  0
LINE
  5
2A7E
330
2A78
100
AcDbEntity
  8
0
 62
     0
100
AcDbLine
 10
-0.1426584774300181
 20
1.18631582052609
 30
0.0
 11
-0.8323005326154202
 21
-0.9361841792617155
 31
0.0
  0
ARC
  5
2A7F
330
2A78
100
AcDbEntity
  8
0
 62
     0
100
AcDbCircle
 10
-2.136290484970942
 20
-1.268395941884847
 30
0.0
 40
0.3749999999625
100
AcDbArc
 50
90.0
 51
194.9999999999996
  0
LINE
  5
2A80
330
2A78
100
AcDbEntity
  8
0
 62
     0
100
AcDbLine
 10
-2.258161680681723
 20
-2.262455186801844
 30
0.0
 11
-2.498512669793115
 21
-1.365453083788594
 31
0.0
  0
ARC
  5
2A81
330
2A78
100
AcDbEntity
  8
0
 62
     0
100
AcDbCircle
 10
-1.958307574421326
 20
-0.5183959419598523
 30
0.0
 40
0.3749999999625
100
AcDbArc
 50
270.0
 51
341.9999999999995
  0
LINE
  5
2A82
330
2A78
100
AcDbEntity
  8
0
 62
     0
100
AcDbLine
 10
-2.136290484970942
 20
-0.8933959419223356
 30
0.0
 11
-1.958307574421326
 21
-0.8933959419223356
 31
0.0
  0
ARC
  5
2A83
330
2A78
100
AcDbEntity
  8
0
 62
     0
100
AcDbCircle
 10
-0.6896420551854022
 20
-0.9825367284132653
 30
0.0
 40
0.149999999985
100
AcDbArc
 50
161.9999999999994
 51
270.0
  0
ARC
  5
2A84
330
2A78
100
AcDbEntity
  8
0
 62
     0
100
AcDbCircle
 10
-1.895939495859522
 20
-2.165398044898125
 30
0.0
 40
0.3749999999625
100
AcDbArc
 50
194.999999999998
 51
304.1775907217779
  0
ARC
  5
2A85
330
2A78
100
AcDbEntity
  8
0
 62
     0
100
AcDbCircle
 10
2.136290484970913
 20
-1.268395941884875
 30
0.0
 40
0.3749999999625
100
AcDbArc
 50
344.9999999999989
 51
90.0
  0
LINE
  5
2A86
330
2A78
100
AcDbEntity
  8
0
 62
     0
100
AcDbLine
 10
2.498512669793058
 20
-1.365453083788594
 30
0.0
 11
2.25816168068161
 21
-2.262455186801844
 31
0.0
  0
LINE
  5
2A87
330
2A78
100
AcDbEntity
  8
0
 62
     0
100
AcDbLine
 10
2.25816168068161
 20
-2.262455186801844
 30
0.0
 11
2.498512669793058
 21
-1.365453083788594
 31
0.0
  0
LINE
  5
2A88
330
2A78
100
AcDbEntity
  8
0
 62
     0
100
AcDbLine
 10
1.958307574421269
 20
-0.8933959419223924
 30
0.0
 11
2.136290484970913
 21
-0.8933959419223924
 31
0.0
  0
ARC
  5
2A89
330
2A78
100
AcDbEntity
  8
0
 62
     0
100
AcDbCircle
 10
0.6896420551853453
 20
-0.9825367284132653
 30
0.0
 40
0.149999999985
100
AcDbArc
 50
270.0
 51
18.00000000000053
  0
ARC
  5
2A8A
330
2A78
100
AcDbEntity
  8
0
 62
     0
100
AcDbCircle
 10
1.958307574421269
 20
-0.5183959419599092
 30
0.0
 40
0.3749999999625
100
AcDbArc
 50
198.0000000000005
 51
270.0
  0
ARC
  5
2A8B
330
2A78
100
AcDbEntity
  8
0
 62
     0
100
AcDbCircle
 10
1.895939495859522
 20
-2.165398044898125
 30
0.0
 40
0.3749999999625
100
AcDbArc
 50
235.822409278222
 51
345.000000000002
  0
ARC
  5
2A8C
330
2A78
100
AcDbEntity
  8
0
 62
     0
100
AcDbCircle
 10
0.0
 20
3.081604057680181
 30
0.0
 40
0.3749999999625
100
AcDbArc
 50
18.00000000000053
 51
161.9999999999994
  0
LINE
  5
2A8D
330
2A78
100
AcDbEntity
  8
0
 62
     0
100
AcDbLine
 10
-13.50000000000003
 20
-4.999999999999943
 30
0.0
 11
-7.000000000000028
 21
-4.999999999999971
 31
0.0
  0
LINE
  5
2A8E
330
2A78
100
AcDbEntity
  8
0
 62
     0
100
AcDbLine
 10
-13.50000000000003
 20
5.000000000000056
 30
0.0
 11
-7.000000000000028
 21
5.000000000000028
 31
0.0
  0
LINE
  5
2A8F
330
2A78
100
AcDbEntity
  8
0
100
AcDbLine
 10
-7.000000000000028
 20
5.000000000000056
 30
0.0
 11
-7.000000000000056
 21
-4.999999999999971
 31
0.0
  0
LINE
  5
2A90
330
2A78
100
AcDbEntity
  8
0
 62
     0
100
AcDbLine
 10
-1.958307574421326
 20
-0.8933959419223924
 30
0.0
 11
-2.13629048497097
 21
-0.8933959419223924
 31
0.0
  0
LINE
  5
2A91
330
2A78
100
AcDbEntity
  8
0
 62
     0
100
AcDbLine
 10
-2.258161680681666
 20
-2.262455186801844
 30
0.0
 11
-2.498512669793115
 21
-1.365453083788594
 31
0.0
  0
LINE
  5
2A92
330
2A78
100
AcDbEntity
  8
0
 62
     0
100
AcDbLine
 10
-2.498512669793115
 20
-1.365453083788594
 30
0.0
 11
-2.258161680681666
 21
-2.262455186801844
 31
0.0
  0
ARC
  5
2A93
330
2A78
100
AcDbEntity
  8
0
 62
     0
100
AcDbCircle
 10
-2.13629048497097
 20
-1.268395941884875
 30
0.0
 40
0.3749999999625
100
AcDbArc
 50
90.0
 51
194.9999999999996
  0
LINE
  5
2A94
330
2A78
100
AcDbEntity
  8
0
 62
     0
100
AcDbLine
 10
0.1426584774300181
 20
1.18631582052609
 30
0.0
 11
0.8323005326154202
 21
-0.9361841792617155
 31
0.0
  0
ENDBLK
  5
2A96
330
2A78
100
AcDbEntity
  8
0
100
AcDbBlockEnd
  0
ENDSEC
  0
SECTION
  2
ENTITIES
  0
LINE
  5
407
330
1F
100
AcDbEntity
  8
0
 62
     0
100
AcDbLine
 10
221.9179183875709
 20
184.7899873486215
 30
0.0
 11
221.9179183847204
 21
166.6590873824946
 31
0.0
  0
LINE
  5
408
330
1F
100
AcDbEntity
  8
0
 62
     0
100
AcDbLine
 10
210.9179183880728
 20
184.7899873496175
 30
0.0
 11
210.9179183872361
 21
180.3009427571188
 31
0.0
  0
LINE
  5
4DD
330
1F
100
AcDbEntity
  8
0
 62
     0
100
AcDbLine
 10
223.4216981839719
 20
163.8283246818882
 30
0.0
 11
223.4216981828542
 21
157.8321044816503
 31
0.0
  0
LINE
  5
4DE
330
1F
100
AcDbEntity
  8
0
 62
     0
100
AcDbLine
 10
209.4179183839971
 20
162.5821044842605
 30
0.0
 11
209.4179183830723
 21
157.8321044842605
 31
0.0
  0
ARC
  5
4E7
330
1F
100
AcDbEntity
  8
0
100
AcDbCircle
 10
220.9216981839609
 20
163.8283246823541
 30
0.0
 40
2.500000000010969
100
AcDbArc
 50
359.9999999893207
 51
59.99999998931988
  0
ARC
  5
4E8
330
1F
100
AcDbEntity
  8
0
 62
     0
100
AcDbCircle
 10
222.9179183847461
 20
166.6590873823374
 30
0.0
 40
1.000000000004388
100
AcDbArc
 50
179.9999999893206
 51
221.7359877783102
  0
LINE
  5
6AF
330
1F
100
AcDbEntity
  8
AM_7
100
AcDbLine
 10
216.4179183942236
 20
145.9007711496183
 30
0.0
 11
216.4179183942236
 21
217.6607150707629
 31
0.0
1001
GENIUS_GENOBJ-N-CEN_13
1002
{
1000
OWNER
1000
GEN
1002
}
1001
GENIUS_GENODEF_13
1002
{
1000
HIER
1070
     0
1002
}
1002
{
1000
MANEDIT
1070
     0
1002
}
1002
{
1000
NOSEL
1070
     0
1002
}
1002
{
1000
BEHIND
1070
     0
1002
}
1002
{
1000
OTHER
1070
     0
1002
}
1002
{
1000
REACTOR
1002
}
  0
TEXT
  5
8E6
330
1F
100
AcDbEntity
  8
AM_0
100
AcDbText
 10
224.4294465659967
 20
233.3655768761805
 30
0.0
 40
3.0
  1
▲
 50
179.9999999999996
 41
0.5
  7
ｽﾀｲﾙ1
100
AcDbText
  0
TEXT
  5
8E7
330
1F
100
AcDbEntity
  8
AM_0
100
AcDbText
 10
208.5596917968211
 20
237.1813938537074
 30
0.0
 40
3.0
  1
▲
 50
359.9999999999996
 41
0.5
  7
ｽﾀｲﾙ1
100
AcDbText
  0
TEXT
  5
8E8
330
1F
100
AcDbEntity
  8
AM_0
100
AcDbText
 10
207.4844176994105
 20
234.0243261566175
 30
0.0
 40
3.0
  1
clccolo
 50
359.9999999999996
 41
1.5
  7
ｽﾀｲﾙ1
100
AcDbText
  0
ARC
  5
8E9
330
1F
100
AcDbEntity
  8
AM_0
100
AcDbCircle
 10
227.6266773425139
 20
239.4016640080248
 30
0.0
 40
0.5
100
AcDbArc
 50
20.92267102050549
 51
89.94427401305962
1001
GENIUS_GENODEF_13
1002
{
1000
HIER
1070
     0
1002
}
1002
{
1000
MANEDIT
1070
     0
1002
}
1002
{
1000
NOSEL
1070
     0
1002
}
1002
{
1000
BEHIND
1070
     0
1002
}
1002
{
1000
REACTOR
1002
}
1001
GENIUS_GENOBJ-N-FIL_13
1002
{
1000
OWNER
1000
GEN
1002
}
  0
ARC
  5
8EA
330
1F
100
AcDbEntity
  8
AM_0
100
AcDbCircle
 10
228.0048259872262
 20
238.2378421495886
 30
0.0
 40
0.5
100
AcDbArc
 50
306.0557259869378
 51
15.07732897949186
1001
GENIUS_GENODEF_13
1002
{
1000
HIER
1070
     0
1002
}
1002
{
1000
MANEDIT
1070
     0
1002
}
1002
{
1000
NOSEL
1070
     0
1002
}
1002
{
1000
BEHIND
1070
     0
1002
}
1002
{
1000
REACTOR
1002
}
1001
GENIUS_GENOBJ-N-FIL_13
1002
{
1000
OWNER
1000
GEN
1002
}
  0
ARC
  5
8EB
330
1F
100
AcDbEntity
  8
AM_0
100
AcDbCircle
 10
228.0048259872262
 20
231.9949029600015
 30
0.0
 40
0.5
100
AcDbArc
 50
344.9226710205071
 51
53.94427401306479
1001
GENIUS_GENODEF_13
1002
{
1000
HIER
1070
     0
1002
}
1002
{
1000
MANEDIT
1070
     0
1002
}
1002
{
1000
NOSEL
1070
     0
1002
}
1002
{
1000
BEHIND
1070
     0
1002
}
1002
{
1000
REACTOR
1002
}
1001
GENIUS_GENOBJ-N-FIL_13
1002
{
1000
OWNER
1000
GEN
1002
}
  0
ARC
  5
8EC
330
1F
100
AcDbEntity
  8
AM_0
100
AcDbCircle
 10
227.6266773425138
 20
230.8310811015652
 30
0.0
 40
0.5
100
AcDbArc
 50
270.0557259869394
 51
339.0773289794934
1001
GENIUS_GENODEF_13
1002
{
1000
HIER
1070
     0
1002
}
1002
{
1000
MANEDIT
1070
     0
1002
}
1002
{
1000
NOSEL
1070
     0
1002
}
1002
{
1000
BEHIND
1070
     0
1002
}
1002
{
1000
REACTOR
1002
}
1001
GENIUS_GENOBJ-N-FIL_13
1002
{
1000
OWNER
1000
GEN
1002
}
  0
ARC
  5
8ED
330
1F
100
AcDbEntity
  8
AM_0
100
AcDbCircle
 10
223.9571697559157
 20
225.7804372023398
 30
0.0
 40
0.5
100
AcDbArc
 50
308.9226710205061
 51
17.94427401306077
1001
GENIUS_GENODEF_13
1002
{
1000
HIER
1070
     0
1002
}
1002
{
1000
MANEDIT
1070
     0
1002
}
1002
{
1000
NOSEL
1070
     0
1002
}
1002
{
1000
BEHIND
1070
     0
1002
}
1002
{
1000
REACTOR
1002
}
1001
GENIUS_GENOBJ-N-FIL_13
1002
{
1000
OWNER
1000
GEN
1002
}
  0
ARC
  5
8EE
330
1F
100
AcDbEntity
  8
AM_0
100
AcDbCircle
 10
222.9671637512592
 20
225.0611557369762
 30
0.0
 40
0.5
100
AcDbArc
 50
234.0557259869371
 51
303.0773289794921
1001
GENIUS_GENODEF_13
1002
{
1000
HIER
1070
     0
1002
}
1002
{
1000
MANEDIT
1070
     0
1002
}
1002
{
1000
NOSEL
1070
     0
1002
}
1002
{
1000
BEHIND
1070
     0
1002
}
1002
{
1000
REACTOR
1002
}
1001
GENIUS_GENOBJ-N-FIL_13
1002
{
1000
OWNER
1000
GEN
1002
}
  0
ARC
  5
8EF
330
1F
100
AcDbEntity
  8
AM_0
100
AcDbCircle
 10
217.0297757541679
 20
223.1319814325444
 30
0.0
 40
0.5
100
AcDbArc
 50
272.9226710205079
 51
341.9442740130643
1001
GENIUS_GENODEF_13
1002
{
1000
HIER
1070
     0
1002
}
1002
{
1000
MANEDIT
1070
     0
1002
}
1002
{
1000
NOSEL
1070
     0
1002
}
1002
{
1000
BEHIND
1070
     0
1002
}
1002
{
1000
REACTOR
1002
}
1001
GENIUS_GENOBJ-N-FIL_13
1002
{
1000
OWNER
1000
GEN
1002
}
  0
ARC
  5
8F0
330
1F
100
AcDbEntity
  8
AM_0
100
AcDbCircle
 10
215.8060610342793
 20
223.1319814325444
 30
0.0
 40
0.5
100
AcDbArc
 50
198.0557259869348
 51
267.0773289794912
1001
GENIUS_GENODEF_13
1002
{
1000
HIER
1070
     0
1002
}
1002
{
1000
MANEDIT
1070
     0
1002
}
1002
{
1000
NOSEL
1070
     0
1002
}
1002
{
1000
BEHIND
1070
     0
1002
}
1002
{
1000
REACTOR
1002
}
1001
GENIUS_GENOBJ-N-FIL_13
1002
{
1000
OWNER
1000
GEN
1002
}
  0
ARC
  5
8F1
330
1F
100
AcDbEntity
  8
AM_0
100
AcDbCircle
 10
209.8686730371881
 20
225.0611557369763
 30
0.0
 40
0.5
100
AcDbArc
 50
236.922671020506
 51
305.944274013062
1001
GENIUS_GENODEF_13
1002
{
1000
HIER
1070
     0
1002
}
1002
{
1000
MANEDIT
1070
     0
1002
}
1002
{
1000
NOSEL
1070
     0
1002
}
1002
{
1000
BEHIND
1070
     0
1002
}
1002
{
1000
REACTOR
1002
}
1001
GENIUS_GENOBJ-N-FIL_13
1002
{
1000
OWNER
1000
GEN
1002
}
  0
ARC
  5
8F2
330
1F
100
AcDbEntity
  8
AM_0
100
AcDbCircle
 10
208.8786670325315
 20
225.78043720234
 30
0.0
 40
0.5
100
AcDbArc
 50
162.0557259869382
 51
231.077328979493
1001
GENIUS_GENODEF_13
1002
{
1000
HIER
1070
     0
1002
}
1002
{
1000
MANEDIT
1070
     0
1002
}
1002
{
1000
NOSEL
1070
     0
1002
}
1002
{
1000
BEHIND
1070
     0
1002
}
1002
{
1000
REACTOR
1002
}
1001
GENIUS_GENOBJ-N-FIL_13
1002
{
1000
OWNER
1000
GEN
1002
}
  0
ARC
  5
8F3
330
1F
100
AcDbEntity
  8
AM_0
100
AcDbCircle
 10
205.2091594459335
 20
230.8310811015654
 30
0.0
 40
0.5
100
AcDbArc
 50
200.9226710205055
 51
269.9442740130597
1001
GENIUS_GENODEF_13
1002
{
1000
HIER
1070
     0
1002
}
1002
{
1000
MANEDIT
1070
     0
1002
}
1002
{
1000
NOSEL
1070
     0
1002
}
1002
{
1000
BEHIND
1070
     0
1002
}
1002
{
1000
REACTOR
1002
}
1001
GENIUS_GENOBJ-N-FIL_13
1002
{
1000
OWNER
1000
GEN
1002
}
  0
ARC
  5
8F4
330
1F
100
AcDbEntity
  8
AM_0
100
AcDbCircle
 10
204.8310108012211
 20
231.9949029600017
 30
0.0
 40
0.5
100
AcDbArc
 50
126.0557259869343
 51
195.0773289794918
1001
GENIUS_GENODEF_13
1002
{
1000
HIER
1070
     0
1002
}
1002
{
1000
MANEDIT
1070
     0
1002
}
1002
{
1000
NOSEL
1070
     0
1002
}
1002
{
1000
BEHIND
1070
     0
1002
}
1002
{
1000
REACTOR
1002
}
1001
GENIUS_GENOBJ-N-FIL_13
1002
{
1000
OWNER
1000
GEN
1002
}
  0
ARC
  5
8F5
330
1F
100
AcDbEntity
  8
AM_0
100
AcDbCircle
 10
204.8310108012212
 20
238.2378421495888
 30
0.0
 40
0.5
100
AcDbArc
 50
164.9226710205073
 51
233.9442740130612
1001
GENIUS_GENODEF_13
1002
{
1000
HIER
1070
     0
1002
}
1002
{
1000
MANEDIT
1070
     0
1002
}
1002
{
1000
NOSEL
1070
     0
1002
}
1002
{
1000
BEHIND
1070
     0
1002
}
1002
{
1000
REACTOR
1002
}
1001
GENIUS_GENOBJ-N-FIL_13
1002
{
1000
OWNER
1000
GEN
1002
}
  0
ARC
  5
8F6
330
1F
100
AcDbEntity
  8
AM_0
100
AcDbCircle
 10
205.2091594459336
 20
239.4016640080251
 30
0.0
 40
0.5
100
AcDbArc
 50
90.05572598693939
 51
159.0773289794935
1001
GENIUS_GENODEF_13
1002
{
1000
HIER
1070
     0
1002
}
1002
{
1000
MANEDIT
1070
     0
1002
}
1002
{
1000
NOSEL
1070
     0
1002
}
1002
{
1000
BEHIND
1070
     0
1002
}
1002
{
1000
REACTOR
1002
}
1001
GENIUS_GENOBJ-N-FIL_13
1002
{
1000
OWNER
1000
GEN
1002
}
  0
ARC
  5
8F7
330
1F
100
AcDbEntity
  8
AM_0
100
AcDbCircle
 10
208.8786670325317
 20
244.4523079072504
 30
0.0
 40
0.5
100
AcDbArc
 50
128.9226710205062
 51
197.9442740130608
1001
GENIUS_GENODEF_13
1002
{
1000
HIER
1070
     0
1002
}
1002
{
1000
MANEDIT
1070
     0
1002
}
1002
{
1000
NOSEL
1070
     0
1002
}
1002
{
1000
BEHIND
1070
     0
1002
}
1002
{
1000
REACTOR
1002
}
1001
GENIUS_GENOBJ-N-FIL_13
1002
{
1000
OWNER
1000
GEN
1002
}
  0
ARC
  5
8F8
330
1F
100
AcDbEntity
  8
AM_0
100
AcDbCircle
 10
209.8686730371882
 20
245.1715893726141
 30
0.0
 40
0.5
100
AcDbArc
 50
54.05572598693708
 51
123.0773289794922
1001
GENIUS_GENODEF_13
1002
{
1000
HIER
1070
     0
1002
}
1002
{
1000
MANEDIT
1070
     0
1002
}
1002
{
1000
NOSEL
1070
     0
1002
}
1002
{
1000
BEHIND
1070
     0
1002
}
1002
{
1000
REACTOR
1002
}
1001
GENIUS_GENOBJ-N-FIL_13
1002
{
1000
OWNER
1000
GEN
1002
}
  0
ARC
  5
8F9
330
1F
100
AcDbEntity
  8
AM_0
100
AcDbCircle
 10
215.8060610342795
 20
247.1007636770458
 30
0.0
 40
0.5
100
AcDbArc
 50
92.92267102050784
 51
161.9442740130642
1001
GENIUS_GENODEF_13
1002
{
1000
HIER
1070
     0
1002
}
1002
{
1000
MANEDIT
1070
     0
1002
}
1002
{
1000
NOSEL
1070
     0
1002
}
1002
{
1000
BEHIND
1070
     0
1002
}
1002
{
1000
REACTOR
1002
}
1001
GENIUS_GENOBJ-N-FIL_13
1002
{
1000
OWNER
1000
GEN
1002
}
  0
ARC
  5
8FA
330
1F
100
AcDbEntity
  8
AM_0
100
AcDbCircle
 10
217.0297757541681
 20
247.1007636770458
 30
0.0
 40
0.5
100
AcDbArc
 50
18.05572598693489
 51
87.07732897949128
1001
GENIUS_GENODEF_13
1002
{
1000
HIER
1070
     0
1002
}
1002
{
1000
MANEDIT
1070
     0
1002
}
1002
{
1000
NOSEL
1070
     0
1002
}
1002
{
1000
BEHIND
1070
     0
1002
}
1002
{
1000
REACTOR
1002
}
1001
GENIUS_GENOBJ-N-FIL_13
1002
{
1000
OWNER
1000
GEN
1002
}
  0
ARC
  5
8FB
330
1F
100
AcDbEntity
  8
AM_0
100
AcDbCircle
 10
222.9671637512594
 20
245.171589372614
 30
0.0
 40
0.5
100
AcDbArc
 50
56.92267102050694
 51
125.9442740130619
1001
GENIUS_GENODEF_13
1002
{
1000
HIER
1070
     0
1002
}
1002
{
1000
MANEDIT
1070
     0
1002
}
1002
{
1000
NOSEL
1070
     0
1002
}
1002
{
1000
BEHIND
1070
     0
1002
}
1002
{
1000
REACTOR
1002
}
1001
GENIUS_GENOBJ-N-FIL_13
1002
{
1000
OWNER
1000
GEN
1002
}
  0
ARC
  5
8FC
330
1F
100
AcDbEntity
  8
AM_0
100
AcDbCircle
 10
223.9571697559159
 20
244.4523079072503
 30
0.0
 40
0.5
100
AcDbArc
 50
342.0557259869381
 51
51.07732897949283
1001
GENIUS_GENODEF_13
1002
{
1000
HIER
1070
     0
1002
}
1002
{
1000
MANEDIT
1070
     0
1002
}
1002
{
1000
NOSEL
1070
     0
1002
}
1002
{
1000
BEHIND
1070
     0
1002
}
1002
{
1000
REACTOR
1002
}
1001
GENIUS_GENOBJ-N-FIL_13
1002
{
1000
OWNER
1000
GEN
1002
}
  0
ARC
  5
8FD
330
1F
100
AcDbEntity
  8
AM_0
100
AcDbCircle
 10
216.4179183942237
 20
235.1163725547952
 30
0.0
 40
12.5
100
AcDbArc
 50
303.0773289794908
 51
308.9226710205074
  0
ARC
  5
8FE
330
1F
100
AcDbEntity
  8
AM_0
100
AcDbCircle
 10
216.4179183942237
 20
235.1163725547952
 30
0.0
 40
12.5
100
AcDbArc
 50
339.0773289794904
 51
344.9226710205071
  0
ARC
  5
8FF
330
1F
100
AcDbEntity
  8
AM_0
100
AcDbCircle
 10
216.4179183942237
 20
235.1163725547952
 30
0.0
 40
12.5
100
AcDbArc
 50
15.07732897949186
 51
20.92267102050854
  0
ARC
  5
900
330
1F
100
AcDbEntity
  8
AM_0
100
AcDbCircle
 10
216.4179183942237
 20
235.1163725547952
 30
0.0
 40
12.5
100
AcDbArc
 50
51.07732897949166
 51
56.92267102050817
  0
ARC
  5
901
330
1F
100
AcDbEntity
  8
AM_0
100
AcDbCircle
 10
216.4179183942237
 20
235.1163725547952
 30
0.0
 40
12.5
100
AcDbArc
 50
87.07732897949128
 51
92.92267102050784
  0
ARC
  5
902
330
1F
100
AcDbEntity
  8
AM_0
100
AcDbCircle
 10
216.4179183942237
 20
235.1163725547952
 30
0.0
 40
12.5
100
AcDbArc
 50
123.0773289794908
 51
128.9226710205074
  0
ARC
  5
903
330
1F
100
AcDbEntity
  8
AM_0
100
AcDbCircle
 10
216.4179183942237
 20
235.1163725547952
 30
0.0
 40
12.5
100
AcDbArc
 50
159.0773289794905
 51
164.9226710205073
  0
ARC
  5
904
330
1F
100
AcDbEntity
  8
AM_0
100
AcDbCircle
 10
216.4179183942237
 20
235.1163725547952
 30
0.0
 40
12.5
100
AcDbArc
 50
195.0773289794918
 51
200.9226710205087
  0
ARC
  5
905
330
1F
100
AcDbEntity
  8
AM_0
100
AcDbCircle
 10
216.4179183942237
 20
235.1163725547952
 30
0.0
 40
12.5
100
AcDbArc
 50
231.0773289794917
 51
236.9226710205083
  0
ARC
  5
906
330
1F
100
AcDbEntity
  8
AM_0
100
AcDbCircle
 10
212.1351190537001
 20
221.9352715314411
 30
0.0
 40
3.361078814551376
100
AcDbArc
 50
18.05572598693489
 51
125.9442740130619
  0
ARC
  5
907
330
1F
100
AcDbEntity
  8
AM_0
100
AcDbCircle
 10
205.2054041537376
 20
226.9700041132164
 30
0.0
 40
3.361078814551376
100
AcDbArc
 50
342.0557259869351
 51
89.94427401306291
  0
ARC
  5
908
330
1F
100
AcDbEntity
  8
AM_0
100
AcDbCircle
 10
202.5584885942985
 20
235.1163725547953
 30
0.0
 40
3.361078814551376
100
AcDbArc
 50
306.0557259869356
 51
53.94427401306123
  0
ARC
  5
909
330
1F
100
AcDbEntity
  8
AM_0
100
AcDbCircle
 10
205.2054041537377
 20
243.262740996374
 30
0.0
 40
3.361078814551376
100
AcDbArc
 50
270.0557259869362
 51
17.94427401306398
  0
ARC
  5
90A
330
1F
100
AcDbEntity
  8
AM_0
100
AcDbCircle
 10
212.1351190537003
 20
248.2974735781492
 30
0.0
 40
3.361078814551376
100
AcDbArc
 50
234.0557259869371
 51
341.9442740130643
  0
ARC
  5
90B
330
1F
100
AcDbEntity
  8
AM_0
100
AcDbCircle
 10
227.6304326347098
 20
243.2627409963739
 30
0.0
 40
3.361078814551376
100
AcDbArc
 50
162.0557259869351
 51
269.9442740130629
  0
ARC
  5
90C
330
1F
100
AcDbEntity
  8
AM_0
100
AcDbCircle
 10
230.2773481941489
 20
235.1163725547951
 30
0.0
 40
3.361078814551376
100
AcDbArc
 50
126.0557259869379
 51
233.9442740130635
  0
ARC
  5
90D
330
1F
100
AcDbEntity
  8
AM_0
100
AcDbCircle
 10
227.6304326347097
 20
226.9700041132162
 30
0.0
 40
3.361078814551376
100
AcDbArc
 50
90.05572598693611
 51
197.9442740130638
  0
ARC
  5
90E
330
1F
100
AcDbEntity
  8
AM_0
100
AcDbCircle
 10
220.700717734747
 20
221.9352715314411
 30
0.0
 40
3.361078814551376
100
AcDbArc
 50
54.05572598693708
 51
161.9442740130642
  0
ARC
  5
90F
330
1F
100
AcDbEntity
  8
AM_0
100
AcDbCircle
 10
220.7007177347473
 20
248.2974735781491
 30
0.0
 40
3.361078814551376
100
AcDbArc
 50
198.0557259869348
 51
305.944274013062
  0
CIRCLE
  5
910
330
1F
100
AcDbEntity
  8
AM_0
100
AcDbCircle
 10
216.4179183942237
 20
235.1163725547952
 30
0.0
 40
9.0
  0
CIRCLE
  5
911
330
1F
100
AcDbEntity
  8
AM_0
100
AcDbCircle
 10
216.4179183942237
 20
235.1163725547952
 30
0.0
 40
10.5
  0
ARC
  5
912
330
1F
100
AcDbEntity
  8
AM_0
100
AcDbCircle
 10
216.4179183942237
 20
235.1163725547952
 30
0.0
 40
12.5
100
AcDbArc
 50
267.0773289794912
 51
272.9226710205079
  0
LINE
  5
913
330
1F
100
AcDbEntity
  8
AM_7
  6
AM_ISO08W050x2
100
AcDbLine
 10
216.4179183942237
 20
235.1163725547952
 30
0.0
 11
216.4179183942235
 21
221.1163725547951
 31
0.0
1001
GENIUS_GENOREF_13
1005
918
  0
LINE
  5
914
330
1F
100
AcDbEntity
  8
AM_7
  6
AM_ISO08W050x2
100
AcDbLine
 10
216.4179183942237
 20
235.1163725547952
 30
0.0
 11
202.4179183942237
 21
235.1163725547952
 31
0.0
1001
GENIUS_GENOREF_13
1005
918
  0
LINE
  5
915
330
1F
100
AcDbEntity
  8
AM_7
  6
AM_ISO08W050x2
100
AcDbLine
 10
216.4179183942237
 20
235.1163725547952
 30
0.0
 11
216.4179183942238
 21
249.1163725547951
 31
0.0
1001
GENIUS_GENOREF_13
1005
918
  0
LINE
  5
916
330
1F
100
AcDbEntity
  8
AM_7
  6
AM_ISO08W050x2
100
AcDbLine
 10
216.4179183942237
 20
235.1163725547952
 30
0.0
 11
230.4179183942237
 21
235.116372554795
 31
0.0
1001
GENIUS_GENOREF_13
1005
918
  0
POINT
  5
918
330
1F
100
AcDbEntity
  8
0
 60
     1
100
AcDbPoint
 10
59.50967583484885
 20
-109.9749682954727
 30
0.0
1001
GENIUS_GENODEF_13
1002
{
1000
HIER
1070
    10
1002
}
1002
{
1000
MANEDIT
1070
     0
1002
}
1002
{
1000
NOSEL
1070
     0
1002
}
1002
{
1000
BEHIND
1070
     0
1002
}
1002
{
1000
REACTOR
1002
}
1001
GENIUS_GENOBJ-N-CRS_13
1002
{
1000
OWNER
1000
GEN
1002
}
1001
GENIUS_GENOENT_13
1002
{
1000
MYREF
1005
918
1002
}
1002
{
1000
GRP
1005
0
1002
}
1001
GENIUS_GENOLIS_13
1002
{
1000
ENT
1005
913
1005
914
1005
915
1005
916
1002
}
  0
LINE
  5
D19
330
1F
100
AcDbEntity
  8
AM_0
100
AcDbLine
 10
213.4179183942237
 20
200.4634109343194
 30
0.0
 11
213.4179183942237
 21
195.3321044831688
 31
0.0
  0
LINE
  5
D24
330
1F
100
AcDbEntity
  8
AM_0
100
AcDbLine
 10
219.4179183942237
 20
200.4634109343193
 30
0.0
 11
219.4179183942237
 21
195.3321044831688
 31
0.0
  0
LINE
  5
DE1
330
1F
100
AcDbEntity
  8
AM_0
100
AcDbLine
 10
213.9179183942236
 20
200.9634109343194
 30
0.0
 11
213.4179183942237
 21
200.4634109343194
 31
0.0
1001
GENIUS_GENFIL_13
1070
     0
1040
0.5
1040
0.5
1040
0.5
1040
45.0000000000002
1000
~T
1001
GENIUS_GENOREF_13
1005
DE4
  0
LINE
  5
DE2
330
1F
100
AcDbEntity
  8
AM_0
100
AcDbLine
 10
213.4179183942237
 20
200.4634109343194
 30
0.0
 11
219.4179183942237
 21
200.4634109343193
 31
0.0
  0
POINT
  5
DE4
330
1F
100
AcDbEntity
  8
0
 60
     1
100
AcDbPoint
 10
501.2990172720771
 20
-38.52540629820331
 30
0.0
1001
GENIUS_GENOENT_13
1002
{
1000
MYREF
1005
DE4
1002
}
1002
{
1000
GRP
1005
0
1002
}
1001
GENIUS_GENOBJ-N-CHA_13
1002
{
1000
OWNER
1000
GEN
1002
}
1001
GENIUS_GENODEF_13
1002
{
1000
HIER
1070
     1
1002
}
1002
{
1000
MANEDIT
1070
     0
1002
}
1002
{
1000
NOSEL
1070
     0
1002
}
1002
{
1000
BEHIND
1070
     0
1002
}
1002
{
1000
OTHER
1070
     0
1002
}
1002
{
1000
REACTOR
1002
}
1001
GENIUS_GENOLIS_13
1002
{
1000
ENT
1005
DE1
1002
}
  0
LINE
  5
161C
330
1F
100
AcDbEntity
  8
0
 62
     0
100
AcDbLine
 10
204.9179183868467
 20
178.0821044850993
 30
0.0
 11
210.1348488448969
 21
179.3247556970808
 31
0.0
  0
ARC
  5
161D
330
1F
100
AcDbEntity
  8
0
 62
     0
100
AcDbCircle
 10
209.9179183872601
 20
180.3009427573052
 30
0.0
 40
1.0
100
AcDbArc
 50
282.5288076984715
 51
359.9999999893207
  0
LINE
  5
1626
330
1F
100
AcDbEntity
  8
0
100
AcDbLine
 10
204.917918384144
 20
163.5821044850993
 30
0.0
 11
208.4179183841835
 21
163.5821044844469
 31
0.0
  0
ARC
  5
1627
330
1F
100
AcDbEntity
  8
0
 62
     0
100
AcDbCircle
 10
208.4179183839971
 20
162.5821044844469
 30
0.0
 40
1.0
100
AcDbArc
 50
359.9999999893207
 51
89.99999998932066
  0
LINE
  5
192D
330
1F
100
AcDbEntity
  8
AM_0
100
AcDbLine
 10
211.6356387673659
 20
149.1870525423994
 30
0.0
 11
211.4103587946992
 21
156.3960116677338
 31
0.0
  0
LINE
  5
192E
330
1F
100
AcDbEntity
  8
AM_4
100
AcDbLine
 10
212.0246058942237
 20
155.3321044829558
 30
0.0
 11
211.4103587946993
 21
156.3960116677337
 31
0.0
  0
LINE
  5
192F
330
1F
100
AcDbEntity
  8
AM_4
100
AcDbLine
 10
212.2498858668904
 20
148.1231453576212
 30
0.0
 11
212.0246058942239
 21
155.3321044829558
 31
0.0
  0
LINE
  5
1930
330
1F
100
AcDbEntity
  8
AM_0
100
AcDbLine
 10
212.2166387673661
 20
149.1870525423994
 30
0.0
 11
211.635638767366
 21
149.1870525423993
 31
0.0
  0
LINE
  5
1931
330
1F
100
AcDbEntity
  8
AM_0
100
AcDbLine
 10
212.4179183942236
 20
147.8321044829558
 30
0.0
 11
211.6356387673659
 21
149.1870525423993
 31
0.0
  0
LINE
  5
1932
330
1F
100
AcDbEntity
  8
AM_0
100
AcDbLine
 10
221.2001980210815
 20
149.1870525423997
 30
0.0
 11
221.4254779937481
 21
156.3960116677337
 31
0.0
  0
LINE
  5
1933
330
1F
100
AcDbEntity
  8
AM_4
100
AcDbLine
 10
220.8112308942239
 20
155.3321044829558
 30
0.0
 11
221.425477993748
 21
156.3960116677336
 31
0.0
  0
LINE
  5
1934
330
1F
100
AcDbEntity
  8
AM_4
100
AcDbLine
 10
220.5859509215569
 20
148.1231453576212
 30
0.0
 11
220.8112308942239
 21
155.3321044829557
 31
0.0
  0
LINE
  5
1935
330
1F
100
AcDbEntity
  8
AM_0
100
AcDbLine
 10
220.4179183942236
 20
147.8321044829558
 30
0.0
 11
221.2001980210815
 21
149.1870525423997
 31
0.0
  0
LINE
  5
1936
330
1F
100
AcDbEntity
  8
AM_0
100
AcDbLine
 10
221.2001980210815
 20
149.1870525423997
 30
0.0
 11
220.6191980210813
 21
149.1870525423997
 31
0.0
  0
LINE
  5
1937
330
1F
100
AcDbEntity
  8
AM_0
100
AcDbLine
 10
221.3922308942238
 20
155.3321044829558
 30
0.0
 11
220.8112308942239
 21
155.3321044829558
 31
0.0
  0
LINE
  5
1938
330
1F
100
AcDbEntity
  8
AM_0
100
AcDbLine
 10
221.4254779937481
 20
156.3960116677337
 30
0.0
 11
221.4254779937481
 21
157.8321044829558
 31
0.0
  0
LINE
  5
1939
330
1F
100
AcDbEntity
  8
AM_0
100
AcDbLine
 10
211.4103587946992
 20
156.3960116677338
 30
0.0
 11
211.4103587946992
 21
157.8321044829558
 31
0.0
  0
LINE
  5
193A
330
1F
100
AcDbEntity
  8
AM_0
100
AcDbLine
 10
212.0246058942239
 20
155.3321044829558
 30
0.0
 11
211.4436058942235
 21
155.3321044829558
 31
0.0
  0
LINE
  5
193B
330
1F
100
AcDbEntity
  8
AM_0
100
AcDbLine
 10
221.4254779825967
 20
157.8321044820225
 30
0.0
 11
223.4216981828542
 21
157.8321044816503
 31
0.0
  0
LINE
  5
193C
330
1F
100
AcDbEntity
  8
AM_0
100
AcDbLine
 10
211.4103587835479
 20
157.8321044838891
 30
0.0
 11
209.4179183830723
 21
157.8321044842605
 31
0.0
  0
LINE
  5
1987
330
1F
100
AcDbEntity
  8
AM_0
100
AcDbLine
 10
220.4179183942236
 20
147.8321044829558
 30
0.0
 11
212.4179183942236
 21
147.8321044829558
 31
0.0
  0
LINE
  5
1EE8
330
1F
100
AcDbEntity
  8
AM_0
100
AcDbLine
 10
203.4179183864273
 20
175.8321044853788
 30
0.0
 11
204.9179183864273
 21
175.8321044850992
 31
0.0
  0
LINE
  5
1EE9
330
1F
100
AcDbEntity
  8
AM_0
100
AcDbLine
 10
203.4179183845634
 20
165.8321044853788
 30
0.0
 11
204.9179183845634
 21
165.8321044850993
 31
0.0
  0
LINE
  5
1EEB
330
1F
100
AcDbEntity
  8
AM_0
100
AcDbLine
 10
204.9179183868467
 20
178.0821044850993
 30
0.0
 11
204.9179183854952
 21
170.8321044850994
 31
0.0
  0
LINE
  5
1EEC
330
1F
100
AcDbEntity
  8
AM_0
100
AcDbLine
 10
204.9179183854954
 20
170.8321044850994
 30
0.0
 11
204.9179183841442
 21
163.5821044850993
 31
0.0
  0
LINE
  5
1EF9
330
1F
100
AcDbEntity
  8
AM_0
100
AcDbLine
 10
203.4179183864273
 20
175.8321044853788
 30
0.0
 11
203.4179183854953
 21
170.832104485379
 31
0.0
  0
LINE
  5
1F01
330
1F
100
AcDbEntity
  8
AM_0
100
AcDbLine
 10
183.4179183858373
 20
172.6671413454785
 30
0.0
 11
183.4179183851533
 21
168.9970676327347
 31
0.0
  0
LINE
  5
1F18
330
1F
100
AcDbEntity
  8
AM_0
100
AcDbLine
 10
203.4179183860545
 20
173.8321044853788
 30
0.0
 11
199.4179183860545
 21
173.8321044861244
 31
0.0
  0
LINE
  5
1F1D
330
1F
100
AcDbEntity
  8
AM_0
100
AcDbLine
 10
203.4179183854953
 20
170.832104485379
 30
0.0
 11
203.4179183845634
 21
165.8321044853788
 31
0.0
  0
LINE
  5
1F1E
330
1F
100
AcDbEntity
  8
AM_0
100
AcDbLine
 10
183.8257741184039
 20
173.1585774388696
 30
0.0
 11
187.4179183860545
 21
173.8321044883611
 31
0.0
  0
LINE
  5
1F1F
330
1F
100
AcDbEntity
  8
AM_0
100
AcDbLine
 10
187.4179183860545
 20
173.8321044883611
 30
0.0
 11
187.4179183859147
 21
173.0821044883611
 31
0.0
  0
LINE
  5
1F20
330
1F
100
AcDbEntity
  8
AM_0
100
AcDbLine
 10
187.4179183859147
 20
173.0821044883611
 30
0.0
 11
191.4179183860545
 21
173.8321044876155
 31
0.0
  0
LINE
  5
1F21
330
1F
100
AcDbEntity
  8
AM_0
100
AcDbLine
 10
191.4179183860545
 20
173.8321044876155
 30
0.0
 11
191.4179183854953
 21
170.8321044876156
 31
0.0
  0
LINE
  5
1F22
330
1F
100
AcDbEntity
  8
AM_0
100
AcDbLine
 10
191.4179183859147
 20
173.0821044876155
 30
0.0
 11
195.4179183860545
 21
173.83210448687
 31
0.0
  0
LINE
  5
1F23
330
1F
100
AcDbEntity
  8
AM_0
100
AcDbLine
 10
195.4179183860545
 20
173.83210448687
 30
0.0
 11
195.4179183854953
 21
170.83210448687
 31
0.0
  0
LINE
  5
1F24
330
1F
100
AcDbEntity
  8
AM_0
100
AcDbLine
 10
195.4179183859147
 20
173.08210448687
 30
0.0
 11
199.4179183860545
 21
173.8321044861244
 31
0.0
  0
LINE
  5
1F25
330
1F
100
AcDbEntity
  8
AM_0
100
AcDbLine
 10
191.4179183850759
 20
168.5821044876155
 30
0.0
 11
195.4179183849362
 21
167.83210448687
 31
0.0
  0
LINE
  5
1F26
330
1F
100
AcDbEntity
  8
AM_0
100
AcDbLine
 10
183.8257741175366
 20
168.5056315391916
 30
0.0
 11
187.4179183849362
 21
167.8321044883611
 31
0.0
  0
LINE
  5
1F27
330
1F
100
AcDbEntity
  8
AM_0
100
AcDbLine
 10
187.4179183850759
 20
168.5821044883611
 30
0.0
 11
191.4179183849362
 21
167.8321044876155
 31
0.0
  0
LINE
  5
1F28
330
1F
100
AcDbEntity
  8
AM_0
100
AcDbLine
 10
187.4179183849362
 20
167.8321044883611
 30
0.0
 11
187.4179183854953
 21
170.8321044883611
 31
0.0
  0
LINE
  5
1F29
330
1F
100
AcDbEntity
  8
AM_0
100
AcDbLine
 10
191.4179183849362
 20
167.8321044876155
 30
0.0
 11
191.4179183854953
 21
170.8321044876156
 31
0.0
  0
LINE
  5
1F2A
330
1F
100
AcDbEntity
  8
AM_0
100
AcDbLine
 10
195.4179183850759
 20
168.58210448687
 30
0.0
 11
199.4179183849361
 21
167.8321044861244
 31
0.0
  0
LINE
  5
1F2B
330
1F
100
AcDbEntity
  8
AM_0
100
AcDbLine
 10
195.4179183849362
 20
167.83210448687
 30
0.0
 11
195.4179183854953
 21
170.83210448687
 31
0.0
  0
LINE
  5
1F2C
330
1F
100
AcDbEntity
  8
AM_0
100
AcDbLine
 10
203.4179183849362
 20
167.8321044853788
 30
0.0
 11
199.4179183849361
 21
167.8321044861244
 31
0.0
  0
LINE
  5
1F5A
330
1F
100
AcDbEntity
  8
AM_7
100
AcDbLine
 10
182.0209183854953
 20
170.832104489367
 30
0.0
 11
223.3149183853977
 21
170.8321044816705
 31
0.0
1001
GENIUS_GENOBJ-N-CEN_13
1002
{
1000
OWNER
1000
GEN
1002
}
1001
GENIUS_GENODEF_13
1002
{
1000
HIER
1070
     0
1002
}
1002
{
1000
MANEDIT
1070
     0
1002
}
1002
{
1000
NOSEL
1070
     0
1002
}
1002
{
1000
BEHIND
1070
     0
1002
}
1002
{
1000
OTHER
1070
     0
1002
}
1002
{
1000
REACTOR
1002
}
1001
GENIUS_GENCEN_19
1002
{
1040
1.397
1002
}
  0
ARC
  5
1F83
330
1F
100
AcDbEntity
  8
AM_0
100
AcDbCircle
 10
183.9179183858373
 20
172.6671413453853
 30
0.0
 40
0.5
100
AcDbArc
 50
100.6196552654761
 51
179.9999999893206
1001
GENIUS_GENOBJ-N-FIL_13
1002
{
1000
OWNER
1000
GEN
1002
}
1001
GENIUS_GENODEF_13
1002
{
1000
HIER
1070
     0
1002
}
1002
{
1000
MANEDIT
1070
     0
1002
}
1002
{
1000
NOSEL
1070
     0
1002
}
1002
{
1000
BEHIND
1070
     0
1002
}
1002
{
1000
OTHER
1070
     0
1002
}
1002
{
1000
REACTOR
1002
}
  0
ARC
  5
1F84
330
1F
100
AcDbEntity
  8
AM_0
100
AcDbCircle
 10
183.9179183851533
 20
168.9970676326415
 30
0.0
 40
0.5
100
AcDbArc
 50
179.9999999893206
 51
259.3803447131642
1001
GENIUS_GENODEF_13
1002
{
1000
HIER
1070
     0
1002
}
1002
{
1000
MANEDIT
1070
     0
1002
}
1002
{
1000
NOSEL
1070
     0
1002
}
1002
{
1000
BEHIND
1070
     0
1002
}
1002
{
1000
OTHER
1070
     0
1002
}
1002
{
1000
REACTOR
1002
}
1001
GENIUS_GENOBJ-N-FIL_13
1002
{
1000
OWNER
1000
GEN
1002
}
  0
LINE
  5
2021
330
1F
100
AcDbEntity
  8
0
 62
     0
100
AcDbLine
 10
204.9179183868467
 20
178.0821044850993
 30
0.0
 11
204.9179183864908
 21
176.1729974179571
 31
0.0
  0
LINE
  5
2038
330
1F
100
AcDbEntity
  8
AM_0
100
AcDbLine
 10
187.4179183860545
 20
173.8321044883611
 30
0.0
 11
187.4179183854953
 21
170.8321044883611
 31
0.0
  0
LINE
  5
22A3
330
1F
100
AcDbEntity
  8
AM_7
100
AcDbLine
 10
269.3690090610361
 20
216.7786927931685
 30
0.0
 11
269.3690090610362
 21
145.743014833549
 31
0.0
1001
GENIUS_GENODEF_13
1002
{
1000
HIER
1070
     0
1002
}
1002
{
1000
MANEDIT
1070
     0
1002
}
1002
{
1000
NOSEL
1070
     0
1002
}
1002
{
1000
BEHIND
1070
     0
1002
}
1002
{
1000
OTHER
1070
     0
1002
}
1002
{
1000
REACTOR
1002
}
1001
GENIUS_GENOBJ-N-CEN_13
1002
{
1000
OWNER
1000
GEN
1002
}
  0
LINE
  5
22AD
330
1F
100
AcDbEntity
  8
0
 62
     0
100
AcDbLine
 10
275.8275090610646
 20
186.2333630216094
 30
0.0
 11
276.3690090610669
 21
186.2333630215728
 31
0.0
  0
ARC
  5
22B2
330
1F
100
AcDbEntity
  8
0
 62
     0
100
AcDbCircle
 10
262.8690090616578
 20
184.7899873496466
 30
0.0
 40
0.9999999999043879
100
AcDbArc
 50
0.0
 51
60.00000000000023
  0
LINE
  5
22B3
330
1F
100
AcDbEntity
  8
0
 62
     0
100
AcDbLine
 10
275.3690090610626
 20
185.6560127523806
 30
0.0
 11
276.3690090610669
 21
186.2333630215728
 31
0.0
  0
ARC
  5
22B6
330
1F
100
AcDbEntity
  8
0
 62
     0
100
AcDbCircle
 10
275.8690090610647
 20
184.7899873485923
 30
0.0
 40
1.000000000004388
100
AcDbArc
 50
119.9999999999997
 51
180.0
  0
LINE
  5
22B8
330
1F
100
AcDbEntity
  8
AM_0
100
AcDbLine
 10
266.3690090610363
 20
200.4634109343194
 30
0.0
 11
266.3690090610364
 21
195.3321044831686
 31
0.0
  0
LINE
  5
22B9
330
1F
100
AcDbEntity
  8
AM_0
100
AcDbLine
 10
272.3690090610362
 20
200.4634109343193
 30
0.0
 11
272.3690090610363
 21
195.3321044831686
 31
0.0
  0
LINE
  5
22C5
330
1F
100
AcDbEntity
  8
AM_0
100
AcDbLine
 10
266.8690090610362
 20
200.9634109343194
 30
0.0
 11
266.3690090610362
 21
200.4634109343194
 31
0.0
1001
GENIUS_GENFIL_13
1070
     0
1040
0.5
1040
0.5
1040
0.5
1040
45.0000000000002
1000
~T
1001
GENIUS_GENOREF_13
1005
22F9
  0
LINE
  5
22C6
330
1F
100
AcDbEntity
  8
AM_0
100
AcDbLine
 10
266.3690090610362
 20
200.4634109343194
 30
0.0
 11
272.3690090610363
 21
200.4634109343193
 31
0.0
  0
LINE
  5
22CE
330
1F
100
AcDbEntity
  8
AM_0
100
AcDbLine
 10
271.8690090610374
 20
200.9634109343195
 30
0.0
 11
272.3690090610375
 21
200.4634109343196
 31
0.0
1001
GENIUS_GENFIL_13
1070
     0
1040
0.5
1040
0.5
1040
0.5
1040
45.0000000000002
1000
~T
1001
GENIUS_GENOREF_13
1005
22F8
  0
LINE
  5
22CF
330
1F
100
AcDbEntity
  8
AM_0
100
AcDbLine
 10
272.3690090610375
 20
200.4634109343196
 30
0.0
 11
266.3690090610373
 21
200.4634109343192
 31
0.0
  0
LINE
  5
22D0
330
1F
100
AcDbEntity
  8
AM_4
100
AcDbLine
 10
275.8275090610647
 20
187.3321044831334
 30
0.0
 11
275.8275090610647
 21
185.9207278508049
 31
0.0
  0
LINE
  5
22D1
330
1F
100
AcDbEntity
  8
0
 62
     0
100
AcDbLine
 10
276.369009061067
 20
187.3321044831334
 30
0.0
 11
276.3690090610671
 21
186.2333630215725
 31
0.0
  0
LINE
  5
22D2
330
1F
100
AcDbEntity
  8
0
 62
     0
100
AcDbLine
 10
275.8275090610647
 20
186.2333630216091
 30
0.0
 11
276.3690090610671
 21
186.2333630215725
 31
0.0
  0
LINE
  5
22D3
330
1F
100
AcDbEntity
  8
AM_0
100
AcDbLine
 10
275.8275090610647
 20
186.2333630216091
 30
0.0
 11
269.3690090610362
 21
186.233363022046
 31
0.0
  0
LINE
  5
22D5
330
1F
100
AcDbEntity
  8
0
 62
     0
100
AcDbLine
 10
262.9105090613782
 20
186.2333630224832
 30
0.0
 11
262.3690090613759
 21
186.2333630225199
 31
0.0
  0
LINE
  5
22D6
330
1F
100
AcDbEntity
  8
AM_4
100
AcDbLine
 10
262.9105090615268
 20
187.3321044840072
 30
0.0
 11
262.9105090613358
 21
185.9207278516788
 31
0.0
  0
LINE
  5
22D7
330
1F
100
AcDbEntity
  8
0
 62
     0
100
AcDbLine
 10
262.3690090615245
 20
187.3321044840805
 30
0.0
 11
262.3690090613758
 21
186.2333630225196
 31
0.0
  0
LINE
  5
22D8
330
1F
100
AcDbEntity
  8
0
 62
     0
100
AcDbLine
 10
262.9105090613781
 20
186.233363022483
 30
0.0
 11
262.3690090613758
 21
186.2333630225196
 31
0.0
  0
LINE
  5
22D9
330
1F
100
AcDbEntity
  8
AM_0
100
AcDbLine
 10
262.9105090613781
 20
186.233363022483
 30
0.0
 11
269.3690090614066
 21
186.233363022046
 31
0.0
  0
LINE
  5
22DA
330
1F
100
AcDbEntity
  8
0
 62
     0
100
AcDbLine
 10
263.369009060502
 20
185.6560127531925
 30
0.0
 11
262.3690090605756
 21
186.23336302252
 31
0.0
  0
LINE
  5
22DB
330
1F
100
AcDbEntity
  8
AM_0
100
AcDbLine
 10
263.8690090615622
 20
184.7899873496175
 30
0.0
 11
274.8690090610603
 21
184.7899873485923
 31
0.0
  0
LINE
  5
22F6
330
1F
100
AcDbEntity
  8
AM_0
100
AcDbLine
 10
263.8690090615622
 20
184.7899873496175
 30
0.0
 11
263.8690090607351
 21
173.3321044829558
 31
0.0
  0
LINE
  5
22F7
330
1F
100
AcDbEntity
  8
AM_0
100
AcDbLine
 10
274.8690090605101
 20
184.7899873496175
 30
0.0
 11
274.8690090611467
 21
175.969920474284
 31
0.0
  0
POINT
  5
22F8
330
1F
100
AcDbEntity
  8
0
 60
     1
100
AcDbPoint
 10
16.51197248349419
 20
-38.52540629821888
 30
0.0
 50
180.0000000000031
1001
GENIUS_GENOENT_13
1002
{
1000
MYREF
1005
22F8
1002
}
1002
{
1000
GRP
1005
0
1002
}
1001
GENIUS_GENOBJ-N-CHA_13
1002
{
1000
OWNER
1000
GEN
1002
}
1001
GENIUS_GENODEF_13
1002
{
1000
HIER
1070
     1
1002
}
1002
{
1000
MANEDIT
1070
     0
1002
}
1002
{
1000
NOSEL
1070
     0
1002
}
1002
{
1000
BEHIND
1070
     0
1002
}
1002
{
1000
OTHER
1070
     0
1002
}
1002
{
1000
REACTOR
1002
}
1001
GENIUS_GENOLIS_13
1002
{
1000
ENT
1005
22CE
1002
}
  0
POINT
  5
22F9
330
1F
100
AcDbEntity
  8
0
 60
     1
100
AcDbPoint
 10
586.2741702391867
 20
-38.52540629820331
 30
0.0
1001
GENIUS_GENOENT_13
1002
{
1000
MYREF
1005
22F9
1002
}
1002
{
1000
GRP
1005
0
1002
}
1001
GENIUS_GENOBJ-N-CHA_13
1002
{
1000
OWNER
1000
GEN
1002
}
1001
GENIUS_GENODEF_13
1002
{
1000
HIER
1070
     1
1002
}
1002
{
1000
MANEDIT
1070
     0
1002
}
1002
{
1000
NOSEL
1070
     0
1002
}
1002
{
1000
BEHIND
1070
     0
1002
}
1002
{
1000
OTHER
1070
     0
1002
}
1002
{
1000
REACTOR
1002
}
1001
GENIUS_GENOLIS_13
1002
{
1000
ENT
1005
22C5
1002
}
  0
LINE
  5
2307
330
1F
100
AcDbEntity
  8
AM_0
100
AcDbLine
 10
218.9179183942237
 20
200.9634109343194
 30
0.0
 11
219.4179183942237
 21
200.4634109343194
 31
0.0
1001
GENIUS_GENFIL_13
1070
     0
1040
0.5
1040
0.5
1040
0.5
1040
45.0000000000002
1000
~T
1001
GENIUS_GENOREF_13
1005
2308
  0
POINT
  5
2308
330
1F
100
AcDbEntity
  8
0
 60
     1
100
AcDbPoint
 10
-68.46318048362912
 20
-38.52540629820405
 30
0.0
 50
180.0000000000001
1001
GENIUS_GENOENT_13
1002
{
1000
MYREF
1005
2308
1002
}
1002
{
1000
GRP
1005
0
1002
}
1001
GENIUS_GENOBJ-N-CHA_13
1002
{
1000
OWNER
1000
GEN
1002
}
1001
GENIUS_GENODEF_13
1002
{
1000
HIER
1070
     1
1002
}
1002
{
1000
MANEDIT
1070
     0
1002
}
1002
{
1000
NOSEL
1070
     0
1002
}
1002
{
1000
BEHIND
1070
     0
1002
}
1002
{
1000
OTHER
1070
     0
1002
}
1002
{
1000
REACTOR
1002
}
1001
GENIUS_GENOLIS_13
1002
{
1000
ENT
1005
2307
1002
}
  0
LINE
  5
233E
330
1F
100
AcDbEntity
  8
0
 62
     0
100
AcDbLine
 10
222.876418394252
 20
186.2333630216096
 30
0.0
 11
223.4179183942544
 21
186.233363021573
 31
0.0
  0
LINE
  5
2340
330
1F
100
AcDbEntity
  8
0
 62
     0
100
AcDbLine
 10
216.4179183942236
 20
195.3321044831689
 30
0.0
 11
207.9179183950365
 21
195.3321044831688
 31
0.0
  0
ARC
  5
2346
330
1F
100
AcDbEntity
  8
0
 62
     0
100
AcDbCircle
 10
209.9179183948453
 20
184.7899873496469
 30
0.0
 40
0.9999999999043879
100
AcDbArc
 50
0.0
 51
60.00000000000028
  0
LINE
  5
2349
330
1F
100
AcDbEntity
  8
0
 62
     0
100
AcDbLine
 10
222.4179183942499
 20
185.6560127523808
 30
0.0
 11
223.4179183942544
 21
186.233363021573
 31
0.0
  0
ARC
  5
234D
330
1F
100
AcDbEntity
  8
0
 62
     0
100
AcDbCircle
 10
222.9179183942521
 20
184.7899873485926
 30
0.0
 40
1.000000000004388
100
AcDbArc
 50
119.9999999999997
 51
180.0
  0
LINE
  5
2351
330
1F
100
AcDbEntity
  8
AM_4
100
AcDbLine
 10
222.8764183942521
 20
187.3321044831336
 30
0.0
 11
222.8764183942521
 21
185.9207278508051
 31
0.0
  0
LINE
  5
2352
330
1F
100
AcDbEntity
  8
0
 62
     0
100
AcDbLine
 10
223.4179183942544
 20
187.3321044831336
 30
0.0
 11
223.4179183942545
 21
186.2333630215727
 31
0.0
  0
LINE
  5
2353
330
1F
100
AcDbEntity
  8
0
 62
     0
100
AcDbLine
 10
222.8764183942522
 20
186.2333630216093
 30
0.0
 11
223.4179183942545
 21
186.2333630215727
 31
0.0
  0
LINE
  5
2354
330
1F
100
AcDbEntity
  8
AM_0
100
AcDbLine
 10
222.8764183942522
 20
186.2333630216093
 30
0.0
 11
216.4179183942236
 21
186.2333630220462
 31
0.0
  0
LINE
  5
2362
330
1F
100
AcDbEntity
  8
0
 62
     0
100
AcDbLine
 10
209.9594183945657
 20
186.2333630224835
 30
0.0
 11
209.4179183945633
 21
186.2333630225201
 31
0.0
  0
LINE
  5
2363
330
1F
100
AcDbEntity
  8
AM_4
100
AcDbLine
 10
209.9594183947142
 20
187.3321044840075
 30
0.0
 11
209.9594183945232
 21
185.920727851679
 31
0.0
  0
LINE
  5
2364
330
1F
100
AcDbEntity
  8
0
 62
     0
100
AcDbLine
 10
209.4179183947118
 20
187.3321044840808
 30
0.0
 11
209.4179183945632
 21
186.2333630225199
 31
0.0
  0
LINE
  5
2365
330
1F
100
AcDbEntity
  8
0
 62
     0
100
AcDbLine
 10
209.9594183945655
 20
186.2333630224832
 30
0.0
 11
209.4179183945632
 21
186.2333630225199
 31
0.0
  0
LINE
  5
2366
330
1F
100
AcDbEntity
  8
AM_0
100
AcDbLine
 10
209.9594183945655
 20
186.2333630224832
 30
0.0
 11
216.417918394594
 21
186.2333630220462
 31
0.0
  0
LINE
  5
2367
330
1F
100
AcDbEntity
  8
0
 62
     0
100
AcDbLine
 10
210.4179183936894
 20
185.6560127531928
 30
0.0
 11
209.4179183937631
 21
186.2333630225203
 31
0.0
  0
LINE
  5
2368
330
1F
100
AcDbEntity
  8
AM_0
100
AcDbLine
 10
221.9179183875709
 20
184.7899873485926
 30
0.0
 11
210.9179183880728
 21
184.7899873496177
 31
0.0
  0
LINE
  5
24A5
330
1F
100
AcDbEntity
  8
0
 62
     0
100
AcDbLine
 10
276.3690090610361
 20
157.8321044829557
 30
0.0
 11
276.3690090610361
 21
163.0465705770231
 31
0.0
  0
ARC
  5
24A8
330
1F
100
AcDbEntity
  8
0
 62
     0
100
AcDbCircle
 10
264.8690090610362
 20
163.0465705770231
 30
0.0
 40
2.5
100
AcDbArc
 50
134.9999999999999
 51
180.0
  0
LINE
  5
24A9
330
1F
100
AcDbEntity
  8
0
 62
     0
100
AcDbLine
 10
263.1012421080697
 20
164.8143375299895
 30
0.0
 11
263.8690090607351
 21
165.2576079867857
 31
0.0
  0
LINE
  5
24AA
330
1F
100
AcDbEntity
  8
0
 62
     0
100
AcDbLine
 10
262.3690090610361
 20
163.0465705770231
 30
0.0
 11
262.3690090610361
 21
157.8321044829557
 31
0.0
  0
LINE
  5
24C2
330
1F
100
AcDbEntity
  8
AM_0
100
AcDbLine
 10
212.0246058942239
 20
155.3321044829558
 30
0.0
 11
220.8112308942238
 21
155.3321044829558
 31
0.0
  0
LINE
  5
24C3
330
1F
100
AcDbEntity
  8
AM_0
100
AcDbLine
 10
212.2166387673661
 20
149.1870525423994
 30
0.0
 11
220.6191980210812
 21
149.1870525423994
 31
0.0
  0
LINE
  5
24E7
330
1F
100
AcDbEntity
  8
0
 62
     0
100
AcDbLine
 10
221.9940388520059
 20
165.6136346119301
 30
0.0
 11
212.8074912776579
 21
165.6136346136423
 31
0.0
  0
LINE
  5
250B
330
1F
100
AcDbEntity
  8
0
 62
     0
100
AcDbLine
 10
221.9940388520059
 20
165.6136346119301
 30
0.0
 11
212.8074912776579
 21
165.6136346136423
 31
0.0
  0
LINE
  5
2529
330
1F
100
AcDbEntity
  8
0
 62
     0
100
AcDbLine
 10
209.5989109560804
 20
163.7251300370861
 30
0.0
 11
212.8074912776579
 21
165.6136346136423
 31
0.0
  0
LINE
  5
252A
330
1F
100
AcDbEntity
  8
0
 62
     0
100
AcDbLine
 10
211.4179183830723
 20
157.8321044838877
 30
0.0
 11
211.4179183840042
 21
162.8321044838879
 31
0.0
  0
LINE
  5
252B
330
1F
100
AcDbEntity
  8
0
 62
     0
100
AcDbLine
 10
221.4179183830723
 20
157.8321044820238
 30
0.0
 11
221.4179183840042
 21
162.832104482024
 31
0.0
  0
LINE
  5
252C
330
1F
100
AcDbEntity
  8
0
 62
     0
100
AcDbLine
 10
212.8074912796651
 20
176.3823982689277
 30
0.0
 11
212.8074912776579
 21
165.6136346136423
 31
0.0
  0
LINE
  5
252D
330
1F
100
AcDbEntity
  8
0
100
AcDbLine
 10
220.4179183841906
 20
163.8321044822104
 30
0.0
 11
212.4179183841906
 21
163.8321044837015
 31
0.0
  0
ARC
  5
252F
330
1F
100
AcDbEntity
  8
0
 62
     0
100
AcDbCircle
 10
210.9179183865353
 20
176.3823982692799
 30
0.0
 40
1.889572893129809
100
AcDbArc
 50
359.9999999893207
 51
89.99999998932066
  0
LINE
  5
2537
330
1F
100
AcDbEntity
  8
AM_0
100
AcDbLine
 10
221.4254779825967
 20
157.8321044820224
 30
0.0
 11
211.4103587835479
 21
157.8321044838892
 31
0.0
  0
ARC
  5
253E
330
1F
100
AcDbEntity
  8
0
100
AcDbCircle
 10
212.4179183840042
 20
162.8321044837015
 30
0.0
 40
1.0
100
AcDbArc
 50
89.99999998932066
 51
179.9999999893206
  0
ARC
  5
253F
330
1F
100
AcDbEntity
  8
0
100
AcDbCircle
 10
220.4179183840042
 20
162.8321044822104
 30
0.0
 40
1.0
100
AcDbArc
 50
359.9999999893207
 51
89.99999998932066
  0
LINE
  5
2540
330
1F
100
AcDbEntity
  8
AM_0
100
AcDbLine
 10
264.5867294341785
 20
149.1870525423996
 30
0.0
 11
264.3614494615118
 21
156.3960116677339
 31
0.0
  0
LINE
  5
2541
330
1F
100
AcDbEntity
  8
AM_4
100
AcDbLine
 10
264.9756965610362
 20
155.3321044829559
 30
0.0
 11
264.3614494615118
 21
156.3960116677338
 31
0.0
  0
LINE
  5
2542
330
1F
100
AcDbEntity
  8
AM_4
100
AcDbLine
 10
265.2009765337029
 20
148.1231453576214
 30
0.0
 11
264.9756965610365
 21
155.3321044829559
 31
0.0
  0
LINE
  5
2543
330
1F
100
AcDbEntity
  8
AM_0
100
AcDbLine
 10
265.1677294341787
 20
149.1870525423995
 30
0.0
 11
264.5867294341786
 21
149.1870525423995
 31
0.0
  0
LINE
  5
2544
330
1F
100
AcDbEntity
  8
AM_0
100
AcDbLine
 10
265.3690090610362
 20
147.8321044829559
 30
0.0
 11
264.5867294341785
 21
149.1870525423995
 31
0.0
  0
LINE
  5
2545
330
1F
100
AcDbEntity
  8
AM_0
100
AcDbLine
 10
274.1512886878941
 20
149.1870525423999
 30
0.0
 11
274.3765686605606
 21
156.3960116677338
 31
0.0
  0
LINE
  5
2546
330
1F
100
AcDbEntity
  8
AM_4
100
AcDbLine
 10
273.7623215610364
 20
155.332104482956
 30
0.0
 11
274.3765686605605
 21
156.3960116677338
 31
0.0
  0
LINE
  5
2547
330
1F
100
AcDbEntity
  8
AM_4
100
AcDbLine
 10
273.5370415883695
 20
148.1231453576214
 30
0.0
 11
273.7623215610364
 21
155.3321044829559
 31
0.0
  0
LINE
  5
2548
330
1F
100
AcDbEntity
  8
AM_0
100
AcDbLine
 10
273.3690090610362
 20
147.8321044829559
 30
0.0
 11
274.1512886878941
 21
149.1870525423998
 31
0.0
  0
LINE
  5
2549
330
1F
100
AcDbEntity
  8
AM_0
100
AcDbLine
 10
274.1512886878941
 20
149.1870525423998
 30
0.0
 11
273.5702886878938
 21
149.1870525423998
 31
0.0
  0
LINE
  5
254A
330
1F
100
AcDbEntity
  8
AM_0
100
AcDbLine
 10
274.3433215610363
 20
155.332104482956
 30
0.0
 11
273.7623215610364
 21
155.332104482956
 31
0.0
  0
LINE
  5
254B
330
1F
100
AcDbEntity
  8
AM_0
100
AcDbLine
 10
274.3765686605606
 20
156.3960116677339
 30
0.0
 11
274.3765686605606
 21
157.8321044829559
 31
0.0
  0
LINE
  5
254C
330
1F
100
AcDbEntity
  8
AM_0
100
AcDbLine
 10
264.3614494615118
 20
156.3960116677339
 30
0.0
 11
264.3614494615118
 21
157.8321044829559
 31
0.0
  0
LINE
  5
254D
330
1F
100
AcDbEntity
  8
AM_0
100
AcDbLine
 10
264.9756965610365
 20
155.3321044829559
 30
0.0
 11
264.3946965610361
 21
155.3321044829559
 31
0.0
  0
LINE
  5
254F
330
1F
100
AcDbEntity
  8
AM_0
100
AcDbLine
 10
273.3690090610362
 20
147.8321044829559
 30
0.0
 11
265.3690090610362
 21
147.8321044829559
 31
0.0
  0
LINE
  5
2550
330
1F
100
AcDbEntity
  8
AM_0
100
AcDbLine
 10
264.9756965610365
 20
155.3321044829559
 30
0.0
 11
273.7623215610364
 21
155.3321044829559
 31
0.0
  0
LINE
  5
2551
330
1F
100
AcDbEntity
  8
AM_0
100
AcDbLine
 10
265.1677294341787
 20
149.1870525423995
 30
0.0
 11
273.5702886878938
 21
149.1870525423995
 31
0.0
  0
LINE
  5
2552
330
1F
100
AcDbEntity
  8
AM_0
100
AcDbLine
 10
264.3614494615118
 20
157.8321044829559
 30
0.0
 11
274.3765686605606
 21
157.8321044829559
 31
0.0
  0
LINE
  5
2553
330
1F
100
AcDbEntity
  8
AM_0
100
AcDbLine
 10
262.3690090610361
 20
157.8321044829557
 30
0.0
 11
276.3690090610361
 21
157.8321044829557
 31
0.0
  0
LINE
  5
25BC
330
1F
100
AcDbEntity
  8
AM_0
100
AcDbLine
 10
262.3690090610362
 20
170.8321044829558
 30
0.0
 11
262.3690090610362
 21
175.8321044829558
 31
0.0
  0
LINE
  5
25BD
330
1F
100
AcDbEntity
  8
AM_0
100
AcDbLine
 10
262.3690090610362
 20
170.8321044829558
 30
0.0
 11
262.3690090610362
 21
165.8321044829558
 31
0.0
  0
ARC
  5
2611
330
1F
100
AcDbEntity
  8
AM_0
100
AcDbCircle
 10
262.6790090610362
 20
181.0386600987947
 30
0.0
 40
5.206555615838934
100
AcDbArc
 50
270.0
 51
283.212190733429
  0
LINE
  5
2687
330
1F
100
AcDbEntity
  8
AM_0
100
AcDbLine
 10
262.3690090610362
 20
175.8321044829558
 30
0.0
 11
262.6790090610362
 21
175.8321044829558
 31
0.0
  0
LINE
  5
2688
330
1F
100
AcDbEntity
  8
AM_0
100
AcDbLine
 10
262.3690090610362
 20
165.8321044829558
 30
0.0
 11
262.6790090610362
 21
165.8321044829558
 31
0.0
  0
ARC
  5
2689
330
1F
100
AcDbEntity
  8
AM_0
100
AcDbCircle
 10
262.6790090610362
 20
160.6255488671168
 30
0.0
 40
5.206555615838934
100
AcDbArc
 50
76.78780926872351
 51
90.0
  0
ARC
  5
268B
330
1F
100
AcDbEntity
  8
0
 62
     0
100
AcDbCircle
 10
273.8690090610366
 20
163.0465705770232
 30
0.0
 40
2.5
100
AcDbArc
 50
0.0000000000018039
 51
45.00000000000068
  0
LINE
  5
2699
330
1F
100
AcDbEntity
  8
AM_0
100
AcDbLine
 10
199.4179183860545
 20
173.8321044861244
 30
0.0
 11
199.4179183849361
 21
167.8321044861244
 31
0.0
  0
LINE
  5
269A
330
1F
100
AcDbEntity
  8
AM_7
100
AcDbLine
 10
278.2199785446418
 20
170.8321044829558
 30
0.0
 11
260.5180395774305
 21
170.8321044829558
 31
0.0
1001
GENIUS_GENODEF_13
1002
{
1000
HIER
1070
     0
1002
}
1002
{
1000
MANEDIT
1070
     0
1002
}
1002
{
1000
NOSEL
1070
     0
1002
}
1002
{
1000
BEHIND
1070
     0
1002
}
1002
{
1000
OTHER
1070
     0
1002
}
1002
{
1000
REACTOR
1002
}
1001
GENIUS_GENOBJ-N-CEN_13
1002
{
1000
OWNER
1000
GEN
1002
}
1001
GENIUS_GENCEN_19
1002
{
1040
1.397
1002
}
  0
MTEXT
  5
27E4
330
1F
100
AcDbEntity
  8
AM_0
100
AcDbMText
 10
252.2641613856596
 20
235.9578412068945
 30
0.0
 40
1.6
 41
32.31955848564906
 71
     1
 72
     5
  1
{\fMS PGothic|b0|i0|c128|p50;チッコロ　アングル　CH-3106}
 73
     1
 44
1.0
1001
ACAD
1000
ACAD_MTEXT_COLUMN_INFO_BEGIN
1070
    75
1070
     2
1070
    79
1070
     0
1070
    76
1070
     1
1070
    78
1070
     0
1070
    48
1040
32.31955848564906
1070
    49
1040
8.0
1070
    50
1070
     1
1040
0.0
1000
ACAD_MTEXT_COLUMN_INFO_END
1000
MTEXTBEGIN
1070
    73
1070
     1
1070
    44
1040
1.0
1070
    74
1070
     0
1000
MTEXTEND
  0
LINE
  5
2979
330
1F
100
AcDbEntity
  8
AM_0
100
AcDbLine
 10
219.4179183945932
 20
195.3321044831689
 30
0.0
 11
219.4179183945932
 21
195.3321044831689
 31
0.0
  0
LINE
  5
297A
330
1F
100
AcDbEntity
  8
0
 62
     0
100
AcDbLine
 10
207.1679183951074
 20
194.899091781318
 30
0.0
 11
207.9179183950357
 21
195.3321044831688
 31
0.0
  0
LINE
  5
297C
330
1F
100
AcDbEntity
  8
0
 62
     0
100
AcDbLine
 10
207.1673279900938
 20
189.5537923929561
 30
0.0
 11
207.9172207290168
 21
189.1205939627107
 31
0.0
  0
LINE
  5
297D
330
1F
100
AcDbEntity
  8
0
 62
     0
100
AcDbLine
 10
208.4179183945496
 20
188.8321044834296
 30
0.0
 11
207.1679183946691
 21
189.5537923198476
 31
0.0
  0
LINE
  5
297E
330
1F
100
AcDbEntity
  8
0
 62
     0
100
AcDbLine
 10
208.4179183945496
 20
188.8321044834296
 30
0.0
 11
208.4179183949879
 21
187.3321044839337
 31
0.0
  0
LINE
  5
297F
330
1F
100
AcDbEntity
  8
0
 62
     0
100
AcDbLine
 10
208.4179183949879
 20
187.3321044839337
 30
0.0
 11
216.4179183942228
 21
187.3321044831334
 31
0.0
  0
LINE
  5
2980
330
1F
100
AcDbEntity
  8
0
 62
     0
100
AcDbLine
 10
207.1679183951074
 20
194.899091781318
 30
0.0
 11
207.1679183937505
 21
189.5537923211093
 31
0.0
  0
LINE
  5
2981
330
1F
100
AcDbEntity
  8
0
 62
     0
100
AcDbLine
 10
224.91791839426
 20
195.3321044831688
 30
0.0
 11
225.6679183942635
 21
194.8990917812746
 31
0.0
  0
LINE
  5
2982
330
1F
100
AcDbEntity
  8
0
 62
     0
100
AcDbLine
 10
224.4179183938196
 20
188.8321044828373
 30
0.0
 11
225.667918393825
 21
189.5537923193274
 31
0.0
  0
LINE
  5
2983
330
1F
100
AcDbEntity
  8
0
 62
     0
100
AcDbLine
 10
224.417918394258
 20
187.3321044831337
 30
0.0
 11
216.4179183942228
 21
187.3321044831334
 31
0.0
  0
LINE
  5
2984
330
1F
100
AcDbEntity
  8
0
 62
     0
100
AcDbLine
 10
224.4179183943326
 20
188.8321044831334
 30
0.0
 11
224.417918394258
 21
187.3321044831337
 31
0.0
  0
LINE
  5
2985
330
1F
100
AcDbEntity
  8
0
 62
     0
100
AcDbLine
 10
225.6679183942635
 20
194.8990917812746
 30
0.0
 11
225.6679183942635
 21
189.5537923195805
 31
0.0
  0
LINE
  5
2986
330
1F
100
AcDbEntity
  8
0
 62
     0
100
AcDbLine
 10
224.9179183942601
 20
195.3321044831688
 30
0.0
 11
216.4179183942228
 21
195.3321044831689
 31
0.0
  0
LINE
  5
2987
330
1F
100
AcDbEntity
  8
AM_0
100
AcDbLine
 10
221.8903502585592
 20
194.8990917812835
 30
0.0
 11
221.8903502581207
 21
189.5537923193186
 31
0.0
  0
LINE
  5
2988
330
1F
100
AcDbEntity
  8
AM_0
100
AcDbLine
 10
220.1954865298883
 20
194.8990917812835
 30
0.0
 11
220.1954865298882
 21
189.5537923193186
 31
0.0
  0
LINE
  5
2989
330
1F
100
AcDbEntity
  8
AM_0
100
AcDbLine
 10
210.9454865298866
 20
194.8990917802293
 30
0.0
 11
210.945486528857
 21
189.5537923203727
 31
0.0
  0
LINE
  5
298A
330
1F
100
AcDbEntity
  8
AM_0
100
AcDbLine
 10
212.6403502585575
 20
194.8990917805557
 30
0.0
 11
212.6403502548932
 21
189.5537923200463
 31
0.0
  0
ARC
  5
298B
330
1F
100
AcDbEntity
  8
AM_0
100
AcDbCircle
 10
216.4179183941847
 20
178.637997177476
 30
0.0
 40
16.69410730569285
100
AcDbArc
 50
76.92175184739949
 51
103.0782481523331
  0
ARC
  5
298C
330
1F
100
AcDbEntity
  8
AM_0
100
AcDbCircle
 10
223.7791343264022
 20
190.9961978936133
 30
0.0
 40
4.335906589555475
100
AcDbArc
 50
64.17559387687287
 51
115.8244061228562
  0
LINE
  5
298D
330
1F
100
AcDbEntity
  8
AM_0
100
AcDbLine
 10
221.8903502585592
 20
194.8990917812835
 30
0.0
 11
220.1954865298883
 21
194.8990917812835
 31
0.0
  0
ARC
  5
298E
330
1F
100
AcDbEntity
  8
AM_0
100
AcDbCircle
 10
209.0567024628021
 20
190.9961978921953
 30
0.0
 40
4.335906589555475
100
AcDbArc
 50
64.17559388818007
 51
115.8244061341663
  0
LINE
  5
298F
330
1F
100
AcDbEntity
  8
AM_0
100
AcDbLine
 10
210.9454865298933
 20
194.8990917802293
 30
0.0
 11
212.6403502585642
 21
194.8990917805557
 31
0.0
  0
ARC
  5
2990
330
1F
100
AcDbEntity
  8
AM_0
100
AcDbCircle
 10
216.4179183937463
 20
205.8148869231261
 30
0.0
 40
16.69410730569285
100
AcDbArc
 50
256.9217518476669
 51
283.0782481526005
  0
ARC
  5
2991
330
1F
100
AcDbEntity
  8
AM_0
100
AcDbCircle
 10
223.7791343259638
 20
193.4566862069887
 30
0.0
 40
4.335906589555475
100
AcDbArc
 50
244.1755938771402
 51
295.8244061231308
  0
LINE
  5
2992
330
1F
100
AcDbEntity
  8
AM_0
100
AcDbLine
 10
221.8903502581209
 20
189.5537923193186
 30
0.0
 11
220.1954865294499
 21
189.5537923193186
 31
0.0
  0
ARC
  5
2993
330
1F
100
AcDbEntity
  8
AM_0
100
AcDbCircle
 10
209.0567024623638
 20
193.4566862084067
 30
0.0
 40
4.335906589555475
100
AcDbArc
 50
244.1755938658337
 51
295.8244061118199
  0
LINE
  5
2994
330
1F
100
AcDbEntity
  8
AM_0
100
AcDbLine
 10
210.9454865294549
 20
189.5537923203727
 30
0.0
 11
212.6403502581259
 21
189.5537923200463
 31
0.0
  0
LINE
  5
2995
330
1F
100
AcDbEntity
  8
AM_0
100
AcDbLine
 10
224.4179183938196
 20
188.8321044828373
 30
0.0
 11
208.4179183945496
 21
188.8321044834296
 31
0.0
  0
LINE
  5
2996
330
1F
100
AcDbEntity
  8
0
 62
     0
100
AcDbLine
 10
269.3690090610362
 20
195.332104483169
 30
0.0
 11
261.3690090618013
 21
195.332104483169
 31
0.0
  0
LINE
  5
2997
330
1F
100
AcDbEntity
  8
0
 62
     0
100
AcDbLine
 10
261.3690090618013
 20
188.8321044831336
 30
0.0
 11
261.3690090618013
 21
187.3321044839339
 31
0.0
  0
LINE
  5
2998
330
1F
100
AcDbEntity
  8
0
 62
     0
100
AcDbLine
 10
261.3690090618013
 20
187.3321044839339
 30
0.0
 11
269.3690090610362
 21
187.3321044831337
 31
0.0
  0
LINE
  5
2999
330
1F
100
AcDbEntity
  8
0
 62
     0
100
AcDbLine
 10
277.3690090610713
 20
187.3321044831339
 30
0.0
 11
269.3690090610362
 21
187.3321044831337
 31
0.0
  0
LINE
  5
299A
330
1F
100
AcDbEntity
  8
0
 62
     0
100
AcDbLine
 10
277.3690090610713
 20
188.8321044835956
 30
0.0
 11
277.3690090610713
 21
187.3321044831339
 31
0.0
  0
LINE
  5
299B
330
1F
100
AcDbEntity
  8
0
 62
     0
100
AcDbLine
 10
277.3690090602711
 20
195.332104483169
 30
0.0
 11
269.3690090610362
 21
195.332104483169
 31
0.0
  0
LINE
  5
299C
330
1F
100
AcDbEntity
  8
AM_0
100
AcDbLine
 10
277.3690090610713
 20
188.8321044825413
 30
0.0
 11
261.3690090618013
 21
188.8321044831336
 31
0.0
  0
LINE
  5
299D
330
1F
100
AcDbEntity
  8
AM_0
100
AcDbLine
 10
260.8690090610362
 20
194.8990917813181
 30
0.0
 11
261.3690090618013
 21
195.332104483169
 31
0.0
  0
ARC
  5
299E
330
1F
100
AcDbEntity
  8
AM_0
100
AcDbCircle
 10
265.1190090610066
 20
182.7573974158527
 30
0.0
 40
12.57470706731631
100
AcDbArc
 50
74.92028252247374
 51
105.0797174772499
  0
LINE
  5
299F
330
1F
100
AcDbEntity
  8
AM_0
100
AcDbLine
 10
268.3904790310483
 20
194.8990917812998
 30
0.0
 11
270.347539091024
 21
194.8990917812998
 31
0.0
  0
LINE
  5
29A0
330
1F
100
AcDbEntity
  8
AM_0
100
AcDbLine
 10
268.390479031048
 20
189.5537923189079
 30
0.0
 11
268.3904790310483
 21
194.8990917812998
 31
0.0
  0
LINE
  5
29A1
330
1F
100
AcDbEntity
  8
AM_0
100
AcDbLine
 10
270.3475390912433
 20
189.553792318908
 30
0.0
 11
270.3475390912433
 21
194.8990917812998
 31
0.0
  0
LINE
  5
29A2
330
1F
100
AcDbEntity
  8
AM_0
100
AcDbLine
 10
261.8475390910241
 20
194.8990917813157
 30
0.0
 11
260.8690090610362
 21
194.8990917813157
 31
0.0
  0
LINE
  5
29A3
330
1F
100
AcDbEntity
  8
AM_0
100
AcDbLine
 10
261.8475390910241
 20
194.8990917813157
 30
0.0
 11
261.8475390910242
 21
189.553792318892
 31
0.0
  0
LINE
  5
29A4
330
1F
100
AcDbEntity
  8
AM_0
100
AcDbLine
 10
260.8690090610362
 20
194.8990917813157
 30
0.0
 11
260.8690090610362
 21
189.2651171846883
 31
0.0
  0
ARC
  5
29A5
330
1F
100
AcDbEntity
  8
AM_0
100
AcDbCircle
 10
265.1190090610066
 20
201.6954866843551
 30
0.0
 40
12.57470706731631
100
AcDbArc
 50
254.9202825227502
 51
285.0797174775262
  0
LINE
  5
29A6
330
1F
100
AcDbEntity
  8
AM_0
100
AcDbLine
 10
261.8475390910241
 20
189.553792318892
 30
0.0
 11
260.8690090610362
 21
189.553792318892
 31
0.0
  0
LINE
  5
29A7
330
1F
100
AcDbEntity
  8
AM_0
100
AcDbLine
 10
268.3904790310482
 20
189.553792318908
 30
0.0
 11
270.3475390912433
 21
189.553792318908
 31
0.0
  0
ARC
  5
29A8
330
1F
100
AcDbEntity
  8
AM_0
100
AcDbCircle
 10
273.6190090601348
 20
182.757397415538
 30
0.0
 40
12.57470706731631
100
AcDbArc
 50
74.92028251850683
 51
105.0797174732829
  0
LINE
  5
29A9
330
1F
100
AcDbEntity
  8
AM_0
100
AcDbLine
 10
276.8904790310163
 20
194.8990917807589
 30
0.0
 11
277.8690090610041
 21
194.8990917806865
 31
0.0
  0
LINE
  5
29AA
330
1F
100
AcDbEntity
  8
AM_0
100
AcDbLine
 10
276.8904790310161
 20
194.8990917807589
 30
0.0
 11
276.8904790308397
 21
189.5537923183351
 31
0.0
  0
ARC
  5
29AB
330
1F
100
AcDbEntity
  8
AM_0
100
AcDbCircle
 10
273.6190090615797
 20
201.6954866840405
 30
0.0
 40
12.57470706731631
100
AcDbArc
 50
254.9202825182302
 51
285.0797174730064
  0
LINE
  5
29AC
330
1F
100
AcDbEntity
  8
AM_0
100
AcDbLine
 10
276.8904790306633
 20
189.5537923183351
 30
0.0
 11
277.8690090606511
 21
189.5537923182627
 31
0.0
  0
LINE
  5
29AD
330
1F
100
AcDbEntity
  8
AM_0
100
AcDbLine
 10
277.8690090610361
 20
194.8990917813181
 30
0.0
 11
277.3690090602711
 21
195.332104483169
 31
0.0
  0
LINE
  5
29AE
330
1F
100
AcDbEntity
  8
AM_0
100
AcDbLine
 10
277.8690090610361
 20
194.8990917813157
 30
0.0
 11
277.8690090610361
 21
189.2651171846883
 31
0.0
  0
LINE
  5
29AF
330
1F
100
AcDbEntity
  8
0
100
AcDbLine
 10
224.417918394258
 20
188.8321044831334
 30
0.0
 11
208.4179183949879
 21
188.8321044831334
 31
0.0
  0
LINE
  5
29B0
330
1F
100
AcDbEntity
  8
AM_0
100
AcDbLine
 10
260.8690090610362
 20
189.2651171846883
 30
0.0
 11
261.3690090618013
 21
188.8321044828375
 31
0.0
  0
LINE
  5
29B1
330
1F
100
AcDbEntity
  8
AM_0
100
AcDbLine
 10
277.8690090610361
 20
189.2651171846883
 30
0.0
 11
277.369009060271
 21
188.8321044828375
 31
0.0
  0
LINE
  5
2A98
330
1F
100
AcDbEntity
  8
0
 62
     0
100
AcDbLine
 10
216.0612722006486
 20
174.0295899135152
 30
0.0
 11
214.8162570133773
 21
170.1978271681171
 31
0.0
  0
LINE
  5
2A99
330
1F
100
AcDbEntity
  8
0
 62
     0
100
AcDbLine
 10
216.7745645877986
 20
174.0295899135152
 30
0.0
 11
218.0195797750699
 21
170.1978271681171
 31
0.0
  0
ARC
  5
2A9A
330
1F
100
AcDbEntity
  8
0
 62
     0
100
AcDbCircle
 10
216.4179183942236
 20
171.9720677543304
 30
0.0
 40
0.149999999985
100
AcDbArc
 50
18.00000000000053
 51
161.9999999999994
  0
ARC
  5
2A9B
330
1F
100
AcDbEntity
  8
0
 62
     0
100
AcDbCircle
 10
216.4179183942236
 20
165.8745677549402
 30
0.0
 40
2.999999999699999
100
AcDbArc
 50
55.822409278222
 51
124.177590721778
  0
LINE
  5
2A9C
330
1F
100
AcDbEntity
  8
0
 62
     0
100
AcDbLine
 10
215.7282763390382
 20
169.6995677545577
 30
0.0
 11
217.107560449409
 21
169.6995677545577
 31
0.0
  0
LINE
  5
2A9D
330
1F
100
AcDbEntity
  8
0
 62
     0
100
AcDbLine
 10
216.2752599167936
 20
172.0184203034821
 30
0.0
 11
215.5856178616082
 21
169.8959203036943
 31
0.0
  0
ARC
  5
2A9E
330
1F
100
AcDbEntity
  8
0
 62
     0
100
AcDbCircle
 10
214.2816279092527
 20
169.5637085410711
 30
0.0
 40
0.3749999999625
100
AcDbArc
 50
90.0
 51
194.9999999999996
  0
LINE
  5
2A9F
330
1F
100
AcDbEntity
  8
0
 62
     0
100
AcDbLine
 10
214.1597567135419
 20
168.5696492961541
 30
0.0
 11
213.9194057244306
 21
169.4666513991674
 31
0.0
  0
ARC
  5
2AA0
330
1F
100
AcDbEntity
  8
0
 62
     0
100
AcDbCircle
 10
214.4596108198023
 20
170.3137085409961
 30
0.0
 40
0.3749999999625
100
AcDbArc
 50
270.0
 51
341.9999999999995
  0
LINE
  5
2AA1
330
1F
100
AcDbEntity
  8
0
 62
     0
100
AcDbLine
 10
214.2816279092527
 20
169.9387085410336
 30
0.0
 11
214.4596108198023
 21
169.9387085410336
 31
0.0
  0
ARC
  5
2AA2
330
1F
100
AcDbEntity
  8
0
 62
     0
100
AcDbCircle
 10
215.7282763390382
 20
169.8495677545427
 30
0.0
 40
0.149999999985
100
AcDbArc
 50
161.9999999999994
 51
270.0
  0
ARC
  5
2AA3
330
1F
100
AcDbEntity
  8
0
 62
     0
100
AcDbCircle
 10
214.5219788983641
 20
168.6667064380579
 30
0.0
 40
0.3749999999625
100
AcDbArc
 50
194.999999999998
 51
304.1775907217779
  0
ARC
  5
2AA4
330
1F
100
AcDbEntity
  8
0
 62
     0
100
AcDbCircle
 10
218.5542088791946
 20
169.5637085410711
 30
0.0
 40
0.3749999999625
100
AcDbArc
 50
344.9999999999989
 51
90.0
  0
LINE
  5
2AA5
330
1F
100
AcDbEntity
  8
0
 62
     0
100
AcDbLine
 10
218.9164310640167
 20
169.4666513991674
 30
0.0
 11
218.6760800749052
 21
168.5696492961541
 31
0.0
  0
LINE
  5
2AA6
330
1F
100
AcDbEntity
  8
0
 62
     0
100
AcDbLine
 10
218.6760800749052
 20
168.5696492961541
 30
0.0
 11
218.9164310640167
 21
169.4666513991674
 31
0.0
  0
LINE
  5
2AA7
330
1F
100
AcDbEntity
  8
0
 62
     0
100
AcDbLine
 10
218.3762259686449
 20
169.9387085410336
 30
0.0
 11
218.5542088791946
 21
169.9387085410336
 31
0.0
  0
ARC
  5
2AA8
330
1F
100
AcDbEntity
  8
0
 62
     0
100
AcDbCircle
 10
217.107560449409
 20
169.8495677545427
 30
0.0
 40
0.149999999985
100
AcDbArc
 50
270.0
 51
18.00000000000053
  0
ARC
  5
2AA9
330
1F
100
AcDbEntity
  8
0
 62
     0
100
AcDbCircle
 10
218.3762259686449
 20
170.3137085409961
 30
0.0
 40
0.3749999999625
100
AcDbArc
 50
198.0000000000005
 51
270.0
  0
ARC
  5
2AAA
330
1F
100
AcDbEntity
  8
0
 62
     0
100
AcDbCircle
 10
218.3138578900832
 20
168.6667064380579
 30
0.0
 40
0.3749999999625
100
AcDbArc
 50
235.822409278222
 51
345.000000000002
  0
ARC
  5
2AAB
330
1F
100
AcDbEntity
  8
0
 62
     0
100
AcDbCircle
 10
216.4179183942236
 20
173.9137085406362
 30
0.0
 40
0.3749999999625
100
AcDbArc
 50
18.00000000000053
 51
161.9999999999994
  0
LINE
  5
2AAC
330
1F
100
AcDbEntity
  8
0
 62
     0
100
AcDbLine
 10
204.9179183845634
 20
165.8321044850993
 30
0.0
 11
208.4179183937473
 21
165.8321044834323
 31
0.0
  0
LINE
  5
2AAD
330
1F
100
AcDbEntity
  8
0
 62
     0
100
AcDbLine
 10
204.9179183864273
 20
175.832104482956
 30
0.0
 11
208.4179183942236
 21
175.832104482956
 31
0.0
  0
LINE
  5
2AAE
330
1F
100
AcDbEntity
  8
0
100
AcDbLine
 10
209.4179183942236
 20
174.832104482956
 30
0.0
 11
209.4179183942236
 21
166.8321044834323
 31
0.0
  0
LINE
  5
2AAF
330
1F
100
AcDbEntity
  8
0
 62
     0
100
AcDbLine
 10
214.4596108198023
 20
169.9387085410336
 30
0.0
 11
214.2816279092527
 21
169.9387085410336
 31
0.0
  0
LINE
  5
2AB0
330
1F
100
AcDbEntity
  8
0
 62
     0
100
AcDbLine
 10
214.159756713542
 20
168.5696492961541
 30
0.0
 11
213.9194057244306
 21
169.4666513991674
 31
0.0
  0
LINE
  5
2AB1
330
1F
100
AcDbEntity
  8
0
 62
     0
100
AcDbLine
 10
213.9194057244306
 20
169.4666513991674
 30
0.0
 11
214.159756713542
 21
168.5696492961541
 31
0.0
  0
ARC
  5
2AB2
330
1F
100
AcDbEntity
  8
0
 62
     0
100
AcDbCircle
 10
214.2816279092527
 20
169.5637085410711
 30
0.0
 40
0.3749999999625
100
AcDbArc
 50
90.0
 51
194.9999999999996
  0
LINE
  5
2AB3
330
1F
100
AcDbEntity
  8
0
 62
     0
100
AcDbLine
 10
216.5605768716537
 20
172.0184203034821
 30
0.0
 11
217.2502189268391
 21
169.8959203036943
 31
0.0
  0
ARC
  5
2ABA
330
1F
100
AcDbEntity
  8
0
100
AcDbCircle
 10
208.4179183942236
 20
174.832104482956
 30
0.0
 40
1.0
100
AcDbArc
 50
359.9999999999998
 51
89.99999999999964
  0
ARC
  5
2ABB
330
1F
100
AcDbEntity
  8
0
100
AcDbCircle
 10
208.4179183942236
 20
166.8321044834323
 30
0.0
 40
1.0
100
AcDbArc
 50
269.9999999727112
 51
359.9999999999998
  0
LINE
  5
2AC9
330
1F
100
AcDbEntity
  8
AM_0
100
AcDbLine
 10
263.8690090607351
 20
173.3321044829558
 30
0.0
 11
263.8690090607351
 21
165.2576079867857
 31
0.0
  0
LINE
  5
2AEF
330
1F
100
AcDbEntity
  8
0
 62
     0
100
AcDbLine
 10
275.6367760137653
 20
164.8143375297423
 30
0.0
 11
274.8690090611175
 21
165.2576079865688
 31
0.0
  0
LINE
  5
2AF0
330
1F
100
AcDbEntity
  8
AM_0
100
AcDbLine
 10
276.3690090610361
 20
170.8321044826798
 30
0.0
 11
276.3690090612332
 21
175.8321044826798
 31
0.0
  0
LINE
  5
2AF1
330
1F
100
AcDbEntity
  8
AM_0
100
AcDbLine
 10
276.3690090610361
 20
170.8321044826798
 30
0.0
 11
276.369009060839
 21
165.8321044826798
 31
0.0
  0
ARC
  5
2AF2
330
1F
100
AcDbEntity
  8
AM_0
100
AcDbCircle
 10
276.0590090614385
 20
181.038660098531
 30
0.0
 40
5.206555615838934
100
AcDbArc
 50
256.7878092643142
 51
269.9999999977397
  0
LINE
  5
2AF3
330
1F
100
AcDbEntity
  8
AM_0
100
AcDbLine
 10
276.3690090612332
 20
175.8321044826798
 30
0.0
 11
276.0590090612331
 21
175.8321044826921
 31
0.0
  0
LINE
  5
2AF4
330
1F
100
AcDbEntity
  8
AM_0
100
AcDbLine
 10
276.369009060839
 20
165.8321044826798
 30
0.0
 11
276.059009060839
 21
165.832104482692
 31
0.0
  0
ARC
  5
2AF5
330
1F
100
AcDbEntity
  8
AM_0
100
AcDbCircle
 10
276.0590090606338
 20
160.6255488668531
 30
0.0
 40
5.206555615838934
100
AcDbArc
 50
89.99999999773972
 51
103.212190729015
  0
LINE
  5
2AF6
330
1F
100
AcDbEntity
  8
AM_0
100
AcDbLine
 10
274.8690090611467
 20
175.969920474284
 30
0.0
 11
274.8690090611174
 21
165.2576079865689
 31
0.0
  0
ARC
  5
2BE8
330
1F
100
AcDbEntity
  8
AM_0
100
AcDbCircle
 10
206.6624502194942
 20
211.2091428655964
 30
0.0
 40
1.754268068723236
100
AcDbArc
 50
8.052279597304682
 51
171.9477204026921
  0
ARC
  5
2BE9
330
1F
100
AcDbEntity
  8
AM_0
100
AcDbCircle
 10
212.6916611276447
 20
209.9887114937736
 30
0.0
 40
2.97469944054606
100
AcDbArc
 50
19.12700048611884
 51
160.8729995138811
  0
LINE
  5
2BEA
330
1F
100
AcDbEntity
  8
AM_0
100
AcDbLine
 10
204.9254780622928
 20
211.4548747968732
 30
0.0
 11
204.9254780622928
 21
201.9634109343197
 31
0.0
  0
LINE
  5
2BEB
330
1F
100
AcDbEntity
  8
AM_0
100
AcDbLine
 10
215.5021411155087
 20
210.9634109343197
 30
0.0
 11
215.5021411155088
 21
201.9634109343197
 31
0.0
  0
LINE
  5
2BEC
330
1F
100
AcDbEntity
  8
AM_0
100
AcDbLine
 10
209.8811811397806
 20
210.9634109343195
 30
0.0
 11
209.8811811397807
 21
201.9634109343197
 31
0.0
  0
LINE
  5
2BED
330
1F
100
AcDbEntity
  8
AM_0
100
AcDbLine
 10
208.3994223766956
 20
211.4548747968737
 30
0.0
 11
208.3994223766957
 21
201.9634109343197
 31
0.0
  0
ARC
  5
2BEE
330
1F
100
AcDbEntity
  8
AM_0
100
AcDbCircle
 10
205.9179183942235
 20
210.9634109343197
 30
0.0
 40
2.0
100
AcDbArc
 50
90.0
 51
180.0
1001
GENIUS_GENODEF_13
1002
{
1000
HIER
1070
     0
1002
}
1002
{
1000
MANEDIT
1070
     0
1002
}
1002
{
1000
NOSEL
1070
     0
1002
}
1002
{
1000
BEHIND
1070
     0
1002
}
1002
{
1000
REACTOR
1002
}
1001
GENIUS_GENOBJ-N-FIL_13
1002
{
1000
OWNER
1000
GEN
1002
}
  0
LINE
  5
2BEF
330
1F
100
AcDbEntity
  8
AM_0
100
AcDbLine
 10
205.9179183942235
 20
212.9634109343197
 30
0.0
 11
216.4179183942235
 21
212.9634109343197
 31
0.0
  0
LINE
  5
2BF0
330
1F
100
AcDbEntity
  8
AM_0
100
AcDbLine
 10
205.9179183942231
 20
200.9634109343194
 30
0.0
 11
216.4179183942235
 21
200.9634109343194
 31
0.0
  0
LINE
  5
2BF1
330
1F
100
AcDbEntity
  8
AM_0
100
AcDbLine
 10
204.4179183942236
 20
201.9634109343193
 30
0.0
 11
216.4179183942235
 21
201.9634109343197
 31
0.0
  0
LINE
  5
2BF2
330
1F
100
AcDbEntity
  8
AM_0
100
AcDbLine
 10
205.9179183942231
 20
201.9634109343194
 30
0.0
 11
205.9179183942231
 21
200.9634109343194
 31
0.0
  0
LINE
  5
2BF3
330
1F
100
AcDbEntity
  8
AM_0
100
AcDbLine
 10
203.9179183942235
 20
210.9634109343197
 30
0.0
 11
203.9179183942235
 21
202.4634109343193
 31
0.0
  0
ARC
  5
2BF4
330
1F
100
AcDbEntity
  8
AM_0
100
AcDbCircle
 10
204.4179183942236
 20
202.4634109343193
 30
0.0
 40
0.5
100
AcDbArc
 50
180.0
 51
270.0000000000017
  0
LINE
  5
2BF5
330
1F
100
AcDbEntity
  8
AM_0
100
AcDbLine
 10
206.4179183942234
 20
214.9634109343197
 30
0.0
 11
226.4179183942236
 21
214.9634109343197
 31
0.0
  0
ARC
  5
2BF6
330
1F
100
AcDbEntity
  8
AM_0
100
AcDbCircle
 10
206.4179183942234
 20
214.4634109343197
 30
0.0
 40
0.5
100
AcDbArc
 50
90.0
 51
180.0
  0
ARC
  5
2BF7
330
1F
100
AcDbEntity
  8
AM_0
100
AcDbCircle
 10
226.4179183942236
 20
214.4634109343197
 30
0.0
 40
0.5
100
AcDbArc
 50
0.0
 51
90.0
  0
LINE
  5
2BF8
330
1F
100
AcDbEntity
  8
AM_0
100
AcDbLine
 10
205.9179183942235
 20
212.9634109343197
 30
0.0
 11
205.9179183942235
 21
214.4634109343197
 31
0.0
  0
ARC
  5
2BF9
330
1F
100
AcDbEntity
  8
AM_0
100
AcDbCircle
 10
226.1733865689528
 20
211.2091428655963
 30
0.0
 40
1.754268068723236
100
AcDbArc
 50
8.052279597307906
 51
171.9477204026953
  0
ARC
  5
2BFA
330
1F
100
AcDbEntity
  8
AM_0
100
AcDbCircle
 10
220.1441756608022
 20
209.9887114937736
 30
0.0
 40
2.97469944054606
100
AcDbArc
 50
19.12700048611884
 51
160.8729995138811
  0
LINE
  5
2BFB
330
1F
100
AcDbEntity
  8
AM_0
100
AcDbLine
 10
227.9103587261542
 20
211.4548747968731
 30
0.0
 11
227.9103587261541
 21
201.9634109343196
 31
0.0
  0
LINE
  5
2BFC
330
1F
100
AcDbEntity
  8
AM_0
100
AcDbLine
 10
217.3336956729382
 20
210.9634109343197
 30
0.0
 11
217.333695672938
 21
201.9634109343197
 31
0.0
  0
LINE
  5
2BFD
330
1F
100
AcDbEntity
  8
AM_0
100
AcDbLine
 10
222.9546556486663
 20
210.9634109343195
 30
0.0
 11
222.9546556486662
 21
201.9634109343196
 31
0.0
  0
LINE
  5
2BFE
330
1F
100
AcDbEntity
  8
AM_0
100
AcDbLine
 10
224.4364144117514
 20
211.4548747968737
 30
0.0
 11
224.4364144117512
 21
201.9634109343196
 31
0.0
  0
ARC
  5
2BFF
330
1F
100
AcDbEntity
  8
AM_0
100
AcDbCircle
 10
226.9179183942235
 20
210.9634109343196
 30
0.0
 40
2.0
100
AcDbArc
 50
0.0
 51
90.0
1001
GENIUS_GENODEF_13
1002
{
1000
HIER
1070
     0
1002
}
1002
{
1000
MANEDIT
1070
     0
1002
}
1002
{
1000
NOSEL
1070
     0
1002
}
1002
{
1000
BEHIND
1070
     0
1002
}
1002
{
1000
REACTOR
1002
}
1001
GENIUS_GENOBJ-N-FIL_13
1002
{
1000
OWNER
1000
GEN
1002
}
  0
LINE
  5
2C00
330
1F
100
AcDbEntity
  8
AM_0
100
AcDbLine
 10
226.9179183942235
 20
212.9634109343196
 30
0.0
 11
216.4179183942235
 21
212.9634109343197
 31
0.0
  0
LINE
  5
2C01
330
1F
100
AcDbEntity
  8
AM_0
100
AcDbLine
 10
226.9179183942238
 20
200.9634109343193
 30
0.0
 11
216.4179183942234
 21
200.9634109343194
 31
0.0
  0
LINE
  5
2C02
330
1F
100
AcDbEntity
  8
AM_0
100
AcDbLine
 10
228.4179183942233
 20
201.9634109343192
 30
0.0
 11
216.4179183942234
 21
201.9634109343197
 31
0.0
  0
LINE
  5
2C03
330
1F
100
AcDbEntity
  8
AM_0
100
AcDbLine
 10
226.9179183942238
 20
201.9634109343193
 30
0.0
 11
226.9179183942238
 21
200.9634109343193
 31
0.0
  0
LINE
  5
2C04
330
1F
100
AcDbEntity
  8
AM_0
100
AcDbLine
 10
228.9179183942235
 20
210.9634109343196
 30
0.0
 11
228.9179183942233
 21
202.4634109343192
 31
0.0
  0
ARC
  5
2C05
330
1F
100
AcDbEntity
  8
AM_0
100
AcDbCircle
 10
228.4179183942233
 20
202.4634109343192
 30
0.0
 40
0.5
100
AcDbArc
 50
269.9999999999984
 51
0.0
  0
LINE
  5
2C06
330
1F
100
AcDbEntity
  8
AM_0
100
AcDbLine
 10
226.9179183942235
 20
212.9634109343196
 30
0.0
 11
226.9179183942235
 21
214.4634109343197
 31
0.0
  0
ARC
  5
2C07
330
1F
100
AcDbEntity
  8
AM_0
100
AcDbCircle
 10
269.3690090610358
 20
209.7828960605751
 30
0.0
 40
3.182186574793173
100
AcDbArc
 50
21.77582284696155
 51
158.2241771530348
  0
LINE
  5
2C08
330
1F
100
AcDbEntity
  8
AM_0
100
AcDbLine
 10
272.3241226002525
 20
210.9634109343196
 30
0.0
 11
272.3241226002526
 21
201.9634109343197
 31
0.0
  0
LINE
  5
2C09
330
1F
100
AcDbEntity
  8
AM_0
100
AcDbLine
 10
266.4138955218191
 20
210.9634109343195
 30
0.0
 11
266.4138955218191
 21
201.9634109343197
 31
0.0
  0
ARC
  5
2C0A
330
1F
100
AcDbEntity
  8
AM_0
100
AcDbCircle
 10
258.8690090610358
 20
210.9634109343196
 30
0.0
 40
2.0
100
AcDbArc
 50
90.0
 51
180.0
1001
GENIUS_GENODEF_13
1002
{
1000
HIER
1070
     0
1002
}
1002
{
1000
MANEDIT
1070
     0
1002
}
1002
{
1000
NOSEL
1070
     0
1002
}
1002
{
1000
BEHIND
1070
     0
1002
}
1002
{
1000
REACTOR
1002
}
1001
GENIUS_GENOBJ-N-FIL_13
1002
{
1000
OWNER
1000
GEN
1002
}
  0
LINE
  5
2C0B
330
1F
100
AcDbEntity
  8
AM_0
100
AcDbLine
 10
258.8690090610358
 20
212.9634109343196
 30
0.0
 11
269.3690090610358
 21
212.9634109343196
 31
0.0
  0
LINE
  5
2C0C
330
1F
100
AcDbEntity
  8
AM_0
100
AcDbLine
 10
258.8690090610354
 20
200.9634109343193
 30
0.0
 11
269.3690090610358
 21
200.9634109343193
 31
0.0
  0
LINE
  5
2C0D
330
1F
100
AcDbEntity
  8
AM_0
100
AcDbLine
 10
257.3690090610359
 20
201.9634109343193
 30
0.0
 11
269.3690090610358
 21
201.9634109343197
 31
0.0
  0
LINE
  5
2C0E
330
1F
100
AcDbEntity
  8
AM_0
100
AcDbLine
 10
258.8690090610354
 20
201.9634109343193
 30
0.0
 11
258.8690090610354
 21
200.9634109343193
 31
0.0
  0
LINE
  5
2C0F
330
1F
100
AcDbEntity
  8
AM_0
100
AcDbLine
 10
256.8690090610358
 20
210.9634109343196
 30
0.0
 11
256.8690090610359
 21
202.4634109343193
 31
0.0
  0
ARC
  5
2C10
330
1F
100
AcDbEntity
  8
AM_0
100
AcDbCircle
 10
257.3690090610359
 20
202.4634109343193
 30
0.0
 40
0.5
100
AcDbArc
 50
180.0
 51
270.0000000000017
  0
LINE
  5
2C11
330
1F
100
AcDbEntity
  8
AM_0
100
AcDbLine
 10
259.3690090610358
 20
214.9634109343196
 30
0.0
 11
279.3690090610364
 21
214.9634109343196
 31
0.0
  0
ARC
  5
2C12
330
1F
100
AcDbEntity
  8
AM_0
100
AcDbCircle
 10
259.3690090610358
 20
214.4634109343197
 30
0.0
 40
0.5
100
AcDbArc
 50
90.0
 51
180.0
  0
ARC
  5
2C13
330
1F
100
AcDbEntity
  8
AM_0
100
AcDbCircle
 10
279.3690090610364
 20
214.4634109343197
 30
0.0
 40
0.5
100
AcDbArc
 50
0.0000000000032569
 51
90.0
  0
LINE
  5
2C14
330
1F
100
AcDbEntity
  8
AM_0
100
AcDbLine
 10
258.8690090610358
 20
212.9634109343196
 30
0.0
 11
258.8690090610358
 21
214.4634109343197
 31
0.0
  0
ARC
  5
2C15
330
1F
100
AcDbEntity
  8
AM_0
100
AcDbCircle
 10
279.8690090610365
 20
210.9634109343202
 30
0.0
 40
2.0
100
AcDbArc
 50
0.0000000000032569
 51
90.00000000000325
1001
GENIUS_GENODEF_13
1002
{
1000
HIER
1070
     0
1002
}
1002
{
1000
MANEDIT
1070
     0
1002
}
1002
{
1000
NOSEL
1070
     0
1002
}
1002
{
1000
BEHIND
1070
     0
1002
}
1002
{
1000
REACTOR
1002
}
1001
GENIUS_GENOBJ-N-FIL_13
1002
{
1000
OWNER
1000
GEN
1002
}
  0
LINE
  5
2C16
330
1F
100
AcDbEntity
  8
AM_0
100
AcDbLine
 10
279.8690090610364
 20
212.9634109343202
 30
0.0
 11
269.3690090610364
 21
212.9634109343196
 31
0.0
  0
LINE
  5
2C17
330
1F
100
AcDbEntity
  8
AM_0
100
AcDbLine
 10
279.8690090610375
 20
200.9634109343199
 30
0.0
 11
269.369009061037
 21
200.9634109343193
 31
0.0
  0
LINE
  5
2C18
330
1F
100
AcDbEntity
  8
AM_0
100
AcDbLine
 10
281.3690090610369
 20
201.96341093432
 30
0.0
 11
269.369009061037
 21
201.9634109343197
 31
0.0
  0
LINE
  5
2C19
330
1F
100
AcDbEntity
  8
AM_0
100
AcDbLine
 10
279.8690090610374
 20
201.9634109343199
 30
0.0
 11
279.8690090610375
 21
200.9634109343199
 31
0.0
  0
LINE
  5
2C1A
330
1F
100
AcDbEntity
  8
AM_0
100
AcDbLine
 10
281.8690090610365
 20
210.9634109343204
 30
0.0
 11
281.8690090610369
 21
202.46341093432
 31
0.0
  0
ARC
  5
2C1B
330
1F
100
AcDbEntity
  8
AM_0
100
AcDbCircle
 10
281.3690090610369
 20
202.46341093432
 30
0.0
 40
0.5
100
AcDbArc
 50
270.0000000000017
 51
0.0000000000032569
  0
LINE
  5
2C1C
330
1F
100
AcDbEntity
  8
AM_0
100
AcDbLine
 10
279.8690090610364
 20
212.9634109343202
 30
0.0
 11
279.8690090610363
 21
214.4634109343197
 31
0.0
  0
LINE
  5
2C1D
330
1F
100
AcDbEntity
  8
AM_0
100
AcDbLine
 10
264.671983625026
 20
210.9634109343196
 30
0.0
 11
264.671983625026
 21
201.9634109343195
 31
0.0
  0
LINE
  5
2C1E
330
1F
100
AcDbEntity
  8
AM_0
100
AcDbLine
 10
259.8905094779584
 20
210.9634109343196
 30
0.0
 11
259.8905094779584
 21
201.9634109343193
 31
0.0
  0
LINE
  5
2C1F
330
1F
100
AcDbEntity
  8
AM_0
100
AcDbLine
 10
264.671983625026
 20
212.9634109343196
 30
0.0
 11
259.8905094779584
 21
212.9634109343196
 31
0.0
  0
ARC
  5
2C20
330
1F
100
AcDbEntity
  8
AM_0
100
AcDbCircle
 10
262.2812465514922
 20
210.5345049956274
 30
0.0
 40
2.428905938692222
100
AcDbArc
 50
10.17085060932878
 51
169.8291493906712
  0
LINE
  5
2C21
330
1F
100
AcDbEntity
  8
AM_0
100
AcDbLine
 10
274.0660344970457
 20
210.9634109343196
 30
0.0
 11
274.0660344970457
 21
201.9634109343195
 31
0.0
  0
LINE
  5
2C22
330
1F
100
AcDbEntity
  8
AM_0
100
AcDbLine
 10
278.8475086441133
 20
210.9634109343196
 30
0.0
 11
278.8475086441133
 21
201.9634109343193
 31
0.0
  0
ARC
  5
2C23
330
1F
100
AcDbEntity
  8
AM_0
100
AcDbCircle
 10
276.4567715705795
 20
210.5345049956274
 30
0.0
 40
2.428905938692222
100
AcDbArc
 50
10.17085060933199
 51
169.829149390668
  0
LINE
  5
2C24
330
1F
100
AcDbEntity
  8
AM_0
100
AcDbLine
 10
203.9179183942235
 20
210.9634109343195
 30
0.0
 11
204.9254780622928
 21
210.9634109343197
 31
0.0
  0
LINE
  5
2C25
330
1F
100
AcDbEntity
  8
AM_0
100
AcDbLine
 10
208.3994223766956
 20
210.9634109343195
 30
0.0
 11
209.8811811397807
 21
210.9634109343197
 31
0.0
  0
LINE
  5
2C26
330
1F
100
AcDbEntity
  8
AM_0
100
AcDbLine
 10
215.5021411155088
 20
210.9634109343195
 30
0.0
 11
217.3336956729381
 21
210.9634109343195
 31
0.0
  0
LINE
  5
2C27
330
1F
100
AcDbEntity
  8
AM_0
100
AcDbLine
 10
222.9546556486663
 20
210.9634109343195
 30
0.0
 11
224.4364144117514
 21
210.9634109343194
 31
0.0
  0
LINE
  5
2C28
330
1F
100
AcDbEntity
  8
AM_0
100
AcDbLine
 10
227.9103587261542
 20
210.9634109343195
 30
0.0
 11
228.9179183942235
 21
210.9634109343194
 31
0.0
  0
LINE
  5
2C29
330
1F
100
AcDbEntity
  8
AM_0
100
AcDbLine
 10
256.8690090610358
 20
210.9634109343195
 30
0.0
 11
259.8905094779584
 21
210.9634109343197
 31
0.0
  0
LINE
  5
2C2A
330
1F
100
AcDbEntity
  8
AM_0
100
AcDbLine
 10
264.671983625026
 20
210.9634109343195
 30
0.0
 11
266.413895521819
 21
210.9634109343195
 31
0.0
  0
LINE
  5
2C2B
330
1F
100
AcDbEntity
  8
AM_0
100
AcDbLine
 10
272.3241226002525
 20
210.9634109343195
 30
0.0
 11
274.0660344970457
 21
210.9634109343196
 31
0.0
  0
LINE
  5
2C2C
330
1F
100
AcDbEntity
  8
AM_0
100
AcDbLine
 10
278.8475086441133
 20
210.9634109343196
 30
0.0
 11
281.8690090610365
 21
210.9634109343214
 31
0.0
  0
ENDSEC
  0
SECTION
  2
OBJECTS
  0
DICTIONARY
  5
C
330
0
100
AcDbDictionary
281
     1
  3
ACAD_2007HEADERVARS_RT
350
2C89
  3
ACAD_COLOR
350
113
  3
ACAD_GROUP
350
D
  3
ACAD_LAYOUT
350
1A
  3
ACAD_MATERIAL
350
112
  3
ACAD_MLEADERSTYLE
350
21CC
  3
ACAD_MLINESTYLE
350
17
  3
ACAD_PLOTSETTINGS
350
19
  3
ACAD_PLOTSTYLENAME
350
E
  3
ACAD_SCALELIST
350
21BA
  3
ACAD_TABLESTYLE
350
F84
  3
ACAD_VISUALSTYLE
350
F73
  3
ACDB_RECOMPOSE_DATA
350
2C87
  3
AcDbVariableDictionary
350
9E
  3
AcmDictionary
350
63
  3
AMG
350
49
  3
AMGSNAPSETTINGS
350
F0
  3
DWGPROPS
350
2C88
  0
DICTIONARY
  5
1064
330
8
100
AcDbDictionary
280
     1
281
     1
  0
DICTIONARY
  5
179
330
2
100
AcDbDictionary
280
     1
281
     1
  3
ACAD_LAYERSTATES
360
2226
  3
AMLAYER_GROUPCOLORS
360
17A
  0
DICTIONARY
  5
2377
330
10
100
AcDbDictionary
280
     1
281
     1
  3
ADSK_XREC_LAYER_RECONCILED
360
2378
  0
DICTIONARY
  5
2379
330
10D
100
AcDbDictionary
280
     1
281
     1
  3
ADSK_XREC_LAYER_RECONCILED
360
237A
  0
DICTIONARY
  5
237B
330
170
100
AcDbDictionary
280
     1
281
     1
  3
ADSK_XREC_LAYER_RECONCILED
360
237C
  0
DICTIONARY
  5
237D
330
66F
100
AcDbDictionary
280
     1
281
     1
  3
ADSK_XREC_LAYER_RECONCILED
360
237E
  0
DICTIONARY
  5
237F
330
6B7
100
AcDbDictionary
280
     1
281
     1
  3
ADSK_XREC_LAYER_RECONCILED
360
2380
  0
DICTIONARY
  5
2381
330
99A
100
AcDbDictionary
280
     1
281
     1
  3
ADSK_XREC_LAYER_RECONCILED
360
2382
  0
DICTIONARY
  5
2383
330
9CF
100
AcDbDictionary
280
     1
281
     1
  3
ADSK_XREC_LAYER_RECONCILED
360
2384
  0
DICTIONARY
  5
2385
330
B4B
100
AcDbDictionary
280
     1
281
     1
  3
ADSK_XREC_LAYER_RECONCILED
360
2386
  0
DICTIONARY
  5
2387
330
B4E
100
AcDbDictionary
280
     1
281
     1
  3
ADSK_XREC_LAYER_RECONCILED
360
2388
  0
DICTIONARY
  5
2389
330
CD1
100
AcDbDictionary
280
     1
281
     1
  3
ADSK_XREC_LAYER_RECONCILED
360
238A
  0
DICTIONARY
  5
238B
330
1BEE
100
AcDbDictionary
280
     1
281
     1
  3
ADSK_XREC_LAYER_RECONCILED
360
238C
  0
DICTIONARY
  5
99
330
1F
100
AcDbDictionary
280
     1
281
     1
  3
ACAD_SORTENTS
360
FF2
  0
DICTIONARY
  5
9AC
330
99E
100
AcDbDictionary
280
     1
281
     1
  0
DICTIONARY
  5
1B46
330
1B18
100
AcDbDictionary
280
     1
281
     1
  0
DICTIONARY
  5
1B69
330
1B68
100
AcDbDictionary
280
     1
281
     1
  0
DICTIONARY
  5
1B6E
330
1B6D
100
AcDbDictionary
280
     1
281
     1
  0
DICTIONARY
  5
1BA9
330
1B76
100
AcDbDictionary
280
     1
281
     1
  0
DICTIONARY
  5
2C89
102
{ACAD_REACTORS
330
C
102
}
330
C
100
AcDbDictionary
281
     1
  3
DIMARCSYM
350
2C8A
  3
DIMLTEX1
350
2C8C
  3
DIMLTEX2
350
2C8D
  3
DIMLTYPE
350
2C8B
  0
DICTIONARY
  5
113
102
{ACAD_REACTORS
330
C
102
}
330
C
100
AcDbDictionary
281
     1
  0
DICTIONARY
  5
D
102
{ACAD_REACTORS
330
C
102
}
330
C
100
AcDbDictionary
281
     1
  0
DICTIONARY
  5
1A
102
{ACAD_REACTORS
330
C
102
}
330
C
100
AcDbDictionary
281
     1
  3
Layout1
350
1E
  3
Layout2
350
26
  3
Model
350
22
  0
DICTIONARY
  5
112
102
{ACAD_REACTORS
330
C
102
}
330
C
100
AcDbDictionary
281
     1
  3
ByBlock
350
9D6
  3
ByLayer
350
9D9
  3
Global
350
2B4
  0
DICTIONARY
  5
21CC
102
{ACAD_REACTORS
330
C
102
}
330
C
100
AcDbDictionary
281
     1
  3
Standard
350
21CD
  0
DICTIONARY
  5
17
102
{ACAD_REACTORS
330
C
102
}
330
C
100
AcDbDictionary
281
     1
  3
Standard
350
18
  0
DICTIONARY
  5
19
102
{ACAD_REACTORS
330
C
102
}
330
C
100
AcDbDictionary
281
     1
  0
ACDBDICTIONARYWDFLT
  5
E
102
{ACAD_REACTORS
330
C
102
}
330
C
100
AcDbDictionary
281
     1
  3
Normal
350
F
100
AcDbDictionaryWithDefault
340
F
  0
DICTIONARY
  5
21BA
102
{ACAD_REACTORS
330
C
102
}
330
C
100
AcDbDictionary
281
     1
  3
A0
350
21BB
  3
A1
350
21BC
  3
A2
350
21BD
  3
A3
350
21BE
  3
A4
350
21BF
  3
A5
350
21C0
  3
A6
350
21C1
  3
A7
350
21C2
  3
A8
350
21C3
  3
A9
350
21C4
  3
B0
350
21C5
  3
B1
350
21C6
  3
B2
350
21C7
  3
B3
350
21C8
  3
B4
350
21C9
  3
B5
350
21CA
  3
B6
350
21CB
  0
DICTIONARY
  5
F84
102
{ACAD_REACTORS
330
C
102
}
330
C
100
AcDbDictionary
281
     1
  3
Standard
350
F85
  0
DICTIONARY
  5
F73
102
{ACAD_REACTORS
330
C
102
}
330
C
100
AcDbDictionary
281
     1
  3
2dWireframe
350
F79
  3
3D Hidden
350
F7B
  3
3dWireframe
350
F7A
  3
Basic
350
F78
  3
Brighten
350
F7F
  3
ColorChange
350
F83
  3
Conceptual
350
F7C
  3
Dim
350
F7E
  3
EdgeColorOff
350
21B9
  3
Facepattern
350
F82
  3
Flat
350
F74
  3
FlatWithEdges
350
F75
  3
Gouraud
350
F76
  3
GouraudWithEdges
350
F77
  3
Hidden
350
21B1
  3
JitterOff
350
21B7
  3
Linepattern
350
F81
  3
OverhangOff
350
21B8
  3
Realistic
350
F7D
  3
Shaded
350
21B6
  3
Shaded with edges
350
21B5
  3
Shades of Gray
350
21B2
  3
Sketchy
350
21B3
  3
Thicken
350
F80
  3
Wireframe
350
21B0
  3
X-Ray
350
21B4
  0
XRECORD
  5
2C87
102
{ACAD_REACTORS
330
C
102
}
330
C
100
AcDbXrecord
280
     1
 90
        1
330
F85
330
27E4
  0
DICTIONARY
  5
9E
102
{ACAD_REACTORS
330
C
102
}
330
C
100
AcDbDictionary
281
     1
  3
CANNOSCALE
350
23E3
  3
CMLEADERSTYLE
350
23E2
  3
CTABLESTYLE
350
1093
  3
DIMASSOC
350
A0
  3
INDEXCTL
350
9F
  3
SORTENTS
350
2C84
  3
XCLIPFRAME
350
2C85
  0
DICTIONARY
  5
63
102
{ACAD_REACTORS
330
C
102
}
330
C
100
AcDbDictionary
281
     1
  3
AcmBOM
350
B85
  3
AcmStdDictionary
350
69
  3
AMDTSECTSYM_ARROWCOLOR
350
FAE
  0
DICTIONARY
  5
49
102
{ACAD_REACTORS
330
C
102
}
330
C
100
AcDbDictionary
281
     1
  0
DICTIONARY
  5
F0
102
{ACAD_REACTORS
330
C
102
}
330
C
100
AcDbDictionary
281
     1
  0
XRECORD
  5
2C88
102
{ACAD_REACTORS
330
C
102
}
330
C
100
AcDbXrecord
280
     1
  1
DWGPROPS COOKIE
  2

  3

  4

  6

  7

  8
user
  9

300
AmdtFileType=84
301
=
302
=
303
=
304
=
305
=
306
=
307
=
308
=
309
=
 40
0.3703128819444444
 41
2454658.658775313
 42
2455694.578088102
  1

 90
        1
  0
DICTIONARY
  5
2226
102
{ACAD_REACTORS
330
179
102
}
330
179
100
AcDbDictionary
281
     1
  0
DICTIONARY
  5
17A
102
{ACAD_REACTORS
330
179
102
}
330
179
100
AcDbDictionary
280
     1
281
     1
  0
XRECORD
  5
2378
102
{ACAD_REACTORS
330
2377
102
}
330
2377
100
AcDbXrecord
280
     1
290
     1
  0
XRECORD
  5
237A
102
{ACAD_REACTORS
330
2379
102
}
330
2379
100
AcDbXrecord
280
     1
290
     1
  0
XRECORD
  5
237C
102
{ACAD_REACTORS
330
237B
102
}
330
237B
100
AcDbXrecord
280
     1
290
     1
  0
XRECORD
  5
237E
102
{ACAD_REACTORS
330
237D
102
}
330
237D
100
AcDbXrecord
280
     1
290
     1
  0
XRECORD
  5
2380
102
{ACAD_REACTORS
330
237F
102
}
330
237F
100
AcDbXrecord
280
     1
290
     1
  0
XRECORD
  5
2382
102
{ACAD_REACTORS
330
2381
102
}
330
2381
100
AcDbXrecord
280
     1
290
     1
  0
XRECORD
  5
2384
102
{ACAD_REACTORS
330
2383
102
}
330
2383
100
AcDbXrecord
280
     1
290
     1
  0
XRECORD
  5
2386
102
{ACAD_REACTORS
330
2385
102
}
330
2385
100
AcDbXrecord
280
     1
290
     1
  0
XRECORD
  5
2388
102
{ACAD_REACTORS
330
2387
102
}
330
2387
100
AcDbXrecord
280
     1
290
     1
  0
XRECORD
  5
238A
102
{ACAD_REACTORS
330
2389
102
}
330
2389
100
AcDbXrecord
280
     1
290
     1
  0
XRECORD
  5
238C
102
{ACAD_REACTORS
330
238B
102
}
330
238B
100
AcDbXrecord
280
     1
290
     1
  0
SORTENTSTABLE
  5
FF2
102
{ACAD_REACTORS
330
99
102
}
330
99
100
AcDbSortentsTable
330
1F
331
22B2
  5
22C6
331
1F1D
  5
1F83
331
29B0
  5
2A98
331
2AAE
  5
2AB0
331
2979
  5
297C
331
2AF5
  5
2AF6
331
2981
  5
2983
331
2989
  5
298B
331
252F
  5
2544
331
24A8
  5
250B
331
2537
  5
2545
331
253F
  5
2543
331
8EA
  5
8FC
331
1F25
  5
22A3
331
2547
  5
254D
331
8F2
  5
904
331
8FA
  5
90C
331
22D2
  5
22E5
331
22DA
  5
2301
331
1931
  5
1EEB
331
1939
  5
1F1E
331
2991
  5
2993
331
2999
  5
299B
331
29A1
  5
29A3
331
2A9F
  5
2AA1
331
29A9
  5
29AB
331
2AA7
  5
2AA9
331
254F
  5
2567
331
2353
  5
2494
331
2363
  5
2497
331
902
  5
914
331
90A
  5
DB8
331
22A3
  5
22C2
331
912
  5
DC6
331
22B3
  5
22C8
331
1F1E
  5
1F84
331
29B1
  5
2A99
331
161C
  5
193A
331
2AAF
  5
2AB3
331
297A
  5
297D
331
2AF6
  5
2B9A
331
2982
  5
2984
331
298A
  5
298C
331
2687
  5
268A
331
24A9
  5
2529
331
2540
  5
2546
331
8EB
  5
8FD
331
1F26
  5
22A4
331
4DD
  5
8EE
331
8F3
  5
905
331
8FB
  5
90D
331
22D3
  5
22E6
331
22DB
  5
2302
331
1932
  5
1EEC
331
193A
  5
1F22
331
2992
  5
2994
331
299A
  5
299C
331
2A98
  5
2A9A
331
29A2
  5
29A4
331
2AA0
  5
2AA2
331
29AA
  5
29AC
331
2548
  5
254E
331
2550
  5
256B
331
2354
  5
2495
331
2364
  5
2498
331
903
  5
915
331
90B
  5
DB9
331
913
  5
DC7
331
1F1F
  5
200A
331
2AA8
  5
2AAA
331
161D
  5
193B
331
2AEF
  5
2AF0
331
2AB0
  5
2ABA
331
2983
  5
2985
331
298B
  5
298D
331
2529
  5
2530
331
2688
  5
268B
331
24AA
  5
252A
331
24C2
  5
252B
331
2541
  5
2547
331
8EC
  5
8FE
331
1F27
  5
22A6
331
4DE
  5
8EF
331
8F4
  5
906
331
8FC
  5
90E
331
1EE8
  5
1F28
331
1933
  5
1EF9
331
D19
  5
161D
331
193B
  5
1F23
331
2993
  5
2995
331
299B
  5
299D
331
2A99
  5
2A9B
331
29A3
  5
29A5
331
2AA1
  5
2AA3
331
29AB
  5
29AD
331
2549
  5
254F
331
234D
  5
2362
331
2551
  5
259A
331
2365
  5
2499
331
904
  5
916
331
2611
  5
2689
331
90C
  5
DBB
331
914
  5
DCD
331
22AD
  5
22C3
331
1F18
  5
1F5B
331
2AA9
  5
2AAB
331
2AF0
  5
2AF1
331
2AB1
  5
2ABB
331
1626
  5
1986
331
297C
  5
297E
331
2984
  5
2986
331
298C
  5
298E
331
252A
  5
2531
331
2689
  5
268C
331
2699
  5
27E4
331
407
  5
8EC
331
233E
  5
2356
331
24C3
  5
252C
331
1F20
  5
200B
331
2542
  5
2548
331
8ED
  5
8FF
331
2346
  5
235D
331
22C5
  5
22D7
331
1F28
  5
22A7
331
8F5
  5
907
331
8FD
  5
90F
331
4E7
  5
8F2
331
22D5
  5
22E7
331
1EE9
  5
1F29
331
DE1
  5
1938
331
1934
  5
1F01
331
193C
  5
1F25
331
2AC9
  5
2AEF
331
2994
  5
2996
331
299C
  5
299E
331
2A9A
  5
2A9C
331
29A4
  5
29A6
331
2AA2
  5
2AA4
331
29AC
  5
29AE
331
254A
  5
2550
331
2552
  5
25E3
331
250B
  5
252F
331
905
  5
917
331
2366
  5
249B
331
1EF9
  5
1F2C
331
90D
  5
DBC
331
1F01
  5
1F5A
331
915
  5
DCE
331
22B6
  5
22C9
331
2AAA
  5
2AAC
331
2AF1
  5
2AF2
331
2AB2
  5
2AC9
331
192D
  5
1A77
331
1627
  5
1987
331
297D
  5
297F
331
2ABA
  5
2AB2
331
2985
  5
2987
331
298D
  5
298F
331
252B
  5
2533
331
2307
  5
234D
331
8E6
  5
8F8
331
269A
  5
2979
331
408
  5
8ED
331
2038
  5
22BD
331
1F21
  5
200C
331
2543
  5
2549
331
6AF
  5
8F7
331
8EE
  5
900
331
22C6
  5
22D8
331
1F29
  5
22A9
331
8F6
  5
908
331
22CE
  5
22E0
331
8FE
  5
910
331
22D6
  5
22E8
331
DE2
  5
1939
331
1935
  5
1F02
331
2995
  5
2997
331
299D
  5
299F
331
2A9B
  5
2A9D
331
29A5
  5
29A7
331
2AA3
  5
2AA5
331
29AD
  5
29AF
331
254B
  5
2551
331
2553
  5
260D
331
4E8
  5
8F4
331
2367
  5
24BE
331
906
  5
97C
331
90E
  5
DBD
331
916
  5
161C
331
22F6
  5
233E
331
2021
  5
22BB
331
2AAB
  5
2AAD
331
2AF2
  5
2AF3
331
2AB3
  5
2AEE
331
297E
  5
2980
331
192E
  5
1AAC
331
2ABB
  5
2AB1
331
2986
  5
2988
331
298E
  5
2990
331
252C
  5
2534
331
24A5
  5
24E7
331
268B
  5
269A
331
2340
  5
2359
331
8E7
  5
8F9
331
1F22
  5
2021
331
2544
  5
254A
331
8EF
  5
901
331
1F2A
  5
22B3
331
8F7
  5
909
331
22CF
  5
22E1
331
1F5A
  5
22BA
331
8FF
  5
911
331
22D7
  5
22E9
331
1EEB
  5
1F2A
331
1936
  5
1F03
331
D24
  5
1626
331
2996
  5
2998
331
299E
  5
29A0
331
2A9C
  5
2A9E
331
29A6
  5
29A8
331
2AA4
  5
2AA6
331
29AE
  5
29B0
331
254C
  5
2552
331
25BC
  5
2687
331
907
  5
D1A
331
2368
  5
24C3
331
90F
  5
DC2
331
22F7
  5
233F
331
22B8
  5
22CA
331
2AAC
  5
2AAE
331
2AF3
  5
2AF4
331
297F
  5
2981
331
192F
  5
1EE8
331
2987
  5
2989
331
298F
  5
2991
331
252D
  5
2535
331
8E8
  5
8FA
331
1F23
  5
2022
331
2545
  5
254B
331
8F0
  5
902
331
1F2B
  5
22B4
331
8F8
  5
90A
331
22D0
  5
22E2
331
22D8
  5
22EA
331
1EEC
  5
1F2B
331
1937
  5
1F18
331
2997
  5
2999
331
1987
  5
1F27
331
299F
  5
29A1
331
2A9D
  5
2A9F
331
29A7
  5
29A9
331
2AA5
  5
2AA7
331
2349
  5
2361
331
29AF
  5
29B1
331
254D
  5
2566
331
2351
  5
2363
331
900
  5
912
331
25BD
  5
2688
331
908
  5
D25
331
1F83
  5
1FAD
331
910
  5
DC3
331
22B9
  5
22CB
331
2AAD
  5
2AAF
331
2AF4
  5
2AF5
331
2980
  5
2982
331
2988
  5
298A
331
253E
  5
2532
331
8E9
  5
8FB
331
1F24
  5
2038
331
2546
  5
254C
331
8F1
  5
903
331
1F2C
  5
22B5
331
8F9
  5
90B
331
22D1
  5
22E3
331
22D9
  5
22EB
331
1930
  5
1EE9
331
1938
  5
1F1D
331
2990
  5
2992
331
2998
  5
299A
331
29A0
  5
29A2
331
2A9E
  5
2AA0
331
29A8
  5
29AA
331
2AA6
  5
2AA8
331
2352
  5
2364
331
24E7
  5
252D
331
901
  5
913
331
2362
  5
2496
331
27E4
  5
297A
331
909
  5
DB7
331
1F84
  5
22A5
331
911
  5
DC5
  0
XRECORD
  5
2C8A
102
{ACAD_REACTORS
330
2C89
102
}
330
2C89
100
AcDbXrecord
280
     1
 70
     1
  0
XRECORD
  5
2C8C
102
{ACAD_REACTORS
330
2C89
102
}
330
2C89
100
AcDbXrecord
280
     1
340
14
  0
XRECORD
  5
2C8D
102
{ACAD_REACTORS
330
2C89
102
}
330
2C89
100
AcDbXrecord
280
     1
340
14
  0
XRECORD
  5
2C8B
102
{ACAD_REACTORS
330
2C89
102
}
330
2C89
100
AcDbXrecord
280
     1
340
14
  0
LAYOUT
  5
1E
102
{ACAD_XDICTIONARY
360
2C8E
102
}
102
{ACAD_REACTORS
330
1A
102
}
330
1A
100
AcDbPlotSettings
  1

  2

  4

  6

 40
0.0
 41
0.0
 42
0.0
 43
0.0
 44
0.0
 45
0.0
 46
0.0
 47
0.0
 48
0.0
 49
0.0
140
0.0
141
0.0
142
1.0
143
1.0
 70
   688
 72
     0
 73
     0
 74
     5
  7
IMAGIO.ctb
 75
    16
147
1.0
148
0.0
149
0.0
100
AcDbLayout
  1
Layout1
 70
     1
 71
     1
 10
0.0
 20
0.0
 11
12.0
 21
9.0
 12
0.0
 22
0.0
 32
0.0
 14
1.000000000000000E+20
 24
1.000000000000000E+20
 34
1.000000000000000E+20
 15
-1.000000000000000E+20
 25
-1.000000000000000E+20
 35
-1.000000000000000E+20
146
0.0
 13
0.0
 23
0.0
 33
0.0
 16
1.0
 26
0.0
 36
0.0
 17
0.0
 27
1.0
 37
0.0
 76
     0
330
1B
  0
LAYOUT
  5
26
102
{ACAD_XDICTIONARY
360
2C91
102
}
102
{ACAD_REACTORS
330
1A
102
}
330
1A
100
AcDbPlotSettings
  1

  2

  4

  6

 40
0.0
 41
0.0
 42
0.0
 43
0.0
 44
0.0
 45
0.0
 46
0.0
 47
0.0
 48
0.0
 49
0.0
140
0.0
141
0.0
142
1.0
143
1.0
 70
   688
 72
     0
 73
     0
 74
     5
  7
IMAGIO.ctb
 75
    16
147
1.0
148
0.0
149
0.0
100
AcDbLayout
  1
Layout2
 70
     1
 71
     2
 10
0.0
 20
0.0
 11
12.0
 21
9.0
 12
0.0
 22
0.0
 32
0.0
 14
0.0
 24
0.0
 34
0.0
 15
0.0
 25
0.0
 35
0.0
146
0.0
 13
0.0
 23
0.0
 33
0.0
 16
1.0
 26
0.0
 36
0.0
 17
0.0
 27
1.0
 37
0.0
 76
     0
330
23
  0
LAYOUT
  5
22
102
{ACAD_XDICTIONARY
360
2394
102
}
102
{ACAD_REACTORS
330
1A
102
}
330
1A
100
AcDbPlotSettings
  1

  2
RICOH imagio MP 5000 RPCS
  4
A3
  6
AM_VIEW1
 40
5.873749732971191
 41
5.873747825622558
 42
5.873748779296875
 43
5.873748779296875
 44
296.9259948730469
 45
419.9466552734374
 46
-5.910751819610652
 47
-5.92184923716951
 48
0.0
 49
0.0
140
0.0
141
0.0
142
1.0
143
0.5
 70
 11956
 72
     1
 73
     1
 74
     2
  7
IMAGIO.ctb
 75
    27
147
2.0
148
-152.054894752037
149
-126.4965168676539
100
AcDbLayout
  1
Model
 70
     1
 71
     0
 10
0.0
 20
0.0
 11
12.0
 21
9.0
 12
0.0
 22
0.0
 32
0.0
 14
0.0
 24
0.0
 34
0.0
 15
0.0
 25
0.0
 35
0.0
146
0.0
 13
0.0
 23
0.0
 33
0.0
 16
1.0
 26
0.0
 36
0.0
 17
0.0
 27
1.0
 37
0.0
 76
     0
330
1F
331
F71
1001
ACAD_PSEXT
1000
RICOH imagio MP 5000 RPCS
1000
RICOH imagio MP 5000 RPCS
1000
192.168.1.151@
1000
RPCS Driver (Windows 2000/XP/Server 2003/Vista)
1070
     0
  0
MATERIAL
  5
9D6
102
{ACAD_XDICTIONARY
360
2C95
102
}
102
{ACAD_REACTORS
330
112
102
}
330
112
100
AcDbMaterial
  1
ByBlock
 73
     1
 78
     1
172
     1
176
     1
270
     1
274
     1
  0
MATERIAL
  5
9D9
102
{ACAD_XDICTIONARY
360
2C97
102
}
102
{ACAD_REACTORS
330
112
102
}
330
112
100
AcDbMaterial
  1
ByLayer
 73
     1
 78
     1
172
     1
176
     1
270
     1
274
     1
  0
MATERIAL
  5
2B4
102
{ACAD_XDICTIONARY
360
2C93
102
}
102
{ACAD_REACTORS
330
112
102
}
330
112
100
AcDbMaterial
  1
Global
 73
     1
 78
     1
172
     1
176
     1
270
     1
274
     1
  0
MLEADERSTYLE
  5
21CD
102
{ACAD_REACTORS
330
21CC
102
}
330
21CC
100
AcDbMLeaderStyle
170
     2
171
     1
172
     0
 90
        2
 40
0.0
 41
0.0
173
     1
 91
-1056964608
340
14
 92
       -2
290
     1
 42
2.0
291
     1
 43
0.36
  3
Standard
 44
4.0
300

342
11
174
     1
178
     6
175
     1
176
     0
 93
-1056964608
 45
4.0
292
     0
297
     0
 46
4.0
 94
-1056964608
 47
1.0
 49
1.0
140
1.0
293
     1
141
0.0
294
     1
177
     0
142
1.0
295
     0
296
     0
143
0.125
1001
ACAD_MLEADERVER
1070
     2
  0
MLINESTYLE
  5
18
102
{ACAD_REACTORS
330
17
102
}
330
17
100
AcDbMlineStyle
  2
STANDARD
 70
     0
  3

 62
   256
 51
90.0
 52
90.0
 71
     2
 49
0.5
 62
   256
  6
BYLAYER
 49
-0.5
 62
   256
  6
BYLAYER
  0
ACDBPLACEHOLDER
  5
F
102
{ACAD_REACTORS
330
E
102
}
330
E
  0
SCALE
  5
21BB
102
{ACAD_REACTORS
330
21BA
102
}
330
21BA
100
AcDbScale
 70
     0
300
1:1
140
1.0
141
1.0
290
     1
  0
SCALE
  5
21BC
102
{ACAD_REACTORS
330
21BA
102
}
330
21BA
100
AcDbScale
 70
     0
300
1:2
140
1.0
141
2.0
290
     0
  0
SCALE
  5
21BD
102
{ACAD_REACTORS
330
21BA
102
}
330
21BA
100
AcDbScale
 70
     0
300
1:4
140
1.0
141
4.0
290
     0
  0
SCALE
  5
21BE
102
{ACAD_REACTORS
330
21BA
102
}
330
21BA
100
AcDbScale
 70
     0
300
1:5
140
1.0
141
5.0
290
     0
  0
SCALE
  5
21BF
102
{ACAD_REACTORS
330
21BA
102
}
330
21BA
100
AcDbScale
 70
     0
300
1:8
140
1.0
141
8.0
290
     0
  0
SCALE
  5
21C0
102
{ACAD_REACTORS
330
21BA
102
}
330
21BA
100
AcDbScale
 70
     0
300
1:10
140
1.0
141
10.0
290
     0
  0
SCALE
  5
21C1
102
{ACAD_REACTORS
330
21BA
102
}
330
21BA
100
AcDbScale
 70
     0
300
1:16
140
1.0
141
16.0
290
     0
  0
SCALE
  5
21C2
102
{ACAD_REACTORS
330
21BA
102
}
330
21BA
100
AcDbScale
 70
     0
300
1:20
140
1.0
141
20.0
290
     0
  0
SCALE
  5
21C3
102
{ACAD_REACTORS
330
21BA
102
}
330
21BA
100
AcDbScale
 70
     0
300
1:30
140
1.0
141
30.0
290
     0
  0
SCALE
  5
21C4
102
{ACAD_REACTORS
330
21BA
102
}
330
21BA
100
AcDbScale
 70
     0
300
1:40
140
1.0
141
40.0
290
     0
  0
SCALE
  5
21C5
102
{ACAD_REACTORS
330
21BA
102
}
330
21BA
100
AcDbScale
 70
     0
300
1:50
140
1.0
141
50.0
290
     0
  0
SCALE
  5
21C6
102
{ACAD_REACTORS
330
21BA
102
}
330
21BA
100
AcDbScale
 70
     0
300
1:100
140
1.0
141
100.0
290
     0
  0
SCALE
  5
21C7
102
{ACAD_REACTORS
330
21BA
102
}
330
21BA
100
AcDbScale
 70
     0
300
2:1
140
2.0
141
1.0
290
     0
  0
SCALE
  5
21C8
102
{ACAD_REACTORS
330
21BA
102
}
330
21BA
100
AcDbScale
 70
     0
300
4:1
140
4.0
141
1.0
290
     0
  0
SCALE
  5
21C9
102
{ACAD_REACTORS
330
21BA
102
}
330
21BA
100
AcDbScale
 70
     0
300
8:1
140
8.0
141
1.0
290
     0
  0
SCALE
  5
21CA
102
{ACAD_REACTORS
330
21BA
102
}
330
21BA
100
AcDbScale
 70
     0
300
10:1
140
10.0
141
1.0
290
     0
  0
SCALE
  5
21CB
102
{ACAD_REACTORS
330
21BA
102
}
330
21BA
100
AcDbScale
 70
     0
300
100:1
140
100.0
141
1.0
290
     0
  0
TABLESTYLE
  5
F85
102
{ACAD_XDICTIONARY
360
2396
102
}
102
{ACAD_REACTORS
330
F84
102
}
330
F84
100
AcDbTableStyle
  3
Standard
 70
     0
 71
     0
 40
1.5
 41
1.5
280
     0
281
     0
  7
STANDARD
140
4.5
170
     2
 62
     0
 63
     7
283
     0
274
    -2
284
     1
 64
     0
275
    -2
285
     1
 65
     0
276
    -2
286
     1
 66
     0
277
    -2
287
     1
 67
     0
278
    -2
288
     1
 68
     0
279
    -2
289
     1
 69
     0
  7
STANDARD
140
6.0
170
     5
 62
     0
 63
     7
283
     0
274
    -2
284
     1
 64
     0
275
    -2
285
     1
 65
     0
276
    -2
286
     1
 66
     0
277
    -2
287
     1
 67
     0
278
    -2
288
     1
 68
     0
279
    -2
289
     1
 69
     0
  7
STANDARD
140
4.5
170
     5
 62
     0
 63
     7
283
     0
274
    -2
284
     1
 64
     0
275
    -2
285
     1
 65
     0
276
    -2
286
     1
 66
     0
277
    -2
287
     1
 67
     0
278
    -2
288
     1
 68
     0
279
    -2
289
     1
 69
     0
  0
VISUALSTYLE
  5
F79
102
{ACAD_XDICTIONARY
360
2CA3
102
}
102
{ACAD_REACTORS
330
F73
102
}
330
F73
100
AcDbVisualStyle
  2
2dWireframe
 70
     4
 71
     0
 72
     2
 73
     0
 90
        0
 40
-0.6
 41
-30.0
 62
     5
 63
     7
 74
     1
 91
        4
 64
     7
 65
   257
 75
     1
175
     1
 42
1.0
 92
        0
 66
   257
 43
1.0
 76
     1
 77
     6
 78
     2
 67
     7
 79
     5
170
     0
171
     0
290
     0
174
     0
 93
        1
 44
0.0
173
     0
291
     0
 45
0.0
1001
ACAD
1000
AcDbSavedByObjectVersion
1070
     0
  0
VISUALSTYLE
  5
F7B
102
{ACAD_XDICTIONARY
360
2CA7
102
}
102
{ACAD_REACTORS
330
F73
102
}
330
F73
100
AcDbVisualStyle
  2
3D Hidden
 70
     6
 71
     1
 72
     2
 73
     2
 90
        0
 40
-0.6
 41
-30.0
 62
     5
 63
     7
 74
     2
 91
        2
 64
     7
 65
   257
 75
     2
175
     1
 42
40.0
 92
        0
 66
   257
 43
1.0
 76
     1
 77
     6
 78
     2
 67
     7
 79
     3
170
     0
171
     0
290
     0
174
     0
 93
        1
 44
0.0
173
     0
291
     0
 45
0.0
1001
ACAD
1000
AcDbSavedByObjectVersion
1070
     0
  0
VISUALSTYLE
  5
F7A
102
{ACAD_XDICTIONARY
360
2CA5
102
}
102
{ACAD_REACTORS
330
F73
102
}
330
F73
100
AcDbVisualStyle
  2
3dWireframe
 70
     5
 71
     0
 72
     2
 73
     0
 90
        0
 40
-0.6
 41
-30.0
 62
     5
 63
     7
 74
     1
 91
        4
 64
     7
 65
   257
 75
     1
175
     1
 42
1.0
 92
        0
 66
   257
 43
1.0
 76
     1
 77
     6
 78
     2
 67
     7
 79
     5
170
     0
171
     0
290
     0
174
     0
 93
        1
 44
0.0
173
     0
291
     0
 45
0.0
1001
ACAD
1000
AcDbSavedByObjectVersion
1070
     0
  0
VISUALSTYLE
  5
F78
102
{ACAD_XDICTIONARY
360
2CA1
102
}
102
{ACAD_REACTORS
330
F73
102
}
330
F73
100
AcDbVisualStyle
  2
Basic
 70
     7
 71
     1
 72
     0
 73
     1
 90
        0
 40
-0.6
 41
-30.0
 62
     5
 63
     7
 74
     0
 91
        4
 64
     7
 65
   257
 75
     1
175
     1
 42
1.0
 92
        8
 66
     7
 43
1.0
 76
     1
 77
     6
 78
     2
 67
     7
 79
     5
170
     0
171
     0
290
     0
174
     0
 93
        1
 44
0.0
173
     0
291
     1
 45
0.0
1001
ACAD
1000
AcDbSavedByObjectVersion
1070
     0
  0
VISUALSTYLE
  5
F7F
102
{ACAD_XDICTIONARY
360
2CAF
102
}
102
{ACAD_REACTORS
330
F73
102
}
330
F73
100
AcDbVisualStyle
  2
Brighten
 70
    12
 71
     2
 72
     2
 73
     0
 90
        0
 40
-0.6
 41
-30.0
 62
     5
 63
     7
 74
     1
 91
        4
 64
     7
 65
   257
 75
     1
175
     1
 42
1.0
 92
        8
 66
     7
 43
1.0
 76
     1
 77
     6
 78
     2
 67
     7
 79
     5
170
     0
171
     0
290
     0
174
     0
 93
        1
 44
50.0
173
     0
291
     1
 45
0.0
1001
ACAD
1000
AcDbSavedByObjectVersion
1070
     0
  0
VISUALSTYLE
  5
F83
102
{ACAD_XDICTIONARY
360
2CB7
102
}
102
{ACAD_REACTORS
330
F73
102
}
330
F73
100
AcDbVisualStyle
  2
ColorChange
 70
    16
 71
     2
 72
     2
 73
     3
 90
        0
 40
-0.6
 41
-30.0
 62
     5
 63
     8
 74
     1
 91
        4
 64
     7
 65
   257
 75
     1
175
     1
 42
1.0
 92
        8
 66
     8
 43
1.0
 76
     1
 77
     6
 78
     2
 67
     7
 79
     5
170
     0
171
     0
290
     0
174
     0
 93
        1
 44
0.0
173
     0
291
     1
 45
0.0
1001
ACAD
1000
AcDbSavedByObjectVersion
1070
     0
  0
VISUALSTYLE
  5
F7C
102
{ACAD_XDICTIONARY
360
2CA9
102
}
102
{ACAD_REACTORS
330
F73
102
}
330
F73
100
AcDbVisualStyle
  2
Conceptual
 70
     9
 71
     3
 72
     2
 73
     0
 90
        0
 40
-0.6
 41
-30.0
 62
     5
 63
     7
 74
     2
 91
        2
 64
     7
 65
   257
 75
     1
175
     1
 42
40.0
 92
        8
 66
     7
 43
1.0
 76
     1
 77
     6
 78
     2
 67
     7
 79
     3
170
     0
171
     0
290
     0
174
     0
 93
        1
 44
0.0
173
     0
291
     0
 45
0.0
1001
ACAD
1000
AcDbSavedByObjectVersion
1070
     0
  0
VISUALSTYLE
  5
F7E
102
{ACAD_XDICTIONARY
360
2CAD
102
}
102
{ACAD_REACTORS
330
F73
102
}
330
F73
100
AcDbVisualStyle
  2
Dim
 70
    11
 71
     2
 72
     2
 73
     0
 90
        0
 40
-0.6
 41
-30.0
 62
     5
 63
     7
 74
     1
 91
        4
 64
     7
 65
   257
 75
     1
175
     1
 42
1.0
 92
        8
 66
     7
 43
1.0
 76
     1
 77
     6
 78
     2
 67
     7
 79
     5
170
     0
171
     0
290
     0
174
     0
 93
        1
 44
-50.0
173
     0
291
     1
 45
0.0
1001
ACAD
1000
AcDbSavedByObjectVersion
1070
     0
  0
VISUALSTYLE
  5
21B9
102
{ACAD_XDICTIONARY
360
2CCC
102
}
102
{ACAD_REACTORS
330
F73
102
}
330
F73
100
AcDbVisualStyle
  2
EdgeColorOff
 70
    22
 71
     2
 72
     2
 73
     0
 90
        0
 40
-0.6
 41
-30.0
 62
     5
 63
     7
 74
     1
 91
        4
 64
     7
 65
   257
 75
     1
175
     1
 42
1.0
 92
        8
 66
     7
 43
1.0
 76
     1
 77
     6
 78
     2
 67
     7
 79
     5
170
     0
171
     0
290
     0
174
     0
 93
        1
 44
0.0
173
     0
291
     1
 45
0.0
1001
ACAD
1000
AcDbSavedByObjectVersion
1070
     0
  0
VISUALSTYLE
  5
F82
102
{ACAD_XDICTIONARY
360
2CB5
102
}
102
{ACAD_REACTORS
330
F73
102
}
330
F73
100
AcDbVisualStyle
  2
Facepattern
 70
    15
 71
     2
 72
     2
 73
     0
 90
        0
 40
-0.6
 41
-30.0
 62
     5
 63
     7
 74
     1
 91
        4
 64
     7
 65
   257
 75
     1
175
     1
 42
1.0
 92
        8
 66
     7
 43
1.0
 76
     1
 77
     6
 78
     2
 67
     7
 79
     5
170
     0
171
     0
290
     0
174
     0
 93
        1
 44
0.0
173
     0
291
     1
 45
0.0
1001
ACAD
1000
AcDbSavedByObjectVersion
1070
     0
  0
VISUALSTYLE
  5
F74
102
{ACAD_XDICTIONARY
360
2C99
102
}
102
{ACAD_REACTORS
330
F73
102
}
330
F73
100
AcDbVisualStyle
  2
Flat
 70
     0
 71
     2
 72
     1
 73
     1
 90
        2
 40
-0.6
 41
30.0
 62
     5
 63
     7
 74
     0
 91
        4
 64
     7
 65
   257
 75
     1
175
     1
 42
1.0
 92
        8
 66
     7
 43
1.0
 76
     1
 77
     6
 78
     2
 67
     7
 79
     5
170
     0
171
     0
290
     0
174
     0
 93
       13
 44
0.0
173
     0
291
     1
 45
0.0
1001
ACAD
1000
AcDbSavedByObjectVersion
1070
     0
  0
VISUALSTYLE
  5
F75
102
{ACAD_XDICTIONARY
360
2C9B
102
}
102
{ACAD_REACTORS
330
F73
102
}
330
F73
100
AcDbVisualStyle
  2
FlatWithEdges
 70
     1
 71
     2
 72
     1
 73
     1
 90
        2
 40
-0.6
 41
30.0
 62
     5
 63
     7
 74
     1
 91
        4
 64
     7
 65
   257
 75
     1
175
     1
 42
1.0
 92
        0
 66
   257
 43
1.0
 76
     1
 77
     6
 78
     2
 67
     7
 79
     5
170
     0
171
     0
290
     0
174
     0
 93
       13
 44
0.0
173
     0
291
     1
 45
0.0
1001
ACAD
1000
AcDbSavedByObjectVersion
1070
     0
  0
VISUALSTYLE
  5
F76
102
{ACAD_XDICTIONARY
360
2C9D
102
}
102
{ACAD_REACTORS
330
F73
102
}
330
F73
100
AcDbVisualStyle
  2
Gouraud
 70
     2
 71
     2
 72
     2
 73
     1
 90
        2
 40
-0.6
 41
30.0
 62
     5
 63
     7
 74
     0
 91
        4
 64
     7
 65
   257
 75
     1
175
     1
 42
1.0
 92
        0
 66
     7
 43
1.0
 76
     1
 77
     6
 78
     2
 67
     7
 79
     5
170
     0
171
     0
290
     0
174
     0
 93
       13
 44
0.0
173
     0
291
     1
 45
0.0
1001
ACAD
1000
AcDbSavedByObjectVersion
1070
     0
  0
VISUALSTYLE
  5
F77
102
{ACAD_XDICTIONARY
360
2C9F
102
}
102
{ACAD_REACTORS
330
F73
102
}
330
F73
100
AcDbVisualStyle
  2
GouraudWithEdges
 70
     3
 71
     2
 72
     2
 73
     1
 90
        2
 40
-0.6
 41
30.0
 62
     5
 63
     7
 74
     1
 91
        4
 64
     7
 65
   257
 75
     1
175
     1
 42
1.0
 92
        0
 66
   257
 43
1.0
 76
     1
 77
     6
 78
     2
 67
     7
 79
     5
170
     0
171
     0
290
     0
174
     0
 93
       13
 44
0.0
173
     0
291
     1
 45
0.0
1001
ACAD
1000
AcDbSavedByObjectVersion
1070
     0
  0
VISUALSTYLE
  5
21B1
102
{ACAD_XDICTIONARY
360
2CBC
102
}
102
{ACAD_REACTORS
330
F73
102
}
330
F73
100
AcDbVisualStyle
  2
Hidden
 70
     6
 71
     1
 72
     2
 73
     2
 90
        0
 40
-0.6
 41
-30.0
 62
     5
 63
     7
 74
     2
 91
        2
 64
     7
 65
   257
 75
     2
175
     1
 42
40.0
 92
        0
 66
   257
 43
1.0
 76
     1
 77
     6
 78
     2
 67
     7
 79
     3
170
     0
171
     0
290
     0
174
     0
 93
        1
 44
0.0
173
     0
291
     0
 45
0.0
1001
ACAD
1000
AcDbSavedByObjectVersion
1070
     0
  0
VISUALSTYLE
  5
21B7
102
{ACAD_XDICTIONARY
360
2CC8
102
}
102
{ACAD_REACTORS
330
F73
102
}
330
F73
100
AcDbVisualStyle
  2
JitterOff
 70
    20
 71
     2
 72
     2
 73
     0
 90
        0
 40
-0.6
 41
-30.0
 62
     5
 63
     7
 74
     1
 91
        4
 64
     7
 65
   257
 75
     1
175
     1
 42
1.0
 92
       10
 66
     7
 43
1.0
 76
     1
 77
     6
 78
     2
 67
     7
 79
     5
170
     0
171
     0
290
     0
174
     0
 93
        1
 44
0.0
173
     0
291
     1
 45
0.0
1001
ACAD
1000
AcDbSavedByObjectVersion
1070
     0
  0
VISUALSTYLE
  5
F81
102
{ACAD_XDICTIONARY
360
2CB3
102
}
102
{ACAD_REACTORS
330
F73
102
}
330
F73
100
AcDbVisualStyle
  2
Linepattern
 70
    14
 71
     2
 72
     2
 73
     0
 90
        0
 40
-0.6
 41
-30.0
 62
     5
 63
     7
 74
     1
 91
        4
 64
     7
 65
   257
 75
     7
175
     7
 42
1.0
 92
        8
 66
     7
 43
1.0
 76
     1
 77
     6
 78
     2
 67
     7
 79
     5
170
     0
171
     0
290
     0
174
     0
 93
        1
 44
0.0
173
     0
291
     1
 45
0.0
1001
ACAD
1000
AcDbSavedByObjectVersion
1070
     0
  0
VISUALSTYLE
  5
21B8
102
{ACAD_XDICTIONARY
360
2CCA
102
}
102
{ACAD_REACTORS
330
F73
102
}
330
F73
100
AcDbVisualStyle
  2
OverhangOff
 70
    21
 71
     2
 72
     2
 73
     0
 90
        0
 40
-0.6
 41
-30.0
 62
     5
 63
     7
 74
     1
 91
        4
 64
     7
 65
   257
 75
     1
175
     1
 42
1.0
 92
        9
 66
     7
 43
1.0
 76
     1
 77
     6
 78
     2
 67
     7
 79
     5
170
     0
171
     0
290
     0
174
     0
 93
        1
 44
0.0
173
     0
291
     1
 45
0.0
1001
ACAD
1000
AcDbSavedByObjectVersion
1070
     0
  0
VISUALSTYLE
  5
F7D
102
{ACAD_XDICTIONARY
360
2CAB
102
}
102
{ACAD_REACTORS
330
F73
102
}
330
F73
100
AcDbVisualStyle
  2
Realistic
 70
     8
 71
     2
 72
     2
 73
     0
 90
        0
 40
-0.6
 41
-30.0
 62
     5
 63
     7
 74
     1
 91
        0
 64
     7
 65
   257
 75
     1
175
     1
 42
1.0
 92
        8
 66
     8
 43
1.0
 76
     1
 77
     6
 78
     2
 67
     7
 79
     5
170
     0
171
     0
290
     0
174
     0
 93
       13
 44
0.0
173
     0
291
     0
 45
0.0
1001
ACAD
1000
AcDbSavedByObjectVersion
1070
     0
  0
VISUALSTYLE
  5
21B6
102
{ACAD_XDICTIONARY
360
2CC6
102
}
102
{ACAD_REACTORS
330
F73
102
}
330
F73
100
AcDbVisualStyle
  2
Shaded
 70
    27
 71
     2
 72
     2
 73
     1
 90
        2
 40
-0.6
 41
30.0
 62
     5
 63
     7
 74
     0
 91
        4
 64
     7
 65
   257
 75
     1
175
     1
 42
1.0
 92
        8
 66
   257
 43
1.0
 76
     1
 77
     6
 78
     2
 67
     8
 79
     3
170
     0
171
     0
290
     0
174
     0
 93
        5
 44
0.0
173
     0
291
     0
 45
0.0
1001
ACAD
1000
AcDbSavedByObjectVersion
1070
     0
  0
VISUALSTYLE
  5
21B5
102
{ACAD_XDICTIONARY
360
2CC4
102
}
102
{ACAD_REACTORS
330
F73
102
}
330
F73
100
AcDbVisualStyle
  2
Shaded with edges
 70
    26
 71
     2
 72
     2
 73
     1
 90
        2
 40
-0.6
 41
30.0
 62
     5
 63
     7
 74
     1
 91
       10
 64
     7
 65
   257
 75
     2
175
     1
 42
1.0
 92
        8
 66
   257
 43
1.0
 76
     1
 77
     6
 78
     2
 67
     7
 79
     3
170
     0
171
     0
290
     0
174
     0
 93
        5
 44
0.0
173
     0
291
     0
 45
0.0
1001
ACAD
1000
AcDbSavedByObjectVersion
1070
     0
  0
VISUALSTYLE
  5
21B2
102
{ACAD_XDICTIONARY
360
2CBE
102
}
102
{ACAD_REACTORS
330
F73
102
}
330
F73
100
AcDbVisualStyle
  2
Shades of Gray
 70
    23
 71
     2
 72
     2
 73
     3
 90
        0
 40
-0.6
 41
-30.0
 62
     5
 63
     7
 74
     2
 91
        2
 64
     7
 65
     7
 75
     1
175
     1
 42
40.0
 92
        8
 66
     7
 43
1.0
 76
     1
 77
     6
 78
     2
 67
     7
 79
     3
170
     0
171
     0
290
     0
174
     0
 93
        1
 44
0.0
173
     0
291
     0
 45
0.0
1001
ACAD
1000
AcDbSavedByObjectVersion
1070
     0
  0
VISUALSTYLE
  5
21B3
102
{ACAD_XDICTIONARY
360
2CC0
102
}
102
{ACAD_REACTORS
330
F73
102
}
330
F73
100
AcDbVisualStyle
  2
Sketchy
 70
    24
 71
     1
 72
     2
 73
     2
 90
        0
 40
-0.6
 41
-30.0
 62
     5
 63
     7
 74
     2
 91
        2
 64
     7
 65
     7
 75
     1
175
     1
 42
40.0
 92
       11
 66
     7
 43
1.0
 76
     1
 77
     6
 78
     2
 67
     7
 79
     6
170
     0
171
     0
290
     0
174
     0
 93
        1
 44
0.0
173
     0
291
     0
 45
0.0
1001
ACAD
1000
AcDbSavedByObjectVersion
1070
     0
  0
VISUALSTYLE
  5
F80
102
{ACAD_XDICTIONARY
360
2CB1
102
}
102
{ACAD_REACTORS
330
F73
102
}
330
F73
100
AcDbVisualStyle
  2
Thicken
 70
    13
 71
     2
 72
     2
 73
     0
 90
        0
 40
-0.6
 41
-30.0
 62
     5
 63
     7
 74
     1
 91
        4
 64
     7
 65
   257
 75
     1
175
     1
 42
1.0
 92
       12
 66
     7
 43
1.0
 76
     1
 77
     6
 78
     2
 67
     7
 79
     5
170
     0
171
     0
290
     0
174
     0
 93
        1
 44
0.0
173
     0
291
     1
 45
0.0
1001
ACAD
1000
AcDbSavedByObjectVersion
1070
     0
  0
VISUALSTYLE
  5
21B0
102
{ACAD_XDICTIONARY
360
2CBA
102
}
102
{ACAD_REACTORS
330
F73
102
}
330
F73
100
AcDbVisualStyle
  2
Wireframe
 70
     5
 71
     0
 72
     2
 73
     0
 90
        0
 40
-0.6
 41
-30.0
 62
     5
 63
     7
 74
     1
 91
        4
 64
     7
 65
   257
 75
     1
175
     1
 42
1.0
 92
        0
 66
   257
 43
1.0
 76
     1
 77
     6
 78
     2
 67
     7
 79
     3
170
     0
171
     0
290
     0
174
     0
 93
        1
 44
0.0
173
     0
291
     0
 45
0.0
1001
ACAD
1000
AcDbSavedByObjectVersion
1070
     0
  0
VISUALSTYLE
  5
21B4
102
{ACAD_XDICTIONARY
360
2CC2
102
}
102
{ACAD_REACTORS
330
F73
102
}
330
F73
100
AcDbVisualStyle
  2
X-Ray
 70
    25
 71
     2
 72
     2
 73
     1
 90
        1
 40
0.5
 41
-30.0
 62
     5
 63
     7
 74
     1
 91
        0
 64
     7
 65
   257
 75
     1
175
     1
 42
1.0
 92
        8
 66
     7
 43
1.0
 76
     1
 77
     6
 78
     2
 67
     7
 79
     3
170
     0
171
     0
290
     0
174
     0
 93
       13
 44
0.0
173
     0
291
     0
 45
0.0
1001
ACAD
1000
AcDbSavedByObjectVersion
1070
     0
  0
DICTIONARYVAR
  5
23E3
102
{ACAD_REACTORS
330
9E
102
}
330
9E
100
DictionaryVariables
280
     0
  1
1:1
  0
DICTIONARYVAR
  5
23E2
102
{ACAD_REACTORS
330
9E
102
}
330
9E
100
DictionaryVariables
280
     0
  1
STANDARD
  0
DICTIONARYVAR
  5
1093
102
{ACAD_REACTORS
330
9E
102
}
330
9E
100
DictionaryVariables
280
     0
  1
STANDARD
  0
DICTIONARYVAR
  5
A0
102
{ACAD_REACTORS
330
9E
102
}
330
9E
100
DictionaryVariables
280
     0
  1
2
  0
DICTIONARYVAR
  5
9F
102
{ACAD_REACTORS
330
9E
102
}
330
9E
100
DictionaryVariables
280
     0
  1
0
  0
DICTIONARYVAR
  5
2C84
102
{ACAD_REACTORS
330
9E
102
}
330
9E
100
DictionaryVariables
280
     0
  1
127
  0
DICTIONARYVAR
  5
2C85
102
{ACAD_REACTORS
330
9E
102
}
330
9E
100
DictionaryVariables
280
     0
  1
0
  0
DICTIONARY
  5
B85
102
{ACAD_REACTORS
330
63
102
}
330
63
100
AcDbDictionary
281
     1
  0
DICTIONARY
  5
69
102
{ACAD_REACTORS
330
63
102
}
330
63
100
AcDbDictionary
281
     1
  0
XRECORD
  5
FAE
102
{ACAD_REACTORS
330
63
102
}
330
63
100
AcDbXrecord
280
     1
 90
-1023410169
  0
DICTIONARY
  5
2C8E
330
1E
100
AcDbDictionary
280
     1
281
     1
  3
ACAD_XREC_ROUNDTRIP
360
2C8F
  0
DICTIONARY
  5
2C91
330
26
100
AcDbDictionary
280
     1
281
     1
  3
ACAD_XREC_ROUNDTRIP
360
2C92
  0
DICTIONARY
  5
2394
330
22
100
AcDbDictionary
280
     1
281
     1
  3
ACAD_XREC_ROUNDTRIP
360
2C90
  3
ADSK_XREC_LAYOUTTHUMBNAIL
360
2395
  0
DICTIONARY
  5
2C95
330
9D6
100
AcDbDictionary
280
     1
281
     1
  3
ACAD_XREC_ROUNDTRIP
360
2C96
  0
DICTIONARY
  5
2C97
330
9D9
100
AcDbDictionary
280
     1
281
     1
  3
ACAD_XREC_ROUNDTRIP
360
2C98
  0
DICTIONARY
  5
2C93
330
2B4
100
AcDbDictionary
280
     1
281
     1
  3
ACAD_XREC_ROUNDTRIP
360
2C94
  0
DICTIONARY
  5
2396
330
F85
100
AcDbDictionary
280
     1
281
     1
  3
ACAD_ROUNDTRIP_2008_TABLESTYLE_CELLSTYLEMAP
360
2C86
  3
ACAD_XREC_ROUNDTRIP
360
2CB9
  0
DICTIONARY
  5
2CA3
330
F79
100
AcDbDictionary
280
     1
281
     1
  3
ACAD_XREC_ROUNDTRIP
360
2CA4
  0
DICTIONARY
  5
2CA7
330
F7B
100
AcDbDictionary
280
     1
281
     1
  3
ACAD_XREC_ROUNDTRIP
360
2CA8
  0
DICTIONARY
  5
2CA5
330
F7A
100
AcDbDictionary
280
     1
281
     1
  3
ACAD_XREC_ROUNDTRIP
360
2CA6
  0
DICTIONARY
  5
2CA1
330
F78
100
AcDbDictionary
280
     1
281
     1
  3
ACAD_XREC_ROUNDTRIP
360
2CA2
  0
DICTIONARY
  5
2CAF
330
F7F
100
AcDbDictionary
280
     1
281
     1
  3
ACAD_XREC_ROUNDTRIP
360
2CB0
  0
DICTIONARY
  5
2CB7
330
F83
100
AcDbDictionary
280
     1
281
     1
  3
ACAD_XREC_ROUNDTRIP
360
2CB8
  0
DICTIONARY
  5
2CA9
330
F7C
100
AcDbDictionary
280
     1
281
     1
  3
ACAD_XREC_ROUNDTRIP
360
2CAA
  0
DICTIONARY
  5
2CAD
330
F7E
100
AcDbDictionary
280
     1
281
     1
  3
ACAD_XREC_ROUNDTRIP
360
2CAE
  0
DICTIONARY
  5
2CCC
330
21B9
100
AcDbDictionary
280
     1
281
     1
  3
ACAD_XREC_ROUNDTRIP
360
2CCD
  0
DICTIONARY
  5
2CB5
330
F82
100
AcDbDictionary
280
     1
281
     1
  3
ACAD_XREC_ROUNDTRIP
360
2CB6
  0
DICTIONARY
  5
2C99
330
F74
100
AcDbDictionary
280
     1
281
     1
  3
ACAD_XREC_ROUNDTRIP
360
2C9A
  0
DICTIONARY
  5
2C9B
330
F75
100
AcDbDictionary
280
     1
281
     1
  3
ACAD_XREC_ROUNDTRIP
360
2C9C
  0
DICTIONARY
  5
2C9D
330
F76
100
AcDbDictionary
280
     1
281
     1
  3
ACAD_XREC_ROUNDTRIP
360
2C9E
  0
DICTIONARY
  5
2C9F
330
F77
100
AcDbDictionary
280
     1
281
     1
  3
ACAD_XREC_ROUNDTRIP
360
2CA0
  0
DICTIONARY
  5
2CBC
330
21B1
100
AcDbDictionary
280
     1
281
     1
  3
ACAD_XREC_ROUNDTRIP
360
2CBD
  0
DICTIONARY
  5
2CC8
330
21B7
100
AcDbDictionary
280
     1
281
     1
  3
ACAD_XREC_ROUNDTRIP
360
2CC9
  0
DICTIONARY
  5
2CB3
330
F81
100
AcDbDictionary
280
     1
281
     1
  3
ACAD_XREC_ROUNDTRIP
360
2CB4
  0
DICTIONARY
  5
2CCA
330
21B8
100
AcDbDictionary
280
     1
281
     1
  3
ACAD_XREC_ROUNDTRIP
360
2CCB
  0
DICTIONARY
  5
2CAB
330
F7D
100
AcDbDictionary
280
     1
281
     1
  3
ACAD_XREC_ROUNDTRIP
360
2CAC
  0
DICTIONARY
  5
2CC6
330
21B6
100
AcDbDictionary
280
     1
281
     1
  3
ACAD_XREC_ROUNDTRIP
360
2CC7
  0
DICTIONARY
  5
2CC4
330
21B5
100
AcDbDictionary
280
     1
281
     1
  3
ACAD_XREC_ROUNDTRIP
360
2CC5
  0
DICTIONARY
  5
2CBE
330
21B2
100
AcDbDictionary
280
     1
281
     1
  3
ACAD_XREC_ROUNDTRIP
360
2CBF
  0
DICTIONARY
  5
2CC0
330
21B3
100
AcDbDictionary
280
     1
281
     1
  3
ACAD_XREC_ROUNDTRIP
360
2CC1
  0
DICTIONARY
  5
2CB1
330
F80
100
AcDbDictionary
280
     1
281
     1
  3
ACAD_XREC_ROUNDTRIP
360
2CB2
  0
DICTIONARY
  5
2CBA
330
21B0
100
AcDbDictionary
280
     1
281
     1
  3
ACAD_XREC_ROUNDTRIP
360
2CBB
  0
DICTIONARY
  5
2CC2
330
21B4
100
AcDbDictionary
280
     1
281
     1
  3
ACAD_XREC_ROUNDTRIP
360
2CC3
  0
XRECORD
  5
2C8F
102
{ACAD_REACTORS
330
2C8E
102
}
330
2C8E
100
AcDbXrecord
280
     1
102
SHADEPLOT
 70
     0
102
SHADEPLOTRESLEVEL
 70
     2
102
SHADEPLOTCUSTOMDPI
 70
   300
  0
XRECORD
  5
2C92
102
{ACAD_REACTORS
330
2C91
102
}
330
2C91
100
AcDbXrecord
280
     1
102
SHADEPLOT
 70
     0
102
SHADEPLOTRESLEVEL
 70
     2
102
SHADEPLOTCUSTOMDPI
 70
   300
  0
XRECORD
  5
2C90
102
{ACAD_REACTORS
330
2394
102
}
330
2394
100
AcDbXrecord
280
     1
102
SHADEPLOT
 70
     0
102
SHADEPLOTRESLEVEL
 70
     2
102
SHADEPLOTCUSTOMDPI
 70
   300
  0
XRECORD
  5
2395
102
{ACAD_REACTORS
330
2394
102
}
330
2394
100
AcDbXrecord
280
     1
310
28000000000100007B0000000100080000000000007B0000000000000000000000010000000000000000000000000000FFFFFF000000000000000000000000000000000000000000000000000000000000000000330000006600000099000000CC000000FF00000000330000333300006633000099330000CC330000FF3300
310
0000660000336600006666000099660000CC660000FF66000000990000339900006699000099990000CC990000FF99000000CC000033CC000066CC000099CC0000CCCC0000FFCC000000FF000033FF000066FF000099FF0000CCFF0000FFFF000000003300330033006600330099003300CC003300FF003300003333003333
310
33006633330099333300CC333300FF33330000663300336633006666330099663300CC663300FF66330000993300339933006699330099993300CC993300FF99330000CC330033CC330066CC330099CC3300CCCC3300FFCC330000FF330033FF330066FF330099FF3300CCFF3300FFFF330000006600330066006600660099
310
006600CC006600FF00660000336600333366006633660099336600CC336600FF33660000666600336666006666660099666600CC666600FF66660000996600339966006699660099996600CC996600FF99660000CC660033CC660066CC660099CC6600CCCC6600FFCC660000FF660033FF660066FF660099FF6600CCFF6600
310
FFFF660000009900330099006600990099009900CC009900FF00990000339900333399006633990099339900CC339900FF33990000669900336699006666990099669900CC669900FF66990000999900339999006699990099999900CC999900FF99990000CC990033CC990066CC990099CC9900CCCC9900FFCC990000FF99
310
0033FF990066FF990099FF9900CCFF9900FFFF99000000CC003300CC006600CC009900CC00CC00CC00FF00CC000033CC003333CC006633CC009933CC00CC33CC00FF33CC000066CC003366CC006666CC009966CC00CC66CC00FF66CC000099CC003399CC006699CC009999CC00CC99CC00FF99CC0000CCCC0033CCCC0066CC
310
CC0099CCCC00CCCCCC00FFCCCC0000FFCC0033FFCC0066FFCC0099FFCC00CCFFCC00FFFFCC000000FF003300FF006600FF009900FF00CC00FF00FF00FF000033FF003333FF006633FF009933FF00CC33FF00FF33FF000066FF003366FF006666FF009966FF00CC66FF00FF66FF000099FF003399FF006699FF009999FF00CC
310
99FF00FF99FF0000CCFF0033CCFF0066CCFF0099CCFF00CCCCFF00FFCCFF0000FFFF0033FFFF0066FFFF0099FFFF00CCFFFF00FFFFFF00000000000D0D0D001A1A1A00282828003535350043434300505050005D5D5D006B6B6B00787878008686860093939300A1A1A100AEAEAE00BBBBBB00C9C9C900D6D6D600E4E4E400
310
F1F1F100FFFFFF000000000000000000000000000000000000000000000000000000000000000000000000000000000000000000000000000000000000000000000000000000000000000000000000000000000000000000000000000000000000000000000000000000000000000000000000000000000000000000000000
310
0000000000000000000000000000000000000000000000000000000000000000000000000000000000000000000000000000000000000000000000000000000000000000000000000000000000000000000000000000000000000000002D000000000000000000000000000000000000000000000000000000000000000000
310
00000000000000000000000000000000000000000000000000000000000000000000000000000000000000000000000000000000000000000000000000000000000000000000000000000000000000000000000000000000000000000000000000000000000000000000000000000000000000000000000000000000000000
310
0000000000000000000000000000000000000000000000000000000000000000000000002D000000000000000000000000000000000000000000000000000000000000000000000000000000000000000000000000000000000000000000002D00000000000000000000000000000000000000000000000000000000000000
310
00000000000000000000000000000000000000000000000000000000000000000000000000000000000000000000000000000000000000000000000000000000000000000000000000000000000000000000000000000000000000000000000000000000000000000000000000000000000000000000000000000000000000
310
00000000000000000000000000000000000000000000000000000000000000000000000000002D000000000000000000000000000000000000000000000000000000000000000000000000000000000000000000000000000000000000000000002D0000000000000000000000000000000000000000000000000000000000
310
00000000000000000000000000000000000000000000000000000000000000000000000000000000000000000000000000000000000000000000000000000000000000000000000000000000000000000000000000000000000000000000000000000000000000000000000000000000000000000000000000000000000000
310
000000000000000000000000000000000000000000000000000000000000000000000028F5F5F5F5F5F5F5F5F52800000000000000000000000000000000000000000000000000000000000000000000000000000000000000000000000000F5F5F5F5F5F5F5F5F5F500000000000000000000000000000000000000000000
310
00000000000000000000000000000000000000000000000000000000000000000000000000000000000000000000000000000000000000000000000000000000000000000000000000000000000000000000000000000000000000000000000000000000000000000000000000000000000000000000000000000000000000
310
00000000000000000000000000000000000000000000000000000000000000000000000000F5F5F5F5F5F5F5F5F5F5F5000000000000000000000000000000000000000000000000000000000000000000000000000000000000000000000000F5F5F5F5F5F5F5F5F5F5F5F500000000000000000000000000000000000000
310
00000000000000000000000000000000000000000000000000000000000000000000000000000000000000000000000000000000000000000000000000000000000000000000000000000000000000000000000000000000000000000000000000000000000000000000000000000000000000000000000000000000000000
310
00000000000000000000000000000000000000000000000000000000000000000000000000000028000000002D0000000028000000000000000000000000000000000000000000000000000000000000000000000000000000000000000000000000F5280000002D0000000028F50000000000000000000000000000000000
310
00000000000000000000000000000000000000000000000000000000000000000000000000000000000000000000000000000000000000000000000000000000000000000000000000000000000000000000000000000000000000000000000000000000000000000000000000000000000000000000000000000000000000
310
000000000000000000000000000000000000000000000000000000000000000000000000000000000028000000002D0000000028000000000000000000000000000000000000000000000000000000000000000000000000000000000000000000000000F5280000002D0000000028F5000000000000000000000000000000
310
00000000000000000000000000000000000000000000000000000000000000000000000000000000000000000000000000000000000000000000000000000000000000000000000000000000000000000000000000000000000000000000000000000000000000000000000000000000000000000000000000000000000000
310
00000000000000000000000000000000000000000000000000000000000000000000000000000000002828282828282828282828282828000000000000000000000000000000000000000000000000000000000000000000000000000000000000000000002828282828282828282828282828000000000000000000000000
310
00000000000000000000000000000000000000000000000000000000000000000000000000000000000000000000000000000000000000000000000000000000000000000000000000000000000000000000000000000000000000000000000000000000000000000000000000000000000000000000000000000000000000
310
00000000000000000000000000000000000000000000000000000000000000000000000000000000000000000028000000002D0000000028F5000000000000000000000000000000000000000000000000000000000000000000000000000000000000000000000028000000002D0000000028F50000000000000000000000
310
00000000000000000000000000000000000000000000000000000000000000000000000000000000000000000000000000000000000000000000000000000000000000000000000000000000000000000000000000000000000000000000000000000000000000000000000000000000000000000000000000000000000000
310
00000000000000000000000000000000000000000000000000000000000000000000000000000000000000000000F528000000002D0000000028F5000000000000000000000000000000000000000000000000000000000000000000000000000000000000000000000028000000002D0000000028F5000000000000000000
310
00000000000000000000000000000000000000000000000000000000000000000000000000000000000000000000000000000000000000000000000000000000000000000000000000000000000000000000000000000000000000000000000000000000000000000000000000000000000000000000000000000000000000
310
000000000000000000000000000000000000000000000000000000000000000000000000000000000000000000000000F528000000002D0000000028F5000000000000000000000000000000000000000000000000000000000000000000000000000000000000000000000028000000002D0000000028F500000000000000
310
00000000000000000000000000000000000000000000000000000000000000000000000000000000000000000000000000000000000000000000000000000000000000000000000000000000000000000000000000000000000000000000000000000000000000000000000000000000000000000000000000000000000000
310
0000000000000000000000000000000000000000000000000000000000000000000000000000000000000000000000000000F5F5F5F5F5F5F5F5F5F5F5F5F50000000000000000000000000000000000000000000000000000000000000000000000000000000000000000000000F5F5F5F5F5F5F5F5F5F5F5F50000000000
310
00000000000000000000000000000000000000000000000000000000000000000000000000000000000000000000000000000000000000000000000000000000000000000000000000000000000000000000000000000000000000000000000000000000000000000000000000000000000000000000000000000000000000
310
00000000000000000000000000000000000000000000000000000000000000000000000000000000000000000000000000000000F500000000002D0000000000F50000000000000000000000000000000000000000000000000000000000000000000000000000000000000000000000F5000000002D0000000000F5000000
310
00000000000000000000000000000000000000000000000000000000000000000000000000000000000000000000000000000000000000000000000000000000000000000000000000000000000000000000000000000000000000000000000000000000000000000000000000000000000000000000000000000000000000
310
000000000000000000000000000000000000000000000000000000000000000000000000000000000000000000000000000000000000F500000000002D0000000000F50000000000000000000000000000000000000000000000000000000000000000000000000000000000000000000000F5000000002D0000000000F500
310
00000000000000000000000000000000000000000000000000000000000000000000000000000000000000000000000000000000000000000000000000000000000000000000000000000000000000000000000000000000000000000000000000000000000000000000000000000000000000000000000000000000000000
310
000000000000000000000000000000000000000000000000000000000000000000000000000000000000000000000000000000000000F5F5F5F5F5F5F5F5F5F5F5F5F5F5F5F5F5000000000000000000000000000000000000000000000000000000000000000000000000000000000000F5F5F5F5F5F5F5F5F5F5F5F5F5F5
310
F5F5F500000000000000000000000000000000000000000000000000000000000000000000000000000000000000000000000000000000000000000000000000000000000000000000000000000000000000000000000000000000000000000000000000000000000000000000000000000000000000000000000000000000
310
0000000000000000000000000000000000000000000000000000000000000000000000000000000000000000000000000000000000000000F500F500000000002D0000000000F500F5000000000000000000000000000000000000000000000000000000000000000000000000000000000000F5000000000000002D000000
310
00000000F50000000000000000000000000000000000000000000000000000000000000000000000000000000000000000000000000000000000000000000000000000000000000000000000000000000000000000000000000000000000000000000000000000000000000000000000000000000000000000000000000000
310
00000000000000000000000000000000000000000000000000000000000000000000000000000000000000000000000000000000000000000000F500F500000000002D0000000000F500F5000000000000000000000000000000000000000000000000000000000000000000000000000000000000F5000000000000002D00
310
000000000000F5000000000000000000000000000000000000000000000000000000000000000000000000000000000000000000000000000000000000000000000000000000000000000000000000000000000000000000000000000000000000000000000000000000000000000000000000000000000000000000000000
310
000000000000000000000000000000000000000000000000000000000000000000000000000000000000000000000000000000000000000000000000F500F500000000002D0000000000F500F5000000000000000000000000000000000000000000000000000000000000000000000000000000000000F500000000000000
310
2D00000000000000F500000000000000000000000000000000000000000000000000000000000000000000000000000000000000000000000000000000000000000000000000000000000000000000000000000000000000000000000000000000000000000000000000000000000000000000000000000000000000000000
310
0000000000000000000000000000000000000000000000000000000000000000000000000000000000000000000000000000000000000000000000000000F500F500000000002D0000000000F500F5000000000000000000000000000000000000000000000000000000000000000000000000000000000000F50000000000
310
00002D00000000000000F50000000000000000000000000000000000000000000000000000000000000000000000000000000000000000000000000000000000000000000000000000000000000000000000000000000000000000000000000000000000000000000000000000000000000000000000000000000000000000
310
00000000000000000000000000000000000000000000000000000000000000000000000000000000000000000000000000000000000000000000000000000000F500F500000000002D0000000000F500F5000000000000000000000000000000000000000000000000000000000000000000000000000000000000F5000000
310
000000002D00000000000000F5000000000000000000000000000000000000000000000000000000000000000000000000000000000000000000000000000000000000000000000000000000000000000000000000000000000000000000000000000000000000000000000000000000000000000000000000000000000000
310
00000000000000000000000000000000000000000000000000000000000000000000000000000000000000000000000000000000000000000000000000F5F5F5F5F5F50000F5F5F5F5F5F5F5F5F5F5F50000F5000000000000000000000000000000000000000000000000000000000000000000000000000000000000F500
310
0000000000002D00000000000000F500000000000000000000000000000000000000000000000000000000000000000000000000000000000000000000000000000000000000000000000000000000000000000000000000000000000000000000000000000000000000000000000000000000000000000000000000000000
310
000000000000000000000000000000000000000000000000000000000000000000000000000000000000000000000000000000000000000000000000000000F50000000000F5F500000000002D00000000000000F5000000000000000000000000000000000000000000000000000000000000000000000000000000000000
310
00F50000000000002D00000000000000F50000000000000000000000000000000000000000000000000000000000000000000000000000000000000000000000000000000000000000000000000000000000000000000000000000000000000000000000000000000000000000000000000000000000000000000000000000
310
0000000000000000000000000000000000000000000000000000000000000000000000000000000000000000000000000000000000000000000000000000000000F500000000000000F5F5F5F5F5F5F5F5F5F5F5F5F50000000000000000000000000000000000000000000000000000000000000000000000000000000000
310
000000F5F500000000002D0000000000F5F500000000000000000000000000000000000000000000000000000000000000000000000000000000000000000000000000000000000000000000000000000000000000000000000000000000000000000000000000000000000000000000000000000000000000000000000000
310
0000000000000000000000000000000000000000000000000000000000000000000000000000000000000000000000000000000000000000000000000000000000F5F5F5F5F5F5F5F5000000F50000002D0000000000F500000000000000000000000000000000000000000000000000000000000000000000000000000000
310
00000000F5F5F500000000002D0000000000F5F5F500000000000000000000000000000000000000000000000000000000000000000000000000000000000000000000000000000000000000000000000000000000000000000000000000000000000000000000000000000000000000000000000000000000000000000000
310
00000000000000000000000000000000000000000000000000000000000000000000000000000000000000000000000000000000000000000000000000000000000000F500F500000000F5000000F50000002D0000000000F50000000000000000000000000000000000000000000000000000000000000000000000000000
310
000000000000F500F500000000002D0000000000F500F50000000000000000000000000000000000000000000000000000000000000000000000000000000000000000000000000000000000000000000000000000000000000000000000000000000000000000000000000000000000000000000000000000000000000000
310
00000000000000000000000000000000000000000000000000000000000000000000000000000000000028282828282828282828280000F5F50000F5F5F50000F5F5F5F5F5F500F500000000F5000000F500F5002D00F5000000F5000000000000000000000000000000000000000000000000000000000000000000000000
310
0000000000000000F500F500000000002D0000000000F500F5000000000000000000000000000000000000000000000000000000000000000000000000000000000000000000000000000000000000000000000000000000000000000000000000000000000000000000000000000000000000000000000000000000000000
310
00000000000000000000000000000000000000000000000000000000000000000000000000000000000000002828000000F5F5F5F500F5F5F500F5F5F50000F5F5F500F5000000F500F500000000F5000000F5F500F5F5F500F50000F500000000000000000000000000000000000000000000000000000000000000000000
310
00000000000000000000F500F500000000002D0000000000F500F500000000000000000000000000000000000000000000000000000000000000000000000000000000000000000000000000000000000000000000000000000000000000000000000000000000000000000000000000000000000000000000000000000000
310
0000000000000000000000000000000000000000000000000000000000000000000000000000000000000000DCDCDC28000000F500000000F5000000F500000000F5000000F5000000F500F500000000F5000000F5F5F5F5F5F5F5F50000F50000000000000000000000000000000000000000000000000000000000000000
310
000000000000000000000000F500F500000000002D0000000000F500F50000000000000000000000000000000000000000000000000000000000000000000000000000000000000000000000000000000000000000000000000000000000000000000000000000000000000000000000000000000000000000000000000000
310
00000000000000000000000000000000000000000000000000000000000000000000000000000000000000000000DCDC002800002D2D2D2D2D2DF52D2D2D2D2D2D2D2D2D2D2D2DF52D2D2D2D2D2D2D2D2D2DF52D2D2DF52DF5F52DF5F52D2D2D2D2D2D28282828282828282828282828282828000000000000000000000000
310
0000000000000000000000002D2D2D2DF52D2D2D2D2D2D2D2D2D2D2DF52DF52D2D00000000000000000000000000000000000000000000000000000000000000000000000000000000000000000000000000000000000000000000000000000000000000000000000000000000000000000000000000000000000000000000
310
000000000000000000000000000000000000000000000000000000000000000000000000000000000000000000000000DCDCDC28000000F500000000F5000000F500000000F5000000F5000000F500F500000000F5000000F50000F5F500F5000000F500000000000000000000000000000000002800000000000000000000
310
00000000000000000000000000000000F500F500000000002D0000000000F500F500000000000000000000000000000000000000000000000000000000000000000000000000000000000000000000000000000000000000000000000000000000000000000000000000000000000000000000000000000000000000000000
310
000000000000000000000000000000000000000000000000000000000000000000000000000000000000000000000000000000002828000000F500000000F5000000F500000000F5000000F5000000F500F500000000F5000000F50000F5F5F500000000F50000000000000000000000000000000028280000000000000000
310
000000000000000000000000000000000000F500F500000000002D0000000000F500F50000000000000000000000000000000000000000000000000000000000000000000000000000000000000000000000000000000000000000000000000000000000000000000000000000000000000000000000000000000000000000
310
0000000000000000000000000000000000000000000000000000000000000000000000000000000000000000000000000000000000000028000000F5F5F50000F5F50000F5F5F50000F5F50000F5000000F500F500000000F5000000F5000000F5F500000000F5000000000000000000000000000000000028000000000000
310
0000000000000000000000000000000000000000F500F500000000002D0000000000F500F5000000000000000000000000000000000000000000000000000000000000000000000000000000000000000000000000000000000000000000000000000000000000000000000000000000000000000000000000000000000000
310
000000000000000000000000000000000000000000000000000000000000000000000000000000000000000000000000000000000000000028282828282828282828F500F5F5F50000F5F5F500F5F5F5F5F5F5F500F500000000F5000000F5000000F50000000000F500000000000000000000000000000000002800000000
310
00000000000000000000000000000000000000000000F500F500000000002D0000000000F500F500000000000000000000000000000000000000000000000000000000000000000000000000000000000000000000000000000000000000000000000000000000000000000000000000000000000000000000000000000000
310
00000000000000000000000000000000000000000000000000000000000000000000000000000000000000000000000000000000000000000000000000000000000000000000000000000000000000000000000000F500F500000000F5000000F50000002D0000000000F50000000000000000000000000000000000280000
310
000000000000000000000000000000000000000000000000F500F500000000002D0000000000F500F50000000000000000000000000000000000000000000000000000000000000000000000000000000000000000000000000000000000000000000000000000000000000000000000000000000000000000000000000000
310
000000000000000000000000000000000000000000000000000000000000000000000000000000000000000000000000000000000000000000000000000000000000000000000000000000000000000000000000000000F5F5F5F5F5F5F5F5000000F50000002D0000000000F5000000000000000000000000000000000028
310
0000000000000000000000000000000000000000000000000000F5F5F500000000002D0000000000F5F5F5000000000000000000000000000000000000000000000000000000000000000000000000000000000000000000000000000000000000000000000000000000000000000000000000000000000000000000000000
310
00000000000000000000000000000000000000000000000000000000000000000000000000000000000000000000000000000000000000000000000000000000000000000000000000000000000000000000000000000000000000F50000000000000000F50000002D0000000000F500000000000000000000000000000000
310
002800000000000000000000000000000000000000000000000000000000F500000000002D0000000000F5000000000000000000000000000000000000000000000000000000000000000000000000000000000000000000000000000000000000000000000000000000000000000000000000000000000000000000000000
310
000000000000000000000000000000000000000000000000000000000000000000000000000000000000000000000000000000000000000000000000000000000000000000000000000000000000000000000000000000000000000000F5F50000000000F5F5000000002D0000000000F50000000000000000000000000000
310
0000002800000000000000000000000000000000000000000000000000000000F500000000002D0000000000F500000000000000000000000000000000000000000000000000000000000000000000000000000000000000000000000000000000000000000000000000000000000000000000000000000000000000000000
310
00000000000000000000000000000000000000000000000000000000000000000000000000000000000000000000000000000000000000000000000000000000000000000000000000000000000000000000000000000000000000000000000000F5F5F500000000000000002D0000000000F5000000000000000000000000
310
00000000002800000000000000000000000000000000000000000000000000000000F500000000002D0000000000F50000000000000000000000000000000000000000000000000000000000000000000000000000000000000000000000000000000000000000000000000000000000000000000000000000000000000000
310
000000000000000000000000000000000000000000000000000000000000000000000000000000000000000000000000000000000000000000000000000000000000000000000000000000000000000000000000000000000000000000000000000000000000F5F5F500000000002D0000000000F500000000000000000000
310
000000000000002800000000000000000000000000000000000000000000000000000000F500000000002D0000000000F5000000000000000000000000000000000000000000000000000000000000000000000000000000000000000000000000000000000000000000000000000000000000000000000000000000000000
310
00000000000000000000000000000000000000000000000000000000000000000000000000000000000000000000000000000000000000000000000000000000000000000000000000000000000000000000000000000000000000000000000000000000000000000000F500000000002D0000000000F50000000000000000
310
0000000000000000002800000000000000000000000000000000000000000000000000000000F500000000002D0000000000F500000000000000000000000000000000000000000000000000000000000000000000000000000000000000000000000000000000000000000000000000000000000000000000000000000000
310
000000000000000000000000000000000000000000000000000000000000000000000000000000000000000000000000000000000000000000000000000000000000000000000000000000000000000000000000000000000000000000000000000000000000000000000000F500000000002D0000000000F5000000000000
310
00000000000000000000002800000000000000000000000000000000000000000000000000000000F500000000002D0000000000F50000000000000000000000000000000000000000000000000000000000000000000000000000000000000000000000000000000000000000000000000000000000000000000000000000
310
0000000000000000000000000000000000000000000000000000000000000000000000000000000000000000000000000000000000000000000000000000000000000000000000000000000000000000000000000000000000000000000000000000000000000000000000000000F500000000002D0000000000F500000000
310
000000000000000000000000002800000000000000000000000000000000000000000000000000000000F500000000002D0000000000F5000000000000000000000000000000000000000000000000000000000000000000000000000000000000000000000000000000000000000000000000000000000000000000000000
310
00000000000000000000000000000000000000000000000000000000000000000000000000000000000000000000000000000000000000000000000000000000000000000000000000000000000000000000000000000000000000000000000000000000000000000000000000000000F500000000002D0000000000F50000
310
0000000000000000000000000000002800000000000000000000000000000000000000000000000000000000F500000000002D0000000000F500000000000000000000000000000000000000000000000000000000000000000000000000000000000000000000000000000000000000000000000000000000000000000000
310
000000000000000000000000000000000000000000000000000000000000000000000000000000000000000000000000000000000000000000000000000000000000000000000000000000000000000000000000000000000000000000000000000000000000000000000000000000000000F500000000002D0000000000F5
310
00000000000000000000000000000000002800000000000000000000000000000000000000000000000000000000F500000000002D0000000000F50000000000000000000000000000000000000000000000000000000000000000000000000000000000000000000000000000000000000000000000000000000000000000
310
0000000000000000000000000000000000000000000000000000000000000000000000000000000000000000000000000000000000000000000000000000000000000000000000000000000000000000000000000000000000000000000000000000000000000000000000000000000000000000F5F5F5F5F5F5F5F5F5F5F5
310
F5F500000000000000000000000000000000002800000000000000000000000000000000000000000000000000000000F5F5F5F5F5F5F5F5F5F5F5F5F5000000000000000000000000000000000000000000000000000000000000000000000000000000000000000000000000000000000000000000000000000000000000
310
0000000000000000000000000000000000000000000000000000000000000000000000000000000000000000000000000000000000000000000000000000000000000000000000000000000000000000000000000000000000000000000000000000000000000000000000000000000000000000F5F5F5F5F5F5F5F5F5F5F5
310
F5F5F5F5F5F5000000000000000000000000000000280000000000000000000000000000000000000000000000000000F5F5F5F5F5F5F5F5F5F5F5F5F5F5F5F5F50000000000000000000000000000000000000000000000000000000000000000000000000000000000000000000000000000000000000000000000000000
310
000000000000000000000000000000000000000000000000000000000000000000000000000000000000000000000000000000000000000000000000000000000000000000000000000000000000000000000000000000000000000000000000000000000000000000000000000000000000000000F5F5F5F5F5F5F5F5F5F5
310
F5F5F5F5F5F5F5F5F500000000000000000000000000002800000000000000000000000000000000000000000000000000F5F5F5F5F5F5F5F5F5F5F5F5F5F5F5F5F5F5F50000000000000000000000000000000000000000000000000000000000000000000000000000000000000000000000000000000000000000000000
310
0000000000000000000000000000000000000000000000000000000000000000000000000000000000000000000000000000000000000000000000000000000000000000000000000000000000000000000000000000000000000000000000000000000000000000000000000000000000000000000000F500000000000000
310
002D0000000000000000F500000000000000000000000000002800000000000000000000000000000000000000000000000000F500000000000000002D0000000000000000F5000000000000000000000000000000000000000000000000000000000000000000000000000000000000000000000000000000000000000000
310
00000000000000000000000000000000000000000000000000000000000000000000000000000000000000000000000000000000000000000000000000000000000000000000000000000000000000000000000000000000000000000000000000000000000000000000000000000000000000000000000000F5F5F5F5F5F5
310
F5F5F5F5F5F5F5F5F5F5F5F5F500000000000000000000000000002800000000000000000000000000000000000000000000000000F5F5F5F5F5F5F5F5F5F5F5F5F5F5F5F5F5F5F500000000000000000000000000000000000000000000000000000000000000000000000000000000000000000000000000000000000000
310
0000000000000000000000000000000000000000000000000000000000000000000000000000000000000000000000000000000000000000000000000000000000000000000000000000000000000000000000000000000000000000000000000000000000000000000000000000000000000000000000000000F5F5F5F5F5
310
F5F5F5F5F5F5F5F5F5F5F5F5F5F5F5F5000000000000000000000000002800000000000000000000000000000000000000000000000000F5F5F5F5F5F5F5F5F5F5F5F5F5F5F5F5F5F5F5F500000000000000000000000000000000000000000000000000000000000000000000000000000000000000000000000000000000
310
00000000000000000000000000000000000000000000000000000000000000000000000000000000000000000000000000000000000000000000000000000000000000000000000000000000000000000000000000000000000000000000000000000000000000000000000000000000000000000000000000000000F50000
310
00F500F50000002D000000F500F5000000F5000000000000000000000000002800000000000000000000000000000000000000000000000000F5F5000000000000F52DF500000000000000F5F50000000000000000000000000000000000000000000000000000000000000000000000000000000000000000000000000000
310
000000000000000000000000000000000000000000000000000000000000000000000000000000000000000000000000000000000000000000000000000000000000000000000000000000000000000000000000000000000000000000000000000000000000000000000000000000000000000000000000000000000000F5
310
000000F500F50000002D000000F500F5000000F50000000000000000000000DC002800000000000000000000000000000000000000000000000000F5F5000000000000F52DF500000000000000F5F5000000000000000000000000000000000000000000000000000000000000000000000000000000000000000000000000
310
00000000000000000000000000000000000000000000000000000000000000000000000000000000000000000000000000000000000000000000000000000000000000000000000000000000000000000000000000000000000000000000000000000000000000000000000000000000000000000000000000000000000000
310
00F5000000F500F50000002D000000F500F5000000F500000000000000000000DCDCDC2800000000000000000000000000000000000000000000000000F5F5000000000000F52DF500000000000000F5F500000000000000000000000000000000000000000000000000000000000000000000000000000000000000000000
310
00000000000000000000000000000000000000000000000000000000000000000000000000000000000000000000000000000000000000000000000000000000000000000000000000000000000000000000000000000000000000000000000000000000000000000000000000000000000000000000000000000000000000
310
000000F5000000F500F50000002D000000F500F5000000F500000000000000000000DCDC002800000000000000000000000000000000000000000000000000F5F5000000000000F52DF500000000000000F5F50000000000000000000000000000000000000000000000000000000000000000000000000000000000000000
310
00000000000000000000000000000000000000000000000000000000000000000000000000000000000000000000000000000000000000000000000000000000000000000000000000000000000000000000000000000000000000000000000000000000000000000000000000000000000000000000000000000000000000
310
0000000000F5000000F500F50000002D000000F500F5000000F50000000000000000000000DCDC2800000000000000000000000000000000000000000000000000F5F5000000000000F52DF500000000000000F5F5000000000000000000000000000000000000000000000000000000000000000000000000000000000000
310
00000000000000000000000000000000000000000000000000000000000000000000000000000000000000000000000000000000000000000000000000000000000000000000000000000000000000000000000000000000000000000000000000000000000000000000000000000000000000000000000000000000000000
310
00000000000000F5F5F5F5F5F5F5F5F5F5F5F5F5F5F5F5F5F5F5F5F5000000000000000000000000002800000000000000000000000000000000000000000000000000F5F5F5F5F5F5F5F5F5F5F5F5F5F5F5F5F5F5F5F500000000000000000000000000000000000000000000000000000000000000000000000000000000
310
00000000000000000000000000000000000000000000000000000000000000000000000000000000000000000000000000000000000000000000000000000000000000000000000000000000000000000000000000000000000000000000000000000000000000000000000000000000000000000000000000000000000000
310
00000000000000000000000000000000F500002D0000F500000000000000000000000000000000000000002800000000000000000000000000000000000000000000000000000000000000F500002D000000F50000000000000000000000000000000000000000000000000000000000000000000000000000000000000000
310
00000000000000000000000000000000000000000000000000000000000000000000000000000000000000000000000000000000000000000000000000000000000000000000000000000000000000000000000000000000000000000000000000000000000000000000000000000000000000000000000000000000000000
310
000000000000000000000000000000000000F500002D0000F500000000000000000000000000000000000000002800000000000000000000000000000000000000000000000000000000000000F500002D000000F5000000000000000000000000000000000000000000000000000000000000000000000000000000000000
310
00000000000000000000000000000000000000000000000000000000000000000000000000000000000000000000000000000000000000000000000000000000000000000000000000000000000000000000000000000000000000000000000000000000000000000000000000000000000000000000000000000000000000
310
0000000000000000000000000000000000000000F500002D0000F500000000000000000000000000000000000000002800000000000000000000000000000000000000000000000000000000000000F500002D000000F500000000000000000000000000000000000000000000000000000000000000000000000000000000
310
00000000000000000000000000000000000000000000000000000000000000000000000000000000000000000000000000000000000000000000000000000000000000000000000000000000000000000000000000000000000000000000000000000000000000000000000000000000000000000000000000000000000000
310
00000000000000000000000000000000000000000000F500002D0000F500000000000000000000000000000000000000002800000000000000000000000000000000000000000000000000000000000000F500002D000000F50000000000000000000000000000000000000000000000000000000000000000000000000000
310
00000000000000000000000000000000000000000000000000000000000000000000000000000000000000000000000000000000000000000000000000000000000000000000000000000000000000000000000000000000000000000000000000000000000000000000000000000000000000000000000000000000000000
310
000000000000000000000000000000000000000000000000F500002D0000F500000000000000000000000000000000000000002800000000000000000000000000000000000000000000000000000000000000F500002D000000F5000000000000000000000000000000000000000000000000000000000000000000000000
310
00000000000000000000000000000000000000000000000000000000000000000000000000000000000000000000000000000000000000000000000000000000000000000000000000000000000000000000000000000000000000000000000000000000000000000000000000000000000000000000000000000000000000
310
0000000000000000000000000000000000000000000000000000F5F5F5F5F5F5F500000000000000000000000000000000000000002800000000000000000000000000000000000000000000000000000000000000F5F5F5F5F5F5F5F500000000000000000000000000000000000000000000000000000000000000000000
310
00000000000000000000000000000000000000000000000000000000000000000000000000000000000000000000000000000000000000000000000000000000000000000000000000000000000000000000000000000000000000000000000000000000000000000000000000000000000000000000000000000000000000
310
00000000000000000000000000000000000000F5F5F5F5F5F5F5F5F5F5F5F5F5F5F5F5F5F5F5F5F5F5F5F5F500000000000000000000002800000000000000000000000000000000000000000000F5F5F5F5F5F5F5F5F5F5F5F5F5F5F5F5F5F5F5F5F5F5F5F5F5000000000000000000000000000000000000000000000000
310
00000000000000000000000000000000000000000000000000000000000000000000000000000000000000000000000000000000000000000000000000000000000000000000000000000000000000000000000000000000000000000000000000000000000000000000000000000000000000000000000000000000000000
310
00000000000000000000000000000000000000F5F5F5F5F5F5F5F5F5F5F5F5F5F5F5F5F5F5F5F5F5F5F5F5F5F5F5F5F5000000000000000000280000000000000000000000000000000000000000F5F5F5F5F5F5F5F5F5F5F5F5F5F5F5F5F5F5F5F5F5F5F5F5F5F5F5F5F50000000000000000000000000000000000000000
310
00000000000000000000000000000000000000000000000000000000000000000000000000000000000000000000000000000000000000000000000000000000000000000000000000000000000000000000000000000000000000000000000000000000000000000000000000000000000000000000000000000000000000
310
000000000000000000000000000000000000000000F5F5000000F500F50000000000F52DF50000000000F500F5000000F5F5000000000000000000280000000000000000000000000000000000000000F5000000F500000000F500F500002D000000F5F50000000000F50000F5000000000000000000000000000000000000
310
00000000000000000000000000000000000000000000000000000000000000000000000000000000000000000000000000000000000000000000000000000000000000000000000000000000000000000000000000000000000000000000000000000000000000000000000000000000000000000000000000000000000000
310
0000000000000000000000000000000000000000000000F5F5000000F500F50000000000F52DF50000000000F500F5000000F5F5000000000000000000280000000000000000000000000000000000000000F5000000F500000000F500F500002D000000F5F50000000000F50000F500000000000000000000000000000000
310
00000000000000000000000000000000000000000000000000000000000000000000000000000000000000000000000000000000000000000000000000000000000000000000000000000000000000000000000000000000000000000000000000000000000000000000000000000000000000000000000000000000000000
310
00000000000000000000000000000000000000000000000000F5F5000000F500F50000000000F52DF50000000000F500F5000000F5F5000000000000000000280000000000000000000000000000000000000000F5000000F500000000F500F500002D000000F5F50000000000F50000F50000000000000000000000000000
310
00000000000000000000000000000000000000000000000000000000000000000000000000000000000000000000000000000000000000000000000000000000000000000000000000000000000000000000000000000000000000000000000000000000000000000000000000000000000000000000000000000000000000
310
000000000000000000000000000000000000000000000000000000F5F5000000F500F50000000000F52DF50000000000F500F5000000F5F5000000000000000000280000000000000000000000000000000000000000F5000000F500000000F500F500002D000000F5F50000000000F50000F5000000000000000000000000
310
00000000000000000000000000000000000000000000000000000000000000000000000000000000000000000000000000000000000000000000000000000000000000000000000000000000000000000000000000000000000000000000000000000000000000000000000000000000000000000000000000000000000000
310
0000000000000000000000000000000000000000000000000000000000F5F5000000F500F50000000000F52DF50000000000F500F5000000F5F5000000000000000000280000000000000000000000000000000000000000F5000000F500000000F500F500002D000000F5F50000000000F50000F500000000000000000000
310
00000000000000000000000000000000000000000000000000000000000000000000000000000000000000000000000000000000000000000000000000000000000000000000000000000000000000000000000000000000000000000000000000000000000000000000000000000000000000000000000000000000000000
310
00000000000000000000000000000000000000000000000000000000000000F5F5000000F500F50000000000F52DF50000000000F500F5000000F5F5000000000000000000280000000000000000000000000000000000000000F5000000F500000000F500F500002D000000F5F50000000000F50000F50000000000000000
310
00000000000000000000000000000000000000000000000000000000000000000000000000000000000000000000000000000000000000000000000000000000000000000000000000000000000000000000000000000000000000000000000000000000000000000000000000000000000000000000000000000000000000
310
000000000000000000000000000000000000000000000000000000000000000000F5F5000000F500F50000000000F52DF50000000000F500F5000000F5F5000000000000000000280000000000000000000000000000000000000000F5000000F500000000F500F500002D000000F5F50000000000F50000F5000000000000
310
00000000000000000000000000000000000000000000000000000000000000000000000000000000000000000000000000000000000000000000000000000000000000000000000000000000000000000000000000000000000000000000000000000000000000000000000000000000000000000000000000000000000000
310
0000000000000000000000000000000000000000000000000000000000000000000000F5F5000000F500F50000000000F52DF50000000000F500F5000000F5F5000000000000000000280000000000000000000000000000000000000000F5000000F500000000F500F500002D000000F5F50000000000F50000F500000000
310
00000000000000000000000000000000000000000000000000000000000000000000000000000000000000000000000000000000000000000000000000000000000000000000000000000000000000000000000000000000000000000000000000000000000000000000000000000000000000000000000000000000000000
310
00000000000000000000000000000000000000000000000000000000000000000000000000F5F5000000F500F50000000000F52DF50000000000F500F5000000F5F5000000000000000000280000000000000000000000000000000000000000F5000000F500000000F500F500002D000000F5F50000000000F50000F50000
310
00000000000000000000000000000000000000000000000000000000000000000000000000000000000000000000000000000000000000000000000000000000000000000000000000000000000000000000000000000000000000000000000000000000000000000000000000000000000000000000000000000000000000
310
000000000000000000000000000000000000000000000000000000000000000000000000000000F5F5000000F500F50000000000F52DF50000000000F500F5000000F5F5000000000000000000280000000000000000000000000000000000000000F5000000F500000000F500F500002D000000F5F50000000000F50000F5
310
00000000000000000000000000000000000000000000000000000000000000000000000000000000000000000000000000000000000000000000000000000000000000000000000000000000000000000000000000000000000000000000000000000000000000000000000000000000000000000000000000000000000000
310
0000000000000000000000000000000000000000000000000000000000000000000000000000000000F500F50000F500F500000000F5002D00F500000000F500F50000F500F500000000000000000028000000000000000000000000000000000000000000F50000F5F50000F5F50000F5002D0000F50000F5F50000F50000
310
00F50000000000000000000000000000000000000000000000000000000000000000000000000000000000000000000000000000000000000000000000000000000000000000000000000000000000000000000000000000000000000000000000000000000000000000000000000000000000000000000000000000000000
310
0000000000000000000000000000000000000000000000000000000000000000000000000000000000000000F5F5F5F5F5F5F5F5F5F5F5F5F5F5F5F5F5F5F5F5F5F5F5F5F5F5F50000000000000000000028000000000000000000000000000000000000000000F5F5F5F5F5F5F5F5F5F5F5F5F5F5F5F5F5F5F5F5F5F5F5F5
310
F5F5F500000000000000000000000000000000000000000000000000000000000000000000000000000000000000000000000000000000000000000000000000000000000000000000000000000000000000000000000000000000000000000000000000000000000000000000000000000000000000000000000000000000
310
0000000000000000000000000000000000000000000000000000000000000000000000000000000000000000000000F500000000000000000000002D0000000000000000000000F500000000000000000000282800000000000000000000000000000000000000000000F500000000000000000000002D0000000000000000
310
000000F5000000000000000000000000000000000000000000000000000000000000000000000000000000000000000000000000000000000000000000000000000000000000000000000000000000000000000000000000000000000000000000000000000000000000000000000000000000000000000000000000000000
310
00000000000000000000000000000000000000000000000000000000000000000000000000000000000000000000000000F5F5F5F5F5F5F5F5F5F5F5F5F5F5F5F5F5F5F5F5F5F5F5F5F528282828282828282828282800000000000000000000000000000000000000000000F5F5F5F5F5F5F5F5F5F5F5F5F5F5F5F5F5F5F5
310
F5F5F5F5F5F500000000000000000000000000000000000000000000000000000000000000000000000000000000000000000000000000000000000000000000000000000000000000000000000000000000000000000000000000000000000000000000000000000000000000000000000000000000000000000000000000
310
0000000000000000000000000000000000000000000000000000000000000000000000000000000000000000000000000000000000000000000000000000002D000000000000000000000000000000000000000000000000000000000000000000000000000000000000000000000000000000000000000000002D00000000
310
00000000000000000000000000000000000000000000000000000000000000000000000000000000000000000000000000000000000000000000000000000000000000000000000000000000000000000000000000000000000000000000000000000000000000000000000000000000000000000000000000000000000000
310
00000000000000000000000000000000000000000000000000000000000000000000000000000000000000000000000000000000000000000000000000000000002D000000000000000000000000000000000000000000000000000000000000000000000000000000000000000000000000000000000000000000002D0000
310
00000000000000000000000000000000000000000000000000000000000000000000000000000000000000000000000000000000000000000000000000000000000000000000000000000000000000000000000000000000000000000000000000000000000000000000000000000000000000000000000000000000000000
310
000000000000000000000000000000000000000000000000000000000000000000000000000000000000000000000000000000000000000000000000000000000000002D0000000000000000000000000000000000000000000000000000000000000000000000000000000000000000000000000000000000000000000000
310
00000000000000000000000000000000000000000000000000000000000000000000000000000000000000000000000000000000000000000000000000000000000000000000000000000000000000000000000000000000000000000000000000000000000000000000000000000000000000000000000000000000000000
310
00000000000000000000000000000000000000000000000000000000000000000000000000000000000000000000000000000000000000000000000000000000000000000000000000000000000000000000000000000000000000000000000000000000000000000000000000000000000000000000000000000000000000
310
00000000000000000000000000000000000000000000000000000000000000000000000000000000000000000000000000000000000000000000000000000000000000000000000000000000000000000000000000000000000000000000000000000000000000000000000000000000000000000000000000000000000000
310
00000000000000000000000000000000000000000000000000000000000000000000000000000000000000000000000000000000000000000000000000000000000000000000000000000000000000000000000000000000000000000000000000000000000000000000000000000000000000000000000000000000000000
310
00000000000000000000000000000000000000000000000000000000000000000000000000000000000000000000000000000000000000000000000000000000000000000000000000000000000000000000000000000000000000000000000000000000000000000000000000000000000000000000000000000000000000
310
00000000000000000000000000000000000000000000000000000000000000000000000000000000000000000000000000000000000000000000000000000000000000000000000000000000000000000000000000000000000000000000000000000000000000000000000000000000000000000000000000000000000000
310
00000000000000000000000000000000000000000000000000000000000000000000000000000000000000000000000000000000000000000000000000000000000000000000000000000000000000000000000000000000000000000000000000000000000000000000000000000000000000000000000000000000000000
310
0000000000000000000000000000000000000000000000000000000000000000000000000000000000000000000000000000000000000000000000000000000000000000000000000000002D000000000000000000000000000000000000000000000000000000000000000000000000000000000000000000000000000000
310
00000000000000000000000000000000000000000000000000000000000000000000000000000000000000000000000000000000000000000000000000000000000000000000000000000000000000000000000000000000000000000000000000000000000000000000000000000000000000000000000000000000000000
310
00000000000000000000000000000000000000000000000000000000000000000000000000000000000000000000000000000000000000000000000000000000000000000000000000000000002D00000000000000000000000000000000000000000000000000000000000000000000000000000000000000000000000000
310
00000000000000000000000000000000000000000000000000000000000000000000000000000000000000000000000000000000000000000000000000000000000000000000000000000000000000000000000000000000000000000000000000000000000000000000000000000000000000000000000000000000000000
310
000000000000000000000000000000000000000000000000000000000000000000000000000000000000000000000000000000000000000000000000000000000000000000000000000000000000F52DF500000000000000000000000000000000000000000000000000000000000000000000000000000000000000000000
310
00000000000000000000000000000000000000000000000000000000000000000000000000000000000000000000000000000000000000000000000000000000000000000000000000000000000000000000000000000000000000000000000000000000000000000000000000000000000000000000000000000000000000
310
00000000000000000000000000000000000000000000000000000000000000000000000000000000000000000000000000000000000000000000000000000000000000000000000000000000000000F5002D00F500000000000000000000000000000000000000000000000000000000000000000000000000000000000000
310
00000000000000000000000000000000000000000000000000000000000000000000000000000000000000000000000000000000000000000000000000000000000000000000000000000000000000000000000000000000000000000000000000000000000000000000000000000000000000000000000000000000000000
310
000000000000000000000000000000000000000000000000000000000000000000000000000000000000000000000000000000000000000000000000000000000000000000000000000000F5F5F5F5F5F5F5F52DF5F5F5F5F5F5F5F50000000000000000000000000000000000000000000000000000000000000000000000
310
00000000000000000000000000000000000000000000000000000000000000000000000000000000000000000000000000000000000000000000000000000000000000000000000000000000000000000000000000000000000000000000000000000000000000000000000000000000000000000000000000000000000000
310
00000000000000000000000000000000000000000000000000000000000000000000000000000000000000000000000000000000000000000000000000000000000000000000000000000000F5000000F5F50000002D000000F5F5000000F50000000000000000000000000000000000000000000000000000000000000000
310
00000000000000000000000000000000000000000000000000000000000000000000000000000000000000000000000000000000000000000000000000000000000000000000000000000000000000000000000000000000000000000000000000000000000000000000000000000000000000000000000000000000000000
310
000000000000000000000000000000000000000000000000000000000000000000000000000000000000000000000000000000000000000000000000000000000000000000000000000000000000F500F5F500F5F5F5F52DF5F5F5F500F5F500F5000000000000000000000000000000000000000000000000000000000000
310
00000000000000000000000000000000000000000000000000000000000000000000000000000000000000000000000000000000000000000000000000000000000000000000000000000000000000000000000000000000000000000000000000000000000000000000000000000000000000000000000000000000000000
310
0000000000000000000000000000000000000000000000000000000000000000000000000000000000000000000000000000000000000000000000000000000000000000000000000000000000000000F5F50000F5000000002D00000000F50000F5F500000000000000000000000000000000000000000000000000000000
310
00000000000000000000000000000000000000000000000000000000000000000000000000000000000000000000000000000000000000000000000000000000000000000000000000000000000000000000000000000000000000000000000000000000000000000000000000000000000000000000000000000000000000
310
00000000000000000000000000000000000000000000000000000000000000000000000000000000000000000000000000000000000000000000000000000000000000000000000000000000000000000000F50000F500000000002D0000000000F50000F50000000000000000000000000000000000000000000000000000
310
00000000000000000000000000000000000000000000000000000000000000000000000000000000000000000000000000000000000000000000000000000000000000000000000000000000000000000000000000000000000000000000000000000000000000000000000000000000000000000000000000000000000000
310
0000000000000000000000000000000000000000000000000000000000000000000000000000000000000000000000000000000000000000000000000000000000000000000000000000000000000000000000F500F5F50000000000002D000000000000F5F5F5F50000000000000000000000000000000000000000000000
310
00000000000000000000000000000000000000000000000000000000000000000000000000000000000000000000000000000000000000000000000000000000000000000000000000000000000000000000000000000000000000000000000000000000000000000000000000000000000000000000000000000000000000
310
00000000000000000000000000000000000000000000000000000000000000000000000000000000000000000000000000000000000000000000000000000000000000000000000000000000000000000000F5F5F50000F5000000000000002D000000000000F5F5F500F5F5F5000000000000000000000000000000000000
310
00000000000000000000000000000000000000000000000000000000000000000000000000000000000000000000000000000000000000000000000000000000000000000000000000000000000000000000000000000000000000000000000000000000000000000000000000000000000000000000000000000000000000
310
000000000000000000000000000000000000000000000000000000000000000000000000000000000000000000000000000000000000000000000000000000000000000000000000000000000000000000000000F500F500F500000000000000002D000000000000F5F5F500F50028F5000000000000000000000000000000
310
00000000000000000000000000000000000000000000000000000000000000000000000000000000000000000000000000000000000000000000000000000000000000000000000000000000000000000000000000000000000000000000000000000000000000000000000000000000000000000000000000000000000000
310
0000000000000000000000000000000000000000000000000000000000000000000000000000000000000000000000000000000000000000000000000000000000000000000000000000000000000000000000000000F500F500F500000000000000002D000000000000F5F5F5F5F50028F500000000000000000000000000
310
00000000000000000000000000000000000000000000000000000000000000000000000000000000000000000000000000000000000000000000000000000000000000000000000000000000000000000000000000000000000000000000000000000000000000000000000000000000000000000000000000000000000000
310
0000000000000000000000000000000000000000000000000000000000000000000000000000000000000000000000000000000000000000000000000000000000000000000000000000000000000000000000000000000000F5F5F50000000000000000002D000000000000F5F5F5F5F5F528000000000000000000000000
310
00000000000000000000000000000000000000000000000000000000000000000000000000000000000000000000000000000000000000000000000000000000000000000000000000000000000000000000000000000000000000000000000000000000000000000000000000000000000000000000000000000000000000
310
00000000000000000000000000000000000000000000000000000000000000000000000000000000000000000000000000000000000000000000000000000000000000000000000000000000000000000000000000000000000000F5F5F5F5F5F5F5F5F5F5F5F52DF5F5F5F5F5F5F5F5F5F500F50028000000000000000000
310
00000000000000000000000000000000F5F5F5F5F5F5F5F5F5F5F5F5F5F5F5F5F5F5F5F5F5F5F5F5F5F5F5F5F5F5F5F500000000000000000000000000000000000000000000000000000000000000000000000000000000000000000000000000000000000000000000000000000000000000000000000000000000000000
310
00000000000000000000000000000000000000000000000000000000000000000000000000000000000000000000000000000000000000000000000000000000000000000000000000000000000000000000000000000000002D2D2D2D2D2D2D2D2D2D2D2D2D2D2D2D2D2D2D2D2D2D2D2D2D2D2D2D2D2D282D2D0000000000
310
000000000000000000000000000000000000F5F5F5F5F5F5F5F5F5F5F5F5F5F5F5F5F5F5F5F5F5F5F5F5F5F5F5F5F5F5F5F50000000000000000000000000000000000000000000000000000000000000000000000000000000000000000000000000000000000000000000000000000000000000000000000000000000000
310
0000000000000000000000000000000000000000000000000000000000000000000000000000000000000000000000000000000000000000000000000000000000000000000000000000000000000000000000000000000000000000000000F500F5F5F5F5F5F5F5F5F5F52DF5F5F5F5F5F5F5F5F5F500F500280000000000
310
00000000000000000000000000000000000000000000000000000000000000000000000000000000000000000000000000000000000000000000000000000000000000000000000000000000000000000000000000000000000000000000000000000000000000000000000000000000000000000000000000000000000000
310
00000000000000000000000000000000000000000000000000000000000000000000000000000000000000000000000000000000000000000000000000000000000000000000000000000000000000000000000000000000000000000000000000F5F5F5F5F5F5F5F5F5F5F5F52DF5F5F5F5F5F5F5F5F5F5F5F50000280000
310
00000000000000000000000000000000000000000000000000000000000000000000000000000000000000000000000000000000000000000000000000000000000000000000000000000000000000000000000000000000000000000000000000000000000000000000000000000000000000000000000000000000000000
310
0000000000000000000000000000000000000000000000000000000000000000000000000000000000000000000000000000000000000000000000000000000000000000000000000000000000000000000000000000000000000000000000000000F500F5F5F5F5F50000000000002D000000000000000000F5F500F50028
310
00000000000000000000000000000000000000000000000000000000000000000000000000000000000000000000000000000000000000000000000000000000000000000000000000000000000000000000000000000000000000000000000000000000000000000000000000000000000000000000000000000000000000
310
00000000000000000000000000000000000000000000000000000000000000000000000000000000000000000000000000000000000000000000000000000000000000000000000000000000000000000000000000000000000000000000000000000000F500F500F5F5F50000000000002D000000000000000000F5F500F5
310
F5280000000000000000000000000000000000000000000000000000000000000000000000000000000000000000000000000000000000000000000000000000000000000000000000000000000000000000000000000000000000000000000000000000000000000000000000000000000000000000000000000000000000
310
0000000000000000000000000000000000000000000000000000000000000000000000000000000000000000000000000000000000000000000000000000000000000000000000000000000000000000000000000000000000000000000000000000000000002800F500F5F5F50000000000002D0000000000000000F500F5
310
00F50000280000000000000000000000000000000000000000000000000000000000000000000000000000000000000000000000000000000000000000000000000000000000000000000000000000000000000000000000000000000000000000000000000000000000000000000000000000000000000000000000000000
310
000000000000000000000000000000000000000000000000000000000000000000000000000000000000000000000000000000000000000000000000000000000000000000000000000000000000000000000000000000000000000000000000000000000000000028F5F5F500F5000000000000002D0000000000000000F5
310
F5F5F5F5000028000000000000000000000000000000000000000000000000000000000000000000000000000000000000000000000000000000000000000000000000000000000000000000000000000000000000000000000000000000000000000000000000000000000000000000000000000000000000000000000000
310
00000000000000000000000000000000000000000000000000000000000000000000000000000000000000000000000000000000000000000000000000000000000000000000000000000000000000000000000000000000000000000000000000000000000000000000002800F500F5000000000000002D00000000000000
310
F500F500000000000028000000000000000000000000000000000000000000000000000000000000000000000000000000000000000000000000000000000000000000000000000000000000000000000000000000000000000000000000000000000000000000000000000000000000000000000000000000000000000000
310
00000000000000000000000000000000000000000000000000000000000000000000000000000000000000000000000000000000000000000000000000000000000000000000000000000000000000000000000000000000000000000000000000000000000000000000000000280000F500F5F500000000002D0000000000
310
F5F500F5000000000000002800000000000000000000000000000000000000000000000000000000000000000000000000000000000000000000000000000000000000000000000000000000000000000000000000000000000000000000000000000000000000000000000000000000000000000000000000000000000000
310
000000000000000000000000000000000000000000000000000000000000000000000000000000000000000000000000000000000000000000000000000000000000000000000000000000000000000000000000000000000000000000000000000000000000000000000000000000280000F5F5F500F5F50000002D000000
310
F5F500F5F5F500000000000000280000000000000000000000000000000000000000000000000000000000000000000000000000000000000000000000000000000000000000000000000000000000000000000000000000000000000000000000000000000000000000000000000000000000000000000000000000000000
310
0000000000000000000000000000000000000000000000000000000000000000000000000000000000000000000000000000000000000000000000000000000000000000000000000000000000000000000000000000000000000000000000000000000000000000000000000000000000002800F50000F50000F5F5F52DF5
310
F5F50000F50000F50000000000000000280000000000000000000000000000000000000000000000000000000000000000000000000000000000000000000000000000000000000000000000000000000000000000000000000000000000000000000000000000000000000000000000000000000000000000000000000000
310
00000000000000000000000000000000000000000000000000000000000000000000000000000000000000000000000000000000000000000000000000000000000000000000000000000000000000000000000000000000000000000000000000000000000000000000000000000000000000002800F50000F5F5F5000000
310
2D000000F5F5F50000F5000000000000000028000000000000000000000000000000000000000000000000000000000000000000000000000000000000000000000000000000000000000000000000000000000000000000000000000000000000000000000000000000000000000000000000000000000000000000000000
310
00000000000000000000000000000000000000000000000000000000000000000000000000000000000000000000000000000000000000000000000000000000000000000000000000000000000000000000000000000000000000000000000000000000000000000000000000000000000000000000280000F5F50000F5F5
310
F5F52DF5F5F5F50000F5F50000000000000000002800000000000000000000000000000000000000000000000000000000000000000000000000000000000000000000000000000000000000000000000000000000000000000000000000000000000000000000000000000000000000000000000000000000000000000000
310
00000000000000000000000000000000000000000000000000000000000000000000000000000000000000000000000000000000000000000000000000000000000000000000000000000000000000000000000000000000000000000000000000000000000000000000000000000000000000000000000000280000000000
310
0000F5002D00F5000000000000000000000000000000002800000000000000000000000000000000000000000000000000000000000000000000000000000000000000000000000000000000000000000000000000000000000000000000000000000000000000000000000000000000000000000000000000000000000000
310
00000000000000000000000000000000000000000000000000000000000000000000000000000000000000000000000000000000000000000000000000000000000000000000000000000000000000000000000000000000000000000000000000000000000000000000000000000000000000000000000000000028000000
310
0000000000F52DF50000000000000000000000000000002828280000000000000000000000000000000000000000000000000000000000000000000000000000000000000000000000000000000000000000000000000000000000000000000000000000000000000000000000000000000000000000000000000000000000
310
00000000000000000000000000000000000000000000000000000000000000000000000000000000000000000000000000000000000000000000000000000000000000000000000000000000000000000000000000000000000000000000000000000000000000000000000000000000000000000000000000000000002800
310
00000000000000002D00000000000000000000000000282828000000000000000000000000000000000000000000000000000000000000000000000000000000000000000000000000000000000000000000000000000000000000000000000000000000000000000000000000000000000000000000000000000000000000
310
00000000000000000000000000000000000000000000000000000000000000000000000000000000000000000000000000000000000000000000000000000000000000000000000000000000000000000000000000000000000000000000000000000000000000000000000000000000000000000000000000000000000000
310
002800000000000000002D0000000000000000000028282800000000000000000000000000000000000000000000000000000000000000000000000000000000000000000000000000000000000000000000000000000000000000000000000000000000000000000000000000000000000000000000000000000000000000
310
00000000000000000000000000000000000000000000000000000000000000000000000000000000000000000000000000000000000000000000000000000000000000000000000000000000000000000000000000000000000000000000000000000000000000000000000000000000000000000000000000000000000000
310
00000028000000000000000000000000000000002828280000000000000000000000000000000000000000000000000000000000000000000000000000000000000000000000000000000000000000000000000000000000000000000000000000000000000000000000000000000000000000000000000000000000000000
310
00000000000000000000000000000000000000000000000000000000000000000000000000000000000000000000000000000000000000000000000000000000000000000000000000000000000000000000000000000000000000000000000000000000000000000000000000000000000000000000000000000000000000
310
000000000028000000000000000000000000002828DC000000000000000000000000000000000000000000000000000000000000000000000000000000000000000000000000000000000000000000000000000000000000000000000000000000000000000000000000000000000000000000000000000000000000000000
310
00000000000000000000000000000000000000000000000000000000000000000000000000000000000000000000000000000000000000000000000000000000000000000000000000000000000000000000000000000000000000000000000000000000000000000000000000000000000000000000000000000000000000
310
000000000000000028000000000000000000282828DCDCDC00000000000000000000000000000000000000000000000000000000000000000000000000000000000000000000000000000000000000000000000000000000000000000000000000000000000000000000000000000000000000000000000000000000000000
310
00000000000000000000000000000000000000000000000000000000000000000000000000000000000000000000000000000000000000000000000000000000000000000000000000000000000000000000000000000000000000000000000000000000000000000000000000000000000000000000000000000000000000
310
0000000000000000000028000000000000282828000000DCDCDC0000000000000000000000000000000000000000000000000000000000000000000000000000000000000000000000000000000000000000000000000000000000000000000000000000000000000000000000000000000000000000000000000000000000
310
00000000000000000000000000000000000000000000000000000000000000000000000000000000000000000000000000000000000000000000000000000000000000000000000000000000000000000000000000000000000000000000000000000000000000000000000000000000000000000000000000000000000000
310
0000000000000000000000002800280028282800000000000000DC00000000000000000000000000000000000000000000000000000000000000000000000000000000000000000000000000000000000000000000000000000000000000000000000000000000000000000000000000000000000000000000000000000000
310
00000000000000000000000000000000000000000000000000000000000000000000000000000000000000000000000000000000000000000000000000000000000000000000000000000000000000000000000000000000000000000000000000000000000000000000000000000000000000000000000000000000000000
310
00000000000000000000000000002828282800000000000000000000000000000000000000000000000000000000000000000000000000000000000000000000000000000000000000000000000000000000000000000000000000000000000000000000000000000000000000000000000000000000000000000000000000
310
00000000000000000000000000000000000000000000000000000000000000000000000000000000000000000000000000000000000000000000000000000000000000000000000000000000000000000000000000000000000000000000000000000000000000000000000000000000000000000000000000000000000000
310
00000000000000000000000000000000002800000000000000000000000000000000000000000000000000000000000000000000000000000000000000000000000000000000000000000000000000000000000000000000000000000000000000000000000000000000000000000000000000000000000000000000000000
310
00000000000000000000000000000000000000000000000000000000000000000000000000000000
  0
XRECORD
  5
2C96
102
{ACAD_REACTORS
330
2C95
102
}
330
2C95
100
AcDbXrecord
280
     1
102
MATERIAL
148
0.0
149
0.0
149
0.0
 93
        0
 94
       63
282
     0
 72
     1
 77
     1
171
     1
175
     1
179
     1
273
     0
  0
XRECORD
  5
2C98
102
{ACAD_REACTORS
330
2C97
102
}
330
2C97
100
AcDbXrecord
280
     1
102
MATERIAL
148
0.0
149
0.0
149
0.0
 93
        0
 94
       63
282
     0
 72
     1
 77
     1
171
     1
175
     1
179
     1
273
     0
  0
XRECORD
  5
2C94
102
{ACAD_REACTORS
330
2C93
102
}
330
2C93
100
AcDbXrecord
280
     1
102
MATERIAL
148
0.0
149
0.0
149
0.0
 93
        0
 94
       63
282
     0
 72
     1
 77
     1
171
     1
175
     1
179
     1
273
     0
  0
CELLSTYLEMAP
  5
2C86
102
{ACAD_REACTORS
330
2396
102
}
330
2396
100
AcDbCellStyleMap
 90
        3
300
CELLSTYLE
  1
TABLEFORMAT_BEGIN
 90
        5
170
     1
 91
        0
 92
    32768
 62
   257
 93
        1
300
CONTENTFORMAT
  1
CONTENTFORMAT_BEGIN
 90
        0
 91
        0
 92
      512
 93
        0
300

 40
0.0
140
1.0
 94
        5
 62
     0
340
11
144
6.0
309
CONTENTFORMAT_END
171
     1
301
MARGIN
  1
CELLMARGIN_BEGIN
 40
1.5
 40
1.5
 40
1.5
 40
1.5
 40
0.18
 40
0.18
309
CELLMARGIN_END
 94
        6
 95
        1
302
GRIDFORMAT
  1
GRIDFORMAT_BEGIN
 90
        0
 91
        1
 62
     0
 92
       -2
340
0
 93
        0
 40
0.045
309
GRIDFORMAT_END
 95
        2
302
GRIDFORMAT
  1
GRIDFORMAT_BEGIN
 90
        0
 91
        1
 62
     0
 92
       -2
340
0
 93
        0
 40
0.045
309
GRIDFORMAT_END
 95
        4
302
GRIDFORMAT
  1
GRIDFORMAT_BEGIN
 90
        0
 91
        1
 62
     0
 92
       -2
340
0
 93
        0
 40
0.045
309
GRIDFORMAT_END
 95
        8
302
GRIDFORMAT
  1
GRIDFORMAT_BEGIN
 90
        0
 91
        1
 62
     0
 92
       -2
340
0
 93
        0
 40
0.045
309
GRIDFORMAT_END
 95
       16
302
GRIDFORMAT
  1
GRIDFORMAT_BEGIN
 90
        0
 91
        1
 62
     0
 92
       -2
340
0
 93
        0
 40
0.045
309
GRIDFORMAT_END
 95
       32
302
GRIDFORMAT
  1
GRIDFORMAT_BEGIN
 90
        0
 91
        1
 62
     0
 92
       -2
340
0
 93
        0
 40
0.045
309
GRIDFORMAT_END
309
TABLEFORMAT_END
  1
CELLSTYLE_BEGIN
 90
        1
 91
        1
300
_TITLE
309
CELLSTYLE_END
300
CELLSTYLE
  1
TABLEFORMAT_BEGIN
 90
        5
170
     1
 91
        0
 92
        0
 62
   257
 93
        1
300
CONTENTFORMAT
  1
CONTENTFORMAT_BEGIN
 90
        0
 91
        0
 92
      512
 93
        0
300

 40
0.0
140
1.0
 94
        5
 62
     0
340
11
144
4.5
309
CONTENTFORMAT_END
171
     1
301
MARGIN
  1
CELLMARGIN_BEGIN
 40
1.5
 40
1.5
 40
1.5
 40
1.5
 40
0.18
 40
0.18
309
CELLMARGIN_END
 94
        6
 95
        1
302
GRIDFORMAT
  1
GRIDFORMAT_BEGIN
 90
        0
 91
        1
 62
     0
 92
       -2
340
0
 93
        0
 40
0.045
309
GRIDFORMAT_END
 95
        2
302
GRIDFORMAT
  1
GRIDFORMAT_BEGIN
 90
        0
 91
        1
 62
     0
 92
       -2
340
0
 93
        0
 40
0.045
309
GRIDFORMAT_END
 95
        4
302
GRIDFORMAT
  1
GRIDFORMAT_BEGIN
 90
        0
 91
        1
 62
     0
 92
       -2
340
0
 93
        0
 40
0.045
309
GRIDFORMAT_END
 95
        8
302
GRIDFORMAT
  1
GRIDFORMAT_BEGIN
 90
        0
 91
        1
 62
     0
 92
       -2
340
0
 93
        0
 40
0.045
309
GRIDFORMAT_END
 95
       16
302
GRIDFORMAT
  1
GRIDFORMAT_BEGIN
 90
        0
 91
        1
 62
     0
 92
       -2
340
0
 93
        0
 40
0.045
309
GRIDFORMAT_END
 95
       32
302
GRIDFORMAT
  1
GRIDFORMAT_BEGIN
 90
        0
 91
        1
 62
     0
 92
       -2
340
0
 93
        0
 40
0.045
309
GRIDFORMAT_END
309
TABLEFORMAT_END
  1
CELLSTYLE_BEGIN
 90
        2
 91
        1
300
_HEADER
309
CELLSTYLE_END
300
CELLSTYLE
  1
TABLEFORMAT_BEGIN
 90
        5
170
     1
 91
        0
 92
        0
 62
   257
 93
        1
300
CONTENTFORMAT
  1
CONTENTFORMAT_BEGIN
 90
        0
 91
        0
 92
      512
 93
        0
300

 40
0.0
140
1.0
 94
        2
 62
     0
340
11
144
4.5
309
CONTENTFORMAT_END
171
     1
301
MARGIN
  1
CELLMARGIN_BEGIN
 40
1.5
 40
1.5
 40
1.5
 40
1.5
 40
0.18
 40
0.18
309
CELLMARGIN_END
 94
        6
 95
        1
302
GRIDFORMAT
  1
GRIDFORMAT_BEGIN
 90
        0
 91
        1
 62
     0
 92
       -2
340
0
 93
        0
 40
0.045
309
GRIDFORMAT_END
 95
        2
302
GRIDFORMAT
  1
GRIDFORMAT_BEGIN
 90
        0
 91
        1
 62
     0
 92
       -2
340
0
 93
        0
 40
0.045
309
GRIDFORMAT_END
 95
        4
302
GRIDFORMAT
  1
GRIDFORMAT_BEGIN
 90
        0
 91
        1
 62
     0
 92
       -2
340
0
 93
        0
 40
0.045
309
GRIDFORMAT_END
 95
        8
302
GRIDFORMAT
  1
GRIDFORMAT_BEGIN
 90
        0
 91
        1
 62
     0
 92
       -2
340
0
 93
        0
 40
0.045
309
GRIDFORMAT_END
 95
       16
302
GRIDFORMAT
  1
GRIDFORMAT_BEGIN
 90
        0
 91
        1
 62
     0
 92
       -2
340
0
 93
        0
 40
0.045
309
GRIDFORMAT_END
 95
       32
302
GRIDFORMAT
  1
GRIDFORMAT_BEGIN
 90
        0
 91
        1
 62
     0
 92
       -2
340
0
 93
        0
 40
0.045
309
GRIDFORMAT_END
309
TABLEFORMAT_END
  1
CELLSTYLE_BEGIN
 90
        3
 91
        2
300
_DATA
309
CELLSTYLE_END
  0
XRECORD
  5
2CB9
102
{ACAD_REACTORS
330
2396
102
}
330
2396
100
AcDbXrecord
280
     1
102
ACAD_ROUNDTRIP_PRE2007_TABLESTYLE
 90
      512
 91
        0
  1

 92
      512
 93
        0
  2

 94
      512
 95
        0
  3

  0
XRECORD
  5
2CA4
102
{ACAD_REACTORS
330
2CA3
102
}
330
2CA3
100
AcDbXrecord
280
     1
102
RTVSPropertyOp0
 70
     1
102
RTVSPropertyOp1
 70
     1
102
RTVSPropertyOp2
 70
     1
102
RTVSPropertyOp3
 70
     1
102
RTVSPropertyOp4
 70
     1
102
RTVSPropertyOp5
 70
     1
102
RTVSPropertyOp6
 70
     1
102
RTVSPropertyOp7
 70
     1
102
RTVSPropertyOp8
 70
     1
102
RTVSPropertyOp9
 70
     1
102
RTVSPropertyOp10
 70
     1
102
RTVSPropertyOp11
 70
     1
102
RTVSPropertyOp12
 70
     1
102
RTVSPropertyOp13
 70
     1
102
RTVSPropertyOp14
 70
     1
102
RTVSPropertyOp15
 70
     1
102
RTVSPropertyOp16
 70
     1
102
RTVSPropertyOp17
 70
     1
102
RTVSPropertyOp18
 70
     1
102
RTVSPropertyOp19
 70
     1
102
RTVSPropertyOp20
 70
     1
102
RTVSPropertyOp21
 70
     1
102
RTVSPropertyOp22
 70
     1
102
RTVSPropertyOp23
 70
     1
102
RTVSPropertyOp24
 70
     1
102
RTVSPropertyOp25
 70
     1
102
RTVSPropertyOp26
 70
     1
102
RTVSPropertyOp27
 70
     1
102
RTVSPropertyOp28
 70
     1
102
RTVSPropertyOp29
 70
     1
102
RTVSPropertyOp30
 70
     1
102
RTVSPropertyOp31
 70
     1
102
RTVSPropertyOp32
 70
     1
  0
XRECORD
  5
2CA8
102
{ACAD_REACTORS
330
2CA7
102
}
330
2CA7
100
AcDbXrecord
280
     1
102
RTVSPropertyOp0
 70
     1
102
RTVSPropertyOp1
 70
     1
102
RTVSPropertyOp2
 70
     1
102
RTVSPropertyOp3
 70
     1
102
RTVSPropertyOp4
 70
     1
102
RTVSPropertyOp5
 70
     1
102
RTVSPropertyOp6
 70
     1
102
RTVSPropertyOp7
 70
     1
102
RTVSPropertyOp8
 70
     1
102
RTVSPropertyOp9
 70
     1
102
RTVSPropertyOp10
 70
     1
102
RTVSPropertyOp11
 70
     1
102
RTVSPropertyOp12
 70
     1
102
RTVSPropertyOp13
 70
     1
102
RTVSPropertyOp14
 70
     1
102
RTVSPropertyOp15
 70
     1
102
RTVSPropertyOp16
 70
     1
102
RTVSPropertyOp17
 70
     1
102
RTVSPropertyOp18
 70
     1
102
RTVSPropertyOp19
 70
     1
102
RTVSPropertyOp20
 70
     1
102
RTVSPropertyOp21
 70
     1
102
RTVSPropertyOp22
 70
     1
102
RTVSPropertyOp23
 70
     1
102
RTVSPropertyOp24
 70
     1
102
RTVSPropertyOp25
 70
     1
102
RTVSPropertyOp26
 70
     1
102
RTVSPropertyOp27
 70
     1
102
RTVSPropertyOp28
 70
     1
102
RTVSPropertyOp29
 70
     1
102
RTVSPropertyOp30
 70
     1
102
RTVSPropertyOp31
 70
     1
102
RTVSPropertyOp32
 70
     1
  0
XRECORD
  5
2CA6
102
{ACAD_REACTORS
330
2CA5
102
}
330
2CA5
100
AcDbXrecord
280
     1
102
RTVSPropertyOp0
 70
     1
102
RTVSPropertyOp1
 70
     1
102
RTVSPropertyOp2
 70
     1
102
RTVSPropertyOp3
 70
     1
102
RTVSPropertyOp4
 70
     1
102
RTVSPropertyOp5
 70
     1
102
RTVSPropertyOp6
 70
     1
102
RTVSPropertyOp7
 70
     1
102
RTVSPropertyOp8
 70
     1
102
RTVSPropertyOp9
 70
     1
102
RTVSPropertyOp10
 70
     1
102
RTVSPropertyOp11
 70
     1
102
RTVSPropertyOp12
 70
     1
102
RTVSPropertyOp13
 70
     1
102
RTVSPropertyOp14
 70
     1
102
RTVSPropertyOp15
 70
     1
102
RTVSPropertyOp16
 70
     1
102
RTVSPropertyOp17
 70
     1
102
RTVSPropertyOp18
 70
     1
102
RTVSPropertyOp19
 70
     1
102
RTVSPropertyOp20
 70
     1
102
RTVSPropertyOp21
 70
     1
102
RTVSPropertyOp22
 70
     1
102
RTVSPropertyOp23
 70
     1
102
RTVSPropertyOp24
 70
     1
102
RTVSPropertyOp25
 70
     1
102
RTVSPropertyOp26
 70
     1
102
RTVSPropertyOp27
 70
     1
102
RTVSPropertyOp28
 70
     1
102
RTVSPropertyOp29
 70
     1
102
RTVSPropertyOp30
 70
     1
102
RTVSPropertyOp31
 70
     1
102
RTVSPropertyOp32
 70
     1
  0
XRECORD
  5
2CA2
102
{ACAD_REACTORS
330
2CA1
102
}
330
2CA1
100
AcDbXrecord
280
     1
102
RTVSPropertyOp0
 70
     1
102
RTVSPropertyOp1
 70
     1
102
RTVSPropertyOp2
 70
     1
102
RTVSPropertyOp3
 70
     1
102
RTVSPropertyOp4
 70
     1
102
RTVSPropertyOp5
 70
     1
102
RTVSPropertyOp6
 70
     1
102
RTVSPropertyOp7
 70
     1
102
RTVSPropertyOp8
 70
     1
102
RTVSPropertyOp9
 70
     1
102
RTVSPropertyOp10
 70
     1
102
RTVSPropertyOp11
 70
     1
102
RTVSPropertyOp12
 70
     1
102
RTVSPropertyOp13
 70
     1
102
RTVSPropertyOp14
 70
     1
102
RTVSPropertyOp15
 70
     1
102
RTVSPropertyOp16
 70
     1
102
RTVSPropertyOp17
 70
     1
102
RTVSPropertyOp18
 70
     1
102
RTVSPropertyOp19
 70
     1
102
RTVSPropertyOp20
 70
     1
102
RTVSPropertyOp21
 70
     1
102
RTVSPropertyOp22
 70
     1
102
RTVSPropertyOp23
 70
     1
102
RTVSPropertyOp24
 70
     1
102
RTVSPropertyOp25
 70
     1
102
RTVSPropertyOp26
 70
     1
102
RTVSPropertyOp27
 70
     1
102
RTVSPropertyOp28
 70
     1
102
RTVSPropertyOp29
 70
     1
102
RTVSPropertyOp30
 70
     1
102
RTVSPropertyOp31
 70
     1
102
RTVSPropertyOp32
 70
     1
  0
XRECORD
  5
2CB0
102
{ACAD_REACTORS
330
2CAF
102
}
330
2CAF
100
AcDbXrecord
280
     1
102
RTVSPropertyOp0
 70
     1
102
RTVSPropertyOp1
 70
     1
102
RTVSPropertyOp2
 70
     1
102
RTVSPropertyOp3
 70
     1
102
RTVSPropertyOp4
 70
     1
102
RTVSPropertyOp5
 70
     1
102
RTVSPropertyOp6
 70
     1
102
RTVSPropertyOp7
 70
     1
102
RTVSPropertyOp8
 70
     1
102
RTVSPropertyOp9
 70
     1
102
RTVSPropertyOp10
 70
     1
102
RTVSPropertyOp11
 70
     1
102
RTVSPropertyOp12
 70
     1
102
RTVSPropertyOp13
 70
     1
102
RTVSPropertyOp14
 70
     1
102
RTVSPropertyOp15
 70
     1
102
RTVSPropertyOp16
 70
     1
102
RTVSPropertyOp17
 70
     1
102
RTVSPropertyOp18
 70
     1
102
RTVSPropertyOp19
 70
     1
102
RTVSPropertyOp20
 70
     1
102
RTVSPropertyOp21
 70
     1
102
RTVSPropertyOp22
 70
     1
102
RTVSPropertyOp23
 70
     1
102
RTVSPropertyOp24
 70
     1
102
RTVSPropertyOp25
 70
     1
102
RTVSPropertyOp26
 70
     1
102
RTVSPropertyOp27
 70
     1
102
RTVSPropertyOp28
 70
     1
102
RTVSPropertyOp29
 70
     1
102
RTVSPropertyOp30
 70
     1
102
RTVSPropertyOp31
 70
     1
102
RTVSPropertyOp32
 70
     1
  0
XRECORD
  5
2CB8
102
{ACAD_REACTORS
330
2CB7
102
}
330
2CB7
100
AcDbXrecord
280
     1
102
RTVSPropertyOp0
 70
     1
102
RTVSPropertyOp1
 70
     1
102
RTVSPropertyOp2
 70
     1
102
RTVSPropertyOp3
 70
     1
102
RTVSPropertyOp4
 70
     1
102
RTVSPropertyOp5
 70
     1
102
RTVSPropertyOp6
 70
     1
102
RTVSPropertyOp7
 70
     1
102
RTVSPropertyOp8
 70
     1
102
RTVSPropertyOp9
 70
     1
102
RTVSPropertyOp10
 70
     1
102
RTVSPropertyOp11
 70
     1
102
RTVSPropertyOp12
 70
     1
102
RTVSPropertyOp13
 70
     1
102
RTVSPropertyOp14
 70
     1
102
RTVSPropertyOp15
 70
     1
102
RTVSPropertyOp16
 70
     1
102
RTVSPropertyOp17
 70
     1
102
RTVSPropertyOp18
 70
     1
102
RTVSPropertyOp19
 70
     1
102
RTVSPropertyOp20
 70
     1
102
RTVSPropertyOp21
 70
     1
102
RTVSPropertyOp22
 70
     1
102
RTVSPropertyOp23
 70
     1
102
RTVSPropertyOp24
 70
     1
102
RTVSPropertyOp25
 70
     1
102
RTVSPropertyOp26
 70
     1
102
RTVSPropertyOp27
 70
     1
102
RTVSPropertyOp28
 70
     1
102
RTVSPropertyOp29
 70
     1
102
RTVSPropertyOp30
 70
     1
102
RTVSPropertyOp31
 70
     1
102
RTVSPropertyOp32
 70
     1
  0
XRECORD
  5
2CAA
102
{ACAD_REACTORS
330
2CA9
102
}
330
2CA9
100
AcDbXrecord
280
     1
102
RTVSPropertyOp0
 70
     1
102
RTVSPropertyOp1
 70
     1
102
RTVSPropertyOp2
 70
     1
102
RTVSPropertyOp3
 70
     1
102
RTVSPropertyOp4
 70
     1
102
RTVSPropertyOp5
 70
     1
102
RTVSPropertyOp6
 70
     1
102
RTVSPropertyOp7
 70
     1
102
RTVSPropertyOp8
 70
     1
102
RTVSPropertyOp9
 70
     1
102
RTVSPropertyOp10
 70
     1
102
RTVSPropertyOp11
 70
     1
102
RTVSPropertyOp12
 70
     1
102
RTVSPropertyOp13
 70
     1
102
RTVSPropertyOp14
 70
     1
102
RTVSPropertyOp15
 70
     1
102
RTVSPropertyOp16
 70
     1
102
RTVSPropertyOp17
 70
     1
102
RTVSPropertyOp18
 70
     1
102
RTVSPropertyOp19
 70
     1
102
RTVSPropertyOp20
 70
     1
102
RTVSPropertyOp21
 70
     1
102
RTVSPropertyOp22
 70
     1
102
RTVSPropertyOp23
 70
     1
102
RTVSPropertyOp24
 70
     1
102
RTVSPropertyOp25
 70
     1
102
RTVSPropertyOp26
 70
     1
102
RTVSPropertyOp27
 70
     1
102
RTVSPropertyOp28
 70
     1
102
RTVSPropertyOp29
 70
     1
102
RTVSPropertyOp30
 70
     1
102
RTVSPropertyOp31
 70
     1
102
RTVSPropertyOp32
 70
     1
  0
XRECORD
  5
2CAE
102
{ACAD_REACTORS
330
2CAD
102
}
330
2CAD
100
AcDbXrecord
280
     1
102
RTVSPropertyOp0
 70
     1
102
RTVSPropertyOp1
 70
     1
102
RTVSPropertyOp2
 70
     1
102
RTVSPropertyOp3
 70
     1
102
RTVSPropertyOp4
 70
     1
102
RTVSPropertyOp5
 70
     1
102
RTVSPropertyOp6
 70
     1
102
RTVSPropertyOp7
 70
     1
102
RTVSPropertyOp8
 70
     1
102
RTVSPropertyOp9
 70
     1
102
RTVSPropertyOp10
 70
     1
102
RTVSPropertyOp11
 70
     1
102
RTVSPropertyOp12
 70
     1
102
RTVSPropertyOp13
 70
     1
102
RTVSPropertyOp14
 70
     1
102
RTVSPropertyOp15
 70
     1
102
RTVSPropertyOp16
 70
     1
102
RTVSPropertyOp17
 70
     1
102
RTVSPropertyOp18
 70
     1
102
RTVSPropertyOp19
 70
     1
102
RTVSPropertyOp20
 70
     1
102
RTVSPropertyOp21
 70
     1
102
RTVSPropertyOp22
 70
     1
102
RTVSPropertyOp23
 70
     1
102
RTVSPropertyOp24
 70
     1
102
RTVSPropertyOp25
 70
     1
102
RTVSPropertyOp26
 70
     1
102
RTVSPropertyOp27
 70
     1
102
RTVSPropertyOp28
 70
     1
102
RTVSPropertyOp29
 70
     1
102
RTVSPropertyOp30
 70
     1
102
RTVSPropertyOp31
 70
     1
102
RTVSPropertyOp32
 70
     1
  0
XRECORD
  5
2CCD
102
{ACAD_REACTORS
330
2CCC
102
}
330
2CCC
100
AcDbXrecord
280
     1
102
RTVSPropertyOp0
 70
     0
102
RTVSPropertyOp1
 70
     0
102
RTVSPropertyOp2
 70
     0
102
RTVSPropertyOp3
 70
     0
102
RTVSPropertyOp4
 70
     0
102
RTVSPropertyOp5
 70
     0
102
RTVSPropertyOp6
 70
     0
102
RTVSPropertyOp7
 70
     0
102
RTVSPropertyOp8
 70
     0
102
RTVSPropertyOp9
 70
     0
102
RTVSPropertyOp10
 70
     0
102
RTVSPropertyOp11
 70
     0
102
RTVSPropertyOp12
 70
     0
102
RTVSPropertyOp13
 70
     0
102
RTVSPropertyOp14
 70
     2
102
RTVSPropertyOp15
 70
     0
102
RTVSPropertyOp16
 70
     0
102
RTVSPropertyOp17
 70
     0
102
RTVSPropertyOp18
 70
     0
102
RTVSPropertyOp19
 70
     0
102
RTVSPropertyOp20
 70
     0
102
RTVSPropertyOp21
 70
     0
102
RTVSPropertyOp22
 70
     0
102
RTVSPropertyOp23
 70
     0
102
RTVSPropertyOp24
 70
     0
102
RTVSPropertyOp25
 70
     0
102
RTVSPropertyOp26
 70
     0
102
RTVSPropertyOp27
 70
     0
102
RTVSPropertyOp28
 70
     0
102
RTVSPropertyOp29
 70
     0
102
RTVSPropertyOp30
 70
     0
102
RTVSPropertyOp31
 70
     0
102
RTVSPropertyOp32
 70
     0
  0
XRECORD
  5
2CB6
102
{ACAD_REACTORS
330
2CB5
102
}
330
2CB5
100
AcDbXrecord
280
     1
102
RTVSPropertyOp0
 70
     1
102
RTVSPropertyOp1
 70
     1
102
RTVSPropertyOp2
 70
     1
102
RTVSPropertyOp3
 70
     1
102
RTVSPropertyOp4
 70
     1
102
RTVSPropertyOp5
 70
     1
102
RTVSPropertyOp6
 70
     1
102
RTVSPropertyOp7
 70
     1
102
RTVSPropertyOp8
 70
     1
102
RTVSPropertyOp9
 70
     1
102
RTVSPropertyOp10
 70
     1
102
RTVSPropertyOp11
 70
     1
102
RTVSPropertyOp12
 70
     1
102
RTVSPropertyOp13
 70
     1
102
RTVSPropertyOp14
 70
     1
102
RTVSPropertyOp15
 70
     1
102
RTVSPropertyOp16
 70
     1
102
RTVSPropertyOp17
 70
     1
102
RTVSPropertyOp18
 70
     1
102
RTVSPropertyOp19
 70
     1
102
RTVSPropertyOp20
 70
     1
102
RTVSPropertyOp21
 70
     1
102
RTVSPropertyOp22
 70
     1
102
RTVSPropertyOp23
 70
     1
102
RTVSPropertyOp24
 70
     1
102
RTVSPropertyOp25
 70
     1
102
RTVSPropertyOp26
 70
     1
102
RTVSPropertyOp27
 70
     1
102
RTVSPropertyOp28
 70
     1
102
RTVSPropertyOp29
 70
     1
102
RTVSPropertyOp30
 70
     1
102
RTVSPropertyOp31
 70
     1
102
RTVSPropertyOp32
 70
     1
  0
XRECORD
  5
2C9A
102
{ACAD_REACTORS
330
2C99
102
}
330
2C99
100
AcDbXrecord
280
     1
102
RTVSPropertyOp0
 70
     1
102
RTVSPropertyOp1
 70
     1
102
RTVSPropertyOp2
 70
     1
102
RTVSPropertyOp3
 70
     1
102
RTVSPropertyOp4
 70
     1
102
RTVSPropertyOp5
 70
     1
102
RTVSPropertyOp6
 70
     1
102
RTVSPropertyOp7
 70
     1
102
RTVSPropertyOp8
 70
     1
102
RTVSPropertyOp9
 70
     1
102
RTVSPropertyOp10
 70
     1
102
RTVSPropertyOp11
 70
     1
102
RTVSPropertyOp12
 70
     1
102
RTVSPropertyOp13
 70
     1
102
RTVSPropertyOp14
 70
     1
102
RTVSPropertyOp15
 70
     1
102
RTVSPropertyOp16
 70
     1
102
RTVSPropertyOp17
 70
     1
102
RTVSPropertyOp18
 70
     1
102
RTVSPropertyOp19
 70
     1
102
RTVSPropertyOp20
 70
     1
102
RTVSPropertyOp21
 70
     1
102
RTVSPropertyOp22
 70
     1
102
RTVSPropertyOp23
 70
     1
102
RTVSPropertyOp24
 70
     1
102
RTVSPropertyOp25
 70
     1
102
RTVSPropertyOp26
 70
     1
102
RTVSPropertyOp27
 70
     1
102
RTVSPropertyOp28
 70
     1
102
RTVSPropertyOp29
 70
     1
102
RTVSPropertyOp30
 70
     1
102
RTVSPropertyOp31
 70
     1
102
RTVSPropertyOp32
 70
     1
  0
XRECORD
  5
2C9C
102
{ACAD_REACTORS
330
2C9B
102
}
330
2C9B
100
AcDbXrecord
280
     1
102
RTVSPropertyOp0
 70
     1
102
RTVSPropertyOp1
 70
     1
102
RTVSPropertyOp2
 70
     1
102
RTVSPropertyOp3
 70
     1
102
RTVSPropertyOp4
 70
     1
102
RTVSPropertyOp5
 70
     1
102
RTVSPropertyOp6
 70
     1
102
RTVSPropertyOp7
 70
     1
102
RTVSPropertyOp8
 70
     1
102
RTVSPropertyOp9
 70
     1
102
RTVSPropertyOp10
 70
     1
102
RTVSPropertyOp11
 70
     1
102
RTVSPropertyOp12
 70
     1
102
RTVSPropertyOp13
 70
     1
102
RTVSPropertyOp14
 70
     1
102
RTVSPropertyOp15
 70
     1
102
RTVSPropertyOp16
 70
     1
102
RTVSPropertyOp17
 70
     1
102
RTVSPropertyOp18
 70
     1
102
RTVSPropertyOp19
 70
     1
102
RTVSPropertyOp20
 70
     1
102
RTVSPropertyOp21
 70
     1
102
RTVSPropertyOp22
 70
     1
102
RTVSPropertyOp23
 70
     1
102
RTVSPropertyOp24
 70
     1
102
RTVSPropertyOp25
 70
     1
102
RTVSPropertyOp26
 70
     1
102
RTVSPropertyOp27
 70
     1
102
RTVSPropertyOp28
 70
     1
102
RTVSPropertyOp29
 70
     1
102
RTVSPropertyOp30
 70
     1
102
RTVSPropertyOp31
 70
     1
102
RTVSPropertyOp32
 70
     1
  0
XRECORD
  5
2C9E
102
{ACAD_REACTORS
330
2C9D
102
}
330
2C9D
100
AcDbXrecord
280
     1
102
RTVSPropertyOp0
 70
     1
102
RTVSPropertyOp1
 70
     1
102
RTVSPropertyOp2
 70
     1
102
RTVSPropertyOp3
 70
     1
102
RTVSPropertyOp4
 70
     1
102
RTVSPropertyOp5
 70
     1
102
RTVSPropertyOp6
 70
     1
102
RTVSPropertyOp7
 70
     1
102
RTVSPropertyOp8
 70
     1
102
RTVSPropertyOp9
 70
     1
102
RTVSPropertyOp10
 70
     1
102
RTVSPropertyOp11
 70
     1
102
RTVSPropertyOp12
 70
     1
102
RTVSPropertyOp13
 70
     1
102
RTVSPropertyOp14
 70
     1
102
RTVSPropertyOp15
 70
     1
102
RTVSPropertyOp16
 70
     1
102
RTVSPropertyOp17
 70
     1
102
RTVSPropertyOp18
 70
     1
102
RTVSPropertyOp19
 70
     1
102
RTVSPropertyOp20
 70
     1
102
RTVSPropertyOp21
 70
     1
102
RTVSPropertyOp22
 70
     1
102
RTVSPropertyOp23
 70
     1
102
RTVSPropertyOp24
 70
     1
102
RTVSPropertyOp25
 70
     1
102
RTVSPropertyOp26
 70
     1
102
RTVSPropertyOp27
 70
     1
102
RTVSPropertyOp28
 70
     1
102
RTVSPropertyOp29
 70
     1
102
RTVSPropertyOp30
 70
     1
102
RTVSPropertyOp31
 70
     1
102
RTVSPropertyOp32
 70
     1
  0
XRECORD
  5
2CA0
102
{ACAD_REACTORS
330
2C9F
102
}
330
2C9F
100
AcDbXrecord
280
     1
102
RTVSPropertyOp0
 70
     1
102
RTVSPropertyOp1
 70
     1
102
RTVSPropertyOp2
 70
     1
102
RTVSPropertyOp3
 70
     1
102
RTVSPropertyOp4
 70
     1
102
RTVSPropertyOp5
 70
     1
102
RTVSPropertyOp6
 70
     1
102
RTVSPropertyOp7
 70
     1
102
RTVSPropertyOp8
 70
     1
102
RTVSPropertyOp9
 70
     1
102
RTVSPropertyOp10
 70
     1
102
RTVSPropertyOp11
 70
     1
102
RTVSPropertyOp12
 70
     1
102
RTVSPropertyOp13
 70
     1
102
RTVSPropertyOp14
 70
     1
102
RTVSPropertyOp15
 70
     1
102
RTVSPropertyOp16
 70
     1
102
RTVSPropertyOp17
 70
     1
102
RTVSPropertyOp18
 70
     1
102
RTVSPropertyOp19
 70
     1
102
RTVSPropertyOp20
 70
     1
102
RTVSPropertyOp21
 70
     1
102
RTVSPropertyOp22
 70
     1
102
RTVSPropertyOp23
 70
     1
102
RTVSPropertyOp24
 70
     1
102
RTVSPropertyOp25
 70
     1
102
RTVSPropertyOp26
 70
     1
102
RTVSPropertyOp27
 70
     1
102
RTVSPropertyOp28
 70
     1
102
RTVSPropertyOp29
 70
     1
102
RTVSPropertyOp30
 70
     1
102
RTVSPropertyOp31
 70
     1
102
RTVSPropertyOp32
 70
     1
  0
XRECORD
  5
2CBD
102
{ACAD_REACTORS
330
2CBC
102
}
330
2CBC
100
AcDbXrecord
280
     1
102
RTVSPropertyOp0
 70
     1
102
RTVSPropertyOp1
 70
     1
102
RTVSPropertyOp2
 70
     1
102
RTVSPropertyOp3
 70
     1
102
RTVSPropertyOp4
 70
     1
102
RTVSPropertyOp5
 70
     1
102
RTVSPropertyOp6
 70
     1
102
RTVSPropertyOp7
 70
     1
102
RTVSPropertyOp8
 70
     1
102
RTVSPropertyOp9
 70
     1
102
RTVSPropertyOp10
 70
     1
102
RTVSPropertyOp11
 70
     1
102
RTVSPropertyOp12
 70
     1
102
RTVSPropertyOp13
 70
     1
102
RTVSPropertyOp14
 70
     1
102
RTVSPropertyOp15
 70
     1
102
RTVSPropertyOp16
 70
     1
102
RTVSPropertyOp17
 70
     1
102
RTVSPropertyOp18
 70
     1
102
RTVSPropertyOp19
 70
     1
102
RTVSPropertyOp20
 70
     1
102
RTVSPropertyOp21
 70
     1
102
RTVSPropertyOp22
 70
     1
102
RTVSPropertyOp23
 70
     1
102
RTVSPropertyOp24
 70
     1
102
RTVSPropertyOp25
 70
     1
102
RTVSPropertyOp26
 70
     1
102
RTVSPropertyOp27
 70
     1
102
RTVSPropertyOp28
 70
     1
102
RTVSPropertyOp29
 70
     1
102
RTVSPropertyOp30
 70
     1
102
RTVSPropertyOp31
 70
     1
102
RTVSPropertyOp32
 70
     1
  0
XRECORD
  5
2CC9
102
{ACAD_REACTORS
330
2CC8
102
}
330
2CC8
100
AcDbXrecord
280
     1
102
RTVSPropertyOp0
 70
     0
102
RTVSPropertyOp1
 70
     0
102
RTVSPropertyOp2
 70
     0
102
RTVSPropertyOp3
 70
     0
102
RTVSPropertyOp4
 70
     0
102
RTVSPropertyOp5
 70
     0
102
RTVSPropertyOp6
 70
     0
102
RTVSPropertyOp7
 70
     0
102
RTVSPropertyOp8
 70
     0
102
RTVSPropertyOp9
 70
     0
102
RTVSPropertyOp10
 70
     0
102
RTVSPropertyOp11
 70
     0
102
RTVSPropertyOp12
 70
     0
102
RTVSPropertyOp13
 70
     0
102
RTVSPropertyOp14
 70
     2
102
RTVSPropertyOp15
 70
     0
102
RTVSPropertyOp16
 70
     0
102
RTVSPropertyOp17
 70
     0
102
RTVSPropertyOp18
 70
     0
102
RTVSPropertyOp19
 70
     0
102
RTVSPropertyOp20
 70
     0
102
RTVSPropertyOp21
 70
     0
102
RTVSPropertyOp22
 70
     0
102
RTVSPropertyOp23
 70
     0
102
RTVSPropertyOp24
 70
     0
102
RTVSPropertyOp25
 70
     0
102
RTVSPropertyOp26
 70
     0
102
RTVSPropertyOp27
 70
     0
102
RTVSPropertyOp28
 70
     0
102
RTVSPropertyOp29
 70
     0
102
RTVSPropertyOp30
 70
     0
102
RTVSPropertyOp31
 70
     0
102
RTVSPropertyOp32
 70
     0
  0
XRECORD
  5
2CB4
102
{ACAD_REACTORS
330
2CB3
102
}
330
2CB3
100
AcDbXrecord
280
     1
102
RTVSPropertyOp0
 70
     1
102
RTVSPropertyOp1
 70
     1
102
RTVSPropertyOp2
 70
     1
102
RTVSPropertyOp3
 70
     1
102
RTVSPropertyOp4
 70
     1
102
RTVSPropertyOp5
 70
     1
102
RTVSPropertyOp6
 70
     1
102
RTVSPropertyOp7
 70
     1
102
RTVSPropertyOp8
 70
     1
102
RTVSPropertyOp9
 70
     1
102
RTVSPropertyOp10
 70
     1
102
RTVSPropertyOp11
 70
     1
102
RTVSPropertyOp12
 70
     1
102
RTVSPropertyOp13
 70
     1
102
RTVSPropertyOp14
 70
     1
102
RTVSPropertyOp15
 70
     1
102
RTVSPropertyOp16
 70
     1
102
RTVSPropertyOp17
 70
     1
102
RTVSPropertyOp18
 70
     1
102
RTVSPropertyOp19
 70
     1
102
RTVSPropertyOp20
 70
     1
102
RTVSPropertyOp21
 70
     1
102
RTVSPropertyOp22
 70
     1
102
RTVSPropertyOp23
 70
     1
102
RTVSPropertyOp24
 70
     1
102
RTVSPropertyOp25
 70
     1
102
RTVSPropertyOp26
 70
     1
102
RTVSPropertyOp27
 70
     1
102
RTVSPropertyOp28
 70
     1
102
RTVSPropertyOp29
 70
     1
102
RTVSPropertyOp30
 70
     1
102
RTVSPropertyOp31
 70
     1
102
RTVSPropertyOp32
 70
     1
  0
XRECORD
  5
2CCB
102
{ACAD_REACTORS
330
2CCA
102
}
330
2CCA
100
AcDbXrecord
280
     1
102
RTVSPropertyOp0
 70
     0
102
RTVSPropertyOp1
 70
     0
102
RTVSPropertyOp2
 70
     0
102
RTVSPropertyOp3
 70
     0
102
RTVSPropertyOp4
 70
     0
102
RTVSPropertyOp5
 70
     0
102
RTVSPropertyOp6
 70
     0
102
RTVSPropertyOp7
 70
     0
102
RTVSPropertyOp8
 70
     0
102
RTVSPropertyOp9
 70
     0
102
RTVSPropertyOp10
 70
     0
102
RTVSPropertyOp11
 70
     0
102
RTVSPropertyOp12
 70
     0
102
RTVSPropertyOp13
 70
     0
102
RTVSPropertyOp14
 70
     2
102
RTVSPropertyOp15
 70
     0
102
RTVSPropertyOp16
 70
     0
102
RTVSPropertyOp17
 70
     0
102
RTVSPropertyOp18
 70
     0
102
RTVSPropertyOp19
 70
     0
102
RTVSPropertyOp20
 70
     0
102
RTVSPropertyOp21
 70
     0
102
RTVSPropertyOp22
 70
     0
102
RTVSPropertyOp23
 70
     0
102
RTVSPropertyOp24
 70
     0
102
RTVSPropertyOp25
 70
     0
102
RTVSPropertyOp26
 70
     0
102
RTVSPropertyOp27
 70
     0
102
RTVSPropertyOp28
 70
     0
102
RTVSPropertyOp29
 70
     0
102
RTVSPropertyOp30
 70
     0
102
RTVSPropertyOp31
 70
     0
102
RTVSPropertyOp32
 70
     0
  0
XRECORD
  5
2CAC
102
{ACAD_REACTORS
330
2CAB
102
}
330
2CAB
100
AcDbXrecord
280
     1
102
RTVSPropertyOp0
 70
     1
102
RTVSPropertyOp1
 70
     1
102
RTVSPropertyOp2
 70
     1
102
RTVSPropertyOp3
 70
     1
102
RTVSPropertyOp4
 70
     1
102
RTVSPropertyOp5
 70
     1
102
RTVSPropertyOp6
 70
     1
102
RTVSPropertyOp7
 70
     1
102
RTVSPropertyOp8
 70
     1
102
RTVSPropertyOp9
 70
     1
102
RTVSPropertyOp10
 70
     1
102
RTVSPropertyOp11
 70
     1
102
RTVSPropertyOp12
 70
     1
102
RTVSPropertyOp13
 70
     1
102
RTVSPropertyOp14
 70
     1
102
RTVSPropertyOp15
 70
     1
102
RTVSPropertyOp16
 70
     1
102
RTVSPropertyOp17
 70
     1
102
RTVSPropertyOp18
 70
     1
102
RTVSPropertyOp19
 70
     1
102
RTVSPropertyOp20
 70
     1
102
RTVSPropertyOp21
 70
     1
102
RTVSPropertyOp22
 70
     1
102
RTVSPropertyOp23
 70
     1
102
RTVSPropertyOp24
 70
     1
102
RTVSPropertyOp25
 70
     1
102
RTVSPropertyOp26
 70
     1
102
RTVSPropertyOp27
 70
     1
102
RTVSPropertyOp28
 70
     1
102
RTVSPropertyOp29
 70
     1
102
RTVSPropertyOp30
 70
     1
102
RTVSPropertyOp31
 70
     1
102
RTVSPropertyOp32
 70
     1
  0
XRECORD
  5
2CC7
102
{ACAD_REACTORS
330
2CC6
102
}
330
2CC6
100
AcDbXrecord
280
     1
102
RTVSPropertyOp0
 70
     1
102
RTVSPropertyOp1
 70
     1
102
RTVSPropertyOp2
 70
     1
102
RTVSPropertyOp3
 70
     1
102
RTVSPropertyOp4
 70
     1
102
RTVSPropertyOp5
 70
     1
102
RTVSPropertyOp6
 70
     1
102
RTVSPropertyOp7
 70
     1
102
RTVSPropertyOp8
 70
     1
102
RTVSPropertyOp9
 70
     1
102
RTVSPropertyOp10
 70
     1
102
RTVSPropertyOp11
 70
     1
102
RTVSPropertyOp12
 70
     1
102
RTVSPropertyOp13
 70
     1
102
RTVSPropertyOp14
 70
     1
102
RTVSPropertyOp15
 70
     1
102
RTVSPropertyOp16
 70
     1
102
RTVSPropertyOp17
 70
     1
102
RTVSPropertyOp18
 70
     1
102
RTVSPropertyOp19
 70
     1
102
RTVSPropertyOp20
 70
     1
102
RTVSPropertyOp21
 70
     1
102
RTVSPropertyOp22
 70
     1
102
RTVSPropertyOp23
 70
     1
102
RTVSPropertyOp24
 70
     1
102
RTVSPropertyOp25
 70
     1
102
RTVSPropertyOp26
 70
     1
102
RTVSPropertyOp27
 70
     1
102
RTVSPropertyOp28
 70
     1
102
RTVSPropertyOp29
 70
     1
102
RTVSPropertyOp30
 70
     1
102
RTVSPropertyOp31
 70
     1
102
RTVSPropertyOp32
 70
     1
  0
XRECORD
  5
2CC5
102
{ACAD_REACTORS
330
2CC4
102
}
330
2CC4
100
AcDbXrecord
280
     1
102
RTVSPropertyOp0
 70
     1
102
RTVSPropertyOp1
 70
     1
102
RTVSPropertyOp2
 70
     1
102
RTVSPropertyOp3
 70
     1
102
RTVSPropertyOp4
 70
     1
102
RTVSPropertyOp5
 70
     1
102
RTVSPropertyOp6
 70
     1
102
RTVSPropertyOp7
 70
     1
102
RTVSPropertyOp8
 70
     1
102
RTVSPropertyOp9
 70
     1
102
RTVSPropertyOp10
 70
     1
102
RTVSPropertyOp11
 70
     1
102
RTVSPropertyOp12
 70
     1
102
RTVSPropertyOp13
 70
     1
102
RTVSPropertyOp14
 70
     1
102
RTVSPropertyOp15
 70
     1
102
RTVSPropertyOp16
 70
     1
102
RTVSPropertyOp17
 70
     1
102
RTVSPropertyOp18
 70
     1
102
RTVSPropertyOp19
 70
     1
102
RTVSPropertyOp20
 70
     1
102
RTVSPropertyOp21
 70
     1
102
RTVSPropertyOp22
 70
     1
102
RTVSPropertyOp23
 70
     1
102
RTVSPropertyOp24
 70
     1
102
RTVSPropertyOp25
 70
     1
102
RTVSPropertyOp26
 70
     1
102
RTVSPropertyOp27
 70
     1
102
RTVSPropertyOp28
 70
     1
102
RTVSPropertyOp29
 70
     1
102
RTVSPropertyOp30
 70
     1
102
RTVSPropertyOp31
 70
     1
102
RTVSPropertyOp32
 70
     1
  0
XRECORD
  5
2CBF
102
{ACAD_REACTORS
330
2CBE
102
}
330
2CBE
100
AcDbXrecord
280
     1
102
RTVSPropertyOp0
 70
     1
102
RTVSPropertyOp1
 70
     1
102
RTVSPropertyOp2
 70
     1
102
RTVSPropertyOp3
 70
     1
102
RTVSPropertyOp4
 70
     1
102
RTVSPropertyOp5
 70
     1
102
RTVSPropertyOp6
 70
     1
102
RTVSPropertyOp7
 70
     1
102
RTVSPropertyOp8
 70
     1
102
RTVSPropertyOp9
 70
     1
102
RTVSPropertyOp10
 70
     1
102
RTVSPropertyOp11
 70
     1
102
RTVSPropertyOp12
 70
     1
102
RTVSPropertyOp13
 70
     1
102
RTVSPropertyOp14
 70
     1
102
RTVSPropertyOp15
 70
     1
102
RTVSPropertyOp16
 70
     1
102
RTVSPropertyOp17
 70
     1
102
RTVSPropertyOp18
 70
     1
102
RTVSPropertyOp19
 70
     1
102
RTVSPropertyOp20
 70
     1
102
RTVSPropertyOp21
 70
     1
102
RTVSPropertyOp22
 70
     1
102
RTVSPropertyOp23
 70
     1
102
RTVSPropertyOp24
 70
     1
102
RTVSPropertyOp25
 70
     1
102
RTVSPropertyOp26
 70
     1
102
RTVSPropertyOp27
 70
     1
102
RTVSPropertyOp28
 70
     1
102
RTVSPropertyOp29
 70
     1
102
RTVSPropertyOp30
 70
     1
102
RTVSPropertyOp31
 70
     1
102
RTVSPropertyOp32
 70
     1
  0
XRECORD
  5
2CC1
102
{ACAD_REACTORS
330
2CC0
102
}
330
2CC0
100
AcDbXrecord
280
     1
102
RTVSPropertyOp0
 70
     1
102
RTVSPropertyOp1
 70
     1
102
RTVSPropertyOp2
 70
     1
102
RTVSPropertyOp3
 70
     1
102
RTVSPropertyOp4
 70
     1
102
RTVSPropertyOp5
 70
     1
102
RTVSPropertyOp6
 70
     1
102
RTVSPropertyOp7
 70
     1
102
RTVSPropertyOp8
 70
     1
102
RTVSPropertyOp9
 70
     1
102
RTVSPropertyOp10
 70
     1
102
RTVSPropertyOp11
 70
     1
102
RTVSPropertyOp12
 70
     1
102
RTVSPropertyOp13
 70
     1
102
RTVSPropertyOp14
 70
     1
102
RTVSPropertyOp15
 70
     1
102
RTVSPropertyOp16
 70
     1
102
RTVSPropertyOp17
 70
     1
102
RTVSPropertyOp18
 70
     1
102
RTVSPropertyOp19
 70
     1
102
RTVSPropertyOp20
 70
     1
102
RTVSPropertyOp21
 70
     1
102
RTVSPropertyOp22
 70
     1
102
RTVSPropertyOp23
 70
     1
102
RTVSPropertyOp24
 70
     1
102
RTVSPropertyOp25
 70
     1
102
RTVSPropertyOp26
 70
     1
102
RTVSPropertyOp27
 70
     1
102
RTVSPropertyOp28
 70
     1
102
RTVSPropertyOp29
 70
     1
102
RTVSPropertyOp30
 70
     1
102
RTVSPropertyOp31
 70
     1
102
RTVSPropertyOp32
 70
     1
  0
XRECORD
  5
2CB2
102
{ACAD_REACTORS
330
2CB1
102
}
330
2CB1
100
AcDbXrecord
280
     1
102
RTVSPropertyOp0
 70
     1
102
RTVSPropertyOp1
 70
     1
102
RTVSPropertyOp2
 70
     1
102
RTVSPropertyOp3
 70
     1
102
RTVSPropertyOp4
 70
     1
102
RTVSPropertyOp5
 70
     1
102
RTVSPropertyOp6
 70
     1
102
RTVSPropertyOp7
 70
     1
102
RTVSPropertyOp8
 70
     1
102
RTVSPropertyOp9
 70
     1
102
RTVSPropertyOp10
 70
     1
102
RTVSPropertyOp11
 70
     1
102
RTVSPropertyOp12
 70
     1
102
RTVSPropertyOp13
 70
     1
102
RTVSPropertyOp14
 70
     1
102
RTVSPropertyOp15
 70
     1
102
RTVSPropertyOp16
 70
     1
102
RTVSPropertyOp17
 70
     1
102
RTVSPropertyOp18
 70
     1
102
RTVSPropertyOp19
 70
     1
102
RTVSPropertyOp20
 70
     1
102
RTVSPropertyOp21
 70
     1
102
RTVSPropertyOp22
 70
     1
102
RTVSPropertyOp23
 70
     1
102
RTVSPropertyOp24
 70
     1
102
RTVSPropertyOp25
 70
     1
102
RTVSPropertyOp26
 70
     1
102
RTVSPropertyOp27
 70
     1
102
RTVSPropertyOp28
 70
     1
102
RTVSPropertyOp29
 70
     1
102
RTVSPropertyOp30
 70
     1
102
RTVSPropertyOp31
 70
     1
102
RTVSPropertyOp32
 70
     1
  0
XRECORD
  5
2CBB
102
{ACAD_REACTORS
330
2CBA
102
}
330
2CBA
100
AcDbXrecord
280
     1
102
RTVSPropertyOp0
 70
     1
102
RTVSPropertyOp1
 70
     1
102
RTVSPropertyOp2
 70
     1
102
RTVSPropertyOp3
 70
     1
102
RTVSPropertyOp4
 70
     1
102
RTVSPropertyOp5
 70
     1
102
RTVSPropertyOp6
 70
     1
102
RTVSPropertyOp7
 70
     1
102
RTVSPropertyOp8
 70
     1
102
RTVSPropertyOp9
 70
     1
102
RTVSPropertyOp10
 70
     1
102
RTVSPropertyOp11
 70
     1
102
RTVSPropertyOp12
 70
     1
102
RTVSPropertyOp13
 70
     1
102
RTVSPropertyOp14
 70
     1
102
RTVSPropertyOp15
 70
     1
102
RTVSPropertyOp16
 70
     1
102
RTVSPropertyOp17
 70
     1
102
RTVSPropertyOp18
 70
     1
102
RTVSPropertyOp19
 70
     1
102
RTVSPropertyOp20
 70
     1
102
RTVSPropertyOp21
 70
     1
102
RTVSPropertyOp22
 70
     1
102
RTVSPropertyOp23
 70
     1
102
RTVSPropertyOp24
 70
     1
102
RTVSPropertyOp25
 70
     1
102
RTVSPropertyOp26
 70
     1
102
RTVSPropertyOp27
 70
     1
102
RTVSPropertyOp28
 70
     1
102
RTVSPropertyOp29
 70
     1
102
RTVSPropertyOp30
 70
     1
102
RTVSPropertyOp31
 70
     1
102
RTVSPropertyOp32
 70
     1
  0
XRECORD
  5
2CC3
102
{ACAD_REACTORS
330
2CC2
102
}
330
2CC2
100
AcDbXrecord
280
     1
102
RTVSPropertyOp0
 70
     1
102
RTVSPropertyOp1
 70
     1
102
RTVSPropertyOp2
 70
     1
102
RTVSPropertyOp3
 70
     1
102
RTVSPropertyOp4
 70
     1
102
RTVSPropertyOp5
 70
     1
102
RTVSPropertyOp6
 70
     1
102
RTVSPropertyOp7
 70
     1
102
RTVSPropertyOp8
 70
     1
102
RTVSPropertyOp9
 70
     1
102
RTVSPropertyOp10
 70
     1
102
RTVSPropertyOp11
 70
     1
102
RTVSPropertyOp12
 70
     1
102
RTVSPropertyOp13
 70
     1
102
RTVSPropertyOp14
 70
     1
102
RTVSPropertyOp15
 70
     1
102
RTVSPropertyOp16
 70
     1
102
RTVSPropertyOp17
 70
     1
102
RTVSPropertyOp18
 70
     1
102
RTVSPropertyOp19
 70
     1
102
RTVSPropertyOp20
 70
     1
102
RTVSPropertyOp21
 70
     1
102
RTVSPropertyOp22
 70
     1
102
RTVSPropertyOp23
 70
     1
102
RTVSPropertyOp24
 70
     1
102
RTVSPropertyOp25
 70
     1
102
RTVSPropertyOp26
 70
     1
102
RTVSPropertyOp27
 70
     1
102
RTVSPropertyOp28
 70
     1
102
RTVSPropertyOp29
 70
     1
102
RTVSPropertyOp30
 70
     1
102
RTVSPropertyOp31
 70
     1
102
RTVSPropertyOp32
 70
     1
  0
ENDSEC
  0
EOF
