  0
SECTION
  2
HEADER
  9
$ACADVER
  1
AC1015
  9
$ACADMAINTVER
 70
    20
  9
$DWGCODEPAGE
  3
ANSI_932
  9
$INSBASE
 10
0.0
 20
0.0
 30
0.0
  9
$EXTMIN
 10
406.483555034684
 20
252.9224080686401
 30
0.0
  9
$EXTMAX
 10
527.7616957495919
 20
353.9510924554518
 30
0.0
  9
$LIMMIN
 10
383.6536482459853
 20
238.0858004494947
  9
$LIMMAX
 10
593.6750768174139
 20
386.5858004494947
  9
$ORTHOMODE
 70
     0
  9
$REGENMODE
 70
     1
  9
$FILLMODE
 70
     1
  9
$QTEXTMODE
 70
     0
  9
$MIRRTEXT
 70
     1
  9
$LTSCALE
 40
0.5
  9
$ATTMODE
 70
     1
  9
$TEXTSIZE
 40
1.6
  9
$TRACEWID
 40
0.05
  9
$TEXTSTYLE
  7
STANDARD
  9
$CLAYER
  8
AM_0
  9
$CELTYPE
  6
ByLayer
  9
$CECOLOR
 62
   256
  9
$CELTSCALE
 40
1.0
  9
$DISPSILH
 70
     0
  9
$DIMSCALE
 40
0.5
  9
$DIMASZ
 40
2.5
  9
$DIMEXO
 40
1.0
  9
$DIMDLI
 40
10.0
  9
$DIMRND
 40
0.0
  9
$DIMDLE
 40
0.0
  9
$DIMEXE
 40
1.0
  9
$DIMTP
 40
0.1
  9
$DIMTM
 40
0.1
  9
$DIMTXT
 40
3.5
  9
$DIMCEN
 40
0.0
  9
$DIMTSZ
 40
0.0
  9
$DIMTOL
 70
     0
  9
$DIMLIM
 70
     0
  9
$DIMTIH
 70
     0
  9
$DIMTOH
 70
     0
  9
$DIMSE1
 70
     0
  9
$DIMSE2
 70
     0
  9
$DIMTAD
 70
     3
  9
$DIMZIN
 70
     8
  9
$DIMBLK
  1
Open30
  9
$DIMASO
 70
     1
  9
$DIMSHO
 70
     1
  9
$DIMPOST
  1

  9
$DIMAPOST
  1
"
  9
$DIMALT
 70
     0
  9
$DIMALTD
 70
     2
  9
$DIMALTF
 40
0.0393701
  9
$DIMLFAC
 40
1.0
  9
$DIMTOFL
 70
     1
  9
$DIMTVP
 40
0.0
  9
$DIMTIX
 70
     0
  9
$DIMSOXD
 70
     0
  9
$DIMSAH
 70
     0
  9
$DIMBLK1
  1
Open30
  9
$DIMBLK2
  1
Open30
  9
$DIMSTYLE
  2
AM_JIS
  9
$DIMCLRD
 70
   256
  9
$DIMCLRE
 70
   256
  9
$DIMCLRT
 70
     2
  9
$DIMTFAC
 40
0.71
  9
$DIMGAP
 40
1.5
  9
$DIMJUST
 70
     0
  9
$DIMSD1
 70
     0
  9
$DIMSD2
 70
     0
  9
$DIMTOLJ
 70
     0
  9
$DIMTZIN
 70
     8
  9
$DIMALTZ
 70
     0
  9
$DIMALTTZ
 70
     0
  9
$DIMUPT
 70
     0
  9
$DIMDEC
 70
     2
  9
$DIMTDEC
 70
     3
  9
$DIMALTU
 70
     2
  9
$DIMALTTD
 70
     4
  9
$DIMTXSTY
  7
STANDARD
  9
$DIMAUNIT
 70
     0
  9
$DIMADEC
 70
     0
  9
$DIMALTRND
 40
0.0
  9
$DIMAZIN
 70
     2
  9
$DIMDSEP
 70
    46
  9
$DIMATFIT
 70
     3
  9
$DIMFRAC
 70
     0
  9
$DIMLDRBLK
  1
Open30
  9
$DIMLUNIT
 70
     2
  9
$DIMLWD
 70
    -1
  9
$DIMLWE
 70
    -1
  9
$DIMTMOVE
 70
     0
  9
$LUNITS
 70
     2
  9
$LUPREC
 70
     2
  9
$SKETCHINC
 40
0.1
  9
$FILLETRAD
 40
0.5
  9
$AUNITS
 70
     0
  9
$AUPREC
 70
     0
  9
$MENU
  1
.
  9
$ELEVATION
 40
0.0
  9
$PELEVATION
 40
0.0
  9
$THICKNESS
 40
0.0
  9
$LIMCHECK
 70
     0
  9
$CHAMFERA
 40
0.5
  9
$CHAMFERB
 40
0.5
  9
$CHAMFERC
 40
0.5000000000000009
  9
$CHAMFERD
 40
0.7853981633974409
  9
$SKPOLY
 70
     0
  9
$TDCREATE
 40
2454680.669077280
  9
$TDUCREATE
 40
2454680.294077280
  9
$TDUPDATE
 40
2455693.397687164
  9
$TDUUPDATE
 40
2455693.022687164
  9
$TDINDWG
 40
0.3225780556
  9
$TDUSRTIMER
 40
0.3225779398
  9
$USRTIMER
 70
     1
  9
$ANGBASE
 50
0.0
  9
$ANGDIR
 70
     0
  9
$PDMODE
 70
     0
  9
$PDSIZE
 40
0.0
  9
$PLINEWID
 40
0.0
  9
$SPLFRAME
 70
     0
  9
$SPLINETYPE
 70
     6
  9
$SPLINESEGS
 70
     8
  9
$HANDSEED
  5
407D
  9
$SURFTAB1
 70
     6
  9
$SURFTAB2
 70
     6
  9
$SURFTYPE
 70
     6
  9
$SURFU
 70
     6
  9
$SURFV
 70
     6
  9
$UCSBASE
  2

  9
$UCSNAME
  2

  9
$UCSORG
 10
0.0
 20
0.0
 30
0.0
  9
$UCSXDIR
 10
1.0
 20
0.0
 30
0.0
  9
$UCSYDIR
 10
0.0
 20
1.0
 30
0.0
  9
$UCSORTHOREF
  2

  9
$UCSORTHOVIEW
 70
     0
  9
$UCSORGTOP
 10
0.0
 20
0.0
 30
0.0
  9
$UCSORGBOTTOM
 10
0.0
 20
0.0
 30
0.0
  9
$UCSORGLEFT
 10
0.0
 20
0.0
 30
0.0
  9
$UCSORGRIGHT
 10
0.0
 20
0.0
 30
0.0
  9
$UCSORGFRONT
 10
0.0
 20
0.0
 30
0.0
  9
$UCSORGBACK
 10
0.0
 20
0.0
 30
0.0
  9
$PUCSBASE
  2

  9
$PUCSNAME
  2

  9
$PUCSORG
 10
0.0
 20
0.0
 30
0.0
  9
$PUCSXDIR
 10
1.0
 20
0.0
 30
0.0
  9
$PUCSYDIR
 10
0.0
 20
1.0
 30
0.0
  9
$PUCSORTHOREF
  2

  9
$PUCSORTHOVIEW
 70
     0
  9
$PUCSORGTOP
 10
0.0
 20
0.0
 30
0.0
  9
$PUCSORGBOTTOM
 10
0.0
 20
0.0
 30
0.0
  9
$PUCSORGLEFT
 10
0.0
 20
0.0
 30
0.0
  9
$PUCSORGRIGHT
 10
0.0
 20
0.0
 30
0.0
  9
$PUCSORGFRONT
 10
0.0
 20
0.0
 30
0.0
  9
$PUCSORGBACK
 10
0.0
 20
0.0
 30
0.0
  9
$USERI1
 70
     0
  9
$USERI2
 70
     0
  9
$USERI3
 70
     0
  9
$USERI4
 70
     0
  9
$USERI5
 70
     0
  9
$USERR1
 40
0.0
  9
$USERR2
 40
0.0
  9
$USERR3
 40
0.0
  9
$USERR4
 40
0.0
  9
$USERR5
 40
0.0
  9
$WORLDVIEW
 70
     1
  9
$SHADEDGE
 70
     3
  9
$SHADEDIF
 70
    70
  9
$TILEMODE
 70
     1
  9
$MAXACTVP
 70
    64
  9
$PINSBASE
 10
0.0
 20
0.0
 30
0.0
  9
$PLIMCHECK
 70
     0
  9
$PEXTMIN
 10
1.000000000000000E+20
 20
1.000000000000000E+20
 30
1.000000000000000E+20
  9
$PEXTMAX
 10
-1.000000000000000E+20
 20
-1.000000000000000E+20
 30
-1.000000000000000E+20
  9
$PLIMMIN
 10
0.0
 20
0.0
  9
$PLIMMAX
 10
12.0
 20
9.0
  9
$UNITMODE
 70
     0
  9
$VISRETAIN
 70
     1
  9
$PLINEGEN
 70
     0
  9
$PSLTSCALE
 70
     1
  9
$TREEDEPTH
 70
  3020
  9
$CMLSTYLE
  2
Standard
  9
$CMLJUST
 70
     0
  9
$CMLSCALE
 40
1.0
  9
$PROXYGRAPHICS
 70
     1
  9
$MEASUREMENT
 70
     1
  9
$CELWEIGHT
370
    -1
  9
$ENDCAPS
280
     0
  9
$JOINSTYLE
280
     0
  9
$LWDISPLAY
290
     0
  9
$INSUNITS
 70
     4
  9
$HYPERLINKBASE
  1

  9
$STYLESHEET
  1
IMAGIO.ctb
  9
$XEDIT
290
     1
  9
$CEPSNTYPE
380
     0
  9
$PSTYLEMODE
290
     1
  9
$FINGERPRINTGUID
  2
{FDEAD576-A652-11D2-9A35-0060089B3A3F}
  9
$VERSIONGUID
  2
{92115D98-610D-4CD2-B036-AB5CA464F74E}
  9
$EXTNAMES
290
     1
  9
$PSVPSCALE
 40
0.0
  9
$OLESTARTUP
290
     0
  0
ENDSEC
  0
SECTION
  2
CLASSES
  0
CLASS
  1
ACDBDICTIONARYWDFLT
  2
AcDbDictionaryWithDefault
  3
ObjectDBX Classes
 90
        0
280
     0
281
     0
  0
CLASS
  1
ACDBPLACEHOLDER
  2
AcDbPlaceHolder
  3
ObjectDBX Classes
 90
        0
280
     0
281
     0
  0
CLASS
  1
LAYOUT
  2
AcDbLayout
  3
ObjectDBX Classes
 90
        0
280
     0
281
     0
  0
CLASS
  1
ACME_DOCUMENT
  2
AcMeDbDoc
  3
AcMeServices
 90
     1024
280
     0
281
     0
  0
CLASS
  1
AMGSETTINGSOBJ
  2
AmgSettingsObj
  3
"AcadM|Product Description: AutoCAD Mechanical|Company: Autodesk, Inc."
 90
     1024
280
     0
281
     0
  0
CLASS
  1
ACMESCOPE
  2
AcMeScope
  3
AcMeServices
 90
     1024
280
     0
281
     0
  0
CLASS
  1
ACMECOMMANDHISTORY
  2
AcMeCommandHistory
  3
AcMeServices
 90
     1024
280
     0
281
     0
  0
CLASS
  1
ACIMSYSVARMAN
  2
AcImSysVarManager
  3
AcMeServices
 90
     1024
280
     0
281
     0
  0
CLASS
  1
ACIMREALSYSVAR
  2
AcImRealSysVar
  3
AcMeServices
 90
     1024
280
     0
281
     0
  0
CLASS
  1
ACIMINTSYSVAR
  2
AcImIntSysVar
  3
AcMeServices
 90
     1024
280
     0
281
     0
  0
CLASS
  1
ACMEDRAWINGMAN
  2
AcMeDrawingMan
  3
AcMeServices
 90
    33792
280
     0
281
     0
  0
CLASS
  1
ACMEVIEW
  2
AcMeView
  3
AcMeServices
 90
    33792
280
     0
281
     0
  0
CLASS
  1
ACDBENTITYCACHE
  2
AcMeEntityCache
  3
AcMeServices
 90
     1024
280
     0
281
     0
  0
CLASS
  1
GSMANAGER
  2
AcMeGSManager
  3
AcMeServices
 90
    32768
280
     0
281
     0
  0
CLASS
  1
AMDTINTERNALREACTOR
  2
AmdtInternalReactor
  3
AcMeServices
 90
     1024
280
     0
281
     0
  0
CLASS
  1
ACMESTATEMGR
  2
AcMeStateMgr
  3
AcMeServices
 90
     1024
280
     0
281
     0
  0
CLASS
  1
ACGREFMASTER
  2
AcGrefMaster
  3
AcAttribServices
 90
     1024
280
     0
281
     0
  0
CLASS
  1
ACME_DATABASE
  2
AcMeDbDatabase
  3
AcMeServices
 90
     1024
280
     0
281
     0
  0
CLASS
  1
ACRFINSADJUSTERMGR
  2
AcRfInsAdjusterMgr
  3
AcMeServices
 90
     1024
280
     0
281
     0
  0
CLASS
  1
ACGREFACADMASTER
  2
AcGrefacadMaster
  3
AcGrefServices
 90
     1024
280
     0
281
     0
  0
CLASS
  1
AMIMASTER
  2
AmiMaster
  3
AmiServices
 90
     1024
280
     0
281
     0
  0
CLASS
  1
ACMDATADICTIONARY
  2
AcmDataDictionary
  3
"AcmSymBB|Product Description: AutoCAD Mechanical|Company: Autodesk, Inc."
 90
     1024
280
     0
281
     0
  0
CLASS
  1
ACMDATAENTRYBLOCK
  2
AcmDataEntryBlock
  3
AcmSymBB|Product Description: AutoCAD Mechanical|Company: Autodesk, Inc.
 90
     1024
280
     0
281
     0
  0
CLASS
  1
ACIMSTRSYSVAR
  2
AcImStrSysVar
  3
AcMeServices
 90
     1024
280
     0
281
     0
  0
CLASS
  1
ACMSTANDARDANSI
  2
AcmStandardANSI
  3
"Amdt_StdImp|Product Description: AutoCAD Mechanical|Company: Autodesk, Inc."
 90
     1024
280
     0
281
     0
  0
CLASS
  1
AMGOBJPROPCFG
  2
AmgObjPropCfg
  3
"AmgLay|Product Description: AutoCAD Mechanical|Company: Autodesk, Inc."
 90
     1025
280
     0
281
     0
  0
CLASS
  1
ACMSURFSTANDARDANSI
  2
AcmSurfTextStdANSI
  3
"Amdt_StdImp|Product Description: AutoCAD Mechanical|Company: Autodesk, Inc."
 90
     1024
280
     0
281
     0
  0
CLASS
  1
ACMFCFSTANDARDANSI
  2
AcmFCFStdANSI
  3
"Amdt_StdImp|Product Description: AutoCAD Mechanical|Company: Autodesk, Inc."
 90
     1024
280
     0
281
     0
  0
CLASS
  1
ACMWELDSTANDARDANSI
  2
AcmWeldingStdANSI
  3
"Amdt_StdImp|Product Description: AutoCAD Mechanical|Company: Autodesk, Inc."
 90
     1024
280
     0
281
     0
  0
CLASS
  1
ACMIDSTANDARDANSI
  2
AcmIdStdANSI
  3
"Amdt_StdImp|Product Description: AutoCAD Mechanical|Company: Autodesk, Inc."
 90
     1024
280
     0
281
     0
  0
CLASS
  1
ACMDATUMSTANDARDANSI
  2
AcmDatumStdANSI
  3
"Amdt_StdImp|Product Description: AutoCAD Mechanical|Company: Autodesk, Inc."
 90
     1024
280
     0
281
     0
  0
CLASS
  1
ACMBOMSTANDARDANSI
  2
AcmBOMStdANSI
  3
"Amdt_StdImp|Product Description: AutoCAD Mechanical|Company: Autodesk, Inc."
 90
     1024
280
     0
281
     0
  0
CLASS
  1
ACMDETAILSTANDARDANSI
  2
AmdtDetailSymStdANSI
  3
"Amdt_StdImp|Product Description: AutoCAD Mechanical|Company: Autodesk, Inc."
 90
     1024
280
     0
281
     0
  0
CLASS
  1
ACMSECTIONSTANDARDANSI
  2
AmdtSectionSymStdANSI
  3
"Amdt_StdImp|Product Description: AutoCAD Mechanical|Company: Autodesk, Inc."
 90
     1024
280
     0
281
     0
  0
CLASS
  1
ACMCENTERLINESTANDARDANSI
  2
AmdtCenterLineStdANSI
  3
"Amdt_StdImp|Product Description: AutoCAD Mechanical|Company: Autodesk, Inc."
 90
     1024
280
     0
281
     0
  0
CLASS
  1
ACMNOTESTANDARDANSI
  2
AmdtNoteStdANSI
  3
"Amdt_StdImp|Product Description: AutoCAD Mechanical|Company: Autodesk, Inc."
 90
     1024
280
     0
281
     0
  0
CLASS
  1
ACAMGLAYSTD
  2
AcAmgLayStd
  3
"AmgLay|Product Description: AutoCAD Mechanical|Company: Autodesk, Inc."
 90
     1024
280
     0
281
     0
  0
CLASS
  1
ACAMGDIMSTD
  2
AcAmgDimStd
  3
"AmgDim|Product Description: AutoCAD Mechanical|Company: Autodesk, Inc."
 90
     1024
280
     0
281
     0
  0
CLASS
  1
ACAMGHOLECHARTSTDANSI
  2
AcAmgHoleChartStdANSI
  3
AmgDim|Product Description: AutoCAD Mechanical|Company: Autodesk, Inc.
 90
     1024
280
     0
281
     0
  0
CLASS
  1
ACAMGTITLESTD
  2
AcAmgTitleStd
  3
"AmgTitle|Product Description: AutoCAD Mechanical|Company: Autodesk, Inc."
 90
     4095
280
     0
281
     0
  0
CLASS
  1
LAYER_INDEX
  2
AcDbLayerIndex
  3
ObjectDBX Classes
 90
    32768
280
     0
281
     0
  0
CLASS
  1
IDBUFFER
  2
AcDbIdBuffer
  3
ObjectDBX Classes
 90
    32768
280
     0
281
     0
  0
CLASS
  1
DICTIONARYVAR
  2
AcDbDictionaryVar
  3
ObjectDBX Classes
 90
        0
280
     0
281
     0
  0
CLASS
  1
ACMSTANDARDJIS
  2
AcmStandardJIS
  3
"Amdt_StdImp|Product Description: AutoCAD Mechanical|Company: Autodesk, Inc."
 90
     1024
280
     0
281
     0
  0
CLASS
  1
ACMSURFSTANDARDJIS
  2
AcmSurfTextStdJIS
  3
"Amdt_StdImp|Product Description: AutoCAD Mechanical|Company: Autodesk, Inc."
 90
     1024
280
     0
281
     0
  0
CLASS
  1
ACMFCFSTANDARDJIS98
  2
AcmFCFStdJIS98
  3
"Amdt_StdImp|Product Description: AutoCAD Mechanical|Company: Autodesk, Inc."
 90
     1024
280
     0
281
     0
  0
CLASS
  1
ACMWELDSTANDARDJIS
  2
AcmWeldingStdJIS
  3
"Amdt_StdImp|Product Description: AutoCAD Mechanical|Company: Autodesk, Inc."
 90
     1024
280
     0
281
     0
  0
CLASS
  1
ACMIDSTANDARDJIS
  2
AcmIdStdJIS
  3
"Amdt_StdImp|Product Description: AutoCAD Mechanical|Company: Autodesk, Inc."
 90
     1024
280
     0
281
     0
  0
CLASS
  1
ACMDATUMSTANDARDJIS
  2
AcmDatumStdJIS
  3
"Amdt_StdImp|Product Description: AutoCAD Mechanical|Company: Autodesk, Inc."
 90
     1024
280
     0
281
     0
  0
CLASS
  1
ACMBOMSTANDARDJIS
  2
AcmBOMStdJIS
  3
"Amdt_StdImp|Product Description: AutoCAD Mechanical|Company: Autodesk, Inc."
 90
     1024
280
     0
281
     0
  0
CLASS
  1
ACMDETAILSTANDARDJIS
  2
AmdtDetailSymStdJIS
  3
"Amdt_StdImp|Product Description: AutoCAD Mechanical|Company: Autodesk, Inc."
 90
     1024
280
     0
281
     0
  0
CLASS
  1
ACMSECTIONSTANDARDJIS
  2
AmdtSectionSymStdJIS
  3
"Amdt_StdImp|Product Description: AutoCAD Mechanical|Company: Autodesk, Inc."
 90
     1024
280
     0
281
     0
  0
CLASS
  1
ACMCENTERLINESTANDARDJIS
  2
AmdtCenterLineStdJIS
  3
"Amdt_StdImp|Product Description: AutoCAD Mechanical|Company: Autodesk, Inc."
 90
     1024
280
     0
281
     0
  0
CLASS
  1
ACMNOTESTANDARDJIS
  2
AmdtNoteStdJIS
  3
"Amdt_StdImp|Product Description: AutoCAD Mechanical|Company: Autodesk, Inc."
 90
     1024
280
     0
281
     0
  0
CLASS
  1
ACAMGHOLECHARTSTDJIS
  2
AcAmgHoleChartStdJIS
  3
AmgDim|Product Description: AutoCAD Mechanical|Company: Autodesk, Inc.
 90
     1024
280
     0
281
     0
  0
CLASS
  1
ACAMGFILTERDAT
  2
AcAmgFilterDat
  3
"AcadM|Product Description: AutoCAD Mechanical|Company: Autodesk, Inc."
 90
     1024
280
     0
281
     0
  0
CLASS
  1
AM_DRAWING_MGR
  2
AcDmDwgMgr
  3
AcMechDwgViewMgmt
 90
     1024
280
     0
281
     0
  0
CLASS
  1
AM_DWG_DOCUMENT
  2
AcDmDwgDocument
  3
AcMechDwgViewMgmt
 90
     1024
280
     0
281
     0
  0
CLASS
  1
AM_DWG_SHEET
  2
AcDmSheet
  3
AcMechDwgViewMgmt
 90
     1024
280
     0
281
     0
  0
CLASS
  1
AM_VIEWDIMPARMAP
  2
AcDmViewDimParMap
  3
AcMechDwgViewMgmt
 90
     1024
280
     0
281
     0
  0
CLASS
  1
AM_DWGMGR_NAME
  2
AcDmDwgMgrName
  3
AcMechDwgViewMgmt
 90
     1024
280
     0
281
     0
  0
CLASS
  1
AMDTMENUSTATEMGR
  2
AmdtMenuStateMgr
  3
McadcomServices
 90
     1024
280
     0
281
     0
  0
CLASS
  1
AMDTMCOMMENUSTATE
  2
AmdtMcomMenuState
  3
McadcomServices
 90
     1024
280
     0
281
     0
  0
CLASS
  1
MAPIAMMOUDLE
  2
MApiAmModule
  3
MApiAmServices
 90
     1024
280
     0
281
     0
  0
CLASS
  1
AMDTADMENUSTATE
  2
AmdtAdMenuState
  3
DesignerServices
 90
    32768
280
     0
281
     0
  0
CLASS
  1
ADAPPL
  2
AcAdAppl
  3
DesignerAssemblies
 90
    33792
280
     0
281
     0
  0
CLASS
  1
DEPMGR
  2
AcAdDepMgr
  3
DesignerAssemblies
 90
    33792
280
     0
281
     0
  0
CLASS
  1
PARAMMGR
  2
AcAdParamMgr
  3
DesignerAssemblies
 90
    33792
280
     0
281
     0
  0
CLASS
  1
PARAMSCOPE
  2
AcAdParamScope
  3
DesignerAssemblies
 90
    33792
280
     0
281
     0
  0
CLASS
  1
NAMEDAPPL
  2
AcAdNamedAppl
  3
DesignerAssemblies
 90
    33792
280
     0
281
     0
  0
CLASS
  1
AMDTDMMENUSTATE
  2
AmdtDmMenuState
  3
AcMechDwgViewMgmt
 90
     1024
280
     0
281
     0
  0
CLASS
  1
AMDTAMMENUSTATE
  2
AmdtAmMenuState
  3
DesignerAssemblies
 90
     1024
280
     0
281
     0
  0
CLASS
  1
ACAMPROJECT
  2
AcAmProject
  3
DesignerAssemblies
 90
     1024
280
     0
281
     0
  0
CLASS
  1
ACAMGRCOMPDEF
  2
AcAmGrCompDef
  3
DesignerAssemblies
 90
     1024
280
     0
281
     0
  0
CLASS
  1
ACCMCONTEXT
  2
AcCmContext
  3
DesignerAssemblies
 90
     1024
280
     0
281
     0
  0
CLASS
  1
ACAMCOMPDEF
  2
AcAmCompDef
  3
DesignerAssemblies
 90
     1024
280
     0
281
     0
  0
CLASS
  1
ACAMCOMPDEFMGR
  2
AcAmCompDefMgr
  3
DesignerAssemblies
 90
     1024
280
     0
281
     0
  0
CLASS
  1
AMCONTEXTMGR
  2
AcAmContextMgr
  3
DesignerAssemblies
 90
     1024
280
     0
281
     0
  0
CLASS
  1
ACAMCONTEXTMODELER
  2
AcAmContextModeler
  3
DesignerAssemblies
 90
     1024
280
     0
281
     0
  0
CLASS
  1
ACMTHREADLINESTANDARDANSI
  2
AmdtThreadLineStdANSI
  3
"Amdt_StdImp|Product Description: AutoCAD Mechanical|Company: Autodesk, Inc."
 90
     1024
280
     0
281
     0
  0
CLASS
  1
ACMTHREADLINESTANDARDJIS
  2
AmdtThreadLineStdJIS
  3
"Amdt_StdImp|Product Description: AutoCAD Mechanical|Company: Autodesk, Inc."
 90
     1024
280
     0
281
     0
  0
CLASS
  1
CATALOGSTATE
  2
AcAmCatalogState
  3
DesignerAssemblies
 90
    33792
280
     0
281
     0
  0
CLASS
  1
ACAMGRCOMPDEFSET
  2
AcAmGrCompDefSet
  3
DesignerAssemblies
 90
     1024
280
     0
281
     0
  0
CLASS
  1
AMDTBROWSERDBTAB
  2
AmdtBrowserDbTab
  3
McadcomServices
 90
     1024
280
     0
281
     0
  0
CLASS
  1
CBROWSERAPPOBJECT
  2
CBrowserAppObject
  3
McadcomServices
 90
     1024
280
     0
281
     0
  0
CLASS
  1
DM_PLACEHOLDER
  2
AcDmSelsetPlaceholder
  3
AcMechDwgViewMgmt
 90
     1024
280
     0
281
     0
  0
CLASS
  1
AMDTNOTETEMPLATEDB
  2
AmdtNoteTemplateDB
  3
AcmSymBB|Product Description: AutoCAD Mechanical|Company: Autodesk, Inc.
 90
     1024
280
     0
281
     0
  0
CLASS
  1
NEWSTDPARTPARLIST
  2
AmgNewParListFiler
  3
"AmgParList|Product Description: AutoCAD Mechanical|Company: Autodesk, Inc."
 90
    36863
280
     0
281
     0
  0
CLASS
  1
ACMSTANDARDISO
  2
AcmStandardISO
  3
"Amdt_StdImp|Product Description: AutoCAD Mechanical|Company: Autodesk, Inc."
 90
     1024
280
     0
281
     0
  0
CLASS
  1
AMDTEDGESTANDARDISO
  2
AmdtEdgeStdISO
  3
"Amdt_StdImp|Product Description: AutoCAD Mechanical|Company: Autodesk, Inc."
 90
     1024
280
     0
281
     0
  0
CLASS
  1
ACMSURFSTANDARDISO
  2
AcmSurfTextStdISO
  3
"Amdt_StdImp|Product Description: AutoCAD Mechanical|Company: Autodesk, Inc."
 90
     1024
280
     0
281
     0
  0
CLASS
  1
ACMFCFSTANDARDISO
  2
AcmFCFStdISO
  3
"Amdt_StdImp|Product Description: AutoCAD Mechanical|Company: Autodesk, Inc."
 90
     1024
280
     0
281
     0
  0
CLASS
  1
ACMWELDSTANDARDISO
  2
AcmWeldingStdISO
  3
"Amdt_StdImp|Product Description: AutoCAD Mechanical|Company: Autodesk, Inc."
 90
     1024
280
     0
281
     0
  0
CLASS
  1
ACMIDSTANDARDISO
  2
AcmIdStdISO
  3
"Amdt_StdImp|Product Description: AutoCAD Mechanical|Company: Autodesk, Inc."
 90
     1024
280
     0
281
     0
  0
CLASS
  1
ACMDATUMSTANDARDISO
  2
AcmDatumStdISO
  3
"Amdt_StdImp|Product Description: AutoCAD Mechanical|Company: Autodesk, Inc."
 90
     1024
280
     0
281
     0
  0
CLASS
  1
ACMBOMSTANDARDISO
  2
AcmBOMStdISO
  3
"Amdt_StdImp|Product Description: AutoCAD Mechanical|Company: Autodesk, Inc."
 90
     1024
280
     0
281
     0
  0
CLASS
  1
ACMDETAILSTANDARDISO
  2
AmdtDetailSymStdISO
  3
"Amdt_StdImp|Product Description: AutoCAD Mechanical|Company: Autodesk, Inc."
 90
     1024
280
     0
281
     0
  0
CLASS
  1
ACMSECTIONSTANDARDISO
  2
AmdtSectionSymStdISO
  3
"Amdt_StdImp|Product Description: AutoCAD Mechanical|Company: Autodesk, Inc."
 90
     1024
280
     0
281
     0
  0
CLASS
  1
ACMCENTERLINESTANDARDISO
  2
AmdtCenterLineStdISO
  3
"Amdt_StdImp|Product Description: AutoCAD Mechanical|Company: Autodesk, Inc."
 90
     1024
280
     0
281
     0
  0
CLASS
  1
ACMTHREADLINESTANDARDISO
  2
AmdtThreadLineStdISO
  3
"Amdt_StdImp|Product Description: AutoCAD Mechanical|Company: Autodesk, Inc."
 90
     1024
280
     0
281
     0
  0
CLASS
  1
ACMNOTESTANDARDISO
  2
AmdtNoteStdISO
  3
"Amdt_StdImp|Product Description: AutoCAD Mechanical|Company: Autodesk, Inc."
 90
     1024
280
     0
281
     0
  0
CLASS
  1
ACAMGHOLECHARTSTDISO
  2
AcAmgHoleChartStdISO
  3
AmgDim|Product Description: AutoCAD Mechanical|Company: Autodesk, Inc.
 90
     1024
280
     0
281
     0
  0
CLASS
  1
MATERIAL
  2
AcDbMaterial
  3
ObjectDBX Classes
 90
     1153
280
     0
281
     0
  0
CLASS
  1
VISUALSTYLE
  2
AcDbVisualStyle
  3
ObjectDBX Classes
 90
     4095
280
     0
281
     0
  0
CLASS
  1
TABLESTYLE
  2
AcDbTableStyle
  3
ObjectDBX Classes
 90
     4095
280
     0
281
     0
  0
CLASS
  1
ACRFATTGENMGR
  2
AcRfAttGeneralMgr
  3
AcAttribServices
 90
     1024
280
     0
281
     0
  0
CLASS
  1
ACRFOBJATTMGR
  2
AcRfObjAttGroupMgr
  3
AcAttribServices
 90
     1024
280
     0
281
     0
  0
CLASS
  1
ACRFMCADAPIATTHOLDER
  2
AcRfMCADAPIAttHolder
  3
AcAttribServices
 90
     1024
280
     0
281
     0
  0
CLASS
  1
AMDTSYSATTR
  2
AmdtSystemAttribute
  3
AcAttribServices
 90
     1024
280
     0
281
     0
  0
CLASS
  1
ACMTAPERSTANDARDANSI
  2
AcmTaperStdANSI
  3
"Amdt_StdImp|Product Description: AutoCAD Mechanical|Company: Autodesk, Inc."
 90
     1024
280
     0
281
     0
  0
CLASS
  1
ACMTAPERSTANDARDJIS
  2
AcmTaperStdJIS
  3
"Amdt_StdImp|Product Description: AutoCAD Mechanical|Company: Autodesk, Inc."
 90
     1024
280
     0
281
     0
  0
CLASS
  1
ACMTAPERSTANDARDISO
  2
AcmTaperStdISO
  3
"Amdt_StdImp|Product Description: AutoCAD Mechanical|Company: Autodesk, Inc."
 90
     1024
280
     0
281
     0
  0
CLASS
  1
ACMPARTREF
  2
AcmPartRef
  3
"AcmSymBB|Product Description: AutoCAD Mechanical|Company: Autodesk, Inc."
 90
    36863
280
     0
281
     1
  0
CLASS
  1
ACDBLINERES
  2
AcDbLineRes
  3
AcGrefServices
 90
     1024
280
     0
281
     0
  0
CLASS
  1
SORTENTSTABLE
  2
AcDbSortentsTable
  3
ObjectDBX Classes
 90
        0
280
     0
281
     0
  0
CLASS
  1
ACMDATAENTRYPART
  2
AcmDataEntryPart
  3
AcmSymBB|Product Description: AutoCAD Mechanical|Company: Autodesk, Inc.
 90
    33792
280
     0
281
     0
  0
CLASS
  1
STDPART2D
  2
AmgStdPart
  3
AmgStdPart|Product Description: AutoCAD Mechanical|Company: Autodesk, Inc.
 90
    36863
280
     0
281
     1
  0
CLASS
  1
CAMSSTRUCTBTNSTATE
  2
StructBtnState
  3
DesignerAssemblies
 90
    33792
280
     0
281
     0
  0
CLASS
  1
ACDBCIRCARCRES
  2
AcDbCircArcRes
  3
AcGrefServices
 90
    33792
280
     0
281
     0
  0
CLASS
  1
ACMDATAENTRY
  2
AcmDataEntry
  3
AcmSymBB|Product Description: AutoCAD Mechanical|Company: Autodesk, Inc.
 90
     1024
280
     0
281
     0
  0
CLASS
  1
ACMBOM
  2
AcmBom
  3
"AcmSymBB|Product Description: AutoCAD Mechanical|Company: Autodesk, Inc."
 90
    33792
280
     0
281
     0
  0
CLASS
  1
ACMBOMROW
  2
AcmBomRow
  3
"AcmSymBB|Product Description: AutoCAD Mechanical|Company: Autodesk, Inc."
 90
    33792
280
     0
281
     0
  0
CLASS
  1
ACMPARTLIST
  2
AcmPartList
  3
"AcmSymBB|Product Description: AutoCAD Mechanical|Company: Autodesk, Inc."
 90
    36863
280
     0
281
     1
  0
CLASS
  1
ACDBOPPOLYLINERES
  2
AcDbOpPolylineRes
  3
AcGrefServices
 90
     1024
280
     0
281
     0
  0
CLASS
  1
ACRFINSADJ
  2
AcRfInsAdjuster
  3
AcMeServices
 90
     1024
280
     0
281
     0
  0
CLASS
  1
ACMPICKOBJ
  2
AcmPickEnt
  3
"AcmSymBB|Product Description: AutoCAD Mechanical|Company: Autodesk, Inc."
 90
    33792
280
     0
281
     1
  0
CLASS
  1
ACMBALLOON
  2
AcmBalloon
  3
"AcmSymBB|Product Description: AutoCAD Mechanical|Company: Autodesk, Inc."
 90
    36863
280
     0
281
     1
  0
CLASS
  1
AMDTNOTE
  2
AmdtNote
  3
"AcmSymBB|Product Description: AutoCAD Mechanical|Company: Autodesk, Inc."
 90
    36863
280
     0
281
     1
  0
CLASS
  1
AMDTFORMULAUPDATEDISPATCHER
  2
AmdtFormulaUpdateDispatcher
  3
AcMeServices
 90
     1024
280
     0
281
     0
  0
CLASS
  1
SCALE
  2
AcDbScale
  3
ObjectDBX Classes
 90
     1153
280
     0
281
     0
  0
CLASS
  1
MLEADERSTYLE
  2
AcDbMLeaderStyle
  3
ACDB_MLEADERSTYLE_CLASS
 90
     4095
280
     0
281
     0
  0
CLASS
  1
ACMANOOTATIONVIEWSTANDARDJIS
  2
AmdtAnViewStdJIS
  3
"Amdt_StdImp|Product Description: AutoCAD Mechanical|Company: Autodesk, Inc."
 90
     1024
280
     0
281
     0
  0
CLASS
  1
AMDTEDGESTANDARDJIS
  2
AmdtEdgeStdJIS
  3
"Amdt_StdImp|Product Description: AutoCAD Mechanical|Company: Autodesk, Inc."
 90
     1024
280
     0
281
     0
  0
CLASS
  1
ACMANOOTATIONVIEWSTANDARDANSI
  2
AmdtAnViewStdANSI
  3
"Amdt_StdImp|Product Description: AutoCAD Mechanical|Company: Autodesk, Inc."
 90
     1024
280
     0
281
     0
  0
CLASS
  1
ACMANOOTATIONVIEWSTANDARDISO
  2
AmdtAnViewStdISO
  3
"Amdt_StdImp|Product Description: AutoCAD Mechanical|Company: Autodesk, Inc."
 90
     1024
280
     0
281
     0
  0
CLASS
  1
CELLSTYLEMAP
  2
AcDbCellStyleMap
  3
ObjectDBX Classes
 90
     1152
280
     0
281
     0
  0
CLASS
  1
ACMSURFSYM
  2
AcmSurfaceTexture
  3
"AcmSymBB|Product Description: AutoCAD Mechanical|Company: Autodesk, Inc."
 90
    36863
280
     0
281
     1
  0
CLASS
  1
ACDBDIMENSIONRES
  2
AcDbDimensionRes
  3
AcmSymBB|Product Description: AutoCAD Mechanical|Company: Autodesk, Inc.
 90
     1024
280
     0
281
     0
  0
CLASS
  1
DIMASSOC
  2
AcDbDimAssoc
  3
"AcDbDimAssoc|Product Desc:     AcDim ARX App For Dimension|Company:          Autodesk, Inc.|WEB Address:      www.autodesk.com"
 90
    32768
280
     0
281
     0
  0
ENDSEC
  0
SECTION
  2
TABLES
  0
TABLE
  2
VPORT
  5
8
102
{ACAD_XDICTIONARY
360
14B5
102
}
330
0
100
AcDbSymbolTable
 70
     1
  0
VPORT
  5
1C21
330
8
100
AcDbSymbolTableRecord
100
AcDbViewportTableRecord
  2
*Active
 70
     0
 10
0.0
 20
0.0
 11
1.0
 21
1.0
 12
467.1289626049984
 22
303.436360019507
 13
0.0
 23
0.0
 14
1.25
 24
1.25
 15
5.0
 25
5.0
 16
0.0
 26
0.0
 36
1.0
 17
0.0
 27
0.0
 37
0.0
 40
101.7420646329274
 41
2.070938215102974
 42
50.0
 43
0.0
 44
0.0
 50
0.0
 51
0.0
 71
    16
 72
   100
 73
     1
 74
     3
 75
     0
 76
     0
 77
     0
 78
     0
281
     0
 65
     1
110
0.0
120
0.0
130
0.0
111
1.0
121
0.0
131
0.0
112
0.0
122
1.0
132
0.0
 79
     0
146
0.0
  0
ENDTAB
  0
TABLE
  2
LTYPE
  5
5
330
0
100
AcDbSymbolTable
 70
    21
  0
LTYPE
  5
14
330
5
100
AcDbSymbolTableRecord
100
AcDbLinetypeTableRecord
  2
ByBlock
 70
     0
  3

 72
    65
 73
     0
 40
0.0
  0
LTYPE
  5
15
330
5
100
AcDbSymbolTableRecord
100
AcDbLinetypeTableRecord
  2
ByLayer
 70
     0
  3

 72
    65
 73
     0
 40
0.0
  0
LTYPE
  5
16
330
5
100
AcDbSymbolTableRecord
100
AcDbLinetypeTableRecord
  2
Continuous
 70
     0
  3
Solid line
 72
    65
 73
     0
 40
0.0
  0
LTYPE
  5
6C
330
5
100
AcDbSymbolTableRecord
100
AcDbLinetypeTableRecord
  2
AM_ISO02W050
 70
     0
  3
__ __ __ __ __ __ __ __ __ __ __ __ __ __ __
 72
    65
 73
     2
 40
7.5
 49
6.0
 74
     0
 49
-1.5
 74
     0
  0
LTYPE
  5
6D
330
5
100
AcDbSymbolTableRecord
100
AcDbLinetypeTableRecord
  2
AM_ISO08W050
 70
     0
  3
____ . ____ . ____ . ____ . ____ . ____ . ____
 72
    65
 73
     4
 40
18.0
 49
12.0
 74
     0
 49
-1.5
 74
     0
 49
3.0
 74
     0
 49
-1.5
 74
     0
  0
LTYPE
  5
6E
330
5
100
AcDbSymbolTableRecord
100
AcDbLinetypeTableRecord
  2
AM_ISO09W050
 70
     0
  3
_____ . . _____ . . _____ . . ____ .. ____
 72
    65
 73
     6
 40
22.5
 49
12.0
 74
     0
 49
-1.5
 74
     0
 49
3.0
 74
     0
 49
-1.5
 74
     0
 49
3.0
 74
     0
 49
-1.5
 74
     0
  0
LTYPE
  5
6F
330
5
100
AcDbSymbolTableRecord
100
AcDbLinetypeTableRecord
  2
Amconstr
 70
     0
  3
_______________________
 72
    65
 73
     2
 40
9999.0
 49
9999.0
 74
     0
 49
0.0
 74
     0
  0
LTYPE
  5
70
330
5
100
AcDbSymbolTableRecord
100
AcDbLinetypeTableRecord
  2
AM_ISO08W050x2
 70
     0
  3
__ . __ . __ . __ . __ . __
 72
    65
 73
     4
 40
9.0
 49
6.0
 74
     0
 49
-0.75
 74
     0
 49
1.5
 74
     0
 49
-0.75
 74
     0
  0
LTYPE
  5
71
330
5
100
AcDbSymbolTableRecord
100
AcDbLinetypeTableRecord
  2
AM_ISO02W050x2
 70
     0
  3
 _ _ _ _ _ _ _ _ _ _ _ _
 72
    65
 73
     2
 40
3.75
 49
3.0
 74
     0
 49
-0.75
 74
     0
  0
LTYPE
  5
74
330
5
100
AcDbSymbolTableRecord
100
AcDbLinetypeTableRecord
  2
Amzigzag
 70
     0
  3
/\/-/\/-/\/-/\/-/\/-/\/
 72
    65
 73
     2
 40
11.0001
 49
0.0001
 74
     4
 75
   135
340
73
 46
0.04
 50
0.0
 44
0.0
 45
0.0
 49
-11.0
 74
     0
  0
LTYPE
  5
75
330
5
100
AcDbSymbolTableRecord
100
AcDbLinetypeTableRecord
  2
HIDDEN
 70
     0
  3
Hidden __ __ __ __ __ __ __ __ __ __ __ __ __ _
 72
    65
 73
     2
 40
0.375
 49
0.25
 74
     0
 49
-0.125
 74
     0
  0
LTYPE
  5
76
330
5
100
AcDbSymbolTableRecord
100
AcDbLinetypeTableRecord
  2
CENTER
 70
     0
  3
Center ____ _ ____ _ ____ _ ____ _ ____ _ ____
 72
    65
 73
     4
 40
2.0
 49
1.25
 74
     0
 49
-0.25
 74
     0
 49
0.25
 74
     0
 49
-0.25
 74
     0
  0
LTYPE
  5
77
330
5
100
AcDbSymbolTableRecord
100
AcDbLinetypeTableRecord
  2
PHANTOM2
 70
     0
  3
Phantom (.5x) ___ _ _ ___ _ _ ___ _ _ ___ _ _
 72
    65
 73
     6
 40
1.25
 49
0.625
 74
     0
 49
-0.125
 74
     0
 49
0.125
 74
     0
 49
-0.125
 74
     0
 49
0.125
 74
     0
 49
-0.125
 74
     0
  0
LTYPE
  5
78
330
5
100
AcDbSymbolTableRecord
100
AcDbLinetypeTableRecord
  2
CENTER2
 70
     0
  3
Center (.5x) ___ _ ___ _ ___ _ ___ _ ___ _ ___
 72
    65
 73
     4
 40
1.125
 49
0.75
 74
     0
 49
-0.125
 74
     0
 49
0.125
 74
     0
 49
-0.125
 74
     0
  0
LTYPE
  5
79
330
5
100
AcDbSymbolTableRecord
100
AcDbLinetypeTableRecord
  2
HIDDEN2
 70
     0
  3
Hidden (.5x) _ _ _ _ _ _ _ _ _ _ _ _ _ _ _ _ _
 72
    65
 73
     2
 40
0.1875
 49
0.125
 74
     0
 49
-0.0625
 74
     0
  0
LTYPE
  5
7A
330
5
100
AcDbSymbolTableRecord
100
AcDbLinetypeTableRecord
  2
Amzigzag2
 70
     0
  3
/\/-/\/-/\/-/\/-/\/-/\/
 72
    65
 73
     2
 40
0.4401
 49
0.0001
 74
     4
 75
   135
340
73
 46
0.0016
 50
0.0
 44
0.0
 45
0.0
 49
-0.4400000000000001
 74
     0
  0
LTYPE
  5
87
330
5
100
AcDbSymbolTableRecord
100
AcDbLinetypeTableRecord
  2
ACANSTGB
 70
     0
  3
__ . . __ . .
 72
    65
 73
     6
 40
0.35433070866
 49
0.15748031496
 74
     0
 49
-0.03937007874
 74
     0
 49
0.03937007874
 74
     0
 49
-0.03937007874
 74
     0
 49
0.03937007874
 74
     0
 49
-0.03937007874
 74
     0
  0
LTYPE
  5
88
330
5
100
AcDbSymbolTableRecord
100
AcDbLinetypeTableRecord
  2
ACANSTGL
 70
     0
  3
_ _ _ _ _
 72
    65
 73
     2
 40
0.11811023622
 49
0.07874015748
 74
     0
 49
-0.03937007874
 74
     0
  0
LTYPE
  5
C2
330
5
100
AcDbSymbolTableRecord
100
AcDbLinetypeTableRecord
  2
ACJISTGB
 70
     0
  3
__ . . __ . .
 72
    65
 73
     6
 40
9.0
 49
4.0
 74
     0
 49
-1.0
 74
     0
 49
1.0
 74
     0
 49
-1.0
 74
     0
 49
1.0
 74
     0
 49
-1.0
 74
     0
  0
LTYPE
  5
C3
330
5
100
AcDbSymbolTableRecord
100
AcDbLinetypeTableRecord
  2
ACJISTGL
 70
     0
  3
_ _ _ _ _
 72
    65
 73
     2
 40
3.0
 49
2.0
 74
     0
 49
-1.0
 74
     0
  0
LTYPE
  5
251
330
5
100
AcDbSymbolTableRecord
100
AcDbLinetypeTableRecord
  2
ACISOWELD
 70
     0
  3
_ _ _ _ _
 72
    65
 73
     2
 40
2.0
 49
2.0
 74
     0
 49
-1.0
 74
     0
  0
LTYPE
  5
252
330
5
100
AcDbSymbolTableRecord
100
AcDbLinetypeTableRecord
  2
ACISOTGB
 70
     0
  3
__ . . __ . .
 72
    65
 73
     6
 40
9.0
 49
4.0
 74
     0
 49
-1.0
 74
     0
 49
1.0
 74
     0
 49
-1.0
 74
     0
 49
1.0
 74
     0
 49
-1.0
 74
     0
  0
LTYPE
  5
253
330
5
100
AcDbSymbolTableRecord
100
AcDbLinetypeTableRecord
  2
ACISOTGL
 70
     0
  3
_ _ _ _ _
 72
    65
 73
     2
 40
3.0
 49
2.0
 74
     0
 49
-1.0
 74
     0
  0
ENDTAB
  0
TABLE
  2
LAYER
  5
2
102
{ACAD_XDICTIONARY
360
179
102
}
330
0
100
AcDbSymbolTable
 70
    18
  0
LAYER
  5
10
102
{ACAD_XDICTIONARY
360
22AF
102
}
330
2
100
AcDbSymbolTableRecord
100
AcDbLayerTableRecord
  2
0
 70
     0
 62
     7
  6
Continuous
370
    -3
390
F
  0
LAYER
  5
10D
102
{ACAD_XDICTIONARY
360
22B1
102
}
330
2
100
AcDbSymbolTableRecord
100
AcDbLayerTableRecord
  2
AM_0
 70
     0
 62
     7
  6
Continuous
370
    50
390
F
  0
LAYER
  5
170
102
{ACAD_XDICTIONARY
360
22B3
102
}
330
2
100
AcDbSymbolTableRecord
100
AcDbLayerTableRecord
  2
AM_5
 70
     0
 62
     3
  6
Continuous
370
    25
390
F
  0
LAYER
  5
22D
102
{ACAD_XDICTIONARY
360
22B5
102
}
330
2
100
AcDbSymbolTableRecord
100
AcDbLayerTableRecord
  2
AM_CL
 70
     0
 62
     1
  6
Amconstr
370
    25
390
F
  0
LAYER
  5
254
102
{ACAD_XDICTIONARY
360
22B7
102
}
330
2
100
AcDbSymbolTableRecord
100
AcDbLayerTableRecord
  2
AM_4
 70
     0
 62
     3
  6
Continuous
370
    25
390
F
  0
LAYER
  5
255
102
{ACAD_XDICTIONARY
360
22B9
102
}
330
2
100
AcDbSymbolTableRecord
100
AcDbLayerTableRecord
  2
AM_7
 70
     0
 62
     4
  6
AM_ISO08W050
370
    25
390
F
  0
LAYER
  5
256
330
2
100
AcDbSymbolTableRecord
100
AcDbLayerTableRecord
  2
Defpoints
 70
     0
 62
     7
  6
Continuous
290
     0
370
    -3
390
F
  0
LAYER
  5
257
102
{ACAD_XDICTIONARY
360
22BB
102
}
330
2
100
AcDbSymbolTableRecord
100
AcDbLayerTableRecord
  2
AM_8
 70
     0
 62
     1
  6
Continuous
370
    25
390
F
  0
LAYER
  5
3B0
102
{ACAD_XDICTIONARY
360
22BD
102
}
330
2
100
AcDbSymbolTableRecord
100
AcDbLayerTableRecord
  2
AM_11
 70
     0
 62
     3
  6
AM_ISO09W050
370
    25
390
F
  0
LAYER
  5
C2A
102
{ACAD_XDICTIONARY
360
22BF
102
}
330
2
100
AcDbSymbolTableRecord
100
AcDbLayerTableRecord
  2
AM_BOR
 70
     0
 62
     7
  6
Continuous
370
    50
390
F
  0
LAYER
  5
FD2
102
{ACAD_XDICTIONARY
360
22C1
102
}
330
2
100
AcDbSymbolTableRecord
100
AcDbLayerTableRecord
  2
AM_3
 70
     0
 62
     6
  6
AM_ISO02W050
370
    25
390
F
  0
LAYER
  5
1210
102
{ACAD_XDICTIONARY
360
22C3
102
}
330
2
100
AcDbSymbolTableRecord
100
AcDbLayerTableRecord
  2
AM_PAREF
 70
     0
 62
     4
  6
Continuous
290
     0
370
    25
390
F
  0
LAYER
  5
1211
102
{ACAD_XDICTIONARY
360
22C5
102
}
330
2
100
AcDbSymbolTableRecord
100
AcDbLayerTableRecord
  2
AM_12
 70
     0
 62
     7
  6
Continuous
290
     0
370
    50
390
F
1001
ACAECLAYERSTANDARD
1000

1000

  0
LAYER
  5
123A
102
{ACAD_XDICTIONARY
360
22C7
102
}
330
2
100
AcDbSymbolTableRecord
100
AcDbLayerTableRecord
  2
AM_0N
 70
     0
 62
     7
  6
Continuous
370
    50
390
F
  0
LAYER
  5
123B
102
{ACAD_XDICTIONARY
360
22C9
102
}
330
2
100
AcDbSymbolTableRecord
100
AcDbLayerTableRecord
  2
AM_7N
 70
     0
 62
     4
  6
AM_ISO08W050
370
    25
390
F
  0
LAYER
  5
123C
102
{ACAD_XDICTIONARY
360
22CB
102
}
330
2
100
AcDbSymbolTableRecord
100
AcDbLayerTableRecord
  2
AM_3N
 70
     0
 62
     6
  6
AM_ISO02W050
370
    25
390
F
  0
LAYER
  5
123D
102
{ACAD_XDICTIONARY
360
22CD
102
}
330
2
100
AcDbSymbolTableRecord
100
AcDbLayerTableRecord
  2
AM_9
 70
     0
 62
  -253
  6
Continuous
370
     0
390
F
  0
LAYER
  5
123E
102
{ACAD_XDICTIONARY
360
22CF
102
}
330
2
100
AcDbSymbolTableRecord
100
AcDbLayerTableRecord
  2
AM_12N
 70
     0
 62
     7
  6
Continuous
290
     0
370
    50
390
F
  0
ENDTAB
  0
TABLE
  2
STYLE
  5
3
330
0
100
AcDbSymbolTable
 70
    12
  0
STYLE
  5
11
330
3
100
AcDbSymbolTableRecord
100
AcDbTextStyleTableRecord
  2
STANDARD
 70
     0
 40
0.0
 41
1.0
 50
0.0
 71
     0
 42
1.6
  3
ISOCP.SHX
  4
EXTFONT.SHX
  0
STYLE
  5
73
330
3
100
AcDbSymbolTableRecord
100
AcDbTextStyleTableRecord
  2

 70
     1
 40
0.0
 41
1.0
 50
0.0
 71
     0
 42
0.2
  3
ltypeshp.shx
  4

  0
STYLE
  5
7B
330
3
100
AcDbSymbolTableRecord
100
AcDbTextStyleTableRecord
  2
ACANSTS
 70
     0
 40
1.0
 41
1.0
 50
0.0
 71
     0
 42
0.2
  3
romans.shx
  4

  0
STYLE
  5
86
330
3
100
AcDbSymbolTableRecord
100
AcDbTextStyleTableRecord
  2
ACANSGDT
 70
     0
 40
0.0
 41
1.0
 50
0.0
 71
     0
 42
0.2
  3
amgdtans.shx
  4

  0
STYLE
  5
AF
330
3
100
AcDbSymbolTableRecord
100
AcDbTextStyleTableRecord
  2
USER1
 70
     0
 40
0.0
 41
1.0
 50
0.0
 71
     0
 42
0.2
  3
TXT.SHX
  4

  0
STYLE
  5
B0
330
3
100
AcDbSymbolTableRecord
100
AcDbTextStyleTableRecord
  2
USER2
 70
     0
 40
0.0
 41
1.0
 50
0.0
 71
     0
 42
0.2
  3
SIMPLEX.SHX
  4

  0
STYLE
  5
B1
330
3
100
AcDbSymbolTableRecord
100
AcDbTextStyleTableRecord
  2
USER3
 70
     0
 40
0.0
 41
1.0
 50
0.0
 71
     0
 42
0.2
  3
ITALIC.SHX
  4

  0
STYLE
  5
B6
330
3
100
AcDbSymbolTableRecord
100
AcDbTextStyleTableRecord
  2
ACJISTS
 70
     0
 40
1.0
 41
1.0
 50
0.0
 71
     0
 42
0.2
  3
isocp.shx
  4
extfont.shx
  0
STYLE
  5
C1
330
3
100
AcDbSymbolTableRecord
100
AcDbTextStyleTableRecord
  2
ACJISGDT
 70
     0
 40
0.0
 41
1.0
 50
0.0
 71
     0
 42
0.2
  3
amgdt.shx
  4

  0
STYLE
  5
258
330
3
100
AcDbSymbolTableRecord
100
AcDbTextStyleTableRecord
  2
ACISOTS
 70
     0
 40
1.0
 41
1.0
 50
0.0
 71
     0
 42
3.0
  3
isocp.shx
  4
extfont.shx
  0
STYLE
  5
259
330
3
100
AcDbSymbolTableRecord
100
AcDbTextStyleTableRecord
  2
ACISOGDT
 70
     0
 40
0.0
 41
1.0
 50
0.0
 71
     0
 42
3.0
  3
amgdt.shx
  4

  0
STYLE
  5
C56
330
3
100
AcDbSymbolTableRecord
100
AcDbTextStyleTableRecord
  2
ｽﾀｲﾙ1
 70
     0
 40
0.0
 41
1.0
 50
0.0
 71
     0
 42
44.62462130138407
  3

  4

1001
ACAD
1000
HGPSoeiKakugothicUB
1071
    32818
  0
ENDTAB
  0
TABLE
  2
VIEW
  5
6
330
0
100
AcDbSymbolTable
 70
     6
  0
VIEW
  5
D85
330
6
100
AcDbSymbolTableRecord
100
AcDbViewTableRecord
  2
AM_VIEW1
 70
     0
 40
74.25000000000006
 10
440.4468991965557
 20
349.4608004494947
 41
113.5865019011407
 11
0.0
 21
0.0
 31
1.0
 12
0.0
 22
0.0
 32
0.0
 42
50.0
 43
0.0
 44
0.0
 50
0.0
 71
    16
281
     0
 72
     0
  0
VIEW
  5
D86
330
6
100
AcDbSymbolTableRecord
100
AcDbViewTableRecord
  2
AM_VIEW2
 70
     0
 40
74.25000000000006
 10
536.8818258668435
 20
349.4608004494947
 41
113.5865019011407
 11
0.0
 21
0.0
 31
1.0
 12
0.0
 22
0.0
 32
0.0
 42
50.0
 43
0.0
 44
0.0
 50
0.0
 71
    16
281
     0
 72
     0
  0
VIEW
  5
D87
330
6
100
AcDbSymbolTableRecord
100
AcDbViewTableRecord
  2
AM_VIEW3
 70
     0
 40
74.25000000000003
 10
440.4468991965557
 20
275.2108004494947
 41
113.5865019011407
 11
0.0
 21
0.0
 31
1.0
 12
0.0
 22
0.0
 32
0.0
 42
50.0
 43
0.0
 44
0.0
 50
0.0
 71
    16
281
     0
 72
     0
  0
VIEW
  5
D88
330
6
100
AcDbSymbolTableRecord
100
AcDbViewTableRecord
  2
AM_VIEW4
 70
     0
 40
74.25000000000003
 10
536.8818258668435
 20
275.2108004494947
 41
113.5865019011407
 11
0.0
 21
0.0
 31
1.0
 12
0.0
 22
0.0
 32
0.0
 42
50.0
 43
0.0
 44
0.0
 50
0.0
 71
    16
281
     0
 72
     0
  0
VIEW
  5
D89
330
6
100
AcDbSymbolTableRecord
100
AcDbViewTableRecord
  2
AM_VIEW5
 70
     0
 40
74.25
 10
488.6643625316995
 20
312.3358004494947
 41
113.5865019011407
 11
0.0
 21
0.0
 31
1.0
 12
0.0
 22
0.0
 32
0.0
 42
50.0
 43
0.0
 44
0.0
 50
0.0
 71
    16
281
     0
 72
     0
  0
VIEW
  5
D8A
330
6
100
AcDbSymbolTableRecord
100
AcDbViewTableRecord
  2
AM_VIEW6
 70
     0
 40
148.4985150000001
 10
488.6643625316996
 20
312.3358004494947
 41
227.1707320722435
 11
0.0
 21
0.0
 31
1.0
 12
0.0
 22
0.0
 32
0.0
 42
50.0
 43
0.0
 44
0.0
 50
0.0
 71
    16
281
     0
 72
     0
  0
ENDTAB
  0
TABLE
  2
UCS
  5
7
330
0
100
AcDbSymbolTable
 70
     0
  0
ENDTAB
  0
TABLE
  2
APPID
  5
9
330
0
100
AcDbSymbolTable
 70
    38
  0
APPID
  5
12
330
9
100
AcDbSymbolTableRecord
100
AcDbRegAppTableRecord
  2
ACAD
 70
     0
  0
APPID
  5
4E
330
9
100
AcDbSymbolTableRecord
100
AcDbRegAppTableRecord
  2
MCAD_NO_VIS
 70
     0
  0
APPID
  5
4F
330
9
100
AcDbSymbolTableRecord
100
AcDbRegAppTableRecord
  2
ACAD_TEMP_GRAPHIC
 70
     0
  0
APPID
  5
60
330
9
100
AcDbSymbolTableRecord
100
AcDbRegAppTableRecord
  2
ACATTRIBSERVICES
 70
     0
  0
APPID
  5
145
330
9
100
AcDbSymbolTableRecord
100
AcDbRegAppTableRecord
  2
AD_DRAW
 70
     0
  0
APPID
  5
163
330
9
100
AcDbSymbolTableRecord
100
AcDbRegAppTableRecord
  2
DESIGNERASSEMBLIES
 70
     0
  0
APPID
  5
169
330
9
100
AcDbSymbolTableRecord
100
AcDbRegAppTableRecord
  2
ACADM_DIM_EDIT
 70
     0
  0
APPID
  5
16A
330
9
100
AcDbSymbolTableRecord
100
AcDbRegAppTableRecord
  2
AMDT_DM_ADJ
 70
     0
  0
APPID
  5
261
330
9
100
AcDbSymbolTableRecord
100
AcDbRegAppTableRecord
  2
GENIUS_GENFIL_13
 70
     0
  0
APPID
  5
262
330
9
100
AcDbSymbolTableRecord
100
AcDbRegAppTableRecord
  2
GENIUS_GENODEF_13
 70
     0
  0
APPID
  5
263
330
9
100
AcDbSymbolTableRecord
100
AcDbRegAppTableRecord
  2
GENIUS_GENOBJ-N-CHA_13
 70
     0
  0
APPID
  5
264
330
9
100
AcDbSymbolTableRecord
100
AcDbRegAppTableRecord
  2
GENIUS_GENOBJ-N-CEN_13
 70
     0
  0
APPID
  5
265
330
9
100
AcDbSymbolTableRecord
100
AcDbRegAppTableRecord
  2
GENIUS_GENOLIS_13
 70
     0
  0
APPID
  5
266
330
9
100
AcDbSymbolTableRecord
100
AcDbRegAppTableRecord
  2
GENIUS_GENOENT_13
 70
     0
  0
APPID
  5
267
330
9
100
AcDbSymbolTableRecord
100
AcDbRegAppTableRecord
  2
GENIUS_GENOREF_13
 70
     0
  0
APPID
  5
268
330
9
100
AcDbSymbolTableRecord
100
AcDbRegAppTableRecord
  2
GENIUS_GENOBJ-N-HTC_13
 70
     0
  0
APPID
  5
269
330
9
100
AcDbSymbolTableRecord
100
AcDbRegAppTableRecord
  2
GENIUS_GENHATCH_13
 70
     0
  0
APPID
  5
26A
330
9
100
AcDbSymbolTableRecord
100
AcDbRegAppTableRecord
  2
GENIUS_GEFSH_13
 70
     0
  0
APPID
  5
26B
330
9
100
AcDbSymbolTableRecord
100
AcDbRegAppTableRecord
  2
GENIUS_GENOBJ-F-SHS_13
 70
     0
  0
APPID
  5
26C
330
9
100
AcDbSymbolTableRecord
100
AcDbRegAppTableRecord
  2
GENIUS_GENOBJ-N-FIL_13
 70
     0
  0
APPID
  5
33C
330
9
100
AcDbSymbolTableRecord
100
AcDbRegAppTableRecord
  2
GENIUS_GENDIMSH_14
 70
     0
  0
APPID
  5
445
330
9
100
AcDbSymbolTableRecord
100
AcDbRegAppTableRecord
  2
GENIUS_GENREC_14
 70
     0
  0
APPID
  5
446
330
9
100
AcDbSymbolTableRecord
100
AcDbRegAppTableRecord
  2
GENIUS_GENOBJ-N-REC_13
 70
     0
  0
APPID
  5
D83
330
9
100
AcDbSymbolTableRecord
100
AcDbRegAppTableRecord
  2
GENIUS_GENOBJ-N-TIT_13
 70
     0
  0
APPID
  5
D84
330
9
100
AcDbSymbolTableRecord
100
AcDbRegAppTableRecord
  2
GENIUS_GENTITLE_13
 70
     0
  0
APPID
  5
D8B
330
9
100
AcDbSymbolTableRecord
100
AcDbRegAppTableRecord
  2
GENIUS_GENSCREG_15
 70
     0
  0
APPID
  5
D8C
330
9
100
AcDbSymbolTableRecord
100
AcDbRegAppTableRecord
  2
GENIUS_GENOBJ-N-SDF_13
 70
     0
  0
APPID
  5
1184
330
9
100
AcDbSymbolTableRecord
100
AcDbRegAppTableRecord
  2
ACAECLAYERSTANDARD
 70
     0
  0
APPID
  5
1185
330
9
100
AcDbSymbolTableRecord
100
AcDbRegAppTableRecord
  2
GENIUS_GENCEN_19
 70
     0
  0
APPID
  5
1186
330
9
100
AcDbSymbolTableRecord
100
AcDbRegAppTableRecord
  2
ACAD_PSEXT
 70
     0
  0
APPID
  5
123F
330
9
100
AcDbSymbolTableRecord
100
AcDbRegAppTableRecord
  2
GENIUS_GENBH_13
 70
     0
  0
APPID
  5
1240
330
9
100
AcDbSymbolTableRecord
100
AcDbRegAppTableRecord
  2
GENIUS_GENOBJ-NBEHI-BHF_13
 70
     0
  0
APPID
  5
141F
330
9
100
AcDbSymbolTableRecord
100
AcDbRegAppTableRecord
  2
ACAD_EXEMPT_FROM_CAD_STANDARDS
 70
     0
  0
APPID
  5
1EC9
330
9
100
AcDbSymbolTableRecord
100
AcDbRegAppTableRecord
  2
GENIUS_GENDTOL_13
 70
     0
  0
APPID
  5
21A2
330
9
100
AcDbSymbolTableRecord
100
AcDbRegAppTableRecord
  2
ACAD_DSTYLE_DIMINSPECT
 70
     0
  0
APPID
  5
2325
330
9
100
AcDbSymbolTableRecord
100
AcDbRegAppTableRecord
  2
ACAD_MLEADERVER
 70
     0
  0
APPID
  5
31AE
330
9
100
AcDbSymbolTableRecord
100
AcDbRegAppTableRecord
  2
ACAD_DSTYLE_DIMBREAK
 70
     0
  0
APPID
  5
31AF
330
9
100
AcDbSymbolTableRecord
100
AcDbRegAppTableRecord
  2
ACAD_DSTYLE_DIMJAG
 70
     0
  0
ENDTAB
  0
TABLE
  2
DIMSTYLE
  5
A
330
0
100
AcDbSymbolTable
 70
    24
100
AcDbDimStyleTable
 71
     2
340
C8
340
8C
  0
DIMSTYLE
105
27
330
A
100
AcDbSymbolTableRecord
100
AcDbDimStyleTableRecord
  2
Standard
 70
     0
340
11
  0
DIMSTYLE
105
8C
330
A
100
AcDbSymbolTableRecord
100
AcDbDimStyleTableRecord
  2
AM_ANSI
 70
     0
  4
mm
 40
0.5
 41
0.1
 42
0.05
 43
0.5
 44
0.1
 47
0.1
 48
0.1
 78
     7
 79
     2
140
0.12
141
0.0
146
0.71
147
0.06
176
   256
177
   256
178
     2
274
     4
284
     7
340
11
371
    -1
372
    -1
  0
DIMSTYLE
105
8D
330
A
100
AcDbSymbolTableRecord
100
AcDbDimStyleTableRecord
  2
AM_ANSI$3
 70
     0
  4
mm
 40
0.5
 41
0.1
 42
0.05
 43
0.5
 44
0.1
 47
0.1
 48
0.1
 78
     7
 79
     2
140
0.12
141
0.0
146
0.71
147
0.06
176
   256
177
   256
178
     2
274
     4
284
     7
288
     1
289
     0
340
11
371
    -1
372
    -1
  0
DIMSTYLE
105
8E
330
A
100
AcDbSymbolTableRecord
100
AcDbDimStyleTableRecord
  2
AM_ANSI$4
 70
     0
  4
mm
 40
0.5
 41
0.1
 42
0.05
 43
0.5
 44
0.1
 47
0.1
 48
0.1
 78
     7
 79
     2
140
0.12
141
0.0
146
0.71
147
0.06
176
   256
177
   256
178
     2
274
     4
284
     7
288
     1
289
     0
340
11
371
    -1
372
    -1
  0
DIMSTYLE
105
8F
330
A
100
AcDbSymbolTableRecord
100
AcDbDimStyleTableRecord
  2
AM_ANSI$7
 70
     0
  4
mm
 40
0.5
 41
0.1
 42
0.05
 43
0.5
 44
0.1
 47
0.1
 48
0.1
 78
     7
 79
     2
140
0.24
141
0.0
146
0.71
147
0.06
176
   256
177
   256
178
     2
274
     4
284
     7
340
11
371
    -1
372
    -1
  0
DIMSTYLE
105
90
330
A
100
AcDbSymbolTableRecord
100
AcDbDimStyleTableRecord
  2
AM_ANSI$SF
 70
     0
  4
mm
 40
0.5
 41
0.1
 42
0.05
 43
0.5
 44
0.1
 47
0.1
 48
0.1
 75
     1
 76
     1
 78
     7
 79
     2
140
0.12
141
0.0
146
0.71
147
0.06
176
   256
177
   256
178
     2
274
     4
284
     7
340
11
371
    -1
372
    -1
  0
DIMSTYLE
105
95
330
A
100
AcDbSymbolTableRecord
100
AcDbDimStyleTableRecord
  2
AM_ANSI$SH
 70
     0
  4
mm
 40
0.5
 41
0.1
 42
0.05
 43
0.5
 44
0.1
 47
0.1
 48
0.1
 75
     1
 76
     1
 78
     7
 79
     2
140
0.12
141
0.0
146
0.71
147
0.06
173
     1
176
   256
177
   256
178
     2
274
     4
284
     7
340
11
343
91
371
    -1
372
    -1
  0
DIMSTYLE
105
C8
330
A
100
AcDbSymbolTableRecord
100
AcDbDimStyleTableRecord
  2
AM_JIS
 70
     0
  4
"
 40
0.5
 41
2.5
 42
1.0
 43
10.0
 44
1.0
 47
0.1
 48
0.1
 73
     0
 74
     0
 77
     3
 78
     8
 79
     2
140
3.5
141
0.0
143
0.0393701
146
0.71
147
1.5
172
     1
176
   256
177
   256
178
     2
271
     2
272
     3
274
     4
283
     0
284
     8
340
11
341
C9
342
C9
343
C9
344
C9
371
    -1
372
    -1
  0
DIMSTYLE
105
CF
330
A
100
AcDbSymbolTableRecord
100
AcDbDimStyleTableRecord
  2
AM_JIS$3
 70
     0
  4
"
 40
0.5
 41
2.5
 42
1.0
 43
10.0
 44
1.0
 47
0.1
 48
0.1
 73
     0
 77
     3
 78
     8
 79
     2
140
3.5
141
0.0
143
0.0393701
146
0.71
147
1.5
176
   256
177
   256
178
     2
271
     2
272
     3
274
     4
283
     0
284
     8
288
     1
289
     0
340
11
341
C9
342
C9
343
C9
344
C9
371
    -1
372
    -1
  0
DIMSTYLE
105
D0
330
A
100
AcDbSymbolTableRecord
100
AcDbDimStyleTableRecord
  2
AM_JIS$4
 70
     0
  4
"
 40
0.5
 41
2.5
 42
1.0
 43
10.0
 44
1.0
 47
0.1
 48
0.1
 73
     0
 77
     3
 78
     8
 79
     2
140
3.5
141
0.0
143
0.0393701
146
0.71
147
1.5
176
   256
177
   256
178
     2
271
     2
272
     3
274
     4
283
     0
284
     8
288
     1
289
     0
340
11
341
C9
342
C9
343
C9
344
C9
371
    -1
372
    -1
  0
DIMSTYLE
105
D1
330
A
100
AcDbSymbolTableRecord
100
AcDbDimStyleTableRecord
  2
AM_JIS$6
 70
     0
  4
"
 40
0.5
 41
2.5
 42
1.0
 43
10.0
 44
1.0
 47
0.1
 48
0.1
 73
     0
 74
     0
 78
     8
 79
     2
140
3.5
141
0.0
143
0.0393701
146
0.71
147
1.5
172
     1
176
   256
177
   256
178
     2
271
     2
272
     3
274
     4
283
     0
284
     8
340
11
341
C9
342
C9
343
C9
344
C9
371
    -1
372
    -1
  0
DIMSTYLE
105
D2
330
A
100
AcDbSymbolTableRecord
100
AcDbDimStyleTableRecord
  2
AM_JIS$7
 70
     0
  4
"
 40
0.5
 41
2.5
 42
1.0
 43
10.0
 44
1.0
 47
0.1
 48
0.1
 73
     0
 74
     0
 77
     3
 78
     8
 79
     2
140
5.0
141
0.0
143
0.0393701
146
0.71
147
1.5
172
     1
176
   256
177
   256
178
     2
271
     2
272
     3
274
     4
283
     0
284
     8
340
11
341
C9
342
C9
343
C9
344
C9
371
    -1
372
    -1
  0
DIMSTYLE
105
D3
330
A
100
AcDbSymbolTableRecord
100
AcDbDimStyleTableRecord
  2
AM_JIS$SF
 70
     0
  4
"
 40
0.5
 41
2.5
 42
1.0
 43
10.0
 44
1.0
 47
0.1
 48
0.1
 73
     0
 74
     0
 75
     1
 76
     1
 77
     3
 78
     8
 79
     2
140
3.5
141
0.0
143
0.0393701
146
0.71
147
1.5
172
     1
176
   256
177
   256
178
     2
271
     2
272
     3
274
     4
283
     0
284
     8
340
11
341
C9
342
C9
343
C9
344
C9
371
    -1
372
    -1
  0
DIMSTYLE
105
D4
330
A
100
AcDbSymbolTableRecord
100
AcDbDimStyleTableRecord
  2
AM_JIS$SH
 70
     0
  4
"
 40
0.5
 41
2.5
 42
1.0
 43
10.0
 44
1.0
 47
0.1
 48
0.1
 73
     0
 74
     0
 75
     1
 76
     1
 77
     3
 78
     8
 79
     2
140
3.5
141
0.0
143
0.0393701
144
2.0
146
0.71
147
1.5
172
     1
173
     1
176
   256
177
   256
178
     2
271
     2
272
     3
274
     4
283
     0
284
     8
340
11
341
C9
342
C9
343
91
344
C9
371
    -1
372
    -1
  0
DIMSTYLE
105
25A
330
A
100
AcDbSymbolTableRecord
100
AcDbDimStyleTableRecord
  2
AM_ISO
 70
     0
  4
"
 40
0.5
 41
2.5
 42
1.0
 43
10.0
 44
1.0
 47
0.1
 48
0.1
 73
     0
 74
     0
 77
     1
 78
     8
 79
     2
140
3.5
141
0.0
143
0.0393701
146
0.71
147
1.5
172
     1
176
   256
177
   256
178
     2
271
     2
272
     3
274
     4
283
     0
284
     8
340
11
371
    -1
372
    -1
  0
DIMSTYLE
105
25B
330
A
100
AcDbSymbolTableRecord
100
AcDbDimStyleTableRecord
  2
AM_ISO$3
 70
     0
  4
"
 40
0.5
 41
2.5
 42
1.0
 43
10.0
 44
1.0
 47
0.1
 48
0.1
 73
     0
 77
     1
 78
     8
 79
     2
140
3.5
141
0.0
143
0.0393701
146
0.71
147
1.5
176
   256
177
   256
178
     2
271
     2
272
     3
274
     4
283
     0
284
     8
288
     1
289
     0
340
11
371
    -1
372
    -1
  0
DIMSTYLE
105
25C
330
A
100
AcDbSymbolTableRecord
100
AcDbDimStyleTableRecord
  2
AM_ISO$4
 70
     0
  4
"
 40
0.5
 41
2.5
 42
1.0
 43
10.0
 44
1.0
 47
0.1
 48
0.1
 73
     0
 77
     1
 78
     8
 79
     2
140
3.5
141
0.0
143
0.0393701
146
0.71
147
1.5
176
   256
177
   256
178
     2
271
     2
272
     3
274
     4
283
     0
284
     8
288
     1
289
     0
340
11
371
    -1
372
    -1
  0
DIMSTYLE
105
25D
330
A
100
AcDbSymbolTableRecord
100
AcDbDimStyleTableRecord
  2
AM_ISO$6
 70
     0
  4
"
 40
0.5
 41
2.5
 42
1.0
 43
10.0
 44
1.0
 47
0.1
 48
0.1
 73
     0
 74
     0
 78
     8
 79
     2
140
3.5
141
0.0
143
0.0393701
146
0.71
147
1.5
172
     1
176
   256
177
   256
178
     2
271
     2
272
     3
274
     4
283
     0
284
     8
340
11
371
    -1
372
    -1
  0
DIMSTYLE
105
25E
330
A
100
AcDbSymbolTableRecord
100
AcDbDimStyleTableRecord
  2
AM_ISO$7
 70
     0
  4
"
 40
0.5
 41
2.5
 42
1.0
 43
10.0
 44
1.0
 47
0.1
 48
0.1
 73
     0
 74
     0
 77
     1
 78
     8
 79
     2
140
5.0
141
0.0
143
0.0393701
146
0.71
147
1.5
172
     1
176
   256
177
   256
178
     2
271
     2
272
     3
274
     4
283
     0
284
     8
340
11
371
    -1
372
    -1
  0
DIMSTYLE
105
25F
330
A
100
AcDbSymbolTableRecord
100
AcDbDimStyleTableRecord
  2
AM_ISO$SF
 70
     0
  4
"
 40
0.5
 41
2.5
 42
1.0
 43
10.0
 44
1.0
 47
0.1
 48
0.1
 73
     0
 74
     0
 75
     1
 76
     1
 77
     1
 78
     8
 79
     2
140
3.5
141
0.0
143
0.0393701
146
0.71
147
1.5
172
     1
176
   256
177
   256
178
     2
271
     2
272
     3
274
     4
283
     0
284
     8
340
11
371
    -1
372
    -1
  0
DIMSTYLE
105
260
330
A
100
AcDbSymbolTableRecord
100
AcDbDimStyleTableRecord
  2
AM_ISO$SH
 70
     0
  4
"
 40
0.5
 41
2.5
 42
1.0
 43
10.0
 44
1.0
 47
0.1
 48
0.1
 73
     0
 74
     0
 75
     1
 76
     1
 77
     1
 78
     8
 79
     2
140
3.5
141
0.0
143
0.0393701
144
2.0
146
0.71
147
1.5
172
     1
173
     1
176
   256
177
   256
178
     2
271
     2
272
     3
274
     4
283
     0
284
     8
340
11
343
91
371
    -1
372
    -1
  0
DIMSTYLE
105
3B1
330
A
100
AcDbSymbolTableRecord
100
AcDbDimStyleTableRecord
  2
ISO-25
 70
     0
 41
2.5
 42
0.625
 43
3.75
 44
1.25
 73
     0
 74
     0
 77
     1
 78
     8
140
2.5
141
2.5
143
0.03937007874016
147
0.625
171
     3
172
     1
271
     2
272
     2
274
     3
283
     0
284
     8
340
11
  0
DIMSTYLE
105
1212
330
A
100
AcDbSymbolTableRecord
100
AcDbDimStyleTableRecord
  2
AM_JIS$0
 70
     0
  4
"
 40
0.5
 41
2.5
 42
1.0
 43
10.0
 44
1.0
 47
0.1
 48
0.1
 73
     0
 74
     0
 77
     3
 78
     8
 79
     2
140
3.5
141
0.0
143
0.0393701
146
0.71
147
1.5
172
     1
176
   256
177
   256
178
     2
271
     2
272
     3
274
     4
283
     0
284
     8
340
11
341
C9
342
C9
343
C9
344
C9
371
    -1
372
    -1
  0
DIMSTYLE
105
1EC8
330
A
100
AcDbSymbolTableRecord
100
AcDbDimStyleTableRecord
  2
AM_JIS$2
 70
     0
  4
"
 40
0.5
 41
2.5
 42
1.0
 43
10.0
 44
1.0
 47
0.1
 48
0.1
 73
     0
 74
     0
 77
     3
 78
     8
 79
     2
140
3.5
141
0.0
143
0.0393701
146
0.71
147
1.5
172
     1
176
   256
177
   256
178
     2
271
     2
272
     3
274
     4
283
     0
284
     8
340
11
341
C9
342
C9
343
C9
344
C9
371
    -1
372
    -1
  0
ENDTAB
  0
TABLE
  2
BLOCK_RECORD
  5
1
330
0
100
AcDbSymbolTable
 70
    11
  0
BLOCK_RECORD
  5
1F
102
{ACAD_XDICTIONARY
360
99
102
}
330
1
100
AcDbSymbolTableRecord
100
AcDbBlockTableRecord
  2
*Model_Space
340
22
  0
BLOCK_RECORD
  5
1B
330
1
100
AcDbSymbolTableRecord
100
AcDbBlockTableRecord
  2
*Paper_Space
340
1E
  0
BLOCK_RECORD
  5
23
330
1
100
AcDbSymbolTableRecord
100
AcDbBlockTableRecord
  2
*Paper_Space0
340
26
  0
BLOCK_RECORD
  5
91
330
1
100
AcDbSymbolTableRecord
100
AcDbBlockTableRecord
  2
GENAXEH
340
0
  0
BLOCK_RECORD
  5
C9
330
1
100
AcDbSymbolTableRecord
100
AcDbBlockTableRecord
  2
_Open30
340
0
  0
BLOCK_RECORD
  5
62C
330
1
100
AcDbSymbolTableRecord
100
AcDbBlockTableRecord
  2
GENDOT
340
0
  0
BLOCK_RECORD
  5
B12
330
1
100
AcDbSymbolTableRecord
100
AcDbBlockTableRecord
  2
_None
340
0
  0
BLOCK_RECORD
  5
C2B
102
{ACAD_XDICTIONARY
360
C39
102
}
330
1
100
AcDbSymbolTableRecord
100
AcDbBlockTableRecord
  2
AA-3-BW
340
0
  0
BLOCK_RECORD
  5
C41
330
1
100
AcDbSymbolTableRecord
100
AcDbBlockTableRecord
  2
A$C2D292097
340
0
  0
BLOCK_RECORD
  5
C57
102
{ACAD_XDICTIONARY
360
C88
102
}
330
1
100
AcDbSymbolTableRecord
100
AcDbBlockTableRecord
  2
ASO-A
340
0
  0
BLOCK_RECORD
  5
FBD
102
{ACAD_XDICTIONARY
360
FC0
102
}
330
1
100
AcDbSymbolTableRecord
100
AcDbBlockTableRecord
  2
A$C0B6E218C
340
0
1001
ACAD
1000
DesignCenter Data
1002
{
1070
     1
1070
     4
1002
}
  0
BLOCK_RECORD
  5
2462
102
{ACAD_XDICTIONARY
360
2464
102
}
330
1
100
AcDbSymbolTableRecord
100
AcDbBlockTableRecord
  2
A$C60FD0CB8
340
0
1001
ACAD
1000
DesignCenter Data
1002
{
1070
     1
1070
     4
1002
}
  0
ENDTAB
  0
ENDSEC
  0
SECTION
  2
BLOCKS
  0
BLOCK
  5
20
330
1F
100
AcDbEntity
  8
0
100
AcDbBlockBegin
  2
*Model_Space
 70
     0
 10
0.0
 20
0.0
 30
0.0
  3
*Model_Space
  1

  0
ENDBLK
  5
21
330
1F
100
AcDbEntity
  8
0
100
AcDbBlockEnd
  0
BLOCK
  5
1C
330
1B
100
AcDbEntity
 67
     1
  8
0
100
AcDbBlockBegin
  2
*Paper_Space
 70
     0
 10
0.0
 20
0.0
 30
0.0
  3
*Paper_Space
  1

  0
ENDBLK
  5
1D
330
1B
100
AcDbEntity
 67
     1
  8
0
100
AcDbBlockEnd
  0
BLOCK
  5
24
330
23
100
AcDbEntity
 67
     1
  8
0
100
AcDbBlockBegin
  2
*Paper_Space0
 70
     0
 10
0.0
 20
0.0
 30
0.0
  3
*Paper_Space0
  1

  0
ENDBLK
  5
25
330
23
100
AcDbEntity
 67
     1
  8
0
100
AcDbBlockEnd
  0
BLOCK
  5
93
330
91
100
AcDbEntity
  8
0
100
AcDbBlockBegin
  2
GENAXEH
 70
     0
 10
0.0
 20
0.0
 30
0.0
  3
GENAXEH
  1

  0
LINE
  5
92
330
91
100
AcDbEntity
  8
0
100
AcDbLine
 10
-1.0
 20
0.0
 30
0.0
 11
1.0
 21
0.0
 31
0.0
  0
ENDBLK
  5
94
330
91
100
AcDbEntity
  8
0
100
AcDbBlockEnd
  0
BLOCK
  5
CD
330
C9
100
AcDbEntity
  8
0
100
AcDbBlockBegin
  2
_Open30
 70
     0
 10
0.0
 20
0.0
 30
0.0
  3
_Open30
  1

  0
LINE
  5
CA
330
C9
100
AcDbEntity
  8
0
  6
ByBlock
 62
     0
370
    -2
100
AcDbLine
 10
-1.0
 20
0.26794919
 30
0.0
 11
0.0
 21
0.0
 31
0.0
  0
LINE
  5
CB
330
C9
100
AcDbEntity
  8
0
  6
ByBlock
 62
     0
370
    -2
100
AcDbLine
 10
0.0
 20
0.0
 30
0.0
 11
-1.0
 21
-0.26794919
 31
0.0
  0
LINE
  5
CC
330
C9
100
AcDbEntity
  8
0
  6
ByBlock
 62
     0
370
    -2
100
AcDbLine
 10
0.0
 20
0.0
 30
0.0
 11
-1.0
 21
0.0
 31
0.0
  0
ENDBLK
  5
CE
330
C9
100
AcDbEntity
  8
0
100
AcDbBlockEnd
  0
BLOCK
  5
62F
330
62C
100
AcDbEntity
  8
0
100
AcDbBlockBegin
  2
GENDOT
 70
     0
 10
0.0
 20
0.0
 30
0.0
  3
GENDOT
  1

  0
LINE
  5
62D
330
62C
100
AcDbEntity
  8
0
100
AcDbLine
 10
0.0
 20
0.0
 30
0.0
 11
-1.0
 21
0.0
 31
0.0
  0
LWPOLYLINE
  5
62E
330
62C
100
AcDbEntity
  8
0
100
AcDbPolyline
 90
        2
 70
     1
 43
0.25
 10
-0.125
 20
0.0
 42
1.0
 10
0.125
 20
0.0
 42
1.0
  0
ENDBLK
  5
630
330
62C
100
AcDbEntity
  8
0
100
AcDbBlockEnd
  0
BLOCK
  5
B13
330
B12
100
AcDbEntity
  8
0
100
AcDbBlockBegin
  2
_None
 70
     0
 10
0.0
 20
0.0
 30
0.0
  3
_None
  1

  0
ENDBLK
  5
B14
330
B12
100
AcDbEntity
  8
0
100
AcDbBlockEnd
  0
BLOCK
  5
C3A
330
C2B
100
AcDbEntity
  8
0
100
AcDbBlockBegin
  2
AA-3-BW
 70
     0
 10
0.0
 20
0.0
 30
0.0
  3
AA-3-BW
  1

  0
LWPOLYLINE
  5
C2C
330
C2B
100
AcDbEntity
  8
AM_BOR
 62
   231
100
AcDbPolyline
 90
        4
 70
     1
 43
0.0
 10
11.31798825946299
 20
285.680442839147
 10
11.31798825946292
 20
11.31955716085312
 10
408.7322739737486
 20
11.31955716085296
 10
408.7322739737486
 20
285.680442839147
1001
GENIUS_GENREC_14
1002
{
1000
PYDIR
1011
408.7322739737486
1021
285.680442839147
1031
0.0
1002
}
1002
{
1000
PXDIR
1011
11.31798825946292
1021
11.31955716085312
1031
0.0
1002
}
1002
{
1000
PORI
1011
11.31798825946299
1021
285.680442839147
1031
0.0
1002
}
1002
{
1000
PINS
1011
11.31798825946299
1021
285.680442839147
1031
0.0
1002
}
1002
{
1000
HVAL
1000
281
1002
}
1002
{
1000
H
1070
     2
1002
}
1002
{
1000
WVAL
1000
183
1002
}
1002
{
1000
W
1070
     2
1002
}
1002
{
1000
C
1070
     1
1002
}
1001
GENIUS_GENODEF_13
1002
{
1000
HIER
1070
     0
1002
}
1002
{
1000
MANEDIT
1070
     0
1002
}
1002
{
1000
NOSEL
1070
     0
1002
}
1002
{
1000
BEHIND
1070
     0
1002
}
1002
{
1000
REACTOR
1002
}
1001
GENIUS_GENOBJ-N-REC_13
1002
{
1000
OWNER
1000
GEN
1002
}
  0
TEXT
  5
C2D
330
C2B
100
AcDbEntity
  8
AM_BOR
 60
     1
100
AcDbText
 10
420.0428571428571
 20
296.9999999999998
 30
0.0
 40
5.0
  1
!GENTITLE-MAX
100
AcDbText
  0
LINE
  5
C2E
330
C2B
100
AcDbEntity
  8
AM_BOR
100
AcDbLine
 10
0.0000000000000799
 20
297.0
 30
0.0
 11
0.0000000000000799
 21
275.7857142857142
 31
0.0
1001
GENIUS_GENREC_14
1002
{
1000
PYDIR
1011
420.0428571428571
1021
296.9999999999998
1031
0.0
1002
}
1002
{
1000
PXDIR
1011
0.0
1021
0.0
1031
0.0
1002
}
1002
{
1000
PORI
1011
0.0000000000000799
1021
297.0
1031
0.0
1002
}
1002
{
1000
PINS
1011
0.0000000000000799
1021
297.0
1031
0.0
1002
}
1002
{
1000
HVAL
1000
297
1002
}
1002
{
1000
H
1070
     2
1002
}
1002
{
1000
WVAL
1000
210
1002
}
1002
{
1000
W
1070
     2
1002
}
1002
{
1000
C
1070
     1
1002
}
1001
GENIUS_GENODEF_13
1002
{
1000
HIER
1070
     0
1002
}
1002
{
1000
MANEDIT
1070
     0
1002
}
1002
{
1000
NOSEL
1070
     0
1002
}
1002
{
1000
BEHIND
1070
     0
1002
}
1002
{
1000
REACTOR
1002
}
1001
GENIUS_GENOBJ-N-REC_13
1002
{
1000
OWNER
1000
GEN
1002
}
  0
LINE
  5
C2F
330
C2B
100
AcDbEntity
  8
AM_BOR
100
AcDbLine
 10
0.0
 20
0.0
 30
0.0
 11
21.21428571428571
 21
0.0
 31
0.0
1001
GENIUS_GENREC_14
1002
{
1000
PYDIR
1011
420.0428571428571
1021
296.9999999999998
1031
0.0
1002
}
1002
{
1000
PXDIR
1011
0.0
1021
0.0
1031
0.0
1002
}
1002
{
1000
PORI
1011
0.0000000000000799
1021
297.0
1031
0.0
1002
}
1002
{
1000
PINS
1011
0.0000000000000799
1021
297.0
1031
0.0
1002
}
1002
{
1000
HVAL
1000
297
1002
}
1002
{
1000
H
1070
     2
1002
}
1002
{
1000
WVAL
1000
210
1002
}
1002
{
1000
W
1070
     2
1002
}
1002
{
1000
C
1070
     1
1002
}
1001
GENIUS_GENODEF_13
1002
{
1000
HIER
1070
     0
1002
}
1002
{
1000
MANEDIT
1070
     0
1002
}
1002
{
1000
NOSEL
1070
     0
1002
}
1002
{
1000
BEHIND
1070
     0
1002
}
1002
{
1000
REACTOR
1002
}
1001
GENIUS_GENOBJ-N-REC_13
1002
{
1000
OWNER
1000
GEN
1002
}
  0
LINE
  5
C30
330
C2B
100
AcDbEntity
  8
AM_BOR
100
AcDbLine
 10
420.0428571428571
 20
-0.0000000000000799
 30
0.0
 11
420.0428571428571
 21
21.21428571428563
 31
0.0
1001
GENIUS_GENREC_14
1002
{
1000
PYDIR
1011
420.0428571428571
1021
296.9999999999998
1031
0.0
1002
}
1002
{
1000
PXDIR
1011
0.0
1021
0.0
1031
0.0
1002
}
1002
{
1000
PORI
1011
0.0000000000000799
1021
297.0
1031
0.0
1002
}
1002
{
1000
PINS
1011
0.0000000000000799
1021
297.0
1031
0.0
1002
}
1002
{
1000
HVAL
1000
297
1002
}
1002
{
1000
H
1070
     2
1002
}
1002
{
1000
WVAL
1000
210
1002
}
1002
{
1000
W
1070
     2
1002
}
1002
{
1000
C
1070
     1
1002
}
1001
GENIUS_GENODEF_13
1002
{
1000
HIER
1070
     0
1002
}
1002
{
1000
MANEDIT
1070
     0
1002
}
1002
{
1000
NOSEL
1070
     0
1002
}
1002
{
1000
BEHIND
1070
     0
1002
}
1002
{
1000
REACTOR
1002
}
1001
GENIUS_GENOBJ-N-REC_13
1002
{
1000
OWNER
1000
GEN
1002
}
  0
LINE
  5
C31
330
C2B
100
AcDbEntity
  8
AM_BOR
100
AcDbLine
 10
420.0428571428571
 20
296.9999999999998
 30
0.0
 11
398.8285714285715
 21
296.9999999999998
 31
0.0
1001
GENIUS_GENREC_14
1002
{
1000
PYDIR
1011
420.0428571428571
1021
296.9999999999998
1031
0.0
1002
}
1002
{
1000
PXDIR
1011
0.0
1021
0.0
1031
0.0
1002
}
1002
{
1000
PORI
1011
0.0000000000000799
1021
297.0
1031
0.0
1002
}
1002
{
1000
PINS
1011
0.0000000000000799
1021
297.0
1031
0.0
1002
}
1002
{
1000
HVAL
1000
297
1002
}
1002
{
1000
H
1070
     2
1002
}
1002
{
1000
WVAL
1000
210
1002
}
1002
{
1000
W
1070
     2
1002
}
1002
{
1000
C
1070
     1
1002
}
1001
GENIUS_GENODEF_13
1002
{
1000
HIER
1070
     0
1002
}
1002
{
1000
MANEDIT
1070
     0
1002
}
1002
{
1000
NOSEL
1070
     0
1002
}
1002
{
1000
BEHIND
1070
     0
1002
}
1002
{
1000
REACTOR
1002
}
1001
GENIUS_GENOBJ-N-REC_13
1002
{
1000
OWNER
1000
GEN
1002
}
  0
LINE
  5
C32
330
C2B
100
AcDbEntity
  8
AM_BOR
100
AcDbLine
 10
21.2142857142858
 20
297.0
 30
0.0
 11
0.0000000000000799
 21
297.0
 31
0.0
1001
GENIUS_GENREC_14
1002
{
1000
PYDIR
1011
420.0428571428571
1021
296.9999999999998
1031
0.0
1002
}
1002
{
1000
PXDIR
1011
0.0
1021
0.0
1031
0.0
1002
}
1002
{
1000
PORI
1011
0.0000000000000799
1021
297.0
1031
0.0
1002
}
1002
{
1000
PINS
1011
0.0000000000000799
1021
297.0
1031
0.0
1002
}
1002
{
1000
HVAL
1000
297
1002
}
1002
{
1000
H
1070
     2
1002
}
1002
{
1000
WVAL
1000
210
1002
}
1002
{
1000
W
1070
     2
1002
}
1002
{
1000
C
1070
     1
1002
}
1001
GENIUS_GENODEF_13
1002
{
1000
HIER
1070
     0
1002
}
1002
{
1000
MANEDIT
1070
     0
1002
}
1002
{
1000
NOSEL
1070
     0
1002
}
1002
{
1000
BEHIND
1070
     0
1002
}
1002
{
1000
REACTOR
1002
}
1001
GENIUS_GENOBJ-N-REC_13
1002
{
1000
OWNER
1000
GEN
1002
}
  0
LINE
  5
C33
330
C2B
100
AcDbEntity
  8
AM_BOR
100
AcDbLine
 10
420.0428571428571
 20
275.7857142857141
 30
0.0
 11
420.0428571428571
 21
296.9999999999998
 31
0.0
1001
GENIUS_GENREC_14
1002
{
1000
PYDIR
1011
420.0428571428571
1021
296.9999999999998
1031
0.0
1002
}
1002
{
1000
PXDIR
1011
0.0
1021
0.0
1031
0.0
1002
}
1002
{
1000
PORI
1011
0.0000000000000799
1021
297.0
1031
0.0
1002
}
1002
{
1000
PINS
1011
0.0000000000000799
1021
297.0
1031
0.0
1002
}
1002
{
1000
HVAL
1000
297
1002
}
1002
{
1000
H
1070
     2
1002
}
1002
{
1000
WVAL
1000
210
1002
}
1002
{
1000
W
1070
     2
1002
}
1002
{
1000
C
1070
     1
1002
}
1001
GENIUS_GENODEF_13
1002
{
1000
HIER
1070
     0
1002
}
1002
{
1000
MANEDIT
1070
     0
1002
}
1002
{
1000
NOSEL
1070
     0
1002
}
1002
{
1000
BEHIND
1070
     0
1002
}
1002
{
1000
REACTOR
1002
}
1001
GENIUS_GENOBJ-N-REC_13
1002
{
1000
OWNER
1000
GEN
1002
}
  0
LINE
  5
C34
330
C2B
100
AcDbEntity
  8
AM_BOR
100
AcDbLine
 10
398.8285714285715
 20
-0.0000000000000799
 30
0.0
 11
420.0428571428571
 21
-0.0000000000000799
 31
0.0
1001
GENIUS_GENREC_14
1002
{
1000
PYDIR
1011
420.0428571428571
1021
296.9999999999998
1031
0.0
1002
}
1002
{
1000
PXDIR
1011
0.0
1021
0.0
1031
0.0
1002
}
1002
{
1000
PORI
1011
0.0000000000000799
1021
297.0
1031
0.0
1002
}
1002
{
1000
PINS
1011
0.0000000000000799
1021
297.0
1031
0.0
1002
}
1002
{
1000
HVAL
1000
297
1002
}
1002
{
1000
H
1070
     2
1002
}
1002
{
1000
WVAL
1000
210
1002
}
1002
{
1000
W
1070
     2
1002
}
1002
{
1000
C
1070
     1
1002
}
1001
GENIUS_GENODEF_13
1002
{
1000
HIER
1070
     0
1002
}
1002
{
1000
MANEDIT
1070
     0
1002
}
1002
{
1000
NOSEL
1070
     0
1002
}
1002
{
1000
BEHIND
1070
     0
1002
}
1002
{
1000
REACTOR
1002
}
1001
GENIUS_GENOBJ-N-REC_13
1002
{
1000
OWNER
1000
GEN
1002
}
  0
LINE
  5
C35
330
C2B
100
AcDbEntity
  8
AM_BOR
100
AcDbLine
 10
0.0
 20
21.21428571428571
 30
0.0
 11
0.0
 21
0.0
 31
0.0
1001
GENIUS_GENREC_14
1002
{
1000
PYDIR
1011
420.0428571428571
1021
296.9999999999998
1031
0.0
1002
}
1002
{
1000
PXDIR
1011
0.0
1021
0.0
1031
0.0
1002
}
1002
{
1000
PORI
1011
0.0000000000000799
1021
297.0
1031
0.0
1002
}
1002
{
1000
PINS
1011
0.0000000000000799
1021
297.0
1031
0.0
1002
}
1002
{
1000
HVAL
1000
297
1002
}
1002
{
1000
H
1070
     2
1002
}
1002
{
1000
WVAL
1000
210
1002
}
1002
{
1000
W
1070
     2
1002
}
1002
{
1000
C
1070
     1
1002
}
1001
GENIUS_GENODEF_13
1002
{
1000
HIER
1070
     0
1002
}
1002
{
1000
MANEDIT
1070
     0
1002
}
1002
{
1000
NOSEL
1070
     0
1002
}
1002
{
1000
BEHIND
1070
     0
1002
}
1002
{
1000
REACTOR
1002
}
1001
GENIUS_GENOBJ-N-REC_13
1002
{
1000
OWNER
1000
GEN
1002
}
  0
TEXT
  5
C36
330
C2B
100
AcDbEntity
  8
AM_0
 60
     1
100
AcDbText
 10
408.7322739737486
 20
285.680442839147
 30
0.0
 40
5.0
  1
!GENTITLE-RU
100
AcDbText
  0
TEXT
  5
C37
330
C2B
100
AcDbEntity
  8
AM_0
 60
     1
100
AcDbText
 10
16.00523592247285
 20
16.0074545709034
 30
0.0
 40
5.0
  1
!GENTITLE-LL
100
AcDbText
  0
TEXT
  5
C38
330
C2B
100
AcDbEntity
  8
AM_0
 60
     1
100
AcDbText
 10
408.7322739737486
 20
11.31955716085296
 30
0.0
 40
5.0
  1
!GENTITLE-INSERT
100
AcDbText
  0
ENDBLK
  5
C3B
330
C2B
100
AcDbEntity
  8
0
100
AcDbBlockEnd
  0
BLOCK
  5
C42
330
C41
100
AcDbEntity
  8
0
100
AcDbBlockBegin
  2
A$C2D292097
 70
     0
 10
0.0
 20
0.0
 30
0.0
  3
A$C2D292097
  1

  0
TEXT
  5
C43
330
C41
100
AcDbEntity
  8
0
100
AcDbText
 10
197.1044423511698
 20
31.0035981017752
 30
0.0
 40
10.0
  1
ASOH   CO.LTD
 41
5.0
  7
ｽﾀｲﾙ1
100
AcDbText
  0
TEXT
  5
C44
330
C41
100
AcDbEntity
  8
0
100
AcDbText
 10
127.3589261501835
 20
61.98001452360745
 30
0.0
 40
66.93693195207612
  1
アソー株式会社
  7
ｽﾀｲﾙ1
100
AcDbText
  0
HATCH
  5
C45
330
C41
100
AcDbEntity
  8
AM_8
100
AcDbHatch
 10
0.0
 20
0.0
 30
0.0
210
0.0
220
0.0
230
1.0
  2
SOLID
 70
     1
 71
     0
 91
        1
 92
        1
 93
       10
 72
     1
 10
26.27998696211468
 20
119.622038302041
 11
19.72254667781421
 21
94.20654351522143
 72
     1
 10
19.72254667781422
 20
94.20654351522143
 11
20.10217910550261
 21
94.65251979790156
 72
     3
 10
29.97494128357687
 20
79.68778553387966
 11
0.2402016329913213
 21
19.99855752736966
 40
0.7499999999999996
 50
-34.10238568201522
 51
52.41091053102508
 73
     0
 72
     1
 10
43.0844862433824
 20
89.53104876041368
 11
63.55518980891033
 21
40.6543652059048
 72
     3
 10
76.66473476871587
 20
50.49762843243886
 11
0.2402016329913141
 21
19.99855752736966
 40
0.7499999999999999
 50
127.589089468975
 51
243.9002512902304
 73
     1
 72
     1
 10
90.66060611817196
 20
43.43151697692579
 11
98.94218718925374
 21
72.13430932636422
 72
     1
 10
98.94218718925376
 20
72.13430932636422
 11
97.4258024259505
 21
70.16225780455534
 72
     3
 10
86.98981389832653
 20
84.43075959876276
 11
-0.2402016329912594
 21
-19.99855752736953
 40
0.7499999999999996
 50
-36.86989764584386
 51
52.41091053102518
 73
     0
 72
     1
 10
73.88026893852099
 20
74.58749637222874
 11
53.57102076277776
 21
123.0786824781806
 72
     3
 10
40.46147580297221
 20
113.2354192516466
 11
-0.2402016329912807
 21
-19.99855752736965
 40
0.7500000000000002
 50
127.5890894689749
 51
246.4437724078177
 73
     1
 97
        0
 75
     0
 76
     1
 98
        1
 10
-11.02788873631791
 20
-99.90118815091953
1001
GENIUS_GENODEF_13
1002
{
1000
HIER
1070
     0
1002
}
1002
{
1000
MANEDIT
1070
     0
1002
}
1002
{
1000
NOSEL
1070
     0
1002
}
1002
{
1000
BEHIND
1070
     0
1002
}
1002
{
1000
REACTOR
1002
}
1001
GENIUS_GENOBJ-N-HTC_13
1002
{
1000
OWNER
1000
GEN
1002
}
1001
GENIUS_GENHATCH_13
1002
{
1000
DATA
1040
0.0
1042
0.9999999999999998
1000
SOLID
1070
     0
1011
65.16661907668134
1021
74.10910423558471
1031
0.0
1002
}
1002
{
1000
UCS
1010
0.0
1020
0.0
1030
0.0
1010
1.0
1020
0.0
1030
0.0
1010
0.0
1020
1.0
1030
0.0
1002
}
  0
HATCH
  5
C46
330
C41
100
AcDbEntity
  8
AM_8
100
AcDbHatch
 10
0.0
 20
0.0
 30
0.0
210
0.0
220
0.0
230
1.0
  2
SOLID
 70
     1
 71
     0
 91
        1
 92
        1
 93
        2
 72
     2
 10
27.87973327687144
 20
49.81037059826576
 40
18.33631541869489
 50
10.7710123686058
 51
355.3294096482469
 73
     1
 72
     2
 10
27.87973327687144
 20
49.81037059826576
 40
18.33631541869488
 50
355.3294096482469
 51
370.7710123686058
 73
     1
 97
        0
 75
     0
 76
     1
 98
        1
 10
-11.02788873631791
 20
-99.90118815091953
1001
GENIUS_GENODEF_13
1002
{
1000
HIER
1070
     0
1002
}
1002
{
1000
MANEDIT
1070
     0
1002
}
1002
{
1000
NOSEL
1070
     0
1002
}
1002
{
1000
BEHIND
1070
     0
1002
}
1002
{
1000
REACTOR
1002
}
1001
GENIUS_GENOBJ-N-HTC_13
1002
{
1000
OWNER
1000
GEN
1002
}
1001
GENIUS_GENHATCH_13
1002
{
1000
DATA
1040
0.0
1042
0.9999999999999998
1000
SOLID
1070
     0
1011
30.27624113759819
1021
49.61458016509695
1031
0.0
1002
}
1002
{
1000
UCS
1010
0.0
1020
0.0
1030
0.0
1010
1.0
1020
0.0
1030
0.0
1010
0.0
1020
1.0
1030
0.0
1002
}
  0
CIRCLE
  5
C47
330
C41
100
AcDbEntity
  8
0
100
AcDbCircle
 10
27.87973327687145
 20
49.81037059826573
 30
0.0
 40
18.33631541869488
  0
LINE
  5
C48
330
C41
100
AcDbEntity
  8
0
100
AcDbLine
 10
98.94218718925376
 20
72.13430932636422
 30
0.0
 11
90.66060611817196
 21
43.43151697692576
 31
0.0
  0
LINE
  5
C49
330
C41
100
AcDbEntity
  8
0
100
AcDbLine
 10
43.0844862433824
 20
89.5310487604137
 30
0.0
 11
63.55518980891034
 21
40.6543652059048
 31
0.0
  0
ELLIPSE
  5
C4A
330
C41
100
AcDbEntity
  8
0
100
AcDbEllipse
 10
76.66473476871587
 20
50.49762843243886
 30
0.0
 11
0.2402016329913116
 21
19.99855752736953
 31
0.0
210
0.0
220
0.0
230
0.9999999999999998
 40
0.7499999999999999
 41
2.094395102393195
 42
4.360282821964076
1001
GENIUS_GENODEF_13
1002
{
1000
HIER
1070
     0
1002
}
1002
{
1000
MANEDIT
1070
     0
1002
}
1002
{
1000
NOSEL
1070
     0
1002
}
1002
{
1000
BEHIND
1070
     0
1002
}
1002
{
1000
REACTOR
1002
}
1001
GENIUS_GENOBJ-N-FIL_13
1002
{
1000
OWNER
1000
GEN
1002
}
  0
ELLIPSE
  5
C4B
330
C41
100
AcDbEntity
  8
0
100
AcDbEllipse
 10
86.98981389832653
 20
84.43075959876276
 30
0.0
 11
0.2402016329912594
 21
19.99855752736953
 31
0.0
210
0.0
220
0.0
230
1.0
 40
0.7499999999999996
 41
2.094395102393192
 42
3.926990816987234
1001
GENIUS_GENODEF_13
1002
{
1000
HIER
1070
     0
1002
}
1002
{
1000
MANEDIT
1070
     0
1002
}
1002
{
1000
NOSEL
1070
     0
1002
}
1002
{
1000
BEHIND
1070
     0
1002
}
1002
{
1000
REACTOR
1002
}
1001
GENIUS_GENOBJ-N-FIL_13
1002
{
1000
OWNER
1000
GEN
1002
}
  0
ELLIPSE
  5
C4C
330
C41
100
AcDbEntity
  8
0
100
AcDbEllipse
 10
29.97494128357687
 20
79.68778553387966
 30
0.0
 11
0.2402016329913188
 21
19.99855752736953
 31
0.0
210
0.0
220
0.0
230
0.9999999999999998
 40
0.7499999999999996
 41
-1.047197551196598
 42
0.7343684516294112
1001
GENIUS_GENODEF_13
1002
{
1000
HIER
1070
     0
1002
}
1002
{
1000
MANEDIT
1070
     0
1002
}
1002
{
1000
NOSEL
1070
     0
1002
}
1002
{
1000
BEHIND
1070
     0
1002
}
1002
{
1000
REACTOR
1002
}
1001
GENIUS_GENOBJ-N-FIL_13
1002
{
1000
OWNER
1000
GEN
1002
}
  0
ELLIPSE
  5
C4D
330
C41
100
AcDbEntity
  8
0
100
AcDbEllipse
 10
40.46147580297221
 20
113.2354192516466
 30
0.0
 11
0.2402016329912781
 21
19.99855752736952
 31
0.0
210
0.0
220
0.0
230
0.9999999999999998
 40
0.75
 41
-1.047197551196599
 42
1.254770269777095
1001
GENIUS_GENODEF_13
1002
{
1000
HIER
1070
     0
1002
}
1002
{
1000
MANEDIT
1070
     0
1002
}
1002
{
1000
NOSEL
1070
     0
1002
}
1002
{
1000
BEHIND
1070
     0
1002
}
1002
{
1000
REACTOR
1002
}
1001
GENIUS_GENOBJ-N-FIL_13
1002
{
1000
OWNER
1000
GEN
1002
}
  0
LINE
  5
C4E
330
C41
100
AcDbEntity
  8
0
100
AcDbLine
 10
73.88026893852099
 20
74.58749637222874
 30
0.0
 11
53.57102076277774
 21
123.0786824781806
 31
0.0
  0
LINE
  5
C4F
330
C41
100
AcDbEntity
  8
0
100
AcDbLine
 10
26.27998696211472
 20
119.6220383020412
 30
0.0
 11
19.72254667781422
 21
94.20654351522143
 31
0.0
  0
LINE
  5
C50
330
C41
100
AcDbEntity
  8
0
100
AcDbLine
 10
19.72254667781422
 20
94.20654351522143
 30
0.0
 11
20.1021791055026
 21
94.65251979790158
 31
0.0
  0
LINE
  5
C51
330
C41
100
AcDbEntity
  8
0
100
AcDbLine
 10
98.94218718925372
 20
72.13430932636422
 30
0.0
 11
97.42580242595048
 21
70.16225780455531
 31
0.0
  0
ENDBLK
  5
C52
330
C41
100
AcDbEntity
  8
0
100
AcDbBlockEnd
  0
BLOCK
  5
C89
330
C57
100
AcDbEntity
  8
0
100
AcDbBlockBegin
  2
ASO-A
 70
     2
 10
0.0
 20
0.0
 30
0.0
  3
ASO-A
  1

  0
LINE
  5
C58
330
C57
100
AcDbEntity
  8
AM_BOR
 62
   211
100
AcDbLine
 10
-110.0
 20
0.0
 30
0.0
 11
0.0
 21
0.0
 31
0.0
1001
GENIUS_GENREC_14
1002
{
1000
PYDIR
1011
-110.0
1021
40.0
1031
0.0
1002
}
1002
{
1000
PXDIR
1011
0.0
1021
0.0
1031
0.0
1002
}
1002
{
1000
PORI
1011
-110.0
1021
0.0
1031
0.0
1002
}
1002
{
1000
PINS
1011
-110.0
1021
0.0
1031
0.0
1002
}
1002
{
1000
HVAL
1000
40
1002
}
1002
{
1000
H
1070
     2
1002
}
1002
{
1000
WVAL
1000
110
1002
}
1002
{
1000
W
1070
     2
1002
}
1002
{
1000
C
1070
     1
1002
}
1001
GENIUS_GENODEF_13
1002
{
1000
HIER
1070
     0
1002
}
1002
{
1000
MANEDIT
1070
     0
1002
}
1002
{
1000
NOSEL
1070
     0
1002
}
1002
{
1000
BEHIND
1070
     0
1002
}
1002
{
1000
REACTOR
1002
}
1001
GENIUS_GENOBJ-N-REC_13
1002
{
1000
OWNER
1000
GEN
1002
}
  0
LINE
  5
C59
330
C57
100
AcDbEntity
  8
AM_BOR
 62
   211
100
AcDbLine
 10
0.0
 20
0.0
 30
0.0
 11
0.0
 21
40.0
 31
0.0
1001
GENIUS_GENREC_14
1002
{
1000
PYDIR
1011
-110.0
1021
40.0
1031
0.0
1002
}
1002
{
1000
PXDIR
1011
0.0
1021
0.0
1031
0.0
1002
}
1002
{
1000
PORI
1011
-110.0
1021
0.0
1031
0.0
1002
}
1002
{
1000
PINS
1011
-110.0
1021
0.0
1031
0.0
1002
}
1002
{
1000
HVAL
1000
40
1002
}
1002
{
1000
H
1070
     2
1002
}
1002
{
1000
WVAL
1000
110
1002
}
1002
{
1000
W
1070
     2
1002
}
1002
{
1000
C
1070
     1
1002
}
1001
GENIUS_GENODEF_13
1002
{
1000
HIER
1070
     0
1002
}
1002
{
1000
MANEDIT
1070
     0
1002
}
1002
{
1000
NOSEL
1070
     0
1002
}
1002
{
1000
BEHIND
1070
     0
1002
}
1002
{
1000
REACTOR
1002
}
1001
GENIUS_GENOBJ-N-REC_13
1002
{
1000
OWNER
1000
GEN
1002
}
  0
LINE
  5
C5A
330
C57
100
AcDbEntity
  8
AM_BOR
 62
   211
100
AcDbLine
 10
0.0
 20
40.0
 30
0.0
 11
-110.0
 21
40.00000000000001
 31
0.0
1001
GENIUS_GENREC_14
1002
{
1000
PYDIR
1011
-110.0
1021
40.0
1031
0.0
1002
}
1002
{
1000
PXDIR
1011
0.0
1021
0.0
1031
0.0
1002
}
1002
{
1000
PORI
1011
-110.0
1021
0.0
1031
0.0
1002
}
1002
{
1000
PINS
1011
-110.0
1021
0.0
1031
0.0
1002
}
1002
{
1000
HVAL
1000
40
1002
}
1002
{
1000
H
1070
     2
1002
}
1002
{
1000
WVAL
1000
110
1002
}
1002
{
1000
W
1070
     2
1002
}
1002
{
1000
C
1070
     1
1002
}
1001
GENIUS_GENODEF_13
1002
{
1000
HIER
1070
     0
1002
}
1002
{
1000
MANEDIT
1070
     0
1002
}
1002
{
1000
NOSEL
1070
     0
1002
}
1002
{
1000
BEHIND
1070
     0
1002
}
1002
{
1000
REACTOR
1002
}
1001
GENIUS_GENOBJ-N-REC_13
1002
{
1000
OWNER
1000
GEN
1002
}
  0
LINE
  5
C5B
330
C57
100
AcDbEntity
  8
AM_BOR
 62
   211
100
AcDbLine
 10
-110.0
 20
40.00000000000001
 30
0.0
 11
-110.0
 21
0.0
 31
0.0
1001
GENIUS_GENREC_14
1002
{
1000
PYDIR
1011
-110.0
1021
40.0
1031
0.0
1002
}
1002
{
1000
PXDIR
1011
0.0
1021
0.0
1031
0.0
1002
}
1002
{
1000
PORI
1011
-110.0
1021
0.0
1031
0.0
1002
}
1002
{
1000
PINS
1011
-110.0
1021
0.0
1031
0.0
1002
}
1002
{
1000
HVAL
1000
40
1002
}
1002
{
1000
H
1070
     2
1002
}
1002
{
1000
WVAL
1000
110
1002
}
1002
{
1000
W
1070
     2
1002
}
1002
{
1000
C
1070
     1
1002
}
1001
GENIUS_GENODEF_13
1002
{
1000
HIER
1070
     0
1002
}
1002
{
1000
MANEDIT
1070
     0
1002
}
1002
{
1000
NOSEL
1070
     0
1002
}
1002
{
1000
BEHIND
1070
     0
1002
}
1002
{
1000
REACTOR
1002
}
1001
GENIUS_GENOBJ-N-REC_13
1002
{
1000
OWNER
1000
GEN
1002
}
  0
LINE
  5
C5C
330
C57
100
AcDbEntity
  8
AM_BOR
 62
     5
100
AcDbLine
 10
-60.0
 20
9.999999999999992
 30
0.0
 11
0.0
 21
10.0
 31
0.0
1001
GENIUS_GENREC_14
1002
{
1000
PYDIR
1011
-110.0
1021
40.0
1031
0.0
1002
}
1002
{
1000
PXDIR
1011
0.0
1021
0.0
1031
0.0
1002
}
1002
{
1000
PORI
1011
-110.0
1021
0.0
1031
0.0
1002
}
1002
{
1000
PINS
1011
-110.0
1021
0.0
1031
0.0
1002
}
1002
{
1000
HVAL
1000
40
1002
}
1002
{
1000
H
1070
     2
1002
}
1002
{
1000
WVAL
1000
110
1002
}
1002
{
1000
W
1070
     2
1002
}
1002
{
1000
C
1070
     1
1002
}
  0
LINE
  5
C5D
330
C57
100
AcDbEntity
  8
AM_BOR
 62
     5
100
AcDbLine
 10
-110.0
 20
19.0
 30
0.0
 11
0.0
 21
19.0
 31
0.0
1001
GENIUS_GENREC_14
1002
{
1000
PYDIR
1011
-110.0
1021
40.0
1031
0.0
1002
}
1002
{
1000
PXDIR
1011
0.0
1021
0.0
1031
0.0
1002
}
1002
{
1000
PORI
1011
-110.0
1021
0.0
1031
0.0
1002
}
1002
{
1000
PINS
1011
-110.0
1021
0.0
1031
0.0
1002
}
1002
{
1000
HVAL
1000
40
1002
}
1002
{
1000
H
1070
     2
1002
}
1002
{
1000
WVAL
1000
110
1002
}
1002
{
1000
W
1070
     2
1002
}
1002
{
1000
C
1070
     1
1002
}
1001
GENIUS_GENODEF_13
1002
{
1000
HIER
1070
     0
1002
}
1002
{
1000
MANEDIT
1070
     0
1002
}
1002
{
1000
NOSEL
1070
     0
1002
}
1002
{
1000
BEHIND
1070
     0
1002
}
1002
{
1000
REACTOR
1002
}
1001
GENIUS_GENOBJ-N-REC_13
1002
{
1000
OWNER
1000
GEN
1002
}
  0
LINE
  5
C5E
330
C57
100
AcDbEntity
  8
AM_BOR
 62
     5
100
AcDbLine
 10
-110.0
 20
26.0
 30
0.0
 11
0.0
 21
26.0
 31
0.0
1001
GENIUS_GENREC_14
1002
{
1000
PYDIR
1011
-110.0
1021
40.0
1031
0.0
1002
}
1002
{
1000
PXDIR
1011
0.0
1021
0.0
1031
0.0
1002
}
1002
{
1000
PORI
1011
-110.0
1021
0.0
1031
0.0
1002
}
1002
{
1000
PINS
1011
-110.0
1021
0.0
1031
0.0
1002
}
1002
{
1000
HVAL
1000
40
1002
}
1002
{
1000
H
1070
     2
1002
}
1002
{
1000
WVAL
1000
110
1002
}
1002
{
1000
W
1070
     2
1002
}
1002
{
1000
C
1070
     1
1002
}
1001
GENIUS_GENODEF_13
1002
{
1000
HIER
1070
     0
1002
}
1002
{
1000
MANEDIT
1070
     0
1002
}
1002
{
1000
NOSEL
1070
     0
1002
}
1002
{
1000
BEHIND
1070
     0
1002
}
1002
{
1000
REACTOR
1002
}
1001
GENIUS_GENOBJ-N-REC_13
1002
{
1000
OWNER
1000
GEN
1002
}
  0
LINE
  5
C5F
330
C57
100
AcDbEntity
  8
AM_BOR
 62
     5
100
AcDbLine
 10
-110.0
 20
33.0
 30
0.0
 11
0.0
 21
33.0
 31
0.0
1001
GENIUS_GENREC_14
1002
{
1000
PYDIR
1011
-110.0
1021
40.0
1031
0.0
1002
}
1002
{
1000
PXDIR
1011
0.0
1021
0.0
1031
0.0
1002
}
1002
{
1000
PORI
1011
-110.0
1021
0.0
1031
0.0
1002
}
1002
{
1000
PINS
1011
-110.0
1021
0.0
1031
0.0
1002
}
1002
{
1000
HVAL
1000
40
1002
}
1002
{
1000
H
1070
     2
1002
}
1002
{
1000
WVAL
1000
110
1002
}
1002
{
1000
W
1070
     2
1002
}
1002
{
1000
C
1070
     1
1002
}
1001
GENIUS_GENODEF_13
1002
{
1000
HIER
1070
     0
1002
}
1002
{
1000
MANEDIT
1070
     0
1002
}
1002
{
1000
NOSEL
1070
     0
1002
}
1002
{
1000
BEHIND
1070
     0
1002
}
1002
{
1000
REACTOR
1002
}
1001
GENIUS_GENOBJ-N-REC_13
1002
{
1000
OWNER
1000
GEN
1002
}
  0
LINE
  5
C60
330
C57
100
AcDbEntity
  8
AM_BOR
 62
     5
100
AcDbLine
 10
-85.0
 20
33.0
 30
0.0
 11
-85.0
 21
18.99999999999998
 31
0.0
1001
GENIUS_GENREC_14
1002
{
1000
PYDIR
1011
-110.0
1021
40.0
1031
0.0
1002
}
1002
{
1000
PXDIR
1011
0.0
1021
0.0
1031
0.0
1002
}
1002
{
1000
PORI
1011
-110.0
1021
0.0
1031
0.0
1002
}
1002
{
1000
PINS
1011
-110.0
1021
0.0
1031
0.0
1002
}
1002
{
1000
HVAL
1000
40
1002
}
1002
{
1000
H
1070
     2
1002
}
1002
{
1000
WVAL
1000
110
1002
}
1002
{
1000
W
1070
     2
1002
}
1002
{
1000
C
1070
     1
1002
}
1001
GENIUS_GENODEF_13
1002
{
1000
HIER
1070
     0
1002
}
1002
{
1000
MANEDIT
1070
     0
1002
}
1002
{
1000
NOSEL
1070
     0
1002
}
1002
{
1000
BEHIND
1070
     0
1002
}
1002
{
1000
REACTOR
1002
}
1001
GENIUS_GENOBJ-N-REC_13
1002
{
1000
OWNER
1000
GEN
1002
}
  0
LINE
  5
C61
330
C57
100
AcDbEntity
  8
AM_BOR
 62
     5
100
AcDbLine
 10
-60.0
 20
40.00000000000001
 30
0.0
 11
-60.0
 21
0.0
 31
0.0
1001
GENIUS_GENREC_14
1002
{
1000
PYDIR
1011
-110.0
1021
40.0
1031
0.0
1002
}
1002
{
1000
PXDIR
1011
0.0
1021
0.0
1031
0.0
1002
}
1002
{
1000
PORI
1011
-110.0
1021
0.0
1031
0.0
1002
}
1002
{
1000
PINS
1011
-110.0
1021
0.0
1031
0.0
1002
}
1002
{
1000
HVAL
1000
40
1002
}
1002
{
1000
H
1070
     2
1002
}
1002
{
1000
WVAL
1000
110
1002
}
1002
{
1000
W
1070
     2
1002
}
1002
{
1000
C
1070
     1
1002
}
1001
GENIUS_GENODEF_13
1002
{
1000
HIER
1070
     0
1002
}
1002
{
1000
MANEDIT
1070
     0
1002
}
1002
{
1000
NOSEL
1070
     0
1002
}
1002
{
1000
BEHIND
1070
     0
1002
}
1002
{
1000
REACTOR
1002
}
1001
GENIUS_GENOBJ-N-REC_13
1002
{
1000
OWNER
1000
GEN
1002
}
  0
LINE
  5
C62
330
C57
100
AcDbEntity
  8
AM_BOR
 62
     5
100
AcDbLine
 10
-20.0
 20
33.0
 30
0.0
 11
-20.0
 21
40.0
 31
0.0
1001
GENIUS_GENREC_14
1002
{
1000
PYDIR
1011
-110.0
1021
40.0
1031
0.0
1002
}
1002
{
1000
PXDIR
1011
0.0
1021
0.0
1031
0.0
1002
}
1002
{
1000
PORI
1011
-110.0
1021
0.0
1031
0.0
1002
}
1002
{
1000
PINS
1011
-110.0
1021
0.0
1031
0.0
1002
}
1002
{
1000
HVAL
1000
40
1002
}
1002
{
1000
H
1070
     2
1002
}
1002
{
1000
WVAL
1000
110
1002
}
1002
{
1000
W
1070
     2
1002
}
1002
{
1000
C
1070
     1
1002
}
1001
GENIUS_GENODEF_13
1002
{
1000
HIER
1070
     0
1002
}
1002
{
1000
MANEDIT
1070
     0
1002
}
1002
{
1000
NOSEL
1070
     0
1002
}
1002
{
1000
BEHIND
1070
     0
1002
}
1002
{
1000
REACTOR
1002
}
1001
GENIUS_GENOBJ-N-REC_13
1002
{
1000
OWNER
1000
GEN
1002
}
  0
LINE
  5
C63
330
C57
100
AcDbEntity
  8
AM_BOR
 62
     5
100
AcDbLine
 10
-40.0
 20
33.0
 30
0.0
 11
-40.0
 21
40.0
 31
0.0
1001
GENIUS_GENREC_14
1002
{
1000
PYDIR
1011
-110.0
1021
40.0
1031
0.0
1002
}
1002
{
1000
PXDIR
1011
0.0
1021
0.0
1031
0.0
1002
}
1002
{
1000
PORI
1011
-110.0
1021
0.0
1031
0.0
1002
}
1002
{
1000
PINS
1011
-110.0
1021
0.0
1031
0.0
1002
}
1002
{
1000
HVAL
1000
40
1002
}
1002
{
1000
H
1070
     2
1002
}
1002
{
1000
WVAL
1000
110
1002
}
1002
{
1000
W
1070
     2
1002
}
1002
{
1000
C
1070
     1
1002
}
1001
GENIUS_GENODEF_13
1002
{
1000
HIER
1070
     0
1002
}
1002
{
1000
MANEDIT
1070
     0
1002
}
1002
{
1000
NOSEL
1070
     0
1002
}
1002
{
1000
BEHIND
1070
     0
1002
}
1002
{
1000
REACTOR
1002
}
1001
GENIUS_GENOBJ-N-REC_13
1002
{
1000
OWNER
1000
GEN
1002
}
  0
LINE
  5
C64
330
C57
100
AcDbEntity
  8
AM_BOR
 62
     5
100
AcDbLine
 10
-80.0
 20
33.0
 30
0.0
 11
-80.0
 21
40.0
 31
0.0
1001
GENIUS_GENREC_14
1002
{
1000
PYDIR
1011
-110.0
1021
40.0
1031
0.0
1002
}
1002
{
1000
PXDIR
1011
0.0
1021
0.0
1031
0.0
1002
}
1002
{
1000
PORI
1011
-110.0
1021
0.0
1031
0.0
1002
}
1002
{
1000
PINS
1011
-110.0
1021
0.0
1031
0.0
1002
}
1002
{
1000
HVAL
1000
40
1002
}
1002
{
1000
H
1070
     2
1002
}
1002
{
1000
WVAL
1000
110
1002
}
1002
{
1000
W
1070
     2
1002
}
1002
{
1000
C
1070
     1
1002
}
1001
GENIUS_GENODEF_13
1002
{
1000
HIER
1070
     0
1002
}
1002
{
1000
MANEDIT
1070
     0
1002
}
1002
{
1000
NOSEL
1070
     0
1002
}
1002
{
1000
BEHIND
1070
     0
1002
}
1002
{
1000
REACTOR
1002
}
1001
GENIUS_GENOBJ-N-REC_13
1002
{
1000
OWNER
1000
GEN
1002
}
  0
TEXT
  5
C65
330
C57
100
AcDbEntity
  8
AM_BOR
 62
     2
100
AcDbText
 10
-57.4
 20
35.0
 30
0.0
 40
3.0
  1
単位 ｍｍ
 72
     4
 11
-50.0
 21
36.5
 31
0.0
100
AcDbText
  0
TEXT
  5
C66
330
C57
100
AcDbEntity
  8
AM_BOR
 62
     2
100
AcDbText
 10
-39.0
 20
35.0
 30
0.0
 40
3.0
  1
尺度
 41
0.9
 11
-39.0
 21
36.5
 31
0.0
100
AcDbText
 73
     2
  0
TEXT
  5
C67
330
C57
100
AcDbEntity
  8
AM_BOR
 62
     2
100
AcDbText
 10
-19.0
 20
35.0
 30
0.0
 40
3.0
  1
日付
 41
0.9
 11
-19.0
 21
36.5
 31
0.0
100
AcDbText
 73
     2
  0
TEXT
  5
C68
330
C57
100
AcDbEntity
  8
AM_BOR
 62
     2
100
AcDbText
 10
-76.79999999999999
 20
34.99999999999999
 30
0.0
 40
3.0
  1
第３角法
 72
     4
 11
-70.0
 21
36.49999999999999
 31
0.0
100
AcDbText
  0
TEXT
  5
C69
330
C57
100
AcDbEntity
  8
AM_BOR
 62
     2
100
AcDbText
 10
-59.0
 20
29.5
 30
0.0
 40
3.0
  1
材 質
 11
-59.0
 21
31.0
 31
0.0
100
AcDbText
 73
     2
  0
TEXT
  5
C6A
330
C57
100
AcDbEntity
  8
AM_BOR
 62
     2
100
AcDbText
 10
-59.0
 20
22.5
 30
0.0
 40
3.0
  1
備 考
 11
-59.0
 21
24.0
 31
0.0
100
AcDbText
 73
     2
  0
TEXT
  5
C6B
330
C57
100
AcDbEntity
  8
AM_BOR
 62
     2
100
AcDbText
 10
-59.0
 20
15.5
 30
0.0
 40
3.0
  1
品 名
 11
-59.0
 21
17.0
 31
0.0
100
AcDbText
 73
     2
  0
TEXT
  5
C6C
330
C57
100
AcDbEntity
  8
AM_BOR
 62
     2
100
AcDbText
 10
-59.0
 20
6.499999999999992
 30
0.0
 40
3.0
  1
図 番
 11
-59.0
 21
7.999999999999992
 31
0.0
100
AcDbText
 73
     2
  0
TEXT
  5
C6D
330
C57
100
AcDbEntity
  8
AM_BOR
 62
     2
100
AcDbText
 10
-109.0
 20
29.5
 30
0.0
 40
3.0
  1
承認
 11
-109.0
 21
31.0
 31
0.0
100
AcDbText
 73
     2
  0
TEXT
  5
C6E
330
C57
100
AcDbEntity
  8
AM_BOR
 62
     2
100
AcDbText
 10
-109.0
 20
22.5
 30
0.0
 40
3.0
  1
設計
 11
-109.0
 21
24.0
 31
0.0
100
AcDbText
 73
     2
  0
TEXT
  5
C6F
330
C57
100
AcDbEntity
  8
AM_BOR
 62
     2
100
AcDbText
 10
-84.0
 20
22.5
 30
0.0
 40
3.0
  1
製図
 11
-84.0
 21
24.0
 31
0.0
100
AcDbText
 73
     2
  0
TEXT
  5
C70
330
C57
100
AcDbEntity
  8
AM_BOR
 62
     2
100
AcDbText
 10
-84.0
 20
29.5
 30
0.0
 40
3.0
  1
検図
 11
-84.0
 21
31.0
 31
0.0
100
AcDbText
 73
     2
  0
ATTDEF
  5
C71
330
C57
100
AcDbEntity
  8
AM_BOR
100
AcDbText
 10
-50.25926794017573
 20
12.75
 30
0.0
 40
3.5
  1

 11
-50.25926794017573
 21
14.5
 31
0.0
100
AcDbAttributeDefinition
  3
品名
  2
HINMEI{14}
 70
     0
 74
     2
  0
ATTDEF
  5
C72
330
C57
100
AcDbEntity
  8
AM_BOR
100
AcDbText
 10
-50.10873010396898
 20
3.249999999999992
 30
0.0
 40
3.5
  1

 11
-50.10873010396898
 21
4.999999999999992
 31
0.0
100
AcDbAttributeDefinition
  3
図番
  2
ZUBAN{14}
 70
     0
 74
     2
  0
ATTDEF
  5
C73
330
C57
100
AcDbEntity
  8
AM_BOR
 62
     2
100
AcDbText
 10
-11.91705654530994
 20
35.0
 30
0.0
 40
3.0
  1

 41
0.8
 11
-11.91705654530994
 21
36.5
 31
0.0
100
AcDbAttributeDefinition
  3
日付
  2
GEN-TITLE-DAT{3.5}
 70
     0
 74
     2
  0
ATTDEF
  5
C74
330
C57
100
AcDbEntity
  8
AM_BOR
 62
     2
100
AcDbText
 10
-71.63012018472975
 20
20.00000000000001
 30
0.0
 40
3.0
  1
水 田
 72
     4
 11
-67.63012018472974
 21
21.50000000000002
 31
0.0
100
AcDbAttributeDefinition
  3
製図
  2
SEIZU
 70
     0
  0
ATTDEF
  5
C75
330
C57
100
AcDbEntity
  8
AM_BOR
 62
     2
100
AcDbText
 10
-31.91705654530995
 20
35.0
 30
0.0
 40
3.0
  1

 11
-31.91705654530995
 21
36.5
 31
0.0
100
AcDbAttributeDefinition
  3
尺度
  2
GEN-TITLE-SCA
 70
     0
 74
     2
  0
LINE
  5
C76
330
C57
100
AcDbEntity
  8
0
100
AcDbLine
 10
-106.9502221859465
 20
14.71456568209314
 30
0.0
 11
-107.7139711131768
 21
11.16237652835879
 31
0.0
  0
LINE
  5
C77
330
C57
100
AcDbEntity
  8
0
100
AcDbLine
 10
-107.7139711131768
 20
11.16237652835879
 30
0.0
 11
-107.6697551010107
 21
11.22470827233807
 31
0.0
  0
ELLIPSE
  5
C78
330
C57
100
AcDbEntity
  8
0
100
AcDbEllipse
 10
-106.5198686826232
 20
9.133166589319488
 30
0.0
 11
0.0200858413762701
 21
2.795177724472429
 31
0.0
210
0.0
220
0.0
230
1.0
 40
0.6250197778053533
 41
-1.051714224928873
 42
0.7298517778971401
1001
GENIUS_GENODEF_13
1002
{
1000
HIER
1070
     0
1002
}
1002
{
1000
MANEDIT
1070
     0
1002
}
1002
{
1000
NOSEL
1070
     0
1002
}
1002
{
1000
BEHIND
1070
     0
1002
}
1002
{
1000
REACTOR
1002
}
1001
GENIUS_GENOBJ-N-FIL_13
1002
{
1000
OWNER
1000
GEN
1002
}
  0
ELLIPSE
  5
C79
330
C57
100
AcDbEntity
  8
0
100
AcDbEllipse
 10
-105.2984958385996
 20
13.8219417489321
 30
0.0
 11
0.0200858413762916
 21
2.795177724472415
 31
0.0
210
0.0
220
0.0
230
1.0
 40
0.6250197778053527
 41
-1.051714224928867
 42
1.250253596044828
1001
GENIUS_GENODEF_13
1002
{
1000
HIER
1070
     0
1002
}
1002
{
1000
MANEDIT
1070
     0
1002
}
1002
{
1000
NOSEL
1070
     0
1002
}
1002
{
1000
BEHIND
1070
     0
1002
}
1002
{
1000
REACTOR
1002
}
1001
GENIUS_GENOBJ-N-FIL_13
1002
{
1000
OWNER
1000
GEN
1002
}
  0
LINE
  5
C7A
330
C57
100
AcDbEntity
  8
0
100
AcDbLine
 10
-98.48721298302093
 20
8.077457208786752
 30
0.0
 11
-99.45177360188811
 21
4.065819878065248
 31
0.0
  0
ELLIPSE
  5
C7B
330
C57
100
AcDbEntity
  8
0
100
AcDbEllipse
 10
-101.0818809708247
 20
5.053412867376919
 30
0.0
 11
0.0200858413762853
 21
2.795177724472413
 31
0.0
210
0.0
220
0.0
230
1.0
 40
0.6250197778053547
 41
2.089878428660925
 42
4.355766148231805
1001
GENIUS_GENODEF_13
1002
{
1000
HIER
1070
     0
1002
}
1002
{
1000
MANEDIT
1070
     0
1002
}
1002
{
1000
NOSEL
1070
     0
1002
}
1002
{
1000
BEHIND
1070
     0
1002
}
1002
{
1000
REACTOR
1002
}
1001
GENIUS_GENOBJ-N-FIL_13
1002
{
1000
OWNER
1000
GEN
1002
}
  0
LINE
  5
C7C
330
C57
100
AcDbEntity
  8
0
100
AcDbLine
 10
-98.48721298302093
 20
8.077457208786752
 30
0.0
 11
-98.66382720839389
 21
7.801834007856294
 31
0.0
  0
ELLIPSE
  5
C7D
330
C57
100
AcDbEntity
  8
0
100
AcDbEllipse
 10
-99.87931293102301
 20
9.796066964505511
 30
0.0
 11
0.0200858413762724
 21
2.795177724472415
 31
0.0
210
0.0
220
0.0
230
0.9999999999999998
 40
0.6250197778053552
 41
2.08987842866092
 42
3.922474143254961
1001
GENIUS_GENODEF_13
1002
{
1000
HIER
1070
     0
1002
}
1002
{
1000
MANEDIT
1070
     0
1002
}
1002
{
1000
NOSEL
1070
     0
1002
}
1002
{
1000
BEHIND
1070
     0
1002
}
1002
{
1000
REACTOR
1002
}
1001
GENIUS_GENOBJ-N-FIL_13
1002
{
1000
OWNER
1000
GEN
1002
}
  0
HATCH
  5
C7E
330
C57
100
AcDbEntity
  8
AM_8
100
AcDbHatch
 10
0.0
 20
0.0
 30
0.0
210
0.0
220
0.0
230
1.0
  2
SOLID
 70
     1
 71
     0
 91
        1
 92
        1
 93
        2
 72
     3
 10
-106.7638987916396
 20
4.957358478318376
 11
0.0000000000000547
 21
2.56276973145977
 40
0.8333333333333941
 50
-77.14069946214277
 51
264.4007371808275
 73
     1
 72
     3
 10
-106.7638987916396
 20
4.957358478318376
 11
-0.0000000000003928
 21
2.562769731461267
 40
0.8333333333328997
 50
264.4007371808174
 51
282.8593005378472
 73
     1
 97
        0
 75
     0
 76
     1
 98
        1
 10
65.20293740923941
 20
-32.16820874956388
1001
GENIUS_GENODEF_13
1002
{
1000
HIER
1070
     0
1002
}
1002
{
1000
MANEDIT
1070
     0
1002
}
1002
{
1000
NOSEL
1070
     0
1002
}
1002
{
1000
BEHIND
1070
     0
1002
}
1002
{
1000
REACTOR
1002
}
1001
GENIUS_GENOBJ-N-HTC_13
1002
{
1000
OWNER
1000
GEN
1002
}
1001
GENIUS_GENHATCH_13
1002
{
1000
DATA
1040
0.0
1042
0.0015799698758396
1000
SOLID
1070
     0
1011
70.0136537122014
1021
-14.7540192633455
1031
0.0
1002
}
1002
{
1000
UCS
1010
0.0
1020
0.0
1030
0.0
1010
1.0
1020
0.0
1030
0.0
1010
0.0
1020
1.0
1030
0.0
1002
}
  0
ELLIPSE
  5
C7F
330
C57
100
AcDbEntity
  8
0
100
AcDbEllipse
 10
-106.7638987916396
 20
4.957358478318417
 30
0.0
 11
0.0000000000000006
 21
2.562769731459943
 31
0.0
210
0.0
220
0.0
230
1.0
 40
0.8333333333333353
 41
-1.570796326794896
 42
4.712388980384689
  0
HATCH
  5
C80
330
C57
100
AcDbEntity
  8
AM_8
100
AcDbHatch
 10
0.0
 20
0.0
 30
0.0
210
0.0
220
0.0
230
1.0
  2
SOLID
 70
     1
 71
     0
 91
        1
 92
        1
 93
       10
 72
     1
 10
-106.9502221859465
 20
14.71456568209311
 11
-107.7139711131768
 21
11.16237652835879
 72
     1
 10
-107.7139711131768
 20
11.16237652835879
 11
-107.6697551010108
 21
11.22470827233809
 72
     3
 10
-106.5198686826232
 20
9.133166589319488
 11
0.0200858413762859
 21
2.795177724472421
 40
0.6250197778053525
 50
-29.21280058452436
 51
47.56891328106517
 73
     0
 72
     1
 10
-104.9929922696577
 20
10.5089073790986
 11
-102.6087573837903
 21
3.677672077597827
 72
     3
 10
-101.0818809708247
 20
5.053412867376919
 11
0.0200858413762844
 21
2.79517772447242
 40
0.625019777805353
 50
132.4310867189347
 51
239.202331800838
 73
     1
 72
     1
 10
-99.45177360188809
 20
4.065819878065248
 11
-98.48721298302093
 21
8.077457208786761
 72
     1
 10
-98.48721298302095
 20
8.077457208786752
 11
-98.66382720839393
 21
7.801834007856288
 72
     3
 10
-99.87931293102301
 20
9.796066964505511
 11
0.0200858413762811
 21
2.795177724472416
 40
0.6250197778053536
 50
148.2259629226598
 51
227.5689132810653
 73
     0
 72
     1
 10
-101.4061893439886
 20
8.420326174726406
 11
-103.771619425634
 21
15.19768253871121
 72
     3
 10
-105.2984958385996
 20
13.8219417489321
 11
0.02008584137625
 21
2.795177724472417
 40
0.6250197778053583
 50
-47.56891328106589
 51
62.02409398278944
 73
     1
 97
        0
 75
     0
 76
     1
 98
        1
 10
65.20293740923941
 20
-32.16820874956388
1001
GENIUS_GENODEF_13
1002
{
1000
HIER
1070
     0
1002
}
1002
{
1000
MANEDIT
1070
     0
1002
}
1002
{
1000
NOSEL
1070
     0
1002
}
1002
{
1000
BEHIND
1070
     0
1002
}
1002
{
1000
REACTOR
1002
}
1001
GENIUS_GENOBJ-N-HTC_13
1002
{
1000
OWNER
1000
GEN
1002
}
1001
GENIUS_GENHATCH_13
1002
{
1000
DATA
1040
0.0
1042
0.0015799698758396
1000
SOLID
1070
     0
1011
74.07735655451816
1021
-11.90112763631223
1031
0.0
1002
}
1002
{
1000
UCS
1010
0.0
1020
0.0
1030
0.0
1010
1.0
1020
0.0
1030
0.0
1010
0.0
1020
1.0
1030
0.0
1002
}
  0
LINE
  5
C81
330
C57
100
AcDbEntity
  8
0
100
AcDbLine
 10
-104.9929922696577
 20
10.5089073790986
 30
0.0
 11
-102.6087573837903
 21
3.677672077597847
 31
0.0
  0
LINE
  5
C82
330
C57
100
AcDbEntity
  8
0
100
AcDbLine
 10
-101.4061893439886
 20
8.420326174726406
 30
0.0
 11
-103.771619425634
 21
15.1976825387112
 31
0.0
  0
TEXT
  5
C83
330
C57
100
AcDbEntity
  8
0
100
AcDbText
 10
-92.04358977334541
 20
2.736280326823534
 30
0.0
 40
1.397647058823528
  1
ASOH   CO.LTD
 41
2.222222222222219
  7
ｽﾀｲﾙ1
100
AcDbText
  0
TEXT
  5
C84
330
C57
100
AcDbEntity
  8
0
100
AcDbText
 10
-96.37601713265375
 20
7.065690057310197
 30
0.0
 40
9.355420606948992
  1
アソー株式会社
 41
0.4444444444444381
  7
ｽﾀｲﾙ1
100
AcDbText
  0
ATTDEF
  5
C85
330
C57
100
AcDbEntity
  8
AM_BOR
 62
     2
100
AcDbText
 10
-98.50320560717072
 20
20.29902073441097
 30
0.0
 40
3.0
  1
水 田
 72
     4
 11
-94.50320560717072
 21
21.79902073441097
 31
0.0
100
AcDbAttributeDefinition
  3
設計
  2
SEKKEI
 70
     0
  0
ATTDEF
  5
C86
330
C57
100
AcDbEntity
  8
AM_BOR
 62
     2
100
AcDbText
 10
-97.04186970375872
 20
27.05583171251668
 30
0.0
 40
3.0
  1
樫井
 72
     4
 11
-93.8418697037587
 21
28.55583171251668
 31
0.0
100
AcDbAttributeDefinition
  3
承認
  2
SYOUNIN
 70
     0
  0
ATTDEF
  5
C87
330
C57
100
AcDbEntity
  8
AM_BOR
 62
     2
100
AcDbText
 10
-72.04186970375871
 20
27.05583171251668
 30
0.0
 40
3.0
  1
樫井
 72
     4
 11
-68.8418697037587
 21
28.55583171251668
 31
0.0
100
AcDbAttributeDefinition
  3
検図
  2
KENZU
 70
     0
  0
ENDBLK
  5
C8A
330
C57
100
AcDbEntity
  8
0
100
AcDbBlockEnd
  0
BLOCK
  5
FC2
330
FBD
100
AcDbEntity
  8
0
100
AcDbBlockBegin
  2
A$C0B6E218C
 70
     0
 10
0.0
 20
0.0
 30
0.0
  3
A$C0B6E218C
  1

  0
LINE
  5
FBE
330
FBD
100
AcDbEntity
  8
AM_0
100
AcDbLine
 10
-1.399999999999963
 20
-4.0
 30
0.0
 11
0.0000000000000142
 21
-4.0
 31
0.0
  0
LINE
  5
FBF
330
FBD
100
AcDbEntity
  8
AM_0
100
AcDbLine
 10
1.399999999999998
 20
-4.0
 30
0.0
 11
0.0000000000000213
 21
-4.0
 31
0.0
  0
ENDBLK
  5
FC3
330
FBD
100
AcDbEntity
  8
0
100
AcDbBlockEnd
  0
BLOCK
  5
2466
330
2462
100
AcDbEntity
  8
0
100
AcDbBlockBegin
  2
A$C60FD0CB8
 70
     0
 10
0.0
 20
0.0
 30
0.0
  3
A$C60FD0CB8
  1

  0
LINE
  5
2463
330
2462
100
AcDbEntity
  8
AM_0
100
AcDbLine
 10
-15.0
 20
-12.0
 30
0.0
 11
-15.0
 21
-8.507562499999835
 31
0.0
  0
ENDBLK
  5
2467
330
2462
100
AcDbEntity
  8
0
100
AcDbBlockEnd
  0
ENDSEC
  0
SECTION
  2
ENTITIES
  0
LINE
  5
3AB
330
1F
100
AcDbEntity
  8
AM_0
100
AcDbLine
 10
422.8805550346839
 20
280.3194080686401
 30
0.0
 11
420.630555034684
 21
280.3194080686401
 31
0.0
  0
LINE
  5
3AC
330
1F
100
AcDbEntity
  8
AM_0
100
AcDbLine
 10
420.3805550346841
 20
280.0694080686401
 30
0.0
 11
420.380555034684
 21
278.914525353081
 31
0.0
  0
LINE
  5
3C0
330
1F
100
AcDbEntity
  8
AM_4
100
AcDbLine
 10
408.9583943781747
 20
259.2357923681273
 30
0.0
 11
419.18187722876
 21
258.9229685901229
 31
0.0
  0
LINE
  5
3C1
330
1F
100
AcDbEntity
  8
AM_4
100
AcDbLine
 10
408.9583943781749
 20
277.4030237691528
 30
0.0
 11
419.1818772287601
 21
277.7158475471572
 31
0.0
  0
LINE
  5
3C2
330
1F
100
AcDbEntity
  8
AM_0
100
AcDbLine
 10
411.044341818633
 20
278.6073460854168
 30
0.0
 11
411.0836734852971
 21
278.6300542337528
 31
0.0
  0
LINE
  5
3C3
330
1F
100
AcDbEntity
  8
AM_0
100
AcDbLine
 10
408.380555034684
 20
259.5694080686401
 30
0.0
 11
411.0836734852967
 21
258.0087619035273
 31
0.0
  0
LINE
  5
3C4
330
1F
100
AcDbEntity
  8
AM_0
100
AcDbLine
 10
408.380555034684
 20
277.0694080686401
 30
0.0
 11
411.044341818633
 21
278.6073460854168
 31
0.0
  0
LINE
  5
3C5
330
1F
100
AcDbEntity
  8
AM_0
100
AcDbLine
 10
408.3805550346839
 20
277.0694080686401
 30
0.0
 11
408.380555034684
 21
259.5694080686401
 31
0.0
  0
LINE
  5
3C7
330
1F
100
AcDbEntity
  8
AM_0
100
AcDbLine
 10
411.0836734852967
 20
258.0087619035273
 30
0.0
 11
420.3805550346839
 21
257.7242907841992
 31
0.0
  0
LINE
  5
3C8
330
1F
100
AcDbEntity
  8
AM_0
100
AcDbLine
 10
411.0836734852967
 20
278.6300542337528
 30
0.0
 11
420.3805550346839
 21
278.9145253530809
 31
0.0
  0
LINE
  5
3C9
330
1F
100
AcDbEntity
  8
AM_4
100
AcDbLine
 10
420.3805550346839
 20
278.9145253530809
 30
0.0
 11
419.1818772287601
 21
277.7158475471572
 31
0.0
  0
LINE
  5
3CA
330
1F
100
AcDbEntity
  8
AM_4
100
AcDbLine
 10
420.3805550346839
 20
257.7242907841992
 30
0.0
 11
419.1818772287601
 21
258.9229685901229
 31
0.0
  0
LINE
  5
3CB
330
1F
100
AcDbEntity
  8
AM_0
100
AcDbLine
 10
420.380555034684
 20
257.7242907841991
 30
0.0
 11
420.380555034684
 21
256.5694080686401
 31
0.0
  0
LINE
  5
3D0
330
1F
100
AcDbEntity
  8
AM_0
100
AcDbLine
 10
411.0836734852971
 20
278.6300542337528
 30
0.0
 11
411.0836734852971
 21
277.4680542337528
 31
0.0
  0
LINE
  5
3D1
330
1F
100
AcDbEntity
  8
AM_0
100
AcDbLine
 10
419.1818772287601
 20
277.7158475471572
 30
0.0
 11
419.1818772287601
 21
278.8778475471571
 31
0.0
  0
LINE
  5
3D2
330
1F
100
AcDbEntity
  8
AM_0
100
AcDbLine
 10
419.18187722876
 20
258.9229685901229
 30
0.0
 11
419.18187722876
 21
257.7609685901229
 31
0.0
  0
LINE
  5
3D3
330
1F
100
AcDbEntity
  8
AM_0
100
AcDbLine
 10
411.0836734852967
 20
258.0087619035273
 30
0.0
 11
411.0836734852967
 21
259.1707619035274
 31
0.0
  0
LINE
  5
42F
330
1F
100
AcDbEntity
  8
AM_7
100
AcDbLine
 10
406.483555034684
 20
338.5540924554519
 30
0.0
 11
492.7290114544779
 21
338.5540924554519
 31
0.0
1001
GENIUS_GENOBJ-N-CEN_13
1002
{
1000
OWNER
1000
GEN
1002
}
1001
GENIUS_GENODEF_13
1002
{
1000
HIER
1070
     0
1002
}
1002
{
1000
MANEDIT
1070
     0
1002
}
1002
{
1000
NOSEL
1070
     0
1002
}
1002
{
1000
BEHIND
1070
     0
1002
}
1002
{
1000
OTHER
1070
     0
1002
}
1002
{
1000
REACTOR
1002
}
  0
LINE
  5
4A1
330
1F
100
AcDbEntity
  8
AM_0
100
AcDbLine
 10
411.0836734852967
 20
328.2434462903391
 30
0.0
 11
411.0836734852967
 21
338.5540924554519
 31
0.0
  0
LINE
  5
4A2
330
1F
100
AcDbEntity
  8
AM_0
100
AcDbLine
 10
419.1818772287601
 20
338.5540924554519
 30
0.0
 11
419.18187722876
 21
327.9956529769348
 31
0.0
  0
LINE
  5
4A3
330
1F
100
AcDbEntity
  8
AM_0
100
AcDbLine
 10
419.1818772287602
 20
338.5540924554519
 30
0.0
 11
419.1818772287601
 21
349.1125319339689
 31
0.0
  0
LINE
  5
4A4
330
1F
100
AcDbEntity
  8
AM_0
100
AcDbLine
 10
411.0836734852971
 20
348.8647386205646
 30
0.0
 11
411.0836734852971
 21
338.5540924554519
 31
0.0
  0
LINE
  5
4A5
330
1F
100
AcDbEntity
  8
AM_0
100
AcDbLine
 10
420.380555034684
 20
338.5540924554519
 30
0.0
 11
420.3805550346841
 21
326.8040924554519
 31
0.0
  0
LINE
  5
4A6
330
1F
100
AcDbEntity
  8
AM_4
100
AcDbLine
 10
420.3805550346839
 20
327.958975171011
 30
0.0
 11
419.1818772287601
 21
329.1576529769348
 31
0.0
  0
LINE
  5
4A7
330
1F
100
AcDbEntity
  8
AM_4
100
AcDbLine
 10
420.3805550346839
 20
349.1492097398928
 30
0.0
 11
419.1818772287601
 21
347.950531933969
 31
0.0
  0
LINE
  5
4A8
330
1F
100
AcDbEntity
  8
AM_0
100
AcDbLine
 10
411.0836734852967
 20
348.8647386205646
 30
0.0
 11
420.3805550346839
 21
349.1492097398928
 31
0.0
  0
LINE
  5
4A9
330
1F
100
AcDbEntity
  8
AM_0
100
AcDbLine
 10
411.0836734852967
 20
328.2434462903391
 30
0.0
 11
420.3805550346839
 21
327.958975171011
 31
0.0
  0
LINE
  5
4AB
330
1F
100
AcDbEntity
  8
AM_0
100
AcDbLine
 10
408.3805550346839
 20
347.3040924554519
 30
0.0
 11
408.380555034684
 21
329.8040924554519
 31
0.0
  0
LINE
  5
4AC
330
1F
100
AcDbEntity
  8
AM_0
100
AcDbLine
 10
408.380555034684
 20
347.3040924554519
 30
0.0
 11
411.044341818633
 21
348.8420304722286
 31
0.0
  0
LINE
  5
4AD
330
1F
100
AcDbEntity
  8
AM_0
100
AcDbLine
 10
408.380555034684
 20
329.8040924554519
 30
0.0
 11
411.0836734852967
 21
328.2434462903391
 31
0.0
  0
LINE
  5
4AE
330
1F
100
AcDbEntity
  8
AM_0
100
AcDbLine
 10
411.044341818633
 20
348.8420304722286
 30
0.0
 11
411.0836734852971
 21
348.8647386205646
 31
0.0
  0
LINE
  5
4AF
330
1F
100
AcDbEntity
  8
AM_4
100
AcDbLine
 10
408.9583943781749
 20
347.6377081559646
 30
0.0
 11
419.1818772287601
 21
347.950531933969
 31
0.0
  0
LINE
  5
4B0
330
1F
100
AcDbEntity
  8
AM_4
100
AcDbLine
 10
408.9583943781747
 20
329.4704767549392
 30
0.0
 11
419.18187722876
 21
329.1576529769348
 31
0.0
  0
LINE
  5
4B2
330
1F
100
AcDbEntity
  8
AM_0
100
AcDbLine
 10
420.3805550346841
 20
350.3040924554519
 30
0.0
 11
420.380555034684
 21
338.5540924554519
 31
0.0
  0
LINE
  5
4DB
330
1F
100
AcDbEntity
  8
AM_7
100
AcDbLine
 10
435.880555034684
 20
323.1570924554518
 30
0.0
 11
435.880555034684
 21
353.9510924554518
 31
0.0
1001
GENIUS_GENOBJ-N-CEN_13
1002
{
1000
OWNER
1000
GEN
1002
}
1001
GENIUS_GENODEF_13
1002
{
1000
HIER
1070
     0
1002
}
1002
{
1000
MANEDIT
1070
     0
1002
}
1002
{
1000
NOSEL
1070
     0
1002
}
1002
{
1000
BEHIND
1070
     0
1002
}
1002
{
1000
OTHER
1070
     0
1002
}
1002
{
1000
REACTOR
1002
}
  0
LINE
  5
530
330
1F
100
AcDbEntity
  8
0
100
AcDbLine
 10
520.7646957495919
 20
286.3194080686401
 30
0.0
 11
520.7646957495919
 21
280.8194080686401
 31
0.0
  0
LINE
  5
53B
330
1F
100
AcDbEntity
  8
0
100
AcDbLine
 10
503.964695749592
 20
286.3194080686401
 30
0.0
 11
503.9646957495921
 21
280.8194080686401
 31
0.0
  0
LINE
  5
557
330
1F
100
AcDbEntity
  8
AM_7
100
AcDbLine
 10
527.7616957495919
 20
268.3194080686401
 30
0.0
 11
496.967695749592
 21
268.3194080686401
 31
0.0
1001
GENIUS_GENOBJ-N-CEN_13
1002
{
1000
OWNER
1000
GEN
1002
}
1001
GENIUS_GENODEF_13
1002
{
1000
HIER
1070
     0
1002
}
1002
{
1000
MANEDIT
1070
     0
1002
}
1002
{
1000
NOSEL
1070
     0
1002
}
1002
{
1000
BEHIND
1070
     0
1002
}
1002
{
1000
OTHER
1070
     0
1002
}
1002
{
1000
REACTOR
1002
}
  0
ARC
  5
1467
330
1F
100
AcDbEntity
  8
0
100
AcDbCircle
 10
435.880555034684
 20
338.5540924554518
 30
0.0
 40
9.0
100
AcDbArc
 50
23.0265740259831
 51
336.973425974017
  0
CIRCLE
  5
1468
330
1F
100
AcDbEntity
  8
0
100
AcDbCircle
 10
435.880555034684
 20
338.5540924554518
 30
0.0
 40
8.0
  0
CIRCLE
  5
1493
330
1F
100
AcDbEntity
  8
0
100
AcDbCircle
 10
435.880555034684
 20
338.5540924554518
 30
0.0
 40
4.5
  0
ELLIPSE
  5
1585
330
1F
100
AcDbEntity
  8
0
100
AcDbEllipse
 10
435.8805550346839
 20
335.0921446220262
 30
0.0
 11
-2.256924964554513
 21
0.0000000000000463
 31
0.0
210
0.0
220
0.0
230
1.0
 40
0.953303940344945
 41
3.962594650554286
 42
5.462183310215122
  0
ELLIPSE
  5
1586
330
1F
100
AcDbEntity
  8
0
100
AcDbEllipse
 10
435.8805550346839
 20
340.7009365857968
 30
0.0
 11
0.5133168835802701
 21
0.0000000000000428
 31
0.0
210
0.0
220
0.0
230
1.0
 40
0.9533039403449508
 41
0.2213144423477107
 42
2.920278211241923
  0
ELLIPSE
  5
1587
330
1F
100
AcDbEntity
  8
0
100
AcDbEllipse
 10
433.917981818792
 20
338.2988891946556
 30
0.0
 11
0.5341834235631982
 21
0.0000000000000106
 31
0.0
210
0.0
220
0.0
230
1.0
 40
0.9533039403449409
 41
4.188790204786369
 42
5.954632136628113
1001
GENIUS_GENODEF_13
1002
{
1000
HIER
1070
     0
1002
}
1002
{
1000
MANEDIT
1070
     0
1002
}
1002
{
1000
NOSEL
1070
     0
1002
}
1002
{
1000
BEHIND
1070
     0
1002
}
1002
{
1000
REACTOR
1002
}
1001
GENIUS_GENOBJ-N-FIL_13
1002
{
1000
OWNER
1000
GEN
1002
}
  0
ELLIPSE
  5
1588
330
1F
100
AcDbEntity
  8
0
100
AcDbEllipse
 10
437.8433593889041
 20
338.2982428490901
 30
0.0
 11
-0.5341834235631988
 21
0.0000000000000018
 31
0.0
210
0.0
220
0.0
230
1.0
 40
0.9533039403449464
 41
0.3285531705514608
 42
2.110876526947248
1001
GENIUS_GENODEF_13
1002
{
1000
HIER
1070
     0
1002
}
1002
{
1000
MANEDIT
1070
     0
1002
}
1002
{
1000
NOSEL
1070
     0
1002
}
1002
{
1000
BEHIND
1070
     0
1002
}
1002
{
1000
REACTOR
1002
}
1001
GENIUS_GENOBJ-N-FIL_13
1002
{
1000
OWNER
1000
GEN
1002
}
  0
ELLIPSE
  5
1589
330
1F
100
AcDbEntity
  8
0
100
AcDbEllipse
 10
434.2969822034033
 20
336.7132852681124
 30
0.0
 11
0.0667729279454007
 21
0.0000000000000132
 31
0.0
210
0.0
220
0.0
230
1.0
 40
0.9533039403448611
 41
3.605240262590422
 42
5.462183310214919
1001
GENIUS_GENODEF_13
1002
{
1000
HIER
1070
     0
1002
}
1002
{
1000
MANEDIT
1070
     0
1002
}
1002
{
1000
NOSEL
1070
     0
1002
}
1002
{
1000
BEHIND
1070
     0
1002
}
1002
{
1000
REACTOR
1002
}
1001
GENIUS_GENOBJ-N-FIL_13
1002
{
1000
OWNER
1000
GEN
1002
}
  0
ELLIPSE
  5
158A
330
1F
100
AcDbEntity
  8
0
100
AcDbEllipse
 10
437.4641278659645
 20
336.7132852681124
 30
0.0
 11
0.0667729279453976
 21
0.0000000000000314
 31
0.0
210
0.0
220
0.0
230
1.0
 40
0.9533039403449663
 41
3.962594650553778
 42
5.819537698178287
1001
GENIUS_GENODEF_13
1002
{
1000
HIER
1070
     0
1002
}
1002
{
1000
MANEDIT
1070
     0
1002
}
1002
{
1000
NOSEL
1070
     0
1002
}
1002
{
1000
BEHIND
1070
     0
1002
}
1002
{
1000
REACTOR
1002
}
1001
GENIUS_GENOBJ-N-FIL_13
1002
{
1000
OWNER
1000
GEN
1002
}
  0
ELLIPSE
  5
158B
330
1F
100
AcDbEntity
  8
0
100
AcDbEllipse
 10
435.8805550362759
 20
338.8367575427407
 30
0.0
 11
-0.0667729279453995
 21
0.0
 31
0.0
210
0.0
220
0.0
230
1.0
 40
0.9533039403448885
 41
3.484616594010533
 42
5.940161366758846
1001
GENIUS_GENODEF_13
1002
{
1000
HIER
1070
     0
1002
}
1002
{
1000
MANEDIT
1070
     0
1002
}
1002
{
1000
NOSEL
1070
     0
1002
}
1002
{
1000
BEHIND
1070
     0
1002
}
1002
{
1000
REACTOR
1002
}
1001
GENIUS_GENOBJ-N-FIL_13
1002
{
1000
OWNER
1000
GEN
1002
}
  0
ELLIPSE
  5
158C
330
1F
100
AcDbEntity
  8
0
100
AcDbEllipse
 10
435.6414415077886
 20
338.1985035135798
 30
0.0
 11
-0.0667729279454017
 21
0.0000000000000049
 31
0.0
210
0.0
220
0.0
230
1.0
 40
0.9533039403448576
 41
-0.3430239422815355
 42
1.570796326795022
1001
GENIUS_GENODEF_13
1002
{
1000
HIER
1070
     0
1002
}
1002
{
1000
MANEDIT
1070
     0
1002
}
1002
{
1000
NOSEL
1070
     0
1002
}
1002
{
1000
BEHIND
1070
     0
1002
}
1002
{
1000
REACTOR
1002
}
1001
GENIUS_GENOBJ-N-FIL_13
1002
{
1000
OWNER
1000
GEN
1002
}
  0
ELLIPSE
  5
158D
330
1F
100
AcDbEntity
  8
0
100
AcDbEllipse
 10
436.1196685619536
 20
338.1985035135798
 30
0.0
 11
0.0667729279454
 21
0.0000000000000333
 31
0.0
210
0.0
220
0.0
230
1.0
 40
0.9533039403448807
 41
4.712388980384213
 42
6.62620924573893
1001
GENIUS_GENODEF_13
1002
{
1000
HIER
1070
     0
1002
}
1002
{
1000
MANEDIT
1070
     0
1002
}
1002
{
1000
NOSEL
1070
     0
1002
}
1002
{
1000
BEHIND
1070
     0
1002
}
1002
{
1000
REACTOR
1002
}
1001
GENIUS_GENOBJ-N-FIL_13
1002
{
1000
OWNER
1000
GEN
1002
}
  0
LINE
  5
158E
330
1F
100
AcDbEntity
  8
0
100
AcDbLine
 10
435.4152147779243
 20
340.9075038642399
 30
0.0
 11
434.4235918715507
 21
338.1345709938921
 31
0.0
  0
LINE
  5
158F
330
1F
100
AcDbEntity
  8
0
100
AcDbLine
 10
437.3377493361455
 20
338.1339246483266
 30
0.0
 11
436.3458952914435
 21
340.90750386424
 31
0.0
  0
HATCH
  5
1590
330
1F
100
AcDbEntity
  8
AM_8
100
AcDbHatch
 10
0.0
 20
0.0
 30
0.0
210
0.0
220
0.0
230
1.0
  2
SOLID
 70
     1
 71
     0
 91
        2
 92
        1
 93
       12
 72
     1
 10
433.6508901070105
 20
337.8578751432854
 11
433.6102754845403
 21
337.880229036986
 72
     1
 10
433.6102754845403
 20
337.880229036986
 11
434.2372586810263
 21
336.6848179335057
 72
     3
 10
434.2969822034033
 20
336.7132852681124
 11
0.0667729279454006
 21
0.0000000000000128
 40
0.953303940344873
 50
205.4848953056053
 51
314.3283709577604
 73
     1
 72
     3
 10
435.8805550346839
 20
335.0921446220262
 11
2.25692496455451
 21
0.0000000000000096
 40
0.9533039403449393
 50
225.671629042227
 51
314.3283709577731
 73
     0
 72
     3
 10
437.4641278659645
 20
336.7132852681124
 11
0.0667729279453904
 21
0.0000000000000161
 40
0.9533039403449532
 50
225.6716290422102
 51
334.5151046943656
 73
     1
 72
     1
 10
437.5238513883415
 20
336.6848179335057
 11
438.1508345848275
 21
337.8802290369861
 72
     1
 10
438.1508345848275
 20
337.880229036986
 11
438.1180390578245
 21
337.8614849977434
 72
     3
 10
437.8433593889041
 20
338.2982428490901
 11
-0.5341834235632018
 21
0.000000000000007
 40
0.9533039403449386
 50
237.8339629836168
 51
341.9963576702489
 73
     0
 72
     1
 10
437.3377493361455
 20
338.1339246483265
 11
436.3458952914436
 21
340.9075038642399
 72
     3
 10
435.8805550346839
 20
340.7009365857968
 11
0.513316883580271
 21
0.0000000000000066
 40
0.9533039403449492
 50
23.93671648028057
 51
156.0632835197336
 73
     1
 72
     1
 10
435.4152147779242
 20
340.9075038642398
 11
434.4235918715506
 21
338.134570993892
 72
     3
 10
433.917981818792
 20
338.2988891946555
 11
0.5341834235631979
 21
0.0000000000000418
 40
0.9533039403449389
 50
18.00364232975456
 51
121.2003905358117
 73
     0
 97
        0
 92
       16
 93
        6
 72
     1
 10
435.943437901082
 20
338.8581670008835
 11
436.1825514268016
 21
338.2199129716109
 72
     3
 10
436.1196685619536
 20
338.1985035135796
 11
0.0667729279454
 21
0.0000000000000333
 40
0.9533039403448807
 50
-18.80194711607317
 51
90.00000000002852
 73
     0
 72
     1
 10
436.1196685619536
 20
338.134848618261
 11
435.6414415077886
 21
338.134848618261
 72
     3
 10
435.6414415077886
 20
338.1985035135796
 11
-0.0667729279454015
 21
0.0000000000000534
 40
0.9533039403448599
 50
269.9999999999542
 51
378.801947321461
 73
     0
 72
     1
 10
435.5785586430243
 20
338.219912971834
 11
435.8176721714698
 21
338.8581670008834
 72
     3
 10
435.8805550362759
 20
338.8367575427407
 11
0.0667729279453995
 21
0.0
 40
0.9533039403448885
 50
198.8019472188032
 51
341.1980527811968
 73
     0
 97
        0
 75
     0
 76
     1
 98
        1
 10
337.946733906533
 20
239.6474633653073
1001
GENIUS_GENODEF_13
1002
{
1000
HIER
1070
     0
1002
}
1002
{
1000
MANEDIT
1070
     0
1002
}
1002
{
1000
NOSEL
1070
     0
1002
}
1002
{
1000
BEHIND
1070
     0
1002
}
1002
{
1000
REACTOR
1002
}
1001
GENIUS_GENOBJ-N-HTC_13
1002
{
1000
OWNER
1000
GEN
1002
}
1001
GENIUS_GENHATCH_13
1002
{
1000
DATA
1040
0.0
1042
0.0190537838616186
1000
SOLID
1070
     0
1011
369.839330022686
1021
270.7334098299725
1031
0.0
1002
}
1002
{
1000
UCS
1010
0.0
1020
0.0
1030
0.0
1010
1.0
1020
0.0
1030
0.0
1010
0.0
1020
1.0
1030
0.0
1002
}
  0
LINE
  5
1591
330
1F
100
AcDbEntity
  8
0
100
AcDbLine
 10
435.5785586430244
 20
338.219912971834
 30
0.0
 11
435.8176721714698
 21
338.8581670008835
 31
0.0
  0
LINE
  5
1592
330
1F
100
AcDbEntity
  8
0
100
AcDbLine
 10
436.1196685619537
 20
338.134848618261
 30
0.0
 11
435.6414415077887
 21
338.134848618261
 31
0.0
  0
LINE
  5
1593
330
1F
100
AcDbEntity
  8
0
100
AcDbLine
 10
437.5238513883416
 20
336.6848179335057
 30
0.0
 11
438.1508345848275
 21
337.8802290369861
 31
0.0
  0
LINE
  5
1594
330
1F
100
AcDbEntity
  8
0
100
AcDbLine
 10
435.943437901082
 20
338.8581670008835
 30
0.0
 11
436.1825514268016
 21
338.2199129716109
 31
0.0
  0
LINE
  5
1595
330
1F
100
AcDbEntity
  8
0
100
AcDbLine
 10
438.1508345848275
 20
337.8802290369861
 30
0.0
 11
438.1180390578245
 21
337.8614849977434
 31
0.0
  0
LINE
  5
1596
330
1F
100
AcDbEntity
  8
0
100
AcDbLine
 10
434.2372586810263
 20
336.6848179335057
 30
0.0
 11
433.6102754845403
 21
337.8802290369861
 31
0.0
  0
LINE
  5
1597
330
1F
100
AcDbEntity
  8
0
100
AcDbLine
 10
433.6102754845403
 20
337.8802290369861
 30
0.0
 11
433.6508901070105
 21
337.8578751432855
 31
0.0
  0
LINE
  5
15E7
330
1F
100
AcDbEntity
  8
AM_7
100
AcDbLine
 10
512.3646957495918
 20
308.71640806864
 30
0.0
 11
512.3646957495918
 21
253.8005168883835
 31
0.0
1001
GENIUS_GENOBJ-N-CEN_13
1002
{
1000
OWNER
1000
GEN
1002
}
1001
GENIUS_GENODEF_13
1002
{
1000
HIER
1070
     0
1002
}
1002
{
1000
MANEDIT
1070
     0
1002
}
1002
{
1000
NOSEL
1070
     0
1002
}
1002
{
1000
BEHIND
1070
     0
1002
}
1002
{
1000
OTHER
1070
     0
1002
}
1002
{
1000
REACTOR
1002
}
  0
CIRCLE
  5
160E
330
1F
100
AcDbEntity
  8
AM_0
100
AcDbCircle
 10
512.3646957495918
 20
268.3194080686401
 30
0.0
 40
12.0
  0
CIRCLE
  5
1612
330
1F
100
AcDbEntity
  8
AM_0
100
AcDbCircle
 10
512.3646957495919
 20
268.3194080686401
 30
0.0
 40
6.999999999999829
  0
CIRCLE
  5
1613
330
1F
100
AcDbEntity
  8
AM_0
100
AcDbCircle
 10
512.3646957495918
 20
268.3194080686401
 30
0.0
 40
5.0
  0
LINE
  5
1657
330
1F
100
AcDbEntity
  8
AM_7
100
AcDbLine
 10
481.8831578734268
 20
268.3194080686401
 30
0.0
 11
406.483555034684
 21
268.3194080686401
 31
0.0
1001
GENIUS_GENOBJ-N-CEN_13
1002
{
1000
OWNER
1000
GEN
1002
}
1001
GENIUS_GENODEF_13
1002
{
1000
HIER
1070
     0
1002
}
1002
{
1000
MANEDIT
1070
     0
1002
}
1002
{
1000
NOSEL
1070
     0
1002
}
1002
{
1000
BEHIND
1070
     0
1002
}
1002
{
1000
OTHER
1070
     0
1002
}
1002
{
1000
REACTOR
1002
}
1001
GENIUS_GENCEN_19
1002
{
1040
1.397
1002
}
  0
LINE
  5
1BC4
330
1F
100
AcDbEntity
  8
AM_7
100
AcDbLine
 10
435.880555034684
 20
306.7164080686401
 30
0.0
 11
435.880555034684
 21
252.9224080686401
 31
0.0
1001
GENIUS_GENODEF_13
1002
{
1000
HIER
1070
     0
1002
}
1002
{
1000
MANEDIT
1070
     0
1002
}
1002
{
1000
NOSEL
1070
     0
1002
}
1002
{
1000
BEHIND
1070
     0
1002
}
1002
{
1000
OTHER
1070
     0
1002
}
1002
{
1000
REACTOR
1002
}
1001
GENIUS_GENOBJ-N-CEN_13
1002
{
1000
OWNER
1000
GEN
1002
}
  0
LINE
  5
2110
330
1F
100
AcDbEntity
  8
0
100
AcDbLine
 10
448.880555034684
 20
333.4190535383296
 30
0.0
 11
448.880555034684
 21
326.5540924554519
 31
0.0
  0
LINE
  5
23AB
330
1F
100
AcDbEntity
  8
AM_0
100
AcDbLine
 10
524.8646957495919
 20
277.0551106734682
 30
0.0
 11
524.8646957495919
 21
259.583705463812
 31
0.0
  0
LINE
  5
23AC
330
1F
100
AcDbEntity
  8
AM_0
100
AcDbLine
 10
521.10039835442
 20
255.8194080686401
 30
0.0
 11
503.6289931447639
 21
255.8194080686401
 31
0.0
  0
LINE
  5
23AD
330
1F
100
AcDbEntity
  8
AM_0
100
AcDbLine
 10
499.8646957495918
 20
259.5837054638122
 30
0.0
 11
499.8646957495919
 21
277.0551106734681
 31
0.0
  0
ARC
  5
23AE
330
1F
100
AcDbEntity
  8
AM_0
100
AcDbCircle
 10
512.3646957495919
 20
268.3194080686401
 30
0.0
 40
15.25
100
AcDbArc
 50
214.9480137199075
 51
235.0519862800943
  0
ARC
  5
23AF
330
1F
100
AcDbEntity
  8
AM_0
100
AcDbCircle
 10
512.3646957495919
 20
268.3194080686401
 30
0.0
 40
15.25
100
AcDbArc
 50
304.9480137199056
 51
325.0519862800925
  0
ARC
  5
23B0
330
1F
100
AcDbEntity
  8
AM_0
100
AcDbCircle
 10
512.3646957495919
 20
268.3194080686401
 30
0.0
 40
15.25
100
AcDbArc
 50
34.94801371990752
 51
55.05198628009434
  0
ARC
  5
23B1
330
1F
100
AcDbEntity
  8
AM_0
100
AcDbCircle
 10
512.3646957495919
 20
268.3194080686401
 30
0.0
 40
15.25
100
AcDbArc
 50
124.9480137199056
 51
145.0519862800924
  0
LINE
  5
23B2
330
1F
100
AcDbEntity
  8
AM_0
100
AcDbLine
 10
521.10039835442
 20
280.8194080686401
 30
0.0
 11
503.6289931447639
 21
280.8194080686401
 31
0.0
  0
LINE
  5
23F7
330
1F
100
AcDbEntity
  8
AM_0
100
AcDbLine
 10
448.5918799000891
 20
280.8194080686401
 30
0.0
 11
444.5305550346839
 21
280.8194080686401
 31
0.0
  0
ARC
  5
23F8
330
1F
100
AcDbEntity
  8
AM_0
100
AcDbCircle
 10
444.5305550346839
 20
281.0694080686401
 30
0.0
 40
0.25
100
AcDbArc
 50
180.0
 51
270.0
1001
GENIUS_GENOBJ-N-FIL_13
1002
{
1000
OWNER
1000
GEN
1002
}
1001
GENIUS_GENODEF_13
1002
{
1000
HIER
1070
     0
1002
}
1002
{
1000
MANEDIT
1070
     0
1002
}
1002
{
1000
NOSEL
1070
     0
1002
}
1002
{
1000
BEHIND
1070
     0
1002
}
1002
{
1000
OTHER
1070
     0
1002
}
1002
{
1000
REACTOR
1002
}
  0
LINE
  5
23F9
330
1F
100
AcDbEntity
  8
AM_0
100
AcDbLine
 10
448.8805550346838
 20
280.3194080686401
 30
0.0
 11
448.5918799000891
 21
280.8194080686401
 31
0.0
  0
LINE
  5
2407
330
1F
100
AcDbEntity
  8
0
100
AcDbLine
 10
444.2805550346839
 20
286.3194080686401
 30
0.0
 11
444.2805550346839
 21
281.0694080686401
 31
0.0
  0
LINE
  5
2419
330
1F
100
AcDbEntity
  8
AM_0
100
AcDbLine
 10
427.230555034684
 20
280.8194080686401
 30
0.0
 11
423.1692301692786
 21
280.8194080686401
 31
0.0
  0
ARC
  5
241A
330
1F
100
AcDbEntity
  8
AM_0
100
AcDbCircle
 10
427.230555034684
 20
281.0694080686401
 30
0.0
 40
0.25
100
AcDbArc
 50
270.0
 51
0.0
1001
GENIUS_GENOBJ-N-FIL_13
1002
{
1000
OWNER
1000
GEN
1002
}
1001
GENIUS_GENODEF_13
1002
{
1000
HIER
1070
     0
1002
}
1002
{
1000
MANEDIT
1070
     0
1002
}
1002
{
1000
NOSEL
1070
     0
1002
}
1002
{
1000
BEHIND
1070
     0
1002
}
1002
{
1000
OTHER
1070
     0
1002
}
1002
{
1000
REACTOR
1002
}
  0
LINE
  5
241B
330
1F
100
AcDbEntity
  8
AM_0
100
AcDbLine
 10
422.8805550346839
 20
280.3194080686401
 30
0.0
 11
423.1692301692786
 21
280.8194080686401
 31
0.0
  0
LINE
  5
241D
330
1F
100
AcDbEntity
  8
AM_0
100
AcDbLine
 10
427.4805550346839
 20
286.3194080686401
 30
0.0
 11
427.4805550346839
 21
281.0694080686401
 31
0.0
  0
LINE
  5
2430
330
1F
100
AcDbEntity
  8
AM_0
100
AcDbLine
 10
448.5918799000889
 20
255.81940806864
 30
0.0
 11
423.1692301692786
 21
255.8194080686401
 31
0.0
  0
LINE
  5
2431
330
1F
100
AcDbEntity
  8
AM_0
100
AcDbLine
 10
422.8805550346839
 20
256.3194080686401
 30
0.0
 11
423.1692301692786
 21
255.8194080686401
 31
0.0
  0
LINE
  5
2432
330
1F
100
AcDbEntity
  8
AM_0
100
AcDbLine
 10
422.8805550346839
 20
256.3194080686401
 30
0.0
 11
420.6305550346839
 21
256.3194080686401
 31
0.0
  0
LINE
  5
2434
330
1F
100
AcDbEntity
  8
AM_0
100
AcDbLine
 10
448.8805550346838
 20
256.3194080686401
 30
0.0
 11
448.5918799000891
 21
255.8194080686401
 31
0.0
  0
LINE
  5
2549
330
1F
100
AcDbEntity
  8
AM_0
100
AcDbLine
 10
448.8805550346841
 20
326.5540924554519
 30
0.0
 11
448.880555034684
 21
333.4190535383297
 31
0.0
  0
LINE
  5
25FE
330
1F
100
AcDbEntity
  8
AM_0
100
AcDbLine
 10
423.1692301692786
 20
326.0540924554519
 30
0.0
 11
448.5918799000893
 21
326.0540924554519
 31
0.0
  0
LINE
  5
2603
330
1F
100
AcDbEntity
  8
AM_0
100
AcDbLine
 10
422.8805550346839
 20
326.5540924554519
 30
0.0
 11
423.1692301692786
 21
326.0540924554519
 31
0.0
  0
LINE
  5
2606
330
1F
100
AcDbEntity
  8
AM_0
100
AcDbLine
 10
422.8805550346839
 20
350.5540924554519
 30
0.0
 11
422.8805550346839
 21
326.5540924554519
 31
0.0
  0
LINE
  5
260B
330
1F
100
AcDbEntity
  8
AM_0
100
AcDbLine
 10
448.8805550346841
 20
326.5540924554519
 30
0.0
 11
448.5918799000893
 21
326.0540924554519
 31
0.0
  0
LINE
  5
26CE
330
1F
100
AcDbEntity
  8
AM_0
100
AcDbLine
 10
448.8805550346838
 20
350.5540924554519
 30
0.0
 11
448.880555034684
 21
343.689131372574
 31
0.0
  0
LINE
  5
270C
330
1F
100
AcDbEntity
  8
AM_0
100
AcDbLine
 10
420.630555034684
 20
326.5540924554519
 30
0.0
 11
422.8805550346839
 21
326.5540924554519
 31
0.0
  0
LINE
  5
270F
330
1F
100
AcDbEntity
  8
AM_0
100
AcDbLine
 10
423.1692301692786
 20
351.0540924554519
 30
0.0
 11
448.5918799000893
 21
351.0540924554519
 31
0.0
  0
LINE
  5
2710
330
1F
100
AcDbEntity
  8
AM_0
100
AcDbLine
 10
422.8805550346839
 20
350.5540924554519
 30
0.0
 11
423.1692301692786
 21
351.0540924554519
 31
0.0
  0
LINE
  5
2711
330
1F
100
AcDbEntity
  8
AM_0
100
AcDbLine
 10
448.8805550346841
 20
350.5540924554519
 30
0.0
 11
448.5918799000893
 21
351.0540924554519
 31
0.0
  0
LINE
  5
2712
330
1F
100
AcDbEntity
  8
AM_0
100
AcDbLine
 10
420.630555034684
 20
350.5540924554519
 30
0.0
 11
422.8805550346839
 21
350.5540924554519
 31
0.0
  0
LINE
  5
2746
330
1F
100
AcDbEntity
  8
AM_0
100
AcDbLine
 10
420.3805550346841
 20
350.3040924554519
 30
0.0
 11
420.630555034684
 21
350.5540924554519
 31
0.0
  0
LINE
  5
2752
330
1F
100
AcDbEntity
  8
AM_0
100
AcDbLine
 10
420.630555034684
 20
350.5540924554519
 30
0.0
 11
420.630555034684
 21
326.5540924554519
 31
0.0
  0
LINE
  5
2753
330
1F
100
AcDbEntity
  8
AM_0
100
AcDbLine
 10
420.630555034684
 20
326.5540924554519
 30
0.0
 11
420.3805550346841
 21
326.8040924554519
 31
0.0
  0
LINE
  5
275B
330
1F
100
AcDbEntity
  8
AM_0
100
AcDbLine
 10
420.6305550346839
 20
256.3194080686401
 30
0.0
 11
420.380555034684
 21
256.5694080686401
 31
0.0
  0
LINE
  5
275F
330
1F
100
AcDbEntity
  8
AM_0
100
AcDbLine
 10
420.3805550346841
 20
280.0694080686401
 30
0.0
 11
420.630555034684
 21
280.3194080686401
 31
0.0
  0
LINE
  5
2E46
330
1F
100
AcDbEntity
  8
AM_0
100
AcDbLine
 10
448.8805550346837
 20
256.8194080686401
 30
0.0
 11
448.8805550346838
 21
256.3194080686401
 31
0.0
  0
LINE
  5
3214
330
1F
100
AcDbEntity
  8
0
100
AcDbLine
 10
448.8805550346837
 20
256.31940806864
 30
0.0
 11
451.6305550346837
 21
256.31940806864
 31
0.0
  0
LINE
  5
3215
330
1F
100
AcDbEntity
  8
0
100
AcDbLine
 10
451.8805550346837
 20
256.56940806864
 30
0.0
 11
451.8805550346836
 21
261.31940806864
 31
0.0
  0
LINE
  5
3216
330
1F
100
AcDbEntity
  8
0
100
AcDbLine
 10
451.8805550346837
 20
256.56940806864
 30
0.0
 11
451.6305550346837
 21
256.31940806864
 31
0.0
1001
GENIUS_GENFIL_13
1070
     0
1040
0.25
1040
0.25
1040
0.2499999999999787
1040
44.99999999999593
1000
~T
  0
LINE
  5
321B
330
1F
100
AcDbEntity
  8
0
100
AcDbLine
 10
448.8805550346837
 20
258.01940806864
 30
0.0
 11
448.8805550346837
 21
256.31940806864
 31
0.0
  0
LINE
  5
3221
330
1F
100
AcDbEntity
  8
0
100
AcDbLine
 10
476.3805550346837
 20
261.31940806864
 30
0.0
 11
480.4627545283364
 21
261.9997746509155
 31
0.0
  0
LINE
  5
3222
330
1F
100
AcDbEntity
  8
0
100
AcDbLine
 10
476.3805550346837
 20
261.31940806864
 30
0.0
 11
476.3805550346837
 21
262.06940806864
 31
0.0
  0
LINE
  5
3223
330
1F
100
AcDbEntity
  8
0
100
AcDbLine
 10
471.8805550346838
 20
261.31940806864
 30
0.0
 11
471.8805550346838
 21
262.06940806864
 31
0.0
  0
LINE
  5
3224
330
1F
100
AcDbEntity
  8
0
100
AcDbLine
 10
471.8805550346838
 20
261.31940806864
 30
0.0
 11
476.3805550346837
 21
262.06940806864
 31
0.0
  0
LINE
  5
3225
330
1F
100
AcDbEntity
  8
0
100
AcDbLine
 10
467.3805550346838
 20
261.31940806864
 30
0.0
 11
471.8805550346838
 21
262.06940806864
 31
0.0
  0
LINE
  5
3226
330
1F
100
AcDbEntity
  8
0
100
AcDbLine
 10
467.3805550346838
 20
261.31940806864
 30
0.0
 11
467.3805550346838
 21
262.06940806864
 31
0.0
  0
LINE
  5
3227
330
1F
100
AcDbEntity
  8
0
100
AcDbLine
 10
462.8805550346838
 20
261.31940806864
 30
0.0
 11
462.8805550346838
 21
262.06940806864
 31
0.0
  0
LINE
  5
3228
330
1F
100
AcDbEntity
  8
0
100
AcDbLine
 10
462.8805550346838
 20
261.31940806864
 30
0.0
 11
467.3805550346838
 21
262.06940806864
 31
0.0
  0
LINE
  5
3229
330
1F
100
AcDbEntity
  8
0
100
AcDbLine
 10
458.3805550346837
 20
261.31940806864
 30
0.0
 11
462.8805550346838
 21
262.06940806864
 31
0.0
  0
LINE
  5
322A
330
1F
100
AcDbEntity
  8
0
100
AcDbLine
 10
458.3805550346837
 20
261.31940806864
 30
0.0
 11
451.8805550346837
 21
261.31940806864
 31
0.0
  0
LINE
  5
322C
330
1F
100
AcDbEntity
  8
0
100
AcDbLine
 10
480.8805550346837
 20
262.4929716128317
 30
0.0
 11
480.8805550346837
 21
268.31940806864
 31
0.0
  0
LINE
  5
3232
330
1F
100
AcDbEntity
  8
0
100
AcDbLine
 10
448.8805550346837
 20
280.3194080686399
 30
0.0
 11
451.6305550346837
 21
280.3194080686399
 31
0.0
  0
LINE
  5
3233
330
1F
100
AcDbEntity
  8
0
100
AcDbLine
 10
451.8805550346837
 20
280.0694080686399
 30
0.0
 11
451.8805550346837
 21
275.3194080686399
 31
0.0
  0
LINE
  5
3234
330
1F
100
AcDbEntity
  8
0
100
AcDbLine
 10
451.8805550346837
 20
280.0694080686399
 30
0.0
 11
451.6305550346837
 21
280.3194080686399
 31
0.0
1001
GENIUS_GENFIL_13
1070
     0
1040
0.25
1040
0.25
1040
0.2499999999999787
1040
44.99999999999593
1000
~T
  0
LINE
  5
323F
330
1F
100
AcDbEntity
  8
0
100
AcDbLine
 10
476.3805550346837
 20
275.3194080686399
 30
0.0
 11
480.4627545283365
 21
274.6390414863645
 31
0.0
  0
LINE
  5
3240
330
1F
100
AcDbEntity
  8
0
100
AcDbLine
 10
476.3805550346837
 20
275.3194080686399
 30
0.0
 11
476.3805550346837
 21
274.5694080686399
 31
0.0
  0
LINE
  5
3241
330
1F
100
AcDbEntity
  8
0
100
AcDbLine
 10
471.8805550346838
 20
275.3194080686399
 30
0.0
 11
471.8805550346838
 21
274.5694080686399
 31
0.0
  0
LINE
  5
3242
330
1F
100
AcDbEntity
  8
0
100
AcDbLine
 10
471.8805550346838
 20
275.3194080686399
 30
0.0
 11
476.3805550346837
 21
274.5694080686399
 31
0.0
  0
LINE
  5
3243
330
1F
100
AcDbEntity
  8
0
100
AcDbLine
 10
467.3805550346838
 20
275.3194080686399
 30
0.0
 11
471.8805550346838
 21
274.5694080686399
 31
0.0
  0
LINE
  5
3244
330
1F
100
AcDbEntity
  8
0
100
AcDbLine
 10
467.3805550346838
 20
275.3194080686399
 30
0.0
 11
467.3805550346838
 21
274.5694080686399
 31
0.0
  0
LINE
  5
3245
330
1F
100
AcDbEntity
  8
0
100
AcDbLine
 10
462.8805550346838
 20
275.3194080686399
 30
0.0
 11
462.8805550346838
 21
274.5694080686399
 31
0.0
  0
LINE
  5
3246
330
1F
100
AcDbEntity
  8
0
100
AcDbLine
 10
462.8805550346838
 20
275.3194080686399
 30
0.0
 11
467.3805550346838
 21
274.5694080686399
 31
0.0
  0
LINE
  5
3247
330
1F
100
AcDbEntity
  8
0
100
AcDbLine
 10
458.3805550346837
 20
275.3194080686399
 30
0.0
 11
462.8805550346838
 21
274.5694080686399
 31
0.0
  0
LINE
  5
3248
330
1F
100
AcDbEntity
  8
0
100
AcDbLine
 10
458.3805550346837
 20
275.3194080686399
 30
0.0
 11
451.8805550346837
 21
275.3194080686399
 31
0.0
  0
LINE
  5
324A
330
1F
100
AcDbEntity
  8
0
100
AcDbLine
 10
480.8805550346838
 20
274.1458445244484
 30
0.0
 11
480.8805550346837
 21
268.31940806864
 31
0.0
  0
LINE
  5
32E4
330
1F
100
AcDbEntity
  8
0
100
AcDbLine
 10
448.8805550346835
 20
333.4383561548472
 30
0.0
 11
448.8805550346835
 21
326.5540924554518
 31
0.0
  0
LINE
  5
32E5
330
1F
100
AcDbEntity
  8
AM_0
100
AcDbLine
 10
448.8805550346834
 20
350.5540924554519
 30
0.0
 11
448.8805550346837
 21
343.6698287560564
 31
0.0
  0
LINE
  5
32E6
330
1F
100
AcDbEntity
  8
0
100
AcDbLine
 10
451.8805550346835
 20
350.3040924554519
 30
0.0
 11
451.8805550346836
 21
343.554013056951
 31
0.0
  0
LINE
  5
32E7
330
1F
100
AcDbEntity
  8
0
100
AcDbLine
 10
451.8805550346835
 20
350.3040924554519
 30
0.0
 11
451.6305550346835
 21
350.5540924554519
 31
0.0
1001
GENIUS_GENFIL_13
1070
     0
1040
0.25
1040
0.2500000000000142
1040
0.25
1040
45.00000000000489
1000
~T
1001
GENIUS_GENOREF_13
1005
330A
  0
LINE
  5
32E8
330
1F
100
AcDbEntity
  8
0
100
AcDbLine
 10
451.6305550346835
 20
350.5540924554519
 30
0.0
 11
451.6305550346834
 21
343.5636643652097
 31
0.0
  0
LINE
  5
32E9
330
1F
100
AcDbEntity
  8
0
100
AcDbLine
 10
448.8805550346835
 20
350.5540924554519
 30
0.0
 11
451.6305550346835
 21
350.5540924554519
 31
0.0
  0
ARC
  5
32EA
330
1F
100
AcDbEntity
  8
0
100
AcDbCircle
 10
480.3805550346835
 20
343.7305289112604
 30
0.0
 40
0.5
100
AcDbArc
 50
0.0
 51
80.5376777919792
1001
GENIUS_GENOREF_13
1005
3309
  0
LINE
  5
32EB
330
1F
100
AcDbEntity
  8
0
100
AcDbLine
 10
458.3805550346835
 20
344.9040924554519
 30
0.0
 11
451.8805550346835
 21
344.9040924554519
 31
0.0
  0
LINE
  5
32EC
330
1F
100
AcDbEntity
  8
0
100
AcDbLine
 10
458.3805550346835
 20
344.9040924554519
 30
0.0
 11
462.8805550346835
 21
344.1540924554519
 31
0.0
  0
LINE
  5
32ED
330
1F
100
AcDbEntity
  8
0
100
AcDbLine
 10
462.8805550346835
 20
344.9040924554519
 30
0.0
 11
467.3805550346835
 21
344.1540924554519
 31
0.0
  0
LINE
  5
32EE
330
1F
100
AcDbEntity
  8
0
100
AcDbLine
 10
462.8805550346835
 20
344.9040924554519
 30
0.0
 11
462.8805550346835
 21
341.1247065802382
 31
0.0
  0
LINE
  5
32EF
330
1F
100
AcDbEntity
  8
0
100
AcDbLine
 10
467.3805550346835
 20
344.9040924554519
 30
0.0
 11
467.3805550346836
 21
340.8578694399285
 31
0.0
  0
LINE
  5
32F0
330
1F
100
AcDbEntity
  8
0
100
AcDbLine
 10
467.3805550346835
 20
344.9040924554519
 30
0.0
 11
471.8805550346835
 21
344.1540924554519
 31
0.0
  0
LINE
  5
32F1
330
1F
100
AcDbEntity
  8
0
100
AcDbLine
 10
471.8805550346835
 20
344.9040924554519
 30
0.0
 11
476.3805550346835
 21
344.1540924554519
 31
0.0
  0
LINE
  5
32F2
330
1F
100
AcDbEntity
  8
0
100
AcDbLine
 10
471.8805550346835
 20
344.9040924554519
 30
0.0
 11
471.8805550346836
 21
340.740032792867
 31
0.0
  0
LINE
  5
32F3
330
1F
100
AcDbEntity
  8
0
100
AcDbLine
 10
476.3805550346835
 20
344.9040924554519
 30
0.0
 11
476.3805550346837
 21
340.6221961458058
 31
0.0
  0
LINE
  5
32F4
330
1F
100
AcDbEntity
  8
0
100
AcDbLine
 10
476.3805550346835
 20
344.9040924554519
 30
0.0
 11
480.4627545283361
 21
344.2237258731765
 31
0.0
  0
LINE
  5
32F5
330
1F
100
AcDbEntity
  8
0
100
AcDbLine
 10
451.8805550346835
 20
326.8040924554518
 30
0.0
 11
451.8805550346835
 21
333.5541718539527
 31
0.0
  0
LINE
  5
32F6
330
1F
100
AcDbEntity
  8
0
100
AcDbLine
 10
451.8805550346835
 20
326.8040924554518
 30
0.0
 11
451.6305550346835
 21
326.5540924554518
 31
0.0
1001
GENIUS_GENFIL_13
1070
     0
1040
0.25
1040
0.2500000000000142
1040
0.25
1040
45.00000000000489
1000
~T
1001
GENIUS_GENOREF_13
1005
3308
  0
LINE
  5
32F7
330
1F
100
AcDbEntity
  8
0
100
AcDbLine
 10
451.6305550346835
 20
326.5540924554518
 30
0.0
 11
451.6305550346834
 21
333.5445205456939
 31
0.0
  0
LINE
  5
32F8
330
1F
100
AcDbEntity
  8
0
100
AcDbLine
 10
448.8805550346835
 20
326.5540924554518
 30
0.0
 11
451.6305550346835
 21
326.5540924554518
 31
0.0
  0
ARC
  5
32F9
330
1F
100
AcDbEntity
  8
0
100
AcDbCircle
 10
480.3805550346835
 20
333.3776559996433
 30
0.0
 40
0.5
100
AcDbArc
 50
279.4623222080208
 51
0.0
1001
GENIUS_GENOREF_13
1005
3307
  0
LINE
  5
32FA
330
1F
100
AcDbEntity
  8
0
100
AcDbLine
 10
458.3805550346835
 20
332.2040924554519
 30
0.0
 11
451.8805550346835
 21
332.2040924554519
 31
0.0
  0
LINE
  5
32FB
330
1F
100
AcDbEntity
  8
0
100
AcDbLine
 10
458.3805550346835
 20
332.2040924554519
 30
0.0
 11
462.8805550346835
 21
332.9540924554519
 31
0.0
  0
LINE
  5
32FC
330
1F
100
AcDbEntity
  8
0
100
AcDbLine
 10
462.8805550346835
 20
332.2040924554519
 30
0.0
 11
467.3805550346835
 21
332.9540924554519
 31
0.0
  0
LINE
  5
32FD
330
1F
100
AcDbEntity
  8
0
100
AcDbLine
 10
462.8805550346835
 20
332.2040924554519
 30
0.0
 11
462.8805550346836
 21
335.9834783306654
 31
0.0
  0
LINE
  5
32FE
330
1F
100
AcDbEntity
  8
0
100
AcDbLine
 10
467.3805550346835
 20
332.2040924554519
 30
0.0
 11
467.3805550346838
 21
336.2503154709752
 31
0.0
  0
LINE
  5
32FF
330
1F
100
AcDbEntity
  8
0
100
AcDbLine
 10
467.3805550346835
 20
332.2040924554519
 30
0.0
 11
471.8805550346835
 21
332.9540924554519
 31
0.0
  0
LINE
  5
3300
330
1F
100
AcDbEntity
  8
0
100
AcDbLine
 10
471.8805550346835
 20
332.2040924554519
 30
0.0
 11
476.3805550346835
 21
332.9540924554519
 31
0.0
  0
LINE
  5
3301
330
1F
100
AcDbEntity
  8
0
100
AcDbLine
 10
471.8805550346835
 20
332.2040924554519
 30
0.0
 11
471.8805550346837
 21
336.3681521180364
 31
0.0
  0
LINE
  5
3302
330
1F
100
AcDbEntity
  8
0
100
AcDbLine
 10
476.3805550346835
 20
332.2040924554519
 30
0.0
 11
476.3805550346835
 21
336.4859887650977
 31
0.0
  0
LINE
  5
3303
330
1F
100
AcDbEntity
  8
0
100
AcDbLine
 10
476.3805550346835
 20
332.2040924554519
 30
0.0
 11
480.4627545283361
 21
332.8844590377273
 31
0.0
  0
LINE
  5
3305
330
1F
100
AcDbEntity
  8
AM_0
100
AcDbLine
 10
480.8805550346835
 20
343.7305289112604
 30
0.0
 11
480.8805550346833
 21
340.5043594987445
 31
0.0
  0
LINE
  5
3306
330
1F
100
AcDbEntity
  8
AM_0
100
AcDbLine
 10
480.8805550346833
 20
336.603825412159
 30
0.0
 11
480.8805550346835
 21
333.3776559996433
 31
0.0
  0
POINT
  5
3307
330
1F
100
AcDbEntity
  8
0
 60
     1
100
AcDbPoint
 10
384.282328591687
 20
428.9819614793574
 30
0.0
1001
GENIUS_GENOLIS_13
1002
{
1000
ENT
1005
0
1005
32F9
1002
}
1001
GENIUS_GENOENT_13
1002
{
1000
MYREF
1005
3307
1002
}
1002
{
1000
GRP
1005
0
1002
}
1001
GENIUS_GENOBJ-N-FIL_13
1002
{
1000
OWNER
1000
GEN
1002
}
1001
GENIUS_GENODEF_13
1002
{
1000
HIER
1070
     1
1002
}
1002
{
1000
MANEDIT
1070
     1
1002
}
1002
{
1000
NOSEL
1070
     0
1002
}
1002
{
1000
BEHIND
1070
     0
1002
}
1002
{
1000
OTHER
1070
     0
1002
}
1002
{
1000
REACTOR
1002
}
  0
POINT
  5
3308
330
1F
100
AcDbEntity
  8
0
 60
     1
100
AcDbPoint
 10
384.282328591687
 20
428.9819614793574
 30
0.0
1001
GENIUS_GENOLIS_13
1002
{
1000
ENT
1005
0
1005
32F6
1002
}
1001
GENIUS_GENOENT_13
1002
{
1000
MYREF
1005
3308
1002
}
1002
{
1000
GRP
1005
0
1002
}
1001
GENIUS_GENOBJ-N-CHA_13
1002
{
1000
OWNER
1000
GEN
1002
}
1001
GENIUS_GENODEF_13
1002
{
1000
HIER
1070
     1
1002
}
1002
{
1000
MANEDIT
1070
     1
1002
}
1002
{
1000
NOSEL
1070
     0
1002
}
1002
{
1000
BEHIND
1070
     0
1002
}
1002
{
1000
OTHER
1070
     0
1002
}
1002
{
1000
REACTOR
1002
}
  0
POINT
  5
3309
330
1F
100
AcDbEntity
  8
0
 60
     1
100
AcDbPoint
 10
384.282328591687
 20
305.692736114329
 30
0.0
1001
GENIUS_GENOLIS_13
1002
{
1000
ENT
1005
0
1005
32EA
1002
}
1001
GENIUS_GENOENT_13
1002
{
1000
MYREF
1005
3309
1002
}
1002
{
1000
GRP
1005
0
1002
}
1001
GENIUS_GENOBJ-N-FIL_13
1002
{
1000
OWNER
1000
GEN
1002
}
1001
GENIUS_GENODEF_13
1002
{
1000
HIER
1070
     1
1002
}
1002
{
1000
MANEDIT
1070
     1
1002
}
1002
{
1000
NOSEL
1070
     0
1002
}
1002
{
1000
BEHIND
1070
     0
1002
}
1002
{
1000
OTHER
1070
     0
1002
}
1002
{
1000
REACTOR
1002
}
  0
POINT
  5
330A
330
1F
100
AcDbEntity
  8
0
 60
     1
100
AcDbPoint
 10
384.282328591687
 20
305.692736114329
 30
0.0
1001
GENIUS_GENOLIS_13
1002
{
1000
ENT
1005
0
1005
32E7
1002
}
1001
GENIUS_GENOENT_13
1002
{
1000
MYREF
1005
330A
1002
}
1002
{
1000
GRP
1005
0
1002
}
1001
GENIUS_GENOBJ-N-CHA_13
1002
{
1000
OWNER
1000
GEN
1002
}
1001
GENIUS_GENODEF_13
1002
{
1000
HIER
1070
     1
1002
}
1002
{
1000
MANEDIT
1070
     1
1002
}
1002
{
1000
NOSEL
1070
     0
1002
}
1002
{
1000
BEHIND
1070
     0
1002
}
1002
{
1000
OTHER
1070
     0
1002
}
1002
{
1000
REACTOR
1002
}
  0
LINE
  5
330B
330
1F
100
AcDbEntity
  8
AM_0
100
AcDbLine
 10
458.3805550346835
 20
344.9040924554519
 30
0.0
 11
458.3805550346836
 21
343.3028020963897
 31
0.0
  0
LINE
  5
330C
330
1F
100
AcDbEntity
  8
AM_0
100
AcDbLine
 10
458.3805550346835
 20
333.8053828145141
 30
0.0
 11
458.3805550346835
 21
332.2040924554519
 31
0.0
  0
ARC
  5
363F
330
1F
100
AcDbEntity
  8
0
100
AcDbCircle
 10
480.3805550346837
 20
274.1458445244484
 30
0.0
 40
0.5
100
AcDbArc
 50
359.9999999999995
 51
80.53767779197437
  0
ARC
  5
3640
330
1F
100
AcDbEntity
  8
0
100
AcDbCircle
 10
480.3805550346837
 20
262.4929716128317
 30
0.0
 40
0.5
100
AcDbArc
 50
279.4623222080259
 51
0.0
  0
CIRCLE
  5
3661
330
1F
100
AcDbEntity
  8
AM_0
100
AcDbCircle
 10
512.3646957495919
 20
268.3194080686401
 30
0.0
 40
5.099999999999909
  0
CIRCLE
  5
3667
330
1F
100
AcDbEntity
  8
AM_0
100
AcDbCircle
 10
512.3646957495919
 20
268.3194080686401
 30
0.0
 40
5.836963770566512
  0
CIRCLE
  5
3668
330
1F
100
AcDbEntity
  8
AM_0
100
AcDbCircle
 10
512.3646957495918
 20
268.3194080686401
 30
0.0
 40
6.319633417724389
  0
CIRCLE
  5
3669
330
1F
100
AcDbEntity
  8
AM_0
100
AcDbCircle
 10
512.3646957495918
 20
268.3194080686401
 30
0.0
 40
11.74999999999983
  0
LINE
  5
390D
330
1F
100
AcDbEntity
  8
AM_0
100
AcDbLine
 10
424.7569434095501
 20
347.2897950602798
 30
0.0
 11
424.7569434095501
 21
351.0540924554519
 31
0.0
  0
LINE
  5
390E
330
1F
100
AcDbEntity
  8
AM_0
100
AcDbLine
 10
424.7569434095501
 20
329.818389850624
 30
0.0
 11
424.7569434095501
 21
326.0540924554519
 31
0.0
  0
LINE
  5
390F
330
1F
100
AcDbEntity
  8
AM_0
100
AcDbLine
 10
447.0041666598176
 20
347.2897950602798
 30
0.0
 11
447.0041666598177
 21
351.0540924554519
 31
0.0
  0
LINE
  5
3910
330
1F
100
AcDbEntity
  8
AM_0
100
AcDbLine
 10
447.0041666598176
 20
329.8183898506236
 30
0.0
 11
447.0041666598176
 21
326.0540924554519
 31
0.0
  0
LINE
  5
3911
330
1F
100
AcDbEntity
  8
AM_0
100
AcDbLine
 10
424.7569434095501
 20
347.2897950602798
 30
0.0
 11
433.7154915252226
 21
347.2897950602798
 31
0.0
  0
LINE
  5
3912
330
1F
100
AcDbEntity
  8
AM_0
100
AcDbLine
 10
438.0456185441452
 20
347.2897950602798
 30
0.0
 11
447.0041666598177
 21
347.2897950602798
 31
0.0
  0
LINE
  5
3913
330
1F
100
AcDbEntity
  8
AM_0
100
AcDbLine
 10
424.7569434095501
 20
329.818389850624
 30
0.0
 11
433.7154915252226
 21
329.818389850624
 31
0.0
  0
LINE
  5
3914
330
1F
100
AcDbEntity
  8
AM_0
100
AcDbLine
 10
438.0456185441452
 20
329.818389850624
 30
0.0
 11
447.0041666598177
 21
329.818389850624
 31
0.0
  0
ARC
  5
3915
330
1F
100
AcDbEntity
  8
AM_0
100
AcDbCircle
 10
447.9952917444318
 20
338.5540924554518
 30
0.0
 40
24.8260615751532
100
AcDbArc
 50
159.3978791883839
 51
200.6021208116161
  0
ARC
  5
3916
330
1F
100
AcDbEntity
  8
AM_0
100
AcDbCircle
 10
423.7658183249361
 20
338.5540924554518
 30
0.0
 40
24.8260615751532
100
AcDbArc
 50
339.3978791883839
 51
348.0328371024815
  0
ARC
  5
3917
330
1F
100
AcDbEntity
  8
AM_0
100
AcDbCircle
 10
423.7658183249361
 20
338.5540924554518
 30
0.0
 40
24.8260615751532
100
AcDbArc
 50
11.96716289751852
 51
20.60212081161611
  0
LINE
  5
39FA
330
1F
100
AcDbEntity
  8
0
100
AcDbLine
 10
520.7646957495919
 20
286.3194080686401
 30
0.0
 11
520.2646957495919
 21
286.8194080686401
 31
0.0
1001
GENIUS_GENFIL_13
1070
     0
1040
0.5
1040
0.5
1040
0.5000000000000009
1040
44.99999999999957
1000
~T
1001
GENIUS_GENOREF_13
1005
3A31
  0
LINE
  5
39FB
330
1F
100
AcDbEntity
  8
0
100
AcDbLine
 10
512.3646957495918
 20
286.8194080686401
 30
0.0
 11
520.2646957495919
 21
286.8194080686401
 31
0.0
  0
LINE
  5
39FC
330
1F
100
AcDbEntity
  8
0
100
AcDbLine
 10
517.3646957495918
 20
287.3194080686401
 30
0.0
 11
517.3646957495918
 21
286.8194080686401
 31
0.0
  0
LINE
  5
39FD
330
1F
100
AcDbEntity
  8
0
100
AcDbLine
 10
507.3646957495919
 20
287.3194080686401
 30
0.0
 11
507.3646957495919
 21
286.8194080686401
 31
0.0
  0
LINE
  5
39FE
330
1F
100
AcDbEntity
  8
0
100
AcDbLine
 10
512.3646957495918
 20
286.8194080686401
 30
0.0
 11
504.464695749592
 21
286.8194080686401
 31
0.0
  0
LINE
  5
39FF
330
1F
100
AcDbEntity
  8
0
100
AcDbLine
 10
504.464695749592
 20
286.8194080686401
 30
0.0
 11
503.964695749592
 21
286.3194080686401
 31
0.0
1001
GENIUS_GENFIL_13
1070
     0
1040
0.5
1040
0.5
1040
0.5000000000000009
1040
45.00000000000005
1000
~T
  0
LINE
  5
3A00
330
1F
100
AcDbEntity
  8
AM_0
100
AcDbLine
 10
520.7646957495919
 20
286.3194080686401
 30
0.0
 11
503.964695749592
 21
286.3194080686401
 31
0.0
  0
LINE
  5
3A01
330
1F
100
AcDbEntity
  8
0
100
AcDbLine
 10
504.5456932620141
 20
287.3194080686401
 30
0.0
 11
511.3646957495917
 21
287.3194080686401
 31
0.0
  0
LINE
  5
3A02
330
1F
100
AcDbEntity
  8
0
100
AcDbLine
 10
513.3646957495917
 20
287.3194080686401
 30
0.0
 11
520.1836982371694
 21
287.3194080686401
 31
0.0
  0
LINE
  5
3A03
330
1F
100
AcDbEntity
  8
0
100
AcDbLine
 10
503.3646957495917
 20
297.3194080686401
 30
0.0
 11
504.3466858239721
 21
287.4995073248359
 31
0.0
  0
LINE
  5
3A04
330
1F
100
AcDbEntity
  8
0
100
AcDbLine
 10
505.247477968129
 20
305.3194080686401
 30
0.0
 11
509.8646957495916
 21
305.3194080686401
 31
0.0
  0
LINE
  5
3A05
330
1F
100
AcDbEntity
  8
0
100
AcDbLine
 10
503.3646957495917
 20
297.3194080686401
 30
0.0
 11
504.2552000914154
 21
304.4434428032293
 31
0.0
  0
LINE
  5
3A06
330
1F
100
AcDbEntity
  8
0
100
AcDbLine
 10
521.3646957495917
 20
297.3194080686401
 30
0.0
 11
520.3827056752113
 21
287.4995073248359
 31
0.0
  0
LINE
  5
3A07
330
1F
100
AcDbEntity
  8
0
100
AcDbLine
 10
521.3646957495917
 20
297.3194080686401
 30
0.0
 11
520.4741914077681
 21
304.4434428032293
 31
0.0
  0
LINE
  5
3A08
330
1F
100
AcDbEntity
  8
0
100
AcDbLine
 10
513.3646957495917
 20
289.11940806864
 30
0.0
 11
504.1846957495918
 21
289.11940806864
 31
0.0
  0
LINE
  5
3A17
330
1F
100
AcDbEntity
  8
0
100
AcDbLine
 10
514.8646957495919
 20
305.3194080686401
 30
0.0
 11
519.4819135310544
 21
305.3194080686401
 31
0.0
  0
LINE
  5
3A23
330
1F
100
AcDbEntity
  8
0
100
AcDbLine
 10
513.3646957495917
 20
289.11940806864
 30
0.0
 11
513.3646957495917
 21
287.3194080686401
 31
0.0
  0
ARC
  5
3A24
330
1F
100
AcDbEntity
  8
0
100
AcDbCircle
 10
519.4819135310544
 20
304.3194080686401
 30
0.0
 40
1.0
100
AcDbArc
 50
7.125016348901797
 51
90.0
1001
GENIUS_GENOREF_13
1005
0
  0
ARC
  5
3A25
330
1F
100
AcDbEntity
  8
0
100
AcDbCircle
 10
505.247477968129
 20
304.3194080686401
 30
0.0
 40
1.0
100
AcDbArc
 50
90.0
 51
172.8749836510986
1001
GENIUS_GENODEF_13
1002
{
1000
HIER
1070
     0
1002
}
1002
{
1000
MANEDIT
1070
     0
1002
}
1002
{
1000
NOSEL
1070
     0
1002
}
1002
{
1000
BEHIND
1070
     0
1002
}
1002
{
1000
OTHER
1070
     0
1002
}
1002
{
1000
REACTOR
1002
}
1001
GENIUS_GENOBJ-N-FIL_13
1002
{
1000
OWNER
1000
GEN
1002
}
  0
ARC
  5
3A26
330
1F
100
AcDbEntity
  8
0
100
AcDbCircle
 10
504.5456932620141
 20
287.5194080686402
 30
0.0
 40
0.2
100
AcDbArc
 50
185.7105931375006
 51
270.0
1001
GENIUS_GENODEF_13
1002
{
1000
HIER
1070
     0
1002
}
1002
{
1000
MANEDIT
1070
     0
1002
}
1002
{
1000
NOSEL
1070
     0
1002
}
1002
{
1000
BEHIND
1070
     0
1002
}
1002
{
1000
OTHER
1070
     0
1002
}
1002
{
1000
REACTOR
1002
}
1001
GENIUS_GENOBJ-N-FIL_13
1002
{
1000
OWNER
1000
GEN
1002
}
  0
ARC
  5
3A27
330
1F
100
AcDbEntity
  8
0
100
AcDbCircle
 10
520.1836982371694
 20
287.51940806864
 30
0.0
 40
0.2
100
AcDbArc
 50
270.0
 51
354.2894068624997
1001
GENIUS_GENODEF_13
1002
{
1000
HIER
1070
     0
1002
}
1002
{
1000
MANEDIT
1070
     0
1002
}
1002
{
1000
NOSEL
1070
     0
1002
}
1002
{
1000
BEHIND
1070
     0
1002
}
1002
{
1000
OTHER
1070
     0
1002
}
1002
{
1000
REACTOR
1002
}
1001
GENIUS_GENOBJ-N-FIL_13
1002
{
1000
OWNER
1000
GEN
1002
}
  0
LINE
  5
3A29
330
1F
100
AcDbEntity
  8
AM_0
100
AcDbLine
 10
511.3646957495917
 20
286.8194080686402
 30
0.0
 11
511.3646957495917
 21
288.8194080686402
 31
0.0
  0
LINE
  5
3A2A
330
1F
100
AcDbEntity
  8
AM_0
100
AcDbLine
 10
511.3646957495917
 20
288.8194080686402
 30
0.0
 11
513.3646957495917
 21
288.8194080686402
 31
0.0
  0
LINE
  5
3A2B
330
1F
100
AcDbEntity
  8
AM_0
100
AcDbLine
 10
513.3646957495917
 20
288.8194080686402
 30
0.0
 11
513.3646957495917
 21
286.8194080686402
 31
0.0
  0
POINT
  5
3A31
330
1F
100
AcDbEntity
  8
0
 60
     1
100
AcDbPoint
 10
335.5782021866149
 20
175.5604276442074
 30
0.0
1001
GENIUS_GENODEF_13
1002
{
1000
HIER
1070
     1
1002
}
1002
{
1000
MANEDIT
1070
     0
1002
}
1002
{
1000
NOSEL
1070
     0
1002
}
1002
{
1000
BEHIND
1070
     0
1002
}
1002
{
1000
OTHER
1070
     0
1002
}
1002
{
1000
REACTOR
1002
}
1001
GENIUS_GENOLIS_13
1002
{
1000
ENT
1005
39FA
1002
}
1001
GENIUS_GENOENT_13
1002
{
1000
MYREF
1005
3A31
1002
}
1002
{
1000
GRP
1005
0
1002
}
1001
GENIUS_GENOBJ-N-CHA_13
1002
{
1000
OWNER
1000
GEN
1002
}
  0
LINE
  5
3B0D
330
1F
100
AcDbEntity
  8
0
100
AcDbLine
 10
430.8805550346839
 20
286.81940806864
 30
0.0
 11
427.980555034684
 21
286.8194080686401
 31
0.0
  0
LINE
  5
3B0E
330
1F
100
AcDbEntity
  8
0
100
AcDbLine
 10
430.880555034684
 20
287.3194080686401
 30
0.0
 11
430.8805550346839
 21
286.8194080686401
 31
0.0
  0
LINE
  5
3B0F
330
1F
100
AcDbEntity
  8
0
100
AcDbLine
 10
440.8805550346839
 20
286.81940806864
 30
0.0
 11
441.380555034684
 21
286.81940806864
 31
0.0
  0
LINE
  5
3B10
330
1F
100
AcDbEntity
  8
0
100
AcDbLine
 10
440.880555034684
 20
289.1194080686401
 30
0.0
 11
440.880555034684
 21
286.8194080686401
 31
0.0
  0
LINE
  5
3B11
330
1F
100
AcDbEntity
  8
AM_0
100
AcDbLine
 10
441.380555034684
 20
286.8194080686401
 30
0.0
 11
441.380555034684
 21
286.8194080686401
 31
0.0
  0
LINE
  5
3B12
330
1F
100
AcDbEntity
  8
AM_0
100
AcDbLine
 10
441.380555034684
 20
286.8194080686401
 30
0.0
 11
441.380555034684
 21
288.8194080686401
 31
0.0
  0
LINE
  5
3B13
330
1F
100
AcDbEntity
  8
AM_0
100
AcDbLine
 10
443.3805550346839
 20
288.8194080686401
 30
0.0
 11
443.3805550346839
 21
286.8194080686401
 31
0.0
  0
LINE
  5
3B14
330
1F
100
AcDbEntity
  8
0
100
AcDbLine
 10
444.2805550346839
 20
286.3194080686401
 30
0.0
 11
443.780555034684
 21
286.8194080686402
 31
0.0
1001
GENIUS_GENFIL_13
1070
     0
1040
0.5
1040
0.5
1040
0.5000000000000009
1040
44.99999999999957
1000
~T
1001
GENIUS_GENOREF_13
1005
3B40
  0
LINE
  5
3B15
330
1F
100
AcDbEntity
  8
0
100
AcDbLine
 10
443.3805550346839
 20
286.81940806864
 30
0.0
 11
443.3805550346839
 21
286.81940806864
 31
0.0
  0
LINE
  5
3B16
330
1F
100
AcDbEntity
  8
0
100
AcDbLine
 10
427.980555034684
 20
286.8194080686401
 30
0.0
 11
427.4805550346839
 21
286.3194080686401
 31
0.0
1001
GENIUS_GENFIL_13
1070
     0
1040
0.5
1040
0.5
1040
0.5000000000000009
1040
45.00000000000005
1000
~T
1001
GENIUS_GENOREF_13
1005
0
  0
LINE
  5
3B17
330
1F
100
AcDbEntity
  8
AM_0
100
AcDbLine
 10
443.780555034684
 20
286.8194080686402
 30
0.0
 11
443.3805550346839
 21
286.81940806864
 31
0.0
  0
LINE
  5
3B18
330
1F
100
AcDbEntity
  8
AM_7
100
AcDbLine
 10
424.5584434095501
 20
297.3147906367318
 30
0.0
 11
447.2026666598178
 21
297.3147906367318
 31
0.0
1001
GENIUS_GENODEF_13
1002
{
1000
HIER
1070
     0
1002
}
1002
{
1000
MANEDIT
1070
     0
1002
}
1002
{
1000
NOSEL
1070
     0
1002
}
1002
{
1000
BEHIND
1070
     0
1002
}
1002
{
1000
OTHER
1070
     0
1002
}
1002
{
1000
REACTOR
1002
}
1001
GENIUS_GENOBJ-N-CEN_13
1002
{
1000
OWNER
1000
GEN
1002
}
1001
GENIUS_GENCEN_19
1002
{
1040
1.397
1002
}
  0
LINE
  5
3B19
330
1F
100
AcDbEntity
  8
0
100
AcDbLine
 10
428.7633372532213
 20
305.3194080686401
 30
0.0
 11
442.9977728161467
 21
305.3194080686401
 31
0.0
  0
LINE
  5
3B1A
330
1F
100
AcDbEntity
  8
0
100
AcDbLine
 10
444.880555034684
 20
297.3194080686401
 30
0.0
 11
443.8985649603035
 21
287.4995073248359
 31
0.0
  0
LINE
  5
3B1B
330
1F
100
AcDbEntity
  8
0
100
AcDbLine
 10
444.880555034684
 20
297.3194080686401
 30
0.0
 11
443.9900506928603
 21
304.4434428032293
 31
0.0
  0
LINE
  5
3B1C
330
1F
100
AcDbEntity
  8
0
100
AcDbLine
 10
445.9123328839553
 20
303.8194080686401
 30
0.0
 11
446.380555034684
 21
303.8194080686401
 31
0.0
  0
ARC
  5
3B1D
330
1F
100
AcDbEntity
  8
0
100
AcDbCircle
 10
446.380555034684
 20
304.3194080686401
 30
0.0
 40
0.5
100
AcDbArc
 50
270.0
 51
323.1301023541579
1001
GENIUS_GENODEF_13
1002
{
1000
HIER
1070
     0
1002
}
1002
{
1000
MANEDIT
1070
     0
1002
}
1002
{
1000
NOSEL
1070
     0
1002
}
1002
{
1000
BEHIND
1070
     0
1002
}
1002
{
1000
OTHER
1070
     0
1002
}
1002
{
1000
REACTOR
1002
}
1001
GENIUS_GENOBJ-N-FIL_13
1002
{
1000
OWNER
1000
GEN
1002
}
  0
LINE
  5
3B1E
330
1F
100
AcDbEntity
  8
0
100
AcDbLine
 10
462.8786112336555
 20
296.8194080686402
 30
0.0
 11
490.8805550346839
 21
296.8194080686401
 31
0.0
  0
LINE
  5
3B1F
330
1F
100
AcDbEntity
  8
0
100
AcDbLine
 10
486.3277686301838
 20
307.5430148663901
 30
0.0
 11
491.3277686301839
 21
297.5430148663901
 31
0.0
  0
ARC
  5
3B20
330
1F
100
AcDbEntity
  8
0
100
AcDbCircle
 10
490.8805550346839
 20
297.3194080686401
 30
0.0
 40
0.5
100
AcDbArc
 50
270.0
 51
26.56505117707945
1001
GENIUS_GENODEF_13
1002
{
1000
HIER
1070
     0
1002
}
1002
{
1000
MANEDIT
1070
     0
1002
}
1002
{
1000
NOSEL
1070
     0
1002
}
1002
{
1000
BEHIND
1070
     0
1002
}
1002
{
1000
OTHER
1070
     0
1002
}
1002
{
1000
REACTOR
1002
}
1001
GENIUS_GENOBJ-N-FIL_13
1002
{
1000
OWNER
1000
GEN
1002
}
  0
LINE
  5
3B21
330
1F
100
AcDbEntity
  8
0
100
AcDbLine
 10
485.8805550346839
 20
307.8194080686401
 30
0.0
 11
449.8805550346839
 21
307.81940806864
 31
0.0
  0
ARC
  5
3B22
330
1F
100
AcDbEntity
  8
0
100
AcDbCircle
 10
485.8805550346839
 20
307.3194080686401
 30
0.0
 40
0.5
100
AcDbArc
 50
26.56505117707653
 51
90.0
1001
GENIUS_GENODEF_13
1002
{
1000
HIER
1070
     0
1002
}
1002
{
1000
MANEDIT
1070
     0
1002
}
1002
{
1000
NOSEL
1070
     0
1002
}
1002
{
1000
BEHIND
1070
     0
1002
}
1002
{
1000
OTHER
1070
     0
1002
}
1002
{
1000
REACTOR
1002
}
1001
GENIUS_GENOBJ-N-FIL_13
1002
{
1000
OWNER
1000
GEN
1002
}
  0
LINE
  5
3B23
330
1F
100
AcDbEntity
  8
0
100
AcDbLine
 10
449.4805550346839
 20
307.61940806864
 30
0.0
 11
446.780555034684
 21
304.0194080686401
 31
0.0
  0
ARC
  5
3B24
330
1F
100
AcDbEntity
  8
0
100
AcDbCircle
 10
449.8805550346839
 20
307.31940806864
 30
0.0
 40
0.5
100
AcDbArc
 50
90.0
 51
143.1301023541553
1001
GENIUS_GENODEF_13
1002
{
1000
HIER
1070
     0
1002
}
1002
{
1000
MANEDIT
1070
     0
1002
}
1002
{
1000
NOSEL
1070
     0
1002
}
1002
{
1000
BEHIND
1070
     0
1002
}
1002
{
1000
OTHER
1070
     0
1002
}
1002
{
1000
REACTOR
1002
}
1001
GENIUS_GENOBJ-N-FIL_13
1002
{
1000
OWNER
1000
GEN
1002
}
  0
LINE
  5
3B25
330
1F
100
AcDbEntity
  8
0
100
AcDbLine
 10
445.3930446353423
 20
303.3194080686401
 30
0.0
 11
445.3930446353423
 21
297.3194080686401
 31
0.0
  0
ARC
  5
3B26
330
1F
100
AcDbEntity
  8
0
100
AcDbCircle
 10
462.8786112336555
 20
267.3194080686401
 30
0.0
 40
29.5
100
AcDbArc
 50
90.0
 51
124.4399797185562
1001
GENIUS_GENOREF_13
1005
0
  0
ARC
  5
3B27
330
1F
100
AcDbEntity
  8
0
100
AcDbCircle
 10
445.9123328839553
 20
292.0609803501362
 30
0.0
 40
0.5
100
AcDbArc
 50
180.0
 51
304.4399797185517
1001
GENIUS_GENOREF_13
1005
0
1001
GENIUS_GENOBJ-N-FIL_13
1002
{
1000
OWNER
1000
GEN
1002
}
1001
GENIUS_GENODEF_13
1002
{
1000
HIER
1070
     0
1002
}
1002
{
1000
MANEDIT
1070
     0
1002
}
1002
{
1000
NOSEL
1070
     0
1002
}
1002
{
1000
BEHIND
1070
     0
1002
}
1002
{
1000
OTHER
1070
     0
1002
}
1002
{
1000
REACTOR
1002
}
  0
LINE
  5
3B28
330
1F
100
AcDbEntity
  8
0
100
AcDbLine
 10
445.3930446353423
 20
297.3194080686401
 30
0.0
 11
444.8236117457219
 21
296.7499751790198
 31
0.0
  0
ARC
  5
3B29
330
1F
100
AcDbEntity
  8
0
100
AcDbCircle
 10
442.9977728161467
 20
304.3194080686401
 30
0.0
 40
1.0
100
AcDbArc
 50
7.125016348901393
 51
90.0
1001
GENIUS_GENODEF_13
1002
{
1000
HIER
1070
     0
1002
}
1002
{
1000
MANEDIT
1070
     0
1002
}
1002
{
1000
NOSEL
1070
     0
1002
}
1002
{
1000
BEHIND
1070
     0
1002
}
1002
{
1000
OTHER
1070
     0
1002
}
1002
{
1000
REACTOR
1002
}
1001
GENIUS_GENOBJ-N-FIL_13
1002
{
1000
OWNER
1000
GEN
1002
}
  0
LINE
  5
3B2A
330
1F
100
AcDbEntity
  8
0
100
AcDbLine
 10
445.4123328839553
 20
303.3194080686401
 30
0.0
 11
445.4123328839553
 21
292.0609803501362
 31
0.0
  0
ARC
  5
3B2B
330
1F
100
AcDbEntity
  8
0
100
AcDbCircle
 10
445.9123328839553
 20
303.3194080686401
 30
0.0
 40
0.5
100
AcDbArc
 50
90.0
 51
180.0
1001
GENIUS_GENOBJ-N-FIL_13
1002
{
1000
OWNER
1000
GEN
1002
}
1001
GENIUS_GENODEF_13
1002
{
1000
HIER
1070
     0
1002
}
1002
{
1000
MANEDIT
1070
     0
1002
}
1002
{
1000
NOSEL
1070
     0
1002
}
1002
{
1000
BEHIND
1070
     0
1002
}
1002
{
1000
OTHER
1070
     0
1002
}
1002
{
1000
REACTOR
1002
}
  0
ARC
  5
3B2C
330
1F
100
AcDbEntity
  8
0
100
AcDbCircle
 10
462.8786112336555
 20
267.3194080686392
 30
0.0
 40
30.0
100
AcDbArc
 50
125.3949204298801
 51
128.4332063408488
  0
LINE
  5
3B2D
330
1F
100
AcDbEntity
  8
0
100
AcDbLine
 10
445.4123328839553
 20
303.3194080686401
 30
0.0
 11
444.1305550346839
 21
303.3194080686401
 31
0.0
  0
LINE
  5
3B2E
330
1F
100
AcDbEntity
  8
0
100
AcDbLine
 10
426.8805550346839
 20
297.3194080686401
 30
0.0
 11
427.8625451090643
 21
287.4995073248359
 31
0.0
  0
LINE
  5
3B2F
330
1F
100
AcDbEntity
  8
0
100
AcDbLine
 10
426.8805550346839
 20
297.3194080686401
 30
0.0
 11
427.7710593765077
 21
304.4434428032293
 31
0.0
  0
ARC
  5
3B30
330
1F
100
AcDbEntity
  8
0
100
AcDbCircle
 10
428.7633372532212
 20
304.3194080686401
 30
0.0
 40
1.0
100
AcDbArc
 50
90.0
 51
172.8749836510986
1001
GENIUS_GENODEF_13
1002
{
1000
HIER
1070
     0
1002
}
1002
{
1000
MANEDIT
1070
     0
1002
}
1002
{
1000
NOSEL
1070
     0
1002
}
1002
{
1000
BEHIND
1070
     0
1002
}
1002
{
1000
OTHER
1070
     0
1002
}
1002
{
1000
REACTOR
1002
}
1001
GENIUS_GENOBJ-N-FIL_13
1002
{
1000
OWNER
1000
GEN
1002
}
  0
LINE
  5
3B31
330
1F
100
AcDbEntity
  8
0
100
AcDbLine
 10
430.8805550346839
 20
287.3194080686401
 30
0.0
 11
430.8805550346839
 21
286.8194080686401
 31
0.0
  0
LINE
  5
3B32
330
1F
100
AcDbEntity
  8
0
100
AcDbLine
 10
440.8805550346839
 20
286.81940806864
 30
0.0
 11
443.3805550346839
 21
286.81940806864
 31
0.0
  0
LINE
  5
3B33
330
1F
100
AcDbEntity
  8
0
100
AcDbLine
 10
440.880555034684
 20
289.1194080686401
 30
0.0
 11
440.880555034684
 21
286.8194080686401
 31
0.0
  0
LINE
  5
3B34
330
1F
100
AcDbEntity
  8
AM_0
100
AcDbLine
 10
441.380555034684
 20
286.8194080686401
 30
0.0
 11
441.380555034684
 21
289.1194080686401
 31
0.0
  0
LINE
  5
3B35
330
1F
100
AcDbEntity
  8
AM_0
100
AcDbLine
 10
443.3805550346839
 20
289.1194080686401
 30
0.0
 11
443.3805550346839
 21
286.8194080686401
 31
0.0
  0
LINE
  5
3B36
330
1F
100
AcDbEntity
  8
0
100
AcDbLine
 10
428.0615525471064
 20
287.3194080686401
 30
0.0
 11
434.8805550346839
 21
287.3194080686401
 31
0.0
  0
LINE
  5
3B37
330
1F
100
AcDbEntity
  8
0
100
AcDbLine
 10
443.3805550346839
 20
287.3194080686401
 30
0.0
 11
443.6995575222615
 21
287.3194080686401
 31
0.0
  0
ARC
  5
3B38
330
1F
100
AcDbEntity
  8
0
100
AcDbCircle
 10
443.6995575222615
 20
287.5194080686401
 30
0.0
 40
0.2
100
AcDbArc
 50
270.0
 51
354.2894068624994
1001
GENIUS_GENOBJ-N-FIL_13
1002
{
1000
OWNER
1000
GEN
1002
}
1001
GENIUS_GENODEF_13
1002
{
1000
HIER
1070
     0
1002
}
1002
{
1000
MANEDIT
1070
     0
1002
}
1002
{
1000
NOSEL
1070
     0
1002
}
1002
{
1000
BEHIND
1070
     0
1002
}
1002
{
1000
OTHER
1070
     0
1002
}
1002
{
1000
REACTOR
1002
}
  0
LINE
  5
3B39
330
1F
100
AcDbEntity
  8
0
100
AcDbLine
 10
434.8805550346839
 20
289.1194080686401
 30
0.0
 11
444.0605550346839
 21
289.1194080686401
 31
0.0
  0
ARC
  5
3B3A
330
1F
100
AcDbEntity
  8
0
100
AcDbCircle
 10
428.0615525471064
 20
287.5194080686401
 30
0.0
 40
0.2
100
AcDbArc
 50
185.7105931375006
 51
270.0
1001
GENIUS_GENOBJ-N-FIL_13
1002
{
1000
OWNER
1000
GEN
1002
}
1001
GENIUS_GENODEF_13
1002
{
1000
HIER
1070
     0
1002
}
1002
{
1000
MANEDIT
1070
     0
1002
}
1002
{
1000
NOSEL
1070
     0
1002
}
1002
{
1000
BEHIND
1070
     0
1002
}
1002
{
1000
OTHER
1070
     0
1002
}
1002
{
1000
REACTOR
1002
}
  0
LINE
  5
3B3B
330
1F
100
AcDbEntity
  8
0
100
AcDbLine
 10
440.8805550346839
 20
287.3147906367317
 30
0.0
 11
440.880555034684
 21
286.8194080686401
 31
0.0
  0
LINE
  5
3B3C
330
1F
100
AcDbEntity
  8
0
100
AcDbLine
 10
430.8805550346838
 20
287.3147906367317
 30
0.0
 11
430.8805550346838
 21
286.81940806864
 31
0.0
  0
LINE
  5
3B3D
330
1F
100
AcDbEntity
  8
AM_0
100
AcDbLine
 10
434.8805550346839
 20
287.3194080686401
 30
0.0
 11
434.8805550346839
 21
289.11940806864
 31
0.0
  0
LINE
  5
3B3E
330
1F
100
AcDbEntity
  8
AM_0
100
AcDbLine
 10
430.8805550346839
 20
286.81940806864
 30
0.0
 11
440.880555034684
 21
286.8194080686422
 31
0.0
  0
LINE
  5
3B3F
330
1F
100
AcDbEntity
  8
AM_0
100
AcDbLine
 10
427.4805550346839
 20
286.3194080686401
 30
0.0
 11
444.2805550346839
 21
286.3194080686401
 31
0.0
  0
POINT
  5
3B40
330
1F
100
AcDbEntity
  8
0
 60
     1
100
AcDbPoint
 10
128.2083069569324
 20
50.53350709544367
 30
0.0
1001
GENIUS_GENODEF_13
1002
{
1000
HIER
1070
     1
1002
}
1002
{
1000
MANEDIT
1070
     0
1002
}
1002
{
1000
NOSEL
1070
     0
1002
}
1002
{
1000
BEHIND
1070
     0
1002
}
1002
{
1000
OTHER
1070
     0
1002
}
1002
{
1000
REACTOR
1002
}
1001
GENIUS_GENOLIS_13
1002
{
1000
ENT
1005
3B14
1002
}
1001
GENIUS_GENOENT_13
1002
{
1000
MYREF
1005
3B40
1002
}
1002
{
1000
GRP
1005
0
1002
}
1001
GENIUS_GENOBJ-N-CHA_13
1002
{
1000
OWNER
1000
GEN
1002
}
  0
LINE
  5
3BF0
330
1F
100
AcDbEntity
  8
AM_0
100
AcDbLine
 10
422.8805550346839
 20
280.3194080686401
 30
0.0
 11
422.8805550346838
 21
256.3194080686401
 31
0.0
  0
LINE
  5
3BF1
330
1F
100
AcDbEntity
  8
AM_0
100
AcDbLine
 10
448.8805550346838
 20
280.3194080686401
 30
0.0
 11
448.8805550346841
 21
256.3194080686406
 31
0.0
  0
ARC
  5
3BF2
330
1F
100
AcDbEntity
  8
AM_0
100
AcDbCircle
 10
447.996284805195
 20
268.31940806864
 30
0.0
 40
24.8269911286757
100
AcDbArc
 50
159.3986856141166
 51
200.6013143858834
  0
ARC
  5
3BF3
330
1F
100
AcDbEntity
  8
AM_0
100
AcDbCircle
 10
423.7648252641729
 20
268.31940806864
 30
0.0
 40
24.8269911286757
100
AcDbArc
 50
339.3986856141167
 51
20.60131438588333
  0
LINE
  5
3BF4
330
1F
100
AcDbEntity
  8
AM_0
100
AcDbLine
 10
424.7569434095501
 20
280.8194080686401
 30
0.0
 11
424.7569434095501
 21
277.0551106734686
 31
0.0
  0
LINE
  5
3BF5
330
1F
100
AcDbEntity
  8
AM_0
100
AcDbLine
 10
424.7569434095501
 20
259.5837054638116
 30
0.0
 11
424.7569434095501
 21
255.8194080686401
 31
0.0
  0
LINE
  5
3BF6
330
1F
100
AcDbEntity
  8
AM_0
100
AcDbLine
 10
424.7569434095501
 20
277.0551106734686
 30
0.0
 11
435.880555034684
 21
277.0551106734686
 31
0.0
  0
LINE
  5
3BF7
330
1F
100
AcDbEntity
  8
AM_0
100
AcDbLine
 10
424.7569434095501
 20
259.5837054638117
 30
0.0
 11
435.880555034684
 21
259.5837054638116
 31
0.0
  0
LINE
  5
3BF8
330
1F
100
AcDbEntity
  8
AM_0
100
AcDbLine
 10
447.0041666598178
 20
280.8194080686401
 30
0.0
 11
447.0041666598178
 21
277.0551106734686
 31
0.0
  0
LINE
  5
3BF9
330
1F
100
AcDbEntity
  8
AM_0
100
AcDbLine
 10
447.0041666598178
 20
259.5837054638116
 30
0.0
 11
447.0041666598178
 21
255.8194080686401
 31
0.0
  0
LINE
  5
3BFA
330
1F
100
AcDbEntity
  8
AM_0
100
AcDbLine
 10
447.0041666598178
 20
277.0551106734686
 30
0.0
 11
435.880555034684
 21
277.0551106734686
 31
0.0
  0
LINE
  5
3BFB
330
1F
100
AcDbEntity
  8
AM_0
100
AcDbLine
 10
447.0041666598178
 20
259.5837054638117
 30
0.0
 11
435.880555034684
 21
259.5837054638116
 31
0.0
  0
MTEXT
  5
3BFC
330
1F
100
AcDbEntity
  8
AM_0
100
AcDbMText
 10
499.2747182697878
 20
339.6155421178069
 30
0.0
 40
1.6
 41
27.71199282626037
 71
     1
 72
     5
  1
{\fMS Gothic|b0|i0|c128|p49;エースボールZERO　BH-0414}
 73
     1
 44
1.0
1001
ACAD
1000
ACAD_MTEXT_COLUMN_INFO_BEGIN
1070
    75
1070
     2
1070
    79
1070
     0
1070
    76
1070
     1
1070
    78
1070
     0
1070
    48
1040
27.71199282626037
1070
    49
1040
7.5
1070
    50
1070
     1
1040
0.0
1000
ACAD_MTEXT_COLUMN_INFO_END
1000
MTEXTBEGIN
1070
    73
1070
     1
1070
    44
1040
1.0
1070
    74
1070
     0
1000
MTEXTEND
  0
LINE
  5
3C98
330
1F
100
AcDbEntity
  8
AM_0
100
AcDbLine
 10
476.3805550346837
 20
274.5694080686399
 30
0.0
 11
476.3805550346837
 21
262.06940806864
 31
0.0
  0
LINE
  5
3C99
330
1F
100
AcDbEntity
  8
AM_0
100
AcDbLine
 10
471.8805550346838
 20
274.5694080686399
 30
0.0
 11
471.8805550346838
 21
262.06940806864
 31
0.0
  0
LINE
  5
3C9A
330
1F
100
AcDbEntity
  8
AM_0
100
AcDbLine
 10
467.3805550346838
 20
274.5694080686399
 30
0.0
 11
467.3805550346838
 21
262.06940806864
 31
0.0
  0
LINE
  5
3C9B
330
1F
100
AcDbEntity
  8
AM_0
100
AcDbLine
 10
462.8805550346838
 20
274.5694080686399
 30
0.0
 11
462.8805550346838
 21
262.06940806864
 31
0.0
  0
LINE
  5
3C9C
330
1F
100
AcDbEntity
  8
AM_0
100
AcDbLine
 10
458.3805550346837
 20
275.3194080686399
 30
0.0
 11
458.3805550346837
 21
261.31940806864
 31
0.0
  0
LINE
  5
3C9D
330
1F
100
AcDbEntity
  8
AM_0
100
AcDbLine
 10
451.8805550346837
 20
275.3194080686399
 30
0.0
 11
451.8805550346837
 21
261.31940806864
 31
0.0
  0
LINE
  5
3C9E
330
1F
100
AcDbEntity
  8
AM_0
100
AcDbLine
 10
451.6305550346837
 20
280.3194080686399
 30
0.0
 11
451.6305550346837
 21
256.31940806864
 31
0.0
  0
LINE
  5
3C9F
330
1F
100
AcDbEntity
  8
AM_0
100
AcDbLine
 10
427.230555034684
 20
280.8194080686401
 30
0.0
 11
444.5305550346839
 21
280.8194080686401
 31
0.0
  0
LINE
  5
3CA0
330
1F
100
AcDbEntity
  8
AM_0
100
AcDbLine
 10
420.630555034684
 20
280.3194080686401
 30
0.0
 11
420.630555034684
 21
256.3194080686401
 31
0.0
  0
LINE
  5
3CA1
330
1F
100
AcDbEntity
  8
AM_0
100
AcDbLine
 10
420.3805550346839
 20
278.9145253530809
 30
0.0
 11
420.3805550346839
 21
257.7242907841992
 31
0.0
  0
LINE
  5
3CA2
330
1F
100
AcDbEntity
  8
AM_0
100
AcDbLine
 10
419.1818772287601
 20
277.7158475471572
 30
0.0
 11
419.18187722876
 21
258.922968590123
 31
0.0
  0
LINE
  5
3CA3
330
1F
100
AcDbEntity
  8
AM_0
100
AcDbLine
 10
411.0836734852971
 20
277.4680542337528
 30
0.0
 11
411.0836734852971
 21
259.1707619035273
 31
0.0
  0
LINE
  5
3DFE
330
1F
100
AcDbEntity
  8
0
100
AcDbLine
 10
443.3930446353423
 20
341.3040924554518
 30
0.0
 11
444.6734658409646
 21
342.5845136610741
 31
0.0
  0
ARC
  5
3DFF
330
1F
100
AcDbEntity
  8
AM_0
100
AcDbCircle
 10
444.3199124503713
 20
342.9380670516674
 30
0.0
 40
0.5
100
AcDbArc
 50
315.0
 51
15.00000000000158
1001
GENIUS_GENOBJ-N-FIL_13
1002
{
1000
OWNER
1000
GEN
1002
}
1001
GENIUS_GENODEF_13
1002
{
1000
HIER
1070
     0
1002
}
1002
{
1000
MANEDIT
1070
     0
1002
}
1002
{
1000
NOSEL
1070
     0
1002
}
1002
{
1000
BEHIND
1070
     0
1002
}
1002
{
1000
OTHER
1070
     0
1002
}
1002
{
1000
REACTOR
1002
}
  0
ARC
  5
3E00
330
1F
100
AcDbEntity
  8
AM_0
100
AcDbCircle
 10
445.2858382766603
 20
343.19688609677
 30
0.0
 40
0.5
100
AcDbArc
 50
135.0000000000092
 51
195.0000000000016
1001
GENIUS_GENOBJ-N-FIL_13
1002
{
1000
OWNER
1000
GEN
1002
}
1001
GENIUS_GENODEF_13
1002
{
1000
HIER
1070
     0
1002
}
1002
{
1000
MANEDIT
1070
     0
1002
}
1002
{
1000
NOSEL
1070
     0
1002
}
1002
{
1000
BEHIND
1070
     0
1002
}
1002
{
1000
OTHER
1070
     0
1002
}
1002
{
1000
REACTOR
1002
}
  0
LINE
  5
3E01
330
1F
100
AcDbEntity
  8
0
100
AcDbLine
 10
444.9322848860671
 20
343.5504394873631
 30
0.0
 11
445.0394912447486
 21
343.6576458460448
 31
0.0
  0
LINE
  5
3E02
330
1F
100
AcDbEntity
  8
0
100
AcDbLine
 10
489.9198204571458
 20
340.267658003349
 30
0.0
 11
449.8805550346839
 21
341.3161230673891
 31
0.0
  0
ARC
  5
3E03
330
1F
100
AcDbEntity
  8
0
100
AcDbCircle
 10
489.8591821470908
 20
338.7257191988714
 30
0.0
 40
1.543130675412849
100
AcDbArc
 50
349.5648211210672
 51
87.74794574189874
1001
GENIUS_GENOBJ-N-FIL_13
1002
{
1000
OWNER
1000
GEN
1002
}
1001
GENIUS_GENODEF_13
1002
{
1000
HIER
1070
     0
1002
}
1002
{
1000
MANEDIT
1070
     0
1002
}
1002
{
1000
NOSEL
1070
     0
1002
}
1002
{
1000
BEHIND
1070
     0
1002
}
1002
{
1000
OTHER
1070
     0
1002
}
1002
{
1000
REACTOR
1002
}
  0
ARC
  5
3E04
330
1F
100
AcDbEntity
  8
0
100
AcDbCircle
 10
464.820391865222
 20
350.4260398057946
 30
0.0
 40
9.501461292977676
100
AcDbArc
 50
229.6482876083751
 51
270.0744153049531
  0
ARC
  5
3E05
330
1F
100
AcDbEntity
  8
0
100
AcDbCircle
 10
458.3446566498216
 20
342.8040924554519
 30
0.0
 40
0.5
100
AcDbArc
 50
49.64671982712649
 51
87.78918095219458
1001
GENIUS_GENODEF_13
1002
{
1000
HIER
1070
     0
1002
}
1002
{
1000
MANEDIT
1070
     0
1002
}
1002
{
1000
NOSEL
1070
     0
1002
}
1002
{
1000
BEHIND
1070
     0
1002
}
1002
{
1000
OTHER
1070
     0
1002
}
1002
{
1000
REACTOR
1002
}
1001
GENIUS_GENOBJ-N-FIL_13
1002
{
1000
OWNER
1000
GEN
1002
}
  0
LINE
  5
3E06
330
1F
100
AcDbEntity
  8
0
100
AcDbLine
 10
443.3930446353423
 20
335.8040924554519
 30
0.0
 11
444.6859378541558
 21
334.5111992366384
 31
0.0
  0
ARC
  5
3E07
330
1F
100
AcDbEntity
  8
AM_0
100
AcDbCircle
 10
444.3323844635625
 20
334.1576458460452
 30
0.0
 40
0.5
100
AcDbArc
 50
344.9999999999984
 51
45.0
1001
GENIUS_GENOBJ-N-FIL_13
1002
{
1000
OWNER
1000
GEN
1002
}
1001
GENIUS_GENODEF_13
1002
{
1000
HIER
1070
     0
1002
}
1002
{
1000
MANEDIT
1070
     0
1002
}
1002
{
1000
NOSEL
1070
     0
1002
}
1002
{
1000
BEHIND
1070
     0
1002
}
1002
{
1000
OTHER
1070
     0
1002
}
1002
{
1000
REACTOR
1002
}
  0
ARC
  5
3E08
330
1F
100
AcDbEntity
  8
AM_0
100
AcDbCircle
 10
445.2983102898516
 20
333.8988268009426
 30
0.0
 40
0.5
100
AcDbArc
 50
164.9999999999984
 51
224.9999999999862
1001
GENIUS_GENOBJ-N-FIL_13
1002
{
1000
OWNER
1000
GEN
1002
}
1001
GENIUS_GENODEF_13
1002
{
1000
HIER
1070
     0
1002
}
1002
{
1000
MANEDIT
1070
     0
1002
}
1002
{
1000
NOSEL
1070
     0
1002
}
1002
{
1000
BEHIND
1070
     0
1002
}
1002
{
1000
OTHER
1070
     0
1002
}
1002
{
1000
REACTOR
1002
}
  0
LINE
  5
3E09
330
1F
100
AcDbEntity
  8
0
100
AcDbLine
 10
444.9447568992581
 20
333.5452734103493
 30
0.0
 11
445.039491244749
 21
333.4505390648585
 31
0.0
  0
ARC
  5
3E0A
330
1F
100
AcDbEntity
  8
0
100
AcDbCircle
 10
445.3930446353422
 20
333.8040924554519
 30
0.0
 40
0.5
100
AcDbArc
 50
225.0000000000046
 51
272.2108190478087
1001
GENIUS_GENOBJ-N-FIL_13
1002
{
1000
OWNER
1000
GEN
1002
}
1001
GENIUS_GENODEF_13
1002
{
1000
HIER
1070
     0
1002
}
1002
{
1000
MANEDIT
1070
     0
1002
}
1002
{
1000
NOSEL
1070
     0
1002
}
1002
{
1000
BEHIND
1070
     0
1002
}
1002
{
1000
OTHER
1070
     0
1002
}
1002
{
1000
REACTOR
1002
}
  0
LINE
  5
3E0B
330
1F
100
AcDbEntity
  8
0
100
AcDbLine
 10
445.4123328839552
 20
333.3044646305006
 30
0.0
 11
458.3639448984349
 21
333.8044646305007
 31
0.0
  0
LINE
  5
3E0C
330
1F
100
AcDbEntity
  8
0
100
AcDbLine
 10
489.9198204571458
 20
336.8405269075547
 30
0.0
 11
449.8805550346839
 21
335.7920618435147
 31
0.0
  0
ARC
  5
3E0D
330
1F
100
AcDbEntity
  8
0
100
AcDbCircle
 10
489.880555034684
 20
338.3400128950181
 30
0.0
 40
1.5
100
AcDbArc
 50
271.4999999999995
 51
4.060314227645566
1001
GENIUS_GENOBJ-N-FIL_13
1002
{
1000
OWNER
1000
GEN
1002
}
1001
GENIUS_GENODEF_13
1002
{
1000
HIER
1070
     0
1002
}
1002
{
1000
MANEDIT
1070
     0
1002
}
1002
{
1000
NOSEL
1070
     0
1002
}
1002
{
1000
BEHIND
1070
     0
1002
}
1002
{
1000
OTHER
1070
     0
1002
}
1002
{
1000
REACTOR
1002
}
  0
ARC
  5
3E0E
330
1F
100
AcDbEntity
  8
0
100
AcDbCircle
 10
464.820391865222
 20
326.682145105109
 30
0.0
 40
9.501461292977817
100
AcDbArc
 50
89.92558469504693
 51
130.3517123916224
  0
ARC
  5
3E0F
330
1F
100
AcDbEntity
  8
0
100
AcDbCircle
 10
458.3446566498217
 20
334.3040924554519
 30
0.0
 40
0.5
100
AcDbArc
 50
272.2108190478184
 51
310.3532801728781
1001
GENIUS_GENODEF_13
1002
{
1000
HIER
1070
     0
1002
}
1002
{
1000
MANEDIT
1070
     0
1002
}
1002
{
1000
NOSEL
1070
     0
1002
}
1002
{
1000
BEHIND
1070
     0
1002
}
1002
{
1000
OTHER
1070
     0
1002
}
1002
{
1000
REACTOR
1002
}
1001
GENIUS_GENOBJ-N-FIL_13
1002
{
1000
OWNER
1000
GEN
1002
}
  0
LINE
  5
3E11
330
1F
100
AcDbEntity
  8
0
100
AcDbLine
 10
445.4123328839552
 20
343.803720280403
 30
0.0
 11
458.3639448984347
 21
343.303720280403
 31
0.0
  0
ARC
  5
3E12
330
1F
100
AcDbEntity
  8
0
100
AcDbCircle
 10
445.3930446353422
 20
343.3040924554518
 30
0.0
 40
0.5
100
AcDbArc
 50
87.78918095219133
 51
135.000000000046
1001
GENIUS_GENODEF_13
1002
{
1000
HIER
1070
     0
1002
}
1002
{
1000
MANEDIT
1070
     0
1002
}
1002
{
1000
NOSEL
1070
     0
1002
}
1002
{
1000
BEHIND
1070
     0
1002
}
1002
{
1000
OTHER
1070
     0
1002
}
1002
{
1000
REACTOR
1002
}
1001
GENIUS_GENOBJ-N-FIL_13
1002
{
1000
OWNER
1000
GEN
1002
}
  0
LINE
  5
3E13
330
1F
100
AcDbEntity
  8
AM_0
100
AcDbLine
 10
449.8805550346839
 20
341.3161230673891
 30
0.0
 11
445.9123328839553
 21
341.3161230673891
 31
0.0
  0
ARC
  5
3E14
330
1F
100
AcDbEntity
  8
AM_0
100
AcDbCircle
 10
445.9123328839553
 20
340.8161230673891
 30
0.0
 40
0.5
100
AcDbArc
 50
90.0
 51
180.0
  0
LINE
  5
3E15
330
1F
100
AcDbEntity
  8
AM_0
100
AcDbLine
 10
449.8805550346839
 20
335.7920618435147
 30
0.0
 11
445.9123328839553
 21
335.7920618435147
 31
0.0
  0
LINE
  5
3E16
330
1F
100
AcDbEntity
  8
AM_0
100
AcDbLine
 10
445.4123328839553
 20
341.1811106831545
 30
0.0
 11
445.4123328839553
 21
335.9260364397302
 31
0.0
  0
ARC
  5
3E17
330
1F
100
AcDbEntity
  8
AM_0
100
AcDbCircle
 10
444.9123328839553
 20
335.9260364397302
 30
0.0
 40
0.5
100
AcDbArc
 50
329.9999999999995
 51
0.0
  0
ARC
  5
3E18
330
1F
100
AcDbEntity
  8
AM_0
100
AcDbCircle
 10
445.9123328839553
 20
336.2920618435147
 30
0.0
 40
0.5
100
AcDbArc
 50
180.0
 51
270.0
  0
LINE
  5
3E19
330
1F
100
AcDbEntity
  8
AM_0
100
AcDbLine
 10
445.3443745778648
 20
341.432785025756
 30
0.0
 11
444.6734658409646
 21
342.5845136610741
 31
0.0
  0
ARC
  5
3E1A
330
1F
100
AcDbEntity
  8
AM_0
100
AcDbCircle
 10
444.9123328839553
 20
341.1811106831545
 30
0.0
 40
0.5
100
AcDbArc
 50
0.0
 51
30.22179563549432
  0
LINE
  5
3E1B
330
1F
100
AcDbEntity
  8
AM_0
100
AcDbLine
 10
445.3453455858475
 20
335.6760364397302
 30
0.0
 11
444.6859028651239
 21
334.5338481427554
 31
0.0
  0
LINE
  5
3EE0
330
1F
100
AcDbEntity
  8
0
100
AcDbLine
 10
510.3646957495916
 20
307.8194080686401
 30
0.0
 11
514.3646957495918
 21
307.81940806864
 31
0.0
  0
ARC
  5
3EE1
330
1F
100
AcDbEntity
  8
AM_0
100
AcDbCircle
 10
513.578261297489
 20
307.31940806864
 30
0.0
 40
0.5
100
AcDbArc
 50
0.0
 51
89.99999999999674
1001
GENIUS_GENODEF_13
1002
{
1000
HIER
1070
     0
1002
}
1002
{
1000
MANEDIT
1070
     0
1002
}
1002
{
1000
NOSEL
1070
     0
1002
}
1002
{
1000
BEHIND
1070
     0
1002
}
1002
{
1000
OTHER
1070
     0
1002
}
1002
{
1000
REACTOR
1002
}
1001
GENIUS_GENOBJ-N-FIL_13
1002
{
1000
OWNER
1000
GEN
1002
}
  0
ARC
  5
3EE2
330
1F
100
AcDbEntity
  8
0
100
AcDbCircle
 10
514.3646957495918
 20
307.31940806864
 30
0.0
 40
0.5
100
AcDbArc
 50
0.0
 51
90.0
1001
GENIUS_GENOBJ-N-FIL_13
1002
{
1000
OWNER
1000
GEN
1002
}
1001
GENIUS_GENODEF_13
1002
{
1000
HIER
1070
     0
1002
}
1002
{
1000
MANEDIT
1070
     0
1002
}
1002
{
1000
NOSEL
1070
     0
1002
}
1002
{
1000
BEHIND
1070
     0
1002
}
1002
{
1000
OTHER
1070
     0
1002
}
1002
{
1000
REACTOR
1002
}
  0
ARC
  5
3EE3
330
1F
100
AcDbEntity
  8
0
100
AcDbCircle
 10
510.3646957495916
 20
307.3194080686401
 30
0.0
 40
0.5
100
AcDbArc
 50
90.0
 51
180.0
1001
GENIUS_GENODEF_13
1002
{
1000
HIER
1070
     0
1002
}
1002
{
1000
MANEDIT
1070
     0
1002
}
1002
{
1000
NOSEL
1070
     0
1002
}
1002
{
1000
BEHIND
1070
     0
1002
}
1002
{
1000
OTHER
1070
     0
1002
}
1002
{
1000
REACTOR
1002
}
1001
GENIUS_GENOBJ-N-FIL_13
1002
{
1000
OWNER
1000
GEN
1002
}
  0
LINE
  5
3EE4
330
1F
100
AcDbEntity
  8
0
100
AcDbLine
 10
514.8646957495919
 20
307.31940806864
 30
0.0
 11
514.8646957495919
 21
304.3194080686401
 31
0.0
  0
ARC
  5
3EE5
330
1F
100
AcDbEntity
  8
0
100
AcDbCircle
 10
515.3646957495919
 20
304.3194080686401
 30
0.0
 40
0.5
100
AcDbArc
 50
180.0
 51
270.0
1001
GENIUS_GENODEF_13
1002
{
1000
HIER
1070
     0
1002
}
1002
{
1000
MANEDIT
1070
     0
1002
}
1002
{
1000
NOSEL
1070
     0
1002
}
1002
{
1000
BEHIND
1070
     0
1002
}
1002
{
1000
OTHER
1070
     0
1002
}
1002
{
1000
REACTOR
1002
}
1001
GENIUS_GENOBJ-N-FIL_13
1002
{
1000
OWNER
1000
GEN
1002
}
  0
LINE
  5
3EE6
330
1F
100
AcDbEntity
  8
0
100
AcDbLine
 10
509.8646957495916
 20
307.3194080686401
 30
0.0
 11
509.8646957495916
 21
304.3194080686401
 31
0.0
  0
LINE
  5
3EE7
330
1F
100
AcDbEntity
  8
0
100
AcDbLine
 10
515.3646957495919
 20
303.8194080686401
 30
0.0
 11
517.1146957495916
 21
303.8194080686401
 31
0.0
  0
ARC
  5
3EE8
330
1F
100
AcDbEntity
  8
0
100
AcDbCircle
 10
517.1146957495916
 20
303.3194080686401
 30
0.0
 40
0.5
100
AcDbArc
 50
0.0
 51
90.0
1001
GENIUS_GENODEF_13
1002
{
1000
HIER
1070
     0
1002
}
1002
{
1000
MANEDIT
1070
     0
1002
}
1002
{
1000
NOSEL
1070
     0
1002
}
1002
{
1000
BEHIND
1070
     0
1002
}
1002
{
1000
OTHER
1070
     0
1002
}
1002
{
1000
REACTOR
1002
}
1001
GENIUS_GENOBJ-N-FIL_13
1002
{
1000
OWNER
1000
GEN
1002
}
  0
LINE
  5
3EE9
330
1F
100
AcDbEntity
  8
0
100
AcDbLine
 10
517.6146957495916
 20
303.3194080686401
 30
0.0
 11
517.6146957495916
 21
297.3194080686401
 31
0.0
  0
LINE
  5
3EEA
330
1F
100
AcDbEntity
  8
0
100
AcDbLine
 10
512.3646957495918
 20
290.8194080686401
 30
0.0
 11
513.4185917501195
 21
290.8194080686401
 31
0.0
  0
ARC
  5
3EEB
330
1F
100
AcDbEntity
  8
0
100
AcDbCircle
 10
523.8226124058412
 20
289.9029497405155
 30
0.0
 40
9.5
100
AcDbArc
 50
132.128195372504
 51
170.5646537773062
1001
GENIUS_GENOREF_13
1005
0
  0
ARC
  5
3EEC
330
1F
100
AcDbEntity
  8
AM_0
100
AcDbCircle
 10
513.9579002379019
 20
291.5422952939934
 30
0.0
 40
0.5
100
AcDbArc
 50
270.0
 51
350.5646537773099
1001
GENIUS_GENOREF_13
1005
0
1001
GENIUS_GENOBJ-N-FIL_13
1002
{
1000
OWNER
1000
GEN
1002
}
1001
GENIUS_GENODEF_13
1002
{
1000
HIER
1070
     0
1002
}
1002
{
1000
MANEDIT
1070
     0
1002
}
1002
{
1000
NOSEL
1070
     0
1002
}
1002
{
1000
BEHIND
1070
     0
1002
}
1002
{
1000
OTHER
1070
     0
1002
}
1002
{
1000
REACTOR
1002
}
  0
ARC
  5
3EED
330
1F
100
AcDbEntity
  8
0
100
AcDbCircle
 10
517.1146957495916
 20
297.3194080686401
 30
0.0
 40
0.5
100
AcDbArc
 50
312.1281953725133
 51
0.0
1001
GENIUS_GENOREF_13
1005
0
1001
GENIUS_GENOBJ-N-FIL_13
1002
{
1000
OWNER
1000
GEN
1002
}
1001
GENIUS_GENODEF_13
1002
{
1000
HIER
1070
     0
1002
}
1002
{
1000
MANEDIT
1070
     0
1002
}
1002
{
1000
NOSEL
1070
     0
1002
}
1002
{
1000
BEHIND
1070
     0
1002
}
1002
{
1000
OTHER
1070
     0
1002
}
1002
{
1000
REACTOR
1002
}
  0
ARC
  5
3EEE
330
1F
100
AcDbEntity
  8
0
100
AcDbCircle
 10
513.4185917501195
 20
291.3194080686401
 30
0.0
 40
0.5
100
AcDbArc
 50
270.0
 51
352.2471167214182
1001
GENIUS_GENOREF_13
1005
0
  0
LINE
  5
3EEF
330
1F
100
AcDbEntity
  8
0
100
AcDbLine
 10
509.3646957495916
 20
303.8194080686401
 30
0.0
 11
507.6146957495918
 21
303.8194080686401
 31
0.0
  0
ARC
  5
3EF0
330
1F
100
AcDbEntity
  8
0
100
AcDbCircle
 10
509.3646957495916
 20
304.3194080686401
 30
0.0
 40
0.5
100
AcDbArc
 50
270.0
 51
0.0
1001
GENIUS_GENODEF_13
1002
{
1000
HIER
1070
     0
1002
}
1002
{
1000
MANEDIT
1070
     0
1002
}
1002
{
1000
NOSEL
1070
     0
1002
}
1002
{
1000
BEHIND
1070
     0
1002
}
1002
{
1000
OTHER
1070
     0
1002
}
1002
{
1000
REACTOR
1002
}
1001
GENIUS_GENOBJ-N-FIL_13
1002
{
1000
OWNER
1000
GEN
1002
}
  0
LINE
  5
3EF1
330
1F
100
AcDbEntity
  8
0
100
AcDbLine
 10
507.1146957495918
 20
303.3194080686401
 30
0.0
 11
507.1146957495918
 21
297.3194080686401
 31
0.0
  0
ARC
  5
3EF2
330
1F
100
AcDbEntity
  8
0
100
AcDbCircle
 10
507.6146957495918
 20
303.3194080686401
 30
0.0
 40
0.5
100
AcDbArc
 50
90.0
 51
180.0
1001
GENIUS_GENOBJ-N-FIL_13
1002
{
1000
OWNER
1000
GEN
1002
}
1001
GENIUS_GENODEF_13
1002
{
1000
HIER
1070
     0
1002
}
1002
{
1000
MANEDIT
1070
     0
1002
}
1002
{
1000
NOSEL
1070
     0
1002
}
1002
{
1000
BEHIND
1070
     0
1002
}
1002
{
1000
OTHER
1070
     0
1002
}
1002
{
1000
REACTOR
1002
}
  0
ARC
  5
3EF3
330
1F
100
AcDbEntity
  8
AM_0
100
AcDbCircle
 10
511.1511302016947
 20
297.8194080686401
 30
0.0
 40
0.5
100
AcDbArc
 50
180.0
 51
270.0
1001
GENIUS_GENODEF_13
1002
{
1000
HIER
1070
     0
1002
}
1002
{
1000
MANEDIT
1070
     0
1002
}
1002
{
1000
NOSEL
1070
     0
1002
}
1002
{
1000
BEHIND
1070
     0
1002
}
1002
{
1000
OTHER
1070
     0
1002
}
1002
{
1000
REACTOR
1002
}
1001
GENIUS_GENOBJ-N-FIL_13
1002
{
1000
OWNER
1000
GEN
1002
}
  0
LINE
  5
3EF4
330
1F
100
AcDbEntity
  8
0
100
AcDbLine
 10
512.3646957495918
 20
290.8194080686401
 30
0.0
 11
511.3107997490641
 21
290.8194080686401
 31
0.0
  0
ARC
  5
3EF5
330
1F
100
AcDbEntity
  8
0
100
AcDbCircle
 10
500.9067790933422
 20
289.9029497405155
 30
0.0
 40
9.5
100
AcDbArc
 50
9.435346222693803
 51
47.87180462749593
  0
ARC
  5
3EF6
330
1F
100
AcDbEntity
  8
AM_0
100
AcDbCircle
 10
510.7714912612816
 20
291.5422952939934
 30
0.0
 40
0.5
100
AcDbArc
 50
189.43534622269
 51
270.0
1001
GENIUS_GENOBJ-N-FIL_13
1002
{
1000
OWNER
1000
GEN
1002
}
1001
GENIUS_GENODEF_13
1002
{
1000
HIER
1070
     0
1002
}
1002
{
1000
MANEDIT
1070
     0
1002
}
1002
{
1000
NOSEL
1070
     0
1002
}
1002
{
1000
BEHIND
1070
     0
1002
}
1002
{
1000
OTHER
1070
     0
1002
}
1002
{
1000
REACTOR
1002
}
  0
ARC
  5
3EF7
330
1F
100
AcDbEntity
  8
0
100
AcDbCircle
 10
507.6146957495918
 20
297.3194080686401
 30
0.0
 40
0.5
100
AcDbArc
 50
180.0
 51
227.8718046274867
1001
GENIUS_GENODEF_13
1002
{
1000
HIER
1070
     0
1002
}
1002
{
1000
MANEDIT
1070
     0
1002
}
1002
{
1000
NOSEL
1070
     0
1002
}
1002
{
1000
BEHIND
1070
     0
1002
}
1002
{
1000
OTHER
1070
     0
1002
}
1002
{
1000
REACTOR
1002
}
1001
GENIUS_GENOBJ-N-FIL_13
1002
{
1000
OWNER
1000
GEN
1002
}
  0
ARC
  5
3EF8
330
1F
100
AcDbEntity
  8
0
100
AcDbCircle
 10
511.3107997490641
 20
291.3194080686401
 30
0.0
 40
0.5
100
AcDbArc
 50
187.7528832785817
 51
270.0
1001
GENIUS_GENOBJ-N-FIL_13
1002
{
1000
OWNER
1000
GEN
1002
}
1001
GENIUS_GENODEF_13
1002
{
1000
HIER
1070
     0
1002
}
1002
{
1000
MANEDIT
1070
     0
1002
}
1002
{
1000
NOSEL
1070
     0
1002
}
1002
{
1000
BEHIND
1070
     0
1002
}
1002
{
1000
OTHER
1070
     0
1002
}
1002
{
1000
REACTOR
1002
}
  0
LINE
  5
3EF9
330
1F
100
AcDbEntity
  8
AM_0
100
AcDbLine
 10
510.7714912612816
 20
291.0422952939935
 30
0.0
 11
510.8946164839901
 21
291.0422952939935
 31
0.0
  0
LINE
  5
3EFA
330
1F
100
AcDbEntity
  8
AM_0
100
AcDbLine
 10
513.8347750151934
 20
291.0422952939935
 30
0.0
 11
513.9579002379019
 21
291.0422952939935
 31
0.0
  0
LINE
  5
3EFB
330
1F
100
AcDbEntity
  8
AM_0
100
AcDbLine
 10
510.6511302016947
 20
307.31940806864
 30
0.0
 11
510.6511302016947
 21
297.8194080686401
 31
0.0
  0
ARC
  5
3EFC
330
1F
100
AcDbEntity
  8
AM_0
100
AcDbCircle
 10
511.1511302016947
 20
307.31940806864
 30
0.0
 40
0.5
100
AcDbArc
 50
89.99999999999674
 51
180.0
1001
GENIUS_GENOBJ-N-FIL_13
1002
{
1000
OWNER
1000
GEN
1002
}
1001
GENIUS_GENODEF_13
1002
{
1000
HIER
1070
     0
1002
}
1002
{
1000
MANEDIT
1070
     0
1002
}
1002
{
1000
NOSEL
1070
     0
1002
}
1002
{
1000
BEHIND
1070
     0
1002
}
1002
{
1000
OTHER
1070
     0
1002
}
1002
{
1000
REACTOR
1002
}
  0
LINE
  5
3EFD
330
1F
100
AcDbEntity
  8
AM_0
100
AcDbLine
 10
514.078261297489
 20
307.31940806864
 30
0.0
 11
514.078261297489
 21
297.8194080686401
 31
0.0
  0
ARC
  5
3EFE
330
1F
100
AcDbEntity
  8
AM_0
100
AcDbCircle
 10
513.578261297489
 20
297.8194080686401
 30
0.0
 40
0.5
100
AcDbArc
 50
270.0
 51
0.0
1001
GENIUS_GENOBJ-N-FIL_13
1002
{
1000
OWNER
1000
GEN
1002
}
1001
GENIUS_GENODEF_13
1002
{
1000
HIER
1070
     0
1002
}
1002
{
1000
MANEDIT
1070
     0
1002
}
1002
{
1000
NOSEL
1070
     0
1002
}
1002
{
1000
BEHIND
1070
     0
1002
}
1002
{
1000
OTHER
1070
     0
1002
}
1002
{
1000
REACTOR
1002
}
  0
LINE
  5
3EFF
330
1F
100
AcDbEntity
  8
AM_0
100
AcDbLine
 10
510.6511302016947
 20
297.8194080686401
 30
0.0
 11
510.8153701940297
 21
291.2519576720628
 31
0.0
  0
LINE
  5
3F00
330
1F
100
AcDbEntity
  8
AM_0
100
AcDbLine
 10
514.078261297489
 20
297.8194080686401
 30
0.0
 11
513.9140213051539
 21
291.2519576720628
 31
0.0
  0
LINE
  5
3F01
330
1F
100
AcDbEntity
  8
AM_0
100
AcDbLine
 10
511.1511302016947
 20
297.3194080686401
 30
0.0
 11
513.578261297489
 21
297.3194080686401
 31
0.0
  0
LINE
  5
3F02
330
1F
100
AcDbEntity
  8
AM_0
100
AcDbLine
 10
503.3646957495917
 20
297.3194080686401
 30
0.0
 11
507.1146957495918
 21
297.3194080686401
 31
0.0
  0
LINE
  5
3F03
330
1F
100
AcDbEntity
  8
AM_0
100
AcDbLine
 10
517.6146957495916
 20
297.3194080686401
 30
0.0
 11
521.3646957495917
 21
297.3194080686401
 31
0.0
  0
ENDSEC
  0
SECTION
  2
OBJECTS
  0
DICTIONARY
  5
C
330
0
100
AcDbDictionary
281
     1
  3
ACAD_COLOR
350
113
  3
ACAD_GROUP
350
D
  3
ACAD_LAYOUT
350
1A
  3
ACAD_MATERIAL
350
112
  3
ACAD_MLEADERSTYLE
350
1C3F
  3
ACAD_MLINESTYLE
350
17
  3
ACAD_PLOTSETTINGS
350
19
  3
ACAD_PLOTSTYLENAME
350
E
  3
ACAD_SCALELIST
350
1C2D
  3
ACAD_TABLESTYLE
350
BFE
  3
ACAD_VISUALSTYLE
350
BED
  3
ACDB_RECOMPOSE_DATA
350
403B
  3
AcDbVariableDictionary
350
9E
  3
AcmDictionary
350
63
  3
AMG
350
49
  3
AMGSNAPSETTINGS
350
F0
  3
DWGPROPS
350
403C
  0
DICTIONARY
  5
14B5
330
8
100
AcDbDictionary
280
     1
281
     1
  0
DICTIONARY
  5
179
330
2
100
AcDbDictionary
280
     1
281
     1
  3
ACAD_LAYERSTATES
360
1213
  3
AMLAYER_GROUPCOLORS
360
17A
  0
DICTIONARY
  5
22AF
330
10
100
AcDbDictionary
280
     1
281
     1
  3
ADSK_XREC_LAYER_RECONCILED
360
22B0
  0
DICTIONARY
  5
22B1
330
10D
100
AcDbDictionary
280
     1
281
     1
  3
ADSK_XREC_LAYER_RECONCILED
360
22B2
  0
DICTIONARY
  5
22B3
330
170
100
AcDbDictionary
280
     1
281
     1
  3
ADSK_XREC_LAYER_RECONCILED
360
22B4
  0
DICTIONARY
  5
22B5
330
22D
100
AcDbDictionary
280
     1
281
     1
  3
ADSK_XREC_LAYER_RECONCILED
360
22B6
  0
DICTIONARY
  5
22B7
330
254
100
AcDbDictionary
280
     1
281
     1
  3
ADSK_XREC_LAYER_RECONCILED
360
22B8
  0
DICTIONARY
  5
22B9
330
255
100
AcDbDictionary
280
     1
281
     1
  3
ADSK_XREC_LAYER_RECONCILED
360
22BA
  0
DICTIONARY
  5
22BB
330
257
100
AcDbDictionary
280
     1
281
     1
  3
ADSK_XREC_LAYER_RECONCILED
360
22BC
  0
DICTIONARY
  5
22BD
330
3B0
100
AcDbDictionary
280
     1
281
     1
  3
ADSK_XREC_LAYER_RECONCILED
360
22BE
  0
DICTIONARY
  5
22BF
330
C2A
100
AcDbDictionary
280
     1
281
     1
  3
ADSK_XREC_LAYER_RECONCILED
360
22C0
  0
DICTIONARY
  5
22C1
330
FD2
100
AcDbDictionary
280
     1
281
     1
  3
ADSK_XREC_LAYER_RECONCILED
360
22C2
  0
DICTIONARY
  5
22C3
330
1210
100
AcDbDictionary
280
     1
281
     1
  3
ADSK_XREC_LAYER_RECONCILED
360
22C4
  0
DICTIONARY
  5
22C5
330
1211
100
AcDbDictionary
280
     1
281
     1
  3
ADSK_XREC_LAYER_RECONCILED
360
22C6
  0
DICTIONARY
  5
22C7
330
123A
100
AcDbDictionary
280
     1
281
     1
  3
ADSK_XREC_LAYER_RECONCILED
360
22C8
  0
DICTIONARY
  5
22C9
330
123B
100
AcDbDictionary
280
     1
281
     1
  3
ADSK_XREC_LAYER_RECONCILED
360
22CA
  0
DICTIONARY
  5
22CB
330
123C
100
AcDbDictionary
280
     1
281
     1
  3
ADSK_XREC_LAYER_RECONCILED
360
22CC
  0
DICTIONARY
  5
22CD
330
123D
100
AcDbDictionary
280
     1
281
     1
  3
ADSK_XREC_LAYER_RECONCILED
360
22CE
  0
DICTIONARY
  5
22CF
330
123E
100
AcDbDictionary
280
     1
281
     1
  3
ADSK_XREC_LAYER_RECONCILED
360
22D0
  0
DICTIONARY
  5
99
330
1F
100
AcDbDictionary
280
     1
281
     1
  3
ACAD_SORTENTS
360
108E
  0
DICTIONARY
  5
C39
330
C2B
100
AcDbDictionary
280
     1
281
     1
  0
DICTIONARY
  5
C88
330
C57
100
AcDbDictionary
280
     1
281
     1
  0
DICTIONARY
  5
FC0
330
FBD
100
AcDbDictionary
280
     1
281
     1
  3
ACAD_SORTENTS
360
FC1
  0
DICTIONARY
  5
2464
330
2462
100
AcDbDictionary
280
     1
281
     1
  3
ACAD_SORTENTS
360
2465
  0
DICTIONARY
  5
113
102
{ACAD_REACTORS
330
C
102
}
330
C
100
AcDbDictionary
281
     1
  0
DICTIONARY
  5
D
102
{ACAD_REACTORS
330
C
102
}
330
C
100
AcDbDictionary
281
     1
  0
DICTIONARY
  5
1A
102
{ACAD_REACTORS
330
C
102
}
330
C
100
AcDbDictionary
281
     1
  3
Layout1
350
1E
  3
Layout2
350
26
  3
Model
350
22
  0
DICTIONARY
  5
112
102
{ACAD_REACTORS
330
C
102
}
330
C
100
AcDbDictionary
281
     1
  3
ByBlock
350
BEB
  3
ByLayer
350
BEA
  3
Global
350
BEC
  0
DICTIONARY
  5
1C3F
102
{ACAD_REACTORS
330
C
102
}
330
C
100
AcDbDictionary
281
     1
  3
Standard
350
1C40
  0
DICTIONARY
  5
17
102
{ACAD_REACTORS
330
C
102
}
330
C
100
AcDbDictionary
281
     1
  3
Standard
350
18
  0
DICTIONARY
  5
19
102
{ACAD_REACTORS
330
C
102
}
330
C
100
AcDbDictionary
281
     1
  0
ACDBDICTIONARYWDFLT
  5
E
102
{ACAD_REACTORS
330
C
102
}
330
C
100
AcDbDictionary
281
     1
  3
Normal
350
F
100
AcDbDictionaryWithDefault
340
F
  0
DICTIONARY
  5
1C2D
102
{ACAD_REACTORS
330
C
102
}
330
C
100
AcDbDictionary
281
     1
  3
A0
350
1C2E
  3
A1
350
1C2F
  3
A2
350
1C30
  3
A3
350
1C31
  3
A4
350
1C32
  3
A5
350
1C33
  3
A6
350
1C34
  3
A7
350
1C35
  3
A8
350
1C36
  3
A9
350
1C37
  3
B0
350
1C38
  3
B1
350
1C39
  3
B2
350
1C3A
  3
B3
350
1C3B
  3
B4
350
1C3C
  3
B5
350
1C3D
  3
B6
350
1C3E
  0
DICTIONARY
  5
BFE
102
{ACAD_REACTORS
330
C
102
}
330
C
100
AcDbDictionary
281
     1
  3
Standard
350
BFF
  0
DICTIONARY
  5
BED
102
{ACAD_REACTORS
330
C
102
}
330
C
100
AcDbDictionary
281
     1
  3
2dWireframe
350
BF3
  3
3D Hidden
350
BF5
  3
3dWireframe
350
BF4
  3
Basic
350
BF2
  3
Brighten
350
BF9
  3
ColorChange
350
BFD
  3
Conceptual
350
BF6
  3
Dim
350
BF8
  3
EdgeColorOff
350
1C2C
  3
Facepattern
350
BFC
  3
Flat
350
BEE
  3
FlatWithEdges
350
BEF
  3
Gouraud
350
BF0
  3
GouraudWithEdges
350
BF1
  3
Hidden
350
1C24
  3
JitterOff
350
1C2A
  3
Linepattern
350
BFB
  3
OverhangOff
350
1C2B
  3
Realistic
350
BF7
  3
Shaded
350
1C29
  3
Shaded with edges
350
1C28
  3
Shades of Gray
350
1C25
  3
Sketchy
350
1C26
  3
Thicken
350
BFA
  3
Wireframe
350
1C23
  3
X-Ray
350
1C27
  0
XRECORD
  5
403B
102
{ACAD_REACTORS
330
C
102
}
330
C
100
AcDbXrecord
280
     1
 90
        1
330
BFF
330
3BFC
  0
DICTIONARY
  5
9E
102
{ACAD_REACTORS
330
C
102
}
330
C
100
AcDbDictionary
281
     1
  3
CANNOSCALE
350
2327
  3
CMLEADERSTYLE
350
2326
  3
CTABLESTYLE
350
14F0
  3
DIMASSOC
350
A0
  3
INDEXCTL
350
9F
  3
SORTENTS
350
4038
  3
XCLIPFRAME
350
4039
  0
DICTIONARY
  5
63
102
{ACAD_REACTORS
330
C
102
}
330
C
100
AcDbDictionary
281
     1
  3
AcmBOM
350
18DF
  3
AcmStdDictionary
350
69
  3
AMDTSECTSYM_ARROWCOLOR
350
C1D
  0
DICTIONARY
  5
49
102
{ACAD_REACTORS
330
C
102
}
330
C
100
AcDbDictionary
281
     1
  0
DICTIONARY
  5
F0
102
{ACAD_REACTORS
330
C
102
}
330
C
100
AcDbDictionary
281
     1
  0
XRECORD
  5
403C
102
{ACAD_REACTORS
330
C
102
}
330
C
100
AcDbXrecord
280
     1
  1
DWGPROPS COOKIE
  2

  3

  4

  6

  7

  8
user
  9

300
AmdtFileType=84
301
=
302
=
303
=
304
=
305
=
306
=
307
=
308
=
309
=
 40
0.3225775115740741
 41
2454680.66907728
 42
2455693.397687164
  1

 90
        1
  0
DICTIONARY
  5
1213
102
{ACAD_REACTORS
330
179
102
}
330
179
100
AcDbDictionary
281
     1
  0
DICTIONARY
  5
17A
102
{ACAD_REACTORS
330
179
102
}
330
179
100
AcDbDictionary
280
     1
281
     1
  0
XRECORD
  5
22B0
102
{ACAD_REACTORS
330
22AF
102
}
330
22AF
100
AcDbXrecord
280
     1
290
     1
  0
XRECORD
  5
22B2
102
{ACAD_REACTORS
330
22B1
102
}
330
22B1
100
AcDbXrecord
280
     1
290
     1
  0
XRECORD
  5
22B4
102
{ACAD_REACTORS
330
22B3
102
}
330
22B3
100
AcDbXrecord
280
     1
290
     1
  0
XRECORD
  5
22B6
102
{ACAD_REACTORS
330
22B5
102
}
330
22B5
100
AcDbXrecord
280
     1
290
     1
  0
XRECORD
  5
22B8
102
{ACAD_REACTORS
330
22B7
102
}
330
22B7
100
AcDbXrecord
280
     1
290
     1
  0
XRECORD
  5
22BA
102
{ACAD_REACTORS
330
22B9
102
}
330
22B9
100
AcDbXrecord
280
     1
290
     1
  0
XRECORD
  5
22BC
102
{ACAD_REACTORS
330
22BB
102
}
330
22BB
100
AcDbXrecord
280
     1
290
     1
  0
XRECORD
  5
22BE
102
{ACAD_REACTORS
330
22BD
102
}
330
22BD
100
AcDbXrecord
280
     1
290
     1
  0
XRECORD
  5
22C0
102
{ACAD_REACTORS
330
22BF
102
}
330
22BF
100
AcDbXrecord
280
     1
290
     1
  0
XRECORD
  5
22C2
102
{ACAD_REACTORS
330
22C1
102
}
330
22C1
100
AcDbXrecord
280
     1
290
     1
  0
XRECORD
  5
22C4
102
{ACAD_REACTORS
330
22C3
102
}
330
22C3
100
AcDbXrecord
280
     1
290
     1
  0
XRECORD
  5
22C6
102
{ACAD_REACTORS
330
22C5
102
}
330
22C5
100
AcDbXrecord
280
     1
290
     1
  0
XRECORD
  5
22C8
102
{ACAD_REACTORS
330
22C7
102
}
330
22C7
100
AcDbXrecord
280
     1
290
     1
  0
XRECORD
  5
22CA
102
{ACAD_REACTORS
330
22C9
102
}
330
22C9
100
AcDbXrecord
280
     1
290
     1
  0
XRECORD
  5
22CC
102
{ACAD_REACTORS
330
22CB
102
}
330
22CB
100
AcDbXrecord
280
     1
290
     1
  0
XRECORD
  5
22CE
102
{ACAD_REACTORS
330
22CD
102
}
330
22CD
100
AcDbXrecord
280
     1
290
     1
  0
XRECORD
  5
22D0
102
{ACAD_REACTORS
330
22CF
102
}
330
22CF
100
AcDbXrecord
280
     1
290
     1
  0
SORTENTSTABLE
  5
108E
102
{ACAD_REACTORS
330
99
102
}
330
99
100
AcDbSortentsTable
330
1F
331
32E9
  5
32F2
331
23AF
  5
2712
331
32F1
  5
32FA
331
3222
  5
322A
331
322A
  5
3233
331
25FE
  5
2B04
331
3E0A
  5
3E0A
331
3E12
  5
3E12
331
3EE1
  5
3EE1
331
3E1A
  5
3E1A
331
3C9C
  5
3C9C
331
3EE9
  5
3EE9
331
4A4
  5
FF3
331
3EF1
  5
3EF1
331
4AC
  5
1008
331
32FB
  5
3305
331
3B14
  5
3B14
331
3303
  5
3640
331
3A25
  5
3A25
331
3661
  5
3666
331
330B
  5
365E
331
3B1C
  5
3B1C
331
158D
  5
16B5
331
3669
  5
3669
331
3B24
  5
3B24
331
1595
  5
18CB
331
39FE
  5
39FE
331
3B2C
  5
3B2C
331
3232
  5
323A
331
23F7
  5
2755
331
2606
  5
2B50
331
3242
  5
324C
331
26CE
  5
2C29
331
2407
  5
2759
331
324A
  5
3254
331
3BF5
  5
3BF5
331
3EF9
  5
3EF9
331
3F01
  5
3F01
331
3C5
  5
F8D
331
3E03
  5
3E03
331
3A06
  5
3A06
331
3B34
  5
3B34
331
390F
  5
390F
331
3B3C
  5
3B3C
331
3917
  5
3917
331
1467
  5
15C7
331
3B0D
  5
3B0D
331
1586
  5
1612
331
32EA
  5
32F3
331
23B0
  5
2746
331
2746
  5
2CE4
331
321B
  5
3223
331
3223
  5
322C
331
32F2
  5
32FB
331
3E0B
  5
3E0B
331
3E13
  5
3E13
331
3EE2
  5
3EE2
331
3E1B
  5
3E1B
331
3C9D
  5
3C9D
331
3EEA
  5
3EEA
331
4A5
  5
FF4
331
3EF2
  5
3EF2
331
4AD
  5
1025
331
32FC
  5
3306
331
3B15
  5
3B15
331
3A26
  5
3A26
331
330C
  5
365F
331
3B1D
  5
3B1D
331
158E
  5
16CB
331
3B25
  5
3B25
331
1596
  5
18CC
331
39FF
  5
39FF
331
3B2D
  5
3B2D
331
1BC4
  5
260B
331
160E
  5
19F1
331
23F8
  5
2756
331
3233
  5
323B
331
3243
  5
324D
331
270F
  5
2C9F
331
3BF6
  5
3BF6
331
3EFA
  5
3EFA
331
3F02
  5
3F02
331
3E04
  5
3E04
331
3A07
  5
3A07
331
3B35
  5
3B35
331
3910
  5
3910
331
3B3D
  5
3B3D
331
3A17
  5
3A17
331
1468
  5
15C8
331
3B0E
  5
3B0E
331
1587
  5
1613
331
2430
  5
29D0
331
3214
  5
321C
331
32EB
  5
32F4
331
23B1
  5
2753
331
3224
  5
322D
331
32F3
  5
32FC
331
322C
  5
3234
331
3E0C
  5
3E0C
331
3E14
  5
3E14
331
3EE3
  5
3EE3
331
3C9E
  5
3C9E
331
3EEB
  5
3EEB
331
4A6
  5
FF6
331
3EF3
  5
3EF3
331
4AE
  5
1026
331
32FD
  5
330B
331
3B16
  5
3B16
331
3305
  5
3653
331
3A27
  5
3A27
331
3B1E
  5
3B1E
331
158F
  5
17B2
331
3B26
  5
3B26
331
1597
  5
18CD
331
3B2E
  5
3B2E
331
15E7
  5
19D8
331
23F9
  5
2757
331
275F
  5
F82
331
3234
  5
323C
331
2419
  5
275D
331
3244
  5
324E
331
2E46
  5
320F
331
3BF7
  5
3BF7
331
3EFB
  5
3EFB
331
3F03
  5
3F03
331
3C7
  5
F8F
331
3E05
  5
3E05
331
42F
  5
FCF
331
3A00
  5
3A00
331
3A08
  5
3A08
331
3B36
  5
3B36
331
3911
  5
3911
331
3B3E
  5
3B3E
331
3B0F
  5
3B0F
331
1657
  5
19F6
331
2710
  5
2CAB
331
2431
  5
29D1
331
32E4
  5
32ED
331
3215
  5
321D
331
23B2
  5
2754
331
2549
  5
29D9
331
32EC
  5
32F5
331
3225
  5
322E
331
32F4
  5
32FD
331
3E0D
  5
3E0D
331
3E15
  5
3E15
331
3EE4
  5
3EE4
331
3C9F
  5
3C9F
331
3EEC
  5
3EEC
331
4A7
  5
FF7
331
3EF4
  5
3EF4
331
4AF
  5
1027
331
32FE
  5
330C
331
3306
  5
365C
331
3B17
  5
3B17
331
1588
  5
1619
331
3B1F
  5
3B1F
331
1590
  5
17C8
331
3B27
  5
3B27
331
3B2F
  5
3B2F
331
241A
  5
275F
331
3245
  5
3250
331
3BF0
  5
3BF0
331
3BF8
  5
3BF8
331
3EFC
  5
3EFC
331
3C0
  5
F84
331
3C8
  5
F91
331
3DFE
  5
3DFE
331
3D0
  5
F96
331
3E06
  5
3E06
331
3A01
  5
3A01
331
3B37
  5
3B37
331
3912
  5
3912
331
3B3F
  5
3B3F
331
2711
  5
2CE1
331
2432
  5
29D2
331
32E5
  5
32EE
331
23AB
  5
270E
331
3216
  5
321E
331
32ED
  5
32F6
331
3226
  5
322F
331
32F5
  5
32FE
331
3E0E
  5
3E0E
331
3E16
  5
3E16
331
3C98
  5
3C98
331
3EE5
  5
3EE5
331
557
  5
1064
331
3CA0
  5
3CA0
331
3EED
  5
3EED
331
4A8
  5
FF8
331
3EF5
  5
3EF5
331
4B0
  5
1028
331
32FF
  5
3479
331
3B10
  5
3B10
331
3B18
  5
3B18
331
3A29
  5
3A29
331
1589
  5
162F
331
3B20
  5
3B20
331
1591
  5
18BE
331
39FA
  5
39FA
331
3B28
  5
3B28
331
3246
  5
3251
331
241B
  5
2760
331
3BF1
  5
3BF1
331
3BF9
  5
3BF9
331
3EFD
  5
3EFD
331
3C1
  5
F85
331
530
  5
1050
331
3C9
  5
F92
331
3DFF
  5
3DFF
331
3D1
  5
F97
331
3E07
  5
3E07
331
3A02
  5
3A02
331
3B30
  5
3B30
331
3B38
  5
3B38
331
3913
  5
3913
331
1493
  5
15F4
331
2712
  5
2CE3
331
32E6
  5
32EF
331
23AC
  5
270F
331
32EE
  5
32F7
331
2752
  5
2CE5
331
32F6
  5
32FF
331
3227
  5
3230
331
3E0F
  5
3E0F
331
3E17
  5
3E17
331
3C99
  5
3C99
331
3EE6
  5
3EE6
331
4A1
  5
FD0
331
3CA1
  5
3CA1
331
3EEE
  5
3EEE
331
4A9
  5
FF9
331
3EF6
  5
3EF6
331
32F8
  5
3301
331
3300
  5
3480
331
3B11
  5
3B11
331
3B19
  5
3B19
331
3A2A
  5
3A2A
331
158A
  5
1657
331
3B21
  5
3B21
331
1592
  5
18C0
331
39FB
  5
39FB
331
3B29
  5
3B29
331
2603
  5
2B4F
331
260B
  5
2C09
331
323F
  5
3247
331
3247
  5
3252
331
3BF2
  5
3BF2
331
3EFE
  5
3EFE
331
3BFA
  5
3BFA
331
3C2
  5
F88
331
3CA
  5
F93
331
3E00
  5
3E00
331
3D2
  5
F98
331
3A03
  5
3A03
331
3B31
  5
3B31
331
3B39
  5
3B39
331
1612
  5
19F2
331
3914
  5
3914
331
2434
  5
29D3
331
23AD
  5
2710
331
32E7
  5
32F0
331
2753
  5
FF5
331
32EF
  5
32F8
331
3228
  5
3231
331
32F7
  5
3300
331
3E08
  5
3E08
331
4A2
  5
FF1
331
3EE7
  5
3EE7
331
3E18
  5
3E18
331
3C9A
  5
3C9A
331
3AB
  5
F81
331
3EEF
  5
3EEF
331
3CA2
  5
3CA2
331
4B2
  5
1029
331
3EF7
  5
3EF7
331
32F9
  5
3302
331
3B12
  5
3B12
331
363F
  5
3248
331
3301
  5
3482
331
3A23
  5
3A23
331
3B1A
  5
3B1A
331
3A2B
  5
3A2B
331
158B
  5
1673
331
3667
  5
3667
331
3B22
  5
3B22
331
1593
  5
18C4
331
39FC
  5
39FC
331
3B2A
  5
3B2A
331
275B
  5
F95
331
3240
  5
324A
331
270C
  5
2C68
331
241D
  5
29CF
331
3248
  5
3253
331
3BF3
  5
3BF3
331
3C3
  5
F89
331
3EFF
  5
3EFF
331
3BFB
  5
3BFB
331
3CB
  5
F94
331
3D3
  5
F99
331
3E01
  5
3E01
331
3A04
  5
3A04
331
3B32
  5
3B32
331
390D
  5
390D
331
3B3A
  5
3B3A
331
1613
  5
19F3
331
3915
  5
3915
331
2110
  5
26C2
331
23AE
  5
2711
331
32E8
  5
32F1
331
3221
  5
3229
331
32F0
  5
32F9
331
3229
  5
3232
331
3E09
  5
3E09
331
3EE0
  5
3EE0
331
3E11
  5
3E11
331
4A3
  5
FF2
331
3EE8
  5
3EE8
331
3E19
  5
3E19
331
3C9B
  5
3C9B
331
4AB
  5
FFC
331
3AC
  5
F83
331
3EF0
  5
3EF0
331
3CA3
  5
3CA3
331
32FA
  5
3303
331
3B13
  5
3B13
331
3640
  5
3663
331
3302
  5
363D
331
3A24
  5
3A24
331
3B1B
  5
3B1B
331
158C
  5
1689
331
3668
  5
3668
331
3B23
  5
3B23
331
1594
  5
18C8
331
39FD
  5
39FD
331
3B2B
  5
3B2B
331
3241
  5
324B
331
3EF8
  5
3EF8
331
3BF4
  5
3BF4
331
4DB
  5
104F
331
3C4
  5
F8C
331
3F00
  5
3F00
331
3BFC
  5
3BFC
331
53B
  5
1062
331
3E02
  5
3E02
331
3A05
  5
3A05
331
3B33
  5
3B33
331
390E
  5
390E
331
3B3B
  5
3B3B
331
3916
  5
3916
331
1585
  5
1611
  0
SORTENTSTABLE
  5
FC1
102
{ACAD_REACTORS
330
FC0
102
}
330
FC0
100
AcDbSortentsTable
330
FBD
  0
SORTENTSTABLE
  5
2465
102
{ACAD_REACTORS
330
2464
102
}
330
2464
100
AcDbSortentsTable
330
2462
  0
LAYOUT
  5
1E
102
{ACAD_XDICTIONARY
360
403D
102
}
102
{ACAD_REACTORS
330
1A
102
}
330
1A
100
AcDbPlotSettings
  1

  2

  4

  6

 40
0.0
 41
0.0
 42
0.0
 43
0.0
 44
0.0
 45
0.0
 46
0.0
 47
0.0
 48
0.0
 49
0.0
140
0.0
141
0.0
142
1.0
143
1.0
 70
   688
 72
     0
 73
     0
 74
     5
  7
IMAGIO.ctb
 75
    16
147
1.0
148
0.0
149
0.0
100
AcDbLayout
  1
Layout1
 70
     1
 71
     1
 10
0.0
 20
0.0
 11
12.0
 21
9.0
 12
0.0
 22
0.0
 32
0.0
 14
1.000000000000000E+20
 24
1.000000000000000E+20
 34
1.000000000000000E+20
 15
-1.000000000000000E+20
 25
-1.000000000000000E+20
 35
-1.000000000000000E+20
146
0.0
 13
0.0
 23
0.0
 33
0.0
 16
1.0
 26
0.0
 36
0.0
 17
0.0
 27
1.0
 37
0.0
 76
     0
330
1B
  0
LAYOUT
  5
26
102
{ACAD_XDICTIONARY
360
4040
102
}
102
{ACAD_REACTORS
330
1A
102
}
330
1A
100
AcDbPlotSettings
  1

  2

  4

  6

 40
0.0
 41
0.0
 42
0.0
 43
0.0
 44
0.0
 45
0.0
 46
0.0
 47
0.0
 48
0.0
 49
0.0
140
0.0
141
0.0
142
1.0
143
1.0
 70
   688
 72
     0
 73
     0
 74
     5
  7
IMAGIO.ctb
 75
    16
147
1.0
148
0.0
149
0.0
100
AcDbLayout
  1
Layout2
 70
     1
 71
     2
 10
0.0
 20
0.0
 11
12.0
 21
9.0
 12
0.0
 22
0.0
 32
0.0
 14
0.0
 24
0.0
 34
0.0
 15
0.0
 25
0.0
 35
0.0
146
0.0
 13
0.0
 23
0.0
 33
0.0
 16
1.0
 26
0.0
 36
0.0
 17
0.0
 27
1.0
 37
0.0
 76
     0
330
23
  0
LAYOUT
  5
22
102
{ACAD_XDICTIONARY
360
22D8
102
}
102
{ACAD_REACTORS
330
1A
102
}
330
1A
100
AcDbPlotSettings
  1

  2
RICOH imagio MP 5000 RPCS
  4
A3
  6

 40
5.873749732971191
 41
5.873747825622558
 42
5.873748779296875
 43
5.873748779296875
 44
296.9259948730469
 45
419.9466552734374
 46
-5.91075181961068
 47
-5.921849237169567
 48
0.0
 49
0.0
140
0.0
141
0.0
142
1.0
143
0.5
 70
 11956
 72
     1
 73
     1
 74
     2
  7
IMAGIO.ctb
 75
    27
147
2.0
148
-383.6536482459853
149
-238.0858004494947
100
AcDbLayout
  1
Model
 70
     1
 71
     0
 10
0.0
 20
0.0
 11
12.0
 21
9.0
 12
0.0
 22
0.0
 32
0.0
 14
0.0
 24
0.0
 34
0.0
 15
0.0
 25
0.0
 35
0.0
146
0.0
 13
0.0
 23
0.0
 33
0.0
 16
1.0
 26
0.0
 36
0.0
 17
0.0
 27
1.0
 37
0.0
 76
     0
330
1F
331
1C21
1001
ACAD_PSEXT
1000
RICOH imagio MP 5000 RPCS
1000
RICOH imagio MP 5000 RPCS
1000
IP_192.168.1.151
1000
RPCS Driver (Windows 2000/XP/Server 2003/Vista)
1070
     0
  0
MATERIAL
  5
BEB
102
{ACAD_XDICTIONARY
360
4044
102
}
102
{ACAD_REACTORS
330
112
102
}
330
112
100
AcDbMaterial
  1
ByBlock
 73
     1
 78
     1
172
     1
176
     1
270
     1
274
     1
  0
MATERIAL
  5
BEA
102
{ACAD_XDICTIONARY
360
4042
102
}
102
{ACAD_REACTORS
330
112
102
}
330
112
100
AcDbMaterial
  1
ByLayer
 73
     1
 78
     1
172
     1
176
     1
270
     1
274
     1
  0
MATERIAL
  5
BEC
102
{ACAD_XDICTIONARY
360
4046
102
}
102
{ACAD_REACTORS
330
112
102
}
330
112
100
AcDbMaterial
  1
Global
 73
     1
 78
     1
172
     1
176
     1
270
     1
274
     1
  0
MLEADERSTYLE
  5
1C40
102
{ACAD_REACTORS
330
1C3F
102
}
330
1C3F
100
AcDbMLeaderStyle
170
     2
171
     1
172
     0
 90
        2
 40
0.0
 41
0.0
173
     1
 91
-1056964608
340
14
 92
       -2
290
     1
 42
2.0
291
     1
 43
0.36
  3
Standard
 44
4.0
300

342
11
174
     1
178
     6
175
     1
176
     0
 93
-1056964608
 45
4.0
292
     0
297
     0
 46
4.0
 94
-1056964608
 47
1.0
 49
1.0
140
1.0
293
     1
141
0.0
294
     1
177
     0
142
1.0
295
     0
296
     0
143
0.125
1001
ACAD_MLEADERVER
1070
     2
  0
MLINESTYLE
  5
18
102
{ACAD_REACTORS
330
17
102
}
330
17
100
AcDbMlineStyle
  2
STANDARD
 70
     0
  3

 62
   256
 51
90.0
 52
90.0
 71
     2
 49
0.5
 62
   256
  6
BYLAYER
 49
-0.5
 62
   256
  6
BYLAYER
  0
ACDBPLACEHOLDER
  5
F
102
{ACAD_REACTORS
330
E
102
}
330
E
  0
SCALE
  5
1C2E
102
{ACAD_REACTORS
330
1C2D
102
}
330
1C2D
100
AcDbScale
 70
     0
300
1:1
140
1.0
141
1.0
290
     1
  0
SCALE
  5
1C2F
102
{ACAD_REACTORS
330
1C2D
102
}
330
1C2D
100
AcDbScale
 70
     0
300
1:2
140
1.0
141
2.0
290
     0
  0
SCALE
  5
1C30
102
{ACAD_REACTORS
330
1C2D
102
}
330
1C2D
100
AcDbScale
 70
     0
300
1:4
140
1.0
141
4.0
290
     0
  0
SCALE
  5
1C31
102
{ACAD_REACTORS
330
1C2D
102
}
330
1C2D
100
AcDbScale
 70
     0
300
1:5
140
1.0
141
5.0
290
     0
  0
SCALE
  5
1C32
102
{ACAD_REACTORS
330
1C2D
102
}
330
1C2D
100
AcDbScale
 70
     0
300
1:8
140
1.0
141
8.0
290
     0
  0
SCALE
  5
1C33
102
{ACAD_REACTORS
330
1C2D
102
}
330
1C2D
100
AcDbScale
 70
     0
300
1:10
140
1.0
141
10.0
290
     0
  0
SCALE
  5
1C34
102
{ACAD_REACTORS
330
1C2D
102
}
330
1C2D
100
AcDbScale
 70
     0
300
1:16
140
1.0
141
16.0
290
     0
  0
SCALE
  5
1C35
102
{ACAD_REACTORS
330
1C2D
102
}
330
1C2D
100
AcDbScale
 70
     0
300
1:20
140
1.0
141
20.0
290
     0
  0
SCALE
  5
1C36
102
{ACAD_REACTORS
330
1C2D
102
}
330
1C2D
100
AcDbScale
 70
     0
300
1:30
140
1.0
141
30.0
290
     0
  0
SCALE
  5
1C37
102
{ACAD_REACTORS
330
1C2D
102
}
330
1C2D
100
AcDbScale
 70
     0
300
1:40
140
1.0
141
40.0
290
     0
  0
SCALE
  5
1C38
102
{ACAD_REACTORS
330
1C2D
102
}
330
1C2D
100
AcDbScale
 70
     0
300
1:50
140
1.0
141
50.0
290
     0
  0
SCALE
  5
1C39
102
{ACAD_REACTORS
330
1C2D
102
}
330
1C2D
100
AcDbScale
 70
     0
300
1:100
140
1.0
141
100.0
290
     0
  0
SCALE
  5
1C3A
102
{ACAD_REACTORS
330
1C2D
102
}
330
1C2D
100
AcDbScale
 70
     0
300
2:1
140
2.0
141
1.0
290
     0
  0
SCALE
  5
1C3B
102
{ACAD_REACTORS
330
1C2D
102
}
330
1C2D
100
AcDbScale
 70
     0
300
4:1
140
4.0
141
1.0
290
     0
  0
SCALE
  5
1C3C
102
{ACAD_REACTORS
330
1C2D
102
}
330
1C2D
100
AcDbScale
 70
     0
300
8:1
140
8.0
141
1.0
290
     0
  0
SCALE
  5
1C3D
102
{ACAD_REACTORS
330
1C2D
102
}
330
1C2D
100
AcDbScale
 70
     0
300
10:1
140
10.0
141
1.0
290
     0
  0
SCALE
  5
1C3E
102
{ACAD_REACTORS
330
1C2D
102
}
330
1C2D
100
AcDbScale
 70
     0
300
100:1
140
100.0
141
1.0
290
     0
  0
TABLESTYLE
  5
BFF
102
{ACAD_XDICTIONARY
360
22DA
102
}
102
{ACAD_REACTORS
330
BFE
102
}
330
BFE
100
AcDbTableStyle
  3
Standard
 70
     0
 71
     0
 40
1.5
 41
1.5
280
     0
281
     0
  7
STANDARD
140
4.5
170
     2
 62
     0
 63
     7
283
     0
274
    -2
284
     1
 64
     0
275
    -2
285
     1
 65
     0
276
    -2
286
     1
 66
     0
277
    -2
287
     1
 67
     0
278
    -2
288
     1
 68
     0
279
    -2
289
     1
 69
     0
  7
STANDARD
140
6.0
170
     5
 62
     0
 63
     7
283
     0
274
    -2
284
     1
 64
     0
275
    -2
285
     1
 65
     0
276
    -2
286
     1
 66
     0
277
    -2
287
     1
 67
     0
278
    -2
288
     1
 68
     0
279
    -2
289
     1
 69
     0
  7
STANDARD
140
4.5
170
     5
 62
     0
 63
     7
283
     0
274
    -2
284
     1
 64
     0
275
    -2
285
     1
 65
     0
276
    -2
286
     1
 66
     0
277
    -2
287
     1
 67
     0
278
    -2
288
     1
 68
     0
279
    -2
289
     1
 69
     0
  0
VISUALSTYLE
  5
BF3
102
{ACAD_XDICTIONARY
360
4052
102
}
102
{ACAD_REACTORS
330
BED
102
}
330
BED
100
AcDbVisualStyle
  2
2dWireframe
 70
     4
 71
     0
 72
     2
 73
     0
 90
        0
 40
-0.6
 41
-30.0
 62
     5
 63
     7
 74
     1
 91
        4
 64
     7
 65
   257
 75
     1
175
     1
 42
1.0
 92
        0
 66
   257
 43
1.0
 76
     1
 77
     6
 78
     2
 67
     7
 79
     5
170
     0
171
     0
290
     0
174
     0
 93
        1
 44
0.0
173
     0
291
     0
 45
0.0
1001
ACAD
1000
AcDbSavedByObjectVersion
1070
     0
  0
VISUALSTYLE
  5
BF5
102
{ACAD_XDICTIONARY
360
4056
102
}
102
{ACAD_REACTORS
330
BED
102
}
330
BED
100
AcDbVisualStyle
  2
3D Hidden
 70
     6
 71
     1
 72
     2
 73
     2
 90
        0
 40
-0.6
 41
-30.0
 62
     5
 63
     7
 74
     2
 91
        2
 64
     7
 65
   257
 75
     2
175
     1
 42
40.0
 92
        0
 66
   257
 43
1.0
 76
     1
 77
     6
 78
     2
 67
     7
 79
     3
170
     0
171
     0
290
     0
174
     0
 93
        1
 44
0.0
173
     0
291
     0
 45
0.0
1001
ACAD
1000
AcDbSavedByObjectVersion
1070
     0
  0
VISUALSTYLE
  5
BF4
102
{ACAD_XDICTIONARY
360
4054
102
}
102
{ACAD_REACTORS
330
BED
102
}
330
BED
100
AcDbVisualStyle
  2
3dWireframe
 70
     5
 71
     0
 72
     2
 73
     0
 90
        0
 40
-0.6
 41
-30.0
 62
     5
 63
     7
 74
     1
 91
        4
 64
     7
 65
   257
 75
     1
175
     1
 42
1.0
 92
        0
 66
   257
 43
1.0
 76
     1
 77
     6
 78
     2
 67
     7
 79
     5
170
     0
171
     0
290
     0
174
     0
 93
        1
 44
0.0
173
     0
291
     0
 45
0.0
1001
ACAD
1000
AcDbSavedByObjectVersion
1070
     0
  0
VISUALSTYLE
  5
BF2
102
{ACAD_XDICTIONARY
360
4050
102
}
102
{ACAD_REACTORS
330
BED
102
}
330
BED
100
AcDbVisualStyle
  2
Basic
 70
     7
 71
     1
 72
     0
 73
     1
 90
        0
 40
-0.6
 41
-30.0
 62
     5
 63
     7
 74
     0
 91
        4
 64
     7
 65
   257
 75
     1
175
     1
 42
1.0
 92
        8
 66
     7
 43
1.0
 76
     1
 77
     6
 78
     2
 67
     7
 79
     5
170
     0
171
     0
290
     0
174
     0
 93
        1
 44
0.0
173
     0
291
     1
 45
0.0
1001
ACAD
1000
AcDbSavedByObjectVersion
1070
     0
  0
VISUALSTYLE
  5
BF9
102
{ACAD_XDICTIONARY
360
405E
102
}
102
{ACAD_REACTORS
330
BED
102
}
330
BED
100
AcDbVisualStyle
  2
Brighten
 70
    12
 71
     2
 72
     2
 73
     0
 90
        0
 40
-0.6
 41
-30.0
 62
     5
 63
     7
 74
     1
 91
        4
 64
     7
 65
   257
 75
     1
175
     1
 42
1.0
 92
        8
 66
     7
 43
1.0
 76
     1
 77
     6
 78
     2
 67
     7
 79
     5
170
     0
171
     0
290
     0
174
     0
 93
        1
 44
50.0
173
     0
291
     1
 45
0.0
1001
ACAD
1000
AcDbSavedByObjectVersion
1070
     0
  0
VISUALSTYLE
  5
BFD
102
{ACAD_XDICTIONARY
360
4066
102
}
102
{ACAD_REACTORS
330
BED
102
}
330
BED
100
AcDbVisualStyle
  2
ColorChange
 70
    16
 71
     2
 72
     2
 73
     3
 90
        0
 40
-0.6
 41
-30.0
 62
     5
 63
     8
 74
     1
 91
        4
 64
     7
 65
   257
 75
     1
175
     1
 42
1.0
 92
        8
 66
     8
 43
1.0
 76
     1
 77
     6
 78
     2
 67
     7
 79
     5
170
     0
171
     0
290
     0
174
     0
 93
        1
 44
0.0
173
     0
291
     1
 45
0.0
1001
ACAD
1000
AcDbSavedByObjectVersion
1070
     0
  0
VISUALSTYLE
  5
BF6
102
{ACAD_XDICTIONARY
360
4058
102
}
102
{ACAD_REACTORS
330
BED
102
}
330
BED
100
AcDbVisualStyle
  2
Conceptual
 70
     9
 71
     3
 72
     2
 73
     0
 90
        0
 40
-0.6
 41
-30.0
 62
     5
 63
     7
 74
     2
 91
        2
 64
     7
 65
   257
 75
     1
175
     1
 42
40.0
 92
        8
 66
     7
 43
1.0
 76
     1
 77
     6
 78
     2
 67
     7
 79
     3
170
     0
171
     0
290
     0
174
     0
 93
        1
 44
0.0
173
     0
291
     0
 45
0.0
1001
ACAD
1000
AcDbSavedByObjectVersion
1070
     0
  0
VISUALSTYLE
  5
BF8
102
{ACAD_XDICTIONARY
360
405C
102
}
102
{ACAD_REACTORS
330
BED
102
}
330
BED
100
AcDbVisualStyle
  2
Dim
 70
    11
 71
     2
 72
     2
 73
     0
 90
        0
 40
-0.6
 41
-30.0
 62
     5
 63
     7
 74
     1
 91
        4
 64
     7
 65
   257
 75
     1
175
     1
 42
1.0
 92
        8
 66
     7
 43
1.0
 76
     1
 77
     6
 78
     2
 67
     7
 79
     5
170
     0
171
     0
290
     0
174
     0
 93
        1
 44
-50.0
173
     0
291
     1
 45
0.0
1001
ACAD
1000
AcDbSavedByObjectVersion
1070
     0
  0
VISUALSTYLE
  5
1C2C
102
{ACAD_XDICTIONARY
360
407B
102
}
102
{ACAD_REACTORS
330
BED
102
}
330
BED
100
AcDbVisualStyle
  2
EdgeColorOff
 70
    22
 71
     2
 72
     2
 73
     0
 90
        0
 40
-0.6
 41
-30.0
 62
     5
 63
     7
 74
     1
 91
        4
 64
     7
 65
   257
 75
     1
175
     1
 42
1.0
 92
        8
 66
     7
 43
1.0
 76
     1
 77
     6
 78
     2
 67
     7
 79
     5
170
     0
171
     0
290
     0
174
     0
 93
        1
 44
0.0
173
     0
291
     1
 45
0.0
1001
ACAD
1000
AcDbSavedByObjectVersion
1070
     0
  0
VISUALSTYLE
  5
BFC
102
{ACAD_XDICTIONARY
360
4064
102
}
102
{ACAD_REACTORS
330
BED
102
}
330
BED
100
AcDbVisualStyle
  2
Facepattern
 70
    15
 71
     2
 72
     2
 73
     0
 90
        0
 40
-0.6
 41
-30.0
 62
     5
 63
     7
 74
     1
 91
        4
 64
     7
 65
   257
 75
     1
175
     1
 42
1.0
 92
        8
 66
     7
 43
1.0
 76
     1
 77
     6
 78
     2
 67
     7
 79
     5
170
     0
171
     0
290
     0
174
     0
 93
        1
 44
0.0
173
     0
291
     1
 45
0.0
1001
ACAD
1000
AcDbSavedByObjectVersion
1070
     0
  0
VISUALSTYLE
  5
BEE
102
{ACAD_XDICTIONARY
360
4048
102
}
102
{ACAD_REACTORS
330
BED
102
}
330
BED
100
AcDbVisualStyle
  2
Flat
 70
     0
 71
     2
 72
     1
 73
     1
 90
        2
 40
-0.6
 41
30.0
 62
     5
 63
     7
 74
     0
 91
        4
 64
     7
 65
   257
 75
     1
175
     1
 42
1.0
 92
        8
 66
     7
 43
1.0
 76
     1
 77
     6
 78
     2
 67
     7
 79
     5
170
     0
171
     0
290
     0
174
     0
 93
       13
 44
0.0
173
     0
291
     1
 45
0.0
1001
ACAD
1000
AcDbSavedByObjectVersion
1070
     0
  0
VISUALSTYLE
  5
BEF
102
{ACAD_XDICTIONARY
360
404A
102
}
102
{ACAD_REACTORS
330
BED
102
}
330
BED
100
AcDbVisualStyle
  2
FlatWithEdges
 70
     1
 71
     2
 72
     1
 73
     1
 90
        2
 40
-0.6
 41
30.0
 62
     5
 63
     7
 74
     1
 91
        4
 64
     7
 65
   257
 75
     1
175
     1
 42
1.0
 92
        0
 66
   257
 43
1.0
 76
     1
 77
     6
 78
     2
 67
     7
 79
     5
170
     0
171
     0
290
     0
174
     0
 93
       13
 44
0.0
173
     0
291
     1
 45
0.0
1001
ACAD
1000
AcDbSavedByObjectVersion
1070
     0
  0
VISUALSTYLE
  5
BF0
102
{ACAD_XDICTIONARY
360
404C
102
}
102
{ACAD_REACTORS
330
BED
102
}
330
BED
100
AcDbVisualStyle
  2
Gouraud
 70
     2
 71
     2
 72
     2
 73
     1
 90
        2
 40
-0.6
 41
30.0
 62
     5
 63
     7
 74
     0
 91
        4
 64
     7
 65
   257
 75
     1
175
     1
 42
1.0
 92
        0
 66
     7
 43
1.0
 76
     1
 77
     6
 78
     2
 67
     7
 79
     5
170
     0
171
     0
290
     0
174
     0
 93
       13
 44
0.0
173
     0
291
     1
 45
0.0
1001
ACAD
1000
AcDbSavedByObjectVersion
1070
     0
  0
VISUALSTYLE
  5
BF1
102
{ACAD_XDICTIONARY
360
404E
102
}
102
{ACAD_REACTORS
330
BED
102
}
330
BED
100
AcDbVisualStyle
  2
GouraudWithEdges
 70
     3
 71
     2
 72
     2
 73
     1
 90
        2
 40
-0.6
 41
30.0
 62
     5
 63
     7
 74
     1
 91
        4
 64
     7
 65
   257
 75
     1
175
     1
 42
1.0
 92
        0
 66
   257
 43
1.0
 76
     1
 77
     6
 78
     2
 67
     7
 79
     5
170
     0
171
     0
290
     0
174
     0
 93
       13
 44
0.0
173
     0
291
     1
 45
0.0
1001
ACAD
1000
AcDbSavedByObjectVersion
1070
     0
  0
VISUALSTYLE
  5
1C24
102
{ACAD_XDICTIONARY
360
406B
102
}
102
{ACAD_REACTORS
330
BED
102
}
330
BED
100
AcDbVisualStyle
  2
Hidden
 70
     6
 71
     1
 72
     2
 73
     2
 90
        0
 40
-0.6
 41
-30.0
 62
     5
 63
     7
 74
     2
 91
        2
 64
     7
 65
   257
 75
     2
175
     1
 42
40.0
 92
        0
 66
   257
 43
1.0
 76
     1
 77
     6
 78
     2
 67
     7
 79
     3
170
     0
171
     0
290
     0
174
     0
 93
        1
 44
0.0
173
     0
291
     0
 45
0.0
1001
ACAD
1000
AcDbSavedByObjectVersion
1070
     0
  0
VISUALSTYLE
  5
1C2A
102
{ACAD_XDICTIONARY
360
4077
102
}
102
{ACAD_REACTORS
330
BED
102
}
330
BED
100
AcDbVisualStyle
  2
JitterOff
 70
    20
 71
     2
 72
     2
 73
     0
 90
        0
 40
-0.6
 41
-30.0
 62
     5
 63
     7
 74
     1
 91
        4
 64
     7
 65
   257
 75
     1
175
     1
 42
1.0
 92
       10
 66
     7
 43
1.0
 76
     1
 77
     6
 78
     2
 67
     7
 79
     5
170
     0
171
     0
290
     0
174
     0
 93
        1
 44
0.0
173
     0
291
     1
 45
0.0
1001
ACAD
1000
AcDbSavedByObjectVersion
1070
     0
  0
VISUALSTYLE
  5
BFB
102
{ACAD_XDICTIONARY
360
4062
102
}
102
{ACAD_REACTORS
330
BED
102
}
330
BED
100
AcDbVisualStyle
  2
Linepattern
 70
    14
 71
     2
 72
     2
 73
     0
 90
        0
 40
-0.6
 41
-30.0
 62
     5
 63
     7
 74
     1
 91
        4
 64
     7
 65
   257
 75
     7
175
     7
 42
1.0
 92
        8
 66
     7
 43
1.0
 76
     1
 77
     6
 78
     2
 67
     7
 79
     5
170
     0
171
     0
290
     0
174
     0
 93
        1
 44
0.0
173
     0
291
     1
 45
0.0
1001
ACAD
1000
AcDbSavedByObjectVersion
1070
     0
  0
VISUALSTYLE
  5
1C2B
102
{ACAD_XDICTIONARY
360
4079
102
}
102
{ACAD_REACTORS
330
BED
102
}
330
BED
100
AcDbVisualStyle
  2
OverhangOff
 70
    21
 71
     2
 72
     2
 73
     0
 90
        0
 40
-0.6
 41
-30.0
 62
     5
 63
     7
 74
     1
 91
        4
 64
     7
 65
   257
 75
     1
175
     1
 42
1.0
 92
        9
 66
     7
 43
1.0
 76
     1
 77
     6
 78
     2
 67
     7
 79
     5
170
     0
171
     0
290
     0
174
     0
 93
        1
 44
0.0
173
     0
291
     1
 45
0.0
1001
ACAD
1000
AcDbSavedByObjectVersion
1070
     0
  0
VISUALSTYLE
  5
BF7
102
{ACAD_XDICTIONARY
360
405A
102
}
102
{ACAD_REACTORS
330
BED
102
}
330
BED
100
AcDbVisualStyle
  2
Realistic
 70
     8
 71
     2
 72
     2
 73
     0
 90
        0
 40
-0.6
 41
-30.0
 62
     5
 63
     7
 74
     1
 91
        0
 64
     7
 65
   257
 75
     1
175
     1
 42
1.0
 92
        8
 66
     8
 43
1.0
 76
     1
 77
     6
 78
     2
 67
     7
 79
     5
170
     0
171
     0
290
     0
174
     0
 93
       13
 44
0.0
173
     0
291
     0
 45
0.0
1001
ACAD
1000
AcDbSavedByObjectVersion
1070
     0
  0
VISUALSTYLE
  5
1C29
102
{ACAD_XDICTIONARY
360
4075
102
}
102
{ACAD_REACTORS
330
BED
102
}
330
BED
100
AcDbVisualStyle
  2
Shaded
 70
    27
 71
     2
 72
     2
 73
     1
 90
        2
 40
-0.6
 41
30.0
 62
     5
 63
     7
 74
     0
 91
        4
 64
     7
 65
   257
 75
     1
175
     1
 42
1.0
 92
        8
 66
   257
 43
1.0
 76
     1
 77
     6
 78
     2
 67
     8
 79
     3
170
     0
171
     0
290
     0
174
     0
 93
        5
 44
0.0
173
     0
291
     0
 45
0.0
1001
ACAD
1000
AcDbSavedByObjectVersion
1070
     0
  0
VISUALSTYLE
  5
1C28
102
{ACAD_XDICTIONARY
360
4073
102
}
102
{ACAD_REACTORS
330
BED
102
}
330
BED
100
AcDbVisualStyle
  2
Shaded with edges
 70
    26
 71
     2
 72
     2
 73
     1
 90
        2
 40
-0.6
 41
30.0
 62
     5
 63
     7
 74
     1
 91
       10
 64
     7
 65
   257
 75
     2
175
     1
 42
1.0
 92
        8
 66
   257
 43
1.0
 76
     1
 77
     6
 78
     2
 67
     7
 79
     3
170
     0
171
     0
290
     0
174
     0
 93
        5
 44
0.0
173
     0
291
     0
 45
0.0
1001
ACAD
1000
AcDbSavedByObjectVersion
1070
     0
  0
VISUALSTYLE
  5
1C25
102
{ACAD_XDICTIONARY
360
406D
102
}
102
{ACAD_REACTORS
330
BED
102
}
330
BED
100
AcDbVisualStyle
  2
Shades of Gray
 70
    23
 71
     2
 72
     2
 73
     3
 90
        0
 40
-0.6
 41
-30.0
 62
     5
 63
     7
 74
     2
 91
        2
 64
     7
 65
     7
 75
     1
175
     1
 42
40.0
 92
        8
 66
     7
 43
1.0
 76
     1
 77
     6
 78
     2
 67
     7
 79
     3
170
     0
171
     0
290
     0
174
     0
 93
        1
 44
0.0
173
     0
291
     0
 45
0.0
1001
ACAD
1000
AcDbSavedByObjectVersion
1070
     0
  0
VISUALSTYLE
  5
1C26
102
{ACAD_XDICTIONARY
360
406F
102
}
102
{ACAD_REACTORS
330
BED
102
}
330
BED
100
AcDbVisualStyle
  2
Sketchy
 70
    24
 71
     1
 72
     2
 73
     2
 90
        0
 40
-0.6
 41
-30.0
 62
     5
 63
     7
 74
     2
 91
        2
 64
     7
 65
     7
 75
     1
175
     1
 42
40.0
 92
       11
 66
     7
 43
1.0
 76
     1
 77
     6
 78
     2
 67
     7
 79
     6
170
     0
171
     0
290
     0
174
     0
 93
        1
 44
0.0
173
     0
291
     0
 45
0.0
1001
ACAD
1000
AcDbSavedByObjectVersion
1070
     0
  0
VISUALSTYLE
  5
BFA
102
{ACAD_XDICTIONARY
360
4060
102
}
102
{ACAD_REACTORS
330
BED
102
}
330
BED
100
AcDbVisualStyle
  2
Thicken
 70
    13
 71
     2
 72
     2
 73
     0
 90
        0
 40
-0.6
 41
-30.0
 62
     5
 63
     7
 74
     1
 91
        4
 64
     7
 65
   257
 75
     1
175
     1
 42
1.0
 92
       12
 66
     7
 43
1.0
 76
     1
 77
     6
 78
     2
 67
     7
 79
     5
170
     0
171
     0
290
     0
174
     0
 93
        1
 44
0.0
173
     0
291
     1
 45
0.0
1001
ACAD
1000
AcDbSavedByObjectVersion
1070
     0
  0
VISUALSTYLE
  5
1C23
102
{ACAD_XDICTIONARY
360
4069
102
}
102
{ACAD_REACTORS
330
BED
102
}
330
BED
100
AcDbVisualStyle
  2
Wireframe
 70
     5
 71
     0
 72
     2
 73
     0
 90
        0
 40
-0.6
 41
-30.0
 62
     5
 63
     7
 74
     1
 91
        4
 64
     7
 65
   257
 75
     1
175
     1
 42
1.0
 92
        0
 66
   257
 43
1.0
 76
     1
 77
     6
 78
     2
 67
     7
 79
     3
170
     0
171
     0
290
     0
174
     0
 93
        1
 44
0.0
173
     0
291
     0
 45
0.0
1001
ACAD
1000
AcDbSavedByObjectVersion
1070
     0
  0
VISUALSTYLE
  5
1C27
102
{ACAD_XDICTIONARY
360
4071
102
}
102
{ACAD_REACTORS
330
BED
102
}
330
BED
100
AcDbVisualStyle
  2
X-Ray
 70
    25
 71
     2
 72
     2
 73
     1
 90
        1
 40
0.5
 41
-30.0
 62
     5
 63
     7
 74
     1
 91
        0
 64
     7
 65
   257
 75
     1
175
     1
 42
1.0
 92
        8
 66
     7
 43
1.0
 76
     1
 77
     6
 78
     2
 67
     7
 79
     3
170
     0
171
     0
290
     0
174
     0
 93
       13
 44
0.0
173
     0
291
     0
 45
0.0
1001
ACAD
1000
AcDbSavedByObjectVersion
1070
     0
  0
DICTIONARYVAR
  5
2327
102
{ACAD_REACTORS
330
9E
102
}
330
9E
100
DictionaryVariables
280
     0
  1
1:1
  0
DICTIONARYVAR
  5
2326
102
{ACAD_REACTORS
330
9E
102
}
330
9E
100
DictionaryVariables
280
     0
  1
STANDARD
  0
DICTIONARYVAR
  5
14F0
102
{ACAD_REACTORS
330
9E
102
}
330
9E
100
DictionaryVariables
280
     0
  1
STANDARD
  0
DICTIONARYVAR
  5
A0
102
{ACAD_REACTORS
330
9E
102
}
330
9E
100
DictionaryVariables
280
     0
  1
2
  0
DICTIONARYVAR
  5
9F
102
{ACAD_REACTORS
330
9E
102
}
330
9E
100
DictionaryVariables
280
     0
  1
0
  0
DICTIONARYVAR
  5
4038
102
{ACAD_REACTORS
330
9E
102
}
330
9E
100
DictionaryVariables
280
     0
  1
127
  0
DICTIONARYVAR
  5
4039
102
{ACAD_REACTORS
330
9E
102
}
330
9E
100
DictionaryVariables
280
     0
  1
0
  0
DICTIONARY
  5
18DF
102
{ACAD_REACTORS
330
63
102
}
330
63
100
AcDbDictionary
281
     1
  0
DICTIONARY
  5
69
102
{ACAD_REACTORS
330
63
102
}
330
63
100
AcDbDictionary
281
     1
  0
XRECORD
  5
C1D
102
{ACAD_REACTORS
330
63
102
}
330
63
100
AcDbXrecord
280
     1
 90
-1023410169
  0
DICTIONARY
  5
403D
330
1E
100
AcDbDictionary
280
     1
281
     1
  3
ACAD_XREC_ROUNDTRIP
360
403E
  0
DICTIONARY
  5
4040
330
26
100
AcDbDictionary
280
     1
281
     1
  3
ACAD_XREC_ROUNDTRIP
360
4041
  0
DICTIONARY
  5
22D8
330
22
100
AcDbDictionary
280
     1
281
     1
  3
ACAD_XREC_ROUNDTRIP
360
403F
  3
ADSK_XREC_LAYOUTTHUMBNAIL
360
22D9
  0
DICTIONARY
  5
4044
330
BEB
100
AcDbDictionary
280
     1
281
     1
  3
ACAD_XREC_ROUNDTRIP
360
4045
  0
DICTIONARY
  5
4042
330
BEA
100
AcDbDictionary
280
     1
281
     1
  3
ACAD_XREC_ROUNDTRIP
360
4043
  0
DICTIONARY
  5
4046
330
BEC
100
AcDbDictionary
280
     1
281
     1
  3
ACAD_XREC_ROUNDTRIP
360
4047
  0
DICTIONARY
  5
22DA
330
BFF
100
AcDbDictionary
280
     1
281
     1
  3
ACAD_ROUNDTRIP_2008_TABLESTYLE_CELLSTYLEMAP
360
403A
  3
ACAD_XREC_ROUNDTRIP
360
4068
  0
DICTIONARY
  5
4052
330
BF3
100
AcDbDictionary
280
     1
281
     1
  3
ACAD_XREC_ROUNDTRIP
360
4053
  0
DICTIONARY
  5
4056
330
BF5
100
AcDbDictionary
280
     1
281
     1
  3
ACAD_XREC_ROUNDTRIP
360
4057
  0
DICTIONARY
  5
4054
330
BF4
100
AcDbDictionary
280
     1
281
     1
  3
ACAD_XREC_ROUNDTRIP
360
4055
  0
DICTIONARY
  5
4050
330
BF2
100
AcDbDictionary
280
     1
281
     1
  3
ACAD_XREC_ROUNDTRIP
360
4051
  0
DICTIONARY
  5
405E
330
BF9
100
AcDbDictionary
280
     1
281
     1
  3
ACAD_XREC_ROUNDTRIP
360
405F
  0
DICTIONARY
  5
4066
330
BFD
100
AcDbDictionary
280
     1
281
     1
  3
ACAD_XREC_ROUNDTRIP
360
4067
  0
DICTIONARY
  5
4058
330
BF6
100
AcDbDictionary
280
     1
281
     1
  3
ACAD_XREC_ROUNDTRIP
360
4059
  0
DICTIONARY
  5
405C
330
BF8
100
AcDbDictionary
280
     1
281
     1
  3
ACAD_XREC_ROUNDTRIP
360
405D
  0
DICTIONARY
  5
407B
330
1C2C
100
AcDbDictionary
280
     1
281
     1
  3
ACAD_XREC_ROUNDTRIP
360
407C
  0
DICTIONARY
  5
4064
330
BFC
100
AcDbDictionary
280
     1
281
     1
  3
ACAD_XREC_ROUNDTRIP
360
4065
  0
DICTIONARY
  5
4048
330
BEE
100
AcDbDictionary
280
     1
281
     1
  3
ACAD_XREC_ROUNDTRIP
360
4049
  0
DICTIONARY
  5
404A
330
BEF
100
AcDbDictionary
280
     1
281
     1
  3
ACAD_XREC_ROUNDTRIP
360
404B
  0
DICTIONARY
  5
404C
330
BF0
100
AcDbDictionary
280
     1
281
     1
  3
ACAD_XREC_ROUNDTRIP
360
404D
  0
DICTIONARY
  5
404E
330
BF1
100
AcDbDictionary
280
     1
281
     1
  3
ACAD_XREC_ROUNDTRIP
360
404F
  0
DICTIONARY
  5
406B
330
1C24
100
AcDbDictionary
280
     1
281
     1
  3
ACAD_XREC_ROUNDTRIP
360
406C
  0
DICTIONARY
  5
4077
330
1C2A
100
AcDbDictionary
280
     1
281
     1
  3
ACAD_XREC_ROUNDTRIP
360
4078
  0
DICTIONARY
  5
4062
330
BFB
100
AcDbDictionary
280
     1
281
     1
  3
ACAD_XREC_ROUNDTRIP
360
4063
  0
DICTIONARY
  5
4079
330
1C2B
100
AcDbDictionary
280
     1
281
     1
  3
ACAD_XREC_ROUNDTRIP
360
407A
  0
DICTIONARY
  5
405A
330
BF7
100
AcDbDictionary
280
     1
281
     1
  3
ACAD_XREC_ROUNDTRIP
360
405B
  0
DICTIONARY
  5
4075
330
1C29
100
AcDbDictionary
280
     1
281
     1
  3
ACAD_XREC_ROUNDTRIP
360
4076
  0
DICTIONARY
  5
4073
330
1C28
100
AcDbDictionary
280
     1
281
     1
  3
ACAD_XREC_ROUNDTRIP
360
4074
  0
DICTIONARY
  5
406D
330
1C25
100
AcDbDictionary
280
     1
281
     1
  3
ACAD_XREC_ROUNDTRIP
360
406E
  0
DICTIONARY
  5
406F
330
1C26
100
AcDbDictionary
280
     1
281
     1
  3
ACAD_XREC_ROUNDTRIP
360
4070
  0
DICTIONARY
  5
4060
330
BFA
100
AcDbDictionary
280
     1
281
     1
  3
ACAD_XREC_ROUNDTRIP
360
4061
  0
DICTIONARY
  5
4069
330
1C23
100
AcDbDictionary
280
     1
281
     1
  3
ACAD_XREC_ROUNDTRIP
360
406A
  0
DICTIONARY
  5
4071
330
1C27
100
AcDbDictionary
280
     1
281
     1
  3
ACAD_XREC_ROUNDTRIP
360
4072
  0
XRECORD
  5
403E
102
{ACAD_REACTORS
330
403D
102
}
330
403D
100
AcDbXrecord
280
     1
102
SHADEPLOT
 70
     0
102
SHADEPLOTRESLEVEL
 70
     2
102
SHADEPLOTCUSTOMDPI
 70
   300
  0
XRECORD
  5
4041
102
{ACAD_REACTORS
330
4040
102
}
330
4040
100
AcDbXrecord
280
     1
102
SHADEPLOT
 70
     0
102
SHADEPLOTRESLEVEL
 70
     2
102
SHADEPLOTCUSTOMDPI
 70
   300
  0
XRECORD
  5
403F
102
{ACAD_REACTORS
330
22D8
102
}
330
22D8
100
AcDbXrecord
280
     1
102
SHADEPLOT
 70
     0
102
SHADEPLOTRESLEVEL
 70
     2
102
SHADEPLOTCUSTOMDPI
 70
   180
  0
XRECORD
  5
22D9
102
{ACAD_REACTORS
330
22D8
102
}
330
22D8
100
AcDbXrecord
280
     1
310
28000000000100007B0000000100080000000000007B0000000000000000000000010000000000000000000000000000FFFFFF000000000000000000000000000000000000000000000000000000000000000000330000006600000099000000CC000000FF00000000330000333300006633000099330000CC330000FF3300
310
0000660000336600006666000099660000CC660000FF66000000990000339900006699000099990000CC990000FF99000000CC000033CC000066CC000099CC0000CCCC0000FFCC000000FF000033FF000066FF000099FF0000CCFF0000FFFF000000003300330033006600330099003300CC003300FF003300003333003333
310
33006633330099333300CC333300FF33330000663300336633006666330099663300CC663300FF66330000993300339933006699330099993300CC993300FF99330000CC330033CC330066CC330099CC3300CCCC3300FFCC330000FF330033FF330066FF330099FF3300CCFF3300FFFF330000006600330066006600660099
310
006600CC006600FF00660000336600333366006633660099336600CC336600FF33660000666600336666006666660099666600CC666600FF66660000996600339966006699660099996600CC996600FF99660000CC660033CC660066CC660099CC6600CCCC6600FFCC660000FF660033FF660066FF660099FF6600CCFF6600
310
FFFF660000009900330099006600990099009900CC009900FF00990000339900333399006633990099339900CC339900FF33990000669900336699006666990099669900CC669900FF66990000999900339999006699990099999900CC999900FF99990000CC990033CC990066CC990099CC9900CCCC9900FFCC990000FF99
310
0033FF990066FF990099FF9900CCFF9900FFFF99000000CC003300CC006600CC009900CC00CC00CC00FF00CC000033CC003333CC006633CC009933CC00CC33CC00FF33CC000066CC003366CC006666CC009966CC00CC66CC00FF66CC000099CC003399CC006699CC009999CC00CC99CC00FF99CC0000CCCC0033CCCC0066CC
310
CC0099CCCC00CCCCCC00FFCCCC0000FFCC0033FFCC0066FFCC0099FFCC00CCFFCC00FFFFCC000000FF003300FF006600FF009900FF00CC00FF00FF00FF000033FF003333FF006633FF009933FF00CC33FF00FF33FF000066FF003366FF006666FF009966FF00CC66FF00FF66FF000099FF003399FF006699FF009999FF00CC
310
99FF00FF99FF0000CCFF0033CCFF0066CCFF0099CCFF00CCCCFF00FFCCFF0000FFFF0033FFFF0066FFFF0099FFFF00CCFFFF00FFFFFF00000000000D0D0D001A1A1A00282828003535350043434300505050005D5D5D006B6B6B00787878008686860093939300A1A1A100AEAEAE00BBBBBB00C9C9C900D6D6D600E4E4E400
310
F1F1F100FFFFFF000000000000000000000000000000000000000000000000000000000000000000000000000000000000000000000000000000000000000000000000000000000000000000000000000000000000000000000000000000000000000000000000000000000000000000000000000000000000000000000000
310
00000000000000000000002D00000000000000000000000000000000000000000000000000000000000000000000000000000000000000000000000000000000000000000000000000000000000000000000000000000000000000000000000000000000000000000000000000000000000000000000000000000000000000
310
00000000000000000000000000000000000000000000000000000000000000000000000000000000000000000000000000000000000000000000000000000000000000000000000000000000000000000000000000000000000000000000000000000000000000000000000000000000000000000000000000000000000000
310
000000000000000000000000002D000000000000000000000000000000000000000000000000000000000000000000000000000000000000000000000000000000000000000000000000000000000000000000000000000000000000000000000000000000000000002D000000000000000000000000000000000000000000
310
00000000000000000000000000000000000000000000000000000000000000000000000000000000000000000000000000000000000000000000000000000000000000000000000000000000000000000000000000000000000000000000000000000000000000000000000000000000000000000000000000000000000000
310
0000000000000000000000000000002D000000000000000000000000000000000000000000000000000000000000000000000000000000000000000000000000000000000000000000000000000000000000000000000000000000000000000000000000000000000000002D00000000000000000000000000000000000000
310
00000000000000000000000000000000000000000000000000000000000000000000000000000000000000000000000000000000000000000000000000000000000000000000000000000000000000000000000000000000000000000000000000000000000000000000000000000000000000000000000000000000000000
310
00000000000000000000000000000000002D000000000000000000000000000000000000000000000000000000000000000000000000000000000000000000000000000000000000000000000000000000000000000000000000000000000000000000000000000000000000002D0000000000000000000000000000000000
310
00000000000000000000000000000000000000000000000000000000000000000000000000000000000000000000000000000000000000000000000000000000000000000000000000000000000000000000000000000000000000000000000000000000000000000000000000000000000000000000000000000000000000
310
000000F5F5F5F5F5F5F5F5F5F5F5F5F5F5F5F5F5F5F5F5F5F5F5F5F5F5F5F5F5F5F5F5000000000000000000000000000000000000000000000000000000000000000000000000000000000000000000000000000000000000000000000000000000000000F5F5F5F5F5F5F5F5F5F5F5F5F5F5F5F5F5F5F5F5F5F500000000
310
00000000000000000000000000000000000000000000000000000000000000000000000000000000000000000000000000000000000000000000000000000000000000000000000000000000000000000000000000000000000000000000000000000000000000000000000000000000000000000000000000000000000000
310
0000F5F5F5F500F5000000000000000000000000002D000000000000000000000000F500F5F5F5F5F5000000000000000000000000000000000000000000000000000000000000000000000000000000000000000000000000000000000000000000000000F5F500000000000000F5F5F5F5F5F5F5F500000000000000F500
310
000000000000000000000000000000000000000000000000000000000000000000000000000000000000000000000000000000000000000000000000000000000000000000000000000000000000000000000000000000000000000000000000000000000000000000000000000000000000000000000000000000000000F5
310
F5F5F5F5F50000F500F5000000000000000000000000002D000000000000000000000000F500F5000000F50000000000000000000000000000000000000000000000000000000000000000000000000000000000000000000000000000000000000000000000F5000000000000F5F5F50000002D00000000F5F50000000000
310
00F50000000000000000000000000000000000000000000000000000000000000000000000000000000000000000000000000000000000000000000000000000000000000000000000000000000000000000000000000000000000000000000000000000000000000000000000000000000000000000000000F5F5F5F5F5F5
310
F5000000F528F50000F500F5000000000000000000000000002D000000000000000000000000F500F5000000F500000000000000000000000000000000000000000000000000000000000000000000000000000000000000000000000000000000000000000000F50000000000F5F50000000000002D000000000000F5F500
310
00000000F500000000000000000000000000000000000000000000000000000000000000000000000000000000000000000000000000000000000000000000000000000000000000000000000000000000000000000000000000000000000000000000000000000000000000000000000000000000000000F5F5F528F52828
310
282828282828F500F50000F500F5F5F5F5F5F5F5F5F5F5F5F5F5F5F5F5F5F5F5F5F5F5F5F5F5F5F5F500F5000000F5000000000000000000000000000000000000000000000000000000000000000000000000000000000000000000000000000000000000000000F50000000000F500000000000000002D00000000000000
310
00F5F500000000F5000000000000000000000000000000000000000000000000000000000000000000000000000000000000000000000000000000000000000000000000000000000000000000000000000000000000000000000000000000000000000000000000000000000000000000000000000000000000F5000000F5
310
0000000000000000F500F50000F500F5000000000000000000000000002D000000000000000000000000F500F5000000F5000000000000000000000000000000000000000000000000000000000000000000000000000000000000000000000000000000000000000000F500000000F50000000000000000002D0000000000
310
00000000F5F5000000F5000000000000000000000000000000000000000000000000000000000000000000000000000000000000000000000000000000000000000000000000000000000000000000000000000000000000000000000000000000000000000000000000000000000000000000000000000000000000F50000
310
00F50000000000000000F500F50000F500F5000000000000000000000000002D000000000000000000000000F500F5000000F5F5F5F5F5F5F5F5F5F5F50000F5F5F5000000F5F5F50000F5F5F5000000F5F5F500000000000000000000000000000000000000000000000000F5000000F500000000000000000000F5000000
310
00000000000000F5F50000F5000000000000000000000000000000000000000000000000000000000000000000000000000000000000000000000000000000000000000000000000000000000000000000000000000000000000000000000000000000000000000000000000000000000000000000000000000000000000F5
310
000000F50000000000000000F500F50000F5F500000000000000000000000000002D00000000000000000000000000F5F5000000F500000000000000F50000F5F5F50000F5F5F5F50000F5F5F50000F5F5F5F50000F5F5F500000000000000000000000000000000000000000000F50000F5000000000000000000F5F5F5F5
310
F5000000000000000000F50000F50000000000000000000000000000000000000000000000000000000000000000000000000000000000000000000000000000000000000000000000000000000000000000000000000000000000000000000000000000000000000000000000000000000000000000000000000000000000
310
00F5000000F50000000000000000F500F50000F5F500000000000000000000000000002D00000000000000000000000000F5F5000000F500000000000000F500000000F50000000000F500000000F50000000000F500000000F500000000000000000000000000000000000000000000F50000F500000000000000F5F5F5F5
310
F5F5F5F5F50000000000000000F500F5000000000000000000000000000000000000000000000000000000000000000000000000000000000000000000000000000000000000000000000000000000000000000000000000000000000000000000000000000000000000000000000000000000000000000000000000000000
310
000000F5000000F50000000000000000F500F50000F5F500000000000000000000000000002D00000000000000000000000000F5F5000000F500000000000000F500000000F50000000000F500000000F50000000000F500000000F500000000000000000000000000000000000000000000F500F5000000000000F5F5F5F5
310
F5F5F5F5F5F5F5F5F5000000000000F5F5F500000000000000000000000000000000000000000000000000000000000000000000000000000000000000000000000000000000000000000000000000000000000000000000000000000000000000000000000000000000000000000000000000000000000000000000000000
310
0000000000F5000000F50000000000000000F500F50000F5F500000000000000000000000000002D00000000000000000000000000F5F5000000F500000000000000F500000000F50000000000F500000000F50000000000F500000000F500000000000000000000000000000000000000000000F500F5000000000000F5F5
310
F5F500002D0000F5F5F5F5F50000000000F5F5F50000000000000000000000000000000000000000000000000000000000000000000000000000000000000000000000000000000000000000000000000000000000000000000000000000000000000000000000000000000000000000000000000000000000000000000000
310
00000000000000F5000000F50000000000000000F500F50000F5F500000000000000000000000000002D0000000000000000000000000000F5000000F500000000000000F500000000F50000000000F500000000F50000000000F500000000F500000000000000000000000000000000000000000000F5F5000000000000F5
310
F5F5F50000002D00000000F5F5F5F50000000000F5F5000000000000000000000000000000000000000000000000000000000000000000000000000000000000000000000000000000000000000000000000000000000000000000000000000000000000000000000000000000000000000000000000000000000000000000
310
000000000000000000F5000000F50000000000000000F500F50000F50000000000000000000000000000002D0000000000000000000000000000F5000000F500000000000000F500000000F50000000000F500000000F50000000000F500000000F500000000000000000000000000000000000000000000F5F50000000000
310
00F5F5F5000000002D0000000000F5F5F50000000000F5F500000000000000000000000000000000000000000000000000000000000000000000000000000000000000000000000000000000000000000000000000000000000000000000000000000000000000000000000000000000000000000000000000000000000000
310
0000000000000000000000F5000000F50000000000000000F500F50000F50000000000000000000000000000002D0000000000000000000000000000F5000000F500000000000000F500000000F50000000000F500000000F50000000000F500000000F500000000000000000000000000000000000000000000F5F5000000
310
0000F5F5F500000000002D0000000000F5F5F50000000000F5F50000000000000000000000000000000000000000000000000000000000000000000000000000000000000000000000000000000000000000000000000000000000000000000000000000000000000000000000000000000000000000000000000000000000
310
00000000000000000000000000F5000000F50000000000000000F500F50000F50000000000000000000000000000002D0000000000000000000000000000F5000000F500000000000000F500000000F50000000000F500000000F50000000000F500000000F500000000000000000000000000000000000000000000F5F500
310
00000000F5F5F500000000002D0000000000F5F5F5F500000000F5F5000000000000000000000000000000000000000000000000000000000000000000000000000000000000000000000000000000000000000000000000000000000000000000000000000000000000000000000000000000000000000000000000000000
310
000000000000000000000000002D2D2D2D2D2DF52D2D2D2D2D2D2D2DF52DF52D2DF52D2D2D2D2D2D2D2D2D2D2D2D2D2D2D2D2D2D2D2D2D2D2D2D2D2D2D2D2D2DF52D2D2DF52D2D2D2D2D2D2DF52D2D2D2DF52D2D2D2D2DF52D2D2D2DF52D2D2D2D2DF52D2D2D2DF52D0000000000000000000000000000000000002D2D2DF5
310
F52D2D2D2D2DF5F5F52D2D2D2D2D2D2D2D2D2D2DF5F5F5F52D2D2D2DF5F52D2D2D2D000000000000000000000000000000000000000000000000000000000000000000000000000000000000000000000000000000000000000000000000000000000000000000000000000000000000000000000000000000000000000000
310
0000000000000000000000000000000000F5000000F50000000000000000F500F50000F50000000000000000000000000000002D0000000000000000000000000000F5000000F500000000000000F500000000F50000000000F500000000F50000000000F500000000F5000000000000000000000000000000000000000000
310
00F5F50000000000F5F5F500000000002D0000000000F5F5F5F500000000F5F50000000000000000000000000000000000000000000000000000000000000000000000000000000000000000000000000000000000000000000000000000000000000000000000000000000000000000000000000000000000000000000000
310
00000000000000000000000000000000000000F5000000F50000000000000000F500F50000F50000000000000000000000000000002D0000000000000000000000000000F5000000F500000000000000F500000000F50000000000F500000000F50000000000F500000000F500000000000000000000000000000000000000
310
000000F5F50000000000F5F5F500000000002D0000000000F5F5F50000000000F5F5000000000000000000000000000000000000000000000000000000000000000000000000000000000000000000000000000000000000000000000000000000000000000000000000000000000000000000000000000000000000000000
310
000000000000000000000000000000000000000000F5000000F50000000000000000F500F50000F50000000000000000000000000000002D0000000000000000000000000000F5000000F500000000000000F500000000F50000000000F500000000F50000000000F500000000F50000000000000000000000000000000000
310
0000000000F5F5000000000000F5F5F5000000002D00000000F5F500F50000000000F5F500000000000000000000000000000000000000000000000000000000000000000000000000000000000000000000000000000000000000000000000000000000000000000000000000000000000000000000000000000000000000
310
0000000000000000000000000000000000000000000000F5000000F50000000000000000F500F50000F5F500000000000000000000000000002D0000000000000000000000000000F5000000F500000000000000F500000000F50000000000F500000000F50000000000F500000000F5000000000000000000000000000000
310
00000000000000F500F50000000000F5F5F5F50000002D00000000F5F5F5F50000000000F5F50000000000000000000000000000000000000000000000000000000000000000000000000000000000000000000000000000000000000000000000000000000000000000000000000000000000000000000000000000000000
310
00000000000000000000000000000000000000000000000000F5000000F50000000000000000F500F50000F5F500000000000000000000000000002D00000000000000000000000000F5F5000000F500000000000000F500000000F50000000000F500000000F50000000000F500000000F500000000000000000000000000
310
000000000000000000F500F5000000000000F5F500F500002D000000F5F5F5F50000000000F5F5F5000000000000000000000000000000000000000000000000000000000000000000000000000000000000000000000000000000000000000000000000000000000000000000000000000000000000000000000000000000
310
000000000000000000000000000000000000000000000000000000F5000000F50000000000000000F500F50000F5F500000000000000000000000000002D00000000000000000000000000F5F5000000F500000000000000F500000000F50000000000F500000000F50000000000F500000000F50000000000000000000000
310
0000000000000000000000F500F5000000000000F500F5F5F5F5F5F5F5F5F5F5F5000000000000F500F500000000000000000000000000000000000000000000000000000000000000000000000000000000000000000000000000000000000000000000000000000000000000000000000000000000000000000000000000
310
0000000000000000000000000000000000000000000000000000000000F5000000F50000000000000000F500F50000F5F500000000000000000000000000002D00000000000000000000000000F5F5000000F500000000000000F50000F5F5F5000000F5F5F50000F5F5F5000000F5F5F50000F5F5F5000000000000000000
310
00000000000000000000000000F50000F5000000000000F5F5F5F5F5F5F5F5F5F5F5000000000000F5F500F50000000000000000000000000000000000000000000000000000000000000000000000000000000000000000000000000000000000000000000000000000000000000000000000000000000000000000000000
310
00000000000000000000000000000000000000000000000000000000000000F5000000F50000000000000000F500F50000F500F5000000000000000000000000002D00000000000000000000000000F5F5000000F5F5F5F5F5F5F5F5F5F5F50000F5F5F5F50000F5F5F50000F5F5F5F50000F5F5F500000000000000000000
310
000000000000000000000000000000F50000F50000000000000000F5F5F5F5F5F5F50000000000000000F50000F5000000000000000000000000000000000000000000000000000000000000000000000000000000000000000000000000000000000000000000000000000000000000000000000000000000000000000000
310
000000000000000000000000000000000000000000000000000000000000000000F5000000F50000000000000000F500F50000F500F5000000000000000000000000002D000000000000000000000000F500F5000000F500000000000000000000000000000000000000000000000000000000000000000000000000000000
310
0000000000000000000000000000000000F5000000F5000000000000000000002D00000000000000000000F5F50000F500000000000000000000000000000000000000000000000000000000000000000000000000000000000000000000000000000000000000000000000000000000000000000000000000000000000000
310
0000000000000000000000000000000000000000000000000000000000000000000000F5000000F50000000000000000F500F50000F500F5F5F5F5F5F5F5F5F5F5F5F5F5F5F5F5F5F5F5F5F5F5F5F5F5F5F5F500F5000000F50000000000000000000000000000000000000000000000000000000000000000000000000000
310
00000000000000000000000000000000000000F500000000F50000000000000000002D000000000000000000F5F5000000F50000000000000000000000000000000000000000000000000000000000000000000000000000000000000000000000000000000000000000000000000000000000000000000000000000000000
310
0000000000000000000000000000000000000000000000000000000000000000000000000000F5F528F52828282828282828F500F50000F500F5000000000000000000000000002D000000000000000000000000F500F5000000F5000000000000000000000000000000000000000000000000000000000000000000000000
310
00000000000000000000000000000000000000000000F500000000F500000000000000002D0000000000000000F5F5000000F500000000000000000000000000000000000000000000000000000000000000000000000000000000000000000000000000000000000000000000000000000000000000000000000000000000
310
000000000000000000000000000000000000000000000000000000000000000000000000000000000000F5F5F5F5F5F5F5000000F528F50000F500F5000000000000000000000000002D000000000000000000000000F500F5000000F500000000000000000000000000000000000000000000000000000000000000000000
310
000000000000000000000000000000000000000000000000F50000000000F5F50000000000002D00000000000000F50000000000F50000000000000000000000000000000000000000000000000000000000000000000000000000000000000000000000000000000000000000000000000000000000000000000000000000
310
000000000000000000000000000000000000000000000000000000000000000000000000000000000000000000000000000000F5F5F5F5F5F50000F500F5000000000000000000000000002D000000000000000000000000F500F5000000F50000000000000000000000000000000000000000000000000000000000000000
310
000000000000000000000000000000000000000000000000000000F5000000000000F5F5000000002D00000000F5F5F50000000000F500000000000000000000000000000000000000000000000000000000000000000000000000000000000000000000000000000000000000000000000000000000000000000000000000
310
00000000000000000000000000000000000000000000000000000000000000000000000000000000000000000000000000000000000000000000F5F5F5F500F5000000000000000000000000002D000000000000000000000000F500F5F5F5F5F5000000000000000000000000000000000000000000000000000000000000
310
000000000000000000000000000000000000000000000000000000000000F5F5000000000000F5F5F5F5F5F5F5F5F500000000000000F5000000000000000000000000000000000000000000000000000000000000000000000000000000000000000000000000000000000000000000000000000000000000000000000000
310
000000000000000000000000000000000000000000000000000000000000000000000000000000000000000000000000000000000000000000000000000000F5F5F5F5F5F5F5F5F5F5F5F5F5F5F5F5F5F5F5F5F5F5F5F5F5F5F5F5F5F5F5F50000000000000000000000000000000000000000000000000000000000000000
310
00000000000000000000000000000000000000000000000000000000000000000000F5F5F5F5F5F5F5F5F5F5F5F5F5F5F5F5F5F5F5F5F5F50000000000000000000000000000000000000000000000000000000000000000000000000000000000000000000000000000000000000000000000000000000000000000000000
310
0000000000000000000000000000000000000000000000000000000000000000000000000000000000000000000000000000000000000000000000000000000000000000000000F50000000000000000002D000000000000000000F50000000000000000000000000000000000000000000000000000000000000000000000
310
000000000000000000000000000000000000000000000000000000000000000000000000F50000000000000000002D000000000000000000F500000000000000000000000000000000000000000000000000000000000000000000000000000000000000000000000000000000000000000000000000000000000000000000
310
00000000000000000000000000000000000000000000000000000000000000000000000000000000000000000000000000000000000000000000000000000000000000000000000000F50000000000000000002D000000000000000000F5000000000000000000000000000000000000000000000000000000000000000000
310
0000000000000000000000000000000000000000000000000000000000000000000000000000F50000000000000000002D000000000000000000F50000000000000000000000000000000000000000000000000000000000000000000000000000000000000000000000000000000000000000000000000000000000000000
310
000000000000000000000000000000000000000000000000000000000000000000000000000000000000000000000000000000000000000000000000000000000000000000000000000000F50000000000000000002D000000000000000000F500000000000000000000000000000000000000000000000000000000000000
310
00000000000000000000000000000000000000000000000000000000000000000000000000000000F50000000000000000002D000000000000000000F5000000000000000000000000000000000000000000000000000000000000000000000000000000000000000000000000000000000000000000000000000000000000
310
0000000000000000000000000000000000000000000000000000000000000000000000000000000000000000000000000000000000000000000000000000000000000000000000000000000000F50000000000000000002D000000000000000000F50000000000000000000000000000000000000000000000000000000000
310
000000000000000000000000000000000000000000000000000000000000000000000000000000000000F50000000000000000002D000000000000000000F500000000000000000000000000000000000000000000000000000000000000000000000000000000000000000000000000000000000000000000000000000000
310
00000000000000000000000000000000000000000000000000000000000000000000000000000000000000000000000000000000000000000000000000000000000000000000000000000000000000F50000000000000000002D000000000000000000F5000000000000000000000000000000000000000000000000000000
310
0000000000000000000000000000000000000000000000000000000000000000000000000000000000000000F50000000000000000002D000000000000000000F50000000000000000000000000000000000000000000000000000000000000000000000000000000000000000000000000000000000000000000000000000
310
000000000000000000000000000000000000000000000000000000000000000000000000000000000000000000000000000000000000000000000000000000000000000000000000000000000000000000F5F5F5F5F5F5F5F5F5F5F5F5F5F5F5F5F5F5F5F5F500000000000000000000000000000000000000000000000000
310
00000000000000000000000000000000000000000000000000000000000000000000000000000000000000000000F5F5F5F5F5F5F5F5F5F5F5F5F5F5F5F5F5F5F5F5F5000000000000000000000000000000000000000000000000000000000000000000000000000000000000000000000000000000000000000000000000
310
0000000000000000000000000000000000000000000000000000000000000000000000000000000000000000000000000000000000000000000000000000000000000000000000000000000000000000000000F5F5F5F5F5F5F5F5F5F5F5F5F5F5F5F5F5F5F5F5000000000000000000000000000000000000000000000000
310
00000000000000000000000000000000000000000000000000000000000000000000000000000000000000000000000000F5F5F5F5F5F5F5F5F5F5F5F5F5F5F5F5F5F5F5F500000000000000000000000000000000000000000000000000000000000000000000000000000000000000000000000000000000000000000000
310
00000000000000000000000000000000000000000000000000000000000000000000000000000000000000000000000000000000000000000000000000000000000000000000000000000000000000000000000000F5F5F5F5F5F5F5F5F5002D0000000000F50000F500000000000000000000000000000000000000000000
310
000000000000000000000000000000000000000000000000000000000000000000000000000000000000000000000000000000F5F5F5F5F5F5F5F5F52DF5F5F5F5F5F5F5F5F5F50000000000000000000000000000000000000000000000000000000000000000000000000000000000000000000000000000000000000000
310
000000000000000000000000000000000000000000000000000000000000000000000000000000000000000000000000000000000000000000000000000000000000000000000000000000000000000000000000000000F500000000000000F5002D0000000000F50000F50000000000000000000000000000000000000000
310
0000000000000000000000000000000000000000000000000000000000000000000000000000000000000000000000000000000000F500000000000000F5F5F50000000000000000F5000000000000000000000000000000000000000000000000000000000000000000000000000000000000000000000000000000000000
310
0000000000000000000000000000000000000000000000000000000000000000000000000000000000000000000000000000000000000000000000000000000000000000000000000000000000000000000000000000000000F500000000000000F5F5F5F5F5F5F5F5F5F5F5F5F50000000000000000000000000000000000
310
000000000000000000000000000000000000000000000000000000000000000000000000000000000000000000000000000000000000F5F5F5F5F5F5F5F5F5F5F5F50000000000000000F500000000000000000000000000000000000000000000000000000000000000000000000000000000000000000000000000000000
310
00000000000000000000000000000000000000000000000000000000000000000000000000000000000000000000000000000000000000000000000000000000000000000000000000000000000000000000000000000000000000F50000000000000000002D0000000000000000F500000000000000000000000000000000
310
0000000000000000000000000000000000000000000000000000000000000000000000000000000000000000000000000000000000000000F50000000000000000002D000000000000000000F50000000000000000000000000000000000000000000000000000000000000000000000000000000000000000000000000000
310
000000000000000000000000000000000000000000000000000000000000000000000000000000000000000000000000000000000000000000000000000000000000000000000000000000000000000000000000000000000000000000F50000000000000000002D000000000000000000F500000000000000000000000000
310
00000000000000000000000000000000000000000000000000000000000000000000000000000000000000000000000000000000000000000000F500000000000000F5F5F5F5F5F5000000000000F5000000000000000000000000000000000000000000000000000000000000000000000000000000000000000000000000
310
0000000000000000000000000000000000000000000000000000000000000000000000000000000000000000000000000000000000000000000000000000000000000000000000000000000000000000000000000000000000000000000000F50000000000000000002D000000000000000000F5F5F5000000000000000000
310
000000000000000000000000000000000000000000000000000000000000000000000000000000000000000000000000000000000000000000000000F500000000000000F5002D00F5F5000000000000F500000000000000000000000000000000000000000000000000000000000000000000000000000000000000000000
310
000000000000000000000000000000000000000000000000000000000000000000000000000000000000000000000000000000000000000000000000000000000000000000000000000000000000000000000000000000000000000000000000F5000000000000000000002D000000000000000000F5F500F5F50000000000
310
0000000000000000000000000000000000000000000000000000000000000000000000000000000000000000000000000000000000000000000000000000F500000000000000F5002D00F5F5000000000000F50000000000000000000000000000000000000000000000000000000000000000000000000000000000000000
310
0000000000000000000000000000000000000000000000000000000000000000000000000000000000000000000000000000000000000000000000000000000000000000000000000000000000000000000000000000000000000000000000000000F5000000000000000000002D000000000000000000F5F5000000F5F500
310
00000000000000000000000000000000000000000000000000000000000000000000000000000000000000000000000000000000000000000000000000000000F5000000000000F5F5002D00F5F500000000000000F50000000000000000000000000000000000000000000000000000000000000000000000000000000000
310
00000000000000000000000000000000000000000000000000000000000000000000000000000000000000000000000000000000000000000000000000000000000000000000000000000000000000000000000000000000000000000000000000000000F5000000000000000000002D000000000000000000F5F500000000
310
00F5F5000000000000000000000000000000000000000000000000000000000000000000000000000000000000000000000000000000000000000000000000000000F5000000000000F5F5002D00F500F5000000000000F5000000000000000000000000000000000000000000000000000000000000000000000000000000
310
000000000000000000000000000000000000000000000000000000000000000000000000000000000000000000000000000000000000000000000000000000000000000000000000000000000000000000000000000000000000000000000000000000000000F5000000000000000000002D000000000000000000F5F50000
310
0000000000F5F5F50000000000000000000000000000000000000000000000000000000000000000000000000000000000000000000000000000000000000000000000F5000000000000F500F5002D00F50000F50000000000F500000000000000000000000000000000000000000000000000000000000000000000000000
310
0000000000000000000000000000000000000000000000000000000000000000000000000000000000000000000000000000000000000000000000000000000000000000000000000000000000000000000000000000000000000000000000000000000000000000F5000000000000000000002D00000000000000000000F5
310
00000000000000000000F5F5F5F500000000000000000000000000000000000000000000000000000000000000000000000000000000000000000000000000000000000000F50000000000F50000F5002D00F5000000F500000000F50000000000000000000000000000000000000000000000000000000000000000000000
310
00000000000000000000000000000000000000000000000000000000000000000000000000000000000000000000000000000000000000000000000000000000000000000000000000000000000000000000000000000000000000000000000000000000000000000000F5000000000000000000002D000000000000000000
310
00F50000000000000000000000000000F5F5F5F5F5F5F5F5F5F5F5F5F5F5F5F5F5F5F5F5F5F5F5F5F5F5F5F5F5F5F5F5F5F5F5F5F5F5F5F5F5F500000000000000000000000000F500000000F5000000F5002D00F5000000F500000000F5000000000000000000000000000000000000000000000000000000000000000000
310
0000000000000000000000000000000000000000000000000000000000000000000000000000000000000000000000000000000000000000000000000000000000000000000000000000000000000000000000000000000000000000000000000000000000000000002D2D2DF52D2D2D2D2D2D2D2D2D2D2D2D2D2D2D2D2D2D
310
2D2D2DF52D2D0000000000000000000000000000000000000000000000000000000000000000000000000000000000000000000000000000000000F500000000000000000000000000F5F5F5F5F5F5000000F5F5F5F5F500000000F5F5F5F5F500000000000000000000000000000000000000000000000000000000000000
310
0000000000000000000000000000000000000000000000000000000000000000000000000000000000000000000000000000000000000000000000000000000000000000000000000000000000000000000000000000000000000000000000000000000000000000000000000000F5000000000000000000002D0000000000
310
0000000000F500000000000000000000000000000000000000000000000000000000000000000000000000000000000000000000000000000000000000F500000000000000000000000000F500000000F5000000F5002D00F500000000F5000000F50000000000000000000000000000000000000000000000000000000000
310
00000000000000000000000000000000000000000000000000000000000000000000000000000000000000000000000000000000000000000000000000000000000000000000000000000000000000000000000000000000000000000000000000000000000000000000000000000000F5000000000000000000002D000000
310
00000000000000F5000000000000000000000000000000000000000000000000000000000000000000000000000000000000000000000000000000000000F50000000000000000000000000000F500000000F5000000F5002D00F500000000F5000000F5000000000000000000000000000000000000000000000000000000
310
000000000000000000000000000000000000000000000000000000000000000000000000000000000000000000000000000000000000000000000000000000000000000000000000000000000000000000000000000000000000000000000000000000000000000000000000000000000000F5000000000000000000002D00
310
0000000000000000F5F5000000000000000000000000000000000000000000000000000000000000000000000000000000000000000000000000000000000000F50000000000000000000000000000F500000000F5000000F5002D00F500000000F5000000F500000000000000000000000000000000000000000000000000
310
000000000000000000000000000000000000000000000000000000000000000000000000000000000000000000000000000000000000000000000000000000000000000000000000000000000000000000000000000000000000000000000000000000000000000000000000000000000000000000F5000000000000000000
310
2D000000000000000000F5F50000000000000000000000000000000000000000000000000000000000000000000000000000000000000000000000000000000000F500000000000000000000000000000000F5000000F5000000F5002D00F500000000F5000000F50000000000000000000000000000000000000000000000
310
0000000000000000000000000000000000000000000000000000000000000000000000000000000000000000000000000000000000000000000000000000000000000000000000000000000000000000000000000000000000000000000000000000000000000000000000000000000000000000000000F500000000000000
310
00002D000000000000000000F5F50000000000000000000000000000000000000000000000000000000000000000000000000000000000000000000000000000000000F500000000000000000000000000000000F5000000F5000000F5002D00F500000000F50000F500000000000000000000000000000000000000000000
310
00000000000000000000000000000000000000000000000000000000000000000000000000000000000000000000000000000000000000000000000000000000000000000000000000000000000000000000000000000000000000000000000000000000000000000000000000000000000000000000000000F50000000000
310
000000002D000000000000000000F5F500000000000000000000000000000000000000000000000000000000000000000000000000000000000000000000000000000000F50000000000000000000000000000000000F5000000F5000000F5002D00F500000000F50000F50000000000000000000000000000000000000000
310
000000000000000000000000000000000000000000000000000000000000000000000000000000000000000000000000000000000000000000000000000000000000000000000000000000000000000000000000000000000000000000000000000000000000000000000000000000000000000000000000000000F5000000
310
0000000000002D0000000000000000F5F5F5F5000000000000000000000000000000000000000000000000000000000000000000000000000000000000000000000000000000F50000000000000000000000000000000000F5000000F5F5F5F5F5002D00F500F5F5F5F50000F5000000000000000000000000000000000000
310
0000000000000000000000000000000000000000000000000000000000000000000000000000000000000000000000000000000000000000000000000000000000000000000000000000000000000000000000000000000000000000000000000000000000000000000000000000000000000000000000000000000000F500
310
00000000000000002D0000000000000000F5000000F500000000000000000000000000000000000000000000000000000000000000000000000000000000000000000000000000F5000000000000000000000000000000000000F5000000000000F5F5002D00F5F5000000000000F500000000000000000000000000000000
310
00000000000000000000000000000000000000000000000000000000000000000000000000000000000000000000000000000000000000000000000000000000000000000000000000000000000000000000000000000000000000000000000000000000000000000000000000000000000000000000000000000000000000
310
F5F5F5F5F5F5F5F5F5F5F5F5F5F5F5F5F5F5F5F500000000F5000000000000000000000000000000000000000000000000000000000000000000000000000000000000000000000000F500000000000000000000000000000000000000F5F5F5F5F5F5F5F5002D00F5F5F5F5F5F5F5F5F50000000000000000000000000000
310
00000000000000000000000000000000000000000000000000000000000000000000000000000000000000000000000000000000000000000000000000000000000000000000000000000000000000000000000000000000000000000000000000000000000000000000000000000000000000000000000000000000000000
310
0000000000000000000000002D0000000000000000000000000000F500000000000000000000000000000000000000000000000000000000000000000000000000000000000000000000F50000000000000000000000000000000000000000000000000000F5F5002D00F5F500000000000000000000000000000000000000
310
00000000000000000000000000000000000000000000000000000000000000000000000000000000000000000000000000000000000000000000000000000000000000000000000000000000000000000000000000000000000000000000000000000000000000000000000000000000000000000000000000000000000000
310
00000000000000000000000000002D0000000000000000000000000000F500000000000000000000000000000000000000000000000000000000000000000000000000000000000000000000F50000000000000000000000000000000000000000000000000000F5F5002D00F5F50000000000000000000000000000000000
310
00000000000000000000000000000000000000000000000000000000000000000000000000000000000000000000000000000000000000000000000000000000000000000000000000000000000000000000000000000000000000000000000000000000000000000000000000000000000000000000000000000000000000
310
0000000000000000000000000000000000000000000000000000000000000000F5F5F5F5F5F5F5F5F5F5F5F5F5F5F5F5F5F5F5F5F5F5F5F5F5F5F5F5F5F5F5F5F5F5F5F5F5F5F5F5F5F5F5F5F5F5000000000000000000000000000000000000000000000000000000F5F5F5F5F5F5F5000000000000000000000000000000
310
00000000000000000000000000000000000000000000000000000000000000000000000000000000000000000000000000000000000000000000000000000000000000000000000000000000000000000000000000000000000000000000000000000000000000000000000000000000000000000000000000000000000000
310
00000000000000000000000000000000000000000000000000000000000000000000000000000000000000000000000000000000000000000000000000000000000000000000000000000000000000000000000000000000000000000000000000000000000000000000000000002D00000000000000000000000000000000
310
00000000000000000000000000000000000000000000000000000000000000000000000000000000000000000000000000000000000000000000000000000000000000000000000000000000000000000000000000000000000000000000000000000000000000000000000000000000000000000000000000000000000000
310
00000000000000000000000000000000000000000000000000000000000000000000000000000000000000000000000000000000000000000000000000000000000000000000000000000000000000000000000000000000000000000000000000000000000000000000000000000000000000000000000000000000000000
310
00000000000000000000000000000000000000000000000000000000000000000000000000000000000000000000000000000000000000000000000000000000000000000000000000000000000000000000000000000000000000000000000000000000000000000000000000000000000000000000000000000000000000
310
00000000000000000000000000000000000000000000000000000000000000000000000000000000000000000000000000000000000000000000000000000000000000000000000000000000000000000000000000000000000000000000000000000000000000000000000000000000000000000000000000000000000000
310
00000000000000000000000000000000000000000000000000000000000000000000000000000000000000000000000000000000000000000000000000000000000000000000000000000000000000000000000000000000000000000000000000000000000000000000000000000000000000000000000000000000000000
310
00000000000000000000000000000000000000000000000000000000000000000000000000000000000000000000000000000000000000000000000000000000000000000000000000000000000000000000000000000000000000000000000000000000000000000000000000000000000000000000000000000000000000
310
00000000000000000000000000000000000000000000000000000000000000000000000000000000000000000000000000000000000000000000000000000000000000000000000000000000000000000000000000000000000000000000000000000000000000000000000000000000000000000000000000000000000000
310
00000000000000000000000000000000000000000000000000000000000000000000000000000000000000000000000000000000000000000000000000000000000000000000000000000000000000000000000000000000000000000000000000000000000000000000000000000000000000000000000000000000000000
310
00000000000000000000000000000000000000000000000000000000000000000000000000000000000000000000000000000000000000000000000000000000000000000000000000000000000000000000000000000000000000000000000000000000000000000000000000000000000000000000000000000000000000
310
00000000000000000000000000000000000000000000000000000000000000000000000000000000000000000000000000000000000000000000000000000000000000000000000000000000000000000000000000000000000000000000000000000000000000000000000000000000000000000000000000000000000000
310
00000000000000000000000000000000000000000000000000000000000000000000000000000000000000000000000000000000000000000000000000000000000000000000000000000000000000000000000000000000000000000000000000000000000000000000000000000000000000000000000000000000000000
310
00000000000000000000000000000000000000000000000000000000000000000000000000000000000000000000000000000000000000000000000000000000000000000000000000000000000000000000000000000000000000000000000000000000000000000000000000000000000000000000000000000000000000
310
00000000000000000000000000000000000000000000000000000000000000000000000000000000000000000000000000000000000000000000000000000000000000000000000000000000000000000000000000000000000000000000000000000000000000000000000000000000000000000000000000000000000000
310
00000000000000000000000000000000000000000000000000000000000000000000000000000000000000000000000000000000000000000000000000000000000000000000000000000000000000000000000000000000000000000000000000000000000000000000000000000000000000000000000000000000000000
310
00000000000000000000000000000000000000000000000000000000000000000000000000000000000000000000000000000000000000000000000000000000000000000000000000000000000000000000000000000000000000000000000000000000000000000000000000000000000000000000000000000000000000
310
00000000000000000000000000000000000000000000000000000000000000000000000000000000000000000000000000000000000000000000000000000000000000000000000000000000000000000000000000000000000000000000000000000000000000000000000000000000000000000000000000000000000000
310
00000000000000000000000000000000000000000000000000000000000000000000000000000000000000000000000000000000000000000000000000000000000000000000000000000000000000000000000000000000000000000000000000000000000000000000000000000000000000000000000000000000000000
310
00000000000000000000000000000000000000000000000000000000000000000000000000000000000000000000000000000000000000000000000000000000000000000000000000000000000000000000000000000000000000000000000000000000000000000000000000000000000000000000000000000000000000
310
00000000000000000000000000000000000000000000000000000000000000000000000000000000000000000000000000000000000000000000000000000000000000000000000000000000000000000000000000000000000000000000000000000000000000000000000000000000000000000000000000000000000000
310
00000000000000000000000000000000000000000000000000000000000000000000000000000000000000000000000000000000000000000000000000000000000000000000000000000000000000000000000000000000000000000000000000000000000000000000000000000000000000000000000000000000000000
310
00000000000000000000000000000000000000000000000000000000000000000000000000000000000000000000000000000000000000000000000000000000000000000000000000000000000000000000000000000000000000000000000000000000000000000000000000000000000000000000000000000000000000
310
00000000000000000000000000000000000000000000000000000000000000000000000000000000000000000000000000000000000000000000000000000000000000000000000000000000000000000000000000000000000000000000000000000000000000000000000000000000000000000000000000000000000000
310
00000000000000000000000000000000000000000000000000000000000000000000000000000000000000000000000000000000000000000000000000000000000000000000000000000000000000000000000000000000000000000000000000000000000000000000000000000000000000000000000000000000000000
310
00000000000000000000000000000000000000000000000000000000000000000000000000000000000000000000000000000000000000000000000000000000000000000000000000000000000000000000000000000000000000000000000000000000000000000000000000000000000000000000000000000000000000
310
00000000000000000000000000000000000000000000000000000000000000000000000000000000000000000000000000000000000000000000000000000000000000000000000000000000000000000000000000000000000000000000000000000000000000000000000000000000000000000000000000000000000000
310
00000000000000000000000000000000000000000000000000000000000000000000000000000000000000000000000000000000000000000000000000000000000000000000000000000000000000000000000000000000000000000000000000000000000000000000000000000000000000000000000000000000000000
310
00000000000000000000000000000000000000000000000000000000000000000000000000000000000000000000000000000000000000000000000000000000000000000000000000000000000000000000000000000000000000000000000000000000000000000000000000000000000000000000000000000000000000
310
00000000000000000000000000000000000000000000000000000000000000000000000000000000000000000000000000000000000000000000000000000000000000000000000000000000000000000000000000000000000000000000000000000000000000000000000000000000000000000000000000000000000000
310
00000000000000000000000000000000000000000000000000000000000000000000000000000000000000000000000000000000000000000000000000000000000000000000000000000000000000000000000000000000000000000000000000000000000000000000000000000000000000000000000000000000000000
310
00000000000000000000000000000000000000000000000000000000000000000000000000000000000000000000000000000000000000000000000000000000000000000000000000000000000000000000000000000000000000000000000000000000000000000000000000000000000000000000000000000000000000
310
00000000000000000000000000000000000000000000000000000000000000000000000000000000000000000000000000000000000000000000000000000000000000000000000000000000000000000000000000000000000000000000000000000000000000000000000000000000000000000000000000000000000000
310
00000000000000000000000000000000000000000000000000000000000000000000000000000000000000000000000000000000000000000000000000000000000000000000000000000000000000000000000000000000000000000000000000000000000000000000000000000000000000000000000000000000000000
310
00000000000000000000000000000000000000000000000000000000000000000000000000000000000000000000000000000000000000000000000000000000000000000000000000000000000000000000000000000000000000000000000000000000000000000000000000000000000000000000000000000000000000
310
00000000000000000000000000000000000000000000000000000000000000000000000000000000000000000000000000000000000000000000000000000000000000000000000000000000000000000000000000000000000000000000000000000000000000000000000000000000000000000000000000000000000000
310
00000000000000000000000000000000000000000000000000000000000000000000000000000000000000000000000000000000000000000000000000000000000000000000000000000000000000000000000000000000000000000000000000000000000000000000000000000000000000000000000000000000000000
310
0000000000000000000000000000000000000000000000000000000000000000000000000000000000000000000000000000000000002D000000000000000000000000000000000000000000000000000000000000000000000000000000000000000000000000000000000000000000000000000000000000000000000000
310
00000000000000000000000000000000000000000000000000000000000000000000000000000000000000000000000000000000000000000000000000000000000000000000000000000000000000000000000000000000000000000000000000000000000000000000000000000000000000000000000000000000000000
310
00000000000000000000000000000000000000000000000000000000000000000000000000000000000000000000000000000000000000002D00000000000000000000000000000000000000000000000000000000000000000000000000000000000000000000000000000000000000000000000000000000000000000000
310
00000000000000000000000000000000000000000000000000000000000000000000000000000000000000000000000000000000000000000000000000000000000000000000000000000000000000000000000000000000000000000000000000000000000000000000000000000000000000000000000000000000000000
310
000000000000000000000000000000000000000000000000000000000000000000000000000000000000000000000000000000000000000000002D0000000000000000000000000000000000000000000000000000000000000000000000000000000000000000000000000000000000000000000000000000000000000000
310
00000000000000000000000000000000000000000000000000000000000000000000000000000000000000000000000000000000000000000000000000000000000000000000000000000000000000000000000000000000000000000000000000000000000000000000000000000000000000000000000000000000000000
310
0000000000000000000000000000000000000000000000000000000000000000000000000000000000000000F5F5F5F5F5F5F5F5F5F5F5F5F5F5F5F5F5F5F5F5F5F5F5F5F5F5F5F5F5F5F5F5000000000000000000000000000000000000000000000000000000000000000000000000000000000000000000000000000000
310
00000000000000000000000000000000000000000000000000000000000000000000000000000000000000000000000000000000000000000000000000000000000000000000000000000000000000000000000000000000000000000000000000000000000000000000000000000000000000000000000000000000000000
310
00000000000000000000000000000000000000000000000000000000000000000000000000000000000000F5F5F5F500F5000000000000000000000000002D000000000000000000000000F500F5F5F5F5F5000000000000000000000000000000000000000000000000000000000000000000000000000000000000000000
310
00000000000000000000000000000000000000000000000000000000000000000000000000000000000000000000000000000000000000000000000000000000000000000000000000000000000000000000000000000000000000000000000000000000000000000000000000000000000000000000000000000000000000
310
00000000000000000000000000000000000000000000000000000000000000000000000000000000F5F5F5F5F5F50000F500F5000000000000000000000000002D000000000000000000000000F500F5000000F500000000000000000000000000000000000000000000000000000000000000000000000000000000000000
310
00000000000000000000000000000000000000000000000000000000000000000000000000000000000000000000000000000000000000000000000000000000000000000000000000000000000000000000000000000000000000000000000000000000000000000000000000000000000000000000000000000000000000
310
000000000000000000000000000000000000000000000000000000000000000000000000F5F5F5F5F5F5000000F528F50000F500F5000000000000000000000000002D000000000000000000000000F500F5000000F50000000000000000000000000000000000000000000000000000000000000000000000000000000000
310
00000000000000000000000000000000000000000000000000000000000000000000000000000000000000000000000000000000000000000000000000000000000000000000000000000000000000000000000000000000000000000000000000000000000000000000000000000000000000000000000000000000000000
310
00000000000000000000000000000000000000000000000000000000000000000000002828282828282828282828282800F50000F500F500000000000000000000000000F5000000000000000000000000F500F5000000F5000000000000000000000000000000000000000000000000000000000000000000000000000000
310
00000000000000000000000000000000000000000000000000000000000000000000000000000000000000000000000000000000000000000000000000000000000000000000000000000000000000000000000000000000000000000000000000000000000000000000000000000000000000000000000000000000000000
310
000000000000000000000000000000000000000000000000000000000000000000000000F5F50000F50000000000000000F500F50000F500F5F5F5F5F5F5F5F5F5F5F5F5F5F52DF5F5F5F5F5F5F5F5F5F5F5F5F500F5000000F500000000000000000000000000000000000000000000000000000000000000000000000000
310
00000000000000000000000000000000000000000000000000000000000000000000000000000000000000000000000000000000000000000000000000000000000000000000000000000000000000000000000000000000000000000000000000000000000000000000000000000000000000000000000000000000000000
310
0000000000000000000000000000000000000000000000000000000000000000000000000000F5000000F50000000000000000F500F50000F500F500000000000000F5F5F5F5F5F5F5F5F5F5F5F500000000000000F500F5000000F50000000000000000000000000000000000000000000000000000000000000000000000
310
00000000000000000000000000000000000000000000000000000000000000000000000000000000000000000000000000000000000000000000000000000000000000000000000000000000000000000000000000000000000000000000000000000000000000000000000000000000000000000000000000000000000000
310
00000000000000000000000000000000000000000000000000000000000000000000000000000000F5000000F50000000000000000F500F50000F500F5000000000000F500F5000000002D00000000F5F5F5000000000000F5F5000000F5F5F5F5F5F5F5F5F5F5F50000F5F5F5000000F5F5F50000F5F5F5000000F5F5F500
310
00000000000000000000000000000000000000000000000000000000000000000000000000000000000000000000000000000000000000000000000000000000000000000000000000000000000000000000000000000000000000000000000000000000000000000000000000000000000000000000000000000000000000
310
000000000000000000000000000000000000000000000000000000000000000000000000000000000000F5000000F50000000000000000F500F50000F5F50000000000F5F500F500000000002D0000000000F500F50000000000F5F5000000F500000000000000F50000F5F5F50000F5F5F5F50000F5F5F50000F5F5F5F500
310
00F5F5F5000000000000000000000000000000000000000000000000000000000000000000000000000000000000000000000000000000000000000000000000000000000000000000000000000000000000000000000000000000000000000000000000000000000000000000000000000000000000000000000000000000
310
0000000000000000000000000000000000000000000000000000000000000000000000000000000000000000F5000000F50000000000000000F500F50000F5F50000000000F5F5F50000000000002D000000000000F5F50000F5F5F5F5F5F5F5F5F5F5F5F5F5F5F5F5F500000000F50000000000F500000000F50000000000
310
F500000000F500000000000000000000000000000000000000000000000000000000000000000000000000000000000000000000000000000000000000000000000000000000000000000000000000000000000000000000000000000000000000000000000000000000000000000000000000000000000000000000000000
310
00000000000000000000000000000000000000000000000000000000000000000000000000000000000000000000F5000000F50000000000000000F500F50000F5F500000000F500F50000000000F5F5F5F5000000000000F5F5F500000000000000000000000000000000F5F5000000F50000000000F500000000F5000000
310
0000F500000000F50000000000000000000000000000000000000000000000000000000000000000000000000000000000000000000000000000000000000000000000000000000000000000000000000000000000000000000000000000000000000000000000000000000000000000000000000000000000000000000000
310
000000000000000000000000000000000000000000000000000000000000000000000000000000000000000000000000F5000000F50000000000000000F500F50000F5F500000000F5F500000000F5F500002D00F5F500000000F500F5F50000000000000000000000000000000000F5F500F50000000000F500000000F500
310
00000000F500000000F5000000000000000000000000000000000000000000000000000000000000000000000000000000000000000000000000000000000000000000000000000000000000000000000000000000000000000000000000000000000000000000000000000000000000000000000000000000000000000000
310
0000000000000000000000000000000000000000000000000000000000000000000000000000000000000000000000000000F5000000F50000000000000000F500F50000F500000000F500F5000000F5000000002D000000F500000000F500F5F5F5F5F5F5F5F5F5F5F5F5F5F5F5F5F5F5F5F5F5F5F5F5F5F5F5F5F5F50000
310
F50000000000F500000000F500000000000000000000000000000000000000000000000000000000000000000000000000000000000000000000000000000000000000000000000000000000000000000000000000000000000000000000000000000000000000000000000000000000000000000000000000000000000000
310
00000000000000000000000000000000000000000000000000000000000000000000000000000000000000000000000000000000F5000000F50000000000000000F500F50000F500000000F5F500000000F500BEF5BEBEBEF50000F5000000F500F50000000000000000000000000000000000000000000000000000000000
310
F5F5F5F5F5F5F5F5F5F5F5F5F5F5F5F5F5F5F5F5F5F5F5F5F5F50000000000000000000000000000000000000000000000000000000000000000000000000000000000000000000000000000000000000000000000000000000000000000000000000000000000000000000000000000000000000000000000000000000000
310
000000000000000000000000000000000000000000000000000000000000000000000000000000000000000000000000000000000000F5000000F50000000000000000F500F50000F500000000F5F500000000F500F5BEBEBEBEF50000F5000000F500F5000000000000000000000000000000000000000000000000000000
310
00000000000000000000000000000000000000000000000000000000F50000000000000000F5F5F5F5F5F5F5F5F5F5F5F5F5F5F5F5F5F5F5F5F5F5F5F5F5F5F5F5F5F5F5F500000000000000000000000000000000000000000000000000000000000000000000000000000000000000000000000000000000000000000000
310
0000000000000000000000000000000000000000000000000000000000000000000000000000000000000000000000000000000000002D2DF52D2D2DF52D2D2D2D2D2D2D2DF52DF52D2DF52D2D2D2DF5F52D2D2DF52D2D2DBEF5F5BE2D2D2DF52D2D2DF52DF52D2D2D2D2D2D2D2D2D2D2D2D2D2D2D2D2D2D2D2D2D2D2D2D2D
310
2D2D2D2D2D2D2D2D2D2D2D2D2D2D2D2D2D2D2D2D2D2D2D2D2D2D2D2D2D2DF52D00000000000000F5F5F5F5F5F5F5F5F5F5F5F5F5F5F5F5F5F5F5F5F5F5F5F5F5F5F5F5F5F5F5F50000000000000000000000000000000000000000000000000000000000000000000000000000000000000000000000000000000000000000
310
00000000000000000000000000000000000000000000000000000000000000000000000000000000000000000000000000000000000000000000F5000000F50000000000000000F500F50000F500000000F5F500000000F50000BEBEBEBE000000F5000000F500F50000000000000000000000000000000000000000000000
310
0000000000000000000000000000000000000000000000000000000000000000F500000000000000000000000000000000000000000000000000000000000000000000000000000000000000000000000000000000000000000000000000000000000000000000000000000000000000000000000000000000000000000000
310
000000000000000000000000000000000000000000000000000000000000000000000000000000000000000000000000000000000000000000000000F5000000F50000000000000000F500F50000F500000000F5F500000000F5000000BEBEBE000000F5000000F500F5000000000000000000000000000000000000000000
310
000000000000000000F5F5F5F5F5F5F5F5F5F5F5F5F5F5F5F5F5F5F5F5F5F5F5F5F5000000000000000000000000000000000000000000000000000000000000000000000000000000000000000000000000000000000000000000000000000000000000000000000000000000000000000000000000000000000000000000
310
0000000000000000000000000000000000000000000000000000000000000000000000000000000000000000000000000000000000000000000000000000F5000000F50000000000000000F500F50000F500000000F500F5000000F5000000BEBE000000F500000000F500F5F5F5F5F5F5F5F5F5F5F5F5F5F5F5F5F5F5F5F5
310
F5F5F5F5F5F5F5F5F5F5F500F50000000000F500000000F500000000000000000000000000000000000000000000000000000000000000000000000000000000000000000000000000000000000000000000000000000000000000000000000000000000000000000000000000000000000000000000000000000000000000
310
00000000000000000000000000000000000000000000000000000000000000000000000000000000000000000000000000000000000000000000000000000000F5000000F50000000000000000F500F50000F5F500000000F5F500000000F50000002D0000F500000000F500F5F50000000000000000000000000000000000
310
00F5F5F50000000000F500000000F50000000000F500000000F50000000000000000000000000000000000000000000000000000000000000000000000000000000000000000000000000000000000000000000000000000000000000000000000000000000000000000000000000000000000000000000000000000000000
310
000000000000000000000000000000000000000000000000000000000000000000000000000000000000000000000000000000000000000000000000000000000000F5000000F50000000000000000F500F50000F5F500000000F500F500000000F5F5002DF5F50000000000F5F5F500000000000000000000000000000000
310
00F5F50000F50000000000F500000000F50000000000F500000000F5000000000000000000000000000000000000000000000000000000000000000000000000000000000000000000000000000000000000000000000000000000000000000000000000000000000000000000000000000000000000000000000000000000
310
0000000000000000000000000000000000000000000000000000000000000000000000000000000000000000000000000000000000000000000000000000000000000000F5000000F50000000000000000F500F50000F5F50000000000F5F5000000000000F5F5000000000000F5F500F5F5F5F5F5F5F5F5F5F5F5F5F5F5F5
310
F5F5F500000000F50000000000F500000000F50000000000F500000000F500000000000000000000000000000000000000000000000000000000000000000000000000000000000000000000000000000000000000000000000000000000000000000000000000000000000000000000000000000000000000000000000000
310
00000000000000000000000000000000000000000000000000000000000000000000000000000000000000000000000000000000000000000000000000000000000000000000F5000000F50000000000000000F500F50000F5F50000000000F500F50000000000002D000000000000F5F50000000000F5F5000000F5000000
310
00000000F50000F5F5F5000000F5F5F50000F5F5F5000000F5F5F50000F5F5F50000000000000000000000000000000000000000000000000000000000000000000000000000000000000000000000000000000000000000000000000000000000000000000000000000000000000000000000000000000000000000000000
310
000000000000000000000000000000000000000000000000000000000000000000000000000000000000000000000000000000000000000000000000000000000000000000000000F5000000F50000000000000000F500F50000F5F5000000000000F500F500000000002D0000000000F5F5000000000000F5F5000000F5F5
310
F5F5F5F5F5F5F5F5F50000F5F5F5F50000F5F5F50000F5F5F5F50000F5F5F5000000000000000000000000000000000000000000000000000000000000000000000000000000000000000000000000000000000000000000000000000000000000000000000000000000000000000000000000000000000000000000000000
310
0000000000000000000000000000000000000000000000000000000000000000000000000000000000000000000000000000000000000000000000000000000000000000000000000000F5000000F50000000000000000F500F50000F500F5000000000000F500F5F5F5F5002D00F5F5F5F5F5000000000000F500F5000000
310
F5000000000000000000000000000000000000000000000000000000000000000000000000000000000000000000000000000000000000000000000000000000000000000000000000000000000000000000000000000000000000000000000000000000000000000000000000000000000000000000000000000000000000
310
00000000000000000000000000000000000000000000000000000000000000000000000000000000000000000000000000000000000000000000000000000000000000000000000000000000F5000000F50000000000000000F500F50000F500F500000000000000F5F5F50000F5F5F50000F5F500000000000000F500F500
310
0000F500000000000000000000000000000000000000000000000000000000000000000000000000000000000000000000000000000000000000000000000000000000000000000000000000000000000000000000000000000000000000000000000000000000000000000000000000000000000000000000000000000000
310
000000000000000000000000000000000000000000000000000000000000000000000000000000000000000000000000000000000000000000000000000000000000000000000000000000000000F52828282828282828282828282800F50000F500F5F5F5F5F5F5F5F5F5F5F5F5F5F5F5F5F5F5F5F5F5F5F5F5F5F5F5F500
310
F5000000F50000000000000000000000000000000000000000000000000000000000000000000000000000000000000000000000000000000000000000000000000000000000000000000000000000000000000000000000000000000000000000000000000000000000000000000000000000000000000000000000000000
310
00000000000000000000000000000000000000000000000000000000000000000000000000000000000000000000000000000000000000000000000000000000000000000000000000000000000000000000F5F5F5F5F5F5F5F5000000F528F50000F500F5000000000000000000000000002D000000000000000000000000
310
F500F5000000F5000000000000000000000000000000000000000000000000000000000000000000000000000000000000000000000000000000000000000000000000000000000000000000000000000000000000000000000000000000000000000000000000000000000000000000000000000000000000000000000000
310
0000000000000000000000000000000000000000000000000000000000000000000000000000000000000000000000000000000000000000000000000000000000000000000000000000000000000000000000000000000000000000F5F5F5F5F5F50000F500F5000000000000000000000000002D00000000000000000000
310
0000F500F5000000F500000000000000000000000000000000000000000000000000000000000000000000000000000000000000000000000000000000000000000000000000000000000000000000000000000000000000000000000000000000000000000000000000000000000000000000000000000000000000000000
310
000000000000000000000000000000000000000000000000000000000000000000000000000000000000000000000000000000000000000000000000000000000000000000000000000000000000000000000000000000000000000000000000000000F5F5F5F500F5000000000000000000000000002D0000000000000000
310
00000000F500F5F5F5F5F50000000000000000000000000000000000000000000000000000000000000000000000000000000000000000000000000000000000000000000000000000000000000000000000000000000000000000000000000000000000000000000000000000000000000000000000000000000000000000
310
0000000000000000000000000000000000000000000000000000000000000000000000000000000000000000000000000000000000000000000000000000000000000000000000000000000000000000000000000000000000000000000000000000000000000000F5F5F5F5F5F5F5F5F5F5F5F5F5F5F5F5F5F5F5F5F5F5F5
310
F5F5F5F5F5F5F5F5F500000000000000000000000000000000000000000000000000000000000000000000000000000000000000000000000000000000000000000000000000000000000000000000000000000000000000000000000000000000000000000000000000000000000000000000000000000000000000000000
310
00000000000000000000000000000000000000000000000000000000000000000000000000000000000000000000000000000000000000000000000000000000000000000000000000000000000000000000000000000000000000000000000000000000000000000000000000000000000000000000000000002D00000000
310
00000000000000000000000000000000000000000000000000000000000000000000000000000000000000000000000000000000000000000000000000000000000000000000000000000000000000000000000000000000000000000000000000000000000000000000000000000000000000000000000000000000000000
310
000000000000000000000000000000000000000000000000000000000000000000000000000000000000000000000000000000000000000000000000000000000000000000000000000000000000000000000000000000000000000000000000000000000000000000000000000000000000000000000000000000002D0000
310
00000000000000000000000000000000000000000000000000000000000000000000000000000000000000000000000000000000000000000000000000000000000000000000000000000000000000000000000000000000000000000000000000000000000000000000000000000000000000000000000000000000000000
310
0000000000000000000000000000000000000000000000000000000000000000000000000000000000000000000000000000000000000000000000000000000000000000000000000000000000000000000000000000000000000000000000000000000000000000000000000000000000000000000000000000000000002D
310
00000000000000000000000000000000000000000000000000000000000000000000000000000000000000000000000000000000000000000000000000000000000000000000000000000000000000000000000000000000000000000000000000000000000000000000000000000000000000000000000000000000000000
310
00000000000000000000000000000000000000000000000000000000000000000000000000000000000000000000000000000000000000000000000000000000000000000000000000000000000000000000000000000000000000000000000000000000000000000000000000000000000000000000000000000000000000
310
002D0000000000000000000000000000000000000000000000000000000000000000000000000000000000000000000000000000000000000000000000000000000000000000000000000000000000000000000000000000000000000000000000000000000000000000000000000000000000000000000000000000000000
310
00000000000000000000000000000000000000000000000000000000000000000000000000000000
  0
XRECORD
  5
4045
102
{ACAD_REACTORS
330
4044
102
}
330
4044
100
AcDbXrecord
280
     1
102
MATERIAL
148
0.0
149
0.0
149
0.0
 93
        0
 94
       63
282
     0
 72
     1
 77
     1
171
     1
175
     1
179
     1
273
     0
  0
XRECORD
  5
4043
102
{ACAD_REACTORS
330
4042
102
}
330
4042
100
AcDbXrecord
280
     1
102
MATERIAL
148
0.0
149
0.0
149
0.0
 93
        0
 94
       63
282
     0
 72
     1
 77
     1
171
     1
175
     1
179
     1
273
     0
  0
XRECORD
  5
4047
102
{ACAD_REACTORS
330
4046
102
}
330
4046
100
AcDbXrecord
280
     1
102
MATERIAL
148
0.0
149
0.0
149
0.0
 93
        0
 94
       63
282
     0
 72
     1
 77
     1
171
     1
175
     1
179
     1
273
     0
  0
CELLSTYLEMAP
  5
403A
102
{ACAD_REACTORS
330
22DA
102
}
330
22DA
100
AcDbCellStyleMap
 90
        3
300
CELLSTYLE
  1
TABLEFORMAT_BEGIN
 90
        5
170
     1
 91
        0
 92
    32768
 62
   257
 93
        1
300
CONTENTFORMAT
  1
CONTENTFORMAT_BEGIN
 90
        0
 91
        0
 92
      512
 93
        0
300

 40
0.0
140
1.0
 94
        5
 62
     0
340
11
144
6.0
309
CONTENTFORMAT_END
171
     1
301
MARGIN
  1
CELLMARGIN_BEGIN
 40
1.5
 40
1.5
 40
1.5
 40
1.5
 40
0.18
 40
0.18
309
CELLMARGIN_END
 94
        6
 95
        1
302
GRIDFORMAT
  1
GRIDFORMAT_BEGIN
 90
        0
 91
        1
 62
     0
 92
       -2
340
0
 93
        0
 40
0.045
309
GRIDFORMAT_END
 95
        2
302
GRIDFORMAT
  1
GRIDFORMAT_BEGIN
 90
        0
 91
        1
 62
     0
 92
       -2
340
0
 93
        0
 40
0.045
309
GRIDFORMAT_END
 95
        4
302
GRIDFORMAT
  1
GRIDFORMAT_BEGIN
 90
        0
 91
        1
 62
     0
 92
       -2
340
0
 93
        0
 40
0.045
309
GRIDFORMAT_END
 95
        8
302
GRIDFORMAT
  1
GRIDFORMAT_BEGIN
 90
        0
 91
        1
 62
     0
 92
       -2
340
0
 93
        0
 40
0.045
309
GRIDFORMAT_END
 95
       16
302
GRIDFORMAT
  1
GRIDFORMAT_BEGIN
 90
        0
 91
        1
 62
     0
 92
       -2
340
0
 93
        0
 40
0.045
309
GRIDFORMAT_END
 95
       32
302
GRIDFORMAT
  1
GRIDFORMAT_BEGIN
 90
        0
 91
        1
 62
     0
 92
       -2
340
0
 93
        0
 40
0.045
309
GRIDFORMAT_END
309
TABLEFORMAT_END
  1
CELLSTYLE_BEGIN
 90
        1
 91
        1
300
_TITLE
309
CELLSTYLE_END
300
CELLSTYLE
  1
TABLEFORMAT_BEGIN
 90
        5
170
     1
 91
        0
 92
        0
 62
   257
 93
        1
300
CONTENTFORMAT
  1
CONTENTFORMAT_BEGIN
 90
        0
 91
        0
 92
      512
 93
        0
300

 40
0.0
140
1.0
 94
        5
 62
     0
340
11
144
4.5
309
CONTENTFORMAT_END
171
     1
301
MARGIN
  1
CELLMARGIN_BEGIN
 40
1.5
 40
1.5
 40
1.5
 40
1.5
 40
0.18
 40
0.18
309
CELLMARGIN_END
 94
        6
 95
        1
302
GRIDFORMAT
  1
GRIDFORMAT_BEGIN
 90
        0
 91
        1
 62
     0
 92
       -2
340
0
 93
        0
 40
0.045
309
GRIDFORMAT_END
 95
        2
302
GRIDFORMAT
  1
GRIDFORMAT_BEGIN
 90
        0
 91
        1
 62
     0
 92
       -2
340
0
 93
        0
 40
0.045
309
GRIDFORMAT_END
 95
        4
302
GRIDFORMAT
  1
GRIDFORMAT_BEGIN
 90
        0
 91
        1
 62
     0
 92
       -2
340
0
 93
        0
 40
0.045
309
GRIDFORMAT_END
 95
        8
302
GRIDFORMAT
  1
GRIDFORMAT_BEGIN
 90
        0
 91
        1
 62
     0
 92
       -2
340
0
 93
        0
 40
0.045
309
GRIDFORMAT_END
 95
       16
302
GRIDFORMAT
  1
GRIDFORMAT_BEGIN
 90
        0
 91
        1
 62
     0
 92
       -2
340
0
 93
        0
 40
0.045
309
GRIDFORMAT_END
 95
       32
302
GRIDFORMAT
  1
GRIDFORMAT_BEGIN
 90
        0
 91
        1
 62
     0
 92
       -2
340
0
 93
        0
 40
0.045
309
GRIDFORMAT_END
309
TABLEFORMAT_END
  1
CELLSTYLE_BEGIN
 90
        2
 91
        1
300
_HEADER
309
CELLSTYLE_END
300
CELLSTYLE
  1
TABLEFORMAT_BEGIN
 90
        5
170
     1
 91
        0
 92
        0
 62
   257
 93
        1
300
CONTENTFORMAT
  1
CONTENTFORMAT_BEGIN
 90
        0
 91
        0
 92
      512
 93
        0
300

 40
0.0
140
1.0
 94
        2
 62
     0
340
11
144
4.5
309
CONTENTFORMAT_END
171
     1
301
MARGIN
  1
CELLMARGIN_BEGIN
 40
1.5
 40
1.5
 40
1.5
 40
1.5
 40
0.18
 40
0.18
309
CELLMARGIN_END
 94
        6
 95
        1
302
GRIDFORMAT
  1
GRIDFORMAT_BEGIN
 90
        0
 91
        1
 62
     0
 92
       -2
340
0
 93
        0
 40
0.045
309
GRIDFORMAT_END
 95
        2
302
GRIDFORMAT
  1
GRIDFORMAT_BEGIN
 90
        0
 91
        1
 62
     0
 92
       -2
340
0
 93
        0
 40
0.045
309
GRIDFORMAT_END
 95
        4
302
GRIDFORMAT
  1
GRIDFORMAT_BEGIN
 90
        0
 91
        1
 62
     0
 92
       -2
340
0
 93
        0
 40
0.045
309
GRIDFORMAT_END
 95
        8
302
GRIDFORMAT
  1
GRIDFORMAT_BEGIN
 90
        0
 91
        1
 62
     0
 92
       -2
340
0
 93
        0
 40
0.045
309
GRIDFORMAT_END
 95
       16
302
GRIDFORMAT
  1
GRIDFORMAT_BEGIN
 90
        0
 91
        1
 62
     0
 92
       -2
340
0
 93
        0
 40
0.045
309
GRIDFORMAT_END
 95
       32
302
GRIDFORMAT
  1
GRIDFORMAT_BEGIN
 90
        0
 91
        1
 62
     0
 92
       -2
340
0
 93
        0
 40
0.045
309
GRIDFORMAT_END
309
TABLEFORMAT_END
  1
CELLSTYLE_BEGIN
 90
        3
 91
        2
300
_DATA
309
CELLSTYLE_END
  0
XRECORD
  5
4068
102
{ACAD_REACTORS
330
22DA
102
}
330
22DA
100
AcDbXrecord
280
     1
102
ACAD_ROUNDTRIP_PRE2007_TABLESTYLE
 90
      512
 91
        0
  1

 92
      512
 93
        0
  2

 94
      512
 95
        0
  3

  0
XRECORD
  5
4053
102
{ACAD_REACTORS
330
4052
102
}
330
4052
100
AcDbXrecord
280
     1
102
RTVSPropertyOp0
 70
     1
102
RTVSPropertyOp1
 70
     1
102
RTVSPropertyOp2
 70
     1
102
RTVSPropertyOp3
 70
     1
102
RTVSPropertyOp4
 70
     1
102
RTVSPropertyOp5
 70
     1
102
RTVSPropertyOp6
 70
     1
102
RTVSPropertyOp7
 70
     1
102
RTVSPropertyOp8
 70
     1
102
RTVSPropertyOp9
 70
     1
102
RTVSPropertyOp10
 70
     1
102
RTVSPropertyOp11
 70
     1
102
RTVSPropertyOp12
 70
     1
102
RTVSPropertyOp13
 70
     1
102
RTVSPropertyOp14
 70
     1
102
RTVSPropertyOp15
 70
     1
102
RTVSPropertyOp16
 70
     1
102
RTVSPropertyOp17
 70
     1
102
RTVSPropertyOp18
 70
     1
102
RTVSPropertyOp19
 70
     1
102
RTVSPropertyOp20
 70
     1
102
RTVSPropertyOp21
 70
     1
102
RTVSPropertyOp22
 70
     1
102
RTVSPropertyOp23
 70
     1
102
RTVSPropertyOp24
 70
     1
102
RTVSPropertyOp25
 70
     1
102
RTVSPropertyOp26
 70
     1
102
RTVSPropertyOp27
 70
     1
102
RTVSPropertyOp28
 70
     1
102
RTVSPropertyOp29
 70
     1
102
RTVSPropertyOp30
 70
     1
102
RTVSPropertyOp31
 70
     1
102
RTVSPropertyOp32
 70
     1
  0
XRECORD
  5
4057
102
{ACAD_REACTORS
330
4056
102
}
330
4056
100
AcDbXrecord
280
     1
102
RTVSPropertyOp0
 70
     1
102
RTVSPropertyOp1
 70
     1
102
RTVSPropertyOp2
 70
     1
102
RTVSPropertyOp3
 70
     1
102
RTVSPropertyOp4
 70
     1
102
RTVSPropertyOp5
 70
     1
102
RTVSPropertyOp6
 70
     1
102
RTVSPropertyOp7
 70
     1
102
RTVSPropertyOp8
 70
     1
102
RTVSPropertyOp9
 70
     1
102
RTVSPropertyOp10
 70
     1
102
RTVSPropertyOp11
 70
     1
102
RTVSPropertyOp12
 70
     1
102
RTVSPropertyOp13
 70
     1
102
RTVSPropertyOp14
 70
     1
102
RTVSPropertyOp15
 70
     1
102
RTVSPropertyOp16
 70
     1
102
RTVSPropertyOp17
 70
     1
102
RTVSPropertyOp18
 70
     1
102
RTVSPropertyOp19
 70
     1
102
RTVSPropertyOp20
 70
     1
102
RTVSPropertyOp21
 70
     1
102
RTVSPropertyOp22
 70
     1
102
RTVSPropertyOp23
 70
     1
102
RTVSPropertyOp24
 70
     1
102
RTVSPropertyOp25
 70
     1
102
RTVSPropertyOp26
 70
     1
102
RTVSPropertyOp27
 70
     1
102
RTVSPropertyOp28
 70
     1
102
RTVSPropertyOp29
 70
     1
102
RTVSPropertyOp30
 70
     1
102
RTVSPropertyOp31
 70
     1
102
RTVSPropertyOp32
 70
     1
  0
XRECORD
  5
4055
102
{ACAD_REACTORS
330
4054
102
}
330
4054
100
AcDbXrecord
280
     1
102
RTVSPropertyOp0
 70
     1
102
RTVSPropertyOp1
 70
     1
102
RTVSPropertyOp2
 70
     1
102
RTVSPropertyOp3
 70
     1
102
RTVSPropertyOp4
 70
     1
102
RTVSPropertyOp5
 70
     1
102
RTVSPropertyOp6
 70
     1
102
RTVSPropertyOp7
 70
     1
102
RTVSPropertyOp8
 70
     1
102
RTVSPropertyOp9
 70
     1
102
RTVSPropertyOp10
 70
     1
102
RTVSPropertyOp11
 70
     1
102
RTVSPropertyOp12
 70
     1
102
RTVSPropertyOp13
 70
     1
102
RTVSPropertyOp14
 70
     1
102
RTVSPropertyOp15
 70
     1
102
RTVSPropertyOp16
 70
     1
102
RTVSPropertyOp17
 70
     1
102
RTVSPropertyOp18
 70
     1
102
RTVSPropertyOp19
 70
     1
102
RTVSPropertyOp20
 70
     1
102
RTVSPropertyOp21
 70
     1
102
RTVSPropertyOp22
 70
     1
102
RTVSPropertyOp23
 70
     1
102
RTVSPropertyOp24
 70
     1
102
RTVSPropertyOp25
 70
     1
102
RTVSPropertyOp26
 70
     1
102
RTVSPropertyOp27
 70
     1
102
RTVSPropertyOp28
 70
     1
102
RTVSPropertyOp29
 70
     1
102
RTVSPropertyOp30
 70
     1
102
RTVSPropertyOp31
 70
     1
102
RTVSPropertyOp32
 70
     1
  0
XRECORD
  5
4051
102
{ACAD_REACTORS
330
4050
102
}
330
4050
100
AcDbXrecord
280
     1
102
RTVSPropertyOp0
 70
     1
102
RTVSPropertyOp1
 70
     1
102
RTVSPropertyOp2
 70
     1
102
RTVSPropertyOp3
 70
     1
102
RTVSPropertyOp4
 70
     1
102
RTVSPropertyOp5
 70
     1
102
RTVSPropertyOp6
 70
     1
102
RTVSPropertyOp7
 70
     1
102
RTVSPropertyOp8
 70
     1
102
RTVSPropertyOp9
 70
     1
102
RTVSPropertyOp10
 70
     1
102
RTVSPropertyOp11
 70
     1
102
RTVSPropertyOp12
 70
     1
102
RTVSPropertyOp13
 70
     1
102
RTVSPropertyOp14
 70
     1
102
RTVSPropertyOp15
 70
     1
102
RTVSPropertyOp16
 70
     1
102
RTVSPropertyOp17
 70
     1
102
RTVSPropertyOp18
 70
     1
102
RTVSPropertyOp19
 70
     1
102
RTVSPropertyOp20
 70
     1
102
RTVSPropertyOp21
 70
     1
102
RTVSPropertyOp22
 70
     1
102
RTVSPropertyOp23
 70
     1
102
RTVSPropertyOp24
 70
     1
102
RTVSPropertyOp25
 70
     1
102
RTVSPropertyOp26
 70
     1
102
RTVSPropertyOp27
 70
     1
102
RTVSPropertyOp28
 70
     1
102
RTVSPropertyOp29
 70
     1
102
RTVSPropertyOp30
 70
     1
102
RTVSPropertyOp31
 70
     1
102
RTVSPropertyOp32
 70
     1
  0
XRECORD
  5
405F
102
{ACAD_REACTORS
330
405E
102
}
330
405E
100
AcDbXrecord
280
     1
102
RTVSPropertyOp0
 70
     1
102
RTVSPropertyOp1
 70
     1
102
RTVSPropertyOp2
 70
     1
102
RTVSPropertyOp3
 70
     1
102
RTVSPropertyOp4
 70
     1
102
RTVSPropertyOp5
 70
     1
102
RTVSPropertyOp6
 70
     1
102
RTVSPropertyOp7
 70
     1
102
RTVSPropertyOp8
 70
     1
102
RTVSPropertyOp9
 70
     1
102
RTVSPropertyOp10
 70
     1
102
RTVSPropertyOp11
 70
     1
102
RTVSPropertyOp12
 70
     1
102
RTVSPropertyOp13
 70
     1
102
RTVSPropertyOp14
 70
     1
102
RTVSPropertyOp15
 70
     1
102
RTVSPropertyOp16
 70
     1
102
RTVSPropertyOp17
 70
     1
102
RTVSPropertyOp18
 70
     1
102
RTVSPropertyOp19
 70
     1
102
RTVSPropertyOp20
 70
     1
102
RTVSPropertyOp21
 70
     1
102
RTVSPropertyOp22
 70
     1
102
RTVSPropertyOp23
 70
     1
102
RTVSPropertyOp24
 70
     1
102
RTVSPropertyOp25
 70
     1
102
RTVSPropertyOp26
 70
     1
102
RTVSPropertyOp27
 70
     1
102
RTVSPropertyOp28
 70
     1
102
RTVSPropertyOp29
 70
     1
102
RTVSPropertyOp30
 70
     1
102
RTVSPropertyOp31
 70
     1
102
RTVSPropertyOp32
 70
     1
  0
XRECORD
  5
4067
102
{ACAD_REACTORS
330
4066
102
}
330
4066
100
AcDbXrecord
280
     1
102
RTVSPropertyOp0
 70
     1
102
RTVSPropertyOp1
 70
     1
102
RTVSPropertyOp2
 70
     1
102
RTVSPropertyOp3
 70
     1
102
RTVSPropertyOp4
 70
     1
102
RTVSPropertyOp5
 70
     1
102
RTVSPropertyOp6
 70
     1
102
RTVSPropertyOp7
 70
     1
102
RTVSPropertyOp8
 70
     1
102
RTVSPropertyOp9
 70
     1
102
RTVSPropertyOp10
 70
     1
102
RTVSPropertyOp11
 70
     1
102
RTVSPropertyOp12
 70
     1
102
RTVSPropertyOp13
 70
     1
102
RTVSPropertyOp14
 70
     1
102
RTVSPropertyOp15
 70
     1
102
RTVSPropertyOp16
 70
     1
102
RTVSPropertyOp17
 70
     1
102
RTVSPropertyOp18
 70
     1
102
RTVSPropertyOp19
 70
     1
102
RTVSPropertyOp20
 70
     1
102
RTVSPropertyOp21
 70
     1
102
RTVSPropertyOp22
 70
     1
102
RTVSPropertyOp23
 70
     1
102
RTVSPropertyOp24
 70
     1
102
RTVSPropertyOp25
 70
     1
102
RTVSPropertyOp26
 70
     1
102
RTVSPropertyOp27
 70
     1
102
RTVSPropertyOp28
 70
     1
102
RTVSPropertyOp29
 70
     1
102
RTVSPropertyOp30
 70
     1
102
RTVSPropertyOp31
 70
     1
102
RTVSPropertyOp32
 70
     1
  0
XRECORD
  5
4059
102
{ACAD_REACTORS
330
4058
102
}
330
4058
100
AcDbXrecord
280
     1
102
RTVSPropertyOp0
 70
     1
102
RTVSPropertyOp1
 70
     1
102
RTVSPropertyOp2
 70
     1
102
RTVSPropertyOp3
 70
     1
102
RTVSPropertyOp4
 70
     1
102
RTVSPropertyOp5
 70
     1
102
RTVSPropertyOp6
 70
     1
102
RTVSPropertyOp7
 70
     1
102
RTVSPropertyOp8
 70
     1
102
RTVSPropertyOp9
 70
     1
102
RTVSPropertyOp10
 70
     1
102
RTVSPropertyOp11
 70
     1
102
RTVSPropertyOp12
 70
     1
102
RTVSPropertyOp13
 70
     1
102
RTVSPropertyOp14
 70
     1
102
RTVSPropertyOp15
 70
     1
102
RTVSPropertyOp16
 70
     1
102
RTVSPropertyOp17
 70
     1
102
RTVSPropertyOp18
 70
     1
102
RTVSPropertyOp19
 70
     1
102
RTVSPropertyOp20
 70
     1
102
RTVSPropertyOp21
 70
     1
102
RTVSPropertyOp22
 70
     1
102
RTVSPropertyOp23
 70
     1
102
RTVSPropertyOp24
 70
     1
102
RTVSPropertyOp25
 70
     1
102
RTVSPropertyOp26
 70
     1
102
RTVSPropertyOp27
 70
     1
102
RTVSPropertyOp28
 70
     1
102
RTVSPropertyOp29
 70
     1
102
RTVSPropertyOp30
 70
     1
102
RTVSPropertyOp31
 70
     1
102
RTVSPropertyOp32
 70
     1
  0
XRECORD
  5
405D
102
{ACAD_REACTORS
330
405C
102
}
330
405C
100
AcDbXrecord
280
     1
102
RTVSPropertyOp0
 70
     1
102
RTVSPropertyOp1
 70
     1
102
RTVSPropertyOp2
 70
     1
102
RTVSPropertyOp3
 70
     1
102
RTVSPropertyOp4
 70
     1
102
RTVSPropertyOp5
 70
     1
102
RTVSPropertyOp6
 70
     1
102
RTVSPropertyOp7
 70
     1
102
RTVSPropertyOp8
 70
     1
102
RTVSPropertyOp9
 70
     1
102
RTVSPropertyOp10
 70
     1
102
RTVSPropertyOp11
 70
     1
102
RTVSPropertyOp12
 70
     1
102
RTVSPropertyOp13
 70
     1
102
RTVSPropertyOp14
 70
     1
102
RTVSPropertyOp15
 70
     1
102
RTVSPropertyOp16
 70
     1
102
RTVSPropertyOp17
 70
     1
102
RTVSPropertyOp18
 70
     1
102
RTVSPropertyOp19
 70
     1
102
RTVSPropertyOp20
 70
     1
102
RTVSPropertyOp21
 70
     1
102
RTVSPropertyOp22
 70
     1
102
RTVSPropertyOp23
 70
     1
102
RTVSPropertyOp24
 70
     1
102
RTVSPropertyOp25
 70
     1
102
RTVSPropertyOp26
 70
     1
102
RTVSPropertyOp27
 70
     1
102
RTVSPropertyOp28
 70
     1
102
RTVSPropertyOp29
 70
     1
102
RTVSPropertyOp30
 70
     1
102
RTVSPropertyOp31
 70
     1
102
RTVSPropertyOp32
 70
     1
  0
XRECORD
  5
407C
102
{ACAD_REACTORS
330
407B
102
}
330
407B
100
AcDbXrecord
280
     1
102
RTVSPropertyOp0
 70
     0
102
RTVSPropertyOp1
 70
     0
102
RTVSPropertyOp2
 70
     0
102
RTVSPropertyOp3
 70
     0
102
RTVSPropertyOp4
 70
     0
102
RTVSPropertyOp5
 70
     0
102
RTVSPropertyOp6
 70
     0
102
RTVSPropertyOp7
 70
     0
102
RTVSPropertyOp8
 70
     0
102
RTVSPropertyOp9
 70
     0
102
RTVSPropertyOp10
 70
     0
102
RTVSPropertyOp11
 70
     0
102
RTVSPropertyOp12
 70
     0
102
RTVSPropertyOp13
 70
     0
102
RTVSPropertyOp14
 70
     2
102
RTVSPropertyOp15
 70
     0
102
RTVSPropertyOp16
 70
     0
102
RTVSPropertyOp17
 70
     0
102
RTVSPropertyOp18
 70
     0
102
RTVSPropertyOp19
 70
     0
102
RTVSPropertyOp20
 70
     0
102
RTVSPropertyOp21
 70
     0
102
RTVSPropertyOp22
 70
     0
102
RTVSPropertyOp23
 70
     0
102
RTVSPropertyOp24
 70
     0
102
RTVSPropertyOp25
 70
     0
102
RTVSPropertyOp26
 70
     0
102
RTVSPropertyOp27
 70
     0
102
RTVSPropertyOp28
 70
     0
102
RTVSPropertyOp29
 70
     0
102
RTVSPropertyOp30
 70
     0
102
RTVSPropertyOp31
 70
     0
102
RTVSPropertyOp32
 70
     0
  0
XRECORD
  5
4065
102
{ACAD_REACTORS
330
4064
102
}
330
4064
100
AcDbXrecord
280
     1
102
RTVSPropertyOp0
 70
     1
102
RTVSPropertyOp1
 70
     1
102
RTVSPropertyOp2
 70
     1
102
RTVSPropertyOp3
 70
     1
102
RTVSPropertyOp4
 70
     1
102
RTVSPropertyOp5
 70
     1
102
RTVSPropertyOp6
 70
     1
102
RTVSPropertyOp7
 70
     1
102
RTVSPropertyOp8
 70
     1
102
RTVSPropertyOp9
 70
     1
102
RTVSPropertyOp10
 70
     1
102
RTVSPropertyOp11
 70
     1
102
RTVSPropertyOp12
 70
     1
102
RTVSPropertyOp13
 70
     1
102
RTVSPropertyOp14
 70
     1
102
RTVSPropertyOp15
 70
     1
102
RTVSPropertyOp16
 70
     1
102
RTVSPropertyOp17
 70
     1
102
RTVSPropertyOp18
 70
     1
102
RTVSPropertyOp19
 70
     1
102
RTVSPropertyOp20
 70
     1
102
RTVSPropertyOp21
 70
     1
102
RTVSPropertyOp22
 70
     1
102
RTVSPropertyOp23
 70
     1
102
RTVSPropertyOp24
 70
     1
102
RTVSPropertyOp25
 70
     1
102
RTVSPropertyOp26
 70
     1
102
RTVSPropertyOp27
 70
     1
102
RTVSPropertyOp28
 70
     1
102
RTVSPropertyOp29
 70
     1
102
RTVSPropertyOp30
 70
     1
102
RTVSPropertyOp31
 70
     1
102
RTVSPropertyOp32
 70
     1
  0
XRECORD
  5
4049
102
{ACAD_REACTORS
330
4048
102
}
330
4048
100
AcDbXrecord
280
     1
102
RTVSPropertyOp0
 70
     1
102
RTVSPropertyOp1
 70
     1
102
RTVSPropertyOp2
 70
     1
102
RTVSPropertyOp3
 70
     1
102
RTVSPropertyOp4
 70
     1
102
RTVSPropertyOp5
 70
     1
102
RTVSPropertyOp6
 70
     1
102
RTVSPropertyOp7
 70
     1
102
RTVSPropertyOp8
 70
     1
102
RTVSPropertyOp9
 70
     1
102
RTVSPropertyOp10
 70
     1
102
RTVSPropertyOp11
 70
     1
102
RTVSPropertyOp12
 70
     1
102
RTVSPropertyOp13
 70
     1
102
RTVSPropertyOp14
 70
     1
102
RTVSPropertyOp15
 70
     1
102
RTVSPropertyOp16
 70
     1
102
RTVSPropertyOp17
 70
     1
102
RTVSPropertyOp18
 70
     1
102
RTVSPropertyOp19
 70
     1
102
RTVSPropertyOp20
 70
     1
102
RTVSPropertyOp21
 70
     1
102
RTVSPropertyOp22
 70
     1
102
RTVSPropertyOp23
 70
     1
102
RTVSPropertyOp24
 70
     1
102
RTVSPropertyOp25
 70
     1
102
RTVSPropertyOp26
 70
     1
102
RTVSPropertyOp27
 70
     1
102
RTVSPropertyOp28
 70
     1
102
RTVSPropertyOp29
 70
     1
102
RTVSPropertyOp30
 70
     1
102
RTVSPropertyOp31
 70
     1
102
RTVSPropertyOp32
 70
     1
  0
XRECORD
  5
404B
102
{ACAD_REACTORS
330
404A
102
}
330
404A
100
AcDbXrecord
280
     1
102
RTVSPropertyOp0
 70
     1
102
RTVSPropertyOp1
 70
     1
102
RTVSPropertyOp2
 70
     1
102
RTVSPropertyOp3
 70
     1
102
RTVSPropertyOp4
 70
     1
102
RTVSPropertyOp5
 70
     1
102
RTVSPropertyOp6
 70
     1
102
RTVSPropertyOp7
 70
     1
102
RTVSPropertyOp8
 70
     1
102
RTVSPropertyOp9
 70
     1
102
RTVSPropertyOp10
 70
     1
102
RTVSPropertyOp11
 70
     1
102
RTVSPropertyOp12
 70
     1
102
RTVSPropertyOp13
 70
     1
102
RTVSPropertyOp14
 70
     1
102
RTVSPropertyOp15
 70
     1
102
RTVSPropertyOp16
 70
     1
102
RTVSPropertyOp17
 70
     1
102
RTVSPropertyOp18
 70
     1
102
RTVSPropertyOp19
 70
     1
102
RTVSPropertyOp20
 70
     1
102
RTVSPropertyOp21
 70
     1
102
RTVSPropertyOp22
 70
     1
102
RTVSPropertyOp23
 70
     1
102
RTVSPropertyOp24
 70
     1
102
RTVSPropertyOp25
 70
     1
102
RTVSPropertyOp26
 70
     1
102
RTVSPropertyOp27
 70
     1
102
RTVSPropertyOp28
 70
     1
102
RTVSPropertyOp29
 70
     1
102
RTVSPropertyOp30
 70
     1
102
RTVSPropertyOp31
 70
     1
102
RTVSPropertyOp32
 70
     1
  0
XRECORD
  5
404D
102
{ACAD_REACTORS
330
404C
102
}
330
404C
100
AcDbXrecord
280
     1
102
RTVSPropertyOp0
 70
     1
102
RTVSPropertyOp1
 70
     1
102
RTVSPropertyOp2
 70
     1
102
RTVSPropertyOp3
 70
     1
102
RTVSPropertyOp4
 70
     1
102
RTVSPropertyOp5
 70
     1
102
RTVSPropertyOp6
 70
     1
102
RTVSPropertyOp7
 70
     1
102
RTVSPropertyOp8
 70
     1
102
RTVSPropertyOp9
 70
     1
102
RTVSPropertyOp10
 70
     1
102
RTVSPropertyOp11
 70
     1
102
RTVSPropertyOp12
 70
     1
102
RTVSPropertyOp13
 70
     1
102
RTVSPropertyOp14
 70
     1
102
RTVSPropertyOp15
 70
     1
102
RTVSPropertyOp16
 70
     1
102
RTVSPropertyOp17
 70
     1
102
RTVSPropertyOp18
 70
     1
102
RTVSPropertyOp19
 70
     1
102
RTVSPropertyOp20
 70
     1
102
RTVSPropertyOp21
 70
     1
102
RTVSPropertyOp22
 70
     1
102
RTVSPropertyOp23
 70
     1
102
RTVSPropertyOp24
 70
     1
102
RTVSPropertyOp25
 70
     1
102
RTVSPropertyOp26
 70
     1
102
RTVSPropertyOp27
 70
     1
102
RTVSPropertyOp28
 70
     1
102
RTVSPropertyOp29
 70
     1
102
RTVSPropertyOp30
 70
     1
102
RTVSPropertyOp31
 70
     1
102
RTVSPropertyOp32
 70
     1
  0
XRECORD
  5
404F
102
{ACAD_REACTORS
330
404E
102
}
330
404E
100
AcDbXrecord
280
     1
102
RTVSPropertyOp0
 70
     1
102
RTVSPropertyOp1
 70
     1
102
RTVSPropertyOp2
 70
     1
102
RTVSPropertyOp3
 70
     1
102
RTVSPropertyOp4
 70
     1
102
RTVSPropertyOp5
 70
     1
102
RTVSPropertyOp6
 70
     1
102
RTVSPropertyOp7
 70
     1
102
RTVSPropertyOp8
 70
     1
102
RTVSPropertyOp9
 70
     1
102
RTVSPropertyOp10
 70
     1
102
RTVSPropertyOp11
 70
     1
102
RTVSPropertyOp12
 70
     1
102
RTVSPropertyOp13
 70
     1
102
RTVSPropertyOp14
 70
     1
102
RTVSPropertyOp15
 70
     1
102
RTVSPropertyOp16
 70
     1
102
RTVSPropertyOp17
 70
     1
102
RTVSPropertyOp18
 70
     1
102
RTVSPropertyOp19
 70
     1
102
RTVSPropertyOp20
 70
     1
102
RTVSPropertyOp21
 70
     1
102
RTVSPropertyOp22
 70
     1
102
RTVSPropertyOp23
 70
     1
102
RTVSPropertyOp24
 70
     1
102
RTVSPropertyOp25
 70
     1
102
RTVSPropertyOp26
 70
     1
102
RTVSPropertyOp27
 70
     1
102
RTVSPropertyOp28
 70
     1
102
RTVSPropertyOp29
 70
     1
102
RTVSPropertyOp30
 70
     1
102
RTVSPropertyOp31
 70
     1
102
RTVSPropertyOp32
 70
     1
  0
XRECORD
  5
406C
102
{ACAD_REACTORS
330
406B
102
}
330
406B
100
AcDbXrecord
280
     1
102
RTVSPropertyOp0
 70
     1
102
RTVSPropertyOp1
 70
     1
102
RTVSPropertyOp2
 70
     1
102
RTVSPropertyOp3
 70
     1
102
RTVSPropertyOp4
 70
     1
102
RTVSPropertyOp5
 70
     1
102
RTVSPropertyOp6
 70
     1
102
RTVSPropertyOp7
 70
     1
102
RTVSPropertyOp8
 70
     1
102
RTVSPropertyOp9
 70
     1
102
RTVSPropertyOp10
 70
     1
102
RTVSPropertyOp11
 70
     1
102
RTVSPropertyOp12
 70
     1
102
RTVSPropertyOp13
 70
     1
102
RTVSPropertyOp14
 70
     1
102
RTVSPropertyOp15
 70
     1
102
RTVSPropertyOp16
 70
     1
102
RTVSPropertyOp17
 70
     1
102
RTVSPropertyOp18
 70
     1
102
RTVSPropertyOp19
 70
     1
102
RTVSPropertyOp20
 70
     1
102
RTVSPropertyOp21
 70
     1
102
RTVSPropertyOp22
 70
     1
102
RTVSPropertyOp23
 70
     1
102
RTVSPropertyOp24
 70
     1
102
RTVSPropertyOp25
 70
     1
102
RTVSPropertyOp26
 70
     1
102
RTVSPropertyOp27
 70
     1
102
RTVSPropertyOp28
 70
     1
102
RTVSPropertyOp29
 70
     1
102
RTVSPropertyOp30
 70
     1
102
RTVSPropertyOp31
 70
     1
102
RTVSPropertyOp32
 70
     1
  0
XRECORD
  5
4078
102
{ACAD_REACTORS
330
4077
102
}
330
4077
100
AcDbXrecord
280
     1
102
RTVSPropertyOp0
 70
     0
102
RTVSPropertyOp1
 70
     0
102
RTVSPropertyOp2
 70
     0
102
RTVSPropertyOp3
 70
     0
102
RTVSPropertyOp4
 70
     0
102
RTVSPropertyOp5
 70
     0
102
RTVSPropertyOp6
 70
     0
102
RTVSPropertyOp7
 70
     0
102
RTVSPropertyOp8
 70
     0
102
RTVSPropertyOp9
 70
     0
102
RTVSPropertyOp10
 70
     0
102
RTVSPropertyOp11
 70
     0
102
RTVSPropertyOp12
 70
     0
102
RTVSPropertyOp13
 70
     0
102
RTVSPropertyOp14
 70
     2
102
RTVSPropertyOp15
 70
     0
102
RTVSPropertyOp16
 70
     0
102
RTVSPropertyOp17
 70
     0
102
RTVSPropertyOp18
 70
     0
102
RTVSPropertyOp19
 70
     0
102
RTVSPropertyOp20
 70
     0
102
RTVSPropertyOp21
 70
     0
102
RTVSPropertyOp22
 70
     0
102
RTVSPropertyOp23
 70
     0
102
RTVSPropertyOp24
 70
     0
102
RTVSPropertyOp25
 70
     0
102
RTVSPropertyOp26
 70
     0
102
RTVSPropertyOp27
 70
     0
102
RTVSPropertyOp28
 70
     0
102
RTVSPropertyOp29
 70
     0
102
RTVSPropertyOp30
 70
     0
102
RTVSPropertyOp31
 70
     0
102
RTVSPropertyOp32
 70
     0
  0
XRECORD
  5
4063
102
{ACAD_REACTORS
330
4062
102
}
330
4062
100
AcDbXrecord
280
     1
102
RTVSPropertyOp0
 70
     1
102
RTVSPropertyOp1
 70
     1
102
RTVSPropertyOp2
 70
     1
102
RTVSPropertyOp3
 70
     1
102
RTVSPropertyOp4
 70
     1
102
RTVSPropertyOp5
 70
     1
102
RTVSPropertyOp6
 70
     1
102
RTVSPropertyOp7
 70
     1
102
RTVSPropertyOp8
 70
     1
102
RTVSPropertyOp9
 70
     1
102
RTVSPropertyOp10
 70
     1
102
RTVSPropertyOp11
 70
     1
102
RTVSPropertyOp12
 70
     1
102
RTVSPropertyOp13
 70
     1
102
RTVSPropertyOp14
 70
     1
102
RTVSPropertyOp15
 70
     1
102
RTVSPropertyOp16
 70
     1
102
RTVSPropertyOp17
 70
     1
102
RTVSPropertyOp18
 70
     1
102
RTVSPropertyOp19
 70
     1
102
RTVSPropertyOp20
 70
     1
102
RTVSPropertyOp21
 70
     1
102
RTVSPropertyOp22
 70
     1
102
RTVSPropertyOp23
 70
     1
102
RTVSPropertyOp24
 70
     1
102
RTVSPropertyOp25
 70
     1
102
RTVSPropertyOp26
 70
     1
102
RTVSPropertyOp27
 70
     1
102
RTVSPropertyOp28
 70
     1
102
RTVSPropertyOp29
 70
     1
102
RTVSPropertyOp30
 70
     1
102
RTVSPropertyOp31
 70
     1
102
RTVSPropertyOp32
 70
     1
  0
XRECORD
  5
407A
102
{ACAD_REACTORS
330
4079
102
}
330
4079
100
AcDbXrecord
280
     1
102
RTVSPropertyOp0
 70
     0
102
RTVSPropertyOp1
 70
     0
102
RTVSPropertyOp2
 70
     0
102
RTVSPropertyOp3
 70
     0
102
RTVSPropertyOp4
 70
     0
102
RTVSPropertyOp5
 70
     0
102
RTVSPropertyOp6
 70
     0
102
RTVSPropertyOp7
 70
     0
102
RTVSPropertyOp8
 70
     0
102
RTVSPropertyOp9
 70
     0
102
RTVSPropertyOp10
 70
     0
102
RTVSPropertyOp11
 70
     0
102
RTVSPropertyOp12
 70
     0
102
RTVSPropertyOp13
 70
     0
102
RTVSPropertyOp14
 70
     2
102
RTVSPropertyOp15
 70
     0
102
RTVSPropertyOp16
 70
     0
102
RTVSPropertyOp17
 70
     0
102
RTVSPropertyOp18
 70
     0
102
RTVSPropertyOp19
 70
     0
102
RTVSPropertyOp20
 70
     0
102
RTVSPropertyOp21
 70
     0
102
RTVSPropertyOp22
 70
     0
102
RTVSPropertyOp23
 70
     0
102
RTVSPropertyOp24
 70
     0
102
RTVSPropertyOp25
 70
     0
102
RTVSPropertyOp26
 70
     0
102
RTVSPropertyOp27
 70
     0
102
RTVSPropertyOp28
 70
     0
102
RTVSPropertyOp29
 70
     0
102
RTVSPropertyOp30
 70
     0
102
RTVSPropertyOp31
 70
     0
102
RTVSPropertyOp32
 70
     0
  0
XRECORD
  5
405B
102
{ACAD_REACTORS
330
405A
102
}
330
405A
100
AcDbXrecord
280
     1
102
RTVSPropertyOp0
 70
     1
102
RTVSPropertyOp1
 70
     1
102
RTVSPropertyOp2
 70
     1
102
RTVSPropertyOp3
 70
     1
102
RTVSPropertyOp4
 70
     1
102
RTVSPropertyOp5
 70
     1
102
RTVSPropertyOp6
 70
     1
102
RTVSPropertyOp7
 70
     1
102
RTVSPropertyOp8
 70
     1
102
RTVSPropertyOp9
 70
     1
102
RTVSPropertyOp10
 70
     1
102
RTVSPropertyOp11
 70
     1
102
RTVSPropertyOp12
 70
     1
102
RTVSPropertyOp13
 70
     1
102
RTVSPropertyOp14
 70
     1
102
RTVSPropertyOp15
 70
     1
102
RTVSPropertyOp16
 70
     1
102
RTVSPropertyOp17
 70
     1
102
RTVSPropertyOp18
 70
     1
102
RTVSPropertyOp19
 70
     1
102
RTVSPropertyOp20
 70
     1
102
RTVSPropertyOp21
 70
     1
102
RTVSPropertyOp22
 70
     1
102
RTVSPropertyOp23
 70
     1
102
RTVSPropertyOp24
 70
     1
102
RTVSPropertyOp25
 70
     1
102
RTVSPropertyOp26
 70
     1
102
RTVSPropertyOp27
 70
     1
102
RTVSPropertyOp28
 70
     1
102
RTVSPropertyOp29
 70
     1
102
RTVSPropertyOp30
 70
     1
102
RTVSPropertyOp31
 70
     1
102
RTVSPropertyOp32
 70
     1
  0
XRECORD
  5
4076
102
{ACAD_REACTORS
330
4075
102
}
330
4075
100
AcDbXrecord
280
     1
102
RTVSPropertyOp0
 70
     1
102
RTVSPropertyOp1
 70
     1
102
RTVSPropertyOp2
 70
     1
102
RTVSPropertyOp3
 70
     1
102
RTVSPropertyOp4
 70
     1
102
RTVSPropertyOp5
 70
     1
102
RTVSPropertyOp6
 70
     1
102
RTVSPropertyOp7
 70
     1
102
RTVSPropertyOp8
 70
     1
102
RTVSPropertyOp9
 70
     1
102
RTVSPropertyOp10
 70
     1
102
RTVSPropertyOp11
 70
     1
102
RTVSPropertyOp12
 70
     1
102
RTVSPropertyOp13
 70
     1
102
RTVSPropertyOp14
 70
     1
102
RTVSPropertyOp15
 70
     1
102
RTVSPropertyOp16
 70
     1
102
RTVSPropertyOp17
 70
     1
102
RTVSPropertyOp18
 70
     1
102
RTVSPropertyOp19
 70
     1
102
RTVSPropertyOp20
 70
     1
102
RTVSPropertyOp21
 70
     1
102
RTVSPropertyOp22
 70
     1
102
RTVSPropertyOp23
 70
     1
102
RTVSPropertyOp24
 70
     1
102
RTVSPropertyOp25
 70
     1
102
RTVSPropertyOp26
 70
     1
102
RTVSPropertyOp27
 70
     1
102
RTVSPropertyOp28
 70
     1
102
RTVSPropertyOp29
 70
     1
102
RTVSPropertyOp30
 70
     1
102
RTVSPropertyOp31
 70
     1
102
RTVSPropertyOp32
 70
     1
  0
XRECORD
  5
4074
102
{ACAD_REACTORS
330
4073
102
}
330
4073
100
AcDbXrecord
280
     1
102
RTVSPropertyOp0
 70
     1
102
RTVSPropertyOp1
 70
     1
102
RTVSPropertyOp2
 70
     1
102
RTVSPropertyOp3
 70
     1
102
RTVSPropertyOp4
 70
     1
102
RTVSPropertyOp5
 70
     1
102
RTVSPropertyOp6
 70
     1
102
RTVSPropertyOp7
 70
     1
102
RTVSPropertyOp8
 70
     1
102
RTVSPropertyOp9
 70
     1
102
RTVSPropertyOp10
 70
     1
102
RTVSPropertyOp11
 70
     1
102
RTVSPropertyOp12
 70
     1
102
RTVSPropertyOp13
 70
     1
102
RTVSPropertyOp14
 70
     1
102
RTVSPropertyOp15
 70
     1
102
RTVSPropertyOp16
 70
     1
102
RTVSPropertyOp17
 70
     1
102
RTVSPropertyOp18
 70
     1
102
RTVSPropertyOp19
 70
     1
102
RTVSPropertyOp20
 70
     1
102
RTVSPropertyOp21
 70
     1
102
RTVSPropertyOp22
 70
     1
102
RTVSPropertyOp23
 70
     1
102
RTVSPropertyOp24
 70
     1
102
RTVSPropertyOp25
 70
     1
102
RTVSPropertyOp26
 70
     1
102
RTVSPropertyOp27
 70
     1
102
RTVSPropertyOp28
 70
     1
102
RTVSPropertyOp29
 70
     1
102
RTVSPropertyOp30
 70
     1
102
RTVSPropertyOp31
 70
     1
102
RTVSPropertyOp32
 70
     1
  0
XRECORD
  5
406E
102
{ACAD_REACTORS
330
406D
102
}
330
406D
100
AcDbXrecord
280
     1
102
RTVSPropertyOp0
 70
     1
102
RTVSPropertyOp1
 70
     1
102
RTVSPropertyOp2
 70
     1
102
RTVSPropertyOp3
 70
     1
102
RTVSPropertyOp4
 70
     1
102
RTVSPropertyOp5
 70
     1
102
RTVSPropertyOp6
 70
     1
102
RTVSPropertyOp7
 70
     1
102
RTVSPropertyOp8
 70
     1
102
RTVSPropertyOp9
 70
     1
102
RTVSPropertyOp10
 70
     1
102
RTVSPropertyOp11
 70
     1
102
RTVSPropertyOp12
 70
     1
102
RTVSPropertyOp13
 70
     1
102
RTVSPropertyOp14
 70
     1
102
RTVSPropertyOp15
 70
     1
102
RTVSPropertyOp16
 70
     1
102
RTVSPropertyOp17
 70
     1
102
RTVSPropertyOp18
 70
     1
102
RTVSPropertyOp19
 70
     1
102
RTVSPropertyOp20
 70
     1
102
RTVSPropertyOp21
 70
     1
102
RTVSPropertyOp22
 70
     1
102
RTVSPropertyOp23
 70
     1
102
RTVSPropertyOp24
 70
     1
102
RTVSPropertyOp25
 70
     1
102
RTVSPropertyOp26
 70
     1
102
RTVSPropertyOp27
 70
     1
102
RTVSPropertyOp28
 70
     1
102
RTVSPropertyOp29
 70
     1
102
RTVSPropertyOp30
 70
     1
102
RTVSPropertyOp31
 70
     1
102
RTVSPropertyOp32
 70
     1
  0
XRECORD
  5
4070
102
{ACAD_REACTORS
330
406F
102
}
330
406F
100
AcDbXrecord
280
     1
102
RTVSPropertyOp0
 70
     1
102
RTVSPropertyOp1
 70
     1
102
RTVSPropertyOp2
 70
     1
102
RTVSPropertyOp3
 70
     1
102
RTVSPropertyOp4
 70
     1
102
RTVSPropertyOp5
 70
     1
102
RTVSPropertyOp6
 70
     1
102
RTVSPropertyOp7
 70
     1
102
RTVSPropertyOp8
 70
     1
102
RTVSPropertyOp9
 70
     1
102
RTVSPropertyOp10
 70
     1
102
RTVSPropertyOp11
 70
     1
102
RTVSPropertyOp12
 70
     1
102
RTVSPropertyOp13
 70
     1
102
RTVSPropertyOp14
 70
     1
102
RTVSPropertyOp15
 70
     1
102
RTVSPropertyOp16
 70
     1
102
RTVSPropertyOp17
 70
     1
102
RTVSPropertyOp18
 70
     1
102
RTVSPropertyOp19
 70
     1
102
RTVSPropertyOp20
 70
     1
102
RTVSPropertyOp21
 70
     1
102
RTVSPropertyOp22
 70
     1
102
RTVSPropertyOp23
 70
     1
102
RTVSPropertyOp24
 70
     1
102
RTVSPropertyOp25
 70
     1
102
RTVSPropertyOp26
 70
     1
102
RTVSPropertyOp27
 70
     1
102
RTVSPropertyOp28
 70
     1
102
RTVSPropertyOp29
 70
     1
102
RTVSPropertyOp30
 70
     1
102
RTVSPropertyOp31
 70
     1
102
RTVSPropertyOp32
 70
     1
  0
XRECORD
  5
4061
102
{ACAD_REACTORS
330
4060
102
}
330
4060
100
AcDbXrecord
280
     1
102
RTVSPropertyOp0
 70
     1
102
RTVSPropertyOp1
 70
     1
102
RTVSPropertyOp2
 70
     1
102
RTVSPropertyOp3
 70
     1
102
RTVSPropertyOp4
 70
     1
102
RTVSPropertyOp5
 70
     1
102
RTVSPropertyOp6
 70
     1
102
RTVSPropertyOp7
 70
     1
102
RTVSPropertyOp8
 70
     1
102
RTVSPropertyOp9
 70
     1
102
RTVSPropertyOp10
 70
     1
102
RTVSPropertyOp11
 70
     1
102
RTVSPropertyOp12
 70
     1
102
RTVSPropertyOp13
 70
     1
102
RTVSPropertyOp14
 70
     1
102
RTVSPropertyOp15
 70
     1
102
RTVSPropertyOp16
 70
     1
102
RTVSPropertyOp17
 70
     1
102
RTVSPropertyOp18
 70
     1
102
RTVSPropertyOp19
 70
     1
102
RTVSPropertyOp20
 70
     1
102
RTVSPropertyOp21
 70
     1
102
RTVSPropertyOp22
 70
     1
102
RTVSPropertyOp23
 70
     1
102
RTVSPropertyOp24
 70
     1
102
RTVSPropertyOp25
 70
     1
102
RTVSPropertyOp26
 70
     1
102
RTVSPropertyOp27
 70
     1
102
RTVSPropertyOp28
 70
     1
102
RTVSPropertyOp29
 70
     1
102
RTVSPropertyOp30
 70
     1
102
RTVSPropertyOp31
 70
     1
102
RTVSPropertyOp32
 70
     1
  0
XRECORD
  5
406A
102
{ACAD_REACTORS
330
4069
102
}
330
4069
100
AcDbXrecord
280
     1
102
RTVSPropertyOp0
 70
     1
102
RTVSPropertyOp1
 70
     1
102
RTVSPropertyOp2
 70
     1
102
RTVSPropertyOp3
 70
     1
102
RTVSPropertyOp4
 70
     1
102
RTVSPropertyOp5
 70
     1
102
RTVSPropertyOp6
 70
     1
102
RTVSPropertyOp7
 70
     1
102
RTVSPropertyOp8
 70
     1
102
RTVSPropertyOp9
 70
     1
102
RTVSPropertyOp10
 70
     1
102
RTVSPropertyOp11
 70
     1
102
RTVSPropertyOp12
 70
     1
102
RTVSPropertyOp13
 70
     1
102
RTVSPropertyOp14
 70
     1
102
RTVSPropertyOp15
 70
     1
102
RTVSPropertyOp16
 70
     1
102
RTVSPropertyOp17
 70
     1
102
RTVSPropertyOp18
 70
     1
102
RTVSPropertyOp19
 70
     1
102
RTVSPropertyOp20
 70
     1
102
RTVSPropertyOp21
 70
     1
102
RTVSPropertyOp22
 70
     1
102
RTVSPropertyOp23
 70
     1
102
RTVSPropertyOp24
 70
     1
102
RTVSPropertyOp25
 70
     1
102
RTVSPropertyOp26
 70
     1
102
RTVSPropertyOp27
 70
     1
102
RTVSPropertyOp28
 70
     1
102
RTVSPropertyOp29
 70
     1
102
RTVSPropertyOp30
 70
     1
102
RTVSPropertyOp31
 70
     1
102
RTVSPropertyOp32
 70
     1
  0
XRECORD
  5
4072
102
{ACAD_REACTORS
330
4071
102
}
330
4071
100
AcDbXrecord
280
     1
102
RTVSPropertyOp0
 70
     1
102
RTVSPropertyOp1
 70
     1
102
RTVSPropertyOp2
 70
     1
102
RTVSPropertyOp3
 70
     1
102
RTVSPropertyOp4
 70
     1
102
RTVSPropertyOp5
 70
     1
102
RTVSPropertyOp6
 70
     1
102
RTVSPropertyOp7
 70
     1
102
RTVSPropertyOp8
 70
     1
102
RTVSPropertyOp9
 70
     1
102
RTVSPropertyOp10
 70
     1
102
RTVSPropertyOp11
 70
     1
102
RTVSPropertyOp12
 70
     1
102
RTVSPropertyOp13
 70
     1
102
RTVSPropertyOp14
 70
     1
102
RTVSPropertyOp15
 70
     1
102
RTVSPropertyOp16
 70
     1
102
RTVSPropertyOp17
 70
     1
102
RTVSPropertyOp18
 70
     1
102
RTVSPropertyOp19
 70
     1
102
RTVSPropertyOp20
 70
     1
102
RTVSPropertyOp21
 70
     1
102
RTVSPropertyOp22
 70
     1
102
RTVSPropertyOp23
 70
     1
102
RTVSPropertyOp24
 70
     1
102
RTVSPropertyOp25
 70
     1
102
RTVSPropertyOp26
 70
     1
102
RTVSPropertyOp27
 70
     1
102
RTVSPropertyOp28
 70
     1
102
RTVSPropertyOp29
 70
     1
102
RTVSPropertyOp30
 70
     1
102
RTVSPropertyOp31
 70
     1
102
RTVSPropertyOp32
 70
     1
  0
ENDSEC
  0
EOF
