  0
SECTION
  2
HEADER
  9
$ACADVER
  1
AC1015
  9
$ACADMAINTVER
 70
     6
  9
$DWGCODEPAGE
  3
DOS932
  9
$INSBASE
 10
0.0
 20
0.0
 30
0.0
  9
$EXTMIN
 10
0.0
 20
0.0
 30
0.0
  9
$EXTMAX
 10
431.8
 20
279.4
 30
0.0
  9
$LIMMIN
 10
0.0
 20
0.0
  9
$LIMMAX
 10
431.8
 20
279.4
  9
$ORTHOMODE
 70
     0
  9
$REGENMODE
 70
     1
  9
$FILLMODE
 70
     1
  9
$QTEXTMODE
 70
     0
  9
$MIRRTEXT
 70
     1
  9
$LTSCALE
 40
1.0
  9
$ATTMODE
 70
     1
  9
$TEXTSIZE
 40
3.5
  9
$TRACEWID
 40
1.0
  9
$TEXTSTYLE
  7
Standard
  9
$CLAYER
  8
0
  9
$CELTYPE
  6
ByLayer
  9
$CECOLOR
 62
   256
  9
$CELTSCALE
 40
1.0
  9
$DISPSILH
 70
     0
  9
$DIMSCALE
 40
1.0
  9
$DIMASZ
 40
3.302
  9
$DIMEXO
 40
1.0
  9
$DIMDLI
 40
3.75
  9
$DIMRND
 40
0.0
  9
$DIMDLE
 40
0.0
  9
$DIMEXE
 40
1.0
  9
$DIMTP
 40
0.0
  9
$DIMTM
 40
0.0
  9
$DIMTXT
 40
3.5
  9
$DIMCEN
 40
2.5
  9
$DIMTSZ
 40
0.0
  9
$DIMTOL
 70
     0
  9
$DIMLIM
 70
     0
  9
$DIMTIH
 70
     1
  9
$DIMTOH
 70
     1
  9
$DIMSE1
 70
     0
  9
$DIMSE2
 70
     0
  9
$DIMTAD
 70
     1
  9
$DIMZIN
 70
     1
  9
$DIMBLK
  1

  9
$DIMASO
 70
     1
  9
$DIMSHO
 70
     1
  9
$DIMPOST
  1

  9
$DIMAPOST
  1

  9
$DIMALT
 70
     0
  9
$DIMALTD
 70
     3
  9
$DIMALTF
 40
0.0393700787
  9
$DIMLFAC
 40
1.0
  9
$DIMTOFL
 70
     1
  9
$DIMTVP
 40
0.0
  9
$DIMTIX
 70
     0
  9
$DIMSOXD
 70
     0
  9
$DIMSAH
 70
     0
  9
$DIMBLK1
  1

  9
$DIMBLK2
  1

  9
$DIMSTYLE
  2
ISO-25
  9
$DIMCLRD
 70
     0
  9
$DIMCLRE
 70
     0
  9
$DIMCLRT
 70
     0
  9
$DIMTFAC
 40
1.0
  9
$DIMGAP
 40
1.524
  9
$DIMJUST
 70
     0
  9
$DIMSD1
 70
     0
  9
$DIMSD2
 70
     0
  9
$DIMTOLJ
 70
     0
  9
$DIMTZIN
 70
     1
  9
$DIMALTZ
 70
     0
  9
$DIMALTTZ
 70
     0
  9
$DIMUPT
 70
     0
  9
$DIMDEC
 70
     2
  9
$DIMTDEC
 70
     2
  9
$DIMALTU
 70
     2
  9
$DIMALTTD
 70
     3
  9
$DIMTXSTY
  7
Standard
  9
$DIMAUNIT
 70
     0
  9
$DIMADEC
 70
     2
  9
$DIMALTRND
 40
0.0
  9
$DIMAZIN
 70
     0
  9
$DIMDSEP
 70
    44
  9
$DIMATFIT
 70
     3
  9
$DIMFRAC
 70
     0
  9
$DIMLDRBLK
  1

  9
$DIMLUNIT
 70
     2
  9
$DIMLWD
 70
    -2
  9
$DIMLWE
 70
    -2
  9
$DIMTMOVE
 70
     0
  9
$LUNITS
 70
     2
  9
$LUPREC
 70
     2
  9
$SKETCHINC
 40
1.0
  9
$FILLETRAD
 40
10.0
  9
$AUNITS
 70
     0
  9
$AUPREC
 70
     2
  9
$MENU
  1
.
  9
$ELEVATION
 40
0.0
  9
$PELEVATION
 40
0.0
  9
$THICKNESS
 40
0.0
  9
$LIMCHECK
 70
     0
  9
$CHAMFERA
 40
0.0
  9
$CHAMFERB
 40
0.0
  9
$CHAMFERC
 40
0.0
  9
$CHAMFERD
 40
0.0
  9
$SKPOLY
 70
     0
  9
$TDCREATE
 40
2459230.385850289
  9
$TDUCREATE
 40
2459230.010850289
  9
$TDUPDATE
 40
2459230.385850891
  9
$TDUUPDATE
 40
2459230.010850891
  9
$TDINDWG
 40
0.0000000116
  9
$TDUSRTIMER
 40
0.0000000116
  9
$USRTIMER
 70
     1
  9
$ANGBASE
 50
0.0
  9
$ANGDIR
 70
     0
  9
$PDMODE
 70
     0
  9
$PDSIZE
 40
-1.0
  9
$PLINEWID
 40
0.0
  9
$SPLFRAME
 70
     0
  9
$SPLINETYPE
 70
     6
  9
$SPLINESEGS
 70
     8
  9
$HANDSEED
  5
1FC
  9
$SURFTAB1
 70
     6
  9
$SURFTAB2
 70
     6
  9
$SURFTYPE
 70
     6
  9
$SURFU
 70
     6
  9
$SURFV
 70
     6
  9
$UCSBASE
  2

  9
$UCSNAME
  2

  9
$UCSORG
 10
0.0
 20
0.0
 30
0.0
  9
$UCSXDIR
 10
1.0
 20
0.0
 30
0.0
  9
$UCSYDIR
 10
0.0
 20
1.0
 30
0.0
  9
$UCSORTHOREF
  2

  9
$UCSORTHOVIEW
 70
     0
  9
$UCSORGTOP
 10
0.0
 20
0.0
 30
0.0
  9
$UCSORGBOTTOM
 10
0.0
 20
0.0
 30
0.0
  9
$UCSORGLEFT
 10
0.0
 20
0.0
 30
0.0
  9
$UCSORGRIGHT
 10
0.0
 20
0.0
 30
0.0
  9
$UCSORGFRONT
 10
0.0
 20
0.0
 30
0.0
  9
$UCSORGBACK
 10
0.0
 20
0.0
 30
0.0
  9
$PUCSBASE
  2

  9
$PUCSNAME
  2

  9
$PUCSORG
 10
0.0
 20
0.0
 30
0.0
  9
$PUCSXDIR
 10
1.0
 20
0.0
 30
0.0
  9
$PUCSYDIR
 10
0.0
 20
1.0
 30
0.0
  9
$PUCSORTHOREF
  2

  9
$PUCSORTHOVIEW
 70
     0
  9
$PUCSORGTOP
 10
0.0
 20
0.0
 30
0.0
  9
$PUCSORGBOTTOM
 10
0.0
 20
0.0
 30
0.0
  9
$PUCSORGLEFT
 10
0.0
 20
0.0
 30
0.0
  9
$PUCSORGRIGHT
 10
0.0
 20
0.0
 30
0.0
  9
$PUCSORGFRONT
 10
0.0
 20
0.0
 30
0.0
  9
$PUCSORGBACK
 10
0.0
 20
0.0
 30
0.0
  9
$USERI1
 70
     0
  9
$USERI2
 70
     0
  9
$USERI3
 70
     0
  9
$USERI4
 70
     0
  9
$USERI5
 70
     0
  9
$USERR1
 40
0.0
  9
$USERR2
 40
0.0
  9
$USERR3
 40
0.0
  9
$USERR4
 40
0.0
  9
$USERR5
 40
0.0
  9
$WORLDVIEW
 70
     1
  9
$SHADEDGE
 70
     3
  9
$SHADEDIF
 70
    70
  9
$TILEMODE
 70
     1
  9
$MAXACTVP
 70
    64
  9
$PINSBASE
 10
0.0
 20
0.0
 30
0.0
  9
$PLIMCHECK
 70
     0
  9
$PEXTMIN
 10
1.0000000000E+20
 20
1.0000000000E+20
 30
1.0000000000E+20
  9
$PEXTMAX
 10
-1.0000000000E+20
 20
-1.0000000000E+20
 30
-1.0000000000E+20
  9
$PLIMMIN
 10
0.0
 20
0.0
  9
$PLIMMAX
 10
420.0
 20
297.0
  9
$UNITMODE
 70
     0
  9
$VISRETAIN
 70
     1
  9
$PLINEGEN
 70
     0
  9
$PSLTSCALE
 70
     1
  9
$TREEDEPTH
 70
  3020
  9
$CMLSTYLE
  2
Standard
  9
$CMLJUST
 70
     0
  9
$CMLSCALE
 40
20.0
  9
$PROXYGRAPHICS
 70
     1
  9
$MEASUREMENT
 70
     1
  9
$CELWEIGHT
370
    -1
  9
$ENDCAPS
280
     0
  9
$JOINSTYLE
280
     0
  9
$LWDISPLAY
290
     1
  9
$INSUNITS
 70
     4
  9
$HYPERLINKBASE
  1

  9
$STYLESHEET
  1

  9
$XEDIT
290
     1
  9
$CEPSNTYPE
380
     0
  9
$PSTYLEMODE
290
     1
  9
$FINGERPRINTGUID
  2
{B7FFB8F3-3A90-4138-864E-D881B12B065E}
  9
$VERSIONGUID
  2
{FAEB1C32-E019-11D5-929B-00C0DF256EC4}
  9
$EXTNAMES
290
     1
  9
$PSVPSCALE
 40
0.0
  9
$OLESTARTUP
290
     0
  0
ENDSEC
  0
SECTION
  2
CLASSES
  0
CLASS
  1
ACDBDICTIONARYWDFLT
  2
AcDbDictionaryWithDefault
  3
ObjectDBX Classes
 90
        0
280
     0
281
     0
  0
CLASS
  1
VISUALSTYLE
  2
AcDbVisualStyle
  3
ObjectDBX Classes
 90
     4095
280
     0
281
     0
  0
CLASS
  1
MATERIAL
  2
AcDbMaterial
  3
ObjectDBX Classes
 90
     1153
280
     0
281
     0
  0
CLASS
  1
SCALE
  2
AcDbScale
  3
ObjectDBX Classes
 90
     1153
280
     0
281
     0
  0
CLASS
  1
TABLESTYLE
  2
AcDbTableStyle
  3
ObjectDBX Classes
 90
     4095
280
     0
281
     0
  0
CLASS
  1
MLEADERSTYLE
  2
AcDbMLeaderStyle
  3
ACDB_MLEADERSTYLE_CLASS
 90
     4095
280
     0
281
     0
  0
CLASS
  1
SUN
  2
AcDbSun
  3
SCENEOE
 90
     1153
280
     0
281
     0
  0
CLASS
  1
ACDBPLACEHOLDER
  2
AcDbPlaceHolder
  3
ObjectDBX Classes
 90
        0
280
     0
281
     0
  0
CLASS
  1
LAYOUT
  2
AcDbLayout
  3
ObjectDBX Classes
 90
        0
280
     0
281
     0
  0
ENDSEC
  0
SECTION
  2
TABLES
  0
TABLE
  2
VPORT
  5
8
330
0
100
AcDbSymbolTable
 70
     1
  0
VPORT
  5
29
330
8
100
AcDbSymbolTableRecord
100
AcDbViewportTableRecord
  2
*Active
 70
     0
 10
0.0
 20
0.0
 11
1.0
 21
1.0
 12
215.9
 22
139.7
 13
0.0
 23
0.0
 14
10.0
 24
10.0
 15
10.0
 25
10.0
 16
0.0
 26
0.0
 36
1.0
 17
0.0
 27
0.0
 37
0.0
 40
279.4
 41
1.5454545455
 42
50.0
 43
0.0
 44
0.0
 50
0.0
 51
0.0
 71
     0
 72
  2000
 73
     1
 74
     3
 75
     0
 76
     0
 77
     0
 78
     0
281
     0
 65
     1
110
0.0
120
0.0
130
0.0
111
1.0
121
0.0
131
0.0
112
0.0
122
1.0
132
0.0
 79
     0
146
0.0
  0
ENDTAB
  0
TABLE
  2
LTYPE
  5
5
330
0
100
AcDbSymbolTable
 70
     6
  0
LTYPE
  5
14
330
5
100
AcDbSymbolTableRecord
100
AcDbLinetypeTableRecord
  2
ByBlock
 70
     0
  3

 72
    65
 73
     0
 40
0.0
  0
LTYPE
  5
15
330
5
100
AcDbSymbolTableRecord
100
AcDbLinetypeTableRecord
  2
ByLayer
 70
     0
  3

 72
    65
 73
     0
 40
0.0
  0
LTYPE
  5
16
330
5
100
AcDbSymbolTableRecord
100
AcDbLinetypeTableRecord
  2
Continuous
 70
     0
  3
Solid line
 72
    65
 73
     0
 40
0.0
  0
LTYPE
  5
6E
330
5
100
AcDbSymbolTableRecord
100
AcDbLinetypeTableRecord
  2
HIDDEN
 70
     0
  3
Hidden __ __ __ __ __ __ __ __ __ __ __ __ __ __
 72
    65
 73
     2
 40
1.905
 49
1.27
 74
     0
 49
-0.635
 74
     0
  0
LTYPE
  5
6F
330
5
100
AcDbSymbolTableRecord
100
AcDbLinetypeTableRecord
  2
PHANTOM
 70
     0
  3
Phantom ______  __  __  ______  __  __  ______
 72
    65
 73
     6
 40
12.7
 49
6.35
 74
     0
 49
-1.27
 74
     0
 49
1.27
 74
     0
 49
-1.27
 74
     0
 49
1.27
 74
     0
 49
-1.27
 74
     0
  0
LTYPE
  5
70
330
5
100
AcDbSymbolTableRecord
100
AcDbLinetypeTableRecord
  2
CENTER
 70
     0
  3
Center ____ _ ____ _ ____ _ ____ _ ____ _ ____
 72
    65
 73
     4
 40
10.16
 49
6.35
 74
     0
 49
-1.27
 74
     0
 49
1.27
 74
     0
 49
-1.27
 74
     0
  0
LTYPE
  5
71
330
5
100
AcDbSymbolTableRecord
100
AcDbLinetypeTableRecord
  2
CENTERX2
 70
     0
  3
Center (2x) ________  __  ________  __  _____
 72
    65
 73
     4
 40
20.32
 49
12.7
 74
     0
 49
-2.54
 74
     0
 49
2.54
 74
     0
 49
-2.54
 74
     0
  0
LTYPE
  5
72
330
5
100
AcDbSymbolTableRecord
100
AcDbLinetypeTableRecord
  2
DOT2
 70
     0
  3
Dot (.5x) ........................................
 72
    65
 73
     2
 40
0.635
 49
0.0
 74
     0
 49
-0.635
 74
     0
  0
ENDTAB
  0
TABLE
  2
LAYER
  5
2
330
0
100
AcDbSymbolTable
 70
     1
  0
LAYER
  5
10
330
2
100
AcDbSymbolTableRecord
100
AcDbLayerTableRecord
  2
0
 70
     0
 62
     7
  6
Continuous
370
    -3
390
F
  0
ENDTAB
  0
TABLE
  2
STYLE
  5
3
330
0
100
AcDbSymbolTable
 70
     2
  0
STYLE
  5
11
330
3
100
AcDbSymbolTableRecord
100
AcDbTextStyleTableRecord
  2
Standard
 70
     0
 40
0.0
 41
1.0
 50
0.0
 71
     0
 42
3.5
  3
txt
  4
bigfont
  0
STYLE
  5
73
330
3
100
AcDbSymbolTableRecord
100
AcDbTextStyleTableRecord
  2
SLDTEXTSTYLE0
 70
     0
 40
0.0
 41
0.7
 50
0.0
 71
     0
 42
3.5
  3
TXT
  4
bigfont
  0
ENDTAB
  0
TABLE
  2
VIEW
  5
6
330
0
100
AcDbSymbolTable
 70
     0
  0
ENDTAB
  0
TABLE
  2
UCS
  5
7
330
0
100
AcDbSymbolTable
 70
     0
  0
ENDTAB
  0
TABLE
  2
APPID
  5
9
330
0
100
AcDbSymbolTable
 70
     1
  0
APPID
  5
12
330
9
100
AcDbSymbolTableRecord
100
AcDbRegAppTableRecord
  2
ACAD
 70
     0
  0
ENDTAB
  0
TABLE
  2
DIMSTYLE
  5
A
330
0
100
AcDbSymbolTable
 70
     1
100
AcDbDimStyleTable
  0
DIMSTYLE
105
27
330
A
100
AcDbSymbolTableRecord
100
AcDbDimStyleTableRecord
  2
ISO-25
 70
     0
 41
2.5
 42
0.625
 43
3.75
 44
1.25
 73
     0
 74
     0
 77
     1
 78
     8
140
2.5
141
2.5
143
0.0393700787
147
0.625
171
     3
172
     1
178
     0
271
     2
272
     2
274
     3
278
    44
283
     0
284
     8
340
11
  0
ENDTAB
  0
TABLE
  2
BLOCK_RECORD
  5
1
330
0
100
AcDbSymbolTable
 70
     3
  0
BLOCK_RECORD
  5
1F
330
1
100
AcDbSymbolTableRecord
100
AcDbBlockTableRecord
  2
*Model_Space
340
22
  0
BLOCK_RECORD
  5
1B
330
1
100
AcDbSymbolTableRecord
100
AcDbBlockTableRecord
  2
*Paper_Space
340
1E
  0
BLOCK_RECORD
  5
23
330
1
100
AcDbSymbolTableRecord
100
AcDbBlockTableRecord
  2
*Paper_Space0
340
26
  0
BLOCK_RECORD
  5
174
330
1
100
AcDbSymbolTableRecord
100
AcDbBlockTableRecord
  2
SW_CENTERMARKSYMBOL_0
340
0
102
{BLKREFS
331
17F
102
}
  0
BLOCK_RECORD
  5
1E9
330
1
100
AcDbSymbolTableRecord
100
AcDbBlockTableRecord
  2
SW_CENTERMARKSYMBOL_1
340
0
102
{BLKREFS
331
1F4
102
}
  0
ENDTAB
  0
ENDSEC
  0
SECTION
  2
BLOCKS
  0
BLOCK
  5
20
330
1F
100
AcDbEntity
  8
0
100
AcDbBlockBegin
  2
*Model_Space
 70
     0
 10
0.0
 20
0.0
 30
0.0
  3
*Model_Space
  1

  0
ENDBLK
  5
21
330
1F
100
AcDbEntity
  8
0
100
AcDbBlockEnd
  0
BLOCK
  5
1C
330
1B
100
AcDbEntity
 67
     1
  8
0
100
AcDbBlockBegin
  2
*Paper_Space
 70
     0
 10
0.0
 20
0.0
 30
0.0
  3
*Paper_Space
  1

  0
ENDBLK
  5
1D
330
1B
100
AcDbEntity
 67
     1
  8
0
100
AcDbBlockEnd
  0
BLOCK
  5
24
330
23
100
AcDbEntity
  8
0
100
AcDbBlockBegin
  2
*Paper_Space0
 70
     0
 10
0.0
 20
0.0
 30
0.0
  3
*Paper_Space0
  1

  0
ENDBLK
  5
25
330
23
100
AcDbEntity
  8
0
100
AcDbBlockEnd
  0
BLOCK
  5
175
330
174
100
AcDbEntity
  8
0
100
AcDbBlockBegin
  2
SW_CENTERMARKSYMBOL_0
 70
     0
 10
0.0
 20
0.0
 30
0.0
  3
SW_CENTERMARKSYMBOL_0
  1

  0
LINE
  5
177
330
174
100
AcDbEntity
  8
0
  6
Continuous
 62
     0
370
    18
100
AcDbLine
 10
0.0
 20
0.0
 30
0.0
 11
0.0
 21
2.5
 31
0.0
  0
LINE
  5
178
330
174
100
AcDbEntity
  8
0
  6
Continuous
 62
     0
370
    18
100
AcDbLine
 10
0.0
 20
0.0
 30
0.0
 11
-2.5
 21
0.0
 31
0.0
  0
LINE
  5
179
330
174
100
AcDbEntity
  8
0
  6
Continuous
 62
     0
370
    18
100
AcDbLine
 10
0.0
 20
0.0
 30
0.0
 11
0.0
 21
-2.5
 31
0.0
  0
LINE
  5
17A
330
174
100
AcDbEntity
  8
0
  6
Continuous
 62
     0
370
    18
100
AcDbLine
 10
0.0
 20
0.0
 30
0.0
 11
2.5
 21
0.0
 31
0.0
  0
LINE
  5
17B
330
174
100
AcDbEntity
  8
0
  6
Continuous
 62
     0
370
    18
100
AcDbLine
 10
0.0
 20
5.0
 30
0.0
 11
0.0
 21
36.8910497619
 31
0.0
  0
LINE
  5
17C
330
174
100
AcDbEntity
  8
0
  6
Continuous
 62
     0
370
    18
100
AcDbLine
 10
-5.0
 20
0.0
 30
0.0
 11
-16.6117258464
 21
0.0
 31
0.0
  0
LINE
  5
17D
330
174
100
AcDbEntity
  8
0
  6
Continuous
 62
     0
370
    18
100
AcDbLine
 10
0.0
 20
-5.0
 30
0.0
 11
0.0
 21
-15.6138694313
 31
0.0
  0
LINE
  5
17E
330
174
100
AcDbEntity
  8
0
  6
Continuous
 62
     0
370
    18
100
AcDbLine
 10
5.0
 20
0.0
 30
0.0
 11
15.4251740002
 21
0.0
 31
0.0
  0
ENDBLK
  5
176
330
174
100
AcDbEntity
  8
0
100
AcDbBlockEnd
  0
BLOCK
  5
1EA
330
1E9
100
AcDbEntity
  8
0
100
AcDbBlockBegin
  2
SW_CENTERMARKSYMBOL_1
 70
     0
 10
0.0
 20
0.0
 30
0.0
  3
SW_CENTERMARKSYMBOL_1
  1

  0
LINE
  5
1EC
330
1E9
100
AcDbEntity
  8
0
  6
Continuous
 62
     0
370
    18
100
AcDbLine
 10
0.0
 20
0.0
 30
0.0
 11
0.0
 21
2.5
 31
0.0
  0
LINE
  5
1ED
330
1E9
100
AcDbEntity
  8
0
  6
Continuous
 62
     0
370
    18
100
AcDbLine
 10
0.0
 20
0.0
 30
0.0
 11
-2.5
 21
0.0
 31
0.0
  0
LINE
  5
1EE
330
1E9
100
AcDbEntity
  8
0
  6
Continuous
 62
     0
370
    18
100
AcDbLine
 10
0.0
 20
0.0
 30
0.0
 11
0.0
 21
-2.5
 31
0.0
  0
LINE
  5
1EF
330
1E9
100
AcDbEntity
  8
0
  6
Continuous
 62
     0
370
    18
100
AcDbLine
 10
0.0
 20
0.0
 30
0.0
 11
2.5
 21
0.0
 31
0.0
  0
LINE
  5
1F0
330
1E9
100
AcDbEntity
  8
0
  6
Continuous
 62
     0
370
    18
100
AcDbLine
 10
0.0
 20
5.0
 30
0.0
 11
0.0
 21
15.4251740002
 31
0.0
  0
LINE
  5
1F1
330
1E9
100
AcDbEntity
  8
0
  6
Continuous
 62
     0
370
    18
100
AcDbLine
 10
-5.0
 20
0.0
 30
0.0
 11
-36.561963631
 21
0.0
 31
0.0
  0
LINE
  5
1F2
330
1E9
100
AcDbEntity
  8
0
  6
Continuous
 62
     0
370
    18
100
AcDbLine
 10
0.0
 20
-5.0
 30
0.0
 11
0.0
 21
-15.7218119618
 31
0.0
  0
LINE
  5
1F3
330
1E9
100
AcDbEntity
  8
0
  6
Continuous
 62
     0
370
    18
100
AcDbLine
 10
5.0
 20
0.0
 30
0.0
 11
36.8559318509
 21
0.0
 31
0.0
  0
ENDBLK
  5
1EB
330
1E9
100
AcDbEntity
  8
0
100
AcDbBlockEnd
  0
ENDSEC
  0
SECTION
  2
ENTITIES
  0
MTEXT
  5
74
330
1F
100
AcDbEntity
  8
0
  6
Continuous
 62
     7
370
     0
100
AcDbMText
 10
182.4721872753
 20
117.5882140816
 30
0.0
 40
5.2916666667
 41
0.0
 71
     1
 72
     1
  1
5R-TM1666
  7
SLDTEXTSTYLE0
 73
     1
 44
1.0
  0
LINE
  5
75
330
1F
100
AcDbEntity
  8
0
  6
Continuous
 62
     7
370
    25
100
AcDbLine
 10
130.1947583815
 20
84.0243688223
 30
0.0
 11
116.7999347205
 21
83.6057805828
 31
0.0
  0
LINE
  5
76
330
1F
100
AcDbEntity
  8
0
  6
Continuous
 62
     7
370
    25
100
AcDbLine
 10
116.7999347205
 20
57.5975820617
 30
0.0
 11
130.1947583815
 21
57.1789938223
 31
0.0
  0
LINE
  5
77
330
1F
100
AcDbEntity
  8
0
  6
Continuous
 62
     7
370
    25
100
AcDbLine
 10
166.1947583815
 20
57.1789938223
 30
0.0
 11
179.5895820425
 21
57.5975820617
 31
0.0
  0
LINE
  5
78
330
1F
100
AcDbEntity
  8
0
  6
Continuous
 62
     7
370
    25
100
AcDbLine
 10
179.5895820425
 20
83.6057805828
 30
0.0
 11
166.1947583815
 21
84.0243688223
 31
0.0
  0
LINE
  5
79
330
1F
100
AcDbEntity
  8
0
  6
Continuous
 62
     7
370
    25
100
AcDbLine
 10
161.6174458815
 20
88.6016813223
 30
0.0
 11
161.1988576421
 21
101.9965049833
 31
0.0
  0
LINE
  5
7A
330
1F
100
AcDbEntity
  8
0
  6
Continuous
 62
     7
370
    25
100
AcDbLine
 10
135.1906591209
 20
101.9965049833
 30
0.0
 11
134.7720708815
 21
88.6016813223
 31
0.0
  0
LINE
  5
7B
330
1F
100
AcDbEntity
  8
0
  6
Continuous
 62
     7
370
    25
100
AcDbLine
 10
161.1988576421
 20
101.9965049833
 30
0.0
 11
159.6947583815
 21
104.6016813223
 31
0.0
  0
LINE
  5
7C
330
1F
100
AcDbEntity
  8
0
  6
Continuous
 62
     7
370
    25
100
AcDbLine
 10
136.6947583815
 20
104.6016813223
 30
0.0
 11
135.1906591209
 21
101.9965049833
 31
0.0
  0
LINE
  5
7D
330
1F
100
AcDbEntity
  8
0
  6
Continuous
 62
     7
370
    25
100
AcDbLine
 10
116.7999347205
 20
83.6057805828
 30
0.0
 11
114.1947583815
 21
82.1016813223
 31
0.0
  0
LINE
  5
7E
330
1F
100
AcDbEntity
  8
0
  6
Continuous
 62
     7
370
    25
100
AcDbLine
 10
114.1947583815
 20
59.1016813223
 30
0.0
 11
116.7999347205
 21
57.5975820617
 31
0.0
  0
LINE
  5
7F
330
1F
100
AcDbEntity
  8
0
  6
Continuous
 62
     7
370
    25
100
AcDbLine
 10
179.5895820425
 20
57.5975820617
 30
0.0
 11
182.1947583815
 21
59.1016813223
 31
0.0
  0
LINE
  5
80
330
1F
100
AcDbEntity
  8
0
  6
Continuous
 62
     7
370
    25
100
AcDbLine
 10
182.1947583815
 20
82.1016813223
 30
0.0
 11
179.5895820425
 21
83.6057805828
 31
0.0
  0
ARC
  5
81
330
1F
100
AcDbEntity
  8
0
  6
Continuous
 62
     7
370
    25
100
AcDbCircle
 10
165.1947583815
 20
82.6016813223
 30
0.0
 40
1.0
100
AcDbArc
 50
270.0
 51
0.0
  0
ARC
  5
82
330
1F
100
AcDbEntity
  8
0
  6
Continuous
 62
     7
370
    25
100
AcDbCircle
 10
165.1947583815
 20
58.6016813223
 30
0.0
 40
1.0
100
AcDbArc
 50
0.0
 51
90.0
  0
ARC
  5
83
330
1F
100
AcDbEntity
  8
0
  6
Continuous
 62
     7
370
    25
100
AcDbCircle
 10
131.1947583815
 20
58.6016813223
 30
0.0
 40
1.0
100
AcDbArc
 50
90.0
 51
180.0
  0
ARC
  5
84
330
1F
100
AcDbEntity
  8
0
  6
Continuous
 62
     7
370
    25
100
AcDbCircle
 10
131.1947583815
 20
82.6016813223
 30
0.0
 40
1.0
100
AcDbArc
 50
180.0
 51
270.0
  0
ARC
  5
85
330
1F
100
AcDbEntity
  8
0
  6
Continuous
 62
     7
370
    25
100
AcDbCircle
 10
136.1947583815
 20
87.6016813223
 30
0.0
 40
1.0
100
AcDbArc
 50
0.0
 51
90.0
  0
ARC
  5
86
330
1F
100
AcDbEntity
  8
0
  6
Continuous
 62
     7
370
    25
100
AcDbCircle
 10
160.1947583815
 20
87.6016813223
 30
0.0
 40
1.0
100
AcDbArc
 50
90.0
 51
180.0
  0
LINE
  5
87
330
1F
100
AcDbEntity
  8
0
  6
Continuous
 62
     7
370
    25
100
AcDbLine
 10
159.1947583815
 20
82.1016813223
 30
0.0
 11
159.1947583815
 21
87.6016813223
 31
0.0
  0
LINE
  5
88
330
1F
100
AcDbEntity
  8
0
  6
Continuous
 62
     7
370
    25
100
AcDbLine
 10
137.1947583815
 20
87.6016813223
 30
0.0
 11
137.1947583815
 21
82.1016813223
 31
0.0
  0
LINE
  5
89
330
1F
100
AcDbEntity
  8
0
  6
Continuous
 62
     7
370
    25
100
AcDbLine
 10
136.6947583815
 20
81.6016813223
 30
0.0
 11
131.1947583815
 21
81.6016813223
 31
0.0
  0
LINE
  5
8A
330
1F
100
AcDbEntity
  8
0
  6
Continuous
 62
     7
370
    25
100
AcDbLine
 10
165.1947583815
 20
81.6016813223
 30
0.0
 11
159.6947583815
 21
81.6016813223
 31
0.0
  0
LINE
  5
8B
330
1F
100
AcDbEntity
  8
0
  6
Continuous
 62
     7
370
    25
100
AcDbLine
 10
131.1947583815
 20
59.6016813223
 30
0.0
 11
165.1947583815
 21
59.6016813223
 31
0.0
  0
ARC
  5
8C
330
1F
100
AcDbEntity
  8
0
  6
Continuous
 62
     7
370
    25
100
AcDbCircle
 10
159.6947583815
 20
82.1016813223
 30
0.0
 40
0.5000000000000039
100
AcDbArc
 50
180.0968772254
 51
269.9635233761
  0
ARC
  5
8D
330
1F
100
AcDbEntity
  8
0
  6
Continuous
 62
     7
370
    25
100
AcDbCircle
 10
136.6947583815
 20
82.1016813223
 30
0.0
 40
0.5000000000000114
100
AcDbArc
 50
270.0968772254
 51
359.9635233761
  0
LINE
  5
8E
330
1F
100
AcDbEntity
  8
0
  6
Continuous
 62
     7
370
    25
100
AcDbLine
 10
116.7999347205
 20
83.6057805828
 30
0.0
 11
116.7999347205
 21
57.5975820617
 31
0.0
  0
LINE
  5
8F
330
1F
100
AcDbEntity
  8
0
  6
Continuous
 62
     7
370
    25
100
AcDbLine
 10
130.1947583815
 20
70.6016813223
 30
0.0
 11
130.1947583815
 21
84.0243688223
 31
0.0
  0
LINE
  5
90
330
1F
100
AcDbEntity
  8
0
  6
Continuous
 62
     7
370
    25
100
AcDbLine
 10
130.1947583815
 20
57.1789938223
 30
0.0
 11
130.1947583815
 21
70.6016813223
 31
0.0
  0
LINE
  5
91
330
1F
100
AcDbEntity
  8
0
  6
Continuous
 62
     7
370
    25
100
AcDbLine
 10
179.5895820425
 20
70.6016813223
 30
0.0
 11
179.5895820425
 21
57.5975820617
 31
0.0
  0
LINE
  5
92
330
1F
100
AcDbEntity
  8
0
  6
Continuous
 62
     7
370
    25
100
AcDbLine
 10
179.5895820425
 20
83.6057805828
 30
0.0
 11
179.5895820425
 21
70.6016813223
 31
0.0
  0
LINE
  5
93
330
1F
100
AcDbEntity
  8
0
  6
Continuous
 62
     7
370
    25
100
AcDbLine
 10
166.1947583815
 20
84.0243688223
 30
0.0
 11
166.1947583815
 21
57.1789938223
 31
0.0
  0
LINE
  5
94
330
1F
100
AcDbEntity
  8
0
  6
Continuous
 62
     7
370
    25
100
AcDbLine
 10
134.7720708815
 20
88.6016813223
 30
0.0
 11
161.6174458815
 21
88.6016813223
 31
0.0
  0
LINE
  5
95
330
1F
100
AcDbEntity
  8
0
  6
Continuous
 62
     7
370
    25
100
AcDbLine
 10
135.1906591209
 20
101.9965049833
 30
0.0
 11
161.1988576421
 21
101.9965049833
 31
0.0
  0
LINE
  5
96
330
1F
100
AcDbEntity
  8
0
  6
Continuous
 62
     7
370
    25
100
AcDbLine
 10
148.1947583815
 20
104.6016813223
 30
0.0
 11
136.6947583815
 21
104.6016813223
 31
0.0
  0
LINE
  5
97
330
1F
100
AcDbEntity
  8
0
  6
Continuous
 62
     7
370
    25
100
AcDbLine
 10
159.6947583815
 20
104.6016813223
 30
0.0
 11
148.1947583815
 21
104.6016813223
 31
0.0
  0
LINE
  5
98
330
1F
100
AcDbEntity
  8
0
  6
Continuous
 62
     7
370
    25
100
AcDbLine
 10
114.1947583815
 20
70.6016813223
 30
0.0
 11
114.1947583815
 21
82.1016813223
 31
0.0
  0
LINE
  5
99
330
1F
100
AcDbEntity
  8
0
  6
Continuous
 62
     7
370
    25
100
AcDbLine
 10
114.1947583815
 20
59.1016813223
 30
0.0
 11
114.1947583815
 21
70.6016813223
 31
0.0
  0
LINE
  5
9A
330
1F
100
AcDbEntity
  8
0
  6
Continuous
 62
     7
370
    25
100
AcDbLine
 10
182.1947583815
 20
70.6016813223
 30
0.0
 11
182.1947583815
 21
82.1016813223
 31
0.0
  0
LINE
  5
9B
330
1F
100
AcDbEntity
  8
0
  6
Continuous
 62
     7
370
    25
100
AcDbLine
 10
182.1947583815
 20
59.1016813223
 30
0.0
 11
182.1947583815
 21
70.6016813223
 31
0.0
  0
ARC
  5
9C
330
1F
100
AcDbEntity
  8
0
  6
Continuous
 62
     7
370
    25
100
AcDbCircle
 10
136.6837206065
 20
66.2829373223
 30
0.0
 40
1.193155402138655
100
AcDbArc
 50
60.652011186
 51
82.3650684338
  0
SPLINE
  5
9D
330
1F
100
AcDbEntity
  8
0
  6
Continuous
 62
     7
370
    25
100
AcDbSpline
210
0.0
220
0.0
230
1.0
 70
     8
 71
     3
 72
    12
 73
     8
 74
     0
 42
0.000000001
 43
0.00000001
 40
0.0
 40
0.0
 40
0.0
 40
0.0
 40
0.25
 40
0.25
 40
0.5
 40
0.5
 40
1.0
 40
1.0
 40
1.0
 40
1.0
 10
136.842244045547
 20
67.4655150715013
 30
0.0
 10
136.8902860161769
 20
67.71748317268735
 30
0.0
 10
136.9269796588205
 20
67.97308169134493
 30
0.0
 10
136.9929703402452
 20
68.48960805620575
 30
0.0
 10
137.0217438284222
 20
68.75102821552618
 30
0.0
 10
137.1022195354329
 20
69.53871196986458
 30
0.0
 10
137.1483492386767
 20
70.07072354249979
 30
0.0
 10
137.1947583815029
 20
70.60168132225434
 30
0.0
  0
SPLINE
  5
9E
330
1F
100
AcDbEntity
  8
0
  6
Continuous
 62
     7
370
    25
100
AcDbSpline
210
0.0
220
0.0
230
1.0
 70
     8
 71
     3
 72
    12
 73
     8
 74
     0
 42
0.000000001
 43
0.00000001
 40
0.0
 40
0.0
 40
0.0
 40
0.0
 40
0.2500000000000001
 40
0.2500000000000001
 40
0.5000000000000001
 40
0.5000000000000001
 40
1.0
 40
1.0
 40
1.0
 40
1.0
 10
137.2685012135249
 20
67.32296206010335
 30
0.0
 10
137.291213715233
 20
67.59426649847582
 30
0.0
 10
137.2987262350625
 20
67.86637869703617
 30
0.0
 10
137.300282309763
 20
68.41208838150796
 30
0.0
 10
137.293855467922
 20
68.68548433567041
 30
0.0
 10
137.2636304676212
 20
69.50570621273968
 30
0.0
 10
137.2289349465075
 20
70.05404161005563
 30
0.0
 10
137.1947583815029
 20
70.60168132225434
 30
0.0
  0
LINE
  5
9F
330
1F
100
AcDbEntity
  8
0
  6
Continuous
 62
     7
370
    25
100
AcDbLine
 10
137.6947583815
 20
67.3229620601
 30
0.0
 11
137.2685012135
 21
67.3229620601
 31
0.0
  0
SPLINE
  5
A0
330
1F
100
AcDbEntity
  8
0
  6
Continuous
 62
     7
370
    25
100
AcDbSpline
210
0.0
220
0.0
230
1.0
 70
     8
 71
     3
 72
    12
 73
     8
 74
     0
 42
0.000000001
 43
0.00000001
 40
0.0
 40
0.0
 40
0.0
 40
0.0
 40
0.25
 40
0.25
 40
0.5
 40
0.5
 40
1.0
 40
1.0
 40
1.0
 40
1.0
 10
137.6947583815029
 20
67.32296206010332
 30
0.0
 10
137.6947583815029
 20
67.60048406601314
 30
0.0
 10
137.6750354360949
 20
67.8766203929459
 30
0.0
 10
137.6143989713337
 20
68.42740425635847
 30
0.0
 10
137.5731424256453
 20
68.70161265288385
 30
0.0
 10
137.4313691159733
 20
69.51976893053265
 30
0.0
 10
137.3128020708129
 20
70.06073184563766
 30
0.0
 10
137.1947583815029
 20
70.60168132225434
 30
0.0
  0
LINE
  5
A1
330
1F
100
AcDbEntity
  8
0
  6
Continuous
 62
     7
370
    25
100
AcDbLine
 10
144.9160391194
 20
81.1016813223
 30
0.0
 11
144.9160391194
 21
81.5279384902
 31
0.0
  0
SPLINE
  5
A2
330
1F
100
AcDbEntity
  8
0
  6
Continuous
 62
     7
370
    25
100
AcDbSpline
210
0.0
220
0.0
230
1.0
 70
     8
 71
     3
 72
    12
 73
     8
 74
     0
 42
0.000000001
 43
0.00000001
 40
0.0
 40
0.0
 40
0.0
 40
0.0
 40
0.2500000000000001
 40
0.2500000000000001
 40
0.5000000000000002
 40
0.5000000000000002
 40
1.0
 40
1.0
 40
1.0
 40
1.0
 10
144.9160391193519
 20
81.52793849023226
 30
0.0
 10
145.1873435577244
 20
81.50522598852422
 30
0.0
 10
145.4594557562847
 20
81.49771346869473
 30
0.0
 10
146.0051654407565
 20
81.49615739399424
 30
0.0
 10
146.278561394919
 20
81.50258423583522
 30
0.0
 10
147.0987832719882
 20
81.53280923613605
 30
0.0
 10
147.6471186693041
 20
81.56750475724974
 30
0.0
 10
148.1947583815029
 20
81.60168132225432
 30
0.0
  0
SPLINE
  5
A3
330
1F
100
AcDbEntity
  8
0
  6
Continuous
 62
     7
370
    25
100
AcDbSpline
210
0.0
220
0.0
230
1.0
 70
     8
 71
     3
 72
    12
 73
     8
 74
     0
 42
0.000000001
 43
0.00000001
 40
0.0
 40
0.0
 40
0.0
 40
0.0
 40
0.2500000000000001
 40
0.2500000000000001
 40
0.5000000000000001
 40
0.5000000000000001
 40
1.0
 40
1.0
 40
1.0
 40
1.0
 10
144.9160391193519
 20
81.10168132225432
 30
0.0
 10
145.1935611252617
 20
81.10168132225432
 30
0.0
 10
145.4696974521944
 20
81.12140426766224
 30
0.0
 10
146.020481315607
 20
81.1820407324235
 30
0.0
 10
146.2946897121324
 20
81.22329727811187
 30
0.0
 10
147.1128459897812
 20
81.36507058778395
 30
0.0
 10
147.6538089048862
 20
81.48363763294428
 30
0.0
 10
148.1947583815029
 20
81.60168132225432
 30
0.0
  0
ARC
  5
A4
330
1F
100
AcDbEntity
  8
0
  6
Continuous
 62
     7
370
    25
100
AcDbCircle
 10
143.8760143815
 20
82.1127190973
 30
0.0
 40
1.193155402139264
100
AcDbArc
 50
330.652011186
 51
352.3650684338
  0
SPLINE
  5
A5
330
1F
100
AcDbEntity
  8
0
  6
Continuous
 62
     7
370
    25
100
AcDbSpline
210
0.0
220
0.0
230
1.0
 70
     8
 71
     3
 72
    12
 73
     8
 74
     0
 42
0.000000001
 43
0.00000001
 40
0.0
 40
0.0
 40
0.0
 40
0.0
 40
0.2499999999999999
 40
0.2499999999999999
 40
0.4999999999999999
 40
0.4999999999999999
 40
1.0
 40
1.0
 40
1.0
 40
1.0
 10
145.0585921307498
 20
81.9541956582102
 30
0.0
 10
145.3105602319359
 20
81.90615368758031
 30
0.0
 10
145.5661587505935
 20
81.8694600449367
 30
0.0
 10
146.0826851154543
 20
81.80346936351198
 30
0.0
 10
146.3441052747747
 20
81.77469587533504
 30
0.0
 10
147.1317890291131
 20
81.69422016832432
 30
0.0
 10
147.6638006017483
 20
81.64809046508054
 30
0.0
 10
148.1947583815029
 20
81.60168132225432
 30
0.0
  0
SPLINE
  5
A6
330
1F
100
AcDbEntity
  8
0
  6
Continuous
 62
     7
370
    25
100
AcDbSpline
210
0.0
220
0.0
230
1.0
 70
     8
 71
     3
 72
    12
 73
     8
 74
     0
 42
0.000000001
 43
0.00000001
 40
0.0
 40
0.0
 40
0.0
 40
0.0
 40
0.2499999999999999
 40
0.2499999999999999
 40
0.4999999999999999
 40
0.4999999999999999
 40
1.0
 40
1.0
 40
1.0
 40
1.0
 10
137.6947583815029
 20
73.88040058440532
 30
0.0
 10
137.6947583815029
 20
73.60287857849552
 30
0.0
 10
137.6750354360949
 20
73.32674225156276
 30
0.0
 10
137.6143989713337
 20
72.77595838815019
 30
0.0
 10
137.5731424256453
 20
72.5017499916248
 30
0.0
 10
137.4313691159733
 20
71.68359371397601
 30
0.0
 10
137.3128020708129
 20
71.142630798871
 30
0.0
 10
137.1947583815029
 20
70.60168132225434
 30
0.0
  0
SPLINE
  5
A7
330
1F
100
AcDbEntity
  8
0
  6
Continuous
 62
     7
370
    25
100
AcDbSpline
210
0.0
220
0.0
230
1.0
 70
     8
 71
     3
 72
    12
 73
     8
 74
     0
 42
0.000000001
 43
0.00000001
 40
0.0
 40
0.0
 40
0.0
 40
0.0
 40
0.2499999999999999
 40
0.2499999999999999
 40
0.4999999999999998
 40
0.4999999999999998
 40
1.0
 40
1.0
 40
1.0
 40
1.0
 10
137.2685012135249
 20
73.88040058440532
 30
0.0
 10
137.291213715234
 20
73.60909614602026
 30
0.0
 10
137.2987262350632
 20
73.33698394744728
 30
0.0
 10
137.3002823097624
 20
72.79127426295001
 30
0.0
 10
137.2938554679204
 20
72.51787830877487
 30
0.0
 10
137.263630467616
 20
71.69765643166744
 30
0.0
 10
137.2289349464978
 20
71.14932103448054
 30
0.0
 10
137.1947583815029
 20
70.60168132225434
 30
0.0
  0
LINE
  5
A8
330
1F
100
AcDbEntity
  8
0
  6
Continuous
 62
     7
370
    25
100
AcDbLine
 10
137.2685012135
 20
73.8804005844
 30
0.0
 11
137.6947583815
 21
73.8804005844
 31
0.0
  0
ARC
  5
A9
330
1F
100
AcDbEntity
  8
0
  6
Continuous
 62
     7
370
    25
100
AcDbCircle
 10
136.6837206065
 20
74.9204253222
 30
0.0
 40
1.193155402138543
100
AcDbArc
 50
277.6349315662
 51
299.347988814
  0
SPLINE
  5
AA
330
1F
100
AcDbEntity
  8
0
  6
Continuous
 62
     7
370
    25
100
AcDbSpline
210
0.0
220
0.0
230
1.0
 70
     8
 71
     3
 72
    12
 73
     8
 74
     0
 42
0.000000001
 43
0.00000001
 40
0.0
 40
0.0
 40
0.0
 40
0.0
 40
0.2499999999999999
 40
0.2499999999999999
 40
0.4999999999999998
 40
0.4999999999999998
 40
1.0
 40
1.0
 40
1.0
 40
1.0
 10
136.8422440455469
 20
73.73784757300746
 30
0.0
 10
136.8902692631897
 20
73.48596733704255
 30
0.0
 10
136.9269535334646
 20
73.23045914655889
 30
0.0
 10
136.992927426394
 20
72.714116755379
 30
0.0
 10
137.0216790589622
 20
72.45294770380673
 30
0.0
 10
137.1022339597522
 20
71.66455080493331
 30
0.0
 10
137.1483654363711
 20
71.13245394995772
 30
0.0
 10
137.1947583815029
 20
70.60168132225434
 30
0.0
  0
SPLINE
  5
AB
330
1F
100
AcDbEntity
  8
0
  6
Continuous
 62
     7
370
    25
100
AcDbSpline
210
0.0
220
0.0
230
1.0
 70
     8
 71
     3
 72
    12
 73
     8
 74
     0
 42
0.000000001
 43
0.00000001
 40
0.0
 40
0.0
 40
0.0
 40
0.0
 40
0.25
 40
0.25
 40
0.5
 40
0.5
 40
1.0
 40
1.0
 40
1.0
 40
1.0
 10
151.4734776436539
 20
81.10168132225432
 30
0.0
 10
151.1959556377441
 20
81.10168132225432
 30
0.0
 10
150.9198193108113
 20
81.12140426766226
 30
0.0
 10
150.3690354473987
 20
81.1820407324235
 30
0.0
 10
150.0948270508733
 20
81.22329727811187
 30
0.0
 10
149.2766707732245
 20
81.36507058778395
 30
0.0
 10
148.7357078581196
 20
81.48363763294428
 30
0.0
 10
148.1947583815029
 20
81.60168132225432
 30
0.0
  0
SPLINE
  5
AC
330
1F
100
AcDbEntity
  8
0
  6
Continuous
 62
     7
370
    25
100
AcDbSpline
210
0.0
220
0.0
230
1.0
 70
     8
 71
     3
 72
    12
 73
     8
 74
     0
 42
0.000000001
 43
0.00000001
 40
0.0
 40
0.0
 40
0.0
 40
0.0
 40
0.25
 40
0.25
 40
0.5
 40
0.5
 40
1.0
 40
1.0
 40
1.0
 40
1.0
 10
151.4734776436539
 20
81.52793849023226
 30
0.0
 10
151.2021732052688
 20
81.50522598852316
 30
0.0
 10
150.9300610066958
 20
81.49771346869396
 30
0.0
 10
150.3843513221986
 20
81.49615739399478
 30
0.0
 10
150.1109553680234
 20
81.50258423583684
 30
0.0
 10
149.290733490916
 20
81.5328092361412
 30
0.0
 10
148.7423980937291
 20
81.56750475725984
 30
0.0
 10
148.1947583815029
 20
81.60168132225432
 30
0.0
  0
LINE
  5
AD
330
1F
100
AcDbEntity
  8
0
  6
Continuous
 62
     7
370
    25
100
AcDbLine
 10
151.4734776437
 20
81.1016813223
 30
0.0
 11
151.4734776437
 21
81.5279384902
 31
0.0
  0
ARC
  5
AE
330
1F
100
AcDbEntity
  8
0
  6
Continuous
 62
     7
370
    25
100
AcDbCircle
 10
152.5135023815
 20
82.1127190973
 30
0.0
 40
1.193155402139016
100
AcDbArc
 50
187.6349315662
 51
209.347988814
  0
SPLINE
  5
AF
330
1F
100
AcDbEntity
  8
0
  6
Continuous
 62
     7
370
    25
100
AcDbSpline
210
0.0
220
0.0
230
1.0
 70
     8
 71
     3
 72
    12
 73
     8
 74
     0
 42
0.000000001
 43
0.00000001
 40
0.0
 40
0.0
 40
0.0
 40
0.0
 40
0.2499999999999999
 40
0.2499999999999999
 40
0.4999999999999998
 40
0.4999999999999998
 40
1.0
 40
1.0
 40
1.0
 40
1.0
 10
151.330924632256
 20
81.95419565821021
 30
0.0
 10
151.0790443962911
 20
81.90617044056752
 30
0.0
 10
150.8235362058074
 20
81.86948617029262
 30
0.0
 10
150.3071938146275
 20
81.80351227736324
 30
0.0
 10
150.0460247630553
 20
81.77476064479495
 30
0.0
 10
149.2576278641818
 20
81.69420574400499
 30
0.0
 10
148.7255310092063
 20
81.64807426738606
 30
0.0
 10
148.1947583815029
 20
81.60168132225432
 30
0.0
  0
ARC
  5
B0
330
1F
100
AcDbEntity
  8
0
  6
Continuous
 62
     7
370
    25
100
AcDbCircle
 10
159.7057961566
 20
66.2829373223
 30
0.0
 40
1.193155402138343
100
AcDbArc
 50
97.6349315662
 51
119.347988814
  0
SPLINE
  5
B1
330
1F
100
AcDbEntity
  8
0
  6
Continuous
 62
     7
370
    25
100
AcDbSpline
210
0.0
220
0.0
230
1.0
 70
     8
 71
     3
 72
    12
 73
     8
 74
     0
 42
0.000000001
 43
0.00000001
 40
0.0
 40
0.0
 40
0.0
 40
0.0
 40
0.2500000000000001
 40
0.2500000000000001
 40
0.5000000000000001
 40
0.5000000000000001
 40
1.0
 40
1.0
 40
1.0
 40
1.0
 10
159.1210155494808
 20
67.32296206010332
 30
0.0
 10
159.0983030477717
 20
67.59426649848835
 30
0.0
 10
159.0907905279425
 20
67.86637869706131
 30
0.0
 10
159.0892344532433
 20
68.41208838155849
 30
0.0
 10
159.0956612950854
 20
68.6854843357336
 30
0.0
 10
159.1258862953897
 20
69.50570621284093
 30
0.0
 10
159.160581816508
 20
70.0540416100282
 30
0.0
 10
159.1947583815029
 20
70.60168132225434
 30
0.0
  0
SPLINE
  5
B2
330
1F
100
AcDbEntity
  8
0
  6
Continuous
 62
     7
370
    25
100
AcDbSpline
210
0.0
220
0.0
230
1.0
 70
     8
 71
     3
 72
    12
 73
     8
 74
     0
 42
0.000000001
 43
0.00000001
 40
0.0
 40
0.0
 40
0.0
 40
0.0
 40
0.2499999999999999
 40
0.2499999999999999
 40
0.4999999999999999
 40
0.4999999999999999
 40
1.0
 40
1.0
 40
1.0
 40
1.0
 10
159.5472727174588
 20
67.4655150715012
 30
0.0
 10
159.4992307468225
 20
67.71748317272053
 30
0.0
 10
159.4625371041753
 20
67.97308169141235
 30
0.0
 10
159.3965464227443
 20
68.48960805634289
 30
0.0
 10
159.3677729345648
 20
68.7510282156989
 30
0.0
 10
159.2872972275467
 20
69.53871197014328
 30
0.0
 10
159.2411675243461
 20
70.07072354242486
 30
0.0
 10
159.1947583815029
 20
70.60168132225434
 30
0.0
  0
SPLINE
  5
B3
330
1F
100
AcDbEntity
  8
0
  6
Continuous
 62
     7
370
    25
100
AcDbSpline
210
0.0
220
0.0
230
1.0
 70
     8
 71
     3
 72
    12
 73
     8
 74
     0
 42
0.000000001
 43
0.00000001
 40
0.0
 40
0.0
 40
0.0
 40
0.0
 40
0.25
 40
0.25
 40
0.5
 40
0.5
 40
1.0
 40
1.0
 40
1.0
 40
1.0
 10
158.6947583815029
 20
67.32296206010332
 30
0.0
 10
158.6947583815029
 20
67.60048406601312
 30
0.0
 10
158.7144813269108
 20
67.8766203929459
 30
0.0
 10
158.775117791672
 20
68.42740425635846
 30
0.0
 10
158.8163743373604
 20
68.70161265288385
 30
0.0
 10
158.9581476470325
 20
69.51976893053265
 30
0.0
 10
159.0767146921928
 20
70.06073184563766
 30
0.0
 10
159.1947583815029
 20
70.60168132225434
 30
0.0
  0
LINE
  5
B4
330
1F
100
AcDbEntity
  8
0
  6
Continuous
 62
     7
370
    25
100
AcDbLine
 10
159.1210155495
 20
67.3229620601
 30
0.0
 11
158.6947583815
 21
67.3229620601
 31
0.0
  0
LINE
  5
B5
330
1F
100
AcDbEntity
  8
0
  6
Continuous
 62
     7
370
    25
100
AcDbLine
 10
158.6947583815
 20
73.8804005844
 30
0.0
 11
159.1210155495
 21
73.8804005844
 31
0.0
  0
SPLINE
  5
B6
330
1F
100
AcDbEntity
  8
0
  6
Continuous
 62
     7
370
    25
100
AcDbSpline
210
0.0
220
0.0
230
1.0
 70
     8
 71
     3
 72
    12
 73
     8
 74
     0
 42
0.000000001
 43
0.00000001
 40
0.0
 40
0.0
 40
0.0
 40
0.0
 40
0.2500000000000001
 40
0.2500000000000001
 40
0.5000000000000001
 40
0.5000000000000001
 40
1.0
 40
1.0
 40
1.0
 40
1.0
 10
159.1210155494808
 20
73.8804005844053
 30
0.0
 10
159.0983030477728
 20
73.60909614603301
 30
0.0
 10
159.0907905279433
 20
73.33698394747283
 30
0.0
 10
159.0892344532428
 20
72.79127426300138
 30
0.0
 10
159.0956612950837
 20
72.5178783088388
 30
0.0
 10
159.1258862953845
 20
71.6976564317694
 30
0.0
 10
159.1605818164983
 20
71.14932103445268
 30
0.0
 10
159.1947583815029
 20
70.60168132225434
 30
0.0
  0
SPLINE
  5
B7
330
1F
100
AcDbEntity
  8
0
  6
Continuous
 62
     7
370
    25
100
AcDbSpline
210
0.0
220
0.0
230
1.0
 70
     8
 71
     3
 72
    12
 73
     8
 74
     0
 42
0.000000001
 43
0.00000001
 40
0.0
 40
0.0
 40
0.0
 40
0.0
 40
0.2499999999999999
 40
0.2499999999999999
 40
0.4999999999999999
 40
0.4999999999999999
 40
1.0
 40
1.0
 40
1.0
 40
1.0
 10
158.6947583815029
 20
73.88040058440532
 30
0.0
 10
158.6947583815029
 20
73.6028785784955
 30
0.0
 10
158.7144813269108
 20
73.32674225156276
 30
0.0
 10
158.775117791672
 20
72.77595838815019
 30
0.0
 10
158.8163743373604
 20
72.5017499916248
 30
0.0
 10
158.9581476470325
 20
71.68359371397601
 30
0.0
 10
159.0767146921928
 20
71.142630798871
 30
0.0
 10
159.1947583815029
 20
70.60168132225434
 30
0.0
  0
ARC
  5
B8
330
1F
100
AcDbEntity
  8
0
  6
Continuous
 62
     7
370
    25
100
AcDbCircle
 10
159.7057961566
 20
74.9204253222
 30
0.0
 40
1.19315540213966
100
AcDbArc
 50
240.652011186
 51
262.3650684338
  0
SPLINE
  5
B9
330
1F
100
AcDbEntity
  8
0
  6
Continuous
 62
     7
370
    25
100
AcDbSpline
210
0.0
220
0.0
230
1.0
 70
     8
 71
     3
 72
    12
 73
     8
 74
     0
 42
0.000000001
 43
0.00000001
 40
0.0
 40
0.0
 40
0.0
 40
0.0
 40
0.2499999999999999
 40
0.2499999999999999
 40
0.4999999999999998
 40
0.4999999999999998
 40
1.0
 40
1.0
 40
1.0
 40
1.0
 10
159.5472727174588
 20
73.73784757300743
 30
0.0
 10
159.4992307468289
 20
73.48587947182136
 30
0.0
 10
159.4625371041853
 20
73.23028095316377
 30
0.0
 10
159.3965464227605
 20
72.71375458830292
 30
0.0
 10
159.3677729345836
 20
72.4523344289825
 30
0.0
 10
159.2872972275729
 20
71.66465067464412
 30
0.0
 10
159.2411675243281
 20
71.13263910200897
 30
0.0
 10
159.1947583815029
 20
70.60168132225434
 30
0.0
  0
SPLINE
  5
BA
330
1F
100
AcDbEntity
  8
0
  6
Continuous
 62
     7
370
    25
100
AcDbSpline
210
0.0
220
0.0
230
1.0
 70
     8
 71
     3
 72
     8
 73
     4
 74
     0
 42
0.000000001
 43
0.00000001
 40
0.0
 40
0.0
 40
0.0
 40
0.0
 40
1.0
 40
1.0
 40
1.0
 40
1.0
 10
143.7082737416718
 20
82.10168132225432
 30
0.0
 10
144.1520560395832
 20
82.10168132225432
 30
0.0
 10
144.6012962358171
 20
82.04138683776873
 30
0.0
 10
145.0585921307498
 20
81.9541956582102
 30
0.0
  0
LINE
  5
BB
330
1F
100
AcDbEntity
  8
0
  6
Continuous
 62
     7
370
    25
100
AcDbLine
 10
138.6295409902
 20
82.1016813223
 30
0.0
 11
143.7082737417
 21
82.1016813223
 31
0.0
  0
LINE
  5
BC
330
1F
100
AcDbEntity
  8
0
  6
Continuous
 62
     7
370
    25
100
AcDbLine
 10
138.6295409902
 20
81.1016813223
 30
0.0
 11
138.6295409902
 21
82.1016813223
 31
0.0
  0
SPLINE
  5
BD
330
1F
100
AcDbEntity
  8
0
  6
Continuous
 62
     7
370
    25
100
AcDbSpline
210
0.0
220
0.0
230
1.0
 70
     8
 71
     3
 72
    10
 73
     6
 74
     0
 42
0.000000001
 43
0.00000001
 40
0.0
 40
0.0
 40
0.0
 40
0.0
 40
0.5
 40
0.5
 40
1.0
 40
1.0
 40
1.0
 40
1.0
 10
138.4894616246791
 20
80.74812793166106
 30
0.0
 10
138.5234685081362
 20
80.78368058254813
 30
0.0
 10
138.5563306460857
 20
80.82809135437518
 30
0.0
 10
138.6095338490333
 20
80.9446764924162
 30
0.0
 10
138.6295409901985
 20
81.0204445015259
 30
0.0
 10
138.6295409901985
 20
81.10168132225434
 30
0.0
  0
SPLINE
  5
BE
330
1F
100
AcDbEntity
  8
0
  6
Continuous
 62
     7
370
    25
100
AcDbSpline
210
0.0
220
0.0
230
1.0
 70
     8
 71
     3
 72
    10
 73
     6
 74
     0
 42
0.000000001
 43
0.00000001
 40
0.0
 40
0.0
 40
0.0
 40
0.0
 40
0.5
 40
0.5
 40
1.0
 40
1.0
 40
1.0
 40
1.0
 10
157.7599757728072
 20
81.10168132225434
 30
0.0
 10
157.7599757728072
 20
81.02044450152589
 30
0.0
 10
157.7799829139724
 20
80.9446764924162
 30
0.0
 10
157.83318611692
 20
80.82809135437516
 30
0.0
 10
157.8660482548695
 20
80.78368058254812
 30
0.0
 10
157.9000551383267
 20
80.74812793166105
 30
0.0
  0
LINE
  5
BF
330
1F
100
AcDbEntity
  8
0
  6
Continuous
 62
     7
370
    25
100
AcDbLine
 10
157.7599757728
 20
82.1016813223
 30
0.0
 11
157.7599757728
 21
81.1016813223
 31
0.0
  0
LINE
  5
C0
330
1F
100
AcDbEntity
  8
0
  6
Continuous
 62
     7
370
    25
100
AcDbLine
 10
152.6812430213
 20
82.1016813223
 30
0.0
 11
157.7599757728
 21
82.1016813223
 31
0.0
  0
SPLINE
  5
C1
330
1F
100
AcDbEntity
  8
0
  6
Continuous
 62
     7
370
    25
100
AcDbSpline
210
0.0
220
0.0
230
1.0
 70
     8
 71
     3
 72
     8
 73
     4
 74
     0
 42
0.000000001
 43
0.00000001
 40
0.0
 40
0.0
 40
0.0
 40
0.0
 40
1.0
 40
1.0
 40
1.0
 40
1.0
 10
151.330924632256
 20
81.95419565821021
 30
0.0
 10
151.7882205271887
 20
82.04138683776873
 30
0.0
 10
152.2374607234226
 20
82.10168132225432
 30
0.0
 10
152.681243021334
 20
82.10168132225432
 30
0.0
  0
ARC
  5
C2
330
1F
100
AcDbEntity
  8
0
  6
Continuous
 62
     7
370
    25
100
AcDbCircle
 10
137.6947583815
 20
81.1016813223
 30
0.0
 40
1.500000000000014
100
AcDbArc
 50
270.0
 51
0.0
  0
LINE
  5
C3
330
1F
100
AcDbEntity
  8
0
  6
Continuous
 62
     7
370
    25
100
AcDbLine
 10
137.6947583815
 20
79.6016813223
 30
0.0
 11
137.6947583815
 21
80.1016813223
 31
0.0
  0
ARC
  5
C4
330
1F
100
AcDbEntity
  8
0
  6
Continuous
 62
     7
370
    25
100
AcDbCircle
 10
137.6947583815
 20
81.1016813223
 30
0.0
 40
1.000000000000014
100
AcDbArc
 50
270.0
 51
0.0
  0
LINE
  5
C5
330
1F
100
AcDbEntity
  8
0
  6
Continuous
 62
     7
370
    25
100
AcDbLine
 10
139.1947583815
 20
81.1016813223
 30
0.0
 11
138.6947583815
 21
81.1016813223
 31
0.0
  0
ARC
  5
C6
330
1F
100
AcDbEntity
  8
0
  6
Continuous
 62
     7
370
    25
100
AcDbCircle
 10
158.6947583815
 20
81.1016813223
 30
0.0
 40
1.500000000000014
100
AcDbArc
 50
180.0
 51
270.0
  0
LINE
  5
C7
330
1F
100
AcDbEntity
  8
0
  6
Continuous
 62
     7
370
    25
100
AcDbLine
 10
157.1947583815
 20
81.1016813223
 30
0.0
 11
157.6947583815
 21
81.1016813223
 31
0.0
  0
ARC
  5
C8
330
1F
100
AcDbEntity
  8
0
  6
Continuous
 62
     7
370
    25
100
AcDbCircle
 10
158.6947583815
 20
81.1016813223
 30
0.0
 40
1.000000000000014
100
AcDbArc
 50
180.0
 51
270.0
  0
LINE
  5
C9
330
1F
100
AcDbEntity
  8
0
  6
Continuous
 62
     7
370
    25
100
AcDbLine
 10
158.6947583815
 20
79.6016813223
 30
0.0
 11
158.6947583815
 21
80.1016813223
 31
0.0
  0
LINE
  5
CA
330
1F
100
AcDbEntity
  8
0
  6
Continuous
 62
     7
370
    25
100
AcDbLine
 10
137.1947583815
 20
80.1016813223
 30
0.0
 11
137.6947583815
 21
79.6016813223
 31
0.0
  0
LINE
  5
CB
330
1F
100
AcDbEntity
  8
0
  6
Continuous
 62
     7
370
    25
100
AcDbLine
 10
137.6947583815
 20
79.6016813223
 30
0.0
 11
137.6947583815
 21
73.8804005844
 31
0.0
  0
SPLINE
  5
CC
330
1F
100
AcDbEntity
  8
0
  6
Continuous
 62
     7
370
    25
100
AcDbSpline
210
0.0
220
0.0
230
1.0
 70
     8
 71
     3
 72
     8
 73
     4
 74
     0
 42
0.000000001
 43
0.00000001
 40
0.0
 40
0.0
 40
0.0
 40
0.0
 40
1.0
 40
1.0
 40
1.0
 40
1.0
 10
137.1947583815029
 20
75.29209708207775
 30
0.0
 10
137.1947583815029
 20
74.8238726583042
 30
0.0
 10
137.2254154114864
 20
74.35289217393459
 30
0.0
 10
137.2685012135249
 20
73.88040058440532
 30
0.0
  0
LINE
  5
CD
330
1F
100
AcDbEntity
  8
0
  6
Continuous
 62
     7
370
    25
100
AcDbLine
 10
137.1947583815
 20
75.2920970821
 30
0.0
 11
137.1947583815
 21
80.1016813223
 31
0.0
  0
SPLINE
  5
CE
330
1F
100
AcDbEntity
  8
0
  6
Continuous
 62
     7
370
    25
100
AcDbSpline
210
0.0
220
0.0
230
1.0
 70
     8
 71
     3
 72
    10
 73
     6
 74
     0
 42
0.000000001
 43
0.00000001
 40
0.0
 40
0.0
 40
0.0
 40
0.0
 40
0.5
 40
0.5
 40
1.0
 40
1.0
 40
1.0
 40
1.0
 10
137.6947583815029
 20
80.16689871355867
 30
0.0
 10
137.7759952022313
 20
80.16689871355867
 30
0.0
 10
137.851763211341
 20
80.18690585472386
 30
0.0
 10
137.968348349382
 20
80.2401090576715
 30
0.0
 10
138.0127591212091
 20
80.27297119562095
 30
0.0
 10
138.0483117720962
 20
80.30697807907816
 30
0.0
  0
LINE
  5
CF
330
1F
100
AcDbEntity
  8
0
  6
Continuous
 62
     7
370
    25
100
AcDbLine
 10
136.6947583815
 20
80.1668987136
 30
0.0
 11
137.6947583815
 21
80.1668987136
 31
0.0
  0
LINE
  5
D0
330
1F
100
AcDbEntity
  8
0
  6
Continuous
 62
     7
370
    25
100
AcDbLine
 10
136.6947583815
 20
75.0881659621
 30
0.0
 11
136.6947583815
 21
80.1668987136
 31
0.0
  0
SPLINE
  5
D1
330
1F
100
AcDbEntity
  8
0
  6
Continuous
 62
     7
370
    25
100
AcDbSpline
210
0.0
220
0.0
230
1.0
 70
     8
 71
     3
 72
     8
 73
     4
 74
     0
 42
0.000000001
 43
0.00000001
 40
0.0
 40
0.0
 40
0.0
 40
0.0
 40
1.0
 40
1.0
 40
1.0
 40
1.0
 10
136.8422440455469
 20
73.73784757300746
 30
0.0
 10
136.7550528659885
 20
74.19514346794016
 30
0.0
 10
136.6947583815029
 20
74.64438366417404
 30
0.0
 10
136.6947583815029
 20
75.08816596208544
 30
0.0
  0
SPLINE
  5
D2
330
1F
100
AcDbEntity
  8
0
  6
Continuous
 62
     7
370
    25
100
AcDbSpline
210
0.0
220
0.0
230
1.0
 70
     8
 71
     3
 72
     8
 73
     4
 74
     0
 42
0.000000001
 43
0.00000001
 40
0.0
 40
0.0
 40
0.0
 40
0.0
 40
1.0
 40
1.0
 40
1.0
 40
1.0
 10
136.6947583815029
 20
66.11519668242322
 30
0.0
 10
136.6947583815029
 20
66.55897898033464
 30
0.0
 10
136.7550528659885
 20
67.00821917656857
 30
0.0
 10
136.842244045547
 20
67.4655150715013
 30
0.0
  0
LINE
  5
D3
330
1F
100
AcDbEntity
  8
0
  6
Continuous
 62
     7
370
    25
100
AcDbLine
 10
136.6947583815
 20
60.5582030614
 30
0.0
 11
136.6947583815
 21
66.1151966824
 31
0.0
  0
LINE
  5
D4
330
1F
100
AcDbEntity
  8
0
  6
Continuous
 62
     7
370
    25
100
AcDbLine
 10
159.6947583815
 20
60.5582030614
 30
0.0
 11
136.6947583815
 21
60.5582030614
 31
0.0
  0
LINE
  5
D5
330
1F
100
AcDbEntity
  8
0
  6
Continuous
 62
     7
370
    25
100
AcDbLine
 10
159.6947583815
 20
66.1151966824
 30
0.0
 11
159.6947583815
 21
60.5582030614
 31
0.0
  0
SPLINE
  5
D6
330
1F
100
AcDbEntity
  8
0
  6
Continuous
 62
     7
370
    25
100
AcDbSpline
210
0.0
220
0.0
230
1.0
 70
     8
 71
     3
 72
     8
 73
     4
 74
     0
 42
0.000000001
 43
0.00000001
 40
0.0
 40
0.0
 40
0.0
 40
0.0
 40
1.0
 40
1.0
 40
1.0
 40
1.0
 10
159.5472727174588
 20
67.4655150715012
 30
0.0
 10
159.6344638970173
 20
67.0082191765685
 30
0.0
 10
159.6947583815029
 20
66.55897898033462
 30
0.0
 10
159.6947583815029
 20
66.11519668242322
 30
0.0
  0
SPLINE
  5
D7
330
1F
100
AcDbEntity
  8
0
  6
Continuous
 62
     7
370
    25
100
AcDbSpline
210
0.0
220
0.0
230
1.0
 70
     8
 71
     3
 72
     8
 73
     4
 74
     0
 42
0.000000001
 43
0.00000001
 40
0.0
 40
0.0
 40
0.0
 40
0.0
 40
1.0
 40
1.0
 40
1.0
 40
1.0
 10
159.6947583815029
 20
75.08816596208544
 30
0.0
 10
159.6947583815029
 20
74.64438366417403
 30
0.0
 10
159.6344638970173
 20
74.19514346794014
 30
0.0
 10
159.5472727174588
 20
73.73784757300743
 30
0.0
  0
LINE
  5
D8
330
1F
100
AcDbEntity
  8
0
  6
Continuous
 62
     7
370
    25
100
AcDbLine
 10
159.6947583815
 20
80.1668987136
 30
0.0
 11
159.6947583815
 21
75.0881659621
 31
0.0
  0
LINE
  5
D9
330
1F
100
AcDbEntity
  8
0
  6
Continuous
 62
     7
370
    25
100
AcDbLine
 10
158.6947583815
 20
80.1668987136
 30
0.0
 11
159.6947583815
 21
80.1668987136
 31
0.0
  0
SPLINE
  5
DA
330
1F
100
AcDbEntity
  8
0
  6
Continuous
 62
     7
370
    25
100
AcDbSpline
210
0.0
220
0.0
230
1.0
 70
     8
 71
     3
 72
    10
 73
     6
 74
     0
 42
0.000000001
 43
0.00000001
 40
0.0
 40
0.0
 40
0.0
 40
0.0
 40
0.5
 40
0.5
 40
1.0
 40
1.0
 40
1.0
 40
1.0
 10
158.3412049909096
 20
80.30697807907815
 30
0.0
 10
158.3767576417967
 20
80.27297119562094
 30
0.0
 10
158.4211684136237
 20
80.24010905767149
 30
0.0
 10
158.5377535516647
 20
80.18690585472385
 30
0.0
 10
158.6135215607744
 20
80.16689871355867
 30
0.0
 10
158.6947583815029
 20
80.16689871355867
 30
0.0
  0
LINE
  5
DB
330
1F
100
AcDbEntity
  8
0
  6
Continuous
 62
     7
370
    25
100
AcDbLine
 10
137.6947583815
 20
61.1016813223
 30
0.0
 11
158.6947583815
 21
61.1016813223
 31
0.0
  0
LINE
  5
DC
330
1F
100
AcDbEntity
  8
0
  6
Continuous
 62
     7
370
    25
100
AcDbLine
 10
158.6947583815
 20
61.1016813223
 30
0.0
 11
159.1947583815
 21
60.6016813223
 31
0.0
  0
LINE
  5
DD
330
1F
100
AcDbEntity
  8
0
  6
Continuous
 62
     7
370
    25
100
AcDbLine
 10
159.1947583815
 20
60.6016813223
 30
0.0
 11
137.1947583815
 21
60.6016813223
 31
0.0
  0
LINE
  5
DE
330
1F
100
AcDbEntity
  8
0
  6
Continuous
 62
     7
370
    25
100
AcDbLine
 10
137.6947583815
 20
61.1016813223
 30
0.0
 11
137.1947583815
 21
60.6016813223
 31
0.0
  0
LINE
  5
DF
330
1F
100
AcDbEntity
  8
0
  6
Continuous
 62
     7
370
    25
100
AcDbLine
 10
137.6947583815
 20
67.3229620601
 30
0.0
 11
137.6947583815
 21
61.1016813223
 31
0.0
  0
LINE
  5
E0
330
1F
100
AcDbEntity
  8
0
  6
Continuous
 62
     7
370
    25
100
AcDbLine
 10
137.1947583815
 20
60.6016813223
 30
0.0
 11
137.1947583815
 21
65.9112655624
 31
0.0
  0
SPLINE
  5
E1
330
1F
100
AcDbEntity
  8
0
  6
Continuous
 62
     7
370
    25
100
AcDbSpline
210
0.0
220
0.0
230
1.0
 70
     8
 71
     3
 72
     8
 73
     4
 74
     0
 42
0.000000001
 43
0.00000001
 40
0.0
 40
0.0
 40
0.0
 40
0.0
 40
1.0
 40
1.0
 40
1.0
 40
1.0
 10
137.2685012135249
 20
67.32296206010335
 30
0.0
 10
137.2254200286865
 20
66.85052110414956
 30
0.0
 10
137.1947583815029
 20
66.37939592579013
 30
0.0
 10
137.1947583815029
 20
65.91126556243088
 30
0.0
  0
LINE
  5
E2
330
1F
100
AcDbEntity
  8
0
  6
Continuous
 62
     7
370
    25
100
AcDbLine
 10
157.1947583815
 20
81.1016813223
 30
0.0
 11
157.6947583815
 21
81.6016813223
 31
0.0
  0
LINE
  5
E3
330
1F
100
AcDbEntity
  8
0
  6
Continuous
 62
     7
370
    25
100
AcDbLine
 10
157.6947583815
 20
81.6016813223
 30
0.0
 11
157.6947583815
 21
81.1016813223
 31
0.0
  0
LINE
  5
E4
330
1F
100
AcDbEntity
  8
0
  6
Continuous
 62
     7
370
    25
100
AcDbLine
 10
137.1947583815
 20
80.1016813223
 30
0.0
 11
137.6947583815
 21
80.1016813223
 31
0.0
  0
LINE
  5
E5
330
1F
100
AcDbEntity
  8
0
  6
Continuous
 62
     7
370
    25
100
AcDbLine
 10
144.9160391194
 20
81.1016813223
 30
0.0
 11
139.1947583815
 21
81.1016813223
 31
0.0
  0
LINE
  5
E6
330
1F
100
AcDbEntity
  8
0
  6
Continuous
 62
     7
370
    25
100
AcDbLine
 10
139.1947583815
 20
81.1016813223
 30
0.0
 11
138.6947583815
 21
81.6016813223
 31
0.0
  0
LINE
  5
E7
330
1F
100
AcDbEntity
  8
0
  6
Continuous
 62
     7
370
    25
100
AcDbLine
 10
138.6947583815
 20
81.6016813223
 30
0.0
 11
143.5043426217
 21
81.6016813223
 31
0.0
  0
SPLINE
  5
E8
330
1F
100
AcDbEntity
  8
0
  6
Continuous
 62
     7
370
    25
100
AcDbSpline
210
0.0
220
0.0
230
1.0
 70
     8
 71
     3
 72
     8
 73
     4
 74
     0
 42
0.000000001
 43
0.00000001
 40
0.0
 40
0.0
 40
0.0
 40
0.0
 40
1.0
 40
1.0
 40
1.0
 40
1.0
 10
144.9160391193519
 20
81.52793849023226
 30
0.0
 10
144.4435981633981
 20
81.57101967507066
 30
0.0
 10
143.9724729850387
 20
81.60168132225432
 30
0.0
 10
143.5043426216794
 20
81.60168132225432
 30
0.0
  0
LINE
  5
E9
330
1F
100
AcDbEntity
  8
0
  6
Continuous
 62
     7
370
    25
100
AcDbLine
 10
138.6947583815
 20
81.1016813223
 30
0.0
 11
138.6947583815
 21
81.6016813223
 31
0.0
  0
LINE
  5
EA
330
1F
100
AcDbEntity
  8
0
  6
Continuous
 62
     7
370
    25
100
AcDbLine
 10
158.6947583815
 20
73.8804005844
 30
0.0
 11
158.6947583815
 21
79.6016813223
 31
0.0
  0
LINE
  5
EB
330
1F
100
AcDbEntity
  8
0
  6
Continuous
 62
     7
370
    25
100
AcDbLine
 10
158.6947583815
 20
79.6016813223
 30
0.0
 11
159.1947583815
 21
80.1016813223
 31
0.0
  0
LINE
  5
EC
330
1F
100
AcDbEntity
  8
0
  6
Continuous
 62
     7
370
    25
100
AcDbLine
 10
159.1947583815
 20
80.1016813223
 30
0.0
 11
159.1947583815
 21
75.2920970821
 31
0.0
  0
SPLINE
  5
ED
330
1F
100
AcDbEntity
  8
0
  6
Continuous
 62
     7
370
    25
100
AcDbSpline
210
0.0
220
0.0
230
1.0
 70
     8
 71
     3
 72
     8
 73
     4
 74
     0
 42
0.000000001
 43
0.00000001
 40
0.0
 40
0.0
 40
0.0
 40
0.0
 40
1.0
 40
1.0
 40
1.0
 40
1.0
 10
159.1210155494808
 20
73.8804005844053
 30
0.0
 10
159.1640967343192
 20
74.3528415403591
 30
0.0
 10
159.1947583815029
 20
74.82396671871852
 30
0.0
 10
159.1947583815029
 20
75.29209708207776
 30
0.0
  0
LINE
  5
EE
330
1F
100
AcDbEntity
  8
0
  6
Continuous
 62
     7
370
    25
100
AcDbLine
 10
158.6947583815
 20
80.1016813223
 30
0.0
 11
159.1947583815
 21
80.1016813223
 31
0.0
  0
LINE
  5
EF
330
1F
100
AcDbEntity
  8
0
  6
Continuous
 62
     7
370
    25
100
AcDbLine
 10
157.1947583815
 20
81.1016813223
 30
0.0
 11
151.4734776437
 21
81.1016813223
 31
0.0
  0
SPLINE
  5
F0
330
1F
100
AcDbEntity
  8
0
  6
Continuous
 62
     7
370
    25
100
AcDbSpline
210
0.0
220
0.0
230
1.0
 70
     8
 71
     3
 72
     8
 73
     4
 74
     0
 42
0.000000001
 43
0.00000001
 40
0.0
 40
0.0
 40
0.0
 40
0.0
 40
1.0
 40
1.0
 40
1.0
 40
1.0
 10
152.8851741413263
 20
81.60168132225432
 30
0.0
 10
152.4169497175527
 20
81.60168132225432
 30
0.0
 10
151.9459692331831
 20
81.57102429227075
 30
0.0
 10
151.4734776436539
 20
81.52793849023226
 30
0.0
  0
LINE
  5
F1
330
1F
100
AcDbEntity
  8
0
  6
Continuous
 62
     7
370
    25
100
AcDbLine
 10
152.8851741413
 20
81.6016813223
 30
0.0
 11
157.6947583815
 21
81.6016813223
 31
0.0
  0
LINE
  5
F2
330
1F
100
AcDbEntity
  8
0
  6
Continuous
 62
     7
370
    25
100
AcDbLine
 10
158.6947583815
 20
61.1016813223
 30
0.0
 11
158.6947583815
 21
67.3229620601
 31
0.0
  0
SPLINE
  5
F3
330
1F
100
AcDbEntity
  8
0
  6
Continuous
 62
     7
370
    25
100
AcDbSpline
210
0.0
220
0.0
230
1.0
 70
     8
 71
     3
 72
     8
 73
     4
 74
     0
 42
0.000000001
 43
0.00000001
 40
0.0
 40
0.0
 40
0.0
 40
0.0
 40
1.0
 40
1.0
 40
1.0
 40
1.0
 10
159.1947583815029
 20
65.9112655624309
 30
0.0
 10
159.1947583815029
 20
66.37948998620445
 30
0.0
 10
159.1641013515193
 20
66.85047047057405
 30
0.0
 10
159.1210155494808
 20
67.32296206010332
 30
0.0
  0
LINE
  5
F4
330
1F
100
AcDbEntity
  8
0
  6
Continuous
 62
     7
370
    25
100
AcDbLine
 10
159.1947583815
 20
65.9112655624
 30
0.0
 11
159.1947583815
 21
60.6016813223
 31
0.0
  0
LINE
  5
F5
330
1F
100
AcDbEntity
  8
0
  6
Continuous
 62
     7
370
    25
100
AcDbLine
 10
154.4302615209
 20
64.822405462
 30
0.0
 11
154.1627071763
 21
64.1083384963
 31
0.0
  0
LINE
  5
F6
330
1F
100
AcDbEntity
  8
0
  6
Continuous
 62
     7
370
    25
100
AcDbLine
 10
154.2330695008
 20
64.0131700491
 30
0.0
 11
154.7681781869
 21
64.0131700491
 31
0.0
  0
ELLIPSE
  5
F7
330
1F
100
AcDbEntity
  8
0
  6
Continuous
 62
     7
370
    25
100
AcDbEllipse
 10
154.2330695008
 20
64.0843859849
 30
0.0
 11
-0.07471508237065905
 21
0.0
 31
0.0
210
0.0
220
0.0
230
1.0
 40
0.9531667975
 41
5.940161364898012
 42
7.853981633974483
  0
ELLIPSE
  5
F8
330
1F
100
AcDbEntity
  8
0
  6
Continuous
 62
     7
370
    25
100
AcDbEllipse
 10
154.7681781869
 20
64.0843859849
 30
0.0
 11
0.0747150823706022
 21
2.842170943040401E-14
 31
0.0
210
0.0
220
0.0
230
1.0
 40
0.9531667975
 41
4.712388980384341
 42
6.62620924575462
  0
LINE
  5
F9
330
1F
100
AcDbEntity
  8
0
  6
Continuous
 62
     7
370
    25
100
AcDbLine
 10
154.8385405115
 20
64.108338496
 30
0.0
 11
154.5709861699
 21
64.822405462
 31
0.0
  0
ELLIPSE
  5
FA
330
1F
100
AcDbEntity
  8
0
  6
Continuous
 62
     7
370
    25
100
AcDbEllipse
 10
154.5006238454
 20
64.7984529507
 30
0.0
 11
0.07471508237065905
 21
0.0
 31
0.0
210
0.0
220
0.0
230
1.0
 40
0.9531667975
 41
0.3430239404209288
 42
2.798568713168677
  0
ELLIPSE
  5
FB
330
1F
100
AcDbEntity
  8
0
  6
Continuous
 62
     7
370
    25
100
AcDbEllipse
 10
154.5006238437
 20
66.8840624607
 30
0.0
 11
0.5743721957241519
 21
1.250555214937776E-12
 31
0.0
210
0.0
220
0.0
230
1.0
 40
0.9531667975
 41
0.435791898753024
 42
2.705800754832464
  0
LINE
  5
FC
330
1F
100
AcDbEntity
  8
0
  6
Continuous
 62
     7
370
    25
100
AcDbLine
 10
157.0409366443
 20
63.728306306
 30
0.0
 11
157.0042403277
 21
63.7073358168
 31
0.0
  0
LINE
  5
FD
330
1F
100
AcDbEntity
  8
0
  6
Continuous
 62
     7
370
    25
100
AcDbLine
 10
156.3393783539
 20
62.3909021682
 30
0.0
 11
157.0409366443
 21
63.728306306
 31
0.0
  0
ELLIPSE
  5
FE
330
1F
100
AcDbEntity
  8
0
  6
Continuous
 62
     7
370
    25
100
AcDbEllipse
 10
152.3046168091
 20
64.1966956538
 30
0.0
 11
-0.5977206589639081
 21
5.684341886080801E-14
 31
0.0
210
0.0
220
0.0
230
1.0
 40
0.9531667975
 41
1.047197551195604
 42
2.813039483037392
  0
LINE
  5
FF
330
1F
100
AcDbEntity
  8
0
  6
Continuous
 62
     7
370
    25
100
AcDbLine
 10
153.9799347458
 20
67.115166164
 30
0.0
 11
152.8703655025
 21
64.0128594481
 31
0.0
  0
LINE
  5
100
330
1F
100
AcDbEntity
  8
0
  6
Continuous
 62
     7
370
    25
100
AcDbLine
 10
156.1311408153
 20
64.0121363284
 30
0.0
 11
155.0213129415
 21
67.115166164
 31
0.0
  0
ELLIPSE
  5
101
330
1F
100
AcDbEntity
  8
0
  6
Continuous
 62
     7
370
    25
100
AcDbEllipse
 10
156.2725511527
 20
62.4227509029
 30
0.0
 11
0.0747150823706022
 21
2.842170943040401E-14
 31
0.0
210
0.0
220
0.0
230
1.0
 40
0.9531667976
 41
3.962594650564787
 42
5.81953769816928
  0
ELLIPSE
  5
102
330
1F
100
AcDbEntity
  8
0
  6
Continuous
 62
     7
370
    25
100
AcDbEllipse
 10
154.5006238437
 20
60.6090483183
 30
0.0
 11
2.525369784127093
 21
-1.634248292248230E-13
 31
0.0
210
0.0
220
0.0
230
1.0
 40
0.9531667975
 41
0.8210019969639465
 42
2.320590656625489
  0
ELLIPSE
  5
103
330
1F
100
AcDbEntity
  8
0
  6
Continuous
 62
     7
370
    25
100
AcDbEllipse
 10
152.7286965346
 20
62.4227509029
 30
0.0
 11
0.07471508237065905
 21
0.0
 31
0.0
210
0.0
220
0.0
230
1.0
 40
0.9531667975
 41
3.605240262591593
 42
5.462183310213659
  0
LINE
  5
104
330
1F
100
AcDbEntity
  8
0
  6
Continuous
 62
     7
370
    25
100
AcDbLine
 10
151.960311043
 20
63.728306306
 30
0.0
 11
152.6618693334
 21
62.3909021682
 31
0.0
  0
LINE
  5
105
330
1F
100
AcDbEntity
  8
0
  6
Continuous
 62
     7
370
    25
100
AcDbLine
 10
152.0057564796
 20
63.7032971774
 30
0.0
 11
151.960311043
 21
63.728306306
 31
0.0
  0
ELLIPSE
  5
106
330
1F
100
AcDbEntity
  8
0
  6
Continuous
 62
     7
370
    25
100
AcDbEllipse
 10
156.6968895087
 20
64.1959725342
 30
0.0
 11
-0.5977206589647892
 21
-1.705302565824240E-13
 31
0.0
210
0.0
220
0.0
230
1.0
 40
0.9531667975
 41
0.3285531705514148
 42
2.110876526947232
  0
LWPOLYLINE
  5
107
330
1F
100
AcDbEntity
  8
0
  6
Continuous
 62
     7
370
    25
100
AcDbPolyline
 90
        9
 70
   128
 43
0.0
 10
159.1947583815
 20
75.2920970821
 10
159.2043657413
 20
75.2523120942
 10
159.2328186152
 20
75.2140560211
 10
159.2790235754
 20
75.1787990222
 10
159.3412049909
 20
75.1478960042
 10
159.416973265
 20
75.1225345528
 10
159.5034166653
 20
75.1036892943
 10
159.5972132205
 20
75.0920844414
 10
159.6947583815
 20
75.0881659621
  0
LWPOLYLINE
  5
108
330
1F
100
AcDbEntity
  8
0
  6
Continuous
 62
     7
370
    25
100
AcDbPolyline
 90
        9
 70
   128
 43
0.0
 10
136.6947583815
 20
66.1151966824
 10
136.7923035425
 20
66.1112782031
 10
136.8861000977
 20
66.0996733502
 10
136.972543498
 20
66.0808280917
 10
137.0483117721
 20
66.0554666403
 10
137.1104931877
 20
66.0245636223
 10
137.1566981478
 20
65.9893066234
 10
137.1851510217
 20
65.9510505503
 10
137.1947583815
 20
65.9112655624
  0
LWPOLYLINE
  5
109
330
1F
100
AcDbEntity
  8
0
  6
Continuous
 62
     7
370
    25
100
AcDbPolyline
 90
        9
 70
   128
 43
0.0
 10
136.6947583815
 20
75.0881659621
 10
136.7923035425
 20
75.0920844414
 10
136.8861000977
 20
75.1036892943
 10
136.972543498
 20
75.1225345528
 10
137.0483117721
 20
75.1478960042
 10
137.1104931877
 20
75.1787990222
 10
137.1566981478
 20
75.2140560211
 10
137.1851510217
 20
75.2523120942
 10
137.1947583815
 20
75.2920970821
  0
LWPOLYLINE
  5
10A
330
1F
100
AcDbEntity
  8
0
  6
Continuous
 62
     7
370
    25
100
AcDbPolyline
 90
        9
 70
   128
 43
0.0
 10
152.6812430213
 20
82.1016813223
 10
152.6851615006
 20
82.0041361612
 10
152.6967663535
 20
81.9103396061
 10
152.715611612
 20
81.8238962057
 10
152.7409730635
 20
81.7481279317
 10
152.7718760815
 20
81.6859465161
 10
152.8071330804
 20
81.639741556
 10
152.8453891535
 20
81.6112886821
 10
152.8851741413
 20
81.6016813223
  0
LWPOLYLINE
  5
10B
330
1F
100
AcDbEntity
  8
0
  6
Continuous
 62
     7
370
    25
100
AcDbPolyline
 90
        9
 70
   128
 43
0.0
 10
143.5043426217
 20
81.6016813223
 10
143.5441276095
 20
81.6112886821
 10
143.5823836826
 20
81.639741556
 10
143.6176406815
 20
81.6859465161
 10
143.6485436995
 20
81.7481279317
 10
143.673905151
 20
81.8238962057
 10
143.6927504095
 20
81.9103396061
 10
143.7043552624
 20
82.0041361612
 10
143.7082737417
 20
82.1016813223
  0
LWPOLYLINE
  5
10C
330
1F
100
AcDbEntity
  8
0
  6
Continuous
 62
     7
370
    25
100
AcDbPolyline
 90
        9
 70
   128
 43
0.0
 10
159.6947583815
 20
66.1151966824
 10
159.5972132205
 20
66.1112782031
 10
159.5034166653
 20
66.0996733502
 10
159.416973265
 20
66.0808280917
 10
159.3412049909
 20
66.0554666403
 10
159.2790235754
 20
66.0245636223
 10
159.2328186152
 20
65.9893066234
 10
159.2043657413
 20
65.9510505503
 10
159.1947583815
 20
65.9112655624
  0
SPLINE
  5
10D
330
1F
100
AcDbEntity
  8
0
  6
Continuous
 62
     7
370
    25
100
AcDbSpline
210
0.0
220
0.0
230
1.0
 70
     8
 71
     3
 72
     8
 73
     4
 74
     0
 42
0.000000001
 43
0.00000001
 40
0.0
 40
0.0
 40
0.0
 40
0.0
 40
1.0
 40
1.0
 40
1.0
 40
1.0
 10
136.9028530602119
 20
60.60168132225432
 30
0.0
 10
136.8352634651103
 20
60.60168132225432
 30
0.0
 10
136.7649721815914
 20
60.58621115816416
 30
0.0
 10
136.6947583815029
 20
60.55820306138477
 30
0.0
  0
SPLINE
  5
10E
330
1F
100
AcDbEntity
  8
0
  6
Continuous
 62
     7
370
    25
100
AcDbSpline
210
0.0
220
0.0
230
1.0
 70
    24
 71
     3
 72
    12
 73
     8
 74
     0
 42
0.000000001
 43
0.00000001
 40
0.0
 40
0.0
 40
0.0
 40
0.0
 40
0.4999999999999989
 40
0.4999999999999989
 40
0.7499999999999994
 40
0.7499999999999994
 40
1.0
 40
1.0
 40
1.0
 40
1.0
 10
137.1947583815029
 20
60.60168132225432
 30
0.0
 10
137.1947583815029
 20
60.60168132225432
 30
0.0
 10
137.1735588335272
 20
60.60168132225432
 30
0.0
 10
137.107631497197
 20
60.60168132225433
 30
0.0
 10
137.079392250282
 20
60.60168132225433
 30
0.0
 10
137.0068418745644
 20
60.60168132225432
 30
0.0
 10
136.9638550423464
 20
60.60168132225433
 30
0.0
 10
136.9028530602119
 20
60.60168132225432
 30
0.0
  0
SPLINE
  5
10F
330
1F
100
AcDbEntity
  8
0
  6
Continuous
 62
     7
370
    25
100
AcDbSpline
210
0.0
220
0.0
230
1.0
 70
     8
 71
     3
 72
     8
 73
     4
 74
     0
 42
0.000000001
 43
0.00000001
 40
0.0
 40
0.0
 40
0.0
 40
0.0
 40
1.0
 40
1.0
 40
1.0
 40
1.0
 10
138.6947583815029
 20
81.849983798299
 30
0.0
 10
138.6947583815029
 20
81.93019457669755
 30
0.0
 10
138.6708277593956
 20
82.01619507342218
 30
0.0
 10
138.6295409901985
 20
82.10168132225432
 30
0.0
  0
SPLINE
  5
110
330
1F
100
AcDbEntity
  8
0
  6
Continuous
 62
     7
370
    25
100
AcDbSpline
210
0.0
220
0.0
230
1.0
 70
    24
 71
     3
 72
    12
 73
     8
 74
     0
 42
0.000000001
 43
0.00000001
 40
0.0
 40
0.0
 40
0.0
 40
0.0
 40
0.5000000000000022
 40
0.5000000000000022
 40
0.7500000000000011
 40
0.7500000000000011
 40
1.0
 40
1.0
 40
1.0
 40
1.0
 10
138.6947583815029
 20
81.60168132225432
 30
0.0
 10
138.6947583815029
 20
81.60168132225432
 30
0.0
 10
138.6947583815029
 20
81.62016605339167
 30
0.0
 10
138.6947583815029
 20
81.67830223727229
 30
0.0
 10
138.6947583815029
 20
81.70314702331426
 30
0.0
 10
138.6947583815029
 20
81.76509168339201
 30
0.0
 10
138.6947583815029
 20
81.80192724400912
 30
0.0
 10
138.6947583815029
 20
81.84998379830041
 30
0.0
  0
SPLINE
  5
111
330
1F
100
AcDbEntity
  8
0
  6
Continuous
 62
     7
370
    25
100
AcDbSpline
210
0.0
220
0.0
230
1.0
 70
     8
 71
     3
 72
     8
 73
     4
 74
     0
 42
0.000000001
 43
0.00000001
 40
0.0
 40
0.0
 40
0.0
 40
0.0
 40
1.0
 40
1.0
 40
1.0
 40
1.0
 10
136.9464559054582
 20
80.10168132225432
 30
0.0
 10
136.8662451270597
 20
80.10168132225432
 30
0.0
 10
136.780244630337
 20
80.12561194436255
 30
0.0
 10
136.6947583815029
 20
80.16689871355867
 30
0.0
  0
SPLINE
  5
112
330
1F
100
AcDbEntity
  8
0
  6
Continuous
 62
     7
370
    25
100
AcDbSpline
210
0.0
220
0.0
230
1.0
 70
    24
 71
     3
 72
    10
 73
     6
 74
     0
 42
0.000000001
 43
0.00000001
 40
0.0
 40
0.0
 40
0.0
 40
0.0
 40
0.5
 40
0.5
 40
1.0
 40
1.0
 40
1.0
 40
1.0
 10
136.9464559054582
 20
80.10168132225432
 30
0.0
 10
137.0419329743896
 20
80.10168132225432
 30
0.0
 10
137.0988117795982
 20
80.10168132225432
 30
0.0
 10
137.1759092881255
 20
80.10168132225432
 30
0.0
 10
137.1947583815027
 20
80.10168132225432
 30
0.0
 10
137.1947583815029
 20
80.10168132225432
 30
0.0
  0
SPLINE
  5
113
330
1F
100
AcDbEntity
  8
0
  6
Continuous
 62
     7
370
    25
100
AcDbSpline
210
0.0
220
0.0
230
1.0
 70
     8
 71
     3
 72
     8
 73
     4
 74
     0
 42
0.000000001
 43
0.00000001
 40
0.0
 40
0.0
 40
0.0
 40
0.0
 40
1.0
 40
1.0
 40
1.0
 40
1.0
 10
157.6947583815029
 20
81.84998379829895
 30
0.0
 10
157.6947583815029
 20
81.9301945766975
 30
0.0
 10
157.7186890036115
 20
82.01619507341935
 30
0.0
 10
157.7599757728072
 20
82.10168132225432
 30
0.0
  0
SPLINE
  5
114
330
1F
100
AcDbEntity
  8
0
  6
Continuous
 62
     7
370
    25
100
AcDbSpline
210
0.0
220
0.0
230
1.0
 70
    24
 71
     3
 72
    10
 73
     6
 74
     0
 42
0.000000001
 43
0.00000001
 40
0.0
 40
0.0
 40
0.0
 40
0.0
 40
0.5
 40
0.5
 40
1.0
 40
1.0
 40
1.0
 40
1.0
 10
157.6947583815029
 20
81.84998379829895
 30
0.0
 10
157.6947583815029
 20
81.75450672936759
 30
0.0
 10
157.6947583815029
 20
81.69762792415901
 30
0.0
 10
157.6947583815029
 20
81.62053041563169
 30
0.0
 10
157.6947583815029
 20
81.60168132225445
 30
0.0
 10
157.6947583815029
 20
81.60168132225432
 30
0.0
  0
SPLINE
  5
115
330
1F
100
AcDbEntity
  8
0
  6
Continuous
 62
     7
370
    25
100
AcDbSpline
210
0.0
220
0.0
230
1.0
 70
     8
 71
     3
 72
     8
 73
     4
 74
     0
 42
0.000000001
 43
0.00000001
 40
0.0
 40
0.0
 40
0.0
 40
0.0
 40
1.0
 40
1.0
 40
1.0
 40
1.0
 10
159.4866637027939
 20
60.60168132225432
 30
0.0
 10
159.5542532978954
 20
60.60168132225432
 30
0.0
 10
159.6245445814143
 20
60.58621115816416
 30
0.0
 10
159.6947583815029
 20
60.55820306138477
 30
0.0
  0
SPLINE
  5
116
330
1F
100
AcDbEntity
  8
0
  6
Continuous
 62
     7
370
    25
100
AcDbSpline
210
0.0
220
0.0
230
1.0
 70
    24
 71
     3
 72
    12
 73
     8
 74
     0
 42
0.000000001
 43
0.00000001
 40
0.0
 40
0.0
 40
0.0
 40
0.0
 40
0.2499999999999997
 40
0.2499999999999997
 40
0.4999999999999993
 40
0.4999999999999993
 40
1.0
 40
1.0
 40
1.0
 40
1.0
 10
159.4866637027939
 20
60.60168132225432
 30
0.0
 10
159.4262439562651
 20
60.60168132225432
 30
0.0
 10
159.3828977032019
 20
60.60168132225433
 30
0.0
 10
159.3100280851337
 20
60.60168132225433
 30
0.0
 10
159.2823760776693
 20
60.60168132225432
 30
0.0
 10
159.2163445087292
 20
60.60168132225432
 30
0.0
 10
159.1947583815029
 20
60.60168132225432
 30
0.0
 10
159.1947583815029
 20
60.60168132225432
 30
0.0
  0
SPLINE
  5
117
330
1F
100
AcDbEntity
  8
0
  6
Continuous
 62
     7
370
    25
100
AcDbSpline
210
0.0
220
0.0
230
1.0
 70
     8
 71
     3
 72
     8
 73
     4
 74
     0
 42
0.000000001
 43
0.00000001
 40
0.0
 40
0.0
 40
0.0
 40
0.0
 40
1.0
 40
1.0
 40
1.0
 40
1.0
 10
159.4430608575475
 20
80.10168132225431
 30
0.0
 10
159.5232716359461
 20
80.10168132225431
 30
0.0
 10
159.6092721326698
 20
80.12561194436202
 30
0.0
 10
159.6947583815029
 20
80.16689871355867
 30
0.0
  0
SPLINE
  5
118
330
1F
100
AcDbEntity
  8
0
  6
Continuous
 62
     7
370
    25
100
AcDbSpline
210
0.0
220
0.0
230
1.0
 70
    24
 71
     3
 72
    12
 73
     8
 74
     0
 42
0.000000001
 43
0.00000001
 40
0.0
 40
0.0
 40
0.0
 40
0.0
 40
0.5000000000000023
 40
0.5000000000000023
 40
0.7500000000000011
 40
0.7500000000000011
 40
1.0
 40
1.0
 40
1.0
 40
1.0
 10
159.1947583815029
 20
80.10168132225431
 30
0.0
 10
159.1947583815029
 20
80.10168132225431
 30
0.0
 10
159.2132431126402
 20
80.10168132225431
 30
0.0
 10
159.2713792965208
 20
80.10168132225431
 30
0.0
 10
159.2962240825628
 20
80.10168132225432
 30
0.0
 10
159.3581687426405
 20
80.10168132225431
 30
0.0
 10
159.3950043032577
 20
80.10168132225431
 30
0.0
 10
159.4430608575489
 20
80.10168132225431
 30
0.0
  0
ARC
  5
119
330
1F
100
AcDbEntity
  8
0
  6
Continuous
 62
     7
370
    25
100
AcDbCircle
 10
158.2637143358
 20
80.6506000563
 30
0.0
 40
0.3765098915033527
100
AcDbArc
 50
164.9874047955
 51
222.8433917103
  0
LINE
  5
11A
330
1F
100
AcDbEntity
  8
0
  6
Continuous
 62
     7
370
    25
100
AcDbLine
 10
157.7599757728
 20
81.1016813223
 30
0.0
 11
157.6947583815
 21
81.1016813223
 31
0.0
  0
LINE
  5
11B
330
1F
100
AcDbEntity
  8
0
  6
Continuous
 62
     7
370
    25
100
AcDbLine
 10
158.6947583815
 20
80.1668987136
 30
0.0
 11
158.6947583815
 21
80.1016813223
 31
0.0
  0
ARC
  5
11C
330
1F
100
AcDbEntity
  8
0
  6
Continuous
 62
     7
370
    25
100
AcDbCircle
 10
158.2436771156
 20
80.6706372766
 30
0.0
 40
0.3765098915035301
100
AcDbArc
 50
227.1566082897
 51
285.0125952045
  0
ARC
  5
11D
330
1F
100
AcDbEntity
  8
0
  6
Continuous
 62
     7
370
    25
100
AcDbCircle
 10
138.1458396474
 20
80.6706372766
 30
0.0
 40
0.3765098915035164
100
AcDbArc
 50
254.9874047955
 51
312.8433917103
  0
LINE
  5
11E
330
1F
100
AcDbEntity
  8
0
  6
Continuous
 62
     7
370
    25
100
AcDbLine
 10
137.6947583815
 20
80.1668987136
 30
0.0
 11
137.6947583815
 21
80.1016813223
 31
0.0
  0
ARC
  5
11F
330
1F
100
AcDbEntity
  8
0
  6
Continuous
 62
     7
370
    25
100
AcDbCircle
 10
138.1258024272
 20
80.6506000563
 30
0.0
 40
0.3765098915035402
100
AcDbArc
 50
317.1566082897
 51
15.0125952045
  0
LINE
  5
120
330
1F
100
AcDbEntity
  8
0
  6
Continuous
 62
     7
370
    25
100
AcDbLine
 10
138.6947583815
 20
81.1016813223
 30
0.0
 11
138.6295409902
 21
81.1016813223
 31
0.0
  0
ARC
  5
121
330
1F
100
AcDbEntity
  8
0
  6
Continuous
 62
     7
370
    25
100
AcDbCircle
 10
158.4812959098
 20
80.8882188506
 30
0.0
 40
0.5978848551744124
100
AcDbArc
 50
193.5510042499
 51
256.4489957501
  0
ARC
  5
122
330
1F
100
AcDbEntity
  8
0
  6
Continuous
 62
     7
370
    25
100
AcDbCircle
 10
137.9082208532
 20
80.8882188506
 30
0.0
 40
0.5978848551746148
100
AcDbArc
 50
283.5510042499
 51
346.4489957501
  0
LINE
  5
123
330
1F
100
AcDbEntity
  8
0
  6
Continuous
 62
     8
370
    25
100
AcDbLine
 10
165.1947583815
 20
59.6016813223
 30
0.0
 11
165.1947583815
 21
81.6016813223
 31
0.0
  0
LINE
  5
124
330
1F
100
AcDbEntity
  8
0
  6
Continuous
 62
     8
370
    25
100
AcDbLine
 10
131.1947583815
 20
70.6016813223
 30
0.0
 11
131.1947583815
 21
59.6016813223
 31
0.0
  0
LINE
  5
125
330
1F
100
AcDbEntity
  8
0
  6
Continuous
 62
     8
370
    25
100
AcDbLine
 10
131.1947583815
 20
81.6016813223
 30
0.0
 11
131.1947583815
 21
70.6016813223
 31
0.0
  0
LINE
  5
126
330
1F
100
AcDbEntity
  8
0
  6
Continuous
 62
     8
370
    25
100
AcDbLine
 10
159.1947583815
 20
87.6016813223
 30
0.0
 11
137.1947583815
 21
87.6016813223
 31
0.0
  0
LINE
  5
127
330
1F
100
AcDbEntity
  8
0
  6
Continuous
 62
     8
370
    25
100
AcDbLine
 10
137.1947583815
 20
82.1016813223
 30
0.0
 11
138.4894616247
 21
80.7481279317
 31
0.0
  0
LINE
  5
128
330
1F
100
AcDbEntity
  8
0
  6
Continuous
 62
     8
370
    25
100
AcDbLine
 10
157.9000551383
 20
80.7481279317
 30
0.0
 11
159.1947583815
 21
82.1016813223
 31
0.0
  0
LINE
  5
129
330
1F
100
AcDbEntity
  8
0
  6
Continuous
 62
     8
370
    25
100
AcDbLine
 10
138.0483117721
 20
80.3069780791
 30
0.0
 11
136.6947583815
 21
81.6016813223
 31
0.0
  0
LINE
  5
12A
330
1F
100
AcDbEntity
  8
0
  6
Continuous
 62
     8
370
    25
100
AcDbLine
 10
159.6947583815
 20
81.6016813223
 30
0.0
 11
158.3412049909
 21
80.3069780791
 31
0.0
  0
LINE
  5
12B
330
1F
100
AcDbEntity
  8
0
  6
Continuous
 62
     7
370
    18
100
AcDbLine
 10
115.2174643414
 20
82.6921408835
 30
0.0
 11
130.0947583815
 21
83.1570563223
 31
0.0
  0
LINE
  5
12C
330
1F
100
AcDbEntity
  8
0
  6
Continuous
 62
     7
370
    18
100
AcDbLine
 10
115.2174643414
 20
58.511221761
 30
0.0
 11
130.0947583815
 21
58.0463063223
 31
0.0
  0
LINE
  5
12D
330
1F
100
AcDbEntity
  8
0
  6
Continuous
 62
     7
370
    18
100
AcDbLine
 10
130.0947583815
 20
57.1821188223
 30
0.0
 11
130.0947583815
 21
84.0212438223
 31
0.0
  0
LINE
  5
12E
330
1F
100
AcDbEntity
  8
0
  6
Continuous
 62
     7
370
    18
100
AcDbLine
 10
160.2852179427
 20
103.5789753624
 30
0.0
 11
160.7501333815
 21
88.7016813223
 31
0.0
  0
LINE
  5
12F
330
1F
100
AcDbEntity
  8
0
  6
Continuous
 62
     7
370
    18
100
AcDbLine
 10
136.1042988203
 20
103.5789753624
 30
0.0
 11
135.6393833815
 21
88.7016813223
 31
0.0
  0
LINE
  5
130
330
1F
100
AcDbEntity
  8
0
  6
Continuous
 62
     7
370
    18
100
AcDbLine
 10
134.7751958815
 20
88.7016813223
 30
0.0
 11
161.6143208815
 21
88.7016813223
 31
0.0
  0
LINE
  5
131
330
1F
100
AcDbEntity
  8
0
  6
Continuous
 62
     7
370
    18
100
AcDbLine
 10
181.1720524216
 20
58.511221761
 30
0.0
 11
166.2947583815
 21
58.0463063223
 31
0.0
  0
LINE
  5
132
330
1F
100
AcDbEntity
  8
0
  6
Continuous
 62
     7
370
    18
100
AcDbLine
 10
181.1720524216
 20
82.6921408835
 30
0.0
 11
166.2947583815
 21
83.1570563223
 31
0.0
  0
LINE
  5
133
330
1F
100
AcDbEntity
  8
0
  6
Continuous
 62
     7
370
    18
100
AcDbLine
 10
166.2947583815
 20
84.0212438223
 30
0.0
 11
166.2947583815
 21
57.1821188223
 31
0.0
  0
LINE
  5
134
330
1F
100
AcDbEntity
  8
0
  6
CENTERX2
 62
     7
370
    18
100
AcDbLine
 10
148.1947583815
 20
57.2367435367
 30
0.0
 11
148.1947583815
 21
106.6016813223
 31
0.0
  0
LINE
  5
135
330
1F
100
AcDbEntity
  8
0
  6
CENTERX2
 62
     7
370
    18
100
AcDbLine
 10
112.1947583815
 20
70.6016813223
 30
0.0
 11
184.1947583815
 21
70.6016813223
 31
0.0
  0
LINE
  5
136
330
1F
100
AcDbEntity
  8
0
  6
Continuous
 62
     7
370
    25
100
AcDbLine
 10
238.2228645792
 20
88.6016813223
 30
0.0
 11
237.8042763397
 21
101.9965049833
 31
0.0
  0
LINE
  5
137
330
1F
100
AcDbEntity
  8
0
  6
Continuous
 62
     7
370
    25
100
AcDbLine
 10
211.7960778186
 20
101.9965049833
 30
0.0
 11
211.3774895792
 21
88.6016813223
 31
0.0
  0
LINE
  5
138
330
1F
100
AcDbEntity
  8
0
  6
Continuous
 62
     7
370
    25
100
AcDbLine
 10
237.8042763397
 20
101.9965049833
 30
0.0
 11
236.3001770792
 21
104.6016813223
 31
0.0
  0
LINE
  5
139
330
1F
100
AcDbEntity
  8
0
  6
Continuous
 62
     7
370
    25
100
AcDbLine
 10
213.3001770792
 20
104.6016813223
 30
0.0
 11
211.7960778186
 21
101.9965049833
 31
0.0
  0
ARC
  5
13A
330
1F
100
AcDbEntity
  8
0
  6
Continuous
 62
     7
370
    25
100
AcDbCircle
 10
212.8001770792
 20
87.6016813223
 30
0.0
 40
1.0
100
AcDbArc
 50
0.0
 51
90.0
  0
ARC
  5
13B
330
1F
100
AcDbEntity
  8
0
  6
Continuous
 62
     7
370
    25
100
AcDbCircle
 10
236.8001770792
 20
87.6016813223
 30
0.0
 40
1.0
100
AcDbArc
 50
90.0
 51
180.0
  0
LINE
  5
13C
330
1F
100
AcDbEntity
  8
0
  6
Continuous
 62
     7
370
    25
100
AcDbLine
 10
235.8001770792
 20
81.6016813223
 30
0.0
 11
235.8001770792
 21
87.6016813223
 31
0.0
  0
LINE
  5
13D
330
1F
100
AcDbEntity
  8
0
  6
Continuous
 62
     7
370
    25
100
AcDbLine
 10
213.8001770792
 20
87.6016813223
 30
0.0
 11
213.8001770792
 21
81.6016813223
 31
0.0
  0
CIRCLE
  5
13E
330
1F
100
AcDbEntity
  8
0
  6
Continuous
 62
     7
370
    25
100
AcDbCircle
 10
224.8001770792
 20
70.6016813223
 30
0.0
 40
11.5
  0
CIRCLE
  5
13F
330
1F
100
AcDbEntity
  8
0
  6
Continuous
 62
     7
370
    25
100
AcDbCircle
 10
224.8001770792
 20
70.6016813223
 30
0.0
 40
13.00409926059291
  0
CIRCLE
  5
140
330
1F
100
AcDbEntity
  8
0
  6
Continuous
 62
     7
370
    25
100
AcDbCircle
 10
224.8001770792
 20
70.6016813223
 30
0.0
 40
9.000000000000028
  0
CIRCLE
  5
141
330
1F
100
AcDbEntity
  8
0
  6
Continuous
 62
     7
370
    25
100
AcDbCircle
 10
224.8001770792
 20
70.6016813223
 30
0.0
 40
8.500000000000028
  0
CIRCLE
  5
142
330
1F
100
AcDbEntity
  8
0
  6
Continuous
 62
     7
370
    25
100
AcDbCircle
 10
224.8001770792
 20
70.6016813223
 30
0.0
 40
13.42268750000002
  0
LINE
  5
143
330
1F
100
AcDbEntity
  8
0
  6
Continuous
 62
     7
370
    25
100
AcDbLine
 10
224.8001770792
 20
101.9965049833
 30
0.0
 11
237.8042763397
 21
101.9965049833
 31
0.0
  0
LINE
  5
144
330
1F
100
AcDbEntity
  8
0
  6
Continuous
 62
     7
370
    25
100
AcDbLine
 10
211.7960778186
 20
101.9965049833
 30
0.0
 11
224.8001770792
 21
101.9965049833
 31
0.0
  0
LINE
  5
145
330
1F
100
AcDbEntity
  8
0
  6
Continuous
 62
     7
370
    25
100
AcDbLine
 10
211.3774895792
 20
88.6016813223
 30
0.0
 11
238.2228645792
 21
88.6016813223
 31
0.0
  0
LINE
  5
146
330
1F
100
AcDbEntity
  8
0
  6
Continuous
 62
     7
370
    25
100
AcDbLine
 10
236.3001770792
 20
104.6016813223
 30
0.0
 11
213.3001770792
 21
104.6016813223
 31
0.0
  0
SPLINE
  5
147
330
1F
100
AcDbEntity
  8
0
  6
Continuous
 62
     7
370
    25
100
AcDbSpline
210
0.0
220
0.0
230
1.0
 70
     8
 71
     3
 72
    12
 73
     8
 74
     0
 42
0.000000001
 43
0.00000001
 40
0.0
 40
0.0
 40
0.0
 40
0.0
 40
0.25
 40
0.25
 40
0.5
 40
0.5
 40
1.0
 40
1.0
 40
1.0
 40
1.0
 10
235.3436329285263
 20
81.9541956582102
 30
0.0
 10
235.418581206074
 20
81.90615368757396
 30
0.0
 10
235.4847646611843
 20
81.8694600449268
 30
0.0
 10
235.5987461666193
 20
81.80346936349571
 30
0.0
 10
235.6466276035987
 20
81.77469587531621
 30
0.0
 10
235.7615510695128
 20
81.69422016829817
 30
0.0
 10
235.8001770791552
 20
81.64809046509745
 30
0.0
 10
235.8001770791552
 20
81.60168132225432
 30
0.0
  0
SPLINE
  5
148
330
1F
100
AcDbEntity
  8
0
  6
Continuous
 62
     7
370
    25
100
AcDbSpline
210
0.0
220
0.0
230
1.0
 70
     8
 71
     3
 72
     8
 73
     4
 74
     0
 42
0.000000001
 43
0.00000001
 40
0.0
 40
0.0
 40
0.0
 40
0.0
 40
1.0
 40
1.0
 40
1.0
 40
1.0
 10
234.8436553400248
 20
82.10168132225432
 30
0.0
 10
235.0418956718395
 20
82.10168132225432
 30
0.0
 10
235.2076096006171
 20
82.04138683776873
 30
0.0
 10
235.3436329285263
 20
81.9541956582102
 30
0.0
  0
SPLINE
  5
149
330
1F
100
AcDbEntity
  8
0
  6
Continuous
 62
     7
370
    25
100
AcDbSpline
210
0.0
220
0.0
230
1.0
 70
     8
 71
     3
 72
     8
 73
     4
 74
     0
 42
0.000000001
 43
0.00000001
 40
0.0
 40
0.0
 40
0.0
 40
0.0
 40
1.0
 40
1.0
 40
1.0
 40
1.0
 10
214.2567212297841
 20
81.95419565821021
 30
0.0
 10
214.3927445576934
 20
82.04138683776873
 30
0.0
 10
214.558458486471
 20
82.10168132225432
 30
0.0
 10
214.7566988182857
 20
82.10168132225432
 30
0.0
  0
SPLINE
  5
14A
330
1F
100
AcDbEntity
  8
0
  6
Continuous
 62
     7
370
    25
100
AcDbSpline
210
0.0
220
0.0
230
1.0
 70
     8
 71
     3
 72
    12
 73
     8
 74
     0
 42
0.000000001
 43
0.00000001
 40
0.0
 40
0.0
 40
0.0
 40
0.0
 40
0.2499999999999999
 40
0.2499999999999999
 40
0.4999999999999998
 40
0.4999999999999998
 40
1.0
 40
1.0
 40
1.0
 40
1.0
 10
214.2567212297841
 20
81.95419565821021
 30
0.0
 10
214.181799087884
 20
81.90617044056752
 30
0.0
 10
214.1156356325
 20
81.86948617029262
 30
0.0
 10
214.0016811044499
 20
81.80351227736324
 30
0.0
 10
213.9538252989892
 20
81.77476064479495
 30
0.0
 10
213.8387700033687
 20
81.69420574400499
 30
0.0
 10
213.8001770791552
 20
81.64807426738606
 30
0.0
 10
213.8001770791552
 20
81.60168132225432
 30
0.0
  0
ARC
  5
14B
330
1F
100
AcDbEntity
  8
0
  6
Continuous
 62
     7
370
    25
100
AcDbCircle
 10
235.3001770792
 20
61.1016813223
 30
0.0
 40
0.5
100
AcDbArc
 50
270.0
 51
0.0
  0
LINE
  5
14C
330
1F
100
AcDbEntity
  8
0
  6
Continuous
 62
     7
370
    25
100
AcDbLine
 10
235.8001770792
 20
62.9095723967
 30
0.0
 11
235.8001770792
 21
61.1016813223
 31
0.0
  0
ARC
  5
14D
330
1F
100
AcDbEntity
  8
0
  6
Continuous
 62
     7
370
    25
100
AcDbCircle
 10
235.3001770792
 20
79.6016813223
 30
0.0
 40
0.5
100
AcDbArc
 50
0.0
 51
90.0
  0
LINE
  5
14E
330
1F
100
AcDbEntity
  8
0
  6
Continuous
 62
     7
370
    25
100
AcDbLine
 10
235.8001770792
 20
79.6016813223
 30
0.0
 11
235.8001770792
 21
78.2937902478
 31
0.0
  0
LINE
  5
14F
330
1F
100
AcDbEntity
  8
0
  6
Continuous
 62
     7
370
    25
100
AcDbLine
 10
233.753865689
 20
60.6016813223
 30
0.0
 11
235.3001770792
 21
60.6016813223
 31
0.0
  0
LINE
  5
150
330
1F
100
AcDbEntity
  8
0
  6
Continuous
 62
     7
370
    25
100
AcDbLine
 10
234.2827157541
 20
80.1016813223
 30
0.0
 11
235.3001770792
 21
80.1016813223
 31
0.0
  0
LINE
  5
151
330
1F
100
AcDbEntity
  8
0
  6
Continuous
 62
     7
370
    25
100
AcDbLine
 10
214.3001770792
 20
60.6016813223
 30
0.0
 11
215.8464884693
 21
60.6016813223
 31
0.0
  0
LINE
  5
152
330
1F
100
AcDbEntity
  8
0
  6
Continuous
 62
     7
370
    25
100
AcDbLine
 10
214.3001770792
 20
80.1016813223
 30
0.0
 11
215.3176384042
 21
80.1016813223
 31
0.0
  0
ARC
  5
153
330
1F
100
AcDbEntity
  8
0
  6
Continuous
 62
     7
370
    25
100
AcDbCircle
 10
214.3001770792
 20
61.1016813223
 30
0.0
 40
0.5
100
AcDbArc
 50
180.0
 51
270.0
  0
LINE
  5
154
330
1F
100
AcDbEntity
  8
0
  6
Continuous
 62
     7
370
    25
100
AcDbLine
 10
213.8001770792
 20
61.1016813223
 30
0.0
 11
213.8001770792
 21
62.9095723967
 31
0.0
  0
ARC
  5
155
330
1F
100
AcDbEntity
  8
0
  6
Continuous
 62
     7
370
    25
100
AcDbCircle
 10
214.3001770792
 20
79.6016813223
 30
0.0
 40
0.5
100
AcDbArc
 50
90.0
 51
180.0
  0
LINE
  5
156
330
1F
100
AcDbEntity
  8
0
  6
Continuous
 62
     7
370
    25
100
AcDbLine
 10
213.8001770792
 20
78.2937902478
 30
0.0
 11
213.8001770792
 21
79.6016813223
 31
0.0
  0
LINE
  5
157
330
1F
100
AcDbEntity
  8
0
  6
Continuous
 62
     7
370
    25
100
AcDbLine
 10
235.3001770792
 20
80.1016813223
 30
0.0
 11
235.3001770792
 21
81.1016813223
 31
0.0
  0
LINE
  5
158
330
1F
100
AcDbEntity
  8
0
  6
Continuous
 62
     7
370
    25
100
AcDbLine
 10
235.8001770792
 20
81.1016813223
 30
0.0
 11
235.3001770792
 21
81.1016813223
 31
0.0
  0
LINE
  5
159
330
1F
100
AcDbEntity
  8
0
  6
Continuous
 62
     7
370
    25
100
AcDbLine
 10
235.8001770792
 20
81.1016813223
 30
0.0
 11
235.8001770792
 21
79.6016813223
 31
0.0
  0
LINE
  5
15A
330
1F
100
AcDbEntity
  8
0
  6
Continuous
 62
     7
370
    25
100
AcDbLine
 10
214.3001770792
 20
81.1016813223
 30
0.0
 11
214.3001770792
 21
80.1016813223
 31
0.0
  0
LINE
  5
15B
330
1F
100
AcDbEntity
  8
0
  6
Continuous
 62
     7
370
    25
100
AcDbLine
 10
213.8001770792
 20
81.1016813223
 30
0.0
 11
214.3001770792
 21
81.1016813223
 31
0.0
  0
LINE
  5
15C
330
1F
100
AcDbEntity
  8
0
  6
Continuous
 62
     7
370
    25
100
AcDbLine
 10
213.8001770792
 20
79.6016813223
 30
0.0
 11
213.8001770792
 21
81.1016813223
 31
0.0
  0
ARC
  5
15D
330
1F
100
AcDbEntity
  8
0
  6
Continuous
 62
     7
370
    25
100
AcDbCircle
 10
235.3229514063
 20
82.0808873714
 30
0.0
 40
0.4797469202789587
100
AcDbArc
 50
177.5158173388
 51
267.2790582562
  0
ARC
  5
15E
330
1F
100
AcDbEntity
  8
0
  6
Continuous
 62
     7
370
    25
100
AcDbCircle
 10
214.277402752
 20
82.0808873714
 30
0.0
 40
0.4797469202789593
100
AcDbArc
 50
272.7209417438
 51
2.4841826612
  0
LINE
  5
15F
330
1F
100
AcDbEntity
  8
0
  6
Continuous
 62
     7
370
    25
100
AcDbLine
 10
235.3001770792
 20
81.1016813223
 30
0.0
 11
235.3001770792
 21
81.6016813223
 31
0.0
  0
ARC
  5
160
330
1F
100
AcDbEntity
  8
0
  6
Continuous
 62
     7
370
    25
100
AcDbCircle
 10
235.3001770792
 20
81.1016813223
 30
0.0
 40
0.5
100
AcDbArc
 50
0.0
 51
90.0
  0
LINE
  5
161
330
1F
100
AcDbEntity
  8
0
  6
Continuous
 62
     7
370
    25
100
AcDbLine
 10
232.4922860047
 20
81.6016813223
 30
0.0
 11
235.3001770792
 21
81.6016813223
 31
0.0
  0
LINE
  5
162
330
1F
100
AcDbEntity
  8
0
  6
Continuous
 62
     7
370
    25
100
AcDbLine
 10
214.3001770792
 20
81.6016813223
 30
0.0
 11
214.3001770792
 21
81.1016813223
 31
0.0
  0
LINE
  5
163
330
1F
100
AcDbEntity
  8
0
  6
Continuous
 62
     7
370
    25
100
AcDbLine
 10
214.3001770792
 20
81.6016813223
 30
0.0
 11
217.1080681536
 21
81.6016813223
 31
0.0
  0
ARC
  5
164
330
1F
100
AcDbEntity
  8
0
  6
Continuous
 62
     7
370
    25
100
AcDbCircle
 10
214.3001770792
 20
81.1016813223
 30
0.0
 40
0.5
100
AcDbArc
 50
90.0
 51
180.0
  0
ARC
  5
165
330
1F
100
AcDbEntity
  8
0
  6
Continuous
 62
     7
370
    25
100
AcDbCircle
 10
235.8108305282
 20
81.9241987106
 30
0.0
 40
0.4681596031694243
100
AcDbArc
 50
176.3263026515
 51
237.8245286086
  0
ARC
  5
166
330
1F
100
AcDbEntity
  8
0
  6
Continuous
 62
     7
370
    25
100
AcDbCircle
 10
213.7895236301
 20
81.9241987106
 30
0.0
 40
0.4681596031696355
100
AcDbArc
 50
302.1754713914
 51
3.6736973485
  0
SPLINE
  5
167
330
1F
100
AcDbEntity
  8
0
  6
Continuous
 62
     7
370
    25
100
AcDbSpline
210
0.0
220
0.0
230
1.0
 70
     8
 71
     3
 72
    12
 73
     8
 74
     0
 42
0.000000001
 43
0.00000001
 40
0.0
 40
0.0
 40
0.0
 40
0.0
 40
0.25
 40
0.25
 40
0.5
 40
0.5
 40
1.0
 40
1.0
 40
1.0
 40
1.0
 10
235.5615290004174
 20
81.52793849023226
 30
0.0
 10
235.5985724114987
 20
81.50522598852316
 30
0.0
 10
235.632785312787
 20
81.49771346869396
 30
0.0
 10
235.692317467648
 20
81.49615739399478
 30
0.0
 10
235.7177181986704
 20
81.50258423583684
 30
0.0
 10
235.7790768303994
 20
81.53280923614119
 30
0.0
 10
235.8001770791552
 20
81.56750475725974
 30
0.0
 10
235.8001770791552
 20
81.60168132225432
 30
0.0
  0
SPLINE
  5
168
330
1F
100
AcDbEntity
  8
0
  6
Continuous
 62
     7
370
    25
100
AcDbSpline
210
0.0
220
0.0
230
1.0
 70
    24
 71
     3
 72
    12
 73
     8
 74
     0
 42
0.000000001
 43
0.00000001
 40
0.0
 40
0.0
 40
0.0
 40
0.0
 40
0.2500000000000001
 40
0.2500000000000001
 40
0.5000000000000001
 40
0.5000000000000001
 40
1.0
 40
1.0
 40
1.0
 40
1.0
 10
235.8001770791552
 20
81.10168132225432
 30
0.0
 10
235.8001770791552
 20
81.10168132225432
 30
0.0
 10
235.8001770791552
 20
81.12140426766226
 30
0.0
 10
235.8001770791552
 20
81.1820407324235
 30
0.0
 10
235.8001770791552
 20
81.22329727811187
 30
0.0
 10
235.8001770791552
 20
81.36507058778395
 30
0.0
 10
235.8001770791552
 20
81.48363763294428
 30
0.0
 10
235.8001770791552
 20
81.60168132225432
 30
0.0
  0
SPLINE
  5
169
330
1F
100
AcDbEntity
  8
0
  6
Continuous
 62
     7
370
    25
100
AcDbSpline
210
0.0
220
0.0
230
1.0
 70
     8
 71
     3
 72
    12
 73
     8
 74
     0
 42
0.000000001
 43
0.00000001
 40
0.0
 40
0.0
 40
0.0
 40
0.0
 40
0.25
 40
0.25
 40
0.5
 40
0.5
 40
1.0
 40
1.0
 40
1.0
 40
1.0
 10
214.0388251578931
 20
81.52793849023226
 30
0.0
 10
214.0017817468117
 20
81.50522598852316
 30
0.0
 10
213.9675688455235
 20
81.49771346869396
 30
0.0
 10
213.9080366906624
 20
81.49615739399478
 30
0.0
 10
213.8826359596401
 20
81.50258423583684
 30
0.0
 10
213.8212773279111
 20
81.5328092361412
 30
0.0
 10
213.8001770791552
 20
81.56750475725984
 30
0.0
 10
213.8001770791552
 20
81.60168132225432
 30
0.0
  0
SPLINE
  5
16A
330
1F
100
AcDbEntity
  8
0
  6
Continuous
 62
     7
370
    25
100
AcDbSpline
210
0.0
220
0.0
230
1.0
 70
    24
 71
     3
 72
    12
 73
     8
 74
     0
 42
0.000000001
 43
0.00000001
 40
0.0
 40
0.0
 40
0.0
 40
0.0
 40
0.25
 40
0.25
 40
0.5
 40
0.5
 40
1.0
 40
1.0
 40
1.0
 40
1.0
 10
213.8001770791552
 20
81.10168132225432
 30
0.0
 10
213.8001770791552
 20
81.10168132225432
 30
0.0
 10
213.8001770791552
 20
81.12140426766226
 30
0.0
 10
213.8001770791552
 20
81.1820407324235
 30
0.0
 10
213.8001770791552
 20
81.22329727811187
 30
0.0
 10
213.8001770791552
 20
81.36507058778395
 30
0.0
 10
213.8001770791552
 20
81.48363763294428
 30
0.0
 10
213.8001770791552
 20
81.60168132225432
 30
0.0
  0
LINE
  5
16B
330
1F
100
AcDbEntity
  8
0
  6
Continuous
 62
     8
370
    25
100
AcDbLine
 10
235.8001770792
 20
87.6016813223
 30
0.0
 11
213.8001770792
 21
87.6016813223
 31
0.0
  0
LINE
  5
16C
330
1F
100
AcDbEntity
  8
0
  6
Continuous
 62
     8
370
    25
100
AcDbLine
 10
231.7224989239
 20
82.1016813223
 30
0.0
 11
234.84365534
 21
82.1016813223
 31
0.0
  0
LINE
  5
16D
330
1F
100
AcDbEntity
  8
0
  6
Continuous
 62
     8
370
    25
100
AcDbLine
 10
214.7566988183
 20
82.1016813223
 30
0.0
 11
217.8778552344
 21
82.1016813223
 31
0.0
  0
LINE
  5
16E
330
1F
100
AcDbEntity
  8
0
  6
Continuous
 62
     8
370
    25
100
AcDbLine
 10
235.3001770792
 20
60.6016813223
 30
0.0
 11
235.3001770792
 21
62.2399506567
 31
0.0
  0
LINE
  5
16F
330
1F
100
AcDbEntity
  8
0
  6
Continuous
 62
     8
370
    25
100
AcDbLine
 10
235.3001770792
 20
78.9634119878
 30
0.0
 11
235.3001770792
 21
80.1016813223
 31
0.0
  0
LINE
  5
170
330
1F
100
AcDbEntity
  8
0
  6
Continuous
 62
     8
370
    25
100
AcDbLine
 10
214.3001770792
 20
62.2399506567
 30
0.0
 11
214.3001770792
 21
60.6016813223
 31
0.0
  0
LINE
  5
171
330
1F
100
AcDbEntity
  8
0
  6
Continuous
 62
     8
370
    25
100
AcDbLine
 10
214.3001770792
 20
80.1016813223
 30
0.0
 11
214.3001770792
 21
78.9634119878
 31
0.0
  0
LINE
  5
172
330
1F
100
AcDbEntity
  8
0
  6
Continuous
 62
     8
370
    25
100
AcDbLine
 10
233.1619077447
 20
81.1016813223
 30
0.0
 11
235.3001770792
 21
81.1016813223
 31
0.0
  0
LINE
  5
173
330
1F
100
AcDbEntity
  8
0
  6
Continuous
 62
     8
370
    25
100
AcDbLine
 10
214.3001770792
 20
81.1016813223
 30
0.0
 11
216.4384464136
 21
81.1016813223
 31
0.0
  0
INSERT
  5
17F
330
1F
100
AcDbEntity
  8
0
  6
Continuous
 62
     7
370
    18
100
AcDbBlockReference
  2
SW_CENTERMARKSYMBOL_0
 10
224.8001770792
 20
70.6016813223
 30
0.0
  0
LINE
  5
180
330
1F
100
AcDbEntity
  8
0
  6
Continuous
 62
     7
370
    18
100
AcDbLine
 10
236.8906366404
 20
103.5789753624
 30
0.0
 11
237.3555520792
 21
88.7016813223
 31
0.0
  0
LINE
  5
181
330
1F
100
AcDbEntity
  8
0
  6
Continuous
 62
     7
370
    18
100
AcDbLine
 10
212.7097175179
 20
103.5789753624
 30
0.0
 11
212.2448020792
 21
88.7016813223
 31
0.0
  0
LINE
  5
182
330
1F
100
AcDbEntity
  8
0
  6
Continuous
 62
     7
370
    18
100
AcDbLine
 10
211.3806145792
 20
88.7016813223
 30
0.0
 11
238.2197395792
 21
88.7016813223
 31
0.0
  0
ARC
  5
183
330
1F
100
AcDbEntity
  8
0
  6
Continuous
 62
     7
370
    18
100
AcDbCircle
 10
224.8001770792
 20
70.6016813223
 30
0.0
 40
12.05850000000002
100
AcDbArc
 50
75.0
 51
345.0
  0
LINE
  5
184
330
1F
100
AcDbEntity
  8
0
  6
Continuous
 62
     7
370
    25
100
AcDbLine
 10
130.1947583815
 20
151.1724906615
 30
0.0
 11
116.7999347205
 21
150.7539024221
 31
0.0
  0
LINE
  5
185
330
1F
100
AcDbEntity
  8
0
  6
Continuous
 62
     7
370
    25
100
AcDbLine
 10
116.7999347205
 20
124.7457039009
 30
0.0
 11
130.1947583815
 21
124.3271156615
 31
0.0
  0
LINE
  5
186
330
1F
100
AcDbEntity
  8
0
  6
Continuous
 62
     7
370
    25
100
AcDbLine
 10
166.1947583815
 20
124.3271156615
 30
0.0
 11
179.5895820425
 21
124.7457039009
 31
0.0
  0
LINE
  5
187
330
1F
100
AcDbEntity
  8
0
  6
Continuous
 62
     7
370
    25
100
AcDbLine
 10
179.5895820425
 20
150.7539024221
 30
0.0
 11
166.1947583815
 21
151.1724906615
 31
0.0
  0
LINE
  5
188
330
1F
100
AcDbEntity
  8
0
  6
Continuous
 62
     7
370
    25
100
AcDbLine
 10
116.7999347205
 20
150.7539024221
 30
0.0
 11
114.1947583815
 21
149.2498031615
 31
0.0
  0
LINE
  5
189
330
1F
100
AcDbEntity
  8
0
  6
Continuous
 62
     7
370
    25
100
AcDbLine
 10
114.1947583815
 20
126.2498031615
 30
0.0
 11
116.7999347205
 21
124.7457039009
 31
0.0
  0
LINE
  5
18A
330
1F
100
AcDbEntity
  8
0
  6
Continuous
 62
     7
370
    25
100
AcDbLine
 10
179.5895820425
 20
124.7457039009
 30
0.0
 11
182.1947583815
 21
126.2498031615
 31
0.0
  0
LINE
  5
18B
330
1F
100
AcDbEntity
  8
0
  6
Continuous
 62
     7
370
    25
100
AcDbLine
 10
182.1947583815
 20
149.2498031615
 30
0.0
 11
179.5895820425
 21
150.7539024221
 31
0.0
  0
ARC
  5
18C
330
1F
100
AcDbEntity
  8
0
  6
Continuous
 62
     7
370
    25
100
AcDbCircle
 10
165.1947583815
 20
149.7498031615
 30
0.0
 40
1.0
100
AcDbArc
 50
270.0
 51
0.0
  0
ARC
  5
18D
330
1F
100
AcDbEntity
  8
0
  6
Continuous
 62
     7
370
    25
100
AcDbCircle
 10
165.1947583815
 20
125.7498031615
 30
0.0
 40
1.0
100
AcDbArc
 50
0.0
 51
90.0
  0
ARC
  5
18E
330
1F
100
AcDbEntity
  8
0
  6
Continuous
 62
     7
370
    25
100
AcDbCircle
 10
131.1947583815
 20
125.7498031615
 30
0.0
 40
1.0
100
AcDbArc
 50
90.0
 51
180.0
  0
ARC
  5
18F
330
1F
100
AcDbEntity
  8
0
  6
Continuous
 62
     7
370
    25
100
AcDbCircle
 10
131.1947583815
 20
149.7498031615
 30
0.0
 40
1.0
100
AcDbArc
 50
180.0
 51
270.0
  0
LINE
  5
190
330
1F
100
AcDbEntity
  8
0
  6
Continuous
 62
     7
370
    25
100
AcDbLine
 10
137.1947583815
 20
148.7498031615
 30
0.0
 11
131.1947583815
 21
148.7498031615
 31
0.0
  0
LINE
  5
191
330
1F
100
AcDbEntity
  8
0
  6
Continuous
 62
     7
370
    25
100
AcDbLine
 10
165.1947583815
 20
148.7498031615
 30
0.0
 11
159.1947583815
 21
148.7498031615
 31
0.0
  0
LINE
  5
192
330
1F
100
AcDbEntity
  8
0
  6
Continuous
 62
     7
370
    25
100
AcDbLine
 10
159.1947583815
 20
126.7498031615
 30
0.0
 11
165.1947583815
 21
126.7498031615
 31
0.0
  0
LINE
  5
193
330
1F
100
AcDbEntity
  8
0
  6
Continuous
 62
     7
370
    25
100
AcDbLine
 10
131.1947583815
 20
126.7498031615
 30
0.0
 11
137.1947583815
 21
126.7498031615
 31
0.0
  0
CIRCLE
  5
194
330
1F
100
AcDbEntity
  8
0
  6
Continuous
 62
     7
370
    25
100
AcDbCircle
 10
148.1947583815
 20
137.7498031615
 30
0.0
 40
11.5
  0
CIRCLE
  5
195
330
1F
100
AcDbEntity
  8
0
  6
Continuous
 62
     7
370
    25
100
AcDbCircle
 10
148.1947583815
 20
137.7498031615
 30
0.0
 40
9.0
  0
CIRCLE
  5
196
330
1F
100
AcDbEntity
  8
0
  6
Continuous
 62
     7
370
    25
100
AcDbCircle
 10
148.1947583815
 20
137.7498031615
 30
0.0
 40
13.00409926059291
  0
CIRCLE
  5
197
330
1F
100
AcDbEntity
  8
0
  6
Continuous
 62
     7
370
    25
100
AcDbCircle
 10
148.1947583815
 20
137.7498031615
 30
0.0
 40
8.500000000000028
  0
CIRCLE
  5
198
330
1F
100
AcDbEntity
  8
0
  6
Continuous
 62
     7
370
    25
100
AcDbCircle
 10
148.1947583815
 20
137.7498031615
 30
0.0
 40
13.42268750000002
  0
LINE
  5
199
330
1F
100
AcDbEntity
  8
0
  6
Continuous
 62
     7
370
    25
100
AcDbLine
 10
116.7999347205
 20
150.7539024221
 30
0.0
 11
116.7999347205
 21
124.7457039009
 31
0.0
  0
LINE
  5
19A
330
1F
100
AcDbEntity
  8
0
  6
Continuous
 62
     7
370
    25
100
AcDbLine
 10
130.1947583815
 20
124.3271156615
 30
0.0
 11
130.1947583815
 21
151.1724906615
 31
0.0
  0
LINE
  5
19B
330
1F
100
AcDbEntity
  8
0
  6
Continuous
 62
     7
370
    25
100
AcDbLine
 10
179.5895820425
 20
150.7539024221
 30
0.0
 11
179.5895820425
 21
124.7457039009
 31
0.0
  0
LINE
  5
19C
330
1F
100
AcDbEntity
  8
0
  6
Continuous
 62
     7
370
    25
100
AcDbLine
 10
166.1947583815
 20
151.1724906615
 30
0.0
 11
166.1947583815
 21
124.3271156615
 31
0.0
  0
LINE
  5
19D
330
1F
100
AcDbEntity
  8
0
  6
Continuous
 62
     7
370
    25
100
AcDbLine
 10
114.1947583815
 20
126.2498031615
 30
0.0
 11
114.1947583815
 21
149.2498031615
 31
0.0
  0
LINE
  5
19E
330
1F
100
AcDbEntity
  8
0
  6
Continuous
 62
     7
370
    25
100
AcDbLine
 10
182.1947583815
 20
126.2498031615
 30
0.0
 11
182.1947583815
 21
149.2498031615
 31
0.0
  0
SPLINE
  5
19F
330
1F
100
AcDbEntity
  8
0
  6
Continuous
 62
     7
370
    25
100
AcDbSpline
210
0.0
220
0.0
230
1.0
 70
     8
 71
     3
 72
    12
 73
     8
 74
     0
 42
0.000000001
 43
0.00000001
 40
0.0
 40
0.0
 40
0.0
 40
0.0
 40
0.2500000000000001
 40
0.2500000000000001
 40
0.5000000000000002
 40
0.5000000000000002
 40
1.0
 40
1.0
 40
1.0
 40
1.0
 10
136.842244045547
 20
148.293259010867
 30
0.0
 10
136.8902860161832
 20
148.3682072884147
 30
0.0
 10
136.9269796588304
 20
148.434390743525
 30
0.0
 10
136.9929703402615
 20
148.54837224896
 30
0.0
 10
137.021743828441
 20
148.5962536859394
 30
0.0
 10
137.102219535459
 20
148.7111771518535
 30
0.0
 10
137.1483492386596
 20
148.7498031614959
 30
0.0
 10
137.1947583815029
 20
148.7498031614959
 30
0.0
  0
SPLINE
  5
1A0
330
1F
100
AcDbEntity
  8
0
  6
Continuous
 62
     7
370
    25
100
AcDbSpline
210
0.0
220
0.0
230
1.0
 70
     8
 71
     3
 72
     8
 73
     4
 74
     0
 42
0.000000001
 43
0.00000001
 40
0.0
 40
0.0
 40
0.0
 40
0.0
 40
1.0
 40
1.0
 40
1.0
 40
1.0
 10
136.6947583815029
 20
147.7932814223655
 30
0.0
 10
136.6947583815029
 20
147.9915217541802
 30
0.0
 10
136.7550528659885
 20
148.1572356829577
 30
0.0
 10
136.842244045547
 20
148.293259010867
 30
0.0
  0
SPLINE
  5
1A1
330
1F
100
AcDbEntity
  8
0
  6
Continuous
 62
     7
370
    25
100
AcDbSpline
210
0.0
220
0.0
230
1.0
 70
     8
 71
     3
 72
     8
 73
     4
 74
     0
 42
0.000000001
 43
0.00000001
 40
0.0
 40
0.0
 40
0.0
 40
0.0
 40
1.0
 40
1.0
 40
1.0
 40
1.0
 10
136.8422440455469
 20
127.2063473121248
 30
0.0
 10
136.7550528659885
 20
127.3423706400341
 30
0.0
 10
136.6947583815029
 20
127.5080845688116
 30
0.0
 10
136.6947583815029
 20
127.7063249006263
 30
0.0
  0
SPLINE
  5
1A2
330
1F
100
AcDbEntity
  8
0
  6
Continuous
 62
     7
370
    25
100
AcDbSpline
210
0.0
220
0.0
230
1.0
 70
     8
 71
     3
 72
    12
 73
     8
 74
     0
 42
0.000000001
 43
0.00000001
 40
0.0
 40
0.0
 40
0.0
 40
0.0
 40
0.2499999999999999
 40
0.2499999999999999
 40
0.4999999999999998
 40
0.4999999999999998
 40
1.0
 40
1.0
 40
1.0
 40
1.0
 10
136.8422440455469
 20
127.2063473121248
 30
0.0
 10
136.8902692631897
 20
127.1314251702246
 30
0.0
 10
136.9269535334646
 20
127.0652617148407
 30
0.0
 10
136.992927426394
 20
126.9513071867905
 30
0.0
 10
137.0216790589622
 20
126.9034513813298
 30
0.0
 10
137.1022339597522
 20
126.7883960857094
 30
0.0
 10
137.1483654363711
 20
126.7498031614959
 30
0.0
 10
137.1947583815029
 20
126.7498031614959
 30
0.0
  0
SPLINE
  5
1A3
330
1F
100
AcDbEntity
  8
0
  6
Continuous
 62
     7
370
    25
100
AcDbSpline
210
0.0
220
0.0
230
1.0
 70
     8
 71
     3
 72
    12
 73
     8
 74
     0
 42
0.000000001
 43
0.00000001
 40
0.0
 40
0.0
 40
0.0
 40
0.0
 40
0.2499999999999999
 40
0.2499999999999999
 40
0.4999999999999998
 40
0.4999999999999998
 40
1.0
 40
1.0
 40
1.0
 40
1.0
 10
159.5472727174588
 20
127.2063473121248
 30
0.0
 10
159.4992307468289
 20
127.131399034587
 30
0.0
 10
159.4625371041853
 20
127.0652155794843
 30
0.0
 10
159.3965464227605
 20
126.9512340740595
 30
0.0
 10
159.3677729345836
 20
126.9033526370827
 30
0.0
 10
159.2872972275729
 20
126.7884291711687
 30
0.0
 10
159.2411675243281
 20
126.7498031614959
 30
0.0
 10
159.1947583815029
 20
126.7498031614959
 30
0.0
  0
SPLINE
  5
1A4
330
1F
100
AcDbEntity
  8
0
  6
Continuous
 62
     7
370
    25
100
AcDbSpline
210
0.0
220
0.0
230
1.0
 70
     8
 71
     3
 72
     8
 73
     4
 74
     0
 42
0.000000001
 43
0.00000001
 40
0.0
 40
0.0
 40
0.0
 40
0.0
 40
1.0
 40
1.0
 40
1.0
 40
1.0
 10
159.6947583815029
 20
127.7063249006263
 30
0.0
 10
159.6947583815029
 20
127.5080845688116
 30
0.0
 10
159.6344638970173
 20
127.3423706400341
 30
0.0
 10
159.5472727174588
 20
127.2063473121248
 30
0.0
  0
SPLINE
  5
1A5
330
1F
100
AcDbEntity
  8
0
  6
Continuous
 62
     7
370
    25
100
AcDbSpline
210
0.0
220
0.0
230
1.0
 70
     8
 71
     3
 72
     8
 73
     4
 74
     0
 42
0.000000001
 43
0.00000001
 40
0.0
 40
0.0
 40
0.0
 40
0.0
 40
1.0
 40
1.0
 40
1.0
 40
1.0
 10
159.5472727174588
 20
148.293259010867
 30
0.0
 10
159.6344638970173
 20
148.1572356829577
 30
0.0
 10
159.6947583815029
 20
147.9915217541802
 30
0.0
 10
159.6947583815029
 20
147.7932814223655
 30
0.0
  0
SPLINE
  5
1A6
330
1F
100
AcDbEntity
  8
0
  6
Continuous
 62
     7
370
    25
100
AcDbSpline
210
0.0
220
0.0
230
1.0
 70
     8
 71
     3
 72
    12
 73
     8
 74
     0
 42
0.000000001
 43
0.00000001
 40
0.0
 40
0.0
 40
0.0
 40
0.0
 40
0.2500000000000001
 40
0.2500000000000001
 40
0.5000000000000001
 40
0.5000000000000001
 40
1.0
 40
1.0
 40
1.0
 40
1.0
 10
159.5472727174588
 20
148.293259010867
 30
0.0
 10
159.4992307468289
 20
148.3682072884047
 30
0.0
 10
159.4625371041853
 20
148.4343907435075
 30
0.0
 10
159.3965464227605
 20
148.5483722489323
 30
0.0
 10
159.3677729345836
 20
148.596253685909
 30
0.0
 10
159.2872972275729
 20
148.7111771518231
 30
0.0
 10
159.2411675243283
 20
148.7498031614959
 30
0.0
 10
159.1947583815029
 20
148.7498031614959
 30
0.0
  0
ARC
  5
1A7
330
1F
100
AcDbEntity
  8
0
  6
Continuous
 62
     7
370
    25
100
AcDbCircle
 10
139.1947583815
 20
148.2498031615
 30
0.0
 40
0.5
100
AcDbArc
 50
90.0
 51
180.0
  0
LINE
  5
1A8
330
1F
100
AcDbEntity
  8
0
  6
Continuous
 62
     7
370
    25
100
AcDbLine
 10
139.1947583815
 20
148.7498031615
 30
0.0
 11
140.5026494559
 21
148.7498031615
 31
0.0
  0
ARC
  5
1A9
330
1F
100
AcDbEntity
  8
0
  6
Continuous
 62
     7
370
    25
100
AcDbCircle
 10
157.1947583815
 20
148.2498031615
 30
0.0
 40
0.5
100
AcDbArc
 50
0.0
 51
90.0
  0
LINE
  5
1AA
330
1F
100
AcDbEntity
  8
0
  6
Continuous
 62
     7
370
    25
100
AcDbLine
 10
155.8868673071
 20
148.7498031615
 30
0.0
 11
157.1947583815
 21
148.7498031615
 31
0.0
  0
LINE
  5
1AB
330
1F
100
AcDbEntity
  8
0
  6
Continuous
 62
     7
370
    25
100
AcDbLine
 10
138.6947583815
 20
147.2323418365
 30
0.0
 11
138.6947583815
 21
148.2498031615
 31
0.0
  0
LINE
  5
1AC
330
1F
100
AcDbEntity
  8
0
  6
Continuous
 62
     7
370
    25
100
AcDbLine
 10
157.6947583815
 20
147.2323418365
 30
0.0
 11
157.6947583815
 21
148.2498031615
 31
0.0
  0
LINE
  5
1AD
330
1F
100
AcDbEntity
  8
0
  6
Continuous
 62
     7
370
    25
100
AcDbLine
 10
157.6947583815
 20
127.2498031615
 30
0.0
 11
157.6947583815
 21
128.2672644865
 31
0.0
  0
LINE
  5
1AE
330
1F
100
AcDbEntity
  8
0
  6
Continuous
 62
     7
370
    25
100
AcDbLine
 10
138.6947583815
 20
127.2498031615
 30
0.0
 11
138.6947583815
 21
128.2672644865
 31
0.0
  0
ARC
  5
1AF
330
1F
100
AcDbEntity
  8
0
  6
Continuous
 62
     7
370
    25
100
AcDbCircle
 10
139.1947583815
 20
127.2498031615
 30
0.0
 40
0.5
100
AcDbArc
 50
180.0
 51
270.0
  0
LINE
  5
1B0
330
1F
100
AcDbEntity
  8
0
  6
Continuous
 62
     7
370
    25
100
AcDbLine
 10
140.5026494559
 20
126.7498031615
 30
0.0
 11
139.1947583815
 21
126.7498031615
 31
0.0
  0
ARC
  5
1B1
330
1F
100
AcDbEntity
  8
0
  6
Continuous
 62
     7
370
    25
100
AcDbCircle
 10
157.1947583815
 20
127.2498031615
 30
0.0
 40
0.5
100
AcDbArc
 50
270.0
 51
0.0
  0
LINE
  5
1B2
330
1F
100
AcDbEntity
  8
0
  6
Continuous
 62
     7
370
    25
100
AcDbLine
 10
157.1947583815
 20
126.7498031615
 30
0.0
 11
155.8868673071
 21
126.7498031615
 31
0.0
  0
LINE
  5
1B3
330
1F
100
AcDbEntity
  8
0
  6
Continuous
 62
     7
370
    25
100
AcDbLine
 10
138.6947583815
 20
148.2498031615
 30
0.0
 11
137.6947583815
 21
148.2498031615
 31
0.0
  0
LINE
  5
1B4
330
1F
100
AcDbEntity
  8
0
  6
Continuous
 62
     7
370
    25
100
AcDbLine
 10
137.6947583815
 20
148.7498031615
 30
0.0
 11
137.6947583815
 21
148.2498031615
 31
0.0
  0
LINE
  5
1B5
330
1F
100
AcDbEntity
  8
0
  6
Continuous
 62
     7
370
    25
100
AcDbLine
 10
137.6947583815
 20
148.7498031615
 30
0.0
 11
139.1947583815
 21
148.7498031615
 31
0.0
  0
LINE
  5
1B6
330
1F
100
AcDbEntity
  8
0
  6
Continuous
 62
     7
370
    25
100
AcDbLine
 10
158.6947583815
 20
148.7498031615
 30
0.0
 11
158.6947583815
 21
148.2498031615
 31
0.0
  0
LINE
  5
1B7
330
1F
100
AcDbEntity
  8
0
  6
Continuous
 62
     7
370
    25
100
AcDbLine
 10
158.6947583815
 20
148.2498031615
 30
0.0
 11
157.6947583815
 21
148.2498031615
 31
0.0
  0
LINE
  5
1B8
330
1F
100
AcDbEntity
  8
0
  6
Continuous
 62
     7
370
    25
100
AcDbLine
 10
157.1947583815
 20
148.7498031615
 30
0.0
 11
158.6947583815
 21
148.7498031615
 31
0.0
  0
LINE
  5
1B9
330
1F
100
AcDbEntity
  8
0
  6
Continuous
 62
     7
370
    25
100
AcDbLine
 10
137.6947583815
 20
127.2498031615
 30
0.0
 11
138.6947583815
 21
127.2498031615
 31
0.0
  0
LINE
  5
1BA
330
1F
100
AcDbEntity
  8
0
  6
Continuous
 62
     7
370
    25
100
AcDbLine
 10
157.6947583815
 20
127.2498031615
 30
0.0
 11
158.6947583815
 21
127.2498031615
 31
0.0
  0
LINE
  5
1BB
330
1F
100
AcDbEntity
  8
0
  6
Continuous
 62
     7
370
    25
100
AcDbLine
 10
137.6947583815
 20
126.7498031615
 30
0.0
 11
137.6947583815
 21
127.2498031615
 31
0.0
  0
LINE
  5
1BC
330
1F
100
AcDbEntity
  8
0
  6
Continuous
 62
     7
370
    25
100
AcDbLine
 10
139.1947583815
 20
126.7498031615
 30
0.0
 11
137.6947583815
 21
126.7498031615
 31
0.0
  0
LINE
  5
1BD
330
1F
100
AcDbEntity
  8
0
  6
Continuous
 62
     7
370
    25
100
AcDbLine
 10
158.6947583815
 20
126.7498031615
 30
0.0
 11
158.6947583815
 21
127.2498031615
 31
0.0
  0
LINE
  5
1BE
330
1F
100
AcDbEntity
  8
0
  6
Continuous
 62
     7
370
    25
100
AcDbLine
 10
158.6947583815
 20
126.7498031615
 30
0.0
 11
157.1947583815
 21
126.7498031615
 31
0.0
  0
ARC
  5
1BF
330
1F
100
AcDbEntity
  8
0
  6
Continuous
 62
     7
370
    25
100
AcDbCircle
 10
136.7155523324
 20
148.2725774886
 30
0.0
 40
0.4797469202789581
100
AcDbArc
 50
267.5158173388
 51
357.2790582562
  0
ARC
  5
1C0
330
1F
100
AcDbEntity
  8
0
  6
Continuous
 62
     7
370
    25
100
AcDbCircle
 10
159.6739644307
 20
148.2725774886
 30
0.0
 40
0.4797469202789866
100
AcDbArc
 50
182.7209417438
 51
272.4841826612
  0
ARC
  5
1C1
330
1F
100
AcDbEntity
  8
0
  6
Continuous
 62
     7
370
    25
100
AcDbCircle
 10
136.7155523324
 20
127.2270288344
 30
0.0
 40
0.4797469202789554
100
AcDbArc
 50
2.7209417438
 51
92.4841826612
  0
ARC
  5
1C2
330
1F
100
AcDbEntity
  8
0
  6
Continuous
 62
     7
370
    25
100
AcDbCircle
 10
159.6739644307
 20
127.2270288344
 30
0.0
 40
0.4797469202789866
100
AcDbArc
 50
87.5158173388
 51
177.2790582562
  0
LINE
  5
1C3
330
1F
100
AcDbEntity
  8
0
  6
Continuous
 62
     7
370
    25
100
AcDbLine
 10
137.6947583815
 20
148.2498031615
 30
0.0
 11
137.1947583815
 21
148.2498031615
 31
0.0
  0
ARC
  5
1C4
330
1F
100
AcDbEntity
  8
0
  6
Continuous
 62
     7
370
    25
100
AcDbCircle
 10
137.6947583815
 20
148.2498031615
 30
0.0
 40
0.5
100
AcDbArc
 50
90.0
 51
180.0
  0
LINE
  5
1C5
330
1F
100
AcDbEntity
  8
0
  6
Continuous
 62
     7
370
    25
100
AcDbLine
 10
137.1947583815
 20
145.4419120871
 30
0.0
 11
137.1947583815
 21
148.2498031615
 31
0.0
  0
LINE
  5
1C6
330
1F
100
AcDbEntity
  8
0
  6
Continuous
 62
     7
370
    25
100
AcDbLine
 10
159.1947583815
 20
148.2498031615
 30
0.0
 11
158.6947583815
 21
148.2498031615
 31
0.0
  0
ARC
  5
1C7
330
1F
100
AcDbEntity
  8
0
  6
Continuous
 62
     7
370
    25
100
AcDbCircle
 10
158.6947583815
 20
148.2498031615
 30
0.0
 40
0.5
100
AcDbArc
 50
0.0
 51
90.0
  0
LINE
  5
1C8
330
1F
100
AcDbEntity
  8
0
  6
Continuous
 62
     7
370
    25
100
AcDbLine
 10
159.1947583815
 20
145.4419120871
 30
0.0
 11
159.1947583815
 21
148.2498031615
 31
0.0
  0
LINE
  5
1C9
330
1F
100
AcDbEntity
  8
0
  6
Continuous
 62
     7
370
    25
100
AcDbLine
 10
137.1947583815
 20
127.2498031615
 30
0.0
 11
137.6947583815
 21
127.2498031615
 31
0.0
  0
LINE
  5
1CA
330
1F
100
AcDbEntity
  8
0
  6
Continuous
 62
     7
370
    25
100
AcDbLine
 10
137.1947583815
 20
127.2498031615
 30
0.0
 11
137.1947583815
 21
130.0576942359
 31
0.0
  0
LINE
  5
1CB
330
1F
100
AcDbEntity
  8
0
  6
Continuous
 62
     7
370
    25
100
AcDbLine
 10
159.1947583815
 20
127.2498031615
 30
0.0
 11
159.1947583815
 21
130.0576942359
 31
0.0
  0
LINE
  5
1CC
330
1F
100
AcDbEntity
  8
0
  6
Continuous
 62
     7
370
    25
100
AcDbLine
 10
158.6947583815
 20
127.2498031615
 30
0.0
 11
159.1947583815
 21
127.2498031615
 31
0.0
  0
ARC
  5
1CD
330
1F
100
AcDbEntity
  8
0
  6
Continuous
 62
     7
370
    25
100
AcDbCircle
 10
137.6947583815
 20
127.2498031615
 30
0.0
 40
0.5
100
AcDbArc
 50
180.0
 51
270.0
  0
ARC
  5
1CE
330
1F
100
AcDbEntity
  8
0
  6
Continuous
 62
     7
370
    25
100
AcDbCircle
 10
158.6947583815
 20
127.2498031615
 30
0.0
 40
0.5
100
AcDbArc
 50
270.0
 51
0.0
  0
ARC
  5
1CF
330
1F
100
AcDbEntity
  8
0
  6
Continuous
 62
     7
370
    25
100
AcDbCircle
 10
136.8722409931
 20
148.7604566106
 30
0.0
 40
0.4681596031694364
100
AcDbArc
 50
266.3263026515
 51
327.8245286087
  0
ARC
  5
1D0
330
1F
100
AcDbEntity
  8
0
  6
Continuous
 62
     7
370
    25
100
AcDbCircle
 10
159.5172757699
 20
148.7604566106
 30
0.0
 40
0.4681596031695475
100
AcDbArc
 50
212.1754713914
 51
273.6736973485
  0
ARC
  5
1D1
330
1F
100
AcDbEntity
  8
0
  6
Continuous
 62
     7
370
    25
100
AcDbCircle
 10
159.5172757699
 20
126.7391497124
 30
0.0
 40
0.4681596031694529
100
AcDbArc
 50
86.3263026515
 51
147.8245286087
  0
ARC
  5
1D2
330
1F
100
AcDbEntity
  8
0
  6
Continuous
 62
     7
370
    25
100
AcDbCircle
 10
136.8722409931
 20
126.7391497124
 30
0.0
 40
0.4681596031695553
100
AcDbArc
 50
32.1754713913
 51
93.6736973485
  0
SPLINE
  5
1D3
330
1F
100
AcDbEntity
  8
0
  6
Continuous
 62
     7
370
    25
100
AcDbSpline
210
0.0
220
0.0
230
1.0
 70
     8
 71
     3
 72
    12
 73
     8
 74
     0
 42
0.000000001
 43
0.00000001
 40
0.0
 40
0.0
 40
0.0
 40
0.0
 40
0.25
 40
0.25
 40
0.5
 40
0.5
 40
1.0
 40
1.0
 40
1.0
 40
1.0
 10
137.2685012135249
 20
148.511155082758
 30
0.0
 10
137.291213715234
 20
148.5481984938394
 30
0.0
 10
137.2987262350632
 20
148.5824113951277
 30
0.0
 10
137.3002823097624
 20
148.6419435499887
 30
0.0
 10
137.2938554679204
 20
148.667344281011
 30
0.0
 10
137.263630467616
 20
148.72870291274
 30
0.0
 10
137.2289349464975
 20
148.7498031614959
 30
0.0
 10
137.1947583815029
 20
148.7498031614959
 30
0.0
  0
SPLINE
  5
1D4
330
1F
100
AcDbEntity
  8
0
  6
Continuous
 62
     7
370
    25
100
AcDbSpline
210
0.0
220
0.0
230
1.0
 70
    24
 71
     3
 72
    12
 73
     8
 74
     0
 42
0.000000001
 43
0.00000001
 40
0.0
 40
0.0
 40
0.0
 40
0.0
 40
0.2499999999999999
 40
0.2499999999999999
 40
0.4999999999999999
 40
0.4999999999999999
 40
1.0
 40
1.0
 40
1.0
 40
1.0
 10
137.6947583815029
 20
148.7498031614959
 30
0.0
 10
137.6947583815029
 20
148.7498031614959
 30
0.0
 10
137.6750354360949
 20
148.7498031614959
 30
0.0
 10
137.6143989713337
 20
148.7498031614959
 30
0.0
 10
137.5731424256453
 20
148.7498031614959
 30
0.0
 10
137.4313691159733
 20
148.7498031614959
 30
0.0
 10
137.3128020708129
 20
148.7498031614959
 30
0.0
 10
137.1947583815029
 20
148.7498031614959
 30
0.0
  0
SPLINE
  5
1D5
330
1F
100
AcDbEntity
  8
0
  6
Continuous
 62
     7
370
    25
100
AcDbSpline
210
0.0
220
0.0
230
1.0
 70
     8
 71
     3
 72
    12
 73
     8
 74
     0
 42
0.000000001
 43
0.00000001
 40
0.0
 40
0.0
 40
0.0
 40
0.0
 40
0.25
 40
0.25
 40
0.5
 40
0.5
 40
1.0
 40
1.0
 40
1.0
 40
1.0
 10
159.1210155494808
 20
148.511155082758
 30
0.0
 10
159.0983030477728
 20
148.5481984938377
 30
0.0
 10
159.0907905279433
 20
148.5824113951245
 30
0.0
 10
159.0892344532428
 20
148.6419435499835
 30
0.0
 10
159.0956612950838
 20
148.6673442810054
 30
0.0
 10
159.1258862953846
 20
148.7287029127343
 30
0.0
 10
159.1605818164985
 20
148.7498031614959
 30
0.0
 10
159.1947583815029
 20
148.7498031614959
 30
0.0
  0
SPLINE
  5
1D6
330
1F
100
AcDbEntity
  8
0
  6
Continuous
 62
     7
370
    25
100
AcDbSpline
210
0.0
220
0.0
230
1.0
 70
    24
 71
     3
 72
    12
 73
     8
 74
     0
 42
0.000000001
 43
0.00000001
 40
0.0
 40
0.0
 40
0.0
 40
0.0
 40
0.2499999999999999
 40
0.2499999999999999
 40
0.4999999999999999
 40
0.4999999999999999
 40
1.0
 40
1.0
 40
1.0
 40
1.0
 10
158.6947583815029
 20
148.7498031614959
 30
0.0
 10
158.6947583815029
 20
148.7498031614959
 30
0.0
 10
158.7144813269108
 20
148.7498031614959
 30
0.0
 10
158.775117791672
 20
148.7498031614959
 30
0.0
 10
158.8163743373604
 20
148.7498031614959
 30
0.0
 10
158.9581476470325
 20
148.7498031614959
 30
0.0
 10
159.0767146921928
 20
148.7498031614959
 30
0.0
 10
159.1947583815029
 20
148.7498031614959
 30
0.0
  0
SPLINE
  5
1D7
330
1F
100
AcDbEntity
  8
0
  6
Continuous
 62
     7
370
    25
100
AcDbSpline
210
0.0
220
0.0
230
1.0
 70
     8
 71
     3
 72
    12
 73
     8
 74
     0
 42
0.000000001
 43
0.00000001
 40
0.0
 40
0.0
 40
0.0
 40
0.0
 40
0.2499999999999999
 40
0.2499999999999999
 40
0.4999999999999998
 40
0.4999999999999998
 40
1.0
 40
1.0
 40
1.0
 40
1.0
 10
137.2685012135249
 20
126.9884512402337
 30
0.0
 10
137.291213715234
 20
126.9514078291524
 30
0.0
 10
137.2987262350632
 20
126.9171949278641
 30
0.0
 10
137.3002823097624
 20
126.8576627730031
 30
0.0
 10
137.2938554679204
 20
126.8322620419807
 30
0.0
 10
137.263630467616
 20
126.7709034102517
 30
0.0
 10
137.2289349464978
 20
126.7498031614959
 30
0.0
 10
137.1947583815029
 20
126.7498031614959
 30
0.0
  0
SPLINE
  5
1D8
330
1F
100
AcDbEntity
  8
0
  6
Continuous
 62
     7
370
    25
100
AcDbSpline
210
0.0
220
0.0
230
1.0
 70
    24
 71
     3
 72
    12
 73
     8
 74
     0
 42
0.000000001
 43
0.00000001
 40
0.0
 40
0.0
 40
0.0
 40
0.0
 40
0.2499999999999999
 40
0.2499999999999999
 40
0.4999999999999999
 40
0.4999999999999999
 40
1.0
 40
1.0
 40
1.0
 40
1.0
 10
137.6947583815029
 20
126.7498031614959
 30
0.0
 10
137.6947583815029
 20
126.7498031614959
 30
0.0
 10
137.6750354360949
 20
126.7498031614959
 30
0.0
 10
137.6143989713337
 20
126.7498031614959
 30
0.0
 10
137.5731424256453
 20
126.7498031614959
 30
0.0
 10
137.4313691159733
 20
126.7498031614959
 30
0.0
 10
137.3128020708129
 20
126.7498031614959
 30
0.0
 10
137.1947583815029
 20
126.7498031614959
 30
0.0
  0
SPLINE
  5
1D9
330
1F
100
AcDbEntity
  8
0
  6
Continuous
 62
     7
370
    25
100
AcDbSpline
210
0.0
220
0.0
230
1.0
 70
     8
 71
     3
 72
    12
 73
     8
 74
     0
 42
0.000000001
 43
0.00000001
 40
0.0
 40
0.0
 40
0.0
 40
0.0
 40
0.2500000000000001
 40
0.2500000000000001
 40
0.5000000000000001
 40
0.5000000000000001
 40
1.0
 40
1.0
 40
1.0
 40
1.0
 10
159.1210155494808
 20
126.9884512402337
 30
0.0
 10
159.0983030477728
 20
126.9514078291541
 30
0.0
 10
159.0907905279433
 20
126.9171949278673
 30
0.0
 10
159.0892344532428
 20
126.8576627730083
 30
0.0
 10
159.0956612950837
 20
126.8322620419864
 30
0.0
 10
159.1258862953845
 20
126.7709034102575
 30
0.0
 10
159.1605818164983
 20
126.7498031614959
 30
0.0
 10
159.1947583815029
 20
126.7498031614959
 30
0.0
  0
SPLINE
  5
1DA
330
1F
100
AcDbEntity
  8
0
  6
Continuous
 62
     7
370
    25
100
AcDbSpline
210
0.0
220
0.0
230
1.0
 70
    24
 71
     3
 72
    12
 73
     8
 74
     0
 42
0.000000001
 43
0.00000001
 40
0.0
 40
0.0
 40
0.0
 40
0.0
 40
0.2499999999999999
 40
0.2499999999999999
 40
0.4999999999999999
 40
0.4999999999999999
 40
1.0
 40
1.0
 40
1.0
 40
1.0
 10
158.6947583815029
 20
126.7498031614959
 30
0.0
 10
158.6947583815029
 20
126.7498031614959
 30
0.0
 10
158.7144813269108
 20
126.7498031614959
 30
0.0
 10
158.775117791672
 20
126.7498031614959
 30
0.0
 10
158.8163743373604
 20
126.7498031614959
 30
0.0
 10
158.9581476470325
 20
126.7498031614959
 30
0.0
 10
159.0767146921928
 20
126.7498031614959
 30
0.0
 10
159.1947583815029
 20
126.7498031614959
 30
0.0
  0
LINE
  5
1DB
330
1F
100
AcDbEntity
  8
0
  6
Continuous
 62
     8
370
    25
100
AcDbLine
 10
165.1947583815
 20
126.7498031615
 30
0.0
 11
165.1947583815
 21
148.7498031615
 31
0.0
  0
LINE
  5
1DC
330
1F
100
AcDbEntity
  8
0
  6
Continuous
 62
     8
370
    25
100
AcDbLine
 10
131.1947583815
 20
148.7498031615
 30
0.0
 11
131.1947583815
 21
126.7498031615
 31
0.0
  0
LINE
  5
1DD
330
1F
100
AcDbEntity
  8
0
  6
Continuous
 62
     8
370
    25
100
AcDbLine
 10
136.6947583815
 20
144.6721250063
 30
0.0
 11
136.6947583815
 21
147.7932814224
 31
0.0
  0
LINE
  5
1DE
330
1F
100
AcDbEntity
  8
0
  6
Continuous
 62
     8
370
    25
100
AcDbLine
 10
136.6947583815
 20
127.7063249006
 30
0.0
 11
136.6947583815
 21
130.8274813167
 31
0.0
  0
LINE
  5
1DF
330
1F
100
AcDbEntity
  8
0
  6
Continuous
 62
     8
370
    25
100
AcDbLine
 10
159.6947583815
 20
130.8274813167
 30
0.0
 11
159.6947583815
 21
127.7063249006
 31
0.0
  0
LINE
  5
1E0
330
1F
100
AcDbEntity
  8
0
  6
Continuous
 62
     8
370
    25
100
AcDbLine
 10
159.6947583815
 20
147.7932814224
 30
0.0
 11
159.6947583815
 21
144.6721250063
 31
0.0
  0
LINE
  5
1E1
330
1F
100
AcDbEntity
  8
0
  6
Continuous
 62
     8
370
    25
100
AcDbLine
 10
139.833027716
 20
148.2498031615
 30
0.0
 11
138.6947583815
 21
148.2498031615
 31
0.0
  0
LINE
  5
1E2
330
1F
100
AcDbEntity
  8
0
  6
Continuous
 62
     8
370
    25
100
AcDbLine
 10
157.6947583815
 20
148.2498031615
 30
0.0
 11
156.556489047
 21
148.2498031615
 31
0.0
  0
LINE
  5
1E3
330
1F
100
AcDbEntity
  8
0
  6
Continuous
 62
     8
370
    25
100
AcDbLine
 10
156.556489047
 20
127.2498031615
 30
0.0
 11
157.6947583815
 21
127.2498031615
 31
0.0
  0
LINE
  5
1E4
330
1F
100
AcDbEntity
  8
0
  6
Continuous
 62
     8
370
    25
100
AcDbLine
 10
138.6947583815
 20
127.2498031615
 30
0.0
 11
139.833027716
 21
127.2498031615
 31
0.0
  0
LINE
  5
1E5
330
1F
100
AcDbEntity
  8
0
  6
Continuous
 62
     8
370
    25
100
AcDbLine
 10
137.6947583815
 20
146.111533827
 30
0.0
 11
137.6947583815
 21
148.2498031615
 31
0.0
  0
LINE
  5
1E6
330
1F
100
AcDbEntity
  8
0
  6
Continuous
 62
     8
370
    25
100
AcDbLine
 10
158.6947583815
 20
146.111533827
 30
0.0
 11
158.6947583815
 21
148.2498031615
 31
0.0
  0
LINE
  5
1E7
330
1F
100
AcDbEntity
  8
0
  6
Continuous
 62
     8
370
    25
100
AcDbLine
 10
137.6947583815
 20
127.2498031615
 30
0.0
 11
137.6947583815
 21
129.388072496
 31
0.0
  0
LINE
  5
1E8
330
1F
100
AcDbEntity
  8
0
  6
Continuous
 62
     8
370
    25
100
AcDbLine
 10
158.6947583815
 20
127.2498031615
 30
0.0
 11
158.6947583815
 21
129.388072496
 31
0.0
  0
INSERT
  5
1F4
330
1F
100
AcDbEntity
  8
0
  6
Continuous
 62
     7
370
    18
100
AcDbBlockReference
  2
SW_CENTERMARKSYMBOL_1
 10
148.1947583815
 20
137.7498031615
 30
0.0
  0
LINE
  5
1F5
330
1F
100
AcDbEntity
  8
0
  6
Continuous
 62
     7
370
    18
100
AcDbLine
 10
115.2174643414
 20
149.8402627227
 30
0.0
 11
130.0947583815
 21
150.3051781615
 31
0.0
  0
LINE
  5
1F6
330
1F
100
AcDbEntity
  8
0
  6
Continuous
 62
     7
370
    18
100
AcDbLine
 10
115.2174643414
 20
125.6593436002
 30
0.0
 11
130.0947583815
 21
125.1944281615
 31
0.0
  0
LINE
  5
1F7
330
1F
100
AcDbEntity
  8
0
  6
Continuous
 62
     7
370
    18
100
AcDbLine
 10
130.0947583815
 20
124.3302406615
 30
0.0
 11
130.0947583815
 21
151.1693656615
 31
0.0
  0
ARC
  5
1F8
330
1F
100
AcDbEntity
  8
0
  6
Continuous
 62
     7
370
    18
100
AcDbCircle
 10
148.1947583815
 20
137.7498031615
 30
0.0
 40
12.05849999999999
100
AcDbArc
 50
75.0
 51
345.0
  0
LINE
  5
1F9
330
1F
100
AcDbEntity
  8
0
  6
Continuous
 62
     7
370
    18
100
AcDbLine
 10
181.1720524216
 20
125.6593436002
 30
0.0
 11
166.2947583815
 21
125.1944281615
 31
0.0
  0
LINE
  5
1FA
330
1F
100
AcDbEntity
  8
0
  6
Continuous
 62
     7
370
    18
100
AcDbLine
 10
181.1720524216
 20
149.8402627227
 30
0.0
 11
166.2947583815
 21
150.3051781615
 31
0.0
  0
LINE
  5
1FB
330
1F
100
AcDbEntity
  8
0
  6
Continuous
 62
     7
370
    18
100
AcDbLine
 10
166.2947583815
 20
151.1693656615
 30
0.0
 11
166.2947583815
 21
124.3302406615
 31
0.0
  0
ENDSEC
  0
SECTION
  2
OBJECTS
  0
DICTIONARY
  5
C
330
0
100
AcDbDictionary
281
     1
  3
ACAD_GROUP
350
D
  3
ACAD_LAYOUT
350
1A
  3
ACAD_MLINESTYLE
350
17
  3
ACAD_PLOTSETTINGS
350
19
  3
ACAD_PLOTSTYLENAME
350
E
  3
ACAD_SCALELIST
350
47
  0
DICTIONARY
  5
D
102
{ACAD_REACTORS
330
C
102
}
330
C
100
AcDbDictionary
281
     1
  0
DICTIONARY
  5
1A
102
{ACAD_REACTORS
330
C
102
}
330
C
100
AcDbDictionary
281
     1
  3
Layout1
350
1E
  3
Layout2
350
26
  3
Model
350
22
  0
DICTIONARY
  5
17
102
{ACAD_REACTORS
330
C
102
}
330
C
100
AcDbDictionary
281
     1
  3
Standard
350
18
  0
DICTIONARY
  5
19
102
{ACAD_REACTORS
330
C
102
}
330
C
100
AcDbDictionary
281
     1
  0
ACDBDICTIONARYWDFLT
  5
E
102
{ACAD_REACTORS
330
C
102
}
330
C
100
AcDbDictionary
281
     1
  3
Normal
350
F
100
AcDbDictionaryWithDefault
340
F
  0
DICTIONARY
  5
47
102
{ACAD_REACTORS
330
C
102
}
330
C
100
AcDbDictionary
281
     1
  3
A0
350
48
  3
A1
350
49
  3
A2
350
4A
  3
A3
350
4B
  3
A4
350
4C
  3
A5
350
4D
  3
A6
350
4E
  3
A7
350
4F
  3
A8
350
50
  3
A9
350
51
  3
B0
350
52
  3
B1
350
53
  3
B2
350
54
  3
B3
350
55
  3
B4
350
56
  3
B5
350
57
  3
B6
350
58
  3
B7
350
59
  3
B8
350
5A
  3
B9
350
5B
  3
C0
350
5C
  3
C1
350
5D
  3
C2
350
5E
  3
C3
350
5F
  3
C4
350
60
  3
C5
350
61
  3
C6
350
62
  3
C7
350
63
  3
C8
350
64
  3
C9
350
65
  3
D0
350
66
  3
D1
350
67
  3
D2
350
68
  0
LAYOUT
  5
1E
102
{ACAD_REACTORS
330
1A
102
}
330
1A
100
AcDbPlotSettings
  1

  2
none_device
  4

  6

 40
0.0
 41
0.0
 42
0.0
 43
0.0
 44
0.0
 45
0.0
 46
0.0
 47
0.0
 48
0.0
 49
0.0
140
0.0
141
0.0
142
1.0
143
1.0
 70
   688
 72
     1
 73
     0
 74
     5
  7

 75
    16
147
1.0
148
0.0
149
0.0
100
AcDbLayout
  1
Layout1
 70
     1
 71
     1
 10
0.0
 20
0.0
 11
420.0
 21
297.0
 12
0.0
 22
0.0
 32
0.0
 14
1.0000000000E+20
 24
1.0000000000E+20
 34
1.0000000000E+20
 15
-1.0000000000E+20
 25
-1.0000000000E+20
 35
-1.0000000000E+20
146
0.0
 13
0.0
 23
0.0
 33
0.0
 16
1.0
 26
0.0
 36
0.0
 17
0.0
 27
1.0
 37
0.0
 76
     0
330
1B
  0
LAYOUT
  5
26
102
{ACAD_REACTORS
330
1A
102
}
330
1A
100
AcDbPlotSettings
  1

  2
none_device
  4

  6

 40
0.0
 41
0.0
 42
0.0
 43
0.0
 44
0.0
 45
0.0
 46
0.0
 47
0.0
 48
0.0
 49
0.0
140
0.0
141
0.0
142
1.0
143
1.0
 70
   688
 72
     1
 73
     0
 74
     5
  7

 75
    16
147
1.0
148
0.0
149
0.0
100
AcDbLayout
  1
Layout2
 70
     1
 71
     2
 10
0.0
 20
0.0
 11
0.0
 21
0.0
 12
0.0
 22
0.0
 32
0.0
 14
0.0
 24
0.0
 34
0.0
 15
0.0
 25
0.0
 35
0.0
146
0.0
 13
0.0
 23
0.0
 33
0.0
 16
1.0
 26
0.0
 36
0.0
 17
0.0
 27
1.0
 37
0.0
 76
     0
330
23
  0
LAYOUT
  5
22
102
{ACAD_REACTORS
330
1A
102
}
330
1A
100
AcDbPlotSettings
  1

  2
none_device
  4
Letter_(8.50_x_11.00_Inches)
  6

 40
6.35
 41
6.35
 42
6.35000508
 43
6.35000508
 44
215.9
 45
279.4
 46
0.0
 47
0.0
 48
0.0
 49
0.0
140
0.0
141
0.0
142
1.0
143
1.0
 70
  1712
 72
     1
 73
     0
 74
     0
  7

 75
     0
147
1.0
148
0.0
149
0.0
100
AcDbLayout
  1
Model
 70
     1
 71
     0
 10
0.0
 20
0.0
 11
431.8
 21
279.4
 12
0.0
 22
0.0
 32
0.0
 14
0.0
 24
0.0
 34
0.0
 15
431.8
 25
279.4
 35
0.0
146
0.0
 13
0.0
 23
0.0
 33
0.0
 16
1.0
 26
0.0
 36
0.0
 17
0.0
 27
1.0
 37
0.0
 76
     0
330
1F
331
29
  0
MLINESTYLE
  5
18
102
{ACAD_REACTORS
330
17
102
}
330
17
100
AcDbMlineStyle
  2
Standard
 70
     0
  3

 62
   256
 51
90.0
 52
90.0
 71
     2
 49
0.5
 62
   256
  6
BYLAYER
 49
-0.5
 62
   256
  6
BYLAYER
  0
ACDBPLACEHOLDER
  5
F
102
{ACAD_REACTORS
330
E
102
}
330
E
  0
SCALE
  5
48
102
{ACAD_REACTORS
330
47
102
}
330
47
100
AcDbScale
 70
     0
300
1:1
140
1.0
141
1.0
290
     1
  0
SCALE
  5
49
102
{ACAD_REACTORS
330
47
102
}
330
47
100
AcDbScale
 70
     0
300
1:2
140
1.0
141
2.0
290
     0
  0
SCALE
  5
4A
102
{ACAD_REACTORS
330
47
102
}
330
47
100
AcDbScale
 70
     0
300
1:4
140
1.0
141
4.0
290
     0
  0
SCALE
  5
4B
102
{ACAD_REACTORS
330
47
102
}
330
47
100
AcDbScale
 70
     0
300
1:5
140
1.0
141
5.0
290
     0
  0
SCALE
  5
4C
102
{ACAD_REACTORS
330
47
102
}
330
47
100
AcDbScale
 70
     0
300
1:8
140
1.0
141
8.0
290
     0
  0
SCALE
  5
4D
102
{ACAD_REACTORS
330
47
102
}
330
47
100
AcDbScale
 70
     0
300
1:10
140
1.0
141
10.0
290
     0
  0
SCALE
  5
4E
102
{ACAD_REACTORS
330
47
102
}
330
47
100
AcDbScale
 70
     0
300
1:16
140
1.0
141
16.0
290
     0
  0
SCALE
  5
4F
102
{ACAD_REACTORS
330
47
102
}
330
47
100
AcDbScale
 70
     0
300
1:20
140
1.0
141
20.0
290
     0
  0
SCALE
  5
50
102
{ACAD_REACTORS
330
47
102
}
330
47
100
AcDbScale
 70
     0
300
1:30
140
1.0
141
30.0
290
     0
  0
SCALE
  5
51
102
{ACAD_REACTORS
330
47
102
}
330
47
100
AcDbScale
 70
     0
300
1:40
140
1.0
141
40.0
290
     0
  0
SCALE
  5
52
102
{ACAD_REACTORS
330
47
102
}
330
47
100
AcDbScale
 70
     0
300
1:50
140
1.0
141
50.0
290
     0
  0
SCALE
  5
53
102
{ACAD_REACTORS
330
47
102
}
330
47
100
AcDbScale
 70
     0
300
1:100
140
1.0
141
100.0
290
     0
  0
SCALE
  5
54
102
{ACAD_REACTORS
330
47
102
}
330
47
100
AcDbScale
 70
     0
300
2:1
140
2.0
141
1.0
290
     0
  0
SCALE
  5
55
102
{ACAD_REACTORS
330
47
102
}
330
47
100
AcDbScale
 70
     0
300
4:1
140
4.0
141
1.0
290
     0
  0
SCALE
  5
56
102
{ACAD_REACTORS
330
47
102
}
330
47
100
AcDbScale
 70
     0
300
8:1
140
8.0
141
1.0
290
     0
  0
SCALE
  5
57
102
{ACAD_REACTORS
330
47
102
}
330
47
100
AcDbScale
 70
     0
300
10:1
140
10.0
141
1.0
290
     0
  0
SCALE
  5
58
102
{ACAD_REACTORS
330
47
102
}
330
47
100
AcDbScale
 70
     0
300
100:1
140
100.0
141
1.0
290
     0
  0
SCALE
  5
59
102
{ACAD_REACTORS
330
47
102
}
330
47
100
AcDbScale
 70
     0
300
1/128" = 1'-0"
140
0.0078125
141
12.0
290
     0
  0
SCALE
  5
5A
102
{ACAD_REACTORS
330
47
102
}
330
47
100
AcDbScale
 70
     0
300
1/64" = 1'-0"
140
0.015625
141
12.0
290
     0
  0
SCALE
  5
5B
102
{ACAD_REACTORS
330
47
102
}
330
47
100
AcDbScale
 70
     0
300
1/32" = 1'-0"
140
0.03125
141
12.0
290
     0
  0
SCALE
  5
5C
102
{ACAD_REACTORS
330
47
102
}
330
47
100
AcDbScale
 70
     0
300
1/16" = 1'-0"
140
0.0625
141
12.0
290
     0
  0
SCALE
  5
5D
102
{ACAD_REACTORS
330
47
102
}
330
47
100
AcDbScale
 70
     0
300
3/32" = 1'-0"
140
0.09375
141
12.0
290
     0
  0
SCALE
  5
5E
102
{ACAD_REACTORS
330
47
102
}
330
47
100
AcDbScale
 70
     0
300
1/8" = 1'-0"
140
0.125
141
12.0
290
     0
  0
SCALE
  5
5F
102
{ACAD_REACTORS
330
47
102
}
330
47
100
AcDbScale
 70
     0
300
3/16" = 1'-0"
140
0.1875
141
12.0
290
     0
  0
SCALE
  5
60
102
{ACAD_REACTORS
330
47
102
}
330
47
100
AcDbScale
 70
     0
300
1/4" = 1'-0"
140
0.25
141
12.0
290
     0
  0
SCALE
  5
61
102
{ACAD_REACTORS
330
47
102
}
330
47
100
AcDbScale
 70
     0
300
3/8" = 1'-0"
140
0.375
141
12.0
290
     0
  0
SCALE
  5
62
102
{ACAD_REACTORS
330
47
102
}
330
47
100
AcDbScale
 70
     0
300
1/2" = 1'-0"
140
0.5
141
12.0
290
     0
  0
SCALE
  5
63
102
{ACAD_REACTORS
330
47
102
}
330
47
100
AcDbScale
 70
     0
300
3/4" = 1'-0"
140
0.75
141
12.0
290
     0
  0
SCALE
  5
64
102
{ACAD_REACTORS
330
47
102
}
330
47
100
AcDbScale
 70
     0
300
1" = 1'-0"
140
1.0
141
12.0
290
     0
  0
SCALE
  5
65
102
{ACAD_REACTORS
330
47
102
}
330
47
100
AcDbScale
 70
     0
300
1-1/2" = 1'-0"
140
1.5
141
12.0
290
     0
  0
SCALE
  5
66
102
{ACAD_REACTORS
330
47
102
}
330
47
100
AcDbScale
 70
     0
300
3" = 1'-0"
140
3.0
141
12.0
290
     0
  0
SCALE
  5
67
102
{ACAD_REACTORS
330
47
102
}
330
47
100
AcDbScale
 70
     0
300
6" = 1'-0"
140
6.0
141
12.0
290
     0
  0
SCALE
  5
68
102
{ACAD_REACTORS
330
47
102
}
330
47
100
AcDbScale
 70
     0
300
1'-0" = 1'-0"
140
12.0
141
12.0
290
     0
  0
ENDSEC
  0
EOF
