  0
SECTION
  2
HEADER
  9
$ACADVER
  1
AC1015
  9
$ACADMAINTVER
 70
     6
  9
$DWGCODEPAGE
  3
DOS932
  9
$INSBASE
 10
0.0
 20
0.0
 30
0.0
  9
$EXTMIN
 10
0.0
 20
0.0
 30
0.0
  9
$EXTMAX
 10
215.9
 20
139.7
 30
0.0
  9
$LIMMIN
 10
0.0
 20
0.0
  9
$LIMMAX
 10
215.9
 20
139.7
  9
$ORTHOMODE
 70
     0
  9
$REGENMODE
 70
     1
  9
$FILLMODE
 70
     1
  9
$QTEXTMODE
 70
     0
  9
$MIRRTEXT
 70
     1
  9
$LTSCALE
 40
0.5
  9
$ATTMODE
 70
     1
  9
$TEXTSIZE
 40
1.75
  9
$TRACEWID
 40
1.0
  9
$TEXTSTYLE
  7
Standard
  9
$CLAYER
  8
0
  9
$CELTYPE
  6
ByLayer
  9
$CECOLOR
 62
   256
  9
$CELTSCALE
 40
1.0
  9
$DISPSILH
 70
     0
  9
$DIMSCALE
 40
1.0
  9
$DIMASZ
 40
1.651
  9
$DIMEXO
 40
0.5
  9
$DIMDLI
 40
3.75
  9
$DIMRND
 40
0.0
  9
$DIMDLE
 40
0.0
  9
$DIMEXE
 40
0.5
  9
$DIMTP
 40
0.0
  9
$DIMTM
 40
0.0
  9
$DIMTXT
 40
1.75
  9
$DIMCEN
 40
2.5
  9
$DIMTSZ
 40
0.0
  9
$DIMTOL
 70
     0
  9
$DIMLIM
 70
     0
  9
$DIMTIH
 70
     1
  9
$DIMTOH
 70
     1
  9
$DIMSE1
 70
     0
  9
$DIMSE2
 70
     0
  9
$DIMTAD
 70
     1
  9
$DIMZIN
 70
     1
  9
$DIMBLK
  1

  9
$DIMASO
 70
     1
  9
$DIMSHO
 70
     1
  9
$DIMPOST
  1

  9
$DIMAPOST
  1

  9
$DIMALT
 70
     0
  9
$DIMALTD
 70
     3
  9
$DIMALTF
 40
0.0393700787
  9
$DIMLFAC
 40
1.0
  9
$DIMTOFL
 70
     1
  9
$DIMTVP
 40
0.0
  9
$DIMTIX
 70
     0
  9
$DIMSOXD
 70
     0
  9
$DIMSAH
 70
     0
  9
$DIMBLK1
  1

  9
$DIMBLK2
  1

  9
$DIMSTYLE
  2
ISO-25
  9
$DIMCLRD
 70
     0
  9
$DIMCLRE
 70
     0
  9
$DIMCLRT
 70
     0
  9
$DIMTFAC
 40
1.0
  9
$DIMGAP
 40
0.762
  9
$DIMJUST
 70
     0
  9
$DIMSD1
 70
     0
  9
$DIMSD2
 70
     0
  9
$DIMTOLJ
 70
     0
  9
$DIMTZIN
 70
     1
  9
$DIMALTZ
 70
     0
  9
$DIMALTTZ
 70
     0
  9
$DIMUPT
 70
     0
  9
$DIMDEC
 70
     2
  9
$DIMTDEC
 70
     2
  9
$DIMALTU
 70
     2
  9
$DIMALTTD
 70
     3
  9
$DIMTXSTY
  7
Standard
  9
$DIMAUNIT
 70
     0
  9
$DIMADEC
 70
     2
  9
$DIMALTRND
 40
0.0
  9
$DIMAZIN
 70
     0
  9
$DIMDSEP
 70
    44
  9
$DIMATFIT
 70
     3
  9
$DIMFRAC
 70
     0
  9
$DIMLDRBLK
  1

  9
$DIMLUNIT
 70
     2
  9
$DIMLWD
 70
    -2
  9
$DIMLWE
 70
    -2
  9
$DIMTMOVE
 70
     0
  9
$LUNITS
 70
     2
  9
$LUPREC
 70
     2
  9
$SKETCHINC
 40
1.0
  9
$FILLETRAD
 40
10.0
  9
$AUNITS
 70
     0
  9
$AUPREC
 70
     2
  9
$MENU
  1
.
  9
$ELEVATION
 40
0.0
  9
$PELEVATION
 40
0.0
  9
$THICKNESS
 40
0.0
  9
$LIMCHECK
 70
     0
  9
$CHAMFERA
 40
0.0
  9
$CHAMFERB
 40
0.0
  9
$CHAMFERC
 40
0.0
  9
$CHAMFERD
 40
0.0
  9
$SKPOLY
 70
     0
  9
$TDCREATE
 40
2459229.405244745
  9
$TDUCREATE
 40
2459229.030244745
  9
$TDUPDATE
 40
2459229.405245648
  9
$TDUUPDATE
 40
2459229.030245648
  9
$TDINDWG
 40
0.0000000116
  9
$TDUSRTIMER
 40
0.0000000116
  9
$USRTIMER
 70
     1
  9
$ANGBASE
 50
0.0
  9
$ANGDIR
 70
     0
  9
$PDMODE
 70
     0
  9
$PDSIZE
 40
-1.0
  9
$PLINEWID
 40
0.0
  9
$SPLFRAME
 70
     0
  9
$SPLINETYPE
 70
     6
  9
$SPLINESEGS
 70
     8
  9
$HANDSEED
  5
2AC
  9
$SURFTAB1
 70
     6
  9
$SURFTAB2
 70
     6
  9
$SURFTYPE
 70
     6
  9
$SURFU
 70
     6
  9
$SURFV
 70
     6
  9
$UCSBASE
  2

  9
$UCSNAME
  2

  9
$UCSORG
 10
0.0
 20
0.0
 30
0.0
  9
$UCSXDIR
 10
1.0
 20
0.0
 30
0.0
  9
$UCSYDIR
 10
0.0
 20
1.0
 30
0.0
  9
$UCSORTHOREF
  2

  9
$UCSORTHOVIEW
 70
     0
  9
$UCSORGTOP
 10
0.0
 20
0.0
 30
0.0
  9
$UCSORGBOTTOM
 10
0.0
 20
0.0
 30
0.0
  9
$UCSORGLEFT
 10
0.0
 20
0.0
 30
0.0
  9
$UCSORGRIGHT
 10
0.0
 20
0.0
 30
0.0
  9
$UCSORGFRONT
 10
0.0
 20
0.0
 30
0.0
  9
$UCSORGBACK
 10
0.0
 20
0.0
 30
0.0
  9
$PUCSBASE
  2

  9
$PUCSNAME
  2

  9
$PUCSORG
 10
0.0
 20
0.0
 30
0.0
  9
$PUCSXDIR
 10
1.0
 20
0.0
 30
0.0
  9
$PUCSYDIR
 10
0.0
 20
1.0
 30
0.0
  9
$PUCSORTHOREF
  2

  9
$PUCSORTHOVIEW
 70
     0
  9
$PUCSORGTOP
 10
0.0
 20
0.0
 30
0.0
  9
$PUCSORGBOTTOM
 10
0.0
 20
0.0
 30
0.0
  9
$PUCSORGLEFT
 10
0.0
 20
0.0
 30
0.0
  9
$PUCSORGRIGHT
 10
0.0
 20
0.0
 30
0.0
  9
$PUCSORGFRONT
 10
0.0
 20
0.0
 30
0.0
  9
$PUCSORGBACK
 10
0.0
 20
0.0
 30
0.0
  9
$USERI1
 70
     0
  9
$USERI2
 70
     0
  9
$USERI3
 70
     0
  9
$USERI4
 70
     0
  9
$USERI5
 70
     0
  9
$USERR1
 40
0.0
  9
$USERR2
 40
0.0
  9
$USERR3
 40
0.0
  9
$USERR4
 40
0.0
  9
$USERR5
 40
0.0
  9
$WORLDVIEW
 70
     1
  9
$SHADEDGE
 70
     3
  9
$SHADEDIF
 70
    70
  9
$TILEMODE
 70
     1
  9
$MAXACTVP
 70
    64
  9
$PINSBASE
 10
0.0
 20
0.0
 30
0.0
  9
$PLIMCHECK
 70
     0
  9
$PEXTMIN
 10
1.0000000000E+20
 20
1.0000000000E+20
 30
1.0000000000E+20
  9
$PEXTMAX
 10
-1.0000000000E+20
 20
-1.0000000000E+20
 30
-1.0000000000E+20
  9
$PLIMMIN
 10
0.0
 20
0.0
  9
$PLIMMAX
 10
420.0
 20
297.0
  9
$UNITMODE
 70
     0
  9
$VISRETAIN
 70
     1
  9
$PLINEGEN
 70
     0
  9
$PSLTSCALE
 70
     1
  9
$TREEDEPTH
 70
  3020
  9
$CMLSTYLE
  2
Standard
  9
$CMLJUST
 70
     0
  9
$CMLSCALE
 40
20.0
  9
$PROXYGRAPHICS
 70
     1
  9
$MEASUREMENT
 70
     1
  9
$CELWEIGHT
370
    -1
  9
$ENDCAPS
280
     0
  9
$JOINSTYLE
280
     0
  9
$LWDISPLAY
290
     1
  9
$INSUNITS
 70
     4
  9
$HYPERLINKBASE
  1

  9
$STYLESHEET
  1

  9
$XEDIT
290
     1
  9
$CEPSNTYPE
380
     0
  9
$PSTYLEMODE
290
     1
  9
$FINGERPRINTGUID
  2
{7A3BE7B5-36B1-41C0-AF7F-EBB9863D46B9}
  9
$VERSIONGUID
  2
{FAEB1C32-E019-11D5-929B-00C0DF256EC4}
  9
$EXTNAMES
290
     1
  9
$PSVPSCALE
 40
0.0
  9
$OLESTARTUP
290
     0
  0
ENDSEC
  0
SECTION
  2
CLASSES
  0
CLASS
  1
ACDBDICTIONARYWDFLT
  2
AcDbDictionaryWithDefault
  3
ObjectDBX Classes
 90
        0
280
     0
281
     0
  0
CLASS
  1
VISUALSTYLE
  2
AcDbVisualStyle
  3
ObjectDBX Classes
 90
     4095
280
     0
281
     0
  0
CLASS
  1
MATERIAL
  2
AcDbMaterial
  3
ObjectDBX Classes
 90
     1153
280
     0
281
     0
  0
CLASS
  1
SCALE
  2
AcDbScale
  3
ObjectDBX Classes
 90
     1153
280
     0
281
     0
  0
CLASS
  1
TABLESTYLE
  2
AcDbTableStyle
  3
ObjectDBX Classes
 90
     4095
280
     0
281
     0
  0
CLASS
  1
MLEADERSTYLE
  2
AcDbMLeaderStyle
  3
ACDB_MLEADERSTYLE_CLASS
 90
     4095
280
     0
281
     0
  0
CLASS
  1
SUN
  2
AcDbSun
  3
SCENEOE
 90
     1153
280
     0
281
     0
  0
CLASS
  1
ACDBPLACEHOLDER
  2
AcDbPlaceHolder
  3
ObjectDBX Classes
 90
        0
280
     0
281
     0
  0
CLASS
  1
LAYOUT
  2
AcDbLayout
  3
ObjectDBX Classes
 90
        0
280
     0
281
     0
  0
ENDSEC
  0
SECTION
  2
TABLES
  0
TABLE
  2
VPORT
  5
8
330
0
100
AcDbSymbolTable
 70
     1
  0
VPORT
  5
29
330
8
100
AcDbSymbolTableRecord
100
AcDbViewportTableRecord
  2
*Active
 70
     0
 10
0.0
 20
0.0
 11
1.0
 21
1.0
 12
107.95
 22
69.85
 13
0.0
 23
0.0
 14
10.0
 24
10.0
 15
10.0
 25
10.0
 16
0.0
 26
0.0
 36
1.0
 17
0.0
 27
0.0
 37
0.0
 40
139.7
 41
1.5454545455
 42
50.0
 43
0.0
 44
0.0
 50
0.0
 51
0.0
 71
     0
 72
  2000
 73
     1
 74
     3
 75
     0
 76
     0
 77
     0
 78
     0
281
     0
 65
     1
110
0.0
120
0.0
130
0.0
111
1.0
121
0.0
131
0.0
112
0.0
122
1.0
132
0.0
 79
     0
146
0.0
  0
ENDTAB
  0
TABLE
  2
LTYPE
  5
5
330
0
100
AcDbSymbolTable
 70
     6
  0
LTYPE
  5
14
330
5
100
AcDbSymbolTableRecord
100
AcDbLinetypeTableRecord
  2
ByBlock
 70
     0
  3

 72
    65
 73
     0
 40
0.0
  0
LTYPE
  5
15
330
5
100
AcDbSymbolTableRecord
100
AcDbLinetypeTableRecord
  2
ByLayer
 70
     0
  3

 72
    65
 73
     0
 40
0.0
  0
LTYPE
  5
16
330
5
100
AcDbSymbolTableRecord
100
AcDbLinetypeTableRecord
  2
Continuous
 70
     0
  3
Solid line
 72
    65
 73
     0
 40
0.0
  0
LTYPE
  5
6E
330
5
100
AcDbSymbolTableRecord
100
AcDbLinetypeTableRecord
  2
HIDDEN
 70
     0
  3
Hidden __ __ __ __ __ __ __ __ __ __ __ __ __ __
 72
    65
 73
     2
 40
1.905
 49
1.27
 74
     0
 49
-0.635
 74
     0
  0
LTYPE
  5
6F
330
5
100
AcDbSymbolTableRecord
100
AcDbLinetypeTableRecord
  2
PHANTOM
 70
     0
  3
Phantom ______  __  __  ______  __  __  ______
 72
    65
 73
     6
 40
12.7
 49
6.35
 74
     0
 49
-1.27
 74
     0
 49
1.27
 74
     0
 49
-1.27
 74
     0
 49
1.27
 74
     0
 49
-1.27
 74
     0
  0
LTYPE
  5
70
330
5
100
AcDbSymbolTableRecord
100
AcDbLinetypeTableRecord
  2
CENTER
 70
     0
  3
Center ____ _ ____ _ ____ _ ____ _ ____ _ ____
 72
    65
 73
     4
 40
10.16
 49
6.35
 74
     0
 49
-1.27
 74
     0
 49
1.27
 74
     0
 49
-1.27
 74
     0
  0
LTYPE
  5
71
330
5
100
AcDbSymbolTableRecord
100
AcDbLinetypeTableRecord
  2
CENTERX2
 70
     0
  3
Center (2x) ________  __  ________  __  _____
 72
    65
 73
     4
 40
20.32
 49
12.7
 74
     0
 49
-2.54
 74
     0
 49
2.54
 74
     0
 49
-2.54
 74
     0
  0
LTYPE
  5
72
330
5
100
AcDbSymbolTableRecord
100
AcDbLinetypeTableRecord
  2
DOT2
 70
     0
  3
Dot (.5x) ........................................
 72
    65
 73
     2
 40
0.635
 49
0.0
 74
     0
 49
-0.635
 74
     0
  0
ENDTAB
  0
TABLE
  2
LAYER
  5
2
330
0
100
AcDbSymbolTable
 70
     1
  0
LAYER
  5
10
330
2
100
AcDbSymbolTableRecord
100
AcDbLayerTableRecord
  2
0
 70
     0
 62
     7
  6
Continuous
370
    -3
390
F
  0
ENDTAB
  0
TABLE
  2
STYLE
  5
3
330
0
100
AcDbSymbolTable
 70
     2
  0
STYLE
  5
11
330
3
100
AcDbSymbolTableRecord
100
AcDbTextStyleTableRecord
  2
Standard
 70
     0
 40
0.0
 41
1.0
 50
0.0
 71
     0
 42
1.75
  3
txt
  4
bigfont
  0
STYLE
  5
73
330
3
100
AcDbSymbolTableRecord
100
AcDbTextStyleTableRecord
  2
SLDTEXTSTYLE0
 70
     0
 40
0.0
 41
0.7
 50
0.0
 71
     0
 42
1.75
  3
TXT
  4
bigfont
  0
ENDTAB
  0
TABLE
  2
VIEW
  5
6
330
0
100
AcDbSymbolTable
 70
     0
  0
ENDTAB
  0
TABLE
  2
UCS
  5
7
330
0
100
AcDbSymbolTable
 70
     0
  0
ENDTAB
  0
TABLE
  2
APPID
  5
9
330
0
100
AcDbSymbolTable
 70
     1
  0
APPID
  5
12
330
9
100
AcDbSymbolTableRecord
100
AcDbRegAppTableRecord
  2
ACAD
 70
     0
  0
ENDTAB
  0
TABLE
  2
DIMSTYLE
  5
A
330
0
100
AcDbSymbolTable
 70
     1
100
AcDbDimStyleTable
  0
DIMSTYLE
105
27
330
A
100
AcDbSymbolTableRecord
100
AcDbDimStyleTableRecord
  2
ISO-25
 70
     0
 41
2.5
 42
0.625
 43
3.75
 44
1.25
 73
     0
 74
     0
 77
     1
 78
     8
140
2.5
141
2.5
143
0.0393700787
147
0.625
171
     3
172
     1
178
     0
271
     2
272
     2
274
     3
278
    44
283
     0
284
     8
340
11
  0
ENDTAB
  0
TABLE
  2
BLOCK_RECORD
  5
1
330
0
100
AcDbSymbolTable
 70
     3
  0
BLOCK_RECORD
  5
1F
330
1
100
AcDbSymbolTableRecord
100
AcDbBlockTableRecord
  2
*Model_Space
340
22
  0
BLOCK_RECORD
  5
1B
330
1
100
AcDbSymbolTableRecord
100
AcDbBlockTableRecord
  2
*Paper_Space
340
1E
  0
BLOCK_RECORD
  5
23
330
1
100
AcDbSymbolTableRecord
100
AcDbBlockTableRecord
  2
*Paper_Space0
340
26
  0
BLOCK_RECORD
  5
1D3
330
1
100
AcDbSymbolTableRecord
100
AcDbBlockTableRecord
  2
SW_CENTERMARKSYMBOL_0
340
0
102
{BLKREFS
331
1DE
102
}
  0
BLOCK_RECORD
  5
299
330
1
100
AcDbSymbolTableRecord
100
AcDbBlockTableRecord
  2
SW_CENTERMARKSYMBOL_1
340
0
102
{BLKREFS
331
2A4
102
}
  0
ENDTAB
  0
ENDSEC
  0
SECTION
  2
BLOCKS
  0
BLOCK
  5
20
330
1F
100
AcDbEntity
  8
0
100
AcDbBlockBegin
  2
*Model_Space
 70
     0
 10
0.0
 20
0.0
 30
0.0
  3
*Model_Space
  1

  0
ENDBLK
  5
21
330
1F
100
AcDbEntity
  8
0
100
AcDbBlockEnd
  0
BLOCK
  5
1C
330
1B
100
AcDbEntity
 67
     1
  8
0
100
AcDbBlockBegin
  2
*Paper_Space
 70
     0
 10
0.0
 20
0.0
 30
0.0
  3
*Paper_Space
  1

  0
ENDBLK
  5
1D
330
1B
100
AcDbEntity
 67
     1
  8
0
100
AcDbBlockEnd
  0
BLOCK
  5
24
330
23
100
AcDbEntity
  8
0
100
AcDbBlockBegin
  2
*Paper_Space0
 70
     0
 10
0.0
 20
0.0
 30
0.0
  3
*Paper_Space0
  1

  0
ENDBLK
  5
25
330
23
100
AcDbEntity
  8
0
100
AcDbBlockEnd
  0
BLOCK
  5
1D4
330
1D3
100
AcDbEntity
  8
0
100
AcDbBlockBegin
  2
SW_CENTERMARKSYMBOL_0
 70
     0
 10
0.0
 20
0.0
 30
0.0
  3
SW_CENTERMARKSYMBOL_0
  1

  0
LINE
  5
1D6
330
1D3
100
AcDbEntity
  8
0
  6
Continuous
 62
     0
370
    18
100
AcDbLine
 10
0.0
 20
0.0
 30
0.0
 11
0.0
 21
2.5
 31
0.0
  0
LINE
  5
1D7
330
1D3
100
AcDbEntity
  8
0
  6
Continuous
 62
     0
370
    18
100
AcDbLine
 10
0.0
 20
0.0
 30
0.0
 11
-2.5
 21
0.0
 31
0.0
  0
LINE
  5
1D8
330
1D3
100
AcDbEntity
  8
0
  6
Continuous
 62
     0
370
    18
100
AcDbLine
 10
0.0
 20
0.0
 30
0.0
 11
0.0
 21
-2.5
 31
0.0
  0
LINE
  5
1D9
330
1D3
100
AcDbEntity
  8
0
  6
Continuous
 62
     0
370
    18
100
AcDbLine
 10
0.0
 20
0.0
 30
0.0
 11
2.5
 21
0.0
 31
0.0
  0
LINE
  5
1DA
330
1D3
100
AcDbEntity
  8
0
  6
Continuous
 62
     0
370
    18
100
AcDbLine
 10
0.0
 20
5.0
 30
0.0
 11
0.0
 21
23.5666174084
 31
0.0
  0
LINE
  5
1DB
330
1D3
100
AcDbEntity
  8
0
  6
Continuous
 62
     0
370
    18
100
AcDbLine
 10
-5.0
 20
0.0
 30
0.0
 11
-7.6366112597
 21
0.0
 31
0.0
  0
LINE
  5
1DC
330
1D3
100
AcDbEntity
  8
0
  6
Continuous
 62
     0
370
    18
100
AcDbLine
 10
0.0
 20
-5.0
 30
0.0
 11
0.0
 21
-7.7746309805
 31
0.0
  0
LINE
  5
1DD
330
1D3
100
AcDbEntity
  8
0
  6
Continuous
 62
     0
370
    18
100
AcDbLine
 10
5.0
 20
0.0
 30
0.0
 11
7.6216280876
 21
0.0
 31
0.0
  0
ENDBLK
  5
1D5
330
1D3
100
AcDbEntity
  8
0
100
AcDbBlockEnd
  0
BLOCK
  5
29A
330
299
100
AcDbEntity
  8
0
100
AcDbBlockBegin
  2
SW_CENTERMARKSYMBOL_1
 70
     0
 10
0.0
 20
0.0
 30
0.0
  3
SW_CENTERMARKSYMBOL_1
  1

  0
LINE
  5
29C
330
299
100
AcDbEntity
  8
0
  6
Continuous
 62
     0
370
    18
100
AcDbLine
 10
0.0
 20
0.0
 30
0.0
 11
0.0
 21
2.5
 31
0.0
  0
LINE
  5
29D
330
299
100
AcDbEntity
  8
0
  6
Continuous
 62
     0
370
    18
100
AcDbLine
 10
0.0
 20
0.0
 30
0.0
 11
-2.5
 21
0.0
 31
0.0
  0
LINE
  5
29E
330
299
100
AcDbEntity
  8
0
  6
Continuous
 62
     0
370
    18
100
AcDbLine
 10
0.0
 20
0.0
 30
0.0
 11
0.0
 21
-2.5
 31
0.0
  0
LINE
  5
29F
330
299
100
AcDbEntity
  8
0
  6
Continuous
 62
     0
370
    18
100
AcDbLine
 10
0.0
 20
0.0
 30
0.0
 11
2.5
 21
0.0
 31
0.0
  0
LINE
  5
2A0
330
299
100
AcDbEntity
  8
0
  6
Continuous
 62
     0
370
    18
100
AcDbLine
 10
0.0
 20
5.0
 30
0.0
 11
0.0
 21
8.0487058968
 31
0.0
  0
LINE
  5
2A1
330
299
100
AcDbEntity
  8
0
  6
Continuous
 62
     0
370
    18
100
AcDbLine
 10
-5.0
 20
0.0
 30
0.0
 11
-22.8321038154
 21
0.0
 31
0.0
  0
LINE
  5
2A2
330
299
100
AcDbEntity
  8
0
  6
Continuous
 62
     0
370
    18
100
AcDbLine
 10
0.0
 20
-5.0
 30
0.0
 11
0.0
 21
-7.6219182977
 31
0.0
  0
LINE
  5
2A3
330
299
100
AcDbEntity
  8
0
  6
Continuous
 62
     0
370
    18
100
AcDbLine
 10
5.0
 20
0.0
 30
0.0
 11
22.8051526105
 21
0.0
 31
0.0
  0
ENDBLK
  5
29B
330
299
100
AcDbEntity
  8
0
100
AcDbBlockEnd
  0
ENDSEC
  0
SECTION
  2
ENTITIES
  0
MTEXT
  5
74
330
1F
100
AcDbEntity
  8
0
  6
Continuous
 62
     7
370
     0
100
AcDbMText
 10
74.5817733759
 20
60.878660428
 30
0.0
 40
2.6458333333
 41
0.0
 71
     1
 72
     1
  1
5R-TM1222
  7
SLDTEXTSTYLE0
 73
     1
 44
1.0
  0
ARC
  5
75
330
1F
100
AcDbEntity
  8
0
  6
Continuous
 62
     7
370
    25
100
AcDbCircle
 10
66.6472890173
 20
35.4397301117
 30
0.0
 40
1.000000000000004
100
AcDbArc
 50
149.2294876038
 51
158.1263729673
  0
ARC
  5
76
330
1F
100
AcDbEntity
  8
0
  6
Continuous
 62
     7
370
    25
100
AcDbCircle
 10
66.6472890173
 20
22.9397301117
 30
0.0
 40
0.9999999999999948
100
AcDbArc
 50
201.7833840021
 51
210.7705123962
  0
ARC
  5
77
330
1F
100
AcDbEntity
  8
0
  6
Continuous
 62
     7
370
    25
100
AcDbCircle
 10
44.6472890173
 20
22.9397301117
 30
0.0
 40
1.000000000000002
100
AcDbArc
 50
329.2294876038
 51
338.1263729673
  0
ARC
  5
78
330
1F
100
AcDbEntity
  8
0
  6
Continuous
 62
     7
370
    25
100
AcDbCircle
 10
44.6472890173
 20
35.4397301117
 30
0.0
 40
1.000000000000005
100
AcDbArc
 50
21.7833840021
 51
30.7705123962
  0
ARC
  5
79
330
1F
100
AcDbEntity
  8
0
  6
Continuous
 62
     7
370
    25
100
AcDbCircle
 10
49.3972890173
 20
40.1897301117
 30
0.0
 40
1.000000000000003
100
AcDbArc
 50
239.2294876038
 51
248.2593970632
  0
ARC
  5
7A
330
1F
100
AcDbEntity
  8
0
  6
Continuous
 62
     7
370
    25
100
AcDbCircle
 10
61.8972890173
 20
40.1897301117
 30
0.0
 40
1.000000000000003
100
AcDbArc
 50
291.8572865858
 51
300.7705123962
  0
LINE
  5
7B
330
1F
100
AcDbEntity
  8
0
  6
Continuous
 62
     7
370
    25
100
AcDbLine
 10
65.7880656516
 20
22.4281293826
 30
0.0
 11
75.5579300319
 21
22.7334374116
 31
0.0
  0
LINE
  5
7C
330
1F
100
AcDbEntity
  8
0
  6
Continuous
 62
     7
370
    25
100
AcDbLine
 10
75.5579300319
 20
35.6460228117
 30
0.0
 11
65.7880656516
 21
35.9513308407
 31
0.0
  0
LINE
  5
7D
330
1F
100
AcDbEntity
  8
0
  6
Continuous
 62
     7
370
    25
100
AcDbLine
 10
62.4088897464
 20
39.3305067459
 30
0.0
 11
62.1035817174
 21
49.1003711262
 31
0.0
  0
LINE
  5
7E
330
1F
100
AcDbEntity
  8
0
  6
Continuous
 62
     7
370
    25
100
AcDbLine
 10
49.1909963173
 20
49.1003711262
 30
0.0
 11
48.8856882883
 21
39.3305067459
 31
0.0
  0
LINE
  5
7F
330
1F
100
AcDbEntity
  8
0
  6
Continuous
 62
     7
370
    25
100
AcDbLine
 10
45.5065123831
 20
35.9513308407
 30
0.0
 11
35.7366480028
 21
35.6460228117
 31
0.0
  0
LINE
  5
80
330
1F
100
AcDbEntity
  8
0
  6
Continuous
 62
     7
370
    25
100
AcDbLine
 10
35.7366480028
 20
22.7334374116
 30
0.0
 11
45.5065123831
 21
22.4281293826
 31
0.0
  0
SPLINE
  5
81
330
1F
100
AcDbEntity
  8
0
  6
Continuous
 62
     7
370
    25
100
AcDbSpline
210
0.0
220
0.0
230
1.0
 70
     8
 71
     3
 72
    11
 73
     7
 74
     0
 42
0.000000001
 43
0.00000001
 40
0.0
 40
0.0
 40
0.0
 40
0.0
 40
0.2500538626994269
 40
0.4999819337220742
 40
0.749932391486029
 40
1.0
 40
1.0
 40
1.0
 40
1.0
 10
65.71945511748541
 20
35.81188298032139
 30
0.0
 10
65.67422605241143
 20
35.72370772723011
 30
0.0
 10
65.5837906751211
 20
35.54740157834249
 30
0.0
 10
65.358759935251
 20
35.34816710708812
 30
0.0
 10
65.08937486164274
 20
35.21486280814214
 30
0.0
 10
64.89196636072417
 20
35.19759372877586
 30
0.0
 10
64.79323898454655
 20
35.18895716608021
 30
0.0
  0
SPLINE
  5
82
330
1F
100
AcDbEntity
  8
0
  6
Continuous
 62
     7
370
    25
100
AcDbSpline
210
0.0
220
0.0
230
1.0
 70
     8
 71
     3
 72
    11
 73
     7
 74
     0
 42
0.000000001
 43
0.00000001
 40
0.0
 40
0.0
 40
0.0
 40
0.0
 40
0.2500765330476004
 40
0.5000300275733256
 40
0.7499566387606212
 40
1.0
 40
1.0
 40
1.0
 40
1.0
 10
64.79323898454655
 20
23.19122855753157
 30
0.0
 10
64.89196586747607
 20
23.18259098264346
 30
0.0
 10
65.08937105936621
 20
23.16532008258407
 30
0.0
 10
65.35875799937486
 20
23.03204069543806
 30
0.0
 10
65.58378701778477
 20
22.8328292232992
 30
0.0
 10
65.67422537804025
 20
22.65654224987865
 30
0.0
 10
65.71945511748541
 20
22.56837818041894
 30
0.0
  0
SPLINE
  5
83
330
1F
100
AcDbEntity
  8
0
  6
Continuous
 62
     7
370
    25
100
AcDbSpline
210
0.0
220
0.0
230
1.0
 70
     8
 71
     3
 72
    11
 73
     7
 74
     0
 42
0.000000001
 43
0.00000001
 40
0.0
 40
0.0
 40
0.0
 40
0.0
 40
0.2500538626994269
 40
0.4999819337220742
 40
0.749932391486029
 40
1.0
 40
1.0
 40
1.0
 40
1.0
 10
45.57512291719664
 20
22.56757724300477
 30
0.0
 10
45.62035198227061
 20
22.65575249609605
 30
0.0
 10
45.71078735956096
 20
22.83205864498367
 30
0.0
 10
45.93581809943105
 20
23.03129311623803
 30
0.0
 10
46.20520317303931
 20
23.16459741518401
 30
0.0
 10
46.40261167395786
 20
23.1818664945503
 30
0.0
 10
46.5013390501355
 20
23.19050305724594
 30
0.0
  0
SPLINE
  5
84
330
1F
100
AcDbEntity
  8
0
  6
Continuous
 62
     7
370
    25
100
AcDbSpline
210
0.0
220
0.0
230
1.0
 70
     8
 71
     3
 72
    11
 73
     7
 74
     0
 42
0.000000001
 43
0.00000001
 40
0.0
 40
0.0
 40
0.0
 40
0.0
 40
0.2500765330476004
 40
0.5000300275733256
 40
0.7499566387606212
 40
1.0
 40
1.0
 40
1.0
 40
1.0
 10
46.5013390501355
 20
35.18823166579459
 30
0.0
 10
46.40261216720597
 20
35.19686924068269
 30
0.0
 10
46.20520697531583
 20
35.21414014074208
 30
0.0
 10
45.93582003530718
 20
35.34741952788809
 30
0.0
 10
45.71079101689726
 20
35.54663100002696
 30
0.0
 10
45.62035265664178
 20
35.72291797344751
 30
0.0
 10
45.57512291719664
 20
35.81108204290722
 30
0.0
  0
SPLINE
  5
85
330
1F
100
AcDbEntity
  8
0
  6
Continuous
 62
     7
370
    25
100
AcDbSpline
210
0.0
220
0.0
230
1.0
 70
     8
 71
     3
 72
    11
 73
     7
 74
     0
 42
0.000000001
 43
0.00000001
 40
0.0
 40
0.0
 40
0.0
 40
0.0
 40
0.2500433612393788
 40
0.4999699724266744
 40
0.7499234669523995
 40
1.0
 40
1.0
 40
1.0
 40
1.0
 10
49.02593708609689
 20
39.26189621180747
 30
0.0
 10
49.11410115555659
 20
39.21666647236231
 30
0.0
 10
49.29038812897714
 20
39.12622811210684
 30
0.0
 10
49.489599601116
 20
38.90119909369692
 30
0.0
 10
49.62287898826202
 20
38.63181215368827
 30
0.0
 10
49.64014988832141
 20
38.43440696179813
 30
0.0
 10
49.64878746320952
 20
38.33568007886861
 30
0.0
  0
SPLINE
  5
86
330
1F
100
AcDbEntity
  8
0
  6
Continuous
 62
     7
370
    25
100
AcDbSpline
210
0.0
220
0.0
230
1.0
 70
     8
 71
     3
 72
    11
 73
     7
 74
     0
 42
0.000000001
 43
0.00000001
 40
0.0
 40
0.0
 40
0.0
 40
0.0
 40
0.2500676085139711
 40
0.5000180662779259
 40
0.7499461373005731
 40
1.0
 40
1.0
 40
1.0
 40
1.0
 10
61.64651607175816
 20
38.33568007886861
 30
0.0
 10
61.6551526344538
 20
38.43440745504623
 30
0.0
 10
61.67242171382009
 20
38.63181595596479
 30
0.0
 10
61.80572601276607
 20
38.90120102957305
 30
0.0
 10
62.00496048402042
 20
39.12623176944314
 30
0.0
 10
62.18126663290804
 20
39.21666714673349
 30
0.0
 10
62.26944188599933
 20
39.26189621180747
 30
0.0
  0
LINE
  5
87
330
1F
100
AcDbEntity
  8
0
  6
Continuous
 62
     7
370
    25
100
AcDbLine
 10
35.7366480028
 20
35.6460228117
 30
0.0
 11
33.6472891366
 21
34.4397300409
 31
0.0
  0
LINE
  5
88
330
1F
100
AcDbEntity
  8
0
  6
Continuous
 62
     7
370
    25
100
AcDbLine
 10
33.6472891366
 20
23.9397301824
 30
0.0
 11
35.7366480028
 21
22.7334374116
 31
0.0
  0
LINE
  5
89
330
1F
100
AcDbEntity
  8
0
  6
Continuous
 62
     7
370
    25
100
AcDbLine
 10
62.1035817174
 20
49.1003711262
 30
0.0
 11
60.8972889466
 21
51.1897299925
 31
0.0
  0
LINE
  5
8A
330
1F
100
AcDbEntity
  8
0
  6
Continuous
 62
     7
370
    25
100
AcDbLine
 10
50.3972890881
 20
51.1897299925
 30
0.0
 11
49.1909963173
 21
49.1003711262
 31
0.0
  0
LINE
  5
8B
330
1F
100
AcDbEntity
  8
0
  6
Continuous
 62
     7
370
    25
100
AcDbLine
 10
75.5579300319
 20
22.7334374116
 30
0.0
 11
77.6472888981
 21
23.9397301824
 31
0.0
  0
LINE
  5
8C
330
1F
100
AcDbEntity
  8
0
  6
Continuous
 62
     7
370
    25
100
AcDbLine
 10
77.6472888981
 20
34.4397300409
 30
0.0
 11
75.5579300319
 21
35.6460228117
 31
0.0
  0
LINE
  5
8D
330
1F
100
AcDbEntity
  8
0
  6
Continuous
 62
     7
370
    25
100
AcDbLine
 10
49.4472888393
 20
35.1897301638
 30
0.0
 11
46.5013390501
 21
35.1897301638
 31
0.0
  0
LINE
  5
8E
330
1F
100
AcDbEntity
  8
0
  6
Continuous
 62
     7
370
    25
100
AcDbLine
 10
64.7932389845
 20
35.1897301638
 30
0.0
 11
61.8472891954
 21
35.1897301638
 31
0.0
  0
LINE
  5
8F
330
1F
100
AcDbEntity
  8
0
  6
Continuous
 62
     7
370
    25
100
AcDbLine
 10
46.5013390501
 20
23.1897300595
 30
0.0
 11
64.7932389845
 21
23.1897300595
 31
0.0
  0
LINE
  5
90
330
1F
100
AcDbEntity
  8
0
  6
Continuous
 62
     7
370
    25
100
AcDbLine
 10
49.6472889652
 20
38.3356800789
 30
0.0
 11
49.6472889652
 21
35.3897302897
 31
0.0
  0
LINE
  5
91
330
1F
100
AcDbEntity
  8
0
  6
Continuous
 62
     7
370
    25
100
AcDbLine
 10
61.6472890695
 20
35.3897302897
 30
0.0
 11
61.6472890695
 21
38.3356800789
 31
0.0
  0
ARC
  5
92
330
1F
100
AcDbEntity
  8
0
  6
Continuous
 62
     7
370
    25
100
AcDbCircle
 10
61.8472890173
 20
35.3897301117
 30
0.0
 40
0.2000000000000018
100
AcDbArc
 50
180.8155054012
 51
268.1011809401
  0
ARC
  5
93
330
1F
100
AcDbEntity
  8
0
  6
Continuous
 62
     7
370
    25
100
AcDbCircle
 10
49.4472890173
 20
35.3897301117
 30
0.0
 40
0.2000000000000018
100
AcDbArc
 50
271.7725582516
 51
358.1011809401
  0
LINE
  5
94
330
1F
100
AcDbEntity
  8
0
  6
Continuous
 62
     7
370
    25
100
AcDbLine
 10
65.7880656516
 20
22.4281293826
 30
0.0
 11
65.7880656516
 21
35.9513308407
 31
0.0
  0
LINE
  5
95
330
1F
100
AcDbEntity
  8
0
  6
Continuous
 62
     7
370
    25
100
AcDbLine
 10
45.5065123831
 20
35.9513308407
 30
0.0
 11
45.5065123831
 21
22.4281293826
 31
0.0
  0
LINE
  5
96
330
1F
100
AcDbEntity
  8
0
  6
Continuous
 62
     7
370
    25
100
AcDbLine
 10
62.4088897464
 20
39.3305067459
 30
0.0
 11
48.8856882883
 21
39.3305067459
 31
0.0
  0
LINE
  5
97
330
1F
100
AcDbEntity
  8
0
  6
Continuous
 62
     7
370
    25
100
AcDbLine
 10
49.0274211486
 20
39.2612964401
 30
0.0
 11
49.027702408
 21
39.2614016795
 31
0.0
  0
LINE
  5
98
330
1F
100
AcDbEntity
  8
0
  6
Continuous
 62
     7
370
    25
100
AcDbLine
 10
75.5579300319
 20
22.7334374116
 30
0.0
 11
75.5579300319
 21
35.6460228117
 31
0.0
  0
LINE
  5
99
330
1F
100
AcDbEntity
  8
0
  6
Continuous
 62
     7
370
    25
100
AcDbLine
 10
49.1909963173
 20
49.1003711262
 30
0.0
 11
62.1035817174
 21
49.1003711262
 31
0.0
  0
LINE
  5
9A
330
1F
100
AcDbEntity
  8
0
  6
Continuous
 62
     7
370
    25
100
AcDbLine
 10
35.7366480028
 20
22.7334374116
 30
0.0
 11
35.7366480028
 21
35.6460228117
 31
0.0
  0
SPLINE
  5
9B
330
1F
100
AcDbEntity
  8
0
  6
Continuous
 62
     7
370
    25
100
AcDbSpline
210
0.0
220
0.0
230
1.0
 70
     8
 71
     3
 72
     9
 73
     5
 74
     0
 42
0.000000001
 43
0.00000001
 40
0.001813512106624
 40
0.001813512106624
 40
0.001813512106624
 40
0.001813512106624
 40
0.501813512106624
 40
1.0
 40
1.0
 40
1.0
 40
1.0
 10
64.79323939556711
 20
29.1848623187704
 30
0.0
 10
64.99097265428365
 20
29.18484641091207
 30
0.0
 10
65.38527624628458
 20
29.184775310962
 30
0.0
 10
65.64517032338338
 20
29.18449661269614
 30
0.0
 10
65.71945516970865
 20
29.1843567840615
 30
0.0
  0
SPLINE
  5
9C
330
1F
100
AcDbEntity
  8
0
  6
Continuous
 62
     7
370
    25
100
AcDbSpline
210
0.0
220
0.0
230
1.0
 70
    24
 71
     3
 72
     9
 73
     5
 74
     0
 42
0.000000001
 43
0.00000001
 40
0.0
 40
0.0
 40
0.0
 40
0.0
 40
0.8815749371110125
 40
0.9999999999999999
 40
0.9999999999999999
 40
0.9999999999999999
 40
0.9999999999999999
 10
64.79323898454655
 20
23.19212542117092
 30
0.0
 10
64.79323898454655
 20
23.19063262932374
 30
0.0
 10
64.79323898454653
 20
23.18893930549574
 30
0.0
 10
64.79323898454655
 20
23.1899286184169
 30
0.0
 10
64.79323898454655
 20
23.19004577786181
 30
0.0
  0
SPLINE
  5
9D
330
1F
100
AcDbEntity
  8
0
  6
Continuous
 62
     7
370
    25
100
AcDbSpline
210
0.0
220
0.0
230
1.0
 70
     8
 71
     3
 72
     9
 73
     5
 74
     0
 42
0.000000001
 43
0.00000001
 40
0.001813512106624
 40
0.001813512106624
 40
0.001813512106624
 40
0.001813512106624
 40
0.501813512106624
 40
1.0
 40
1.0
 40
1.0
 40
1.0
 10
46.50133863911493
 20
29.19459790455576
 30
0.0
 10
46.30360538039839
 20
29.19461381241408
 30
0.0
 10
45.90930178839746
 20
29.19468491236416
 30
0.0
 10
45.64940771129867
 20
29.19496361063001
 30
0.0
 10
45.57512286497339
 20
29.19510343926466
 30
0.0
  0
SPLINE
  5
9E
330
1F
100
AcDbEntity
  8
0
  6
Continuous
 62
     7
370
    25
100
AcDbSpline
210
0.0
220
0.0
230
1.0
 70
    24
 71
     3
 72
     9
 73
     5
 74
     0
 42
0.000000001
 43
0.00000001
 40
0.0
 40
0.0
 40
0.0
 40
0.0
 40
0.8815749371110125
 40
0.9999999999999999
 40
0.9999999999999999
 40
0.9999999999999999
 40
0.9999999999999999
 10
46.5013390501355
 20
35.18733480215523
 30
0.0
 10
46.5013390501355
 20
35.18882759400241
 30
0.0
 10
46.5013390501355
 20
35.19052091783041
 30
0.0
 10
46.5013390501355
 20
35.18953160490925
 30
0.0
 10
46.5013390501355
 20
35.18941444546435
 30
0.0
  0
SPLINE
  5
9F
330
1F
100
AcDbEntity
  8
0
  6
Continuous
 62
     7
370
    25
100
AcDbSpline
210
0.0
220
0.0
230
1.0
 70
    24
 71
     3
 72
     9
 73
     5
 74
     0
 42
0.000000001
 43
0.00000001
 40
0.0
 40
0.0
 40
0.0
 40
0.0
 40
0.1184250628889874
 40
0.9999999999999999
 40
0.9999999999999999
 40
0.9999999999999999
 40
0.9999999999999999
 10
49.64760468353975
 20
38.33568007886861
 30
0.0
 10
49.64748752409484
 20
38.33568007886861
 30
0.0
 10
49.64649821117368
 20
38.33568007886861
 30
0.0
 10
49.64819153500169
 20
38.33568007886861
 30
0.0
 10
49.64968432684887
 20
38.33568007886861
 30
0.0
  0
SPLINE
  5
A0
330
1F
100
AcDbEntity
  8
0
  6
Continuous
 62
     7
370
    25
100
AcDbSpline
210
0.0
220
0.0
230
1.0
 70
     8
 71
     3
 72
     9
 73
     5
 74
     0
 42
0.000000001
 43
0.00000001
 40
0.0018135121066271
 40
0.0018135121066271
 40
0.0018135121066271
 40
0.0018135121066271
 40
0.5018135121066271
 40
1.0
 40
1.0
 40
1.0
 40
1.0
 10
55.64242122444834
 20
38.33568048988916
 30
0.0
 10
55.64240531659001
 20
38.5334137486057
 30
0.0
 10
55.64233421663995
 20
38.92771734060663
 30
0.0
 10
55.64205551837409
 20
39.18761141770543
 30
0.0
 10
55.64191568973944
 20
39.2618962640307
 30
0.0
  0
LINE
  5
A1
330
1F
100
AcDbEntity
  8
0
  6
Continuous
 62
     7
370
    25
100
AcDbLine
 10
33.6472891366
 20
34.4397300409
 30
0.0
 11
33.6472891366
 21
23.9397301824
 31
0.0
  0
LINE
  5
A2
330
1F
100
AcDbEntity
  8
0
  6
Continuous
 62
     7
370
    25
100
AcDbLine
 10
60.8972889466
 20
51.1897299925
 30
0.0
 11
50.3972890881
 21
51.1897299925
 31
0.0
  0
LINE
  5
A3
330
1F
100
AcDbEntity
  8
0
  6
Continuous
 62
     7
370
    25
100
AcDbLine
 10
77.6472888981
 20
34.4397300409
 30
0.0
 11
77.6472888981
 21
23.9397301824
 31
0.0
  0
SPLINE
  5
A4
330
1F
100
AcDbEntity
  8
0
  6
Continuous
 62
     7
370
    25
100
AcDbSpline
210
0.0
220
0.0
230
1.0
 70
     8
 71
     3
 72
    10
 73
     6
 74
     0
 42
0.000000001
 43
0.00000001
 40
0.0
 40
0.0
 40
0.0
 40
0.0
 40
0.5
 40
0.5
 40
1.0
 40
1.0
 40
1.0
 40
1.0
 10
49.64728901734102
 20
34.2219881761792
 30
0.0
 10
49.77490287879843
 20
34.2219881761792
 30
0.0
 10
49.89472470423276
 20
34.25290359233522
 30
0.0
 10
50.08538666779565
 20
34.34039682893576
 30
0.0
 10
50.15659594321449
 20
34.39418437873565
 30
0.0
 10
50.21297444229023
 20
34.44874421655089
 30
0.0
  0
LINE
  5
A5
330
1F
100
AcDbEntity
  8
0
  6
Continuous
 62
     7
370
    25
100
AcDbLine
 10
49.3472890091
 20
34.2219882199
 30
0.0
 11
49.6472889652
 21
34.2219882199
 31
0.0
  0
SPLINE
  5
A6
330
1F
100
AcDbEntity
  8
0
  6
Continuous
 62
     7
370
    25
100
AcDbSpline
210
0.0
220
0.0
230
1.0
 70
     8
 71
     3
 72
    14
 73
    10
 74
     0
 42
0.000000001
 43
0.00000001
 40
0.0
 40
0.0
 40
0.0
 40
0.0
 40
0.25
 40
0.25
 40
0.5
 40
0.5
 40
0.75
 40
0.75
 40
1.0
 40
1.0
 40
1.0
 40
1.0
 10
49.34728901734102
 20
34.22198817617922
 30
0.0
 10
49.27633532780079
 20
34.22198817617921
 30
0.0
 10
49.21014868354219
 20
34.20284960242954
 30
0.0
 10
49.10761902120126
 20
34.14986970379116
 30
0.0
 10
49.0682867868157
 20
34.11620744434283
 30
0.0
 10
49.00698130944898
 20
34.0436534822204
 30
0.0
 10
48.98463357567926
 20
34.00387965790506
 30
0.0
 10
48.95496632097635
 20
33.92195824630198
 30
0.0
 10
48.94728901734102
 20
33.87933687785854
 30
0.0
 10
48.94728901734102
 20
33.83489140198566
 30
0.0
  0
LINE
  5
A7
330
1F
100
AcDbEntity
  8
0
  6
Continuous
 62
     7
370
    25
100
AcDbLine
 10
48.947289223
 20
31.3099464887
 30
0.0
 11
48.947289223
 21
33.8348914424
 31
0.0
  0
SPLINE
  5
A8
330
1F
100
AcDbEntity
  8
0
  6
Continuous
 62
     7
370
    25
100
AcDbSpline
210
0.0
220
0.0
230
1.0
 70
    24
 71
     3
 72
    14
 73
    10
 74
     0
 42
0.000000001
 43
0.00000001
 40
0.0
 40
0.0
 40
0.0
 40
0.0
 40
0.25
 40
0.25
 40
0.5
 40
0.5
 40
0.75
 40
0.75
 40
1.0
 40
1.0
 40
1.0
 40
1.0
 10
48.94728901734102
 20
29.18973011166308
 30
0.0
 10
48.94728901734102
 20
29.36829514235836
 30
0.0
 10
48.94728901734102
 20
29.54686099057797
 30
0.0
 10
48.94728901734102
 20
29.9033211259004
 30
0.0
 10
48.94728901734102
 20
30.0812170511289
 30
0.0
 10
48.94728901734102
 20
30.43561833435974
 30
0.0
 10
48.94728901734102
 20
30.6121253378697
 30
0.0
 10
48.94728901734102
 20
30.96293144988419
 30
0.0
 10
48.94728901734102
 20
31.13723220993262
 30
0.0
 10
48.94728901734102
 20
31.30994646329598
 30
0.0
  0
SPLINE
  5
A9
330
1F
100
AcDbEntity
  8
0
  6
Continuous
 62
     7
370
    25
100
AcDbSpline
210
0.0
220
0.0
230
1.0
 70
    24
 71
     3
 72
    14
 73
    10
 74
     0
 42
0.000000001
 43
0.00000001
 40
0.0
 40
0.0
 40
0.0
 40
0.0
 40
0.25
 40
0.25
 40
0.5
 40
0.5
 40
0.75
 40
0.75
 40
1.0
 40
1.0
 40
1.0
 40
1.0
 10
48.94728901734102
 20
29.18973011166308
 30
0.0
 10
48.94728901734102
 20
29.01116508096779
 30
0.0
 10
48.94728901734102
 20
28.8325992327482
 30
0.0
 10
48.94728901734102
 20
28.47613909742576
 30
0.0
 10
48.94728901734102
 20
28.29824317219725
 30
0.0
 10
48.94728901734102
 20
27.94384188896641
 30
0.0
 10
48.94728901734102
 20
27.76733488545645
 30
0.0
 10
48.94728901734102
 20
27.41652877344196
 30
0.0
 10
48.94728901734102
 20
27.24222801339353
 30
0.0
 10
48.94728901734102
 20
27.06951376003018
 30
0.0
  0
LINE
  5
AA
330
1F
100
AcDbEntity
  8
0
  6
Continuous
 62
     7
370
    25
100
AcDbLine
 10
48.947289223
 20
24.544568781
 30
0.0
 11
48.947289223
 21
27.0695137346
 31
0.0
  0
SPLINE
  5
AB
330
1F
100
AcDbEntity
  8
0
  6
Continuous
 62
     7
370
    25
100
AcDbSpline
210
0.0
220
0.0
230
1.0
 70
     8
 71
     3
 72
    12
 73
     8
 74
     0
 42
0.000000001
 43
0.00000001
 40
0.0
 40
0.0
 40
0.0
 40
0.0
 40
0.5000000000000001
 40
0.5000000000000001
 40
0.75
 40
0.75
 40
1.0
 40
1.0
 40
1.0
 40
1.0
 10
48.94728901734102
 20
24.5445688213405
 30
0.0
 10
48.94728901734102
 20
24.45575340207731
 30
0.0
 10
48.9766966419235
 20
24.37155105520581
 30
0.0
 10
49.06835320699191
 20
24.26322290170557
 30
0.0
 10
49.10771495296218
 20
24.22953297296482
 30
0.0
 10
49.2101411731478
 20
24.17662248460147
 30
0.0
 10
49.27627803661817
 20
24.15747204714695
 30
0.0
 10
49.34728901734102
 20
24.15747204714695
 30
0.0
  0
LINE
  5
AC
330
1F
100
AcDbEntity
  8
0
  6
Continuous
 62
     7
370
    25
100
AcDbLine
 10
61.9472890255
 20
24.1574720034
 30
0.0
 11
49.3472890091
 21
24.1574720034
 31
0.0
  0
SPLINE
  5
AD
330
1F
100
AcDbEntity
  8
0
  6
Continuous
 62
     7
370
    25
100
AcDbSpline
210
0.0
220
0.0
230
1.0
 70
     8
 71
     3
 72
    14
 73
    10
 74
     0
 42
0.000000001
 43
0.00000001
 40
0.0
 40
0.0
 40
0.0
 40
0.0
 40
0.25
 40
0.25
 40
0.5
 40
0.5
 40
0.75
 40
0.75
 40
1.0
 40
1.0
 40
1.0
 40
1.0
 10
61.94728901734102
 20
24.15747204714695
 30
0.0
 10
62.01824270688125
 20
24.15747204714695
 30
0.0
 10
62.08442935113985
 20
24.17661062089661
 30
0.0
 10
62.18695901348078
 20
24.22959051953499
 30
0.0
 10
62.22629124786634
 20
24.26325277898331
 30
0.0
 10
62.28759672523306
 20
24.33580674110575
 30
0.0
 10
62.30994445900278
 20
24.37558056542109
 30
0.0
 10
62.33961171370569
 20
24.45750197702418
 30
0.0
 10
62.34728901734102
 20
24.50012334546761
 30
0.0
 10
62.34728901734102
 20
24.54456882134049
 30
0.0
  0
LINE
  5
AE
330
1F
100
AcDbEntity
  8
0
  6
Continuous
 62
     7
370
    25
100
AcDbLine
 10
62.3472888117
 20
27.0695137346
 30
0.0
 11
62.3472888117
 21
24.544568781
 31
0.0
  0
SPLINE
  5
AF
330
1F
100
AcDbEntity
  8
0
  6
Continuous
 62
     7
370
    25
100
AcDbSpline
210
0.0
220
0.0
230
1.0
 70
    24
 71
     3
 72
    14
 73
    10
 74
     0
 42
0.000000001
 43
0.00000001
 40
0.0
 40
0.0
 40
0.0
 40
0.0
 40
0.25
 40
0.25
 40
0.5
 40
0.5
 40
0.75
 40
0.75
 40
1.0
 40
1.0
 40
1.0
 40
1.0
 10
62.34728901734102
 20
29.18973011166308
 30
0.0
 10
62.34728901734102
 20
29.01116508096779
 30
0.0
 10
62.34728901734102
 20
28.8325992327482
 30
0.0
 10
62.34728901734102
 20
28.47613909742576
 30
0.0
 10
62.34728901734102
 20
28.29824317219726
 30
0.0
 10
62.34728901734102
 20
27.94384188896642
 30
0.0
 10
62.34728901734102
 20
27.76733488545645
 30
0.0
 10
62.34728901734102
 20
27.41652877344196
 30
0.0
 10
62.34728901734102
 20
27.24222801339354
 30
0.0
 10
62.34728901734102
 20
27.06951376003018
 30
0.0
  0
SPLINE
  5
B0
330
1F
100
AcDbEntity
  8
0
  6
Continuous
 62
     7
370
    25
100
AcDbSpline
210
0.0
220
0.0
230
1.0
 70
    24
 71
     3
 72
    14
 73
    10
 74
     0
 42
0.000000001
 43
0.00000001
 40
0.0
 40
0.0
 40
0.0
 40
0.0
 40
0.25
 40
0.25
 40
0.5
 40
0.5
 40
0.75
 40
0.75
 40
1.0
 40
1.0
 40
1.0
 40
1.0
 10
62.34728901734102
 20
29.18973011166308
 30
0.0
 10
62.34728901734102
 20
29.36829514235837
 30
0.0
 10
62.34728901734102
 20
29.54686099057797
 30
0.0
 10
62.34728901734102
 20
29.9033211259004
 30
0.0
 10
62.34728901734102
 20
30.0812170511289
 30
0.0
 10
62.34728901734102
 20
30.43561833435974
 30
0.0
 10
62.34728901734102
 20
30.61212533786971
 30
0.0
 10
62.34728901734102
 20
30.96293144988419
 30
0.0
 10
62.34728901734102
 20
31.13723220993262
 30
0.0
 10
62.34728901734102
 20
31.30994646329598
 30
0.0
  0
LINE
  5
B1
330
1F
100
AcDbEntity
  8
0
  6
Continuous
 62
     7
370
    25
100
AcDbLine
 10
62.3472888117
 20
33.8348914424
 30
0.0
 11
62.3472888117
 21
31.3099464887
 31
0.0
  0
SPLINE
  5
B2
330
1F
100
AcDbEntity
  8
0
  6
Continuous
 62
     7
370
    25
100
AcDbSpline
210
0.0
220
0.0
230
1.0
 70
     8
 71
     3
 72
    12
 73
     8
 74
     0
 42
0.000000001
 43
0.00000001
 40
0.0
 40
0.0
 40
0.0
 40
0.0
 40
0.4999999999999979
 40
0.4999999999999979
 40
0.7499999999999989
 40
0.7499999999999989
 40
1.0
 40
1.0
 40
1.0
 40
1.0
 10
62.34728901734102
 20
33.83489140198566
 30
0.0
 10
62.34728901734103
 20
33.92370682124884
 30
0.0
 10
62.31788139275854
 20
34.00790916812035
 30
0.0
 10
62.22622482769013
 20
34.11623732162059
 30
0.0
 10
62.18686308171986
 20
34.14992725036134
 30
0.0
 10
62.08443686153424
 20
34.20283773872469
 30
0.0
 10
62.01829999806387
 20
34.22198817617921
 30
0.0
 10
61.94728901734101
 20
34.2219881761792
 30
0.0
  0
LINE
  5
B3
330
1F
100
AcDbEntity
  8
0
  6
Continuous
 62
     7
370
    25
100
AcDbLine
 10
61.6472890695
 20
34.2219882199
 30
0.0
 11
61.9472890255
 21
34.2219882199
 31
0.0
  0
SPLINE
  5
B4
330
1F
100
AcDbEntity
  8
0
  6
Continuous
 62
     7
370
    25
100
AcDbSpline
210
0.0
220
0.0
230
1.0
 70
     8
 71
     3
 72
    10
 73
     6
 74
     0
 42
0.000000001
 43
0.00000001
 40
0.0
 40
0.0
 40
0.0
 40
0.0
 40
0.5
 40
0.5
 40
1.0
 40
1.0
 40
1.0
 40
1.0
 10
61.08160359239182
 20
34.44874421655088
 30
0.0
 10
61.13798209146756
 20
34.39418437873564
 30
0.0
 10
61.20919136688642
 20
34.34039682893575
 30
0.0
 10
61.39985333044931
 20
34.25290359233521
 30
0.0
 10
61.51967515588363
 20
34.2219881761792
 30
0.0
 10
61.64728901734102
 20
34.2219881761792
 30
0.0
  0
SPLINE
  5
B5
330
1F
100
AcDbEntity
  8
0
  6
Continuous
 62
     7
370
    25
100
AcDbSpline
210
0.0
220
0.0
230
1.0
 70
     8
 71
     3
 72
    10
 73
     6
 74
     0
 42
0.000000001
 43
0.00000001
 40
0.0
 40
0.0
 40
0.0
 40
0.0
 40
0.5
 40
0.5
 40
1.0
 40
1.0
 40
1.0
 40
1.0
 10
50.38827491245322
 20
34.62404468671387
 30
0.0
 10
50.44283475026845
 20
34.68042318578962
 30
0.0
 10
50.49662230006835
 20
34.75163246120848
 30
0.0
 10
50.58411553666888
 20
34.94229442477136
 30
0.0
 10
50.6150309528249
 20
35.06211625020568
 30
0.0
 10
50.6150309528249
 20
35.18973011166307
 30
0.0
  0
LINE
  5
B6
330
1F
100
AcDbEntity
  8
0
  6
Continuous
 62
     7
370
    25
100
AcDbLine
 10
57.7675053944
 20
35.889729906
 30
0.0
 11
60.6472889056
 21
35.889729906
 31
0.0
  0
SPLINE
  5
B7
330
1F
100
AcDbEntity
  8
0
  6
Continuous
 62
     7
370
    25
100
AcDbSpline
210
0.0
220
0.0
230
1.0
 70
    24
 71
     3
 72
    14
 73
    10
 74
     0
 42
0.000000001
 43
0.00000001
 40
0.0
 40
0.0
 40
0.0
 40
0.0
 40
0.25
 40
0.25
 40
0.5
 40
0.5
 40
0.75
 40
0.75
 40
1.0
 40
1.0
 40
1.0
 40
1.0
 10
55.64728901734102
 20
35.88973011166308
 30
0.0
 10
55.82585404803631
 20
35.88973011166308
 30
0.0
 10
56.0044198962559
 20
35.88973011166308
 30
0.0
 10
56.36088003157833
 20
35.88973011166308
 30
0.0
 10
56.53877595680684
 20
35.88973011166308
 30
0.0
 10
56.89317724003768
 20
35.88973011166308
 30
0.0
 10
57.06968424354765
 20
35.88973011166308
 30
0.0
 10
57.42049035556213
 20
35.88973011166308
 30
0.0
 10
57.59479111561056
 20
35.88973011166308
 30
0.0
 10
57.76750536897391
 20
35.88973011166308
 30
0.0
  0
SPLINE
  5
B8
330
1F
100
AcDbEntity
  8
0
  6
Continuous
 62
     7
370
    25
100
AcDbSpline
210
0.0
220
0.0
230
1.0
 70
    24
 71
     3
 72
    14
 73
    10
 74
     0
 42
0.000000001
 43
0.00000001
 40
0.0
 40
0.0
 40
0.0
 40
0.0
 40
0.25
 40
0.25
 40
0.5
 40
0.5
 40
0.75
 40
0.75
 40
1.0
 40
1.0
 40
1.0
 40
1.0
 10
55.64728901734102
 20
35.88973011166308
 30
0.0
 10
55.46872398664573
 20
35.88973011166308
 30
0.0
 10
55.29015813842613
 20
35.88973011166308
 30
0.0
 10
54.9336980031037
 20
35.88973011166308
 30
0.0
 10
54.7558020778752
 20
35.88973011166308
 30
0.0
 10
54.40140079464436
 20
35.88973011166308
 30
0.0
 10
54.22489379113439
 20
35.88973011166308
 30
0.0
 10
53.87408767911991
 20
35.88973011166308
 30
0.0
 10
53.69978691907148
 20
35.88973011166308
 30
0.0
 10
53.52707266570813
 20
35.88973011166308
 30
0.0
  0
LINE
  5
B9
330
1F
100
AcDbEntity
  8
0
  6
Continuous
 62
     7
370
    25
100
AcDbLine
 10
51.0021276866
 20
35.889729906
 30
0.0
 11
53.5270726403
 21
35.889729906
 31
0.0
  0
SPLINE
  5
BA
330
1F
100
AcDbEntity
  8
0
  6
Continuous
 62
     7
370
    25
100
AcDbSpline
210
0.0
220
0.0
230
1.0
 70
     8
 71
     3
 72
    12
 73
     8
 74
     0
 42
0.000000001
 43
0.00000001
 40
0.0
 40
0.0
 40
0.0
 40
0.0
 40
0.4999999999999986
 40
0.4999999999999986
 40
0.7499999999999992
 40
0.7499999999999992
 40
1.0
 40
1.0
 40
1.0
 40
1.0
 10
51.00212772701844
 20
35.88973011166308
 30
0.0
 10
50.91331230775526
 20
35.88973011166308
 30
0.0
 10
50.82910996088375
 20
35.8603224870806
 30
0.0
 10
50.72078180738352
 20
35.7686659220122
 30
0.0
 10
50.68709187864276
 20
35.72930417604191
 30
0.0
 10
50.63418139027941
 20
35.6268779558563
 30
0.0
 10
50.6150309528249
 20
35.56074109238593
 30
0.0
 10
50.6150309528249
 20
35.48973011166308
 30
0.0
  0
LINE
  5
BB
330
1F
100
AcDbEntity
  8
0
  6
Continuous
 62
     7
370
    25
100
AcDbLine
 10
50.6150309091
 20
35.1897301638
 30
0.0
 11
50.6150309091
 21
35.4897301199
 31
0.0
  0
SPLINE
  5
BC
330
1F
100
AcDbEntity
  8
0
  6
Continuous
 62
     7
370
    25
100
AcDbSpline
210
0.0
220
0.0
230
1.0
 70
     8
 71
     3
 72
     8
 73
     4
 74
     0
 42
0.000000001
 43
0.00000001
 40
0.0
 40
0.0
 40
0.0
 40
0.0
 40
1.0
 40
1.0
 40
1.0
 40
1.0
 10
61.94728901734102
 20
31.38062034168374
 30
0.0
 10
61.99964889490013
 20
31.37715961879831
 30
0.0
 10
62.05168634909226
 20
31.37369889591287
 30
0.0
 10
62.0887103735768
 20
31.37023817302743
 30
0.0
  0
LINE
  5
BD
330
1F
100
AcDbEntity
  8
0
  6
Continuous
 62
     7
370
    25
100
AcDbLine
 10
61.9472890255
 20
31.380620368
 30
0.0
 11
61.9472890255
 21
33.9897303397
 31
0.0
  0
LINE
  5
BE
330
1F
100
AcDbEntity
  8
0
  6
Continuous
 62
     7
370
    25
100
AcDbLine
 10
61.9472890255
 20
33.9897303397
 30
0.0
 11
62.1472891515
 21
33.9897303397
 31
0.0
  0
LINE
  5
BF
330
1F
100
AcDbEntity
  8
0
  6
Continuous
 62
     7
370
    25
100
AcDbLine
 10
62.1472891515
 20
33.9897303397
 30
0.0
 11
62.1472891515
 21
31.380620368
 31
0.0
  0
SPLINE
  5
C0
330
1F
100
AcDbEntity
  8
0
  6
Continuous
 62
     7
370
    25
100
AcDbSpline
210
0.0
220
0.0
230
1.0
 70
     8
 71
     3
 72
    13
 73
     9
 74
     0
 42
0.000000001
 43
0.00000001
 40
0.0
 40
0.0
 40
0.0
 40
0.0
 40
0.2842878077881049
 40
0.519827892959309
 40
0.7070197221587997
 40
0.8467888349864454
 40
0.9415879344586823
 40
0.9999999999999999
 40
0.9999999999999999
 40
0.9999999999999999
 40
0.9999999999999999
 10
62.0887103735768
 20
31.37023817302743
 30
0.0
 10
62.09876328973592
 20
31.36909214532398
 30
0.0
 10
62.11714531697005
 20
31.36699660288408
 30
0.0
 10
62.13380587176456
 20
31.36579014390038
 30
0.0
 10
62.14259143043932
 20
31.36611636931154
 30
0.0
 10
62.14619122659496
 20
31.36885125539963
 30
0.0
 10
62.1472433023463
 20
31.37189637978916
 30
0.0
 10
62.14727639912675
 20
31.37821236108242
 30
0.0
 10
62.14728901734102
 20
31.38062034168374
 30
0.0
  0
LINE
  5
C1
330
1F
100
AcDbEntity
  8
0
  6
Continuous
 62
     7
370
    25
100
AcDbLine
 10
50.8472887894
 20
35.6897302458
 30
0.0
 11
53.456398761
 21
35.6897302458
 31
0.0
  0
SPLINE
  5
C2
330
1F
100
AcDbEntity
  8
0
  6
Continuous
 62
     7
370
    25
100
AcDbSpline
210
0.0
220
0.0
230
1.0
 70
     8
 71
     3
 72
    12
 73
     8
 74
     0
 42
0.000000001
 43
0.00000001
 40
0.0
 40
0.0
 40
0.0
 40
0.0
 40
0.25
 40
0.25
 40
0.5
 40
0.5
 40
1.0
 40
1.0
 40
1.0
 40
1.0
 10
53.46678095597666
 20
35.63115146789886
 30
0.0
 10
53.46810029124408
 20
35.64259380940524
 30
0.0
 10
53.46960455879674
 20
35.6519761453937
 30
0.0
 10
53.47188636654889
 20
35.66725051916439
 30
0.0
 10
53.47266390674837
 20
35.67314255694662
 30
0.0
 10
53.4722615484316
 20
35.68652779222841
 30
0.0
 10
53.46834667100011
 20
35.68973011166307
 30
0.0
 10
53.45639878732036
 20
35.68973011166307
 30
0.0
  0
SPLINE
  5
C3
330
1F
100
AcDbEntity
  8
0
  6
Continuous
 62
     7
370
    25
100
AcDbSpline
210
0.0
220
0.0
230
1.0
 70
     8
 71
     3
 72
    10
 73
     6
 74
     0
 42
0.000000001
 43
0.00000001
 40
0.0
 40
0.0
 40
0.0
 40
0.0
 40
0.5
 40
0.5
 40
1.0
 40
1.0
 40
1.0
 40
1.0
 10
53.46678095597666
 20
35.63115146789886
 30
0.0
 10
53.46414228544182
 20
35.60826678488607
 30
0.0
 10
53.46154674327774
 20
35.5818213499082
 30
0.0
 10
53.45767499421701
 20
35.53146291737777
 30
0.0
 10
53.45639878732036
 20
35.50754991982522
 30
0.0
 10
53.45639878732036
 20
35.48973011166308
 30
0.0
  0
LINE
  5
C4
330
1F
100
AcDbEntity
  8
0
  6
Continuous
 62
     7
370
    25
100
AcDbLine
 10
53.456398761
 20
35.4897301199
 30
0.0
 11
50.8472887894
 21
35.4897301199
 31
0.0
  0
LINE
  5
C5
330
1F
100
AcDbEntity
  8
0
  6
Continuous
 62
     7
370
    25
100
AcDbLine
 10
50.8472887894
 20
35.6897302458
 30
0.0
 11
50.8472887894
 21
35.4897301199
 31
0.0
  0
LINE
  5
C6
330
1F
100
AcDbEntity
  8
0
  6
Continuous
 62
     7
370
    25
100
AcDbLine
 10
60.4472892453
 20
35.4897301199
 30
0.0
 11
57.8381792737
 21
35.4897301199
 31
0.0
  0
SPLINE
  5
C7
330
1F
100
AcDbEntity
  8
0
  6
Continuous
 62
     7
370
    25
100
AcDbSpline
210
0.0
220
0.0
230
1.0
 70
     8
 71
     3
 72
    10
 73
     6
 74
     0
 42
0.000000001
 43
0.00000001
 40
0.0
 40
0.0
 40
0.0
 40
0.0
 40
0.5
 40
0.5
 40
1.0
 40
1.0
 40
1.0
 40
1.0
 10
57.82779707870538
 20
35.63115146789886
 30
0.0
 10
57.83043574924022
 20
35.60826678488608
 30
0.0
 10
57.8330312914043
 20
35.5818213499082
 30
0.0
 10
57.83690304046503
 20
35.53146291737777
 30
0.0
 10
57.83817924736168
 20
35.50754991982522
 30
0.0
 10
57.83817924736168
 20
35.48973011166308
 30
0.0
  0
SPLINE
  5
C8
330
1F
100
AcDbEntity
  8
0
  6
Continuous
 62
     7
370
    25
100
AcDbSpline
210
0.0
220
0.0
230
1.0
 70
     8
 71
     3
 72
    12
 73
     8
 74
     0
 42
0.000000001
 43
0.00000001
 40
0.0
 40
0.0
 40
0.0
 40
0.0
 40
0.25
 40
0.25
 40
0.5
 40
0.5
 40
1.0
 40
1.0
 40
1.0
 40
1.0
 10
57.82779707870538
 20
35.63115146789886
 30
0.0
 10
57.82647774343796
 20
35.64259380940524
 30
0.0
 10
57.82497347588531
 20
35.6519761453937
 30
0.0
 10
57.82269166813315
 20
35.66725051916439
 30
0.0
 10
57.82191412793367
 20
35.67314255694662
 30
0.0
 10
57.82231648625044
 20
35.68652779222841
 30
0.0
 10
57.82623136368193
 20
35.68973011166307
 30
0.0
 10
57.83817924736168
 20
35.68973011166307
 30
0.0
  0
LINE
  5
C9
330
1F
100
AcDbEntity
  8
0
  6
Continuous
 62
     7
370
    25
100
AcDbLine
 10
57.8381792737
 20
35.6897302458
 30
0.0
 11
60.6472889056
 21
35.6897302458
 31
0.0
  0
LWPOLYLINE
  5
CA
330
1F
100
AcDbEntity
  8
0
  6
Continuous
 62
     7
370
    25
100
AcDbPolyline
 90
        9
 70
   128
 43
0.0
 10
60.4472892453
 20
35.4897301199
 10
60.4863070046
 20
35.5287483448
 10
60.5238258002
 20
35.5662666747
 10
60.5584030134
 20
35.6008443536
 10
60.5887105783
 20
35.6311514528
 10
60.6135829446
 20
35.6560238192
 10
60.6320650411
 20
35.6745059156
 10
60.6434462686
 20
35.6858871432
 10
60.6472889056
 20
35.6897302458
  0
LINE
  5
CB
330
1F
100
AcDbEntity
  8
0
  6
Continuous
 62
     7
370
    25
100
AcDbLine
 10
49.1472888832
 20
24.3897298837
 30
0.0
 11
49.1472888832
 21
26.9988398553
 31
0.0
  0
SPLINE
  5
CC
330
1F
100
AcDbEntity
  8
0
  6
Continuous
 62
     7
370
    25
100
AcDbSpline
210
0.0
220
0.0
230
1.0
 70
     8
 71
     3
 72
    12
 73
     8
 74
     0
 42
0.000000001
 43
0.00000001
 40
0.0
 40
0.0
 40
0.0
 40
0.0
 40
0.25
 40
0.25
 40
0.5
 40
0.5
 40
1.0
 40
1.0
 40
1.0
 40
1.0
 10
49.20586766110524
 20
27.00922205029872
 30
0.0
 10
49.19442531959885
 20
27.01054138556614
 30
0.0
 10
49.18504298361039
 20
27.01204565311879
 30
0.0
 10
49.1697686098397
 20
27.01432746087094
 30
0.0
 10
49.16387657205748
 20
27.01510500107043
 30
0.0
 10
49.15049133677568
 20
27.01470264275365
 30
0.0
 10
49.14728901734102
 20
27.01078776532215
 30
0.0
 10
49.14728901734102
 20
26.99883988164241
 30
0.0
  0
SPLINE
  5
CD
330
1F
100
AcDbEntity
  8
0
  6
Continuous
 62
     7
370
    25
100
AcDbSpline
210
0.0
220
0.0
230
1.0
 70
     8
 71
     3
 72
    10
 73
     6
 74
     0
 42
0.000000001
 43
0.00000001
 40
0.0
 40
0.0
 40
0.0
 40
0.0
 40
0.5
 40
0.5
 40
1.0
 40
1.0
 40
1.0
 40
1.0
 10
49.20586766110524
 20
27.00922205029872
 30
0.0
 10
49.22875234411802
 20
27.00658337976387
 30
0.0
 10
49.2551977790959
 20
27.0039878375998
 30
0.0
 10
49.30555621162632
 20
27.00011608853907
 30
0.0
 10
49.32946920917888
 20
26.99883988164241
 30
0.0
 10
49.34728901734102
 20
26.99883988164241
 30
0.0
  0
LINE
  5
CE
330
1F
100
AcDbEntity
  8
0
  6
Continuous
 62
     7
370
    25
100
AcDbLine
 10
49.3472890091
 20
26.9988398553
 30
0.0
 11
49.3472890091
 21
24.3897298837
 31
0.0
  0
LINE
  5
CF
330
1F
100
AcDbEntity
  8
0
  6
Continuous
 62
     7
370
    25
100
AcDbLine
 10
49.1472888832
 20
24.3897298837
 30
0.0
 11
49.3472890091
 21
24.3897298837
 31
0.0
  0
LINE
  5
D0
330
1F
100
AcDbEntity
  8
0
  6
Continuous
 62
     7
370
    25
100
AcDbLine
 10
61.9472890255
 20
31.380620368
 30
0.0
 11
61.9472890255
 21
29.1897301117
 31
0.0
  0
LINE
  5
D1
330
1F
100
AcDbEntity
  8
0
  6
Continuous
 62
     7
370
    25
100
AcDbLine
 10
61.9472890255
 20
29.1897301117
 30
0.0
 11
61.9472890255
 21
26.9988398553
 31
0.0
  0
LINE
  5
D2
330
1F
100
AcDbEntity
  8
0
  6
Continuous
 62
     7
370
    25
100
AcDbLine
 10
61.9472890255
 20
24.3897298837
 30
0.0
 11
61.9472890255
 21
26.9988398553
 31
0.0
  0
LINE
  5
D3
330
1F
100
AcDbEntity
  8
0
  6
Continuous
 62
     7
370
    25
100
AcDbLine
 10
49.3472890091
 20
24.3897298837
 30
0.0
 11
61.9472890255
 21
24.3897298837
 31
0.0
  0
LINE
  5
D4
330
1F
100
AcDbEntity
  8
0
  6
Continuous
 62
     7
370
    25
100
AcDbLine
 10
49.3472890091
 20
26.9988398553
 30
0.0
 11
49.3472890091
 21
29.1897301117
 31
0.0
  0
LINE
  5
D5
330
1F
100
AcDbEntity
  8
0
  6
Continuous
 62
     7
370
    25
100
AcDbLine
 10
49.3472890091
 20
29.1897301117
 30
0.0
 11
49.3472890091
 21
31.380620368
 31
0.0
  0
LINE
  5
D6
330
1F
100
AcDbEntity
  8
0
  6
Continuous
 62
     7
370
    25
100
AcDbLine
 10
49.3472890091
 20
33.9897303397
 30
0.0
 11
49.3472890091
 21
31.380620368
 31
0.0
  0
LINE
  5
D7
330
1F
100
AcDbEntity
  8
0
  6
Continuous
 62
     7
370
    25
100
AcDbLine
 10
49.6472889652
 20
33.9897303397
 30
0.0
 11
49.3472890091
 21
33.9897303397
 31
0.0
  0
ARC
  5
D8
330
1F
100
AcDbEntity
  8
0
  6
Continuous
 62
     7
370
    25
100
AcDbCircle
 10
49.6472890173
 20
35.1897301117
 30
0.0
 40
1.199999999999996
100
AcDbArc
 50
270.0
 51
0.0
  0
LINE
  5
D9
330
1F
100
AcDbEntity
  8
0
  6
Continuous
 62
     7
370
    25
100
AcDbLine
 10
50.8472887894
 20
35.4897301199
 30
0.0
 11
50.8472887894
 21
35.1897301638
 31
0.0
  0
LINE
  5
DA
330
1F
100
AcDbEntity
  8
0
  6
Continuous
 62
     7
370
    25
100
AcDbLine
 10
53.456398761
 20
35.4897301199
 30
0.0
 11
55.6472890173
 21
35.4897301199
 31
0.0
  0
LINE
  5
DB
330
1F
100
AcDbEntity
  8
0
  6
Continuous
 62
     7
370
    25
100
AcDbLine
 10
55.6472890173
 20
35.4897301199
 30
0.0
 11
57.8381792737
 21
35.4897301199
 31
0.0
  0
LINE
  5
DC
330
1F
100
AcDbEntity
  8
0
  6
Continuous
 62
     7
370
    25
100
AcDbLine
 10
60.4472892453
 20
35.1897301638
 30
0.0
 11
60.4472892453
 21
35.4897301199
 31
0.0
  0
ARC
  5
DD
330
1F
100
AcDbEntity
  8
0
  6
Continuous
 62
     7
370
    25
100
AcDbCircle
 10
61.6472890173
 20
35.1897301117
 30
0.0
 40
1.199999999999996
100
AcDbArc
 50
180.0
 51
270.0
  0
LINE
  5
DE
330
1F
100
AcDbEntity
  8
0
  6
Continuous
 62
     7
370
    25
100
AcDbLine
 10
61.9472890255
 20
33.9897303397
 30
0.0
 11
61.6472890695
 21
33.9897303397
 31
0.0
  0
LINE
  5
DF
330
1F
100
AcDbEntity
  8
0
  6
Continuous
 62
     7
370
    25
100
AcDbLine
 10
56.8543864508
 20
26.8922455629
 30
0.0
 11
57.9502222688
 21
29.9561543992
 31
0.0
  0
SPLINE
  5
E0
330
1F
100
AcDbEntity
  8
0
  6
Continuous
 62
     7
370
    25
100
AcDbSpline
210
0.0
220
0.0
230
1.0
 70
     8
 71
     3
 72
    10
 73
     6
 74
     0
 42
0.000000001
 43
0.00000001
 40
0.0
 40
0.0
 40
0.0
 40
0.0
 40
0.5000000000000002
 40
0.5000000000000002
 40
1.0
 40
1.0
 40
1.0
 40
1.0
 10
56.2881365023788
 20
26.69542488627371
 30
0.0
 10
56.38809679504561
 20
26.64041562694584
 30
0.0
 10
56.50958511334175
 20
26.63049541536883
 30
0.0
 10
56.72410716699532
 20
26.70201630029232
 30
0.0
 10
56.8159083599999
 20
26.78466240518054
 30
0.0
 10
56.8543864857799
 20
26.89224554949433
 30
0.0
  0
LINE
  5
E1
330
1F
100
AcDbEntity
  8
0
  6
Continuous
 62
     7
370
    25
100
AcDbLine
 10
55.6611309446
 20
27.0404730012
 30
0.0
 11
56.2881365047
 21
26.6954249723
 31
0.0
  0
LINE
  5
E2
330
1F
100
AcDbEntity
  8
0
  6
Continuous
 62
     7
370
    25
100
AcDbLine
 10
56.6603802006
 20
25.13557072
 30
0.0
 11
55.6611309446
 21
27.0404730012
 31
0.0
  0
SPLINE
  5
E3
330
1F
100
AcDbEntity
  8
0
  6
Continuous
 62
     7
370
    25
100
AcDbSpline
210
0.0
220
0.0
230
1.0
 70
     8
 71
     3
 72
    10
 73
     6
 74
     0
 42
0.000000001
 43
0.00000001
 40
0.0
 40
0.0
 40
0.0
 40
0.0
 40
0.5
 40
0.5
 40
1.0
 40
1.0
 40
1.0
 40
1.0
 10
57.08614677407746
 20
25.05894989866669
 30
0.0
 10
57.02354694835061
 20
25.00338624886671
 30
0.0
 10
56.93616205019614
 20
24.97953947925905
 30
0.0
 10
56.77340445826211
 20
25.0084697319393
 30
0.0
 10
56.69926631312522
 20
25.06144067971625
 30
0.0
 10
56.66038014991638
 20
25.13557067902483
 30
0.0
  0
SPLINE
  5
E4
330
1F
100
AcDbEntity
  8
0
  6
Continuous
 62
     7
370
    25
100
AcDbSpline
210
0.0
220
0.0
230
1.0
 70
     8
 71
     3
 72
    16
 73
    12
 74
     0
 42
0.000000001
 43
0.00000001
 40
0.0
 40
0.0
 40
0.0
 40
0.0
 40
0.5000000000000006
 40
0.5000000000000006
 40
0.6250000000000004
 40
0.6250000000000004
 40
0.7500000000000003
 40
0.7500000000000003
 40
0.8750000000000003
 40
0.8750000000000003
 40
1.0
 40
1.0
 40
1.0
 40
1.0
 10
60.20843126060457
 20
25.05894989866666
 30
0.0
 10
59.77969035244308
 20
25.43950063342369
 30
0.0
 10
59.21532892797406
 20
25.64383407079506
 30
0.0
 10
58.5054999687801
 20
25.6438861769605
 30
0.0
 10
58.36196075855435
 20
25.63110650846006
 30
0.0
 10
58.08332320755727
 20
25.58109341259496
 30
0.0
 10
57.94681595925979
 20
25.54395845236099
 30
0.0
 10
57.67962891237259
 20
25.44454998345783
 30
0.0
 10
57.55041589525261
 20
25.38256727136882
 30
0.0
 10
57.30783485963779
 20
25.23753047279564
 30
0.0
 10
57.19334277373972
 20
25.15409714414275
 30
0.0
 10
57.08614677407746
 20
25.05894989866669
 30
0.0
  0
SPLINE
  5
E5
330
1F
100
AcDbEntity
  8
0
  6
Continuous
 62
     7
370
    25
100
AcDbSpline
210
0.0
220
0.0
230
1.0
 70
     8
 71
     3
 72
    10
 73
     6
 74
     0
 42
0.000000001
 43
0.00000001
 40
0.0
 40
0.0
 40
0.0
 40
0.0
 40
0.5
 40
0.5
 40
1.0
 40
1.0
 40
1.0
 40
1.0
 10
60.63419788476585
 20
25.13557067902505
 30
0.0
 10
60.59531559756663
 20
25.06144806868359
 30
0.0
 10
60.52160148146975
 20
25.00866390999172
 30
0.0
 10
60.35875244432914
 20
24.97948172053231
 30
0.0
 10
60.27102080729964
 20
25.00339537254253
 30
0.0
 10
60.20843126060457
 20
25.05894989866666
 30
0.0
  0
LINE
  5
E6
330
1F
100
AcDbEntity
  8
0
  6
Continuous
 62
     7
370
    25
100
AcDbLine
 10
61.6426948552
 20
27.0581022391
 30
0.0
 11
60.6341977698
 21
25.13557072
 31
0.0
  0
LINE
  5
E7
330
1F
100
AcDbEntity
  8
0
  6
Continuous
 62
     7
370
    25
100
AcDbLine
 10
61.0122467486
 20
26.6978259219
 30
0.0
 11
61.6426948552
 21
27.0581022391
 31
0.0
  0
SPLINE
  5
E8
330
1F
100
AcDbEntity
  8
0
  6
Continuous
 62
     7
370
    25
100
AcDbSpline
210
0.0
220
0.0
230
1.0
 70
     8
 71
     3
 72
    10
 73
     6
 74
     0
 42
0.000000001
 43
0.00000001
 40
0.0
 40
0.0
 40
0.0
 40
0.0
 40
0.5
 40
0.5
 40
1.0
 40
1.0
 40
1.0
 40
1.0
 10
60.44044610653175
 20
26.89153381757561
 30
0.0
 10
60.47935617224103
 20
26.78274298825151
 30
0.0
 10
60.5729271706467
 20
26.69965773591804
 30
0.0
 10
60.78903965235559
 20
26.62945787449263
 30
0.0
 10
60.91209401213974
 20
26.64059283136146
 30
0.0
 10
61.01224652509141
 20
26.69782601955966
 30
0.0
  0
LINE
  5
E9
330
1F
100
AcDbEntity
  8
0
  6
Continuous
 62
     7
370
    25
100
AcDbLine
 10
59.3443555852
 20
29.9561543992
 30
0.0
 11
60.4404458871
 21
26.8915337996
 31
0.0
  0
SPLINE
  5
EA
330
1F
100
AcDbEntity
  8
0
  6
Continuous
 62
     7
370
    25
100
AcDbSpline
210
0.0
220
0.0
230
1.0
 70
     8
 71
     3
 72
    18
 73
    14
 74
     0
 42
0.000000001
 43
0.00000001
 40
0.0
 40
0.0
 40
0.0
 40
0.0
 40
0.1250000000000005
 40
0.1250000000000005
 40
0.2500000000000009
 40
0.2500000000000009
 40
0.5000000000000011
 40
0.5000000000000011
 40
0.6250000000000009
 40
0.6250000000000009
 40
0.7500000000000006
 40
0.7500000000000006
 40
1.0
 40
1.0
 40
1.0
 40
1.0
 10
57.95022237214419
 20
29.95615440462718
 30
0.0
 10
57.98213265305153
 20
30.02147347853873
 30
0.0
 10
58.02203614399349
 20
30.08289829902648
 30
0.0
 10
58.11870738041898
 20
30.18995731468572
 30
0.0
 10
58.1739009039711
 20
30.23580105540805
 30
0.0
 10
58.3598128203182
 20
30.35019464286758
 30
0.0
 10
58.5030573608928
 20
30.38961105347701
 30
0.0
 10
58.71842058771308
 20
30.38978923359479
 30
0.0
 10
58.79149187253031
 20
30.3798808685077
 30
0.0
 10
58.93096359873318
 20
30.34069446070447
 30
0.0
 10
58.99675463599076
 20
30.31202549520956
 30
0.0
 10
59.18200154451949
 20
30.19812014793618
 30
0.0
 10
59.2805308819582
 20
30.08680118809358
 30
0.0
 10
59.34435566253778
 20
29.95615440462749
 30
0.0
  0
SPLINE
  5
EB
330
1F
100
AcDbEntity
  8
0
  6
Continuous
 62
     7
370
    25
100
AcDbSpline
210
0.0
220
0.0
230
1.0
 70
     8
 71
     3
 72
    14
 73
    10
 74
     0
 42
0.000000001
 43
0.00000001
 40
0.0
 40
0.0
 40
0.0
 40
0.0
 40
0.0484828720475278
 40
0.1220284832782636
 40
0.2276256188317521
 40
0.3675218964939739
 40
0.5426290638215259
 40
0.7533807556067993
 40
1.0
 40
1.0
 40
1.0
 40
1.0
 10
49.14728901734102
 20
31.38062034168373
 30
0.0
 10
49.14729605492587
 20
31.37852998150144
 30
0.0
 10
49.14731376810519
 20
31.37326867020164
 30
0.0
 10
49.14792298531653
 20
31.36995274535666
 30
0.0
 10
49.14999161595119
 20
31.36711215907555
 30
0.0
 10
49.15492580809808
 20
31.36593496683687
 30
0.0
 10
49.1646043447824
 20
31.36597100464708
 30
0.0
 10
49.18074315872311
 20
31.36738814332231
 30
0.0
 10
49.19706613806666
 20
31.36923976112941
 30
0.0
 10
49.20586766110524
 20
31.37023817302743
 30
0.0
  0
LINE
  5
EC
330
1F
100
AcDbEntity
  8
0
  6
Continuous
 62
     7
370
    25
100
AcDbLine
 10
49.1472888832
 20
31.380620368
 30
0.0
 11
49.1472888832
 21
33.9897303397
 31
0.0
  0
LINE
  5
ED
330
1F
100
AcDbEntity
  8
0
  6
Continuous
 62
     7
370
    25
100
AcDbLine
 10
49.1472888832
 20
33.9897303397
 30
0.0
 11
49.3472890091
 21
33.9897303397
 31
0.0
  0
SPLINE
  5
EE
330
1F
100
AcDbEntity
  8
0
  6
Continuous
 62
     7
370
    25
100
AcDbSpline
210
0.0
220
0.0
230
1.0
 70
     8
 71
     3
 72
     8
 73
     4
 74
     0
 42
0.000000001
 43
0.00000001
 40
0.0
 40
0.0
 40
0.0
 40
0.0
 40
1.0
 40
1.0
 40
1.0
 40
1.0
 10
49.20586766110524
 20
31.37023817302743
 30
0.0
 10
49.24289168558978
 20
31.37369889591287
 30
0.0
 10
49.29492913978191
 20
31.37715961879831
 30
0.0
 10
49.34728901734102
 20
31.38062034168373
 30
0.0
  0
SPLINE
  5
EF
330
1F
100
AcDbEntity
  8
0
  6
Continuous
 62
     7
370
    25
100
AcDbSpline
210
0.0
220
0.0
230
1.0
 70
     8
 71
     3
 72
    10
 73
     6
 74
     0
 42
0.000000001
 43
0.00000001
 40
0.0
 40
0.0
 40
0.0
 40
0.0
 40
0.5
 40
0.5
 40
1.0
 40
1.0
 40
1.0
 40
1.0
 10
62.0887103735768
 20
27.00922205029872
 30
0.0
 10
62.06582569056402
 20
27.00658337976388
 30
0.0
 10
62.03938025558614
 20
27.0039878375998
 30
0.0
 10
61.98902182305572
 20
27.00011608853907
 30
0.0
 10
61.96510882550316
 20
26.99883988164241
 30
0.0
 10
61.94728901734102
 20
26.99883988164241
 30
0.0
  0
SPLINE
  5
F0
330
1F
100
AcDbEntity
  8
0
  6
Continuous
 62
     7
370
    25
100
AcDbSpline
210
0.0
220
0.0
230
1.0
 70
     8
 71
     3
 72
    12
 73
     8
 74
     0
 42
0.000000001
 43
0.00000001
 40
0.0
 40
0.0
 40
0.0
 40
0.0
 40
0.25
 40
0.25
 40
0.5
 40
0.5
 40
1.0
 40
1.0
 40
1.0
 40
1.0
 10
62.0887103735768
 20
27.00922205029872
 30
0.0
 10
62.10015271508319
 20
27.01054138556614
 30
0.0
 10
62.10953505107165
 20
27.0120456531188
 30
0.0
 10
62.12480942484234
 20
27.01432746087094
 30
0.0
 10
62.13070146262456
 20
27.01510500107043
 30
0.0
 10
62.14408669790636
 20
27.01470264275365
 30
0.0
 10
62.14728901734102
 20
27.01078776532216
 30
0.0
 10
62.14728901734102
 20
26.99883988164241
 30
0.0
  0
LINE
  5
F1
330
1F
100
AcDbEntity
  8
0
  6
Continuous
 62
     7
370
    25
100
AcDbLine
 10
62.1472891515
 20
26.9988398553
 30
0.0
 11
62.1472891515
 21
24.3897298837
 31
0.0
  0
LINE
  5
F2
330
1F
100
AcDbEntity
  8
0
  6
Continuous
 62
     7
370
    25
100
AcDbLine
 10
61.9472890255
 20
24.3897298837
 30
0.0
 11
62.1472891515
 21
24.3897298837
 31
0.0
  0
SPLINE
  5
F3
330
1F
100
AcDbEntity
  8
0
  6
Continuous
 62
     7
370
    25
100
AcDbSpline
210
0.0
220
0.0
230
1.0
 70
    24
 71
     3
 72
    10
 73
     6
 74
     0
 42
0.000000001
 43
0.00000001
 40
0.0
 40
0.0
 40
0.0
 40
0.0
 40
0.5
 40
0.5
 40
1.0
 40
1.0
 40
1.0
 40
1.0
 10
49.14600522503765
 20
29.18973011166307
 30
0.0
 10
49.17875305270721
 20
29.18973011166307
 30
0.0
 10
49.21388922724184
 20
29.18973011166307
 30
0.0
 10
49.28662817824912
 20
29.18973011166307
 30
0.0
 10
49.31305169713696
 20
29.18973011166307
 30
0.0
 10
49.34728901734102
 20
29.18973011166307
 30
0.0
  0
SPLINE
  5
F4
330
1F
100
AcDbEntity
  8
0
  6
Continuous
 62
     7
370
    25
100
AcDbSpline
210
0.0
220
0.0
230
1.0
 70
     8
 71
     3
 72
    12
 73
     8
 74
     0
 42
0.000000001
 43
0.00000001
 40
0.0
 40
0.0
 40
0.0
 40
0.0
 40
0.25
 40
0.25
 40
0.5
 40
0.5
 40
1.0
 40
1.0
 40
1.0
 40
1.0
 10
49.14600522503765
 20
29.18973011166307
 30
0.0
 10
49.15419218195503
 20
29.00854431560811
 30
0.0
 10
49.16021081373554
 20
28.82759833051993
 30
0.0
 10
49.17164765097905
 20
28.46453716814991
 30
0.0
 10
49.17706585644205
 20
28.28242199086807
 30
0.0
 10
49.19802416928921
 20
27.73184944954125
 30
0.0
 10
49.20577340610615
 20
27.37274731843215
 30
0.0
 10
49.20586766110524
 20
27.00922205029872
 30
0.0
  0
SPLINE
  5
F5
330
1F
100
AcDbEntity
  8
0
  6
Continuous
 62
     7
370
    25
100
AcDbSpline
210
0.0
220
0.0
230
1.0
 70
     8
 71
     3
 72
    12
 73
     8
 74
     0
 42
0.000000001
 43
0.00000001
 40
0.0
 40
0.0
 40
0.0
 40
0.0
 40
0.25
 40
0.25
 40
0.5
 40
0.5
 40
1.0
 40
1.0
 40
1.0
 40
1.0
 10
62.14857280964439
 20
29.18973011166308
 30
0.0
 10
62.140385852727
 20
29.37091590771804
 30
0.0
 10
62.13436722094649
 20
29.55186189280623
 30
0.0
 10
62.12293038370299
 20
29.91492305517625
 30
0.0
 10
62.11751217823998
 20
30.09703823245809
 30
0.0
 10
62.09655386539283
 20
30.6476107737849
 30
0.0
 10
62.08880462857589
 20
31.00671290489401
 30
0.0
 10
62.0887103735768
 20
31.37023817302743
 30
0.0
  0
SPLINE
  5
F6
330
1F
100
AcDbEntity
  8
0
  6
Continuous
 62
     7
370
    25
100
AcDbSpline
210
0.0
220
0.0
230
1.0
 70
    24
 71
     3
 72
    10
 73
     6
 74
     0
 42
0.000000001
 43
0.00000001
 40
0.0
 40
0.0
 40
0.0
 40
0.0
 40
0.5
 40
0.5
 40
1.0
 40
1.0
 40
1.0
 40
1.0
 10
62.14857280964439
 20
29.18973011166308
 30
0.0
 10
62.11582498197482
 20
29.18973011166308
 30
0.0
 10
62.0806888074402
 20
29.18973011166308
 30
0.0
 10
62.00794985643292
 20
29.18973011166308
 30
0.0
 10
61.98152633754508
 20
29.18973011166308
 30
0.0
 10
61.94728901734102
 20
29.18973011166308
 30
0.0
  0
SPLINE
  5
F7
330
1F
100
AcDbEntity
  8
0
  6
Continuous
 62
     7
370
    25
100
AcDbSpline
210
0.0
220
0.0
230
1.0
 70
     8
 71
     3
 72
    12
 73
     8
 74
     0
 42
0.000000001
 43
0.00000001
 40
0.0
 40
0.0
 40
0.0
 40
0.0
 40
0.25
 40
0.25
 40
0.5
 40
0.5
 40
1.0
 40
1.0
 40
1.0
 40
1.0
 10
49.14600522503765
 20
29.18973011166307
 30
0.0
 10
49.15419218195505
 20
29.37091590771804
 30
0.0
 10
49.16021081373555
 20
29.55186189280622
 30
0.0
 10
49.17164765097906
 20
29.91492305517625
 30
0.0
 10
49.17706585644206
 20
30.09703823245808
 30
0.0
 10
49.19802416928921
 20
30.6476107737849
 30
0.0
 10
49.20577340610615
 20
31.006712904894
 30
0.0
 10
49.20586766110524
 20
31.37023817302743
 30
0.0
  0
SPLINE
  5
F8
330
1F
100
AcDbEntity
  8
0
  6
Continuous
 62
     7
370
    25
100
AcDbSpline
210
0.0
220
0.0
230
1.0
 70
     8
 71
     3
 72
    12
 73
     8
 74
     0
 42
0.000000001
 43
0.00000001
 40
0.0
 40
0.0
 40
0.0
 40
0.0
 40
0.25
 40
0.25
 40
0.5
 40
0.5
 40
1.0
 40
1.0
 40
1.0
 40
1.0
 10
62.14857280964439
 20
29.18973011166308
 30
0.0
 10
62.14038585272699
 20
29.00854431560811
 30
0.0
 10
62.13436722094649
 20
28.82759833051993
 30
0.0
 10
62.12293038370298
 20
28.46453716814991
 30
0.0
 10
62.11751217823998
 20
28.28242199086807
 30
0.0
 10
62.09655386539283
 20
27.73184944954125
 30
0.0
 10
62.08880462857589
 20
27.37274731843215
 30
0.0
 10
62.0887103735768
 20
27.00922205029872
 30
0.0
  0
SPLINE
  5
F9
330
1F
100
AcDbEntity
  8
0
  6
Continuous
 62
     7
370
    25
100
AcDbSpline
210
0.0
220
0.0
230
1.0
 70
     8
 71
     3
 72
    12
 73
     8
 74
     0
 42
0.000000001
 43
0.00000001
 40
0.0
 40
0.0
 40
0.0
 40
0.0
 40
0.25
 40
0.25
 40
0.5
 40
0.5
 40
1.0
 40
1.0
 40
1.0
 40
1.0
 10
55.64728901734102
 20
35.69101390396644
 30
0.0
 10
55.82847481339599
 20
35.68282694704906
 30
0.0
 10
56.00942079848417
 20
35.67680831526856
 30
0.0
 10
56.37248196085419
 20
35.66537147802505
 30
0.0
 10
56.55459713813603
 20
35.65995327256205
 30
0.0
 10
57.10516967946285
 20
35.63899495971489
 30
0.0
 10
57.46427181057194
 20
35.63124572289795
 30
0.0
 10
57.82779707870538
 20
35.63115146789886
 30
0.0
  0
SPLINE
  5
FA
330
1F
100
AcDbEntity
  8
0
  6
Continuous
 62
     7
370
    25
100
AcDbSpline
210
0.0
220
0.0
230
1.0
 70
    24
 71
     3
 72
    10
 73
     6
 74
     0
 42
0.000000001
 43
0.00000001
 40
0.0
 40
0.0
 40
0.0
 40
0.0
 40
0.5
 40
0.5
 40
1.0
 40
1.0
 40
1.0
 40
1.0
 10
55.64728901734102
 20
35.69101390396644
 30
0.0
 10
55.64728901734102
 20
35.65826607629689
 30
0.0
 10
55.64728901734102
 20
35.62312990176226
 30
0.0
 10
55.64728901734102
 20
35.55039095075497
 30
0.0
 10
55.64728901734102
 20
35.52396743186713
 30
0.0
 10
55.64728901734102
 20
35.48973011166308
 30
0.0
  0
SPLINE
  5
FB
330
1F
100
AcDbEntity
  8
0
  6
Continuous
 62
     7
370
    25
100
AcDbSpline
210
0.0
220
0.0
230
1.0
 70
     8
 71
     3
 72
    12
 73
     8
 74
     0
 42
0.000000001
 43
0.00000001
 40
0.0
 40
0.0
 40
0.0
 40
0.0
 40
0.25
 40
0.25
 40
0.5
 40
0.5
 40
1.0
 40
1.0
 40
1.0
 40
1.0
 10
55.64728901734102
 20
35.69101390396644
 30
0.0
 10
55.46610322128605
 20
35.68282694704905
 30
0.0
 10
55.28515723619788
 20
35.67680831526854
 30
0.0
 10
54.92209607382785
 20
35.66537147802503
 30
0.0
 10
54.73998089654601
 20
35.65995327256203
 30
0.0
 10
54.18940835521919
 20
35.63899495971488
 30
0.0
 10
53.8303062241101
 20
35.63124572289795
 30
0.0
 10
53.46678095597666
 20
35.63115146789886
 30
0.0
  0
SPLINE
  5
FC
330
1F
100
AcDbEntity
  8
0
  6
Continuous
 62
     7
370
    25
100
AcDbSpline
210
0.0
220
0.0
230
1.0
 70
    24
 71
     3
 72
    10
 73
     6
 74
     0
 42
0.000000001
 43
0.00000001
 40
0.0
 40
0.0
 40
0.0
 40
0.0
 40
0.5
 40
0.5
 40
1.0
 40
1.0
 40
1.0
 40
1.0
 10
58.13479974778193
 20
29.87834349439586
 30
0.0
 10
58.13479974778193
 20
29.87834349439587
 30
0.0
 10
58.11476790867756
 20
29.8867881676877
 30
0.0
 10
58.04667917482045
 20
29.91549182835909
 30
0.0
 10
57.99825793707833
 20
29.93590440910414
 30
0.0
 10
57.9502223721442
 20
29.95615440462717
 30
0.0
  0
LINE
  5
FD
330
1F
100
AcDbEntity
  8
0
  6
Continuous
 62
     7
370
    25
100
AcDbLine
 10
58.1347996929
 20
29.8783435041
 30
0.0
 11
57.0427040664
 21
26.8248920815
 31
0.0
  0
LWPOLYLINE
  5
FE
330
1F
100
AcDbEntity
  8
0
  6
Continuous
 62
     7
370
    25
100
AcDbPolyline
 90
        9
 70
   128
 43
0.0
 10
56.8543864508
 20
26.8922455629
 10
56.8911253802
 20
26.8791055327
 10
56.9264525409
 20
26.8664705122
 10
56.9590100647
 20
26.8548259532
 10
56.987547069
 20
26.8446193562
 10
57.0109668049
 20
26.836243041
 10
57.0283692657
 20
26.8300190122
 10
57.0390855289
 20
26.8261861542
 10
57.0427040664
 20
26.8248920815
  0
LINE
  5
FF
330
1F
100
AcDbEntity
  8
0
  6
Continuous
 62
     7
370
    25
100
AcDbLine
 10
60.2521287372
 20
26.8241803182
 30
0.0
 11
59.1597783939
 21
29.8783435041
 31
0.0
  0
SPLINE
  5
100
330
1F
100
AcDbEntity
  8
0
  6
Continuous
 62
     7
370
    25
100
AcDbSpline
210
0.0
220
0.0
230
1.0
 70
    24
 71
     3
 72
    10
 73
     6
 74
     0
 42
0.000000001
 43
0.00000001
 40
0.0
 40
0.0
 40
0.0
 40
0.0
 40
0.5
 40
0.5
 40
1.0
 40
1.0
 40
1.0
 40
1.0
 10
59.1597782869001
 20
29.87834349439598
 30
0.0
 10
59.15977828690009
 20
29.87834349439599
 30
0.0
 10
59.17981012600445
 20
29.88678816768785
 30
0.0
 10
59.24789885986156
 20
29.91549182835931
 30
0.0
 10
59.29632009760368
 20
29.93590440910437
 30
0.0
 10
59.34435566253778
 20
29.95615440462749
 30
0.0
  0
LWPOLYLINE
  5
101
330
1F
100
AcDbEntity
  8
0
  6
Continuous
 62
     7
370
    25
100
AcDbPolyline
 90
        9
 70
   128
 43
0.0
 10
60.2521287372
 20
26.8241803182
 10
60.2557469254
 20
26.8254743909
 10
60.2664631886
 20
26.829307249
 10
60.2838658822
 20
26.8355312777
 10
60.3072853853
 20
26.843907593
 10
60.335822506
 20
26.8541141899
 10
60.3683801462
 20
26.8657587489
 10
60.4037070741
 20
26.8783937694
 10
60.4404458871
 20
26.8915337996
  0
SPLINE
  5
102
330
1F
100
AcDbEntity
  8
0
  6
Continuous
 62
     7
370
    25
100
AcDbSpline
210
0.0
220
0.0
230
1.0
 70
     8
 71
     3
 72
    14
 73
    10
 74
     0
 42
0.000000001
 43
0.00000001
 40
0.0
 40
0.0
 40
0.0
 40
0.0
 40
0.25
 40
0.25
 40
0.5
 40
0.5
 40
0.75
 40
0.75
 40
1.0
 40
1.0
 40
1.0
 40
1.0
 10
59.1597782869001
 20
29.87834349439598
 30
0.0
 10
59.11701966425272
 20
29.96586869171892
 30
0.0
 10
59.04384654517503
 20
30.04895193287239
 30
0.0
 10
58.85848904548168
 20
30.16157447590485
 30
0.0
 10
58.74858194333662
 20
30.18973011166301
 30
0.0
 10
58.54599609134509
 20
30.18973011166313
 30
0.0
 10
58.43608898920012
 20
30.16157447590505
 30
0.0
 10
58.25073148950676
 20
30.04895193287251
 30
0.0
 10
58.17755837042913
 20
29.96586869171889
 30
0.0
 10
58.13479974778193
 20
29.87834349439586
 30
0.0
  0
SPLINE
  5
103
330
1F
100
AcDbEntity
  8
0
  6
Continuous
 62
     7
370
    25
100
AcDbSpline
210
0.0
220
0.0
230
1.0
 70
     8
 71
     3
 72
     8
 73
     4
 74
     0
 42
0.000000001
 43
0.00000001
 40
0.0
 40
0.0
 40
0.0
 40
0.0
 40
1.0
 40
1.0
 40
1.0
 40
1.0
 10
57.76750536897391
 20
35.88973011166308
 30
0.0
 10
57.76437220462427
 20
35.83736823176107
 30
0.0
 10
57.76885223022101
 20
35.78532883615404
 30
0.0
 10
57.77871250422102
 20
35.74830450788036
 30
0.0
  0
SPLINE
  5
104
330
1F
100
AcDbEntity
  8
0
  6
Continuous
 62
     7
370
    25
100
AcDbSpline
210
0.0
220
0.0
230
1.0
 70
     8
 71
     3
 72
    12
 73
     8
 74
     0
 42
0.000000001
 43
0.00000001
 40
0.0
 40
0.0
 40
0.0
 40
0.0
 40
0.25
 40
0.25
 40
0.5
 40
0.5
 40
1.0
 40
1.0
 40
1.0
 40
1.0
 10
55.64728901734102
 20
35.69101390396644
 30
0.0
 10
55.82847481339599
 20
35.69920086088383
 30
0.0
 10
56.00848948198028
 20
35.71095288068008
 30
0.0
 10
56.36618046391202
 20
35.73643884777916
 30
0.0
 10
56.54385677725948
 20
35.75017279508199
 30
0.0
 10
57.07338403400337
 20
35.78662523087378
 30
0.0
 10
57.42969164370668
 20
35.78115595791482
 30
0.0
 10
57.77871250422102
 20
35.74830450788036
 30
0.0
  0
SPLINE
  5
105
330
1F
100
AcDbEntity
  8
0
  6
Continuous
 62
     7
370
    25
100
AcDbSpline
210
0.0
220
0.0
230
1.0
 70
    24
 71
     3
 72
    10
 73
     6
 74
     0
 42
0.000000001
 43
0.00000001
 40
0.0
 40
0.0
 40
0.0
 40
0.0
 40
0.5
 40
0.5
 40
1.0
 40
1.0
 40
1.0
 40
1.0
 10
55.64728901734102
 20
35.69101390396644
 30
0.0
 10
55.64728901734102
 20
35.723761731636
 30
0.0
 10
55.64728901734102
 20
35.75851875915477
 30
0.0
 10
55.64728901734102
 20
35.82979491705272
 30
0.0
 10
55.64728901734102
 20
35.85579722971363
 30
0.0
 10
55.64728901734102
 20
35.88973011166308
 30
0.0
  0
SPLINE
  5
106
330
1F
100
AcDbEntity
  8
0
  6
Continuous
 62
     7
370
    25
100
AcDbSpline
210
0.0
220
0.0
230
1.0
 70
    24
 71
     3
 72
    10
 73
     6
 74
     0
 42
0.000000001
 43
0.00000001
 40
0.0
 40
0.0
 40
0.0
 40
0.0
 40
0.5
 40
0.5
 40
1.0
 40
1.0
 40
1.0
 40
1.0
 10
49.14600522503765
 20
29.18973011166307
 30
0.0
 10
49.11325739736809
 20
29.18973011166307
 30
0.0
 10
49.07850036984933
 20
29.18973011166307
 30
0.0
 10
49.00722421195137
 20
29.18973011166307
 30
0.0
 10
48.98122189929047
 20
29.18973011166307
 30
0.0
 10
48.94728901734102
 20
29.18973011166308
 30
0.0
  0
SPLINE
  5
107
330
1F
100
AcDbEntity
  8
0
  6
Continuous
 62
     7
370
    25
100
AcDbSpline
210
0.0
220
0.0
230
1.0
 70
     8
 71
     3
 72
    10
 73
     6
 74
     0
 42
0.000000001
 43
0.00000001
 40
0.0
 40
0.0
 40
0.0
 40
0.0
 40
0.5
 40
0.5
 40
1.0
 40
1.0
 40
1.0
 40
1.0
 10
49.08871462112374
 20
31.32115359854308
 30
0.0
 10
49.06583048962737
 20
31.31551604910405
 30
0.0
 10
49.03829934441228
 20
31.31252103097627
 30
0.0
 10
48.98785859713302
 20
31.30981998901299
 30
0.0
 10
48.9651101209485
 20
31.30994646329598
 30
0.0
 10
48.94728901734102
 20
31.30994646329598
 30
0.0
  0
SPLINE
  5
108
330
1F
100
AcDbEntity
  8
0
  6
Continuous
 62
     7
370
    25
100
AcDbSpline
210
0.0
220
0.0
230
1.0
 70
     8
 71
     3
 72
    14
 73
    10
 74
     0
 42
0.000000001
 43
0.00000001
 40
0.0
 40
0.0
 40
0.0
 40
0.0
 40
0.25
 40
0.25
 40
0.5
 40
0.5
 40
0.75
 40
0.75
 40
1.0
 40
1.0
 40
1.0
 40
1.0
 10
49.14600522503765
 20
29.18973011166307
 30
0.0
 10
49.13781826812027
 20
29.37091590771804
 30
0.0
 10
49.12606624832404
 20
29.55093057630233
 30
0.0
 10
49.10058028122495
 20
29.90862155823407
 30
0.0
 10
49.08684633392212
 20
30.08629787158153
 30
0.0
 10
49.06254471006092
 20
30.43931604274412
 30
0.0
 10
49.05783662233536
 20
30.6166474879606
 30
0.0
 10
49.06270871535816
 20
30.9703110507315
 30
0.0
 10
49.07228889610651
 20
31.14664316828591
 30
0.0
 10
49.08871462112374
 20
31.32115359854308
 30
0.0
  0
SPLINE
  5
109
330
1F
100
AcDbEntity
  8
0
  6
Continuous
 62
     7
370
    25
100
AcDbSpline
210
0.0
220
0.0
230
1.0
 70
     8
 71
     3
 72
    12
 73
     8
 74
     0
 42
0.000000001
 43
0.00000001
 40
0.0
 40
0.0
 40
0.0
 40
0.0
 40
0.25
 40
0.25
 40
0.5
 40
0.5
 40
1.0
 40
1.0
 40
1.0
 40
1.0
 10
62.14857280964439
 20
29.18973011166308
 30
0.0
 10
62.15675976656178
 20
29.37091590771804
 30
0.0
 10
62.16851178635802
 20
29.55093057630233
 30
0.0
 10
62.1939977534571
 20
29.90862155823408
 30
0.0
 10
62.20773170075993
 20
30.08629787158153
 30
0.0
 10
62.24418413655172
 20
30.61582512832543
 30
0.0
 10
62.23871486359276
 20
30.97213273802874
 30
0.0
 10
62.2058634135583
 20
31.32115359854309
 30
0.0
  0
SPLINE
  5
10A
330
1F
100
AcDbEntity
  8
0
  6
Continuous
 62
     7
370
    25
100
AcDbSpline
210
0.0
220
0.0
230
1.0
 70
     8
 71
     3
 72
    10
 73
     6
 74
     0
 42
0.000000001
 43
0.00000001
 40
0.0
 40
0.0
 40
0.0
 40
0.0
 40
0.5
 40
0.5
 40
1.0
 40
1.0
 40
1.0
 40
1.0
 10
62.2058634135583
 20
31.32115359854309
 30
0.0
 10
62.22874754505467
 20
31.31551604910405
 30
0.0
 10
62.25627869026976
 20
31.31252103097627
 30
0.0
 10
62.30671943754902
 20
31.30981998901299
 30
0.0
 10
62.32946791373354
 20
31.30994646329598
 30
0.0
 10
62.34728901734102
 20
31.30994646329598
 30
0.0
  0
SPLINE
  5
10B
330
1F
100
AcDbEntity
  8
0
  6
Continuous
 62
     7
370
    25
100
AcDbSpline
210
0.0
220
0.0
230
1.0
 70
    24
 71
     3
 72
    10
 73
     6
 74
     0
 42
0.000000001
 43
0.00000001
 40
0.0
 40
0.0
 40
0.0
 40
0.0
 40
0.5
 40
0.5
 40
1.0
 40
1.0
 40
1.0
 40
1.0
 10
62.14857280964439
 20
29.18973011166308
 30
0.0
 10
62.18132063731395
 20
29.18973011166308
 30
0.0
 10
62.21607766483271
 20
29.18973011166308
 30
0.0
 10
62.28735382273067
 20
29.18973011166308
 30
0.0
 10
62.31335613539157
 20
29.18973011166308
 30
0.0
 10
62.34728901734102
 20
29.18973011166308
 30
0.0
  0
SPLINE
  5
10C
330
1F
100
AcDbEntity
  8
0
  6
Continuous
 62
     7
370
    25
100
AcDbSpline
210
0.0
220
0.0
230
1.0
 70
     8
 71
     3
 72
    10
 73
     6
 74
     0
 42
0.000000001
 43
0.00000001
 40
0.0
 40
0.0
 40
0.0
 40
0.0
 40
0.5
 40
0.5
 40
1.0
 40
1.0
 40
1.0
 40
1.0
 10
62.2058634135583
 20
27.05830662478307
 30
0.0
 10
62.22874754505467
 20
27.0639441742221
 30
0.0
 10
62.25627869026975
 20
27.06693919234989
 30
0.0
 10
62.30671943754902
 20
27.06964023431317
 30
0.0
 10
62.32946791373353
 20
27.06951376003018
 30
0.0
 10
62.34728901734102
 20
27.06951376003018
 30
0.0
  0
SPLINE
  5
10D
330
1F
100
AcDbEntity
  8
0
  6
Continuous
 62
     7
370
    25
100
AcDbSpline
210
0.0
220
0.0
230
1.0
 70
     8
 71
     3
 72
    14
 73
    10
 74
     0
 42
0.000000001
 43
0.00000001
 40
0.0
 40
0.0
 40
0.0
 40
0.0
 40
0.25
 40
0.25
 40
0.5
 40
0.5
 40
0.75
 40
0.75
 40
1.0
 40
1.0
 40
1.0
 40
1.0
 10
62.14857280964439
 20
29.18973011166308
 30
0.0
 10
62.15675976656177
 20
29.00854431560811
 30
0.0
 10
62.16851178635801
 20
28.82852964702382
 30
0.0
 10
62.19399775345709
 20
28.47083866509209
 30
0.0
 10
62.20773170075992
 20
28.29316235174463
 30
0.0
 10
62.23203332462112
 20
27.94014418058203
 30
0.0
 10
62.23674141234668
 20
27.76281273536555
 30
0.0
 10
62.23186931932388
 20
27.40914917259466
 30
0.0
 10
62.22228913857553
 20
27.23281705504024
 30
0.0
 10
62.2058634135583
 20
27.05830662478307
 30
0.0
  0
SPLINE
  5
10E
330
1F
100
AcDbEntity
  8
0
  6
Continuous
 62
     7
370
    25
100
AcDbSpline
210
0.0
220
0.0
230
1.0
 70
     8
 71
     3
 72
    12
 73
     8
 74
     0
 42
0.000000001
 43
0.00000001
 40
0.0
 40
0.0
 40
0.0
 40
0.0
 40
0.25
 40
0.25
 40
0.5
 40
0.5
 40
1.0
 40
1.0
 40
1.0
 40
1.0
 10
55.64728901734102
 20
35.69101390396644
 30
0.0
 10
55.46610322128605
 20
35.69920086088382
 30
0.0
 10
55.28608855270177
 20
35.71095288068006
 30
0.0
 10
54.92839757077002
 20
35.73643884777914
 30
0.0
 10
54.75072125742257
 20
35.75017279508198
 30
0.0
 10
54.22119400067868
 20
35.78662523087377
 30
0.0
 10
53.86488639097536
 20
35.78115595791482
 30
0.0
 10
53.51586553046102
 20
35.74830450788036
 30
0.0
  0
SPLINE
  5
10F
330
1F
100
AcDbEntity
  8
0
  6
Continuous
 62
     7
370
    25
100
AcDbSpline
210
0.0
220
0.0
230
1.0
 70
     8
 71
     3
 72
    10
 73
     6
 74
     0
 42
0.000000001
 43
0.00000001
 40
0.0
 40
0.0
 40
0.0
 40
0.0
 40
0.5
 40
0.5
 40
1.0
 40
1.0
 40
1.0
 40
1.0
 10
53.51586553046102
 20
35.74830450788036
 30
0.0
 10
53.52150307990004
 20
35.77118863937672
 30
0.0
 10
53.52449809802783
 20
35.79871978459182
 30
0.0
 10
53.52719913999111
 20
35.84916053187107
 30
0.0
 10
53.52707266570813
 20
35.87190900805559
 30
0.0
 10
53.52707266570813
 20
35.88973011166308
 30
0.0
  0
SPLINE
  5
110
330
1F
100
AcDbEntity
  8
0
  6
Continuous
 62
     7
370
    25
100
AcDbSpline
210
0.0
220
0.0
230
1.0
 70
     8
 71
     3
 72
    12
 73
     8
 74
     0
 42
0.000000001
 43
0.00000001
 40
0.0
 40
0.0
 40
0.0
 40
0.0
 40
0.25
 40
0.25
 40
0.5
 40
0.5
 40
1.0
 40
1.0
 40
1.0
 40
1.0
 10
49.14600522503765
 20
29.18973011166307
 30
0.0
 10
49.13781826812026
 20
29.00854431560811
 30
0.0
 10
49.12606624832402
 20
28.82852964702382
 30
0.0
 10
49.10058028122494
 20
28.47083866509208
 30
0.0
 10
49.0868463339221
 20
28.29316235174462
 30
0.0
 10
49.05039389813032
 20
27.76363509500073
 30
0.0
 10
49.05586317108928
 20
27.40732748529742
 30
0.0
 10
49.08871462112374
 20
27.05830662478307
 30
0.0
  0
SPLINE
  5
111
330
1F
100
AcDbEntity
  8
0
  6
Continuous
 62
     7
370
    25
100
AcDbSpline
210
0.0
220
0.0
230
1.0
 70
     8
 71
     3
 72
    10
 73
     6
 74
     0
 42
0.000000001
 43
0.00000001
 40
0.0
 40
0.0
 40
0.0
 40
0.0
 40
0.5
 40
0.5
 40
1.0
 40
1.0
 40
1.0
 40
1.0
 10
49.08871462112374
 20
27.05830662478307
 30
0.0
 10
49.06583048962737
 20
27.0639441742221
 30
0.0
 10
49.03829934441228
 20
27.06693919234988
 30
0.0
 10
48.98785859713302
 20
27.06964023431317
 30
0.0
 10
48.9651101209485
 20
27.06951376003018
 30
0.0
 10
48.94728901734102
 20
27.06951376003018
 30
0.0
  0
SPLINE
  5
112
330
1F
100
AcDbEntity
  8
0
  6
Continuous
 62
     7
370
    25
100
AcDbSpline
210
0.0
220
0.0
230
1.0
 70
     8
 71
     3
 72
    13
 73
     9
 74
     0
 42
0.000000001
 43
0.00000001
 40
0.0
 40
0.0
 40
0.0
 40
0.0
 40
0.284282899174241
 40
0.5198370183905274
 40
0.7070414958140503
 40
0.8468107266085059
 40
0.9415978142010789
 40
1.0
 40
1.0
 40
1.0
 40
1.0
 10
57.77871250422102
 20
35.74830450788036
 30
0.0
 10
57.78169205994705
 20
35.7382521675007
 30
0.0
 10
57.78714044734303
 20
35.71987055303853
 30
0.0
 10
57.79807117473109
 20
35.70321229632331
 30
0.0
 10
57.80857850169036
 20
35.69442756974099
 30
0.0
 10
57.81878728189492
 20
35.69082797063184
 30
0.0
 10
57.8273387160701
 20
35.68977582457828
 30
0.0
 10
57.83518710994237
 20
35.6897427290635
 30
0.0
 10
57.83817924736168
 20
35.68973011166307
 30
0.0
  0
SPLINE
  5
113
330
1F
100
AcDbEntity
  8
0
  6
Continuous
 62
     7
370
    25
100
AcDbSpline
210
0.0
220
0.0
230
1.0
 70
     8
 71
     3
 72
    12
 73
     8
 74
     0
 42
0.000000001
 43
0.00000001
 40
0.0
 40
0.0
 40
0.0
 40
0.0
 40
0.25
 40
0.25
 40
0.5
 40
0.5
 40
1.0
 40
1.0
 40
1.0
 40
1.0
 10
62.2058634135583
 20
31.32115359854309
 30
0.0
 10
62.19442134781011
 20
31.3239723732626
 30
0.0
 10
62.18419146855538
 20
31.32750090714011
 30
0.0
 10
62.16724827888267
 20
31.33573170780322
 30
0.0
 10
62.16053496846469
 20
31.34043397458883
 30
0.0
 10
62.14730818424064
 20
31.35593269619597
 30
0.0
 10
62.14728901734102
 20
31.36784911794856
 30
0.0
 10
62.14728901734102
 20
31.38062034168374
 30
0.0
  0
SPLINE
  5
114
330
1F
100
AcDbEntity
  8
0
  6
Continuous
 62
     7
370
    25
100
AcDbSpline
210
0.0
220
0.0
230
1.0
 70
     8
 71
     3
 72
    12
 73
     8
 74
     0
 42
0.000000001
 43
0.00000001
 40
0.0
 40
0.0
 40
0.0
 40
0.0
 40
0.25
 40
0.25
 40
0.5
 40
0.5
 40
1.0
 40
1.0
 40
1.0
 40
1.0
 10
49.08871462112374
 20
27.05830662478307
 30
0.0
 10
49.10015668687193
 20
27.05548785006356
 30
0.0
 10
49.11038656612666
 20
27.05195931618605
 30
0.0
 10
49.12732975579937
 20
27.04372851552293
 30
0.0
 10
49.13404306621735
 20
27.03902624873733
 30
0.0
 10
49.1472698504414
 20
27.02352752713017
 30
0.0
 10
49.14728901734102
 20
27.01161110537759
 30
0.0
 10
49.14728901734102
 20
26.99883988164241
 30
0.0
  0
SPLINE
  5
115
330
1F
100
AcDbEntity
  8
0
  6
Continuous
 62
     7
370
    25
100
AcDbSpline
210
0.0
220
0.0
230
1.0
 70
     8
 71
     3
 72
    12
 73
     8
 74
     0
 42
0.000000001
 43
0.00000001
 40
0.0
 40
0.0
 40
0.0
 40
0.0
 40
0.25
 40
0.25
 40
0.5
 40
0.5
 40
1.0
 40
1.0
 40
1.0
 40
1.0
 10
49.08871462112374
 20
31.32115359854308
 30
0.0
 10
49.10015668687193
 20
31.32397237326259
 30
0.0
 10
49.11038656612666
 20
31.3275009071401
 30
0.0
 10
49.12732975579937
 20
31.33573170780321
 30
0.0
 10
49.13404306621735
 20
31.34043397458882
 30
0.0
 10
49.1472698504414
 20
31.35593269619598
 30
0.0
 10
49.14728901734102
 20
31.36784911794856
 30
0.0
 10
49.14728901734102
 20
31.38062034168373
 30
0.0
  0
SPLINE
  5
116
330
1F
100
AcDbEntity
  8
0
  6
Continuous
 62
     7
370
    25
100
AcDbSpline
210
0.0
220
0.0
230
1.0
 70
     8
 71
     3
 72
    12
 73
     8
 74
     0
 42
0.000000001
 43
0.00000001
 40
0.0
 40
0.0
 40
0.0
 40
0.0
 40
0.25
 40
0.25
 40
0.5
 40
0.5
 40
1.0
 40
1.0
 40
1.0
 40
1.0
 10
53.51586553046102
 20
35.74830450788036
 30
0.0
 10
53.51304675574151
 20
35.73686244213217
 30
0.0
 10
53.509518221864
 20
35.72663256287744
 30
0.0
 10
53.50128742120088
 20
35.70968937320472
 30
0.0
 10
53.49658515441527
 20
35.70297606278675
 30
0.0
 10
53.48108643280812
 20
35.68974927856269
 30
0.0
 10
53.46917001105554
 20
35.68973011166307
 30
0.0
 10
53.45639878732036
 20
35.68973011166307
 30
0.0
  0
SPLINE
  5
117
330
1F
100
AcDbEntity
  8
0
  6
Continuous
 62
     7
370
    25
100
AcDbSpline
210
0.0
220
0.0
230
1.0
 70
     8
 71
     3
 72
    12
 73
     8
 74
     0
 42
0.000000001
 43
0.00000001
 40
0.0
 40
0.0
 40
0.0
 40
0.0
 40
0.25
 40
0.25
 40
0.5
 40
0.5
 40
1.0
 40
1.0
 40
1.0
 40
1.0
 10
62.2058634135583
 20
27.05830662478307
 30
0.0
 10
62.19442134781011
 20
27.05548785006356
 30
0.0
 10
62.18419146855538
 20
27.05195931618605
 30
0.0
 10
62.16724827888267
 20
27.04372851552294
 30
0.0
 10
62.16053496846469
 20
27.03902624873733
 30
0.0
 10
62.14730818424064
 20
27.02352752713018
 30
0.0
 10
62.14728901734102
 20
27.0116111053776
 30
0.0
 10
62.14728901734102
 20
26.99883988164241
 30
0.0
  0
LINE
  5
118
330
1F
100
AcDbEntity
  8
0
  6
Continuous
 62
     7
370
    25
100
AcDbLine
 10
58.9106298146
 20
26.8251977881
 30
0.0
 11
58.3839480394
 21
26.8251977881
 31
0.0
  0
SPLINE
  5
119
330
1F
100
AcDbEntity
  8
0
  6
Continuous
 62
     7
370
    25
100
AcDbSpline
210
0.0
220
0.0
230
1.0
 70
     8
 71
     3
 72
    10
 73
     6
 74
     0
 42
0.000000001
 43
0.00000001
 40
0.0
 40
0.0
 40
0.0
 40
0.0
 40
0.5
 40
0.5
 40
1.0
 40
1.0
 40
1.0
 40
1.0
 10
58.3146938723415
 20
26.91886744355511
 30
0.0
 10
58.30710215018371
 20
26.89860614668274
 30
0.0
 10
58.3108341841762
 20
26.87250080565524
 30
0.0
 10
58.33683909884989
 20
26.83732790072929
 30
0.0
 10
58.3613763161058
 20
26.82519771209001
 30
0.0
 10
58.38394812868984
 20
26.82519771209001
 30
0.0
  0
LINE
  5
11A
330
1F
100
AcDbEntity
  8
0
  6
Continuous
 62
     7
370
    25
100
AcDbLine
 10
58.3146939614
 20
26.9188674187
 30
0.0
 11
58.5780347326
 21
27.6216893011
 31
0.0
  0
SPLINE
  5
11B
330
1F
100
AcDbEntity
  8
0
  6
Continuous
 62
     7
370
    25
100
AcDbSpline
210
0.0
220
0.0
230
1.0
 70
     8
 71
     3
 72
    14
 73
    10
 74
     0
 42
0.000000001
 43
0.00000001
 40
0.0
 40
0.0
 40
0.0
 40
0.0
 40
0.25
 40
0.25
 40
0.5
 40
0.5
 40
0.75
 40
0.75
 40
1.0
 40
1.0
 40
1.0
 40
1.0
 10
58.7165432754887
 20
27.62168926017232
 30
0.0
 10
58.71179401285354
 20
27.63436441065087
 30
0.0
 10
58.7023527048057
 20
27.64687812664367
 30
0.0
 10
58.67694877118308
 20
27.66394232837854
 30
0.0
 10
58.66140959206101
 20
27.66820837881226
 30
0.0
 10
58.63316844612764
 20
27.66820837881226
 30
0.0
 10
58.61762926700558
 20
27.66394232837854
 30
0.0
 10
58.59222533338296
 20
27.64687812664367
 30
0.0
 10
58.58278402533514
 20
27.63436441065087
 30
0.0
 10
58.57803476269997
 20
27.62168926017232
 30
0.0
  0
LINE
  5
11C
330
1F
100
AcDbEntity
  8
0
  6
Continuous
 62
     7
370
    25
100
AcDbLine
 10
58.7165433542
 20
27.6216893011
 30
0.0
 11
58.9798841254
 21
26.9188674187
 31
0.0
  0
SPLINE
  5
11D
330
1F
100
AcDbEntity
  8
0
  6
Continuous
 62
     7
370
    25
100
AcDbSpline
210
0.0
220
0.0
230
1.0
 70
     8
 71
     3
 72
    10
 73
     6
 74
     0
 42
0.000000001
 43
0.00000001
 40
0.0
 40
0.0
 40
0.0
 40
0.0
 40
0.5
 40
0.5
 40
1.0
 40
1.0
 40
1.0
 40
1.0
 10
58.91062990640463
 20
26.82519771209001
 30
0.0
 10
58.93320171894817
 20
26.82519771209001
 30
0.0
 10
58.95773893615473
 20
26.83732790067728
 30
0.0
 10
58.98374385085044
 20
26.87250080549401
 30
0.0
 10
58.98747588491007
 20
26.89860614644648
 30
0.0
 10
58.97988416284501
 20
26.91886744330944
 30
0.0
  0
SPLINE
  5
11E
330
1F
100
AcDbEntity
  8
0
  6
Continuous
 62
     7
370
    25
100
AcDbSpline
210
0.0
220
0.0
230
1.0
 70
     8
 71
     3
 72
    10
 73
     6
 74
     0
 42
0.000000001
 43
0.00000001
 40
0.0
 40
0.0
 40
0.0
 40
0.0
 40
0.5
 40
0.5
 40
1.0
 40
1.0
 40
1.0
 40
1.0
 10
56.83749127102207
 20
25.2284773568294
 30
0.0
 10
56.84730793207565
 20
25.20976352607152
 30
0.0
 10
56.86859497368735
 20
25.1945645882687
 30
0.0
 10
56.91179749035411
 20
25.18712749014652
 30
0.0
 10
56.93731750165693
 20
25.19426882686047
 30
0.0
 10
56.95338167718194
 20
25.20852740047203
 30
0.0
  0
LWPOLYLINE
  5
11F
330
1F
100
AcDbEntity
  8
0
  6
Continuous
 62
     7
370
    25
100
AcDbPolyline
 90
        9
 70
   128
 43
0.0
 10
56.9533817332
 20
25.2085272709
 10
56.9559327421
 20
25.2056532094
 10
56.9634878637
 20
25.1971413867
 10
56.9757566416
 20
25.1833191627
 10
56.9922677103
 20
25.1647173913
 10
57.0123864898
 20
25.1420508625
 10
57.0353397495
 20
25.1161908285
 10
57.0602456435
 20
25.0881310107
 10
57.086146772
 20
25.0589498805
  0
LWPOLYLINE
  5
120
330
1F
100
AcDbEntity
  8
0
  6
Continuous
 62
     7
370
    25
100
AcDbPolyline
 90
        9
 70
   128
 43
0.0
 10
56.6603802006
 20
25.13557072
 10
56.6949328502
 20
25.1536956543
 10
56.7281576666
 20
25.1711244249
 10
56.7587778067
 20
25.1871869454
 10
56.7856166606
 20
25.2012657487
 10
56.8076426723
 20
25.2128197366
 10
56.8240095024
 20
25.2214051338
 10
56.8340881589
 20
25.226692252
 10
56.837491328
 20
25.2284771317
  0
SPLINE
  5
121
330
1F
100
AcDbEntity
  8
0
  6
Continuous
 62
     7
370
    25
100
AcDbSpline
210
0.0
220
0.0
230
1.0
 70
     8
 71
     3
 72
    14
 73
    10
 74
     0
 42
0.000000001
 43
0.00000001
 40
0.0
 40
0.0
 40
0.0
 40
0.0
 40
0.25
 40
0.25
 40
0.5000000000000001
 40
0.5000000000000001
 40
0.7500000000000002
 40
0.7500000000000002
 40
1.0
 40
1.0
 40
1.0
 40
1.0
 10
56.95338167718194
 20
25.20852740047203
 30
0.0
 10
57.15999010935312
 20
25.39191319168766
 30
0.0
 10
57.41515232501498
 20
25.55393627297469
 30
0.0
 10
57.996126016333
 20
25.78062256302846
 30
0.0
 10
58.32125465424627
 20
25.84387576221448
 30
0.0
 10
58.97332338043608
 20
25.84387576221447
 30
0.0
 10
59.29845201834931
 20
25.78062256302844
 30
0.0
 10
59.87942570966723
 20
25.55393627297466
 30
0.0
 10
60.13458792532901
 20
25.39191319168762
 30
0.0
 10
60.3411963575001
 20
25.20852740047199
 30
0.0
  0
LWPOLYLINE
  5
122
330
1F
100
AcDbEntity
  8
0
  6
Continuous
 62
     7
370
    25
100
AcDbPolyline
 90
        9
 70
   128
 43
0.0
 10
60.3411962373
 20
25.2085272709
 10
60.3386453447
 20
25.2056532094
 10
60.3310899903
 20
25.1971413867
 10
60.3188212124
 20
25.1833191627
 10
60.3023102601
 20
25.1647173913
 10
60.2821913642
 20
25.1420508625
 10
60.2592384537
 20
25.1161908285
 10
60.2343325598
 20
25.0881310107
 10
60.208431082
 20
25.0589498805
  0
LINE
  5
123
330
1F
100
AcDbEntity
  8
0
  6
Continuous
 62
     7
370
    25
100
AcDbLine
 10
61.1475967896
 20
26.5448201002
 30
0.0
 11
61.1114782376
 21
26.5241796637
 31
0.0
  0
LWPOLYLINE
  5
124
330
1F
100
AcDbEntity
  8
0
  6
Continuous
 62
     7
370
    25
100
AcDbPolyline
 90
        9
 70
   128
 43
0.0
 10
61.1114782376
 20
26.5241796637
 10
61.1095718203
 20
26.5275163596
 10
61.1039247458
 20
26.5373976921
 10
61.0947549437
 20
26.5534443801
 10
61.0824139883
 20
26.5750396551
 10
61.067376854
 20
26.6013532431
 10
61.0502209609
 20
26.6313744263
 10
61.0316056853
 20
26.663949296
 10
61.0122467486
 20
26.6978259219
  0
LWPOLYLINE
  5
125
330
1F
100
AcDbEntity
  8
0
  6
Continuous
 62
     7
370
    25
100
AcDbPolyline
 90
       10
 70
   128
 43
0.0
 10
61.1475967896
 20
26.5448201002
 10
61.1551186164
 20
26.5526178313
 10
61.1774549914
 20
26.5757747015
 10
61.2139274461
 20
26.6135868637
 10
61.2634277066
 20
26.6649052987
 10
61.3244521526
 20
26.7281707396
 10
61.3951460553
 20
26.8014611696
 10
61.4733613191
 20
26.8825493307
 10
61.5567221401
 20
26.9689716419
 10
61.6426948552
 20
27.0581022391
  0
LWPOLYLINE
  5
126
330
1F
100
AcDbEntity
  8
0
  6
Continuous
 62
     7
370
    25
100
AcDbPolyline
 90
        9
 70
   128
 43
0.0
 10
56.2881365047
 20
26.6954249723
 10
56.2693247782
 20
26.6612412428
 10
56.2512360491
 20
26.6283711439
 10
56.2345653168
 20
26.5980777817
 10
56.2199533313
 20
26.5715255422
 10
56.2079615636
 20
26.5497346894
 10
56.1990508438
 20
26.5335424823
 10
56.1935636659
 20
26.52357151
 10
56.191710916
 20
26.5202047789
  0
LINE
  5
127
330
1F
100
AcDbEntity
  8
0
  6
Continuous
 62
     7
370
    25
100
AcDbLine
 10
56.191710916
 20
26.5202047789
 30
0.0
 11
56.1469811226
 21
26.5448201002
 31
0.0
  0
LWPOLYLINE
  5
128
330
1F
100
AcDbEntity
  8
0
  6
Continuous
 62
     7
370
    25
100
AcDbPolyline
 90
        9
 70
   128
 43
0.0
 10
55.6611309446
 20
27.0404730012
 10
55.7559156157
 20
26.9437758738
 10
55.8470577678
 20
26.8507947234
 10
55.9310548568
 20
26.7651030348
 10
56.004678904
 20
26.689993499
 10
56.0651006097
 20
26.6283525174
 10
56.1099980121
 20
26.5825493747
 10
56.1376456615
 20
26.5543438049
 10
56.1469811226
 20
26.5448201002
  0
LINE
  5
129
330
1F
100
AcDbEntity
  8
0
  6
Continuous
 62
     7
370
    25
100
AcDbLine
 10
50.6472891291
 20
35.4897301199
 30
0.0
 11
50.8472887894
 21
35.4897301199
 31
0.0
  0
ARC
  5
12A
330
1F
100
AcDbEntity
  8
0
  6
Continuous
 62
     7
370
    25
100
AcDbCircle
 10
50.8472890173
 20
35.4897301117
 30
0.0
 40
0.1999999999999957
100
AcDbArc
 50
90.0
 51
180.0
  0
SPLINE
  5
12B
330
1F
100
AcDbEntity
  8
0
  6
Continuous
 62
     7
370
    25
100
AcDbSpline
210
0.0
220
0.0
230
1.0
 70
     8
 71
     3
 72
    10
 73
     6
 74
     0
 42
0.000000001
 43
0.00000001
 40
0.0
 40
0.0
 40
0.0
 40
0.0
 40
0.5
 40
0.5
 40
1.0
 40
1.0
 40
1.0
 40
1.0
 10
60.3411963575001
 20
25.20852740047199
 30
0.0
 10
60.35726053302511
 20
25.19426882686038
 30
0.0
 10
60.38278054432796
 20
25.18712749014639
 30
0.0
 10
60.42598306099474
 20
25.19456458826859
 30
0.0
 10
60.44727010260646
 20
25.20976352607144
 30
0.0
 10
60.45708676366003
 20
25.2284773568294
 30
0.0
  0
LWPOLYLINE
  5
12C
330
1F
100
AcDbEntity
  8
0
  6
Continuous
 62
     7
370
    25
100
AcDbPolyline
 90
        9
 70
   128
 43
0.0
 10
60.4570867588
 20
25.2284771317
 10
60.4604898115
 20
25.226692252
 10
60.4705685844
 20
25.2214051338
 10
60.4869351817
 20
25.2128197366
 10
60.5089614262
 20
25.2012657487
 10
60.5358002802
 20
25.1871869454
 10
60.5664203038
 20
25.1711244249
 10
60.5996452366
 20
25.1536956543
 10
60.6341977698
 20
25.13557072
  0
LINE
  5
12D
330
1F
100
AcDbEntity
  8
0
  6
Continuous
 62
     7
370
    25
100
AcDbLine
 10
60.6472889056
 20
35.6897302458
 30
0.0
 11
60.6472889056
 21
35.1897301638
 31
0.0
  0
LINE
  5
12E
330
1F
100
AcDbEntity
  8
0
  6
Continuous
 62
     7
370
    25
100
AcDbLine
 10
60.4472892453
 20
35.1897301638
 30
0.0
 11
60.6472889056
 21
35.1897301638
 31
0.0
  0
LINE
  5
12F
330
1F
100
AcDbEntity
  8
0
  6
Continuous
 62
     7
370
    25
100
AcDbLine
 10
50.6472891291
 20
35.1897301638
 30
0.0
 11
50.6472891291
 21
35.4897301199
 31
0.0
  0
LINE
  5
130
330
1F
100
AcDbEntity
  8
0
  6
Continuous
 62
     7
370
    25
100
AcDbLine
 10
50.6472891291
 20
35.1897301638
 30
0.0
 11
50.8472887894
 21
35.1897301638
 31
0.0
  0
ARC
  5
131
330
1F
100
AcDbEntity
  8
0
  6
Continuous
 62
     7
370
    25
100
AcDbCircle
 10
49.6472890173
 20
35.1897301117
 30
0.0
 40
1.0
100
AcDbArc
 50
270.0
 51
0.0
  0
LINE
  5
132
330
1F
100
AcDbEntity
  8
0
  6
Continuous
 62
     7
370
    25
100
AcDbLine
 10
49.6472889652
 20
34.1897299999
 30
0.0
 11
49.6472889652
 21
33.9897303397
 31
0.0
  0
LINE
  5
133
330
1F
100
AcDbEntity
  8
0
  6
Continuous
 62
     7
370
    25
100
AcDbLine
 10
61.6472890695
 20
33.9897303397
 30
0.0
 11
61.6472890695
 21
34.1897299999
 31
0.0
  0
LINE
  5
134
330
1F
100
AcDbEntity
  8
0
  6
Continuous
 62
     7
370
    25
100
AcDbLine
 10
61.6472890695
 20
34.1897299999
 30
0.0
 11
61.9472890255
 21
34.1897299999
 31
0.0
  0
LINE
  5
135
330
1F
100
AcDbEntity
  8
0
  6
Continuous
 62
     7
370
    25
100
AcDbLine
 10
61.9472890255
 20
33.9897303397
 30
0.0
 11
61.9472890255
 21
34.1897299999
 31
0.0
  0
SPLINE
  5
136
330
1F
100
AcDbEntity
  8
0
  6
Continuous
 62
     7
370
    25
100
AcDbSpline
210
0.0
220
0.0
230
1.0
 70
     8
 71
     3
 72
    14
 73
    10
 74
     0
 42
0.000000001
 43
0.00000001
 40
0.0
 40
0.0
 40
0.0
 40
0.0
 40
0.25
 40
0.25
 40
0.5
 40
0.5
 40
0.75
 40
0.75
 40
1.0
 40
1.0
 40
1.0
 40
1.0
 10
57.0427040359159
 20
26.82489200236596
 30
0.0
 10
57.01566819970521
 20
26.74930099553448
 30
0.0
 10
56.96947614769132
 20
26.67568640004395
 30
0.0
 10
56.84694701062259
 20
26.55524571827378
 30
0.0
 10
56.77117302789994
 20
26.50897313649453
 30
0.0
 10
56.61430133346582
 20
26.45280722029552
 30
0.0
 10
56.52530525529176
 20
26.44008597615984
 30
0.0
 10
56.34988773641736
 20
26.45385064496387
 30
0.0
 10
56.26427245510367
 20
26.48027330015698
 30
0.0
 10
56.19171090316316
 20
26.52020472814143
 30
0.0
  0
ARC
  5
137
330
1F
100
AcDbEntity
  8
0
  6
Continuous
 62
     7
370
    25
100
AcDbCircle
 10
61.9472890173
 20
24.3897301117
 30
0.0
 40
0.1999999999999993
100
AcDbArc
 50
270.0
 51
0.0
  0
LINE
  5
138
330
1F
100
AcDbEntity
  8
0
  6
Continuous
 62
     7
370
    25
100
AcDbLine
 10
61.9472890255
 20
24.3897298837
 30
0.0
 11
61.9472890255
 21
24.1897302234
 31
0.0
  0
ARC
  5
139
330
1F
100
AcDbEntity
  8
0
  6
Continuous
 62
     7
370
    25
100
AcDbCircle
 10
61.6472890173
 20
35.1897301117
 30
0.0
 40
1.0
100
AcDbArc
 50
180.0
 51
270.0
  0
LINE
  5
13A
330
1F
100
AcDbEntity
  8
0
  6
Continuous
 62
     7
370
    25
100
AcDbLine
 10
60.4570867588
 20
25.2284771317
 30
0.0
 11
61.1475967896
 21
26.5448201002
 31
0.0
  0
LINE
  5
13B
330
1F
100
AcDbEntity
  8
0
  6
Continuous
 62
     7
370
    25
100
AcDbLine
 10
61.9472890255
 20
24.1897302234
 30
0.0
 11
49.3472890091
 21
24.1897302234
 31
0.0
  0
LINE
  5
13C
330
1F
100
AcDbEntity
  8
0
  6
Continuous
 62
     7
370
    25
100
AcDbLine
 10
49.3472890091
 20
24.1897302234
 30
0.0
 11
49.3472890091
 21
24.3897298837
 31
0.0
  0
ARC
  5
13D
330
1F
100
AcDbEntity
  8
0
  6
Continuous
 62
     7
370
    25
100
AcDbCircle
 10
49.3472890173
 20
24.3897301117
 30
0.0
 40
0.2000000000000028
100
AcDbArc
 50
180.0
 51
270.0
  0
LINE
  5
13E
330
1F
100
AcDbEntity
  8
0
  6
Continuous
 62
     7
370
    25
100
AcDbLine
 10
49.3472890091
 20
34.1897299999
 30
0.0
 11
49.6472889652
 21
34.1897299999
 31
0.0
  0
LINE
  5
13F
330
1F
100
AcDbEntity
  8
0
  6
Continuous
 62
     7
370
    25
100
AcDbLine
 10
49.3472890091
 20
34.1897299999
 30
0.0
 11
49.3472890091
 21
33.9897303397
 31
0.0
  0
SPLINE
  5
140
330
1F
100
AcDbEntity
  8
0
  6
Continuous
 62
     7
370
    25
100
AcDbSpline
210
0.0
220
0.0
230
1.0
 70
     8
 71
     3
 72
    14
 73
    10
 74
     0
 42
0.000000001
 43
0.00000001
 40
0.0
 40
0.0
 40
0.0
 40
0.0
 40
0.25
 40
0.25
 40
0.5
 40
0.5
 40
0.75
 40
0.75
 40
1.0
 40
1.0
 40
1.0
 40
1.0
 10
61.11147847013902
 20
26.52417976684436
 30
0.0
 10
61.03899125059522
 20
26.48275619637318
 30
0.0
 10
60.95293792747876
 20
26.45485951201318
 30
0.0
 10
60.77602171035249
 20
26.43887641661612
 30
0.0
 10
60.68600212947553
 20
26.4508661927962
 30
0.0
 10
60.52727954821778
 20
26.50627651349207
 30
0.0
 10
60.45043003946238
 20
26.55254101781503
 30
0.0
 10
60.3261941108224
 20
26.67365683498946
 30
0.0
 10
60.27939989097404
 20
26.74793082055642
 30
0.0
 10
60.25212855639573
 20
26.82418027044728
 30
0.0
  0
ARC
  5
141
330
1F
100
AcDbEntity
  8
0
  6
Continuous
 62
     7
370
    25
100
AcDbCircle
 10
49.3472890173
 20
33.9897301117
 30
0.0
 40
0.1999999999999957
100
AcDbArc
 50
90.0
 51
180.0
  0
LINE
  5
142
330
1F
100
AcDbEntity
  8
0
  6
Continuous
 62
     7
370
    25
100
AcDbLine
 10
56.1469811226
 20
26.5448201002
 30
0.0
 11
56.837491328
 21
25.2284771317
 31
0.0
  0
ARC
  5
143
330
1F
100
AcDbEntity
  8
0
  6
Continuous
 62
     7
370
    25
100
AcDbCircle
 10
61.9472890173
 20
33.9897301117
 30
0.0
 40
0.1999999999999957
100
AcDbArc
 50
0.0
 51
90.0
  0
ARC
  5
144
330
1F
100
AcDbEntity
  8
0
  6
Continuous
 62
     7
370
    25
100
AcDbCircle
 10
62.3272573747
 20
24.3638571252
 30
0.0
 40
0.1818184836971028
100
AcDbArc
 50
83.6747277536
 51
171.8190444576
  0
SPLINE
  5
145
330
1F
100
AcDbEntity
  8
0
  6
Continuous
 62
     7
370
    25
100
AcDbSpline
210
0.0
220
0.0
230
1.0
 70
    24
 71
     3
 72
    12
 73
     8
 74
     0
 42
0.000000001
 43
0.00000001
 40
0.0
 40
0.0
 40
0.0
 40
0.0
 40
0.25
 40
0.25
 40
0.5
 40
0.5
 40
1.0
 40
1.0
 40
1.0
 40
1.0
 10
60.64728901734102
 20
35.88973011166308
 30
0.0
 10
60.64728901734102
 20
35.85254927911102
 30
0.0
 10
60.64728901734102
 20
35.81828920387753
 30
0.0
 10
60.64728901734102
 20
35.76656353443118
 30
0.0
 10
60.64728901734102
 20
35.74720878755564
 30
0.0
 10
60.64728901734102
 20
35.70279947391143
 30
0.0
 10
60.64728901734102
 20
35.68973011166307
 30
0.0
 10
60.64728901734102
 20
35.68973011166307
 30
0.0
  0
ARC
  5
146
330
1F
100
AcDbEntity
  8
0
  6
Continuous
 62
     7
370
    25
100
AcDbCircle
 10
48.96732066
 20
34.0156030982
 30
0.0
 40
0.1818184836971023
100
AcDbArc
 50
263.6747277536
 51
351.8190444576
  0
ARC
  5
147
330
1F
100
AcDbEntity
  8
0
  6
Continuous
 62
     7
370
    25
100
AcDbCircle
 10
48.96732066
 20
24.3638571252
 30
0.0
 40
0.1818184836971028
100
AcDbArc
 50
8.1809555424
 51
96.3252722464
  0
ARC
  5
148
330
1F
100
AcDbEntity
  8
0
  6
Continuous
 62
     7
370
    25
100
AcDbCircle
 10
50.8214160308
 20
35.869698469
 30
0.0
 40
0.1818184836970983
100
AcDbArc
 50
278.1809555424
 51
6.3252722464
  0
ARC
  5
149
330
1F
100
AcDbEntity
  8
0
  6
Continuous
 62
     7
370
    25
100
AcDbCircle
 10
62.3272573747
 20
34.0156030982
 30
0.0
 40
0.1818184836971023
100
AcDbArc
 50
188.1809555424
 51
276.3252722464
  0
LINE
  5
14A
330
1F
100
AcDbEntity
  8
0
  6
Continuous
 62
     7
370
    25
100
AcDbLine
 10
49.3472890091
 20
34.2219882199
 30
0.0
 11
49.3472890091
 21
34.1897299999
 31
0.0
  0
LINE
  5
14B
330
1F
100
AcDbEntity
  8
0
  6
Continuous
 62
     7
370
    25
100
AcDbLine
 10
61.9472890255
 20
24.1897302234
 30
0.0
 11
61.9472890255
 21
24.1574720034
 31
0.0
  0
LINE
  5
14C
330
1F
100
AcDbEntity
  8
0
  6
Continuous
 62
     7
370
    25
100
AcDbLine
 10
49.3472890091
 20
24.1574720034
 30
0.0
 11
49.3472890091
 21
24.1897302234
 31
0.0
  0
LINE
  5
14D
330
1F
100
AcDbEntity
  8
0
  6
Continuous
 62
     7
370
    25
100
AcDbLine
 10
61.9472890255
 20
34.2219882199
 30
0.0
 11
61.9472890255
 21
34.1897299999
 31
0.0
  0
LINE
  5
14E
330
1F
100
AcDbEntity
  8
0
  6
Continuous
 62
     7
370
    25
100
AcDbLine
 10
50.6150309091
 20
35.4897301199
 30
0.0
 11
50.6472891291
 21
35.4897301199
 31
0.0
  0
LINE
  5
14F
330
1F
100
AcDbEntity
  8
0
  6
Continuous
 62
     7
370
    25
100
AcDbLine
 10
50.6150309091
 20
35.1897301638
 30
0.0
 11
50.6472891291
 21
35.1897301638
 31
0.0
  0
ARC
  5
150
330
1F
100
AcDbEntity
  8
0
  6
Continuous
 62
     7
370
    25
100
AcDbCircle
 10
50.2448464685
 20
34.5836360732
 30
0.0
 40
0.1490119422214843
100
AcDbArc
 50
317.3216122879
 51
15.7343760625
  0
ARC
  5
151
330
1F
100
AcDbEntity
  8
0
  6
Continuous
 62
     7
370
    25
100
AcDbCircle
 10
50.2533830558
 20
34.5921726605
 30
0.0
 40
0.1490119422214765
100
AcDbArc
 50
254.2656239375
 51
312.6783877121
  0
LINE
  5
152
330
1F
100
AcDbEntity
  8
0
  6
Continuous
 62
     7
370
    25
100
AcDbLine
 10
49.6472889652
 20
34.2219882199
 30
0.0
 11
49.6472889652
 21
34.1897299999
 31
0.0
  0
LINE
  5
153
330
1F
100
AcDbEntity
  8
0
  6
Continuous
 62
     7
370
    25
100
AcDbLine
 10
61.6472890695
 20
34.2219882199
 30
0.0
 11
61.6472890695
 21
34.1897299999
 31
0.0
  0
SPLINE
  5
154
330
1F
100
AcDbEntity
  8
0
  6
Continuous
 62
     7
370
    25
100
AcDbSpline
210
0.0
220
0.0
230
1.0
 70
     8
 71
     3
 72
     8
 73
     4
 74
     0
 42
0.000000001
 43
0.00000001
 40
0.0
 40
0.0
 40
0.0
 40
0.0
 40
1.0
 40
1.0
 40
1.0
 40
1.0
 10
60.90246811584307
 20
34.52246567780511
 30
0.0
 10
60.94516730081144
 20
34.4748035459311
 30
0.0
 10
61.01401757281241
 20
34.44875336606572
 30
0.0
 10
61.08160359239178
 20
34.44874421655091
 30
0.0
  0
ARC
  5
155
330
1F
100
AcDbEntity
  8
0
  6
Continuous
 62
     7
370
    25
100
AcDbCircle
 10
50.1540869774
 20
34.6829321516
 30
0.0
 40
0.2414780747458513
100
AcDbArc
 50
284.1145898145
 51
345.8854101855
  0
SPLINE
  5
156
330
1F
100
AcDbEntity
  8
0
  6
Continuous
 62
     8
370
    25
100
AcDbSpline
210
0.0
220
0.0
230
1.0
 70
     8
 71
     3
 72
    34
 73
    30
 74
     0
 42
0.000000001
 43
0.00000001
 40
0.0
 40
0.0
 40
0.0
 40
0.0
 40
0.0270829012646952
 40
0.0610682895814917
 40
0.1019507647912375
 40
0.1474839702678706
 40
0.1878720500571248
 40
0.22209346037426
 40
0.2501514424008179
 40
0.2982157352654574
 40
0.3490038277389502
 40
0.4004430128493794
 40
0.4504946780173825
 40
0.5005609002018536
 40
0.5396163814171917
 40
0.5812691309493772
 40
0.6255102899187959
 40
0.6505604244279694
 40
0.6756020256942604
 40
0.700634607683985
 40
0.7256577970279884
 40
0.7506710863149585
 40
0.780055470017454
 40
0.8115784808784121
 40
0.8452427299083328
 40
0.8810515127384572
 40
0.9190087170803521
 40
0.9591188683692519
 40
1.0
 40
1.0
 40
1.0
 40
1.0
 10
65.72026443680275
 20
29.18435250823385
 30
0.0
 10
65.72029473844343
 20
29.0905022635777
 30
0.0
 10
65.7203630645563
 20
28.8788826198054
 30
0.0
 10
65.72009286989625
 20
28.52635194229968
 30
0.0
 10
65.7196181720439
 20
28.11247440750664
 30
0.0
 10
65.71893647735179
 20
27.68151218758362
 30
0.0
 10
65.71840459621141
 20
27.27973224022306
 30
0.0
 10
65.71804324232501
 20
26.9424640429875
 30
0.0
 10
65.71782036550982
 20
26.58631625158068
 30
0.0
 10
65.71791731119411
 20
26.1863496026412
 30
0.0
 10
65.71842406431315
 20
25.73051075840604
 30
0.0
 10
65.71935030772525
 20
25.29007321414988
 30
0.0
 10
65.7202909825919
 20
24.87622593661031
 30
0.0
 10
65.72137025094052
 20
24.52035187253458
 30
0.0
 10
65.72203778164058
 20
24.20893944715425
 30
0.0
 10
65.72194360700463
 20
23.93324611256887
 30
0.0
 10
65.72137356522387
 20
23.70992606549768
 30
0.0
 10
65.72067725242083
 20
23.53536721807398
 30
0.0
 10
65.72009932660887
 20
23.40515715421347
 30
0.0
 10
65.71946777099231
 20
23.28407316962537
 30
0.0
 10
65.71880572736836
 20
23.17224754306585
 30
0.0
 10
65.718012927365
 20
23.06401725273432
 30
0.0
 10
65.717306138642
 20
22.95837513188957
 30
0.0
 10
65.71690443474041
 20
22.85597953618436
 30
0.0
 10
65.7167531644014
 20
22.76313720600442
 30
0.0
 10
65.7168728693767
 20
22.68328843463379
 30
0.0
 10
65.71726355852
 20
22.62098160026105
 30
0.0
 10
65.71790034697281
 20
22.57832019731789
 30
0.0
 10
65.71852323956934
 20
22.57195298153003
 30
0.0
 10
65.71883765061844
 20
22.56873906791661
 30
0.0
  0
SPLINE
  5
157
330
1F
100
AcDbEntity
  8
0
  6
Continuous
 62
     8
370
    25
100
AcDbSpline
210
0.0
220
0.0
230
1.0
 70
     8
 71
     3
 72
    23
 73
    19
 74
     0
 42
0.000000001
 43
0.00000001
 40
0.0
 40
0.0
 40
0.0
 40
0.0
 40
0.0002909057645067
 40
0.08359069388678
 40
0.1668928674781623
 40
0.2501973552624721
 40
0.3335040569391254
 40
0.416812886979246
 40
0.5001237934357229
 40
0.5834366578728363
 40
0.6667513577941353
 40
0.7500994618877956
 40
0.7917944341504525
 40
0.8334872991132399
 40
0.857255173812531
 40
0.8929297618166008
 40
0.9405110854311648
 40
1.0
 40
1.0
 40
1.0
 40
1.0
 10
65.71916454484213
 20
35.81189788148258
 30
0.0
 10
65.71916454465985
 20
35.81193186468103
 30
0.0
 10
65.71916449227984
 20
35.82169681087884
 30
0.0
 10
65.71925453881231
 20
35.76941123765575
 30
0.0
 10
65.719313214361
 20
35.6052946622808
 30
0.0
 10
65.71939071193447
 20
35.32411200474371
 30
0.0
 10
65.71945790517272
 20
34.93979479411129
 30
0.0
 10
65.7195251412541
 20
34.45647391778031
 30
0.0
 10
65.71959133485298
 20
33.8830859146661
 30
0.0
 10
65.71964489117752
 20
33.22923357348815
 30
0.0
 10
65.71972769884768
 20
32.50620898975309
 30
0.0
 10
65.71970041514633
 20
31.85584229500974
 30
0.0
 10
65.71959324774006
 20
31.31410702817105
 30
0.0
 10
65.71941277017814
 20
30.95800421450384
 30
0.0
 10
65.71940873902625
 20
30.6174700635056
 30
0.0
 10
65.71957531271642
 20
30.2533002035783
 30
0.0
 10
65.71985696718075
 20
29.76213364903464
 30
0.0
 10
65.72011890336833
 20
29.39071506686017
 30
0.0
 10
65.72026443680275
 20
29.18435250823385
 30
0.0
  0
SPLINE
  5
158
330
1F
100
AcDbEntity
  8
0
  6
Continuous
 62
     8
370
    25
100
AcDbSpline
210
0.0
220
0.0
230
1.0
 70
     8
 71
     3
 72
    34
 73
    30
 74
     0
 42
0.000000001
 43
0.00000001
 40
0.0
 40
0.0
 40
0.0
 40
0.0
 40
0.0270829012646952
 40
0.0610682895814917
 40
0.1019507647912375
 40
0.1474839702678706
 40
0.1878720500571248
 40
0.22209346037426
 40
0.2501514424008179
 40
0.2982157352654574
 40
0.3490038277389502
 40
0.4004430128493794
 40
0.4504946780173825
 40
0.5005609002018536
 40
0.5396163814171917
 40
0.5812691309493772
 40
0.6255102899187959
 40
0.6505604244279694
 40
0.6756020256942604
 40
0.700634607683985
 40
0.7256577970279884
 40
0.7506710863149585
 40
0.780055470017454
 40
0.8115784808784121
 40
0.8452427299083328
 40
0.8810515127384572
 40
0.9190087170803521
 40
0.9591188683692519
 40
1.0
 40
1.0
 40
1.0
 40
1.0
 10
45.5743135978793
 20
29.1951077150923
 30
0.0
 10
45.5742832962386
 20
29.28895795974845
 30
0.0
 10
45.57421497012574
 20
29.50057760352076
 30
0.0
 10
45.57448516478579
 20
29.85310828102647
 30
0.0
 10
45.57495986263814
 20
30.26698581581951
 30
0.0
 10
45.57564155733024
 20
30.69794803574253
 30
0.0
 10
45.57617343847063
 20
31.09972798310309
 30
0.0
 10
45.57653479235702
 20
31.43699618033866
 30
0.0
 10
45.57675766917221
 20
31.79314397174548
 30
0.0
 10
45.57666072348793
 20
32.19311062068495
 30
0.0
 10
45.57615397036889
 20
32.64894946492011
 30
0.0
 10
45.5752277269568
 20
33.08938700917628
 30
0.0
 10
45.57428705209013
 20
33.50323428671584
 30
0.0
 10
45.57320778374152
 20
33.85910835079157
 30
0.0
 10
45.57254025304145
 20
34.17052077617191
 30
0.0
 10
45.57263442767741
 20
34.44621411075729
 30
0.0
 10
45.57320446945818
 20
34.66953415782847
 30
0.0
 10
45.57390078226121
 20
34.84409300525217
 30
0.0
 10
45.57447870807317
 20
34.97430306911269
 30
0.0
 10
45.57511026368972
 20
35.09538705370078
 30
0.0
 10
45.57577230731368
 20
35.2072126802603
 30
0.0
 10
45.57656510731704
 20
35.31544297059183
 30
0.0
 10
45.57727189604004
 20
35.42108509143658
 30
0.0
 10
45.57767359994163
 20
35.52348068714179
 30
0.0
 10
45.57782487028064
 20
35.61632301732174
 30
0.0
 10
45.57770516530533
 20
35.69617178869236
 30
0.0
 10
45.57731447616203
 20
35.75847862306511
 30
0.0
 10
45.57667768770924
 20
35.80114002600827
 30
0.0
 10
45.5760547951127
 20
35.80750724179612
 30
0.0
 10
45.57574038406361
 20
35.81072115540955
 30
0.0
  0
SPLINE
  5
159
330
1F
100
AcDbEntity
  8
0
  6
Continuous
 62
     8
370
    25
100
AcDbSpline
210
0.0
220
0.0
230
1.0
 70
     8
 71
     3
 72
    23
 73
    19
 74
     0
 42
0.000000001
 43
0.00000001
 40
0.0
 40
0.0
 40
0.0
 40
0.0
 40
0.0002909057645067
 40
0.08359069388678
 40
0.1668928674781623
 40
0.2501973552624721
 40
0.3335040569391254
 40
0.416812886979246
 40
0.5001237934357229
 40
0.5834366578728363
 40
0.6667513577941353
 40
0.7500994618877956
 40
0.7917944341504525
 40
0.8334872991132399
 40
0.857255173812531
 40
0.8929297618166008
 40
0.9405110854311648
 40
1.0
 40
1.0
 40
1.0
 40
1.0
 10
45.57541348983992
 20
22.56756234184358
 30
0.0
 10
45.5754134900222
 20
22.56752835864513
 30
0.0
 10
45.5754135424022
 20
22.55776341244731
 30
0.0
 10
45.57532349586973
 20
22.61004898567041
 30
0.0
 10
45.57526482032105
 20
22.77416556104536
 30
0.0
 10
45.57518732274756
 20
23.05534821858245
 30
0.0
 10
45.57512012950932
 20
23.43966542921486
 30
0.0
 10
45.57505289342795
 20
23.92298630554584
 30
0.0
 10
45.57498669982906
 20
24.49637430866005
 30
0.0
 10
45.57493314350451
 20
25.150226649838
 30
0.0
 10
45.57485033583436
 20
25.87325123357306
 30
0.0
 10
45.57487761953569
 20
26.52361792831642
 30
0.0
 10
45.57498478694197
 20
27.0653531951551
 30
0.0
 10
45.57516526450391
 20
27.42145600882231
 30
0.0
 10
45.5751692956558
 20
27.76199015982055
 30
0.0
 10
45.57500272196564
 20
28.12616001974785
 30
0.0
 10
45.57472106750129
 20
28.61732657429151
 30
0.0
 10
45.57445913131371
 20
28.98874515646598
 30
0.0
 10
45.5743135978793
 20
29.1951077150923
 30
0.0
  0
SPLINE
  5
15A
330
1F
100
AcDbEntity
  8
0
  6
Continuous
 62
     8
370
    25
100
AcDbSpline
210
0.0
220
0.0
230
1.0
 70
     8
 71
     3
 72
    44
 73
    40
 74
     0
 42
0.000000001
 43
0.00000001
 40
0.0
 40
0.0
 40
0.0
 40
0.0
 40
0.0133192627800939
 40
0.0281785620087604
 40
0.0445775103669451
 40
0.0625155925610901
 40
0.0819921715976223
 40
0.1030064800536237
 40
0.1276688192453199
 40
0.1504046254779796
 40
0.1720670111628802
 40
0.1860241115732473
 40
0.206029100397911
 40
0.2280248153930532
 40
0.2500371337923684
 40
0.2782022841572351
 40
0.3063970897149063
 40
0.3346228738225414
 40
0.3628810340646983
 40
0.3815842731849348
 40
0.3923302571031081
 40
0.407662817915363
 40
0.4275833628551242
 40
0.459728436112377
 40
0.484907760938274
 40
0.5078347609756878
 40
0.5536525321685412
 40
0.5996148570276569
 40
0.6503017909499658
 40
0.7006094994206663
 40
0.7506755034892112
 40
0.7873035456155436
 40
0.8235518485588526
 40
0.8594243630029426
 40
0.8949249626985805
 40
0.9300574051243966
 40
0.9565855491665012
 40
0.9915671852935167
 40
1.0
 40
1.0
 40
1.0
 40
1.0
 10
55.6419114139118
 20
39.26270553112481
 30
0.0
 10
55.59575648181146
 20
39.26273039846983
 30
0.0
 10
55.49810996505803
 20
39.26278300844046
 30
0.0
 10
55.34371181602009
 20
39.26276663843164
 30
0.0
 10
55.1735141479198
 20
39.2626887644134
 30
0.0
 10
54.98771574447726
 20
39.262542067292
 30
0.0
 10
54.78659537880041
 20
39.2623259359734
 30
0.0
 10
54.56329340440234
 20
39.26203622242114
 30
0.0
 10
54.33023888172956
 20
39.26168092252633
 30
0.0
 10
54.09678837077152
 20
39.26133683398464
 30
0.0
 10
53.90119744566513
 20
39.26105247843102
 30
0.0
 10
53.71622180468802
 20
39.26079427686363
 30
0.0
 10
53.53159078241494
 20
39.26059858255707
 30
0.0
 10
53.32267323996344
 20
39.26044256269637
 30
0.0
 10
53.09009658390588
 20
39.26035103081271
 30
0.0
 10
52.84153804646829
 20
39.26035554371244
 30
0.0
 10
52.57863621259434
 20
39.26048512122939
 30
0.0
 10
52.32130686308199
 20
39.26073908836819
 30
0.0
 10
52.09845855231698
 20
39.26107656865197
 30
0.0
 10
51.93128763802557
 20
39.26140839700656
 30
0.0
 10
51.80351826101037
 20
39.26171034169809
 30
0.0
 10
51.67414736338461
 20
39.26201838852439
 30
0.0
 10
51.48842590050652
 20
39.26247731129315
 30
0.0
 10
51.282291149376
 20
39.26301673883894
 30
0.0
 10
51.07644983979563
 20
39.26353823567045
 30
0.0
 10
50.84415934487338
 20
39.26405018201094
 30
0.0
 10
50.57599315278477
 20
39.26449604805957
 30
0.0
 10
50.27161199417537
 20
39.26424958552913
 30
0.0
 10
49.99054120049256
 20
39.26318327759039
 30
0.0
 10
49.73810867471979
 20
39.26167229183808
 30
0.0
 10
49.54205782213418
 20
39.26058038993244
 30
0.0
 10
49.39261111574181
 20
39.25979003596792
 30
0.0
 10
49.28012925474021
 20
39.2593886169611
 30
0.0
 10
49.18850677653233
 20
39.25924442422286
 30
0.0
 10
49.11746702513693
 20
39.25937608932122
 30
0.0
 10
49.07013433708366
 20
39.25973188277511
 30
0.0
 10
49.03970796899293
 20
39.2603470087488
 30
0.0
 10
49.02550127237869
 20
39.26087883559725
 30
0.0
 10
49.02710888604542
 20
39.26122851785407
 30
0.0
 10
49.02742114861954
 20
39.26129644006942
 30
0.0
  0
SPLINE
  5
15B
330
1F
100
AcDbEntity
  8
0
  6
Continuous
 62
     8
370
    25
100
AcDbSpline
210
0.0
220
0.0
230
1.0
 70
     8
 71
     3
 72
    28
 73
    24
 74
     0
 42
0.000000001
 43
0.00000001
 40
0.0
 40
0.0
 40
0.0
 40
0.0
 40
0.0005651343068986
 40
0.0800602017825787
 40
0.1562684210539896
 40
0.2291890081047049
 40
0.2988212561901814
 40
0.3651644597005593
 40
0.4282179413252433
 40
0.4879810921994424
 40
0.5444533031789826
 40
0.5976339765999444
 40
0.6712094469825823
 40
0.7373823202648951
 40
0.7961497910528915
 40
0.8475093766906866
 40
0.8914588977145819
 40
0.9279964531879923
 40
0.9571204756228652
 40
0.9788296643953415
 40
0.9902450708530234
 40
0.9974886754599362
 40
1.0
 40
1.0
 40
1.0
 40
1.0
 10
62.26952244540203
 20
39.26160563916419
 30
0.0
 10
62.26953427244194
 20
39.26160563844297
 30
0.0
 10
62.27120975947262
 20
39.26160553627113
 30
0.0
 10
62.23443829701293
 20
39.26169009312144
 30
0.0
 10
62.08873539345158
 20
39.26174774532182
 30
0.0
 10
61.86175992803994
 20
39.26182134888799
 30
0.0
 10
61.56922693285231
 20
39.26188743722658
 30
0.0
 10
61.22457522840844
 20
39.26195198599044
 30
0.0
 10
60.84094297032322
 20
39.26201316483561
 30
0.0
 10
60.43036094054801
 20
39.2620725954207
 30
0.0
 10
60.00370153625504
 20
39.26213100352908
 30
0.0
 10
59.50640683466747
 20
39.26219227157705
 30
0.0
 10
58.94309492403997
 20
39.26226025229248
 30
0.0
 10
58.32627002757891
 20
39.26233169914784
 30
0.0
 10
57.75443848407512
 20
39.26239766730951
 30
0.0
 10
57.24019369529057
 20
39.2624580193667
 30
0.0
 10
56.79206479382788
 20
39.26251253515803
 30
0.0
 10
56.41546775234838
 20
39.26256184344667
 30
0.0
 10
56.1135430919181
 20
39.26260395885448
 30
0.0
 10
55.89786355133396
 20
39.26263821948256
 30
0.0
 10
55.75788242004094
 20
39.26266887213133
 30
0.0
 10
55.68445611131249
 20
39.26268483705262
 30
0.0
 10
55.65062177857227
 20
39.26270129433559
 30
0.0
 10
55.6419114139118
 20
39.26270553112481
 30
0.0
  0
SPLINE
  5
15C
330
1F
100
AcDbEntity
  8
0
  6
Continuous
 62
     8
370
    25
100
AcDbSpline
210
0.0
220
0.0
230
1.0
 70
    24
 71
     3
 72
    20
 73
    16
 74
     0
 42
0.000000001
 43
0.00000001
 40
0.0
 40
0.0
 40
0.0
 40
0.0
 40
0.0833038234619481
 40
0.1666076635102581
 40
0.249911489340368
 40
0.3332153018801771
 40
0.4165191492991681
 40
0.4998229424998784
 40
0.5831267938021643
 40
0.666430631792197
 40
0.7497344306744167
 40
0.833038272770876
 40
0.9163421023766766
 40
0.9996459317958752
 40
1.0
 40
1.0
 40
1.0
 40
1.0
 10
64.79323898454655
 20
29.18486402533453
 30
0.0
 10
64.79323898454655
 20
29.44667092240977
 30
0.0
 10
64.79323898454655
 20
29.97028476868779
 30
0.0
 10
64.79323898454655
 20
30.74237235283752
 30
0.0
 10
64.79323898454655
 20
31.48788740927441
 30
0.0
 10
64.79323898454655
 20
32.19408353414056
 30
0.0
 10
64.79323898454655
 20
32.84886876997081
 30
0.0
 10
64.79323898454655
 20
33.44106300611259
 30
0.0
 10
64.79323898454655
 20
33.96045034043728
 30
0.0
 10
64.79323898454655
 20
34.39845295539203
 30
0.0
 10
64.79323898454653
 20
34.74642478070565
 30
0.0
 10
64.79323898454656
 20
35.00270743694347
 30
0.0
 10
64.79323898454648
 20
35.14688839260113
 30
0.0
 10
64.79323898454668
 20
35.20663160546401
 30
0.0
 10
64.79323898454655
 20
35.18958484757704
 30
0.0
 10
64.79323898454655
 20
35.18951269999597
 30
0.0
  0
SPLINE
  5
15D
330
1F
100
AcDbEntity
  8
0
  6
Continuous
 62
     8
370
    25
100
AcDbSpline
210
0.0
220
0.0
230
1.0
 70
    24
 71
     3
 72
    19
 73
    15
 74
     0
 42
0.000000001
 43
0.00000001
 40
0.0
 40
0.0
 40
0.0
 40
0.0
 40
0.0828604653630955
 40
0.1662367987221346
 40
0.2496131178506003
 40
0.3329894236771999
 40
0.4163657644133341
 40
0.4997420508840053
 40
0.5831183955068138
 40
0.6664947268057843
 40
0.7498710189629091
 40
0.8332473543718799
 40
0.916623677279322
 40
1.0
 40
1.0
 40
1.0
 40
1.0
 10
64.79323898454655
 20
23.19004577786181
 30
0.0
 10
64.79323898454655
 20
23.19970084943706
 30
0.0
 10
64.79323898454655
 20
23.21907110258579
 30
0.0
 10
64.79323898454655
 20
23.37759078132713
 30
0.0
 10
64.79323898454655
 20
23.62839910670614
 30
0.0
 10
64.79323898454655
 20
23.97636868407777
 30
0.0
 10
64.79323898454655
 20
24.41300346790464
 30
0.0
 10
64.79323898454655
 20
24.9315131395951
 30
0.0
 10
64.79323898454655
 20
25.52284363728339
 30
0.0
 10
64.79323898454655
 20
26.17692573437925
 30
0.0
 10
64.79323898454655
 20
26.8825548581906
 30
0.0
 10
64.79323898454655
 20
27.62766244224255
 30
0.0
 10
64.79323898454655
 20
28.39949147236859
 30
0.0
 10
64.79323898454655
 20
28.92307317454135
 30
0.0
 10
64.79323898454655
 20
29.18486402533453
 30
0.0
  0
SPLINE
  5
15E
330
1F
100
AcDbEntity
  8
0
  6
Continuous
 62
     8
370
    25
100
AcDbSpline
210
0.0
220
0.0
230
1.0
 70
    24
 71
     3
 72
    20
 73
    16
 74
     0
 42
0.000000001
 43
0.00000001
 40
0.0
 40
0.0
 40
0.0
 40
0.0
 40
0.0833038234619481
 40
0.1666076635102581
 40
0.249911489340368
 40
0.3332153018801771
 40
0.4165191492991681
 40
0.4998229424998784
 40
0.5831267938021643
 40
0.666430631792197
 40
0.7497344306744167
 40
0.833038272770876
 40
0.9163421023766766
 40
0.9996459317958752
 40
1.0
 40
1.0
 40
1.0
 40
1.0
 10
46.5013390501355
 20
29.19459619799163
 30
0.0
 10
46.5013390501355
 20
28.93278930091639
 30
0.0
 10
46.5013390501355
 20
28.40917545463836
 30
0.0
 10
46.5013390501355
 20
27.63708787048864
 30
0.0
 10
46.5013390501355
 20
26.89157281405174
 30
0.0
 10
46.5013390501355
 20
26.18537668918559
 30
0.0
 10
46.5013390501355
 20
25.53059145335534
 30
0.0
 10
46.5013390501355
 20
24.93839721721356
 30
0.0
 10
46.5013390501355
 20
24.41900988288887
 30
0.0
 10
46.5013390501355
 20
23.98100726793412
 30
0.0
 10
46.5013390501355
 20
23.6330354426205
 30
0.0
 10
46.50133905013548
 20
23.37675278638268
 30
0.0
 10
46.50133905013556
 20
23.23257183072502
 30
0.0
 10
46.50133905013536
 20
23.17282861786214
 30
0.0
 10
46.5013390501355
 20
23.18987537574911
 30
0.0
 10
46.5013390501355
 20
23.18994752333019
 30
0.0
  0
SPLINE
  5
15F
330
1F
100
AcDbEntity
  8
0
  6
Continuous
 62
     8
370
    25
100
AcDbSpline
210
0.0
220
0.0
230
1.0
 70
    24
 71
     3
 72
    19
 73
    15
 74
     0
 42
0.000000001
 43
0.00000001
 40
0.0
 40
0.0
 40
0.0
 40
0.0
 40
0.0828604653630955
 40
0.1662367987221346
 40
0.2496131178506003
 40
0.3329894236771999
 40
0.4163657644133341
 40
0.4997420508840053
 40
0.5831183955068138
 40
0.6664947268057843
 40
0.7498710189629091
 40
0.8332473543718799
 40
0.916623677279322
 40
1.0
 40
1.0
 40
1.0
 40
1.0
 10
46.5013390501355
 20
35.18941444546435
 30
0.0
 10
46.5013390501355
 20
35.17975937388909
 30
0.0
 10
46.5013390501355
 20
35.16038912074037
 30
0.0
 10
46.5013390501355
 20
35.00186944199903
 30
0.0
 10
46.5013390501355
 20
34.75106111662001
 30
0.0
 10
46.5013390501355
 20
34.40309153924838
 30
0.0
 10
46.5013390501355
 20
33.96645675542151
 30
0.0
 10
46.5013390501355
 20
33.44794708373105
 30
0.0
 10
46.5013390501355
 20
32.85661658604276
 30
0.0
 10
46.5013390501355
 20
32.20253448894691
 30
0.0
 10
46.5013390501355
 20
31.49690536513555
 30
0.0
 10
46.5013390501355
 20
30.7517977810836
 30
0.0
 10
46.5013390501355
 20
29.97996875095757
 30
0.0
 10
46.5013390501355
 20
29.4563870487848
 30
0.0
 10
46.5013390501355
 20
29.19459619799163
 30
0.0
  0
SPLINE
  5
160
330
1F
100
AcDbEntity
  8
0
  6
Continuous
 62
     8
370
    25
100
AcDbSpline
210
0.0
220
0.0
230
1.0
 70
    24
 71
     3
 72
    19
 73
    15
 74
     0
 42
0.000000001
 43
0.00000001
 40
0.0
 40
0.0
 40
0.0
 40
0.0
 40
0.0833763227206779
 40
0.1667526456281201
 40
0.2501289810370909
 40
0.3335052731942157
 40
0.4168816044931862
 40
0.5002579491159946
 40
0.5836342355866659
 40
0.6670105763228
 40
0.7503868821493995
 40
0.8337632012778654
 40
0.9171395346369046
 40
1.0
 40
1.0
 40
1.0
 40
1.0
 10
55.64242293101248
 20
38.33568007886861
 30
0.0
 10
55.38063208021929
 20
38.33568007886861
 30
0.0
 10
54.85705037804653
 20
38.33568007886861
 30
0.0
 10
54.0852213479205
 20
38.33568007886861
 30
0.0
 10
53.34011376386854
 20
38.33568007886861
 30
0.0
 10
52.63448464005719
 20
38.33568007886861
 30
0.0
 10
51.98040254296134
 20
38.33568007886861
 30
0.0
 10
51.38907204527305
 20
38.33568007886861
 30
0.0
 10
50.87056237358259
 20
38.33568007886861
 30
0.0
 10
50.43392758975571
 20
38.33568007886861
 30
0.0
 10
50.08595801238409
 20
38.33568007886861
 30
0.0
 10
49.83514968700507
 20
38.33568007886861
 30
0.0
 10
49.67663000826373
 20
38.33568007886861
 30
0.0
 10
49.65725975511501
 20
38.33568007886861
 30
0.0
 10
49.64760468353975
 20
38.33568007886861
 30
0.0
  0
SPLINE
  5
161
330
1F
100
AcDbEntity
  8
0
  6
Continuous
 62
     8
370
    25
100
AcDbSpline
210
0.0
220
0.0
230
1.0
 70
    24
 71
     3
 72
    20
 73
    16
 74
     0
 42
0.000000001
 43
0.00000001
 40
0.0
 40
0.0
 40
0.0
 40
0.0
 40
0.0003540682041247
 40
0.0836578976233233
 40
0.1669617272291239
 40
0.2502655693255832
 40
0.3335693682078029
 40
0.4168732061978356
 40
0.5001770575001214
 40
0.5834808507008317
 40
0.6667846981198228
 40
0.7500885106596319
 40
0.8333923364897418
 40
0.9166961765380518
 40
0.9999999999999999
 40
0.9999999999999999
 40
0.9999999999999999
 40
0.9999999999999999
 10
61.64707160567391
 20
38.33568007886861
 30
0.0
 10
61.64714375325499
 20
38.33568007886861
 30
0.0
 10
61.664190511142
 20
38.33568007886854
 30
0.0
 10
61.60444729827906
 20
38.33568007886863
 30
0.0
 10
61.46026634262142
 20
38.33568007886859
 30
0.0
 10
61.2039836863836
 20
38.33568007886861
 30
0.0
 10
60.85601186106997
 20
38.33568007886861
 30
0.0
 10
60.41800924611523
 20
38.33568007886861
 30
0.0
 10
59.89862191179053
 20
38.33568007886861
 30
0.0
 10
59.30642767564876
 20
38.33568007886861
 30
0.0
 10
58.65164243981851
 20
38.33568007886861
 30
0.0
 10
57.94544631495236
 20
38.33568007886861
 30
0.0
 10
57.19993125851546
 20
38.33568007886861
 30
0.0
 10
56.42784367436573
 20
38.33568007886861
 30
0.0
 10
55.90422982808771
 20
38.33568007886861
 30
0.0
 10
55.64242293101248
 20
38.33568007886861
 30
0.0
  0
LWPOLYLINE
  5
162
330
1F
100
AcDbEntity
  8
0
  6
Continuous
 62
     8
370
    25
100
AcDbPolyline
 90
        9
 70
   128
 43
0.0
 10
50.212974297
 20
34.4487443121
 10
50.0254320075
 20
34.6302371958
 10
49.8630913069
 20
34.7873410696
 10
49.7266800237
 20
34.9193518536
 10
49.6168100369
 20
35.0256776923
 10
49.5339735505
 20
35.1058417486
 10
49.4785421622
 20
35.1594849975
 10
49.4507640695
 20
35.186367158
 10
49.4472888393
 20
35.1897301638
  0
LWPOLYLINE
  5
163
330
1F
100
AcDbEntity
  8
0
  6
Continuous
 62
     8
370
    25
100
AcDbPolyline
 90
        9
 70
   128
 43
0.0
 10
61.8472891954
 20
35.1897301638
 10
61.8438139652
 20
35.186367158
 10
61.8160358725
 20
35.1594849975
 10
61.7606044841
 20
35.1058417486
 10
61.6777679977
 20
35.0256776923
 10
61.567898011
 20
34.9193518536
 10
61.4314867278
 20
34.7873410696
 10
61.2691460272
 20
34.6302371958
 10
61.0816037377
 20
34.4487443121
  0
LWPOLYLINE
  5
164
330
1F
100
AcDbEntity
  8
0
  6
Continuous
 62
     8
370
    25
100
AcDbPolyline
 90
        9
 70
   128
 43
0.0
 10
49.6472889652
 20
35.3897302897
 10
49.650651971
 20
35.3862550595
 10
49.6775341315
 20
35.3584769668
 10
49.7311773804
 20
35.3030455785
 10
49.8113414367
 20
35.2202090921
 10
49.9176672754
 20
35.1103391053
 10
50.0496780594
 20
34.9739278221
 10
50.2067819332
 20
34.8115871215
 10
50.3882748169
 20
34.624044832
  0
LWPOLYLINE
  5
165
330
1F
100
AcDbEntity
  8
0
  6
Continuous
 62
     8
370
    25
100
AcDbPolyline
 90
        9
 70
   128
 43
0.0
 10
60.8586805036
 20
34.5748346785
 10
61.0488048849
 20
34.7712962443
 10
61.2139255834
 20
34.9419215249
 10
61.3532789146
 20
35.0859198274
 10
61.4662190062
 20
35.2026247905
 10
61.552223852
 20
35.2914962472
 10
61.6108948459
 20
35.3521225528
 10
61.6419600417
 20
35.384223845
 10
61.6472890695
 20
35.3897302897
  0
LINE
  5
166
330
1F
100
AcDbEntity
  8
0
  6
Continuous
 62
     7
370
    18
100
AcDbLine
 10
76.7820632948
 20
23.4401918078
 30
0.0
 11
65.7882890173
 21
23.0966363617
 31
0.0
  0
LINE
  5
167
330
1F
100
AcDbEntity
  8
0
  6
Continuous
 62
     7
370
    18
100
AcDbLine
 10
76.7820632948
 20
34.9392684155
 30
0.0
 11
65.7882890173
 21
35.2828238617
 31
0.0
  0
LINE
  5
168
330
1F
100
AcDbEntity
  8
0
  6
Continuous
 62
     7
370
    18
100
AcDbLine
 10
65.7882890173
 20
35.9513238617
 30
0.0
 11
65.7882890173
 21
22.4281363617
 31
0.0
  0
LINE
  5
169
330
1F
100
AcDbEntity
  8
0
  6
Continuous
 62
     7
370
    18
100
AcDbLine
 10
61.3968273212
 20
50.3245043891
 30
0.0
 11
61.7403827673
 21
39.3307301117
 31
0.0
  0
LINE
  5
16A
330
1F
100
AcDbEntity
  8
0
  6
Continuous
 62
     7
370
    18
100
AcDbLine
 10
49.8977507135
 20
50.3245043891
 30
0.0
 11
49.5541952673
 21
39.3307301117
 31
0.0
  0
LINE
  5
16B
330
1F
100
AcDbEntity
  8
0
  6
Continuous
 62
     7
370
    18
100
AcDbLine
 10
48.8856952673
 20
39.3307301117
 30
0.0
 11
62.4088827673
 21
39.3307301117
 31
0.0
  0
LINE
  5
16C
330
1F
100
AcDbEntity
  8
0
  6
Continuous
 62
     7
370
    18
100
AcDbLine
 10
34.5125147399
 20
34.9392684155
 30
0.0
 11
45.5062890173
 21
35.2828238617
 31
0.0
  0
LINE
  5
16D
330
1F
100
AcDbEntity
  8
0
  6
Continuous
 62
     7
370
    18
100
AcDbLine
 10
34.5125147399
 20
23.4401918078
 30
0.0
 11
45.5062890173
 21
23.0966363617
 31
0.0
  0
LINE
  5
16E
330
1F
100
AcDbEntity
  8
0
  6
Continuous
 62
     7
370
    18
100
AcDbLine
 10
45.5062890173
 20
22.4281363617
 30
0.0
 11
45.5062890173
 21
35.9513238617
 31
0.0
  0
LINE
  5
16F
330
1F
100
AcDbEntity
  8
0
  6
CENTERX2
 62
     7
370
    18
100
AcDbLine
 10
55.6472890173
 20
21.6900223626
 30
0.0
 11
55.6472890173
 21
52.1897301117
 31
0.0
  0
LINE
  5
170
330
1F
100
AcDbEntity
  8
0
  6
CENTERX2
 62
     7
370
    18
100
AcDbLine
 10
32.6472890173
 20
29.1897301117
 30
0.0
 11
78.6472890173
 21
29.1897301117
 31
0.0
  0
ARC
  5
171
330
1F
100
AcDbEntity
  8
0
  6
Continuous
 62
     7
370
    25
100
AcDbCircle
 10
91.1109053783
 20
40.1897301117
 30
0.0
 40
0.9999999999999991
100
AcDbArc
 50
239.2294876038
 51
247.9496777661
  0
ARC
  5
172
330
1F
100
AcDbEntity
  8
0
  6
Continuous
 62
     7
370
    25
100
AcDbCircle
 10
103.6109053783
 20
40.1897301117
 30
0.0
 40
0.9999999999999991
100
AcDbArc
 50
291.6052365291
 51
300.7705123962
  0
LINE
  5
173
330
1F
100
AcDbEntity
  8
0
  6
Continuous
 62
     7
370
    25
100
AcDbLine
 10
104.1225061074
 20
39.3305067459
 30
0.0
 11
103.8171980783
 21
49.1003711262
 31
0.0
  0
LINE
  5
174
330
1F
100
AcDbEntity
  8
0
  6
Continuous
 62
     7
370
    25
100
AcDbLine
 10
90.9046126783
 20
49.1003711262
 30
0.0
 11
90.5993046492
 21
39.3305067459
 31
0.0
  0
SPLINE
  5
175
330
1F
100
AcDbEntity
  8
0
  6
Continuous
 62
     7
370
    25
100
AcDbSpline
210
0.0
220
0.0
230
1.0
 70
     8
 71
     3
 72
    11
 73
     7
 74
     0
 42
0.000000001
 43
0.00000001
 40
0.0
 40
0.0
 40
0.0
 40
0.0
 40
0.2500907897024823
 40
0.5000509169085089
 40
0.7499732838271033
 40
1.0
 40
1.0
 40
1.0
 40
1.0
 10
103.358506809155
 20
38.33568007886861
 30
0.0
 10
103.3671440195275
 20
38.43440642789827
 30
0.0
 10
103.3844139276734
 20
38.63180754536466
 30
0.0
 10
103.517667374245
 20
38.90119351661225
 30
0.0
 10
103.7168470910809
 20
39.12622347341596
 30
0.0
 10
103.8931128029878
 20
39.21666567331877
 30
0.0
 10
103.9812640540101
 20
39.26189621180747
 30
0.0
  0
LINE
  5
176
330
1F
100
AcDbEntity
  8
0
  6
Continuous
 62
     7
370
    25
100
AcDbLine
 10
103.8171980783
 20
49.1003711262
 30
0.0
 11
102.6109053075
 21
51.1897299925
 31
0.0
  0
LINE
  5
177
330
1F
100
AcDbEntity
  8
0
  6
Continuous
 62
     7
370
    25
100
AcDbLine
 10
92.1109054491
 20
51.1897299925
 30
0.0
 11
90.9046126783
 21
49.1003711262
 31
0.0
  0
LINE
  5
178
330
1F
100
AcDbEntity
  8
0
  6
Continuous
 62
     7
370
    25
100
AcDbLine
 10
91.3609053261
 20
38.3356800789
 30
0.0
 11
91.3609053261
 21
35.889729906
 31
0.0
  0
LINE
  5
179
330
1F
100
AcDbEntity
  8
0
  6
Continuous
 62
     7
370
    25
100
AcDbLine
 10
103.3609054304
 20
35.889729906
 30
0.0
 11
103.3609054304
 21
38.3356800789
 31
0.0
  0
CIRCLE
  5
17A
330
1F
100
AcDbEntity
  8
0
  6
Continuous
 62
     7
370
    25
100
AcDbCircle
 10
97.3609053783
 20
29.1897301117
 30
0.0
 40
5.25
  0
CIRCLE
  5
17B
330
1F
100
AcDbEntity
  8
0
  6
Continuous
 62
     7
370
    25
100
AcDbCircle
 10
97.3609053783
 20
29.1897301117
 30
0.0
 40
4.500000000000014
  0
CIRCLE
  5
17C
330
1F
100
AcDbEntity
  8
0
  6
Continuous
 62
     7
370
    25
100
AcDbCircle
 10
97.3609053783
 20
29.1897301117
 30
0.0
 40
4.0
  0
CIRCLE
  5
17D
330
1F
100
AcDbEntity
  8
0
  6
Continuous
 62
     7
370
    25
100
AcDbCircle
 10
97.3609053783
 20
29.1897301117
 30
0.0
 40
6.456292496656172
  0
CIRCLE
  5
17E
330
1F
100
AcDbEntity
  8
0
  6
Continuous
 62
     7
370
    25
100
AcDbCircle
 10
97.3609053783
 20
29.1897301117
 30
0.0
 40
6.761600728405625
  0
LINE
  5
17F
330
1F
100
AcDbEntity
  8
0
  6
Continuous
 62
     7
370
    25
100
AcDbLine
 10
97.3609053783
 20
39.3305067459
 30
0.0
 11
90.5993046492
 21
39.3305067459
 31
0.0
  0
LINE
  5
180
330
1F
100
AcDbEntity
  8
0
  6
Continuous
 62
     7
370
    25
100
AcDbLine
 10
104.1225061074
 20
39.3305067459
 30
0.0
 11
97.3609053783
 21
39.3305067459
 31
0.0
  0
LINE
  5
181
330
1F
100
AcDbEntity
  8
0
  6
Continuous
 62
     7
370
    25
100
AcDbLine
 10
90.9046126783
 20
49.1003711262
 30
0.0
 11
103.8171980783
 21
49.1003711262
 31
0.0
  0
SPLINE
  5
182
330
1F
100
AcDbEntity
  8
0
  6
Continuous
 62
     7
370
    25
100
AcDbSpline
210
0.0
220
0.0
230
1.0
 70
     8
 71
     3
 72
     9
 73
     5
 74
     0
 42
0.000000001
 43
0.00000001
 40
0.0018135121066271
 40
0.0018135121066271
 40
0.0018135121066271
 40
0.0018135121066271
 40
0.5018135121066271
 40
1.0
 40
1.0
 40
1.0
 40
1.0
 10
91.35880279854254
 20
38.33568048988916
 30
0.0
 10
91.35884466087818
 20
38.5334137486057
 30
0.0
 10
91.23814625360906
 20
38.92771734060663
 30
0.0
 10
90.9181371296947
 20
39.18761141770543
 30
0.0
 10
90.73557835308272
 20
39.2618962640307
 30
0.0
  0
LINE
  5
183
330
1F
100
AcDbEntity
  8
0
  6
Continuous
 62
     7
370
    25
100
AcDbLine
 10
91.3609053261
 20
24.3897298837
 30
0.0
 11
91.3609053261
 21
26.0721599238
 31
0.0
  0
LINE
  5
184
330
1F
100
AcDbEntity
  8
0
  6
Continuous
 62
     7
370
    25
100
AcDbLine
 10
91.3609053261
 20
24.3897298837
 30
0.0
 11
91.5609054521
 21
24.3897298837
 31
0.0
  0
LINE
  5
185
330
1F
100
AcDbEntity
  8
0
  6
Continuous
 62
     7
370
    25
100
AcDbLine
 10
103.3609054304
 20
26.0721599238
 30
0.0
 11
103.3609054304
 21
24.3897298837
 31
0.0
  0
LINE
  5
186
330
1F
100
AcDbEntity
  8
0
  6
Continuous
 62
     7
370
    25
100
AcDbLine
 10
103.3609054304
 20
24.3897298837
 30
0.0
 11
103.1609053045
 21
24.3897298837
 31
0.0
  0
LINE
  5
187
330
1F
100
AcDbEntity
  8
0
  6
Continuous
 62
     7
370
    25
100
AcDbLine
 10
91.3609053261
 20
32.3073002996
 30
0.0
 11
91.3609053261
 21
33.9897303397
 31
0.0
  0
LINE
  5
188
330
1F
100
AcDbEntity
  8
0
  6
Continuous
 62
     7
370
    25
100
AcDbLine
 10
91.3609053261
 20
33.9897303397
 30
0.0
 11
91.5609054521
 21
33.9897303397
 31
0.0
  0
LINE
  5
189
330
1F
100
AcDbEntity
  8
0
  6
Continuous
 62
     7
370
    25
100
AcDbLine
 10
103.1609053045
 20
33.9897303397
 30
0.0
 11
103.3609054304
 21
33.9897303397
 31
0.0
  0
LINE
  5
18A
330
1F
100
AcDbEntity
  8
0
  6
Continuous
 62
     7
370
    25
100
AcDbLine
 10
103.3609054304
 20
33.9897303397
 30
0.0
 11
103.3609054304
 21
32.3073002996
 31
0.0
  0
LINE
  5
18B
330
1F
100
AcDbEntity
  8
0
  6
Continuous
 62
     7
370
    25
100
AcDbLine
 10
91.5609054521
 20
33.9897303397
 30
0.0
 11
91.5609054521
 21
34.1897299999
 31
0.0
  0
LINE
  5
18C
330
1F
100
AcDbEntity
  8
0
  6
Continuous
 62
     7
370
    25
100
AcDbLine
 10
91.5609054521
 20
34.1897299999
 30
0.0
 11
92.8090658292
 21
34.1897299999
 31
0.0
  0
LINE
  5
18D
330
1F
100
AcDbEntity
  8
0
  6
Continuous
 62
     7
370
    25
100
AcDbLine
 10
101.9127449274
 20
34.1897299999
 30
0.0
 11
103.1609053045
 21
34.1897299999
 31
0.0
  0
LINE
  5
18E
330
1F
100
AcDbEntity
  8
0
  6
Continuous
 62
     7
370
    25
100
AcDbLine
 10
103.1609053045
 20
33.9897303397
 30
0.0
 11
103.1609053045
 21
34.1897299999
 31
0.0
  0
ARC
  5
18F
330
1F
100
AcDbEntity
  8
0
  6
Continuous
 62
     7
370
    25
100
AcDbCircle
 10
103.1609053783
 20
33.9897301117
 30
0.0
 40
0.1999999999999957
100
AcDbArc
 50
0.0
 51
90.0
  0
LINE
  5
190
330
1F
100
AcDbEntity
  8
0
  6
Continuous
 62
     7
370
    25
100
AcDbLine
 10
91.5609054521
 20
24.1897302234
 30
0.0
 11
91.5609054521
 21
24.3897298837
 31
0.0
  0
ARC
  5
191
330
1F
100
AcDbEntity
  8
0
  6
Continuous
 62
     7
370
    25
100
AcDbCircle
 10
91.5609053783
 20
24.3897301117
 30
0.0
 40
0.1999999999999993
100
AcDbArc
 50
180.0
 51
270.0
  0
LINE
  5
192
330
1F
100
AcDbEntity
  8
0
  6
Continuous
 62
     7
370
    25
100
AcDbLine
 10
92.8090658292
 20
24.1897302234
 30
0.0
 11
91.5609054521
 21
24.1897302234
 31
0.0
  0
ARC
  5
193
330
1F
100
AcDbEntity
  8
0
  6
Continuous
 62
     7
370
    25
100
AcDbCircle
 10
91.5609053783
 20
33.9897301117
 30
0.0
 40
0.1999999999999957
100
AcDbArc
 50
90.0
 51
180.0
  0
ARC
  5
194
330
1F
100
AcDbEntity
  8
0
  6
Continuous
 62
     7
370
    25
100
AcDbCircle
 10
103.1609053783
 20
24.3897301117
 30
0.0
 40
0.1999999999999993
100
AcDbArc
 50
270.0
 51
0.0
  0
LINE
  5
195
330
1F
100
AcDbEntity
  8
0
  6
Continuous
 62
     7
370
    25
100
AcDbLine
 10
103.1609053045
 20
24.3897298837
 30
0.0
 11
103.1609053045
 21
24.1897302234
 31
0.0
  0
LINE
  5
196
330
1F
100
AcDbEntity
  8
0
  6
Continuous
 62
     7
370
    25
100
AcDbLine
 10
103.1609053045
 20
24.1897302234
 30
0.0
 11
101.9127449274
 21
24.1897302234
 31
0.0
  0
LINE
  5
197
330
1F
100
AcDbEntity
  8
0
  6
Continuous
 62
     7
370
    25
100
AcDbLine
 10
102.6109053075
 20
51.1897299925
 30
0.0
 11
92.1109054491
 21
51.1897299925
 31
0.0
  0
SPLINE
  5
198
330
1F
100
AcDbEntity
  8
0
  6
Continuous
 62
     7
370
    25
100
AcDbSpline
210
0.0
220
0.0
230
1.0
 70
    24
 71
     3
 72
    14
 73
    10
 74
     0
 42
0.000000001
 43
0.00000001
 40
0.0
 40
0.0
 40
0.0
 40
0.0
 40
0.25
 40
0.25
 40
0.5
 40
0.5
 40
0.75
 40
0.75
 40
1.0
 40
1.0
 40
1.0
 40
1.0
 10
103.3609053782918
 20
35.88973011166308
 30
0.0
 10
103.3609053782918
 20
35.88973011166308
 30
0.0
 10
103.352939959658
 20
35.88973011166308
 30
0.0
 10
103.3210067829126
 20
35.88973011166308
 30
0.0
 10
103.2970387918686
 20
35.88973011166308
 30
0.0
 10
103.2328889787089
 20
35.88973011166308
 30
0.0
 10
103.1927066772063
 20
35.88973011166308
 30
0.0
 10
103.0957873808868
 20
35.88973011166308
 30
0.0
 10
103.0390496334567
 20
35.88973011166308
 30
0.0
 10
102.9738086040983
 20
35.88973011166308
 30
0.0
  0
LINE
  5
199
330
1F
100
AcDbEntity
  8
0
  6
Continuous
 62
     7
370
    25
100
AcDbLine
 10
101.158599022
 20
35.889729906
 30
0.0
 11
102.9738086529
 21
35.889729906
 31
0.0
  0
SPLINE
  5
19A
330
1F
100
AcDbEntity
  8
0
  6
Continuous
 62
     7
370
    25
100
AcDbSpline
210
0.0
220
0.0
230
1.0
 70
     8
 71
     3
 72
    12
 73
     8
 74
     0
 42
0.000000001
 43
0.00000001
 40
0.0
 40
0.0
 40
0.0
 40
0.0
 40
0.4999999999999986
 40
0.4999999999999986
 40
0.7499999999999992
 40
0.7499999999999992
 40
1.0
 40
1.0
 40
1.0
 40
1.0
 10
101.1585989661012
 20
35.88973011166308
 30
0.0
 10
101.04996409654
 20
35.88973011166308
 30
0.0
 10
100.9387103554791
 20
35.8603224870806
 30
0.0
 10
100.7863120955963
 20
35.7686659220122
 30
0.0
 10
100.7371025640736
 20
35.72930417604191
 30
0.0
 10
100.6580276101067
 20
35.6268779558563
 30
0.0
 10
100.6283782201242
 20
35.56074109238593
 30
0.0
 10
100.6283782201242
 20
35.48973011166308
 30
0.0
  0
LINE
  5
19B
330
1F
100
AcDbEntity
  8
0
  6
Continuous
 62
     7
370
    25
100
AcDbLine
 10
100.628378221
 20
35.1897301638
 30
0.0
 11
100.628378221
 21
35.4897301199
 31
0.0
  0
LINE
  5
19C
330
1F
100
AcDbEntity
  8
0
  6
Continuous
 62
     7
370
    25
100
AcDbLine
 10
94.0442805897
 20
35.1897301638
 30
0.0
 11
94.0638388295
 21
35.0753763245
 31
0.0
  0
LINE
  5
19D
330
1F
100
AcDbEntity
  8
0
  6
Continuous
 62
     7
370
    25
100
AcDbLine
 10
94.0442805897
 20
35.1897301638
 30
0.0
 11
94.0442805897
 21
35.889729906
 31
0.0
  0
LINE
  5
19E
330
1F
100
AcDbEntity
  8
0
  6
Continuous
 62
     7
370
    25
100
AcDbLine
 10
91.7480021037
 20
35.889729906
 30
0.0
 11
94.0442805897
 21
35.889729906
 31
0.0
  0
SPLINE
  5
19F
330
1F
100
AcDbEntity
  8
0
  6
Continuous
 62
     7
370
    25
100
AcDbSpline
210
0.0
220
0.0
230
1.0
 70
    24
 71
     3
 72
    14
 73
    10
 74
     0
 42
0.000000001
 43
0.00000001
 40
0.0
 40
0.0
 40
0.0
 40
0.0
 40
0.25
 40
0.25
 40
0.5
 40
0.5
 40
0.75
 40
0.75
 40
1.0
 40
1.0
 40
1.0
 40
1.0
 10
91.36090537829182
 20
35.88973011166308
 30
0.0
 10
91.36090537829182
 20
35.88973011166308
 30
0.0
 10
91.36887079692563
 20
35.88973011166308
 30
0.0
 10
91.40080397367103
 20
35.88973011166308
 30
0.0
 10
91.42477196471502
 20
35.88973011166308
 30
0.0
 10
91.48892177787476
 20
35.88973011166308
 30
0.0
 10
91.52910407937729
 20
35.88973011166308
 30
0.0
 10
91.62602337569689
 20
35.88973011166308
 30
0.0
 10
91.6827611231269
 20
35.88973011166308
 30
0.0
 10
91.74800215248537
 20
35.88973011166308
 30
0.0
  0
LINE
  5
1A0
330
1F
100
AcDbEntity
  8
0
  6
Continuous
 62
     7
370
    25
100
AcDbLine
 10
91.3609053261
 20
35.1897301638
 30
0.0
 11
91.5609054521
 21
35.1897301638
 31
0.0
  0
LINE
  5
1A1
330
1F
100
AcDbEntity
  8
0
  6
Continuous
 62
     7
370
    25
100
AcDbLine
 10
91.5609054521
 20
35.1897301638
 30
0.0
 11
91.5609054521
 21
34.1897299999
 31
0.0
  0
LINE
  5
1A2
330
1F
100
AcDbEntity
  8
0
  6
Continuous
 62
     7
370
    25
100
AcDbLine
 10
91.3609053261
 20
33.9897303397
 30
0.0
 11
91.3609053261
 21
35.1897301638
 31
0.0
  0
LINE
  5
1A3
330
1F
100
AcDbEntity
  8
0
  6
Continuous
 62
     7
370
    25
100
AcDbLine
 10
100.7372940678
 20
35.1897301638
 30
0.0
 11
103.1609053045
 21
35.1897301638
 31
0.0
  0
LINE
  5
1A4
330
1F
100
AcDbEntity
  8
0
  6
Continuous
 62
     7
370
    25
100
AcDbLine
 10
103.1609053045
 20
34.1897299999
 30
0.0
 11
103.1609053045
 21
35.1897301638
 31
0.0
  0
LINE
  5
1A5
330
1F
100
AcDbEntity
  8
0
  6
Continuous
 62
     7
370
    25
100
AcDbLine
 10
91.5609054521
 20
35.1897301638
 30
0.0
 11
94.0442805897
 21
35.1897301638
 31
0.0
  0
LINE
  5
1A6
330
1F
100
AcDbEntity
  8
0
  6
Continuous
 62
     7
370
    25
100
AcDbLine
 10
103.1609053045
 20
35.1897301638
 30
0.0
 11
103.3609054304
 21
35.1897301638
 31
0.0
  0
LINE
  5
1A7
330
1F
100
AcDbEntity
  8
0
  6
Continuous
 62
     7
370
    25
100
AcDbLine
 10
103.3609054304
 20
35.1897301638
 30
0.0
 11
103.3609054304
 21
33.9897303397
 31
0.0
  0
LINE
  5
1A8
330
1F
100
AcDbEntity
  8
0
  6
Continuous
 62
     7
370
    25
100
AcDbLine
 10
100.7372940678
 20
35.1897301638
 30
0.0
 11
100.628378221
 21
35.1897301638
 31
0.0
  0
SPLINE
  5
1A9
330
1F
100
AcDbEntity
  8
0
  6
Continuous
 62
     7
370
    25
100
AcDbSpline
210
0.0
220
0.0
230
1.0
 70
     8
 71
     3
 72
    14
 73
    10
 74
     0
 42
0.000000001
 43
0.00000001
 40
0.0
 40
0.0
 40
0.0
 40
0.0
 40
0.1250000000000005
 40
0.1250000000000005
 40
0.2500000000000009
 40
0.2500000000000009
 40
0.5000000000000007
 40
0.5000000000000007
 40
1.0
 40
1.0
 40
1.0
 40
1.0
 10
100.7372939815186
 20
35.48973011166308
 30
0.0
 10
100.7372939815186
 20
35.51745536785952
 30
0.0
 10
100.7551278145979
 20
35.54101933500394
 30
0.0
 10
100.7941840493358
 20
35.57614698821077
 30
0.0
 10
100.81686824904
 20
35.5897394848491
 30
0.0
 10
100.8861653110743
 20
35.62465099708292
 30
0.0
 10
100.9354757176519
 20
35.64060035582601
 30
0.0
 10
101.0837199254125
 20
35.6782693889791
 30
0.0
 10
101.1848375269961
 20
35.68973011166307
 30
0.0
 10
101.2851887523615
 20
35.68973011166307
 30
0.0
  0
LINE
  5
1AA
330
1F
100
AcDbEntity
  8
0
  6
Continuous
 62
     7
370
    25
100
AcDbLine
 10
100.7372940678
 20
35.4897301199
 30
0.0
 11
100.628378221
 21
35.4897301199
 31
0.0
  0
LWPOLYLINE
  5
1AB
330
1F
100
AcDbEntity
  8
0
  6
Continuous
 62
     7
370
    25
100
AcDbPolyline
 90
        9
 70
   128
 43
0.0
 10
101.158599022
 20
35.889729906
 10
101.1610314037
 20
35.8507121468
 10
101.168234951
 20
35.8131933512
 10
101.1799332939
 20
35.778616138
 10
101.1956763707
 20
35.7483085731
 10
101.2148592874
 20
35.7234362067
 10
101.2367449023
 20
35.7049541102
 10
101.2604922309
 20
35.6935728827
 10
101.2851885773
 20
35.6897302458
  0
LINE
  5
1AC
330
1F
100
AcDbEntity
  8
0
  6
Continuous
 62
     7
370
    25
100
AcDbLine
 10
100.7372940678
 20
35.4897301199
 30
0.0
 11
100.7372940678
 21
35.1897301638
 31
0.0
  0
SPLINE
  5
1AD
330
1F
100
AcDbEntity
  8
0
  6
Continuous
 62
     7
370
    25
100
AcDbSpline
210
0.0
220
0.0
230
1.0
 70
     8
 71
     3
 72
     8
 73
     4
 74
     0
 42
0.000000001
 43
0.00000001
 40
0.0
 40
0.0
 40
0.0
 40
0.0
 40
1.0
 40
1.0
 40
1.0
 40
1.0
 10
91.74800215248537
 20
35.88973011166308
 30
0.0
 10
91.74681863194007
 20
35.83736823176107
 30
0.0
 10
91.72547090387249
 20
35.78532883615404
 30
0.0
 10
91.68962152258742
 20
35.74830450788036
 30
0.0
  0
SPLINE
  5
1AE
330
1F
100
AcDbEntity
  8
0
  6
Continuous
 62
     7
370
    25
100
AcDbSpline
210
0.0
220
0.0
230
1.0
 70
     8
 71
     3
 72
    12
 73
     8
 74
     0
 42
0.000000001
 43
0.00000001
 40
0.0
 40
0.0
 40
0.0
 40
0.0
 40
0.25
 40
0.25
 40
0.5
 40
0.5
 40
1.0
 40
1.0
 40
1.0
 40
1.0
 10
94.04428058793641
 20
35.88973011166308
 30
0.0
 10
94.04428058793641
 20
35.85254927911102
 30
0.0
 10
94.02459869942072
 20
35.81828920387753
 30
0.0
 10
93.97297827372161
 20
35.76656353443118
 30
0.0
 10
93.94097649704148
 20
35.74720878755564
 30
0.0
 10
93.8414147633783
 20
35.70279947391143
 30
0.0
 10
93.76819141331741
 20
35.68973011166307
 30
0.0
 10
93.69484482232716
 20
35.68973011166307
 30
0.0
  0
SPLINE
  5
1AF
330
1F
100
AcDbEntity
  8
0
  6
Continuous
 62
     7
370
    25
100
AcDbSpline
210
0.0
220
0.0
230
1.0
 70
     8
 71
     3
 72
    13
 73
     9
 74
     0
 42
0.000000001
 43
0.00000001
 40
0.0
 40
0.0
 40
0.0
 40
0.0
 40
0.284282899174241
 40
0.5198370183905274
 40
0.7070414958140503
 40
0.8468107266085059
 40
0.9415978142010789
 40
1.0
 40
1.0
 40
1.0
 40
1.0
 10
91.68962152258742
 20
35.74830450788036
 30
0.0
 10
91.67849897819198
 20
35.7382521675007
 30
0.0
 10
91.65816039879718
 20
35.71987055303853
 30
0.0
 10
91.62562441831307
 20
35.70321229632331
 30
0.0
 10
91.59851675967165
 20
35.69442756974099
 30
0.0
 10
91.57905890096869
 20
35.69082797063184
 30
0.0
 10
91.56493218940248
 20
35.68977582457828
 30
0.0
 10
91.56201683416796
 20
35.6897427290635
 30
0.0
 10
91.5609053782918
 20
35.68973011166307
 30
0.0
  0
LINE
  5
1B0
330
1F
100
AcDbEntity
  8
0
  6
Continuous
 62
     7
370
    25
100
AcDbLine
 10
103.1609053045
 20
35.1897301638
 30
0.0
 11
103.1609053045
 21
35.4897301199
 31
0.0
  0
LINE
  5
1B1
330
1F
100
AcDbEntity
  8
0
  6
Continuous
 62
     7
370
    25
100
AcDbLine
 10
103.1609053045
 20
35.4897301199
 30
0.0
 11
103.3609054304
 21
35.4897301199
 31
0.0
  0
LINE
  5
1B2
330
1F
100
AcDbEntity
  8
0
  6
Continuous
 62
     7
370
    25
100
AcDbLine
 10
103.3609054304
 20
35.4897301199
 30
0.0
 11
103.3609054304
 21
35.1897301638
 31
0.0
  0
LINE
  5
1B3
330
1F
100
AcDbEntity
  8
0
  6
Continuous
 62
     7
370
    25
100
AcDbLine
 10
91.5609054521
 20
35.6897302458
 30
0.0
 11
91.5609054521
 21
35.1897301638
 31
0.0
  0
LINE
  5
1B4
330
1F
100
AcDbEntity
  8
0
  6
Continuous
 62
     7
370
    25
100
AcDbLine
 10
91.5609054521
 20
35.6897302458
 30
0.0
 11
93.6948448673
 21
35.6897302458
 31
0.0
  0
ARC
  5
1B5
330
1F
100
AcDbEntity
  8
0
  6
Continuous
 62
     7
370
    25
100
AcDbCircle
 10
91.5609053783
 20
35.4897301117
 30
0.0
 40
0.1999999999999957
100
AcDbArc
 50
90.0
 51
180.0
  0
LINE
  5
1B6
330
1F
100
AcDbEntity
  8
0
  6
Continuous
 62
     7
370
    25
100
AcDbLine
 10
91.3609053261
 20
35.1897301638
 30
0.0
 11
91.3609053261
 21
35.4897301199
 31
0.0
  0
LINE
  5
1B7
330
1F
100
AcDbEntity
  8
0
  6
Continuous
 62
     7
370
    25
100
AcDbLine
 10
101.2851885773
 20
35.6897302458
 30
0.0
 11
103.1609053045
 21
35.6897302458
 31
0.0
  0
LINE
  5
1B8
330
1F
100
AcDbEntity
  8
0
  6
Continuous
 62
     7
370
    25
100
AcDbLine
 10
103.1609053045
 20
35.6897302458
 30
0.0
 11
103.1609053045
 21
35.4897301199
 31
0.0
  0
LINE
  5
1B9
330
1F
100
AcDbEntity
  8
0
  6
Continuous
 62
     7
370
    25
100
AcDbLine
 10
103.1609053045
 20
35.4897301199
 30
0.0
 11
100.7372940678
 21
35.4897301199
 31
0.0
  0
ARC
  5
1BA
330
1F
100
AcDbEntity
  8
0
  6
Continuous
 62
     7
370
    25
100
AcDbCircle
 10
103.1609053783
 20
35.4897301117
 30
0.0
 40
0.1999999999999957
100
AcDbArc
 50
0.0
 51
90.0
  0
SPLINE
  5
1BB
330
1F
100
AcDbEntity
  8
0
  6
Continuous
 62
     7
370
    25
100
AcDbSpline
210
0.0
220
0.0
230
1.0
 70
     8
 71
     3
 72
    10
 73
     6
 74
     0
 42
0.000000001
 43
0.00000001
 40
0.0
 40
0.0
 40
0.0
 40
0.0
 40
0.5
 40
0.5
 40
1.0
 40
1.0
 40
1.0
 40
1.0
 10
103.0321892339962
 20
35.74830450788036
 30
0.0
 10
103.0098595932614
 20
35.77118863937672
 30
0.0
 10
102.994123540629
 20
35.79871978459182
 30
0.0
 10
102.9763637097307
 20
35.84916053187108
 30
0.0
 10
102.9738086040983
 20
35.8719090080556
 30
0.0
 10
102.9738086040983
 20
35.88973011166308
 30
0.0
  0
SPLINE
  5
1BC
330
1F
100
AcDbEntity
  8
0
  6
Continuous
 62
     7
370
    25
100
AcDbSpline
210
0.0
220
0.0
230
1.0
 70
     8
 71
     3
 72
    12
 73
     8
 74
     0
 42
0.000000001
 43
0.00000001
 40
0.0
 40
0.0
 40
0.0
 40
0.0
 40
0.25
 40
0.25
 40
0.5
 40
0.5
 40
1.0
 40
1.0
 40
1.0
 40
1.0
 10
103.0321892339962
 20
35.74830450788036
 30
0.0
 10
103.0433540543636
 20
35.73686244213217
 30
0.0
 10
103.0564366684934
 20
35.72663256287744
 30
0.0
 10
103.0837058433463
 20
35.70968937320472
 30
0.0
 10
103.0978924040695
 20
35.70297606278675
 30
0.0
 10
103.138010544732
 20
35.68974927856269
 30
0.0
 10
103.1609053782918
 20
35.68973011166307
 30
0.0
 10
103.1609053782918
 20
35.68973011166307
 30
0.0
  0
SPLINE
  5
1BD
330
1F
100
AcDbEntity
  8
0
  6
Continuous
 62
     7
370
    25
100
AcDbSpline
210
0.0
220
0.0
230
1.0
 70
     8
 71
     3
 72
    12
 73
     8
 74
     0
 42
0.000000001
 43
0.00000001
 40
0.0
 40
0.0
 40
0.0
 40
0.0
 40
0.25
 40
0.25
 40
0.5
 40
0.5
 40
1.0
 40
1.0
 40
1.0
 40
1.0
 10
91.36173415593477
 20
35.69101390396644
 30
0.0
 10
91.36174055286473
 20
35.68282694704906
 30
0.0
 10
91.36864594448134
 20
35.67680831526856
 30
0.0
 10
91.38586512787548
 20
35.66537147802505
 30
0.0
 10
91.39617891965298
 20
35.65995327256205
 30
0.0
 10
91.41664851140837
 20
35.63899495971489
 30
0.0
 10
91.41957827705207
 20
35.63124572289795
 30
0.0
 10
91.41948402205298
 20
35.63115146789886
 30
0.0
  0
LINE
  5
1BE
330
1F
100
AcDbEntity
  8
0
  6
Continuous
 62
     7
370
    25
100
AcDbLine
 10
91.3606040433
 20
35.5362459572
 30
0.0
 11
91.3602766834
 21
35.5867650846
 31
0.0
  0
LINE
  5
1BF
330
1F
100
AcDbEntity
  8
0
  6
Continuous
 62
     7
370
    25
100
AcDbLine
 10
103.3612067133
 20
35.5362459572
 30
0.0
 11
103.3615340732
 21
35.5867650846
 31
0.0
  0
SPLINE
  5
1C0
330
1F
100
AcDbEntity
  8
0
  6
Continuous
 62
     7
370
    25
100
AcDbSpline
210
0.0
220
0.0
230
1.0
 70
     8
 71
     3
 72
    12
 73
     8
 74
     0
 42
0.000000001
 43
0.00000001
 40
0.0
 40
0.0
 40
0.0
 40
0.0
 40
0.25
 40
0.25
 40
0.5
 40
0.5
 40
1.0
 40
1.0
 40
1.0
 40
1.0
 10
103.3600766006489
 20
35.69101390396644
 30
0.0
 10
103.3600702037189
 20
35.68282694704905
 30
0.0
 10
103.3531648121023
 20
35.67680831526855
 30
0.0
 10
103.3359456287082
 20
35.66537147802504
 30
0.0
 10
103.3256318369307
 20
35.65995327256203
 30
0.0
 10
103.3051622451753
 20
35.63899495971488
 30
0.0
 10
103.3022324795316
 20
35.63124572289795
 30
0.0
 10
103.3023267345307
 20
35.63115146789886
 30
0.0
  0
SPLINE
  5
1C1
330
1F
100
AcDbEntity
  8
0
  6
Continuous
 62
     7
370
    25
100
AcDbSpline
210
0.0
220
0.0
230
1.0
 70
     8
 71
     3
 72
    12
 73
     8
 74
     0
 42
0.000000001
 43
0.00000001
 40
0.0
 40
0.0
 40
0.0
 40
0.0
 40
0.25
 40
0.25
 40
0.5
 40
0.5
 40
1.0
 40
1.0
 40
1.0
 40
1.0
 10
91.36173415593477
 20
35.69101390396644
 30
0.0
 10
91.36172775900478
 20
35.69920086088383
 30
0.0
 10
91.36861926541168
 20
35.71095288068008
 30
0.0
 10
91.39775316531792
 20
35.73643884777916
 30
0.0
 10
91.41999555881729
 20
35.75017279508199
 30
0.0
 10
91.51208169058219
 20
35.78662523087378
 30
0.0
 10
91.59354696805998
 20
35.78115595791482
 30
0.0
 10
91.68962152258742
 20
35.74830450788036
 30
0.0
  0
SPLINE
  5
1C2
330
1F
100
AcDbEntity
  8
0
  6
Continuous
 62
     7
370
    25
100
AcDbSpline
210
0.0
220
0.0
230
1.0
 70
     8
 71
     3
 72
    12
 73
     8
 74
     0
 42
0.000000001
 43
0.00000001
 40
0.0
 40
0.0
 40
0.0
 40
0.0
 40
0.25
 40
0.25
 40
0.5
 40
0.5
 40
1.0
 40
1.0
 40
1.0
 40
1.0
 10
103.3600766006489
 20
35.69101390396644
 30
0.0
 10
103.3600829975789
 20
35.69920086088383
 30
0.0
 10
103.353191491172
 20
35.71095288068007
 30
0.0
 10
103.3240575912657
 20
35.73643884777915
 30
0.0
 10
103.3018151977663
 20
35.75017279508199
 30
0.0
 10
103.2097290660014
 20
35.78662523087377
 30
0.0
 10
103.1282637885237
 20
35.78115595791482
 30
0.0
 10
103.0321892339962
 20
35.74830450788036
 30
0.0
  0
SPLINE
  5
1C3
330
1F
100
AcDbEntity
  8
0
  6
Continuous
 62
     7
370
    25
100
AcDbSpline
210
0.0
220
0.0
230
1.0
 70
     8
 71
     3
 72
    10
 73
     6
 74
     0
 42
0.000000001
 43
0.00000001
 40
0.0
 40
0.0
 40
0.0
 40
0.0
 40
0.5
 40
0.5
 40
1.0
 40
1.0
 40
1.0
 40
1.0
 10
103.3600766006489
 20
35.69101390396644
 30
0.0
 10
103.3601021883688
 20
35.723761731636
 30
0.0
 10
103.3603871923043
 20
35.75851875915477
 30
0.0
 10
103.3573797567115
 20
35.82979491705272
 30
0.0
 10
103.3609053782918
 20
35.85579722971363
 30
0.0
 10
103.3609053782918
 20
35.88973011166308
 30
0.0
  0
SPLINE
  5
1C4
330
1F
100
AcDbEntity
  8
0
  6
Continuous
 62
     7
370
    25
100
AcDbSpline
210
0.0
220
0.0
230
1.0
 70
     8
 71
     3
 72
    10
 73
     6
 74
     0
 42
0.000000001
 43
0.00000001
 40
0.0
 40
0.0
 40
0.0
 40
0.0
 40
0.5
 40
0.5
 40
1.0
 40
1.0
 40
1.0
 40
1.0
 10
91.36173415593477
 20
35.69101390396644
 30
0.0
 10
91.36170856821485
 20
35.723761731636
 30
0.0
 10
91.36142356427932
 20
35.75851875915477
 30
0.0
 10
91.36443099987214
 20
35.82979491705272
 30
0.0
 10
91.36090537829182
 20
35.85579722971363
 30
0.0
 10
91.36090537829182
 20
35.88973011166308
 30
0.0
  0
SPLINE
  5
1C5
330
1F
100
AcDbEntity
  8
0
  6
Continuous
 62
     8
370
    25
100
AcDbSpline
210
0.0
220
0.0
230
1.0
 70
     8
 71
     3
 72
    48
 73
    44
 74
     0
 42
0.000000001
 43
0.00000001
 40
0.0
 40
0.0
 40
0.0
 40
0.0
 40
0.0087362799816988
 40
0.0281170459772675
 40
0.0497313322586104
 40
0.0755991975999553
 40
0.1002935199444022
 40
0.1257982516720855
 40
0.1674253939777847
 40
0.2090491868432355
 40
0.2506702163580502
 40
0.2922890258687971
 40
0.3339062206955977
 40
0.3755223846315167
 40
0.4104869161507582
 40
0.4454514615360319
 40
0.4762240487219241
 40
0.4802553673739826
 40
0.4842866989907738
 40
0.4883180374809885
 40
0.4923493880171024
 40
0.496380748394268
 40
0.5005495893118603
 40
0.5402758841023422
 40
0.5783596329482683
 40
0.6148004440508935
 40
0.6495979642267696
 40
0.6827518408594865
 40
0.7142617354747058
 40
0.7441273438027044
 40
0.7723483614341421
 40
0.798924489696739
 40
0.835692567498085
 40
0.8687613245244323
 40
0.8981293588283116
 40
0.9237954297450793
 40
0.9457584481251806
 40
0.9640174640082019
 40
0.9785716940689075
 40
0.9894204883428598
 40
0.9951251416816319
 40
0.998745008688449
 40
1.0
 40
1.0
 40
1.0
 40
1.0
 10
103.9787075735428
 20
39.26110924423192
 30
0.0
 10
103.9794487743072
 20
39.26103863959643
 30
0.0
 10
103.9818342720262
 20
39.26081140400115
 30
0.0
 10
103.9586581800394
 20
39.26058750909267
 30
0.0
 10
103.9049157056105
 20
39.26069026911514
 30
0.0
 10
103.8087247219201
 20
39.26110788415497
 30
0.0
 10
103.6675438248099
 20
39.2617523323544
 30
0.0
 10
103.4494813403433
 20
39.26274755824944
 30
0.0
 10
103.1129823184354
 20
39.26203946949189
 30
0.0
 10
102.6299722734365
 20
39.26199303541439
 30
0.0
 10
102.0564281179589
 20
39.2617903669332
 30
0.0
 10
101.4027350885457
 20
39.26167517577876
 30
0.0
 10
100.6799371377364
 20
39.26158422396716
 30
0.0
 10
99.94185008672946
 20
39.26153512475157
 30
0.0
 10
99.2098632768809
 20
39.26151947888468
 30
0.0
 10
98.52756528831958
 20
39.26152956932343
 30
0.0
 10
98.04621381530411
 20
39.26155482772123
 30
0.0
 10
97.77732446929564
 20
39.26157176297153
 30
0.0
 10
97.6935174671796
 20
39.26157912843465
 30
0.0
 10
97.6096573351552
 20
39.26158350818256
 30
0.0
 10
97.5257570102781
 20
39.26159215135983
 30
0.0
 10
97.4408745663363
 20
39.26159796775644
 30
0.0
 10
97.1082480918418
 20
39.26162767897918
 30
0.0
 10
96.53866609778999
 20
39.26167921033636
 30
0.0
 10
95.7575377705632
 20
39.26175047638998
 30
0.0
 10
95.03168207163226
 20
39.26182066557782
 30
0.0
 10
94.36726879785259
 20
39.261887607627
 30
0.0
 10
93.76768726833232
 20
39.26195194365103
 30
0.0
 10
93.2341246706329
 20
39.26201317531287
 30
0.0
 10
92.76587624900932
 20
39.26207259284183
 30
0.0
 10
92.36069511972958
 20
39.26213100415293
 30
0.0
 10
91.9639067798624
 20
39.26219227134248
 30
0.0
 10
91.59977265203572
 20
39.26226025235613
 30
0.0
 10
91.2910812942459
 20
39.2623316991335
 30
0.0
 10
91.07200597787262
 20
39.26239766731266
 30
0.0
 10
90.92449269050728
 20
39.26245801936602
 30
0.0
 10
90.8315512849277
 20
39.26251253515817
 30
0.0
 10
90.77798061756035
 20
39.26256184344665
 30
0.0
 10
90.75080836602548
 20
39.26260395885448
 30
0.0
 10
90.74003311706687
 20
39.26263821948256
 30
0.0
 10
90.73668719544206
 20
39.26266887213133
 30
0.0
 10
90.73597675282566
 20
39.26268483705262
 30
0.0
 10
90.73592042365568
 20
39.26270129433559
 30
0.0
 10
90.7359059221842
 20
39.26270553112481
 30
0.0
  0
LINE
  5
1C6
330
1F
100
AcDbEntity
  8
0
  6
Continuous
 62
     8
370
    25
100
AcDbLine
 10
91.3609071888
 20
38.3356800789
 30
0.0
 11
103.3609035678
 21
38.3356800789
 31
0.0
  0
LINE
  5
1C7
330
1F
100
AcDbEntity
  8
0
  6
Continuous
 62
     8
370
    25
100
AcDbLine
 10
91.5609054521
 20
25.7142093518
 30
0.0
 11
91.5609054521
 21
24.3897298837
 31
0.0
  0
LINE
  5
1C8
330
1F
100
AcDbEntity
  8
0
  6
Continuous
 62
     8
370
    25
100
AcDbLine
 10
91.5609054521
 20
24.3897298837
 30
0.0
 11
92.5986325621
 21
24.3897298837
 31
0.0
  0
LINE
  5
1C9
330
1F
100
AcDbEntity
  8
0
  6
Continuous
 62
     8
370
    25
100
AcDbLine
 10
103.1609053045
 20
32.6652508715
 30
0.0
 11
103.1609053045
 21
33.9897303397
 31
0.0
  0
LINE
  5
1CA
330
1F
100
AcDbEntity
  8
0
  6
Continuous
 62
     8
370
    25
100
AcDbLine
 10
103.1609053045
 20
33.9897303397
 30
0.0
 11
102.1231781944
 21
33.9897303397
 31
0.0
  0
LINE
  5
1CB
330
1F
100
AcDbEntity
  8
0
  6
Continuous
 62
     8
370
    25
100
AcDbLine
 10
103.1609053045
 20
24.3897298837
 30
0.0
 11
103.1609053045
 21
25.7142093518
 31
0.0
  0
LINE
  5
1CC
330
1F
100
AcDbEntity
  8
0
  6
Continuous
 62
     8
370
    25
100
AcDbLine
 10
102.1231781944
 20
24.3897298837
 30
0.0
 11
103.1609053045
 21
24.3897298837
 31
0.0
  0
LINE
  5
1CD
330
1F
100
AcDbEntity
  8
0
  6
Continuous
 62
     8
370
    25
100
AcDbLine
 10
91.5609054521
 20
33.9897303397
 30
0.0
 11
91.5609054521
 21
32.6652508715
 31
0.0
  0
LINE
  5
1CE
330
1F
100
AcDbEntity
  8
0
  6
Continuous
 62
     8
370
    25
100
AcDbLine
 10
92.5986325621
 20
33.9897303397
 30
0.0
 11
91.5609054521
 21
33.9897303397
 31
0.0
  0
LINE
  5
1CF
330
1F
100
AcDbEntity
  8
0
  6
Continuous
 62
     8
370
    25
100
AcDbLine
 10
100.6127108142
 20
35.0968740435
 30
0.0
 11
100.628378221
 21
35.1897301638
 31
0.0
  0
LINE
  5
1D0
330
1F
100
AcDbEntity
  8
0
  6
Continuous
 62
     8
370
    25
100
AcDbLine
 10
100.7372940678
 20
35.1897301638
 30
0.0
 11
100.7164699279
 21
35.0404326358
 31
0.0
  0
SPLINE
  5
1D1
330
1F
100
AcDbEntity
  8
0
  6
Continuous
 62
     8
370
    25
100
AcDbSpline
210
0.0
220
0.0
230
1.0
 70
     8
 71
     3
 72
     9
 73
     5
 74
     0
 42
0.000000001
 43
0.00000001
 40
0.0
 40
0.0
 40
0.0
 40
0.0
 40
0.1250039728915086
 40
1.0
 40
1.0
 40
1.0
 40
1.0
 10
91.36027668339989
 20
35.58676508456919
 30
0.0
 10
91.36024224349885
 20
35.59110942704172
 30
0.0
 10
91.35996673304709
 20
35.62586306224262
 30
0.0
 10
91.36090938580823
 20
35.66061034210779
 30
0.0
 10
91.36173420322916
 20
35.69101407394264
 30
0.0
  0
SPLINE
  5
1D2
330
1F
100
AcDbEntity
  8
0
  6
Continuous
 62
     8
370
    25
100
AcDbSpline
210
0.0
220
0.0
230
1.0
 70
     8
 71
     3
 72
     9
 73
     5
 74
     0
 42
0.000000001
 43
0.00000001
 40
0.0
 40
0.0
 40
0.0
 40
0.0
 40
0.1250039728915086
 40
1.0
 40
1.0
 40
1.0
 40
1.0
 10
103.3615340731837
 20
35.58676508456919
 30
0.0
 10
103.3615685130848
 20
35.59110942704172
 30
0.0
 10
103.3618440235366
 20
35.62586306224262
 30
0.0
 10
103.3609013707754
 20
35.66061034210779
 30
0.0
 10
103.3600765533545
 20
35.69101407394264
 30
0.0
  0
INSERT
  5
1DE
330
1F
100
AcDbEntity
  8
0
  6
Continuous
 62
     7
370
    18
100
AcDbBlockReference
  2
SW_CENTERMARKSYMBOL_0
 10
97.3609053783
 20
29.1897301117
 30
0.0
  0
ARC
  5
1DF
330
1F
100
AcDbEntity
  8
0
  6
Continuous
 62
     7
370
    18
100
AcDbCircle
 10
97.3609053783
 20
29.1897301117
 30
0.0
 40
5.722499999999997
100
AcDbArc
 50
75.0
 51
345.0
  0
LINE
  5
1E0
330
1F
100
AcDbEntity
  8
0
  6
Continuous
 62
     7
370
    18
100
AcDbLine
 10
103.1104436821
 20
50.3245043891
 30
0.0
 11
103.4539991283
 21
39.3307301117
 31
0.0
  0
LINE
  5
1E1
330
1F
100
AcDbEntity
  8
0
  6
Continuous
 62
     7
370
    18
100
AcDbLine
 10
91.6113670745
 20
50.3245043891
 30
0.0
 11
91.2678116283
 21
39.3307301117
 31
0.0
  0
LINE
  5
1E2
330
1F
100
AcDbEntity
  8
0
  6
Continuous
 62
     7
370
    18
100
AcDbLine
 10
90.5993116283
 20
39.3307301117
 30
0.0
 11
104.1224991283
 21
39.3307301117
 31
0.0
  0
SPLINE
  5
1E3
330
1F
100
AcDbEntity
  8
0
  6
Continuous
 62
     7
370
    25
100
AcDbSpline
210
0.0
220
0.0
230
1.0
 70
     8
 71
     3
 72
    11
 73
     7
 74
     0
 42
0.000000001
 43
0.00000001
 40
0.0
 40
0.0
 40
0.0
 40
0.0
 40
0.2500907897024823
 40
0.5000509169085089
 40
0.7499732838271033
 40
1.0
 40
1.0
 40
1.0
 40
1.0
 10
46.5013390501355
 20
80.38320589261517
 30
0.0
 10
46.40261270110582
 20
80.39184310298768
 30
0.0
 10
46.20521158363944
 20
80.4091130111336
 30
0.0
 10
45.93582561239185
 20
80.54236645770517
 30
0.0
 10
45.71079565558814
 20
80.7415461745411
 30
0.0
 10
45.62035345568532
 20
80.91781188644804
 30
0.0
 10
45.57512291719664
 20
81.00596313747033
 30
0.0
  0
ARC
  5
1E4
330
1F
100
AcDbEntity
  8
0
  6
Continuous
 62
     7
370
    25
100
AcDbCircle
 10
66.6472890173
 20
80.6356044618
 30
0.0
 40
1.000000000000002
100
AcDbArc
 50
149.2294876038
 51
158.2181658862
  0
ARC
  5
1E5
330
1F
100
AcDbEntity
  8
0
  6
Continuous
 62
     7
370
    25
100
AcDbCircle
 10
66.6472890173
 20
68.1356044618
 30
0.0
 40
0.999999999999993
100
AcDbArc
 50
202.0323734496
 51
210.7705123962
  0
ARC
  5
1E6
330
1F
100
AcDbEntity
  8
0
  6
Continuous
 62
     7
370
    25
100
AcDbCircle
 10
44.6472890173
 20
68.1356044618
 30
0.0
 40
1.000000000000004
100
AcDbArc
 50
329.2294876038
 51
337.9673301402
  0
ARC
  5
1E7
330
1F
100
AcDbEntity
  8
0
  6
Continuous
 62
     7
370
    25
100
AcDbCircle
 10
44.6472890173
 20
80.6356044618
 30
0.0
 40
0.9999999999999991
100
AcDbArc
 50
21.7625925865
 51
30.7705123962
  0
LINE
  5
1E8
330
1F
100
AcDbEntity
  8
0
  6
Continuous
 62
     7
370
    25
100
AcDbLine
 10
65.7880656516
 20
67.6240037327
 30
0.0
 11
75.5579300319
 21
67.9293117617
 31
0.0
  0
LINE
  5
1E9
330
1F
100
AcDbEntity
  8
0
  6
Continuous
 62
     7
370
    25
100
AcDbLine
 10
75.5579300319
 20
80.8418971618
 30
0.0
 11
65.7880656516
 21
81.1472051908
 31
0.0
  0
LINE
  5
1EA
330
1F
100
AcDbEntity
  8
0
  6
Continuous
 62
     7
370
    25
100
AcDbLine
 10
45.5065123831
 20
81.1472051908
 30
0.0
 11
35.7366480028
 21
80.8418971618
 31
0.0
  0
LINE
  5
1EB
330
1F
100
AcDbEntity
  8
0
  6
Continuous
 62
     7
370
    25
100
AcDbLine
 10
35.7366480028
 20
67.9293117617
 30
0.0
 11
45.5065123831
 21
67.6240037327
 31
0.0
  0
SPLINE
  5
1EC
330
1F
100
AcDbEntity
  8
0
  6
Continuous
 62
     7
370
    25
100
AcDbSpline
210
0.0
220
0.0
230
1.0
 70
     8
 71
     3
 72
    11
 73
     7
 74
     0
 42
0.000000001
 43
0.00000001
 40
0.0
 40
0.0
 40
0.0
 40
0.0
 40
0.2500267161728967
 40
0.4999490830914911
 40
0.7499092102975177
 40
1.0
 40
1.0
 40
1.0
 40
1.0
 10
65.71945511748541
 20
81.00596313747033
 30
0.0
 10
65.67422457899671
 20
80.91781188644804
 30
0.0
 10
65.5837823790939
 20
80.7415461745411
 30
0.0
 10
65.3587524222902
 20
80.54236645770517
 30
0.0
 10
65.08936645104261
 20
80.4091130111336
 30
0.0
 10
64.89196533357622
 20
80.39184310298768
 30
0.0
 10
64.79323898454655
 20
80.38320589261517
 30
0.0
  0
LINE
  5
1ED
330
1F
100
AcDbEntity
  8
0
  6
Continuous
 62
     7
370
    25
100
AcDbLine
 10
35.7366480028
 20
80.8418971618
 30
0.0
 11
33.6472891366
 21
79.635604391
 31
0.0
  0
LINE
  5
1EE
330
1F
100
AcDbEntity
  8
0
  6
Continuous
 62
     7
370
    25
100
AcDbLine
 10
33.6472891366
 20
69.1356045325
 30
0.0
 11
35.7366480028
 21
67.9293117617
 31
0.0
  0
LINE
  5
1EF
330
1F
100
AcDbEntity
  8
0
  6
Continuous
 62
     7
370
    25
100
AcDbLine
 10
75.5579300319
 20
67.9293117617
 30
0.0
 11
77.6472888981
 21
69.1356045325
 31
0.0
  0
LINE
  5
1F0
330
1F
100
AcDbEntity
  8
0
  6
Continuous
 62
     7
370
    25
100
AcDbLine
 10
77.6472888981
 20
79.635604391
 30
0.0
 11
75.5579300319
 21
80.8418971618
 31
0.0
  0
LINE
  5
1F1
330
1F
100
AcDbEntity
  8
0
  6
Continuous
 62
     7
370
    25
100
AcDbLine
 10
48.947289223
 20
80.3856045139
 30
0.0
 11
46.5013390501
 21
80.3856045139
 31
0.0
  0
LINE
  5
1F2
330
1F
100
AcDbEntity
  8
0
  6
Continuous
 62
     7
370
    25
100
AcDbLine
 10
64.7932389845
 20
80.3856045139
 30
0.0
 11
63.1472888497
 21
80.3856045139
 31
0.0
  0
LINE
  5
1F3
330
1F
100
AcDbEntity
  8
0
  6
Continuous
 62
     7
370
    25
100
AcDbLine
 10
62.3472888117
 20
68.3856044096
 30
0.0
 11
64.7932389845
 21
68.3856044096
 31
0.0
  0
LINE
  5
1F4
330
1F
100
AcDbEntity
  8
0
  6
Continuous
 62
     7
370
    25
100
AcDbLine
 10
46.5013390501
 20
68.3856044096
 30
0.0
 11
48.947289223
 21
68.3856044096
 31
0.0
  0
ARC
  5
1F5
330
1F
100
AcDbEntity
  8
0
  6
Continuous
 62
     7
370
    25
100
AcDbCircle
 10
62.3972890173
 20
80.4356044618
 30
0.0
 40
0.25
100
AcDbArc
 50
90.0
 51
180.0
  0
ARC
  5
1F6
330
1F
100
AcDbEntity
  8
0
  6
Continuous
 62
     7
370
    25
100
AcDbCircle
 10
62.8972890173
 20
80.4356044618
 30
0.0
 40
0.25
100
AcDbArc
 50
0.0
 51
90.0
  0
LINE
  5
1F7
330
1F
100
AcDbEntity
  8
0
  6
Continuous
 62
     7
370
    25
100
AcDbLine
 10
63.1472888497
 20
80.3856045139
 30
0.0
 11
63.1472888497
 21
80.435604429
 31
0.0
  0
LINE
  5
1F8
330
1F
100
AcDbEntity
  8
0
  6
Continuous
 62
     7
370
    25
100
AcDbLine
 10
62.1472891515
 20
80.435604429
 30
0.0
 11
62.1472891515
 21
80.3856045139
 31
0.0
  0
CIRCLE
  5
1F9
330
1F
100
AcDbEntity
  8
0
  6
Continuous
 62
     7
370
    25
100
AcDbCircle
 10
55.6472890173
 20
74.3856044618
 30
0.0
 40
5.25
  0
CIRCLE
  5
1FA
330
1F
100
AcDbEntity
  8
0
  6
Continuous
 62
     7
370
    25
100
AcDbCircle
 10
55.6472890173
 20
74.3856044618
 30
0.0
 40
6.456292496656182
  0
CIRCLE
  5
1FB
330
1F
100
AcDbEntity
  8
0
  6
Continuous
 62
     7
370
    25
100
AcDbCircle
 10
55.6472890173
 20
74.3856044618
 30
0.0
 40
4.5
  0
CIRCLE
  5
1FC
330
1F
100
AcDbEntity
  8
0
  6
Continuous
 62
     7
370
    25
100
AcDbCircle
 10
55.6472890173
 20
74.3856044618
 30
0.0
 40
3.999999999999993
  0
CIRCLE
  5
1FD
330
1F
100
AcDbEntity
  8
0
  6
Continuous
 62
     7
370
    25
100
AcDbCircle
 10
55.6472890173
 20
74.3856044618
 30
0.0
 40
6.761600728405625
  0
LINE
  5
1FE
330
1F
100
AcDbEntity
  8
0
  6
Continuous
 62
     7
370
    25
100
AcDbLine
 10
45.5760207122
 20
81.0061824639
 30
0.0
 11
45.5760421326
 21
81.0062872377
 31
0.0
  0
SPLINE
  5
1FF
330
1F
100
AcDbEntity
  8
0
  6
Continuous
 62
     7
370
    25
100
AcDbSpline
210
0.0
220
0.0
230
1.0
 70
     8
 71
     3
 72
     9
 73
     5
 74
     0
 42
0.000000001
 43
0.00000001
 40
0.001813512106624
 40
0.001813512106624
 40
0.001813512106624
 40
0.001813512106624
 40
0.501813512106624
 40
1.0
 40
1.0
 40
1.0
 40
1.0
 10
46.50133863911493
 20
68.38350188200275
 30
0.0
 10
46.30360538039839
 20
68.38354374433837
 30
0.0
 10
45.90930178839746
 20
68.26284533706927
 30
0.0
 10
45.64940771129867
 20
67.9428362131549
 30
0.0
 10
45.57512286497339
 20
67.76027743654292
 30
0.0
  0
LINE
  5
200
330
1F
100
AcDbEntity
  8
0
  6
Continuous
 62
     7
370
    25
100
AcDbLine
 10
65.7880656516
 20
67.6240037327
 30
0.0
 11
65.7880656516
 21
81.1472051908
 31
0.0
  0
LINE
  5
201
330
1F
100
AcDbEntity
  8
0
  6
Continuous
 62
     7
370
    25
100
AcDbLine
 10
45.5065123831
 20
74.3856044618
 30
0.0
 11
45.5065123831
 21
67.6240037327
 31
0.0
  0
LINE
  5
202
330
1F
100
AcDbEntity
  8
0
  6
Continuous
 62
     7
370
    25
100
AcDbLine
 10
45.5065123831
 20
81.1472051908
 30
0.0
 11
45.5065123831
 21
74.3856044618
 31
0.0
  0
LINE
  5
203
330
1F
100
AcDbEntity
  8
0
  6
Continuous
 62
     7
370
    25
100
AcDbLine
 10
75.5579300319
 20
74.3856044618
 30
0.0
 11
75.5579300319
 21
80.8418971618
 31
0.0
  0
LINE
  5
204
330
1F
100
AcDbEntity
  8
0
  6
Continuous
 62
     7
370
    25
100
AcDbLine
 10
75.5579300319
 20
67.9293117617
 30
0.0
 11
75.5579300319
 21
74.3856044618
 31
0.0
  0
LINE
  5
205
330
1F
100
AcDbEntity
  8
0
  6
Continuous
 62
     7
370
    25
100
AcDbLine
 10
35.7366480028
 20
67.9293117617
 30
0.0
 11
35.7366480028
 21
80.8418971618
 31
0.0
  0
SPLINE
  5
206
330
1F
100
AcDbEntity
  8
0
  6
Continuous
 62
     7
370
    25
100
AcDbSpline
210
0.0
220
0.0
230
1.0
 70
     8
 71
     3
 72
     9
 73
     5
 74
     0
 42
0.000000001
 43
0.00000001
 40
0.001813512106624
 40
0.001813512106624
 40
0.001813512106624
 40
0.001813512106624
 40
0.501813512106624
 40
1.0
 40
1.0
 40
1.0
 40
1.0
 10
64.79323939556711
 20
68.38350188200275
 30
0.0
 10
64.99097265428365
 20
68.38354374433837
 30
0.0
 10
65.38527624628458
 20
68.26284533706927
 30
0.0
 10
65.64517032338338
 20
67.9428362131549
 30
0.0
 10
65.71945516970865
 20
67.76027743654292
 30
0.0
  0
LINE
  5
207
330
1F
100
AcDbEntity
  8
0
  6
Continuous
 62
     7
370
    25
100
AcDbLine
 10
58.7648592052
 20
80.3856045139
 30
0.0
 11
60.4472892453
 21
80.3856045139
 31
0.0
  0
LINE
  5
208
330
1F
100
AcDbEntity
  8
0
  6
Continuous
 62
     7
370
    25
100
AcDbLine
 10
60.4472892453
 20
80.185604388
 30
0.0
 11
60.4472892453
 21
80.3856045139
 31
0.0
  0
LINE
  5
209
330
1F
100
AcDbEntity
  8
0
  6
Continuous
 62
     7
370
    25
100
AcDbLine
 10
50.8472887894
 20
80.185604388
 30
0.0
 11
50.8472887894
 21
80.3856045139
 31
0.0
  0
LINE
  5
20A
330
1F
100
AcDbEntity
  8
0
  6
Continuous
 62
     7
370
    25
100
AcDbLine
 10
50.8472887894
 20
80.3856045139
 30
0.0
 11
52.5297188294
 21
80.3856045139
 31
0.0
  0
LINE
  5
20B
330
1F
100
AcDbEntity
  8
0
  6
Continuous
 62
     7
370
    25
100
AcDbLine
 10
60.6472889056
 20
68.5856045355
 30
0.0
 11
60.6472889056
 21
69.8337649127
 31
0.0
  0
LINE
  5
20C
330
1F
100
AcDbEntity
  8
0
  6
Continuous
 62
     7
370
    25
100
AcDbLine
 10
60.4472892453
 20
68.3856044096
 30
0.0
 11
58.7648592052
 21
68.3856044096
 31
0.0
  0
ARC
  5
20D
330
1F
100
AcDbEntity
  8
0
  6
Continuous
 62
     7
370
    25
100
AcDbCircle
 10
60.4472890173
 20
68.5856044618
 30
0.0
 40
0.2000000000000028
100
AcDbArc
 50
270.0
 51
0.0
  0
LINE
  5
20E
330
1F
100
AcDbEntity
  8
0
  6
Continuous
 62
     7
370
    25
100
AcDbLine
 10
52.5297188294
 20
68.3856044096
 30
0.0
 11
50.8472887894
 21
68.3856044096
 31
0.0
  0
LINE
  5
20F
330
1F
100
AcDbEntity
  8
0
  6
Continuous
 62
     7
370
    25
100
AcDbLine
 10
50.8472887894
 20
68.5856045355
 30
0.0
 11
50.8472887894
 21
68.3856044096
 31
0.0
  0
ARC
  5
210
330
1F
100
AcDbEntity
  8
0
  6
Continuous
 62
     7
370
    25
100
AcDbCircle
 10
60.4472890173
 20
80.1856044618
 30
0.0
 40
0.2000000000000028
100
AcDbArc
 50
0.0
 51
90.0
  0
LINE
  5
211
330
1F
100
AcDbEntity
  8
0
  6
Continuous
 62
     7
370
    25
100
AcDbLine
 10
60.4472892453
 20
80.185604388
 30
0.0
 11
60.6472889056
 21
80.185604388
 31
0.0
  0
LINE
  5
212
330
1F
100
AcDbEntity
  8
0
  6
Continuous
 62
     7
370
    25
100
AcDbLine
 10
60.6472889056
 20
80.185604388
 30
0.0
 11
60.6472889056
 21
78.9374440108
 31
0.0
  0
LINE
  5
213
330
1F
100
AcDbEntity
  8
0
  6
Continuous
 62
     7
370
    25
100
AcDbLine
 10
50.8472887894
 20
80.185604388
 30
0.0
 11
50.6472891291
 21
80.185604388
 31
0.0
  0
ARC
  5
214
330
1F
100
AcDbEntity
  8
0
  6
Continuous
 62
     7
370
    25
100
AcDbCircle
 10
50.8472890173
 20
80.1856044618
 30
0.0
 40
0.2000000000000028
100
AcDbArc
 50
90.0
 51
180.0
  0
LINE
  5
215
330
1F
100
AcDbEntity
  8
0
  6
Continuous
 62
     7
370
    25
100
AcDbLine
 10
50.6472891291
 20
78.9374440108
 30
0.0
 11
50.6472891291
 21
80.185604388
 31
0.0
  0
LINE
  5
216
330
1F
100
AcDbEntity
  8
0
  6
Continuous
 62
     7
370
    25
100
AcDbLine
 10
50.8472887894
 20
68.5856045355
 30
0.0
 11
50.6472891291
 21
68.5856045355
 31
0.0
  0
LINE
  5
217
330
1F
100
AcDbEntity
  8
0
  6
Continuous
 62
     7
370
    25
100
AcDbLine
 10
50.6472891291
 20
68.5856045355
 30
0.0
 11
50.6472891291
 21
69.8337649127
 31
0.0
  0
ARC
  5
218
330
1F
100
AcDbEntity
  8
0
  6
Continuous
 62
     7
370
    25
100
AcDbCircle
 10
50.8472890173
 20
68.5856044618
 30
0.0
 40
0.2000000000000028
100
AcDbArc
 50
180.0
 51
270.0
  0
LINE
  5
219
330
1F
100
AcDbEntity
  8
0
  6
Continuous
 62
     7
370
    25
100
AcDbLine
 10
33.6472891366
 20
79.635604391
 30
0.0
 11
33.6472891366
 21
69.1356045325
 31
0.0
  0
LINE
  5
21A
330
1F
100
AcDbEntity
  8
0
  6
Continuous
 62
     7
370
    25
100
AcDbLine
 10
77.6472888981
 20
79.635604391
 30
0.0
 11
77.6472888981
 21
69.1356045325
 31
0.0
  0
SPLINE
  5
21B
330
1F
100
AcDbEntity
  8
0
  6
Continuous
 62
     7
370
    25
100
AcDbSpline
210
0.0
220
0.0
230
1.0
 70
    24
 71
     3
 72
    14
 73
    10
 74
     0
 42
0.000000001
 43
0.00000001
 40
0.0
 40
0.0
 40
0.0
 40
0.0
 40
0.25
 40
0.25
 40
0.5
 40
0.5
 40
0.75
 40
0.75
 40
1.0
 40
1.0
 40
1.0
 40
1.0
 10
48.94728901734102
 20
80.38560446175202
 30
0.0
 10
48.94728901734102
 20
80.38560446175202
 30
0.0
 10
48.94728901734102
 20
80.37763904311822
 30
0.0
 10
48.94728901734102
 20
80.3457058663728
 30
0.0
 10
48.94728901734102
 20
80.32173787532881
 30
0.0
 10
48.94728901734102
 20
80.25758806216908
 30
0.0
 10
48.94728901734102
 20
80.21740576066655
 30
0.0
 10
48.94728901734102
 20
80.12048646434695
 30
0.0
 10
48.94728901734102
 20
80.06374871691693
 30
0.0
 10
48.94728901734102
 20
79.99850768755847
 30
0.0
  0
LINE
  5
21C
330
1F
100
AcDbEntity
  8
0
  6
Continuous
 62
     7
370
    25
100
AcDbLine
 10
48.947289223
 20
78.1832981055
 30
0.0
 11
48.947289223
 21
79.9985077363
 31
0.0
  0
SPLINE
  5
21D
330
1F
100
AcDbEntity
  8
0
  6
Continuous
 62
     7
370
    25
100
AcDbSpline
210
0.0
220
0.0
230
1.0
 70
     8
 71
     3
 72
    12
 73
     8
 74
     0
 42
0.000000001
 43
0.00000001
 40
0.0
 40
0.0
 40
0.0
 40
0.0
 40
0.5000000000000007
 40
0.5000000000000007
 40
0.7500000000000003
 40
0.7500000000000003
 40
1.0
 40
1.0
 40
1.0
 40
1.0
 10
48.94728901734102
 20
78.18329804956143
 30
0.0
 10
48.94728901734102
 20
78.07466318000021
 30
0.0
 10
48.9766966419235
 20
77.96340943893932
 30
0.0
 10
49.06835320699191
 20
77.81101117905646
 30
0.0
 10
49.10771495296218
 20
77.76180164753377
 30
0.0
 10
49.2101411731478
 20
77.68272669356686
 30
0.0
 10
49.27627803661817
 20
77.65307730358444
 30
0.0
 10
49.34728901734103
 20
77.65307730358444
 30
0.0
  0
LINE
  5
21E
330
1F
100
AcDbEntity
  8
0
  6
Continuous
 62
     7
370
    25
100
AcDbLine
 10
49.6472889652
 20
77.6530773045
 30
0.0
 11
49.3472890091
 21
77.6530773045
 31
0.0
  0
LINE
  5
21F
330
1F
100
AcDbEntity
  8
0
  6
Continuous
 62
     7
370
    25
100
AcDbLine
 10
49.3472890091
 20
71.118131619
 30
0.0
 11
49.6472889652
 21
71.118131619
 31
0.0
  0
SPLINE
  5
220
330
1F
100
AcDbEntity
  8
0
  6
Continuous
 62
     7
370
    25
100
AcDbSpline
210
0.0
220
0.0
230
1.0
 70
     8
 71
     3
 72
    14
 73
    10
 74
     0
 42
0.000000001
 43
0.00000001
 40
0.0
 40
0.0
 40
0.0
 40
0.0
 40
0.25
 40
0.25
 40
0.5
 40
0.5
 40
0.75
 40
0.75
 40
1.0
 40
1.0
 40
1.0
 40
1.0
 10
49.34728901734102
 20
71.11813161991964
 30
0.0
 10
49.27633532780079
 20
71.11813161991964
 30
0.0
 10
49.21014868354219
 20
71.08849937418798
 30
0.0
 10
49.10761902120126
 20
71.00932185898507
 30
0.0
 10
49.0682867868157
 20
70.9601495905172
 30
0.0
 10
49.00698130944898
 20
70.85809147141008
 30
0.0
 10
48.98463357567926
 20
70.8039101507146
 30
0.0
 10
48.95496632097635
 20
70.6963515735602
 30
0.0
 10
48.94728901734102
 20
70.64227450262435
 30
0.0
 10
48.94728901734102
 20
70.58791087394262
 30
0.0
  0
LINE
  5
221
330
1F
100
AcDbEntity
  8
0
  6
Continuous
 62
     7
370
    25
100
AcDbLine
 10
48.947289223
 20
68.7727011872
 30
0.0
 11
48.947289223
 21
70.587910818
 31
0.0
  0
SPLINE
  5
222
330
1F
100
AcDbEntity
  8
0
  6
Continuous
 62
     7
370
    25
100
AcDbSpline
210
0.0
220
0.0
230
1.0
 70
    24
 71
     3
 72
    14
 73
    10
 74
     0
 42
0.000000001
 43
0.00000001
 40
0.0
 40
0.0
 40
0.0
 40
0.0
 40
0.25
 40
0.25
 40
0.5
 40
0.5
 40
0.75
 40
0.75
 40
1.0
 40
1.0
 40
1.0
 40
1.0
 10
48.94728901734102
 20
68.38560446175202
 30
0.0
 10
48.94728901734102
 20
68.38560446175202
 30
0.0
 10
48.94728901734102
 20
68.39356988038584
 30
0.0
 10
48.94728901734102
 20
68.42550305713124
 30
0.0
 10
48.94728901734102
 20
68.44947104817523
 30
0.0
 10
48.94728901734102
 20
68.51362086133497
 30
0.0
 10
48.94728901734102
 20
68.55380316283751
 30
0.0
 10
48.94728901734102
 20
68.65072245915708
 30
0.0
 10
48.94728901734102
 20
68.7074602065871
 30
0.0
 10
48.94728901734102
 20
68.77270123594558
 30
0.0
  0
SPLINE
  5
223
330
1F
100
AcDbEntity
  8
0
  6
Continuous
 62
     7
370
    25
100
AcDbSpline
210
0.0
220
0.0
230
1.0
 70
    24
 71
     3
 72
    14
 73
    10
 74
     0
 42
0.000000001
 43
0.00000001
 40
0.0
 40
0.0
 40
0.0
 40
0.0
 40
0.25
 40
0.25
 40
0.5
 40
0.5
 40
0.75
 40
0.75
 40
1.0
 40
1.0
 40
1.0
 40
1.0
 10
62.34728901734102
 20
68.38560446175202
 30
0.0
 10
62.34728901734102
 20
68.38560446175202
 30
0.0
 10
62.34728901734102
 20
68.39356988038584
 30
0.0
 10
62.34728901734102
 20
68.42550305713124
 30
0.0
 10
62.34728901734102
 20
68.44947104817523
 30
0.0
 10
62.34728901734102
 20
68.51362086133497
 30
0.0
 10
62.34728901734102
 20
68.55380316283751
 30
0.0
 10
62.34728901734102
 20
68.65072245915708
 30
0.0
 10
62.34728901734102
 20
68.7074602065871
 30
0.0
 10
62.34728901734102
 20
68.77270123594558
 30
0.0
  0
LINE
  5
224
330
1F
100
AcDbEntity
  8
0
  6
Continuous
 62
     7
370
    25
100
AcDbLine
 10
62.3472888117
 20
70.587910818
 30
0.0
 11
62.3472888117
 21
68.7727011872
 31
0.0
  0
SPLINE
  5
225
330
1F
100
AcDbEntity
  8
0
  6
Continuous
 62
     7
370
    25
100
AcDbSpline
210
0.0
220
0.0
230
1.0
 70
     8
 71
     3
 72
    12
 73
     8
 74
     0
 42
0.000000001
 43
0.00000001
 40
0.0
 40
0.0
 40
0.0
 40
0.0
 40
0.4999999999999979
 40
0.4999999999999979
 40
0.7499999999999989
 40
0.7499999999999989
 40
1.0
 40
1.0
 40
1.0
 40
1.0
 10
62.34728901734102
 20
70.58791087394262
 30
0.0
 10
62.34728901734103
 20
70.69654574350383
 30
0.0
 10
62.31788139275854
 20
70.80779948456471
 30
0.0
 10
62.22622482769013
 20
70.96019774444757
 30
0.0
 10
62.18686308171986
 20
71.00940727597028
 30
0.0
 10
62.08443686153424
 20
71.08848222993717
 30
0.0
 10
62.01829999806387
 20
71.11813161991961
 30
0.0
 10
61.94728901734101
 20
71.11813161991961
 30
0.0
  0
LINE
  5
226
330
1F
100
AcDbEntity
  8
0
  6
Continuous
 62
     7
370
    25
100
AcDbLine
 10
61.6472890695
 20
71.118131619
 30
0.0
 11
61.9472890255
 21
71.118131619
 31
0.0
  0
LINE
  5
227
330
1F
100
AcDbEntity
  8
0
  6
Continuous
 62
     7
370
    25
100
AcDbLine
 10
61.9472890255
 20
77.6530773045
 30
0.0
 11
61.6472890695
 21
77.6530773045
 31
0.0
  0
SPLINE
  5
228
330
1F
100
AcDbEntity
  8
0
  6
Continuous
 62
     7
370
    25
100
AcDbSpline
210
0.0
220
0.0
230
1.0
 70
     8
 71
     3
 72
    14
 73
    10
 74
     0
 42
0.000000001
 43
0.00000001
 40
0.0
 40
0.0
 40
0.0
 40
0.0
 40
0.25
 40
0.25
 40
0.5
 40
0.5
 40
0.75
 40
0.75
 40
1.0
 40
1.0
 40
1.0
 40
1.0
 10
61.94728901734102
 20
77.65307730358442
 30
0.0
 10
62.01824270688126
 20
77.65307730358442
 30
0.0
 10
62.08442935113985
 20
77.68270954931609
 30
0.0
 10
62.18695901348078
 20
77.76188706451897
 30
0.0
 10
62.22629124786634
 20
77.81105933298684
 30
0.0
 10
62.28759672523306
 20
77.91311745209397
 30
0.0
 10
62.30994445900278
 20
77.96729877278946
 30
0.0
 10
62.33961171370569
 20
78.07485734994387
 30
0.0
 10
62.34728901734102
 20
78.1289344208797
 30
0.0
 10
62.34728901734102
 20
78.18329804956144
 30
0.0
  0
LINE
  5
229
330
1F
100
AcDbEntity
  8
0
  6
Continuous
 62
     7
370
    25
100
AcDbLine
 10
62.3472888117
 20
79.9985077363
 30
0.0
 11
62.3472888117
 21
78.1832981055
 31
0.0
  0
SPLINE
  5
22A
330
1F
100
AcDbEntity
  8
0
  6
Continuous
 62
     7
370
    25
100
AcDbSpline
210
0.0
220
0.0
230
1.0
 70
    24
 71
     3
 72
    14
 73
    10
 74
     0
 42
0.000000001
 43
0.00000001
 40
0.0
 40
0.0
 40
0.0
 40
0.0
 40
0.25
 40
0.25
 40
0.5
 40
0.5
 40
0.75
 40
0.75
 40
1.0
 40
1.0
 40
1.0
 40
1.0
 10
62.34728901734102
 20
80.38560446175202
 30
0.0
 10
62.34728901734102
 20
80.38560446175202
 30
0.0
 10
62.34728901734102
 20
80.37763904311822
 30
0.0
 10
62.34728901734102
 20
80.3457058663728
 30
0.0
 10
62.34728901734102
 20
80.32173787532881
 30
0.0
 10
62.34728901734102
 20
80.25758806216908
 30
0.0
 10
62.34728901734102
 20
80.21740576066654
 30
0.0
 10
62.34728901734102
 20
80.12048646434695
 30
0.0
 10
62.34728901734102
 20
80.06374871691693
 30
0.0
 10
62.34728901734102
 20
79.99850768755847
 30
0.0
  0
LINE
  5
22B
330
1F
100
AcDbEntity
  8
0
  6
Continuous
 62
     7
370
    25
100
AcDbLine
 10
50.6472891291
 20
80.185604388
 30
0.0
 11
49.6472889652
 21
80.185604388
 31
0.0
  0
LINE
  5
22C
330
1F
100
AcDbEntity
  8
0
  6
Continuous
 62
     7
370
    25
100
AcDbLine
 10
49.6472889652
 20
80.185604388
 30
0.0
 11
49.6472889652
 21
80.3856045139
 31
0.0
  0
LINE
  5
22D
330
1F
100
AcDbEntity
  8
0
  6
Continuous
 62
     7
370
    25
100
AcDbLine
 10
49.6472889652
 20
80.3856045139
 30
0.0
 11
50.8472887894
 21
80.3856045139
 31
0.0
  0
LINE
  5
22E
330
1F
100
AcDbEntity
  8
0
  6
Continuous
 62
     7
370
    25
100
AcDbLine
 10
61.6472890695
 20
80.185604388
 30
0.0
 11
60.6472889056
 21
80.185604388
 31
0.0
  0
LINE
  5
22F
330
1F
100
AcDbEntity
  8
0
  6
Continuous
 62
     7
370
    25
100
AcDbLine
 10
61.6472890695
 20
80.185604388
 30
0.0
 11
61.6472890695
 21
80.3856045139
 31
0.0
  0
LINE
  5
230
330
1F
100
AcDbEntity
  8
0
  6
Continuous
 62
     7
370
    25
100
AcDbLine
 10
60.4472892453
 20
80.3856045139
 30
0.0
 11
61.6472890695
 21
80.3856045139
 31
0.0
  0
LINE
  5
231
330
1F
100
AcDbEntity
  8
0
  6
Continuous
 62
     7
370
    25
100
AcDbLine
 10
49.6472889652
 20
77.7619931513
 30
0.0
 11
49.6472889652
 21
80.185604388
 31
0.0
  0
LINE
  5
232
330
1F
100
AcDbEntity
  8
0
  6
Continuous
 62
     7
370
    25
100
AcDbLine
 10
61.6472890695
 20
80.185604388
 30
0.0
 11
61.6472890695
 21
77.7619931513
 31
0.0
  0
LINE
  5
233
330
1F
100
AcDbEntity
  8
0
  6
Continuous
 62
     7
370
    25
100
AcDbLine
 10
60.6472889056
 20
68.5856045355
 30
0.0
 11
61.6472890695
 21
68.5856045355
 31
0.0
  0
LINE
  5
234
330
1F
100
AcDbEntity
  8
0
  6
Continuous
 62
     7
370
    25
100
AcDbLine
 10
61.6472890695
 20
71.0092157722
 30
0.0
 11
61.6472890695
 21
68.5856045355
 31
0.0
  0
LINE
  5
235
330
1F
100
AcDbEntity
  8
0
  6
Continuous
 62
     7
370
    25
100
AcDbLine
 10
49.6472889652
 20
68.5856045355
 30
0.0
 11
50.6472891291
 21
68.5856045355
 31
0.0
  0
LINE
  5
236
330
1F
100
AcDbEntity
  8
0
  6
Continuous
 62
     7
370
    25
100
AcDbLine
 10
49.6472889652
 20
68.5856045355
 30
0.0
 11
49.6472889652
 21
71.0092157722
 31
0.0
  0
LINE
  5
237
330
1F
100
AcDbEntity
  8
0
  6
Continuous
 62
     7
370
    25
100
AcDbLine
 10
61.6472890695
 20
68.3856044096
 30
0.0
 11
61.6472890695
 21
68.5856045355
 31
0.0
  0
LINE
  5
238
330
1F
100
AcDbEntity
  8
0
  6
Continuous
 62
     7
370
    25
100
AcDbLine
 10
61.6472890695
 20
68.3856044096
 30
0.0
 11
60.4472892453
 21
68.3856044096
 31
0.0
  0
LINE
  5
239
330
1F
100
AcDbEntity
  8
0
  6
Continuous
 62
     7
370
    25
100
AcDbLine
 10
49.6472889652
 20
68.5856045355
 30
0.0
 11
49.6472889652
 21
68.3856044096
 31
0.0
  0
LINE
  5
23A
330
1F
100
AcDbEntity
  8
0
  6
Continuous
 62
     7
370
    25
100
AcDbLine
 10
50.8472887894
 20
68.3856044096
 30
0.0
 11
49.6472889652
 21
68.3856044096
 31
0.0
  0
LINE
  5
23B
330
1F
100
AcDbEntity
  8
0
  6
Continuous
 62
     7
370
    25
100
AcDbLine
 10
61.6472890695
 20
71.118131619
 30
0.0
 11
61.6472890695
 21
71.0092157722
 31
0.0
  0
LINE
  5
23C
330
1F
100
AcDbEntity
  8
0
  6
Continuous
 62
     7
370
    25
100
AcDbLine
 10
61.6472890695
 20
77.6530773045
 30
0.0
 11
61.6472890695
 21
77.7619931513
 31
0.0
  0
LINE
  5
23D
330
1F
100
AcDbEntity
  8
0
  6
Continuous
 62
     7
370
    25
100
AcDbLine
 10
49.6472889652
 20
77.7619931513
 30
0.0
 11
49.6472889652
 21
77.6530773045
 31
0.0
  0
LINE
  5
23E
330
1F
100
AcDbEntity
  8
0
  6
Continuous
 62
     7
370
    25
100
AcDbLine
 10
49.6472889652
 20
71.118131619
 30
0.0
 11
49.6472889652
 21
71.0092157722
 31
0.0
  0
LINE
  5
23F
330
1F
100
AcDbEntity
  8
0
  6
Continuous
 62
     7
370
    25
100
AcDbLine
 10
61.9472890255
 20
77.6530773045
 30
0.0
 11
61.9472890255
 21
77.7619931513
 31
0.0
  0
SPLINE
  5
240
330
1F
100
AcDbEntity
  8
0
  6
Continuous
 62
     7
370
    25
100
AcDbSpline
210
0.0
220
0.0
230
1.0
 70
     8
 71
     3
 72
    14
 73
    10
 74
     0
 42
0.000000001
 43
0.00000001
 40
0.0
 40
0.0
 40
0.0
 40
0.0
 40
0.4999999999999998
 40
0.4999999999999998
 40
0.7499999999999997
 40
0.7499999999999997
 40
0.8749999999999998
 40
0.8749999999999998
 40
1.0
 40
1.0
 40
1.0
 40
1.0
 10
62.14728901734102
 20
78.30988783582174
 30
0.0
 10
62.14728901734102
 20
78.20950804386898
 30
0.0
 10
62.1359104637077
 20
78.10880319706636
 30
0.0
 10
62.09817306101908
 20
77.96019876611976
 30
0.0
 10
62.08223890815444
 20
77.91092896760092
 30
0.0
 10
62.04730252854031
 20
77.8415720493517
 30
0.0
 10
62.03371119583832
 20
77.81889591529244
 30
0.0
 10
61.99861701357268
 20
77.77986312824848
 30
0.0
 10
61.97494802369675
 20
77.76199306497885
 30
0.0
 10
61.94728901734102
 20
77.76199306497885
 30
0.0
  0
LWPOLYLINE
  5
241
330
1F
100
AcDbEntity
  8
0
  6
Continuous
 62
     7
370
    25
100
AcDbPolyline
 90
        9
 70
   128
 43
0.0
 10
62.3472888117
 20
78.1832981055
 10
62.3082710524
 20
78.1857304872
 10
62.2707522569
 20
78.1929340345
 10
62.2361750436
 20
78.2046323773
 10
62.2058674787
 20
78.2203754542
 10
62.1809951124
 20
78.2395583709
 10
62.1625130159
 20
78.2614439857
 10
62.1511317884
 20
78.2851913144
 10
62.1472891515
 20
78.3098876608
  0
LINE
  5
242
330
1F
100
AcDbEntity
  8
0
  6
Continuous
 62
     7
370
    25
100
AcDbLine
 10
49.3472890091
 20
71.118131619
 30
0.0
 11
49.3472890091
 21
71.0092157722
 31
0.0
  0
SPLINE
  5
243
330
1F
100
AcDbEntity
  8
0
  6
Continuous
 62
     7
370
    25
100
AcDbSpline
210
0.0
220
0.0
230
1.0
 70
     8
 71
     3
 72
    14
 73
    10
 74
     0
 42
0.000000001
 43
0.00000001
 40
0.0
 40
0.0
 40
0.0
 40
0.0
 40
0.4999999999999986
 40
0.4999999999999986
 40
0.7499999999999978
 40
0.7499999999999978
 40
0.8749999999999989
 40
0.8749999999999989
 40
1.0
 40
1.0
 40
1.0
 40
1.0
 10
49.14728901734102
 20
70.46132108768231
 30
0.0
 10
49.14728901734102
 20
70.56170087963508
 30
0.0
 10
49.15866757097434
 20
70.66240572643768
 30
0.0
 10
49.19640497366296
 20
70.81101015738429
 30
0.0
 10
49.2123391265276
 20
70.86027995590314
 30
0.0
 10
49.24727550614173
 20
70.92963687415235
 30
0.0
 10
49.26086683884372
 20
70.95231300821162
 30
0.0
 10
49.29596102110936
 20
70.99134579525558
 30
0.0
 10
49.31963001098529
 20
71.0092158585252
 30
0.0
 10
49.34728901734102
 20
71.0092158585252
 30
0.0
  0
LWPOLYLINE
  5
244
330
1F
100
AcDbEntity
  8
0
  6
Continuous
 62
     7
370
    25
100
AcDbPolyline
 90
        9
 70
   128
 43
0.0
 10
48.947289223
 20
70.587910818
 10
48.9863069822
 20
70.5854784363
 10
49.0238257778
 20
70.578274889
 10
49.058402991
 20
70.5665765462
 10
49.0887105559
 20
70.5508334694
 10
49.1135829223
 20
70.5316505526
 10
49.1320650188
 20
70.5097649378
 10
49.1434462463
 20
70.4860176091
 10
49.1472888832
 20
70.4613212627
  0
SPLINE
  5
245
330
1F
100
AcDbEntity
  8
0
  6
Continuous
 62
     7
370
    25
100
AcDbSpline
210
0.0
220
0.0
230
1.0
 70
     8
 71
     3
 72
    14
 73
    10
 74
     0
 42
0.000000001
 43
0.00000001
 40
0.0
 40
0.0
 40
0.0
 40
0.0
 40
0.1249999999999999
 40
0.1249999999999999
 40
0.2499999999999999
 40
0.2499999999999999
 40
0.4999999999999998
 40
0.4999999999999998
 40
1.0
 40
1.0
 40
1.0
 40
1.0
 10
49.34728901734102
 20
77.76199306497882
 30
0.0
 10
49.31956376114457
 20
77.76199306497882
 30
0.0
 10
49.29599979400015
 20
77.77982689805809
 30
0.0
 10
49.26087214079333
 20
77.81888313279603
 30
0.0
 10
49.247279644155
 20
77.84156733250018
 30
0.0
 10
49.21236813192118
 20
77.91086439453446
 30
0.0
 10
49.19641877317808
 20
77.96017480111215
 30
0.0
 10
49.15874974002501
 20
78.10841900887266
 30
0.0
 10
49.14728901734102
 20
78.20953661045631
 30
0.0
 10
49.14728901734102
 20
78.30988783582174
 30
0.0
  0
LINE
  5
246
330
1F
100
AcDbEntity
  8
0
  6
Continuous
 62
     7
370
    25
100
AcDbLine
 10
49.3472890091
 20
77.7619931513
 30
0.0
 11
49.3472890091
 21
77.6530773045
 31
0.0
  0
LWPOLYLINE
  5
247
330
1F
100
AcDbEntity
  8
0
  6
Continuous
 62
     7
370
    25
100
AcDbPolyline
 90
        9
 70
   128
 43
0.0
 10
49.1472888832
 20
78.3098876608
 10
49.1434462463
 20
78.2851913144
 10
49.1320650188
 20
78.2614439857
 10
49.1135829223
 20
78.2395583709
 10
49.0887105559
 20
78.2203754542
 10
49.058402991
 20
78.2046323773
 10
49.0238257778
 20
78.1929340345
 10
48.9863069822
 20
78.1857304872
 10
48.947289223
 20
78.1832981055
  0
LWPOLYLINE
  5
248
330
1F
100
AcDbEntity
  8
0
  6
Continuous
 62
     7
370
    25
100
AcDbPolyline
 90
        9
 70
   128
 43
0.0
 10
62.1472891515
 20
70.4613212627
 10
62.1511317884
 20
70.4860176091
 10
62.1625130159
 20
70.5097649378
 10
62.1809951124
 20
70.5316505526
 10
62.2058674787
 20
70.5508334694
 10
62.2361750436
 20
70.5665765462
 10
62.2707522569
 20
70.578274889
 10
62.3082710524
 20
70.5854784363
 10
62.3472888117
 20
70.587910818
  0
SPLINE
  5
249
330
1F
100
AcDbEntity
  8
0
  6
Continuous
 62
     7
370
    25
100
AcDbSpline
210
0.0
220
0.0
230
1.0
 70
     8
 71
     3
 72
    14
 73
    10
 74
     0
 42
0.000000001
 43
0.00000001
 40
0.0
 40
0.0
 40
0.0
 40
0.0
 40
0.1249999999999984
 40
0.1249999999999984
 40
0.2499999999999969
 40
0.2499999999999969
 40
0.4999999999999972
 40
0.4999999999999972
 40
1.0
 40
1.0
 40
1.0
 40
1.0
 10
61.94728901734102
 20
71.00921585852522
 30
0.0
 10
61.97501427353747
 20
71.00921585852522
 30
0.0
 10
61.99857824068189
 20
70.99138202544594
 30
0.0
 10
62.03370589388871
 20
70.95232579070802
 30
0.0
 10
62.04729839052703
 20
70.92964159100387
 30
0.0
 10
62.08220990276086
 20
70.86034452896959
 30
0.0
 10
62.09815926150396
 20
70.81103412239192
 30
0.0
 10
62.13582829465704
 20
70.66278991463138
 30
0.0
 10
62.14728901734102
 20
70.56167231304775
 30
0.0
 10
62.14728901734102
 20
70.4613210876823
 30
0.0
  0
LINE
  5
24A
330
1F
100
AcDbEntity
  8
0
  6
Continuous
 62
     7
370
    25
100
AcDbLine
 10
61.9472890255
 20
71.118131619
 30
0.0
 11
61.9472890255
 21
71.0092157722
 31
0.0
  0
LINE
  5
24B
330
1F
100
AcDbEntity
  8
0
  6
Continuous
 62
     7
370
    25
100
AcDbLine
 10
61.6472890695
 20
77.7619931513
 30
0.0
 11
61.9472890255
 21
77.7619931513
 31
0.0
  0
LINE
  5
24C
330
1F
100
AcDbEntity
  8
0
  6
Continuous
 62
     7
370
    25
100
AcDbLine
 10
49.3472890091
 20
77.7619931513
 30
0.0
 11
49.6472889652
 21
77.7619931513
 31
0.0
  0
LINE
  5
24D
330
1F
100
AcDbEntity
  8
0
  6
Continuous
 62
     7
370
    25
100
AcDbLine
 10
61.9472890255
 20
71.0092157722
 30
0.0
 11
61.6472890695
 21
71.0092157722
 31
0.0
  0
LINE
  5
24E
330
1F
100
AcDbEntity
  8
0
  6
Continuous
 62
     7
370
    25
100
AcDbLine
 10
49.6472889652
 20
71.0092157722
 30
0.0
 11
49.3472890091
 21
71.0092157722
 31
0.0
  0
LINE
  5
24F
330
1F
100
AcDbEntity
  8
0
  6
Continuous
 62
     7
370
    25
100
AcDbLine
 10
61.9472890255
 20
80.185604388
 30
0.0
 11
61.6472890695
 21
80.185604388
 31
0.0
  0
LINE
  5
250
330
1F
100
AcDbEntity
  8
0
  6
Continuous
 62
     7
370
    25
100
AcDbLine
 10
61.9472890255
 20
80.3856045139
 30
0.0
 11
61.9472890255
 21
80.185604388
 31
0.0
  0
LINE
  5
251
330
1F
100
AcDbEntity
  8
0
  6
Continuous
 62
     7
370
    25
100
AcDbLine
 10
61.6472890695
 20
80.3856045139
 30
0.0
 11
61.9472890255
 21
80.3856045139
 31
0.0
  0
LINE
  5
252
330
1F
100
AcDbEntity
  8
0
  6
Continuous
 62
     7
370
    25
100
AcDbLine
 10
49.6472889652
 20
80.185604388
 30
0.0
 11
49.3472890091
 21
80.185604388
 31
0.0
  0
LINE
  5
253
330
1F
100
AcDbEntity
  8
0
  6
Continuous
 62
     7
370
    25
100
AcDbLine
 10
49.3472890091
 20
80.185604388
 30
0.0
 11
49.3472890091
 21
80.3856045139
 31
0.0
  0
LINE
  5
254
330
1F
100
AcDbEntity
  8
0
  6
Continuous
 62
     7
370
    25
100
AcDbLine
 10
49.3472890091
 20
80.3856045139
 30
0.0
 11
49.6472889652
 21
80.3856045139
 31
0.0
  0
LINE
  5
255
330
1F
100
AcDbEntity
  8
0
  6
Continuous
 62
     7
370
    25
100
AcDbLine
 10
62.1472891515
 20
80.185604388
 30
0.0
 11
61.9472890255
 21
80.185604388
 31
0.0
  0
ARC
  5
256
330
1F
100
AcDbEntity
  8
0
  6
Continuous
 62
     7
370
    25
100
AcDbCircle
 10
61.9472890173
 20
80.1856044618
 30
0.0
 40
0.2000000000000028
100
AcDbArc
 50
0.0
 51
90.0
  0
LINE
  5
257
330
1F
100
AcDbEntity
  8
0
  6
Continuous
 62
     7
370
    25
100
AcDbLine
 10
62.1472891515
 20
80.185604388
 30
0.0
 11
62.1472891515
 21
78.3098876608
 31
0.0
  0
LINE
  5
258
330
1F
100
AcDbEntity
  8
0
  6
Continuous
 62
     7
370
    25
100
AcDbLine
 10
61.9472890255
 20
77.7619931513
 30
0.0
 11
61.9472890255
 21
80.185604388
 31
0.0
  0
LINE
  5
259
330
1F
100
AcDbEntity
  8
0
  6
Continuous
 62
     7
370
    25
100
AcDbLine
 10
49.3472890091
 20
80.185604388
 30
0.0
 11
49.3472890091
 21
77.7619931513
 31
0.0
  0
LINE
  5
25A
330
1F
100
AcDbEntity
  8
0
  6
Continuous
 62
     7
370
    25
100
AcDbLine
 10
49.3472890091
 20
80.185604388
 30
0.0
 11
49.1472888832
 21
80.185604388
 31
0.0
  0
ARC
  5
25B
330
1F
100
AcDbEntity
  8
0
  6
Continuous
 62
     7
370
    25
100
AcDbCircle
 10
49.3472890173
 20
80.1856044618
 30
0.0
 40
0.2000000000000028
100
AcDbArc
 50
90.0
 51
180.0
  0
LINE
  5
25C
330
1F
100
AcDbEntity
  8
0
  6
Continuous
 62
     7
370
    25
100
AcDbLine
 10
49.1472888832
 20
78.3098876608
 30
0.0
 11
49.1472888832
 21
80.185604388
 31
0.0
  0
LINE
  5
25D
330
1F
100
AcDbEntity
  8
0
  6
Continuous
 62
     7
370
    25
100
AcDbLine
 10
62.1472891515
 20
70.4613212627
 30
0.0
 11
62.1472891515
 21
68.5856045355
 31
0.0
  0
LINE
  5
25E
330
1F
100
AcDbEntity
  8
0
  6
Continuous
 62
     7
370
    25
100
AcDbLine
 10
62.1472891515
 20
68.5856045355
 30
0.0
 11
61.9472890255
 21
68.5856045355
 31
0.0
  0
LINE
  5
25F
330
1F
100
AcDbEntity
  8
0
  6
Continuous
 62
     7
370
    25
100
AcDbLine
 10
61.9472890255
 20
68.5856045355
 30
0.0
 11
61.9472890255
 21
71.0092157722
 31
0.0
  0
LINE
  5
260
330
1F
100
AcDbEntity
  8
0
  6
Continuous
 62
     7
370
    25
100
AcDbLine
 10
61.6472890695
 20
68.5856045355
 30
0.0
 11
61.9472890255
 21
68.5856045355
 31
0.0
  0
LINE
  5
261
330
1F
100
AcDbEntity
  8
0
  6
Continuous
 62
     7
370
    25
100
AcDbLine
 10
49.3472890091
 20
68.5856045355
 30
0.0
 11
49.6472889652
 21
68.5856045355
 31
0.0
  0
LINE
  5
262
330
1F
100
AcDbEntity
  8
0
  6
Continuous
 62
     7
370
    25
100
AcDbLine
 10
49.3472890091
 20
71.0092157722
 30
0.0
 11
49.3472890091
 21
68.5856045355
 31
0.0
  0
LINE
  5
263
330
1F
100
AcDbEntity
  8
0
  6
Continuous
 62
     7
370
    25
100
AcDbLine
 10
49.3472890091
 20
68.5856045355
 30
0.0
 11
49.1472888832
 21
68.5856045355
 31
0.0
  0
LINE
  5
264
330
1F
100
AcDbEntity
  8
0
  6
Continuous
 62
     7
370
    25
100
AcDbLine
 10
49.1472888832
 20
68.5856045355
 30
0.0
 11
49.1472888832
 21
70.4613212627
 31
0.0
  0
LINE
  5
265
330
1F
100
AcDbEntity
  8
0
  6
Continuous
 62
     7
370
    25
100
AcDbLine
 10
61.9472890255
 20
68.3856044096
 30
0.0
 11
61.9472890255
 21
68.5856045355
 31
0.0
  0
ARC
  5
266
330
1F
100
AcDbEntity
  8
0
  6
Continuous
 62
     7
370
    25
100
AcDbCircle
 10
61.9472890173
 20
68.5856044618
 30
0.0
 40
0.2000000000000028
100
AcDbArc
 50
270.0
 51
0.0
  0
LINE
  5
267
330
1F
100
AcDbEntity
  8
0
  6
Continuous
 62
     7
370
    25
100
AcDbLine
 10
61.9472890255
 20
68.3856044096
 30
0.0
 11
61.6472890695
 21
68.3856044096
 31
0.0
  0
LINE
  5
268
330
1F
100
AcDbEntity
  8
0
  6
Continuous
 62
     7
370
    25
100
AcDbLine
 10
49.3472890091
 20
68.5856045355
 30
0.0
 11
49.3472890091
 21
68.3856044096
 31
0.0
  0
ARC
  5
269
330
1F
100
AcDbEntity
  8
0
  6
Continuous
 62
     7
370
    25
100
AcDbCircle
 10
49.3472890173
 20
68.5856044618
 30
0.0
 40
0.2000000000000028
100
AcDbArc
 50
180.0
 51
270.0
  0
LINE
  5
26A
330
1F
100
AcDbEntity
  8
0
  6
Continuous
 62
     7
370
    25
100
AcDbLine
 10
49.6472889652
 20
68.3856044096
 30
0.0
 11
49.3472890091
 21
68.3856044096
 31
0.0
  0
SPLINE
  5
26B
330
1F
100
AcDbEntity
  8
0
  6
Continuous
 62
     7
370
    25
100
AcDbSpline
210
0.0
220
0.0
230
1.0
 70
     8
 71
     3
 72
    14
 73
    10
 74
     0
 42
0.000000001
 43
0.00000001
 40
0.0
 40
0.0
 40
0.0
 40
0.0
 40
0.0484762997290651
 40
0.1220108450216317
 40
0.2276037384067111
 40
0.3675059195106766
 40
0.5426256501523746
 40
0.7533872704160025
 40
1.0
 40
1.0
 40
1.0
 40
1.0
 10
49.14728901734102
 20
80.18560446175202
 30
0.0
 10
49.14728198166341
 20
80.18481808415275
 30
0.0
 10
49.14726427344361
 20
80.18283883664562
 30
0.0
 10
49.14665502304121
 20
80.17242995718065
 30
0.0
 10
49.14458646094143
 20
80.15797506267837
 30
0.0
 10
49.13965266473461
 20
80.1376496799025
 30
0.0
 10
49.1299750621133
 20
80.11285312243189
 30
0.0
 10
49.11383823343384
 20
80.08420704334748
 30
0.0
 10
49.09751563862794
 20
80.06645830213027
 30
0.0
 10
49.08871462112374
 20
80.05688831745643
 30
0.0
  0
SPLINE
  5
26C
330
1F
100
AcDbEntity
  8
0
  6
Continuous
 62
     7
370
    25
100
AcDbSpline
210
0.0
220
0.0
230
1.0
 70
     8
 71
     3
 72
     8
 73
     4
 74
     0
 42
0.000000001
 43
0.00000001
 40
0.0
 40
0.0
 40
0.0
 40
0.0
 40
1.0
 40
1.0
 40
1.0
 40
1.0
 10
49.08871462112374
 20
80.05688831745643
 30
0.0
 10
49.05169029285007
 20
80.02103893617134
 30
0.0
 10
48.99965089724303
 20
79.99969120810377
 30
0.0
 10
48.94728901734102
 20
79.99850768755847
 30
0.0
  0
SPLINE
  5
26D
330
1F
100
AcDbEntity
  8
0
  6
Continuous
 62
     7
370
    25
100
AcDbSpline
210
0.0
220
0.0
230
1.0
 70
     8
 71
     3
 72
     8
 73
     4
 74
     0
 42
0.000000001
 43
0.00000001
 40
0.0
 40
0.0
 40
0.0
 40
0.0
 40
1.0
 40
1.0
 40
1.0
 40
1.0
 10
62.34728901734102
 20
79.99850768755847
 30
0.0
 10
62.29492713743901
 20
79.99969120810377
 30
0.0
 10
62.24288774183197
 20
80.02103893617134
 30
0.0
 10
62.2058634135583
 20
80.05688831745643
 30
0.0
  0
SPLINE
  5
26E
330
1F
100
AcDbEntity
  8
0
  6
Continuous
 62
     7
370
    25
100
AcDbSpline
210
0.0
220
0.0
230
1.0
 70
     8
 71
     3
 72
    13
 73
     9
 74
     0
 42
0.000000001
 43
0.00000001
 40
0.0
 40
0.0
 40
0.0
 40
0.0
 40
0.2842828991742481
 40
0.5198370183905306
 40
0.7070414958140518
 40
0.8468107266085061
 40
0.941597814201084
 40
1.0
 40
1.0
 40
1.0
 40
1.0
 10
62.2058634135583
 20
80.05688831745643
 30
0.0
 10
62.19581107317865
 20
80.06801086185186
 30
0.0
 10
62.17742945871648
 20
80.08834944124666
 30
0.0
 10
62.16077120200126
 20
80.12088542173078
 30
0.0
 10
62.15198647541893
 20
80.14799308037219
 30
0.0
 10
62.14838687630979
 20
80.16745093907515
 30
0.0
 10
62.14733473025622
 20
80.18157765064136
 30
0.0
 10
62.14730163474144
 20
80.18449300587586
 30
0.0
 10
62.14728901734102
 20
80.18560446175202
 30
0.0
  0
SPLINE
  5
26F
330
1F
100
AcDbEntity
  8
0
  6
Continuous
 62
     7
370
    25
100
AcDbSpline
210
0.0
220
0.0
230
1.0
 70
     8
 71
     3
 72
    12
 73
     8
 74
     0
 42
0.000000001
 43
0.00000001
 40
0.0
 40
0.0
 40
0.0
 40
0.0
 40
0.25
 40
0.25
 40
0.5
 40
0.5
 40
1.0
 40
1.0
 40
1.0
 40
1.0
 10
62.2058634135583
 20
68.71432060604762
 30
0.0
 10
62.19442134781011
 20
68.70315578568022
 30
0.0
 10
62.18419146855538
 20
68.69007317155044
 30
0.0
 10
62.16724827888267
 20
68.66280399669752
 30
0.0
 10
62.16053496846469
 20
68.64861743597437
 30
0.0
 10
62.14730818424064
 20
68.60849929531182
 30
0.0
 10
62.14728901734102
 20
68.58560446175203
 30
0.0
 10
62.14728901734102
 20
68.58560446175203
 30
0.0
  0
SPLINE
  5
270
330
1F
100
AcDbEntity
  8
0
  6
Continuous
 62
     7
370
    25
100
AcDbSpline
210
0.0
220
0.0
230
1.0
 70
     8
 71
     3
 72
    10
 73
     6
 74
     0
 42
0.000000001
 43
0.00000001
 40
0.0
 40
0.0
 40
0.0
 40
0.0
 40
0.5
 40
0.5
 40
1.0
 40
1.0
 40
1.0
 40
1.0
 10
62.2058634135583
 20
68.71432060604762
 30
0.0
 10
62.22874754505467
 20
68.73665024678243
 30
0.0
 10
62.25627869026976
 20
68.75238629941487
 30
0.0
 10
62.30671943754902
 20
68.77014613031318
 30
0.0
 10
62.32946791373354
 20
68.77270123594558
 30
0.0
 10
62.34728901734102
 20
68.77270123594558
 30
0.0
  0
SPLINE
  5
271
330
1F
100
AcDbEntity
  8
0
  6
Continuous
 62
     7
370
    25
100
AcDbSpline
210
0.0
220
0.0
230
1.0
 70
     8
 71
     3
 72
    12
 73
     8
 74
     0
 42
0.000000001
 43
0.00000001
 40
0.0
 40
0.0
 40
0.0
 40
0.0
 40
0.25
 40
0.25
 40
0.5
 40
0.5
 40
1.0
 40
1.0
 40
1.0
 40
1.0
 10
49.08871462112374
 20
68.71432060604762
 30
0.0
 10
49.10015668687193
 20
68.70315578568022
 30
0.0
 10
49.11038656612666
 20
68.69007317155044
 30
0.0
 10
49.12732975579937
 20
68.66280399669752
 30
0.0
 10
49.13404306621735
 20
68.64861743597437
 30
0.0
 10
49.1472698504414
 20
68.60849929531182
 30
0.0
 10
49.14728901734102
 20
68.58560446175203
 30
0.0
 10
49.14728901734102
 20
68.58560446175203
 30
0.0
  0
SPLINE
  5
272
330
1F
100
AcDbEntity
  8
0
  6
Continuous
 62
     7
370
    25
100
AcDbSpline
210
0.0
220
0.0
230
1.0
 70
     8
 71
     3
 72
    10
 73
     6
 74
     0
 42
0.000000001
 43
0.00000001
 40
0.0
 40
0.0
 40
0.0
 40
0.0
 40
0.5
 40
0.5
 40
1.0
 40
1.0
 40
1.0
 40
1.0
 10
49.08871462112374
 20
68.71432060604762
 30
0.0
 10
49.06583048962737
 20
68.73665024678243
 30
0.0
 10
49.03829934441228
 20
68.75238629941487
 30
0.0
 10
48.98785859713302
 20
68.77014613031318
 30
0.0
 10
48.9651101209485
 20
68.77270123594558
 30
0.0
 10
48.94728901734102
 20
68.77270123594558
 30
0.0
  0
SPLINE
  5
273
330
1F
100
AcDbEntity
  8
0
  6
Continuous
 62
     7
370
    25
100
AcDbSpline
210
0.0
220
0.0
230
1.0
 70
     8
 71
     3
 72
    12
 73
     8
 74
     0
 42
0.000000001
 43
0.00000001
 40
0.0
 40
0.0
 40
0.0
 40
0.0
 40
0.25
 40
0.25
 40
0.5
 40
0.5
 40
1.0
 40
1.0
 40
1.0
 40
1.0
 10
62.14857280964439
 20
80.38477568410909
 30
0.0
 10
62.140385852727
 20
80.38476928717911
 30
0.0
 10
62.13436722094649
 20
80.3778638955625
 30
0.0
 10
62.12293038370299
 20
80.36064471216837
 30
0.0
 10
62.11751217823998
 20
80.35033092039085
 30
0.0
 10
62.09655386539283
 20
80.32986132863549
 30
0.0
 10
62.08880462857589
 20
80.32693156299177
 30
0.0
 10
62.0887103735768
 20
80.32702581799087
 30
0.0
  0
SPLINE
  5
274
330
1F
100
AcDbEntity
  8
0
  6
Continuous
 62
     7
370
    25
100
AcDbSpline
210
0.0
220
0.0
230
1.0
 70
     8
 71
     3
 72
     9
 73
     5
 74
     0
 42
0.000000001
 43
0.00000001
 40
0.0
 40
0.0
 40
0.0
 40
0.0
 40
0.4105980787743589
 40
1.0
 40
1.0
 40
1.0
 40
1.0
 10
61.99380486284841
 20
80.38590579675898
 30
0.0
 10
62.01498941127043
 20
80.38614468389801
 30
0.0
 10
62.0665837793816
 20
80.38672648676409
 30
0.0
 10
62.11816871780658
 20
80.38549907541939
 30
0.0
 10
62.14857297962058
 20
80.38477563681468
 30
0.0
  0
SPLINE
  5
275
330
1F
100
AcDbEntity
  8
0
  6
Continuous
 62
     7
370
    25
100
AcDbSpline
210
0.0
220
0.0
230
1.0
 70
     8
 71
     3
 72
    12
 73
     8
 74
     0
 42
0.000000001
 43
0.00000001
 40
0.0
 40
0.0
 40
0.0
 40
0.0
 40
0.25
 40
0.25
 40
0.5
 40
0.5
 40
1.0
 40
1.0
 40
1.0
 40
1.0
 10
62.14857280964439
 20
80.38477568410909
 30
0.0
 10
62.15675976656178
 20
80.38478208103905
 30
0.0
 10
62.16851178635802
 20
80.37789057463218
 30
0.0
 10
62.19399775345709
 20
80.3487566747259
 30
0.0
 10
62.20773170075993
 20
80.32651428122654
 30
0.0
 10
62.24418413655172
 20
80.23442814946165
 30
0.0
 10
62.23871486359276
 20
80.15296287198387
 30
0.0
 10
62.2058634135583
 20
80.05688831745643
 30
0.0
  0
SPLINE
  5
276
330
1F
100
AcDbEntity
  8
0
  6
Continuous
 62
     7
370
    25
100
AcDbSpline
210
0.0
220
0.0
230
1.0
 70
     8
 71
     3
 72
     9
 73
     5
 74
     0
 42
0.000000001
 43
0.00000001
 40
0.0
 40
0.0
 40
0.0
 40
0.0
 40
0.4105980787743589
 40
1.0
 40
1.0
 40
1.0
 40
1.0
 10
49.30077317183364
 20
80.38590579675898
 30
0.0
 10
49.27958862341161
 20
80.38614468389801
 30
0.0
 10
49.22799425530044
 20
80.38672648676409
 30
0.0
 10
49.17640931687546
 20
80.38549907541939
 30
0.0
 10
49.14600505506147
 20
80.38477563681468
 30
0.0
  0
SPLINE
  5
277
330
1F
100
AcDbEntity
  8
0
  6
Continuous
 62
     7
370
    25
100
AcDbSpline
210
0.0
220
0.0
230
1.0
 70
     8
 71
     3
 72
    12
 73
     8
 74
     0
 42
0.000000001
 43
0.00000001
 40
0.0
 40
0.0
 40
0.0
 40
0.0
 40
0.25
 40
0.25
 40
0.5
 40
0.5
 40
1.0
 40
1.0
 40
1.0
 40
1.0
 10
49.14600522503765
 20
80.38477568410909
 30
0.0
 10
49.15419218195504
 20
80.38476928717911
 30
0.0
 10
49.16021081373555
 20
80.37786389556248
 30
0.0
 10
49.17164765097905
 20
80.36064471216837
 30
0.0
 10
49.17706585644206
 20
80.35033092039083
 30
0.0
 10
49.19802416928921
 20
80.32986132863549
 30
0.0
 10
49.20577340610615
 20
80.32693156299177
 30
0.0
 10
49.20586766110524
 20
80.32702581799087
 30
0.0
  0
SPLINE
  5
278
330
1F
100
AcDbEntity
  8
0
  6
Continuous
 62
     7
370
    25
100
AcDbSpline
210
0.0
220
0.0
230
1.0
 70
     8
 71
     3
 72
    14
 73
    10
 74
     0
 42
0.000000001
 43
0.00000001
 40
0.0
 40
0.0
 40
0.0
 40
0.0
 40
0.25
 40
0.25
 40
0.5
 40
0.5
 40
0.75
 40
0.75
 40
1.0
 40
1.0
 40
1.0
 40
1.0
 10
49.14600522503765
 20
80.38477568410909
 30
0.0
 10
49.13781826812026
 20
80.38478208103905
 30
0.0
 10
49.12606624832402
 20
80.37789057463216
 30
0.0
 10
49.10058028122495
 20
80.34875667472589
 30
0.0
 10
49.08684633392211
 20
80.32651428122654
 30
0.0
 10
49.06254471006092
 20
80.26512352671661
 30
0.0
 10
49.05783662233536
 20
80.22940951871968
 30
0.0
 10
49.06270871535816
 20
80.14931055272146
 30
0.0
 10
49.07228889610651
 20
80.10492559472014
 30
0.0
 10
49.08871462112374
 20
80.05688831745643
 30
0.0
  0
SPLINE
  5
279
330
1F
100
AcDbEntity
  8
0
  6
Continuous
 62
     7
370
    25
100
AcDbSpline
210
0.0
220
0.0
230
1.0
 70
     8
 71
     3
 72
    12
 73
     8
 74
     0
 42
0.000000001
 43
0.00000001
 40
0.0
 40
0.0
 40
0.0
 40
0.0
 40
0.25
 40
0.25
 40
0.5
 40
0.5
 40
1.0
 40
1.0
 40
1.0
 40
1.0
 10
62.14857280964439
 20
68.38643323939498
 30
0.0
 10
62.140385852727
 20
68.38643963632495
 30
0.0
 10
62.13436722094649
 20
68.39334502794155
 30
0.0
 10
62.12293038370299
 20
68.41056421133568
 30
0.0
 10
62.11751217823998
 20
68.42087800311319
 30
0.0
 10
62.09655386539283
 20
68.44134759486857
 30
0.0
 10
62.08880462857589
 20
68.44427736051227
 30
0.0
 10
62.0887103735768
 20
68.44418310551319
 30
0.0
  0
SPLINE
  5
27A
330
1F
100
AcDbEntity
  8
0
  6
Continuous
 62
     7
370
    25
100
AcDbSpline
210
0.0
220
0.0
230
1.0
 70
     8
 71
     3
 72
    12
 73
     8
 74
     0
 42
0.000000001
 43
0.00000001
 40
0.0
 40
0.0
 40
0.0
 40
0.0
 40
0.25
 40
0.25
 40
0.5
 40
0.5
 40
1.0
 40
1.0
 40
1.0
 40
1.0
 10
62.14857280964439
 20
68.38643323939498
 30
0.0
 10
62.15675976656178
 20
68.38642684246499
 30
0.0
 10
62.16851178635802
 20
68.39331834887187
 30
0.0
 10
62.1939977534571
 20
68.42245224877813
 30
0.0
 10
62.20773170075993
 20
68.4446946422775
 30
0.0
 10
62.24418413655172
 20
68.5367807740424
 30
0.0
 10
62.23871486359276
 20
68.61824605152019
 30
0.0
 10
62.2058634135583
 20
68.71432060604762
 30
0.0
  0
SPLINE
  5
27B
330
1F
100
AcDbEntity
  8
0
  6
Continuous
 62
     7
370
    25
100
AcDbSpline
210
0.0
220
0.0
230
1.0
 70
     8
 71
     3
 72
    12
 73
     8
 74
     0
 42
0.000000001
 43
0.00000001
 40
0.0
 40
0.0
 40
0.0
 40
0.0
 40
0.25
 40
0.25
 40
0.5
 40
0.5
 40
1.0
 40
1.0
 40
1.0
 40
1.0
 10
49.14600522503765
 20
68.38643323939496
 30
0.0
 10
49.15419218195505
 20
68.38643963632495
 30
0.0
 10
49.16021081373555
 20
68.39334502794156
 30
0.0
 10
49.17164765097906
 20
68.4105642113357
 30
0.0
 10
49.17706585644206
 20
68.4208780031132
 30
0.0
 10
49.19802416928921
 20
68.44134759486857
 30
0.0
 10
49.20577340610615
 20
68.44427736051227
 30
0.0
 10
49.20586766110524
 20
68.44418310551319
 30
0.0
  0
SPLINE
  5
27C
330
1F
100
AcDbEntity
  8
0
  6
Continuous
 62
     7
370
    25
100
AcDbSpline
210
0.0
220
0.0
230
1.0
 70
     8
 71
     3
 72
    14
 73
    10
 74
     0
 42
0.000000001
 43
0.00000001
 40
0.0
 40
0.0
 40
0.0
 40
0.0
 40
0.25
 40
0.25
 40
0.5
 40
0.5
 40
0.75
 40
0.75
 40
1.0
 40
1.0
 40
1.0
 40
1.0
 10
49.14600522503765
 20
68.38643323939496
 30
0.0
 10
49.13781826812027
 20
68.38642684246499
 30
0.0
 10
49.12606624832404
 20
68.39331834887189
 30
0.0
 10
49.10058028122495
 20
68.42245224877814
 30
0.0
 10
49.08684633392212
 20
68.44469464227751
 30
0.0
 10
49.06254471006092
 20
68.50608539678743
 30
0.0
 10
49.05783662233536
 20
68.54179940478436
 30
0.0
 10
49.06270871535816
 20
68.6218983707826
 30
0.0
 10
49.07228889610651
 20
68.6662833287839
 30
0.0
 10
49.08871462112374
 20
68.71432060604762
 30
0.0
  0
SPLINE
  5
27D
330
1F
100
AcDbEntity
  8
0
  6
Continuous
 62
     7
370
    25
100
AcDbSpline
210
0.0
220
0.0
230
1.0
 70
     8
 71
     3
 72
     9
 73
     5
 74
     0
 42
0.000000001
 43
0.00000001
 40
0.0
 40
0.0
 40
0.0
 40
0.0
 40
0.4105980787743589
 40
1.0
 40
1.0
 40
1.0
 40
1.0
 10
61.99380486284841
 20
68.38530312674507
 30
0.0
 10
62.01498941127043
 20
68.38506423960604
 30
0.0
 10
62.0665837793816
 20
68.38448243673996
 30
0.0
 10
62.11816871780658
 20
68.38570984808466
 30
0.0
 10
62.14857297962058
 20
68.38643328668937
 30
0.0
  0
SPLINE
  5
27E
330
1F
100
AcDbEntity
  8
0
  6
Continuous
 62
     7
370
    25
100
AcDbSpline
210
0.0
220
0.0
230
1.0
 70
     8
 71
     3
 72
     9
 73
     5
 74
     0
 42
0.000000001
 43
0.00000001
 40
0.0
 40
0.0
 40
0.0
 40
0.0
 40
0.4105980787743589
 40
1.0
 40
1.0
 40
1.0
 40
1.0
 10
49.30077317183364
 20
68.38530312674507
 30
0.0
 10
49.27958862341161
 20
68.38506423960604
 30
0.0
 10
49.22799425530044
 20
68.38448243673996
 30
0.0
 10
49.17640931687546
 20
68.38570984808466
 30
0.0
 10
49.14600505506147
 20
68.38643328668937
 30
0.0
  0
SPLINE
  5
27F
330
1F
100
AcDbEntity
  8
0
  6
Continuous
 62
     7
370
    25
100
AcDbSpline
210
0.0
220
0.0
230
1.0
 70
     8
 71
     3
 72
     9
 73
     5
 74
     0
 42
0.000000001
 43
0.00000001
 40
0.0
 40
0.0
 40
0.0
 40
0.0
 40
0.1239257456654217
 40
1.0
 40
1.0
 40
1.0
 40
1.0
 10
62.25170624454964
 20
80.38423360707625
 30
0.0
 10
62.24744623856226
 20
80.38416654110192
 30
0.0
 10
62.21307076666579
 20
80.38362536239866
 30
0.0
 10
62.17869164393321
 20
80.3842384908041
 30
0.0
 10
62.14857297962058
 20
80.38477563681468
 30
0.0
  0
SPLINE
  5
280
330
1F
100
AcDbEntity
  8
0
  6
Continuous
 62
     7
370
    25
100
AcDbSpline
210
0.0
220
0.0
230
1.0
 70
     8
 71
     3
 72
    10
 73
     6
 74
     0
 42
0.000000001
 43
0.00000001
 40
0.0
 40
0.0
 40
0.0
 40
0.0
 40
0.5
 40
0.5
 40
1.0
 40
1.0
 40
1.0
 40
1.0
 10
49.14600522503765
 20
80.38477568410909
 30
0.0
 10
49.11325739736809
 20
80.38480127182898
 30
0.0
 10
49.07850036984933
 20
80.38508627576454
 30
0.0
 10
49.00722421195137
 20
80.3820788401717
 30
0.0
 10
48.98122189929047
 20
80.38560446175202
 30
0.0
 10
48.94728901734102
 20
80.38560446175202
 30
0.0
  0
SPLINE
  5
281
330
1F
100
AcDbEntity
  8
0
  6
Continuous
 62
     7
370
    25
100
AcDbSpline
210
0.0
220
0.0
230
1.0
 70
     8
 71
     3
 72
    10
 73
     6
 74
     0
 42
0.000000001
 43
0.00000001
 40
0.0
 40
0.0
 40
0.0
 40
0.0
 40
0.5
 40
0.5
 40
1.0
 40
1.0
 40
1.0
 40
1.0
 10
62.14857280964439
 20
68.38643323939498
 30
0.0
 10
62.18132063731395
 20
68.38640765167506
 30
0.0
 10
62.21607766483271
 20
68.38612264773953
 30
0.0
 10
62.28735382273067
 20
68.38913008333235
 30
0.0
 10
62.31335613539157
 20
68.38560446175202
 30
0.0
 10
62.34728901734102
 20
68.38560446175202
 30
0.0
  0
SPLINE
  5
282
330
1F
100
AcDbEntity
  8
0
  6
Continuous
 62
     7
370
    25
100
AcDbSpline
210
0.0
220
0.0
230
1.0
 70
     8
 71
     3
 72
    10
 73
     6
 74
     0
 42
0.000000001
 43
0.00000001
 40
0.0
 40
0.0
 40
0.0
 40
0.0
 40
0.5
 40
0.5
 40
1.0
 40
1.0
 40
1.0
 40
1.0
 10
49.14600522503765
 20
68.38643323939496
 30
0.0
 10
49.11325739736809
 20
68.38640765167506
 30
0.0
 10
49.07850036984933
 20
68.38612264773953
 30
0.0
 10
49.00722421195137
 20
68.38913008333235
 30
0.0
 10
48.98122189929047
 20
68.38560446175202
 30
0.0
 10
48.94728901734102
 20
68.38560446175202
 30
0.0
  0
LINE
  5
283
330
1F
100
AcDbEntity
  8
0
  6
Continuous
 62
     7
370
    25
100
AcDbLine
 10
62.3972891924
 20
80.6856044699
 30
0.0
 11
62.8972888087
 21
80.6856044699
 31
0.0
  0
LINE
  5
284
330
1F
100
AcDbEntity
  8
0
  6
Continuous
 62
     7
370
    25
100
AcDbLine
 10
62.1472891515
 20
80.3856045139
 30
0.0
 11
63.1472888497
 21
80.3856045139
 31
0.0
  0
SPLINE
  5
285
330
1F
100
AcDbEntity
  8
0
  6
Continuous
 62
     8
370
    25
100
AcDbSpline
210
0.0
220
0.0
230
1.0
 70
     8
 71
     3
 72
    73
 73
    69
 74
     0
 42
0.000000001
 43
0.00000001
 40
0.0
 40
0.0
 40
0.0
 40
0.0
 40
0.0135492290850524
 40
0.0305516841524866
 40
0.0510046635717525
 40
0.0737843438560024
 40
0.0939899835702133
 40
0.1111105174254572
 40
0.1251475669434012
 40
0.1491935178727053
 40
0.1746021509061693
 40
0.2003365172577599
 40
0.2253767251299368
 40
0.2504242156912537
 40
0.2699631733842168
 40
0.2908015111944122
 40
0.3129347971376832
 40
0.325467059016089
 40
0.3379950518222296
 40
0.3505185323996695
 40
0.3630373139565966
 40
0.3755511426416217
 40
0.3902517739520195
 40
0.4060223330745937
 40
0.4228641262645
 40
0.4407788022838938
 40
0.4597683061051443
 40
0.4798349017456143
 40
0.5009811686305099
 40
0.5181220415535536
 40
0.5329396612271562
 40
0.5454317763283641
 40
0.5555965937317207
 40
0.5634328007944637
 40
0.5733247996065434
 40
0.5845109941921022
 40
0.5969904008578651
 40
0.6107617370310507
 40
0.6258234128510156
 40
0.6445909666368084
 40
0.6606167925482226
 40
0.6739034219419934
 40
0.6844528726837239
 40
0.6959315939795735
 40
0.7051169769443154
 40
0.7143084002034208
 40
0.7235061949161942
 40
0.7327106187768622
 40
0.7419220195687861
 40
0.7511406500735026
 40
0.761245526622434
 40
0.7750444557101621
 40
0.7925402035955165
 40
0.8137366692508905
 40
0.8316336395255429
 40
0.8480000794800212
 40
0.8628334029571063
 40
0.876131570522242
 40
0.8895059530564948
 40
0.9060696495795155
 40
0.9258200306757899
 40
0.9492204624214697
 40
0.9611010699746457
 40
0.971682807382382
 40
0.9809662087174668
 40
0.9889517259404531
 40
0.9956397361058287
 40
1.0
 40
1.0
 40
1.0
 40
1.0
 10
45.5743135978793
 20
67.76060500564441
 30
0.0
 10
45.5742832962386
 20
67.7617779272305
 30
0.0
 10
45.57421497012574
 20
67.76442270721088
 30
0.0
 10
45.57448516478579
 20
67.79072972227459
 30
0.0
 10
45.57495986263813
 20
67.84516033013172
 30
0.0
 10
45.57564155733025
 20
67.93280705767654
 30
0.0
 10
45.57617343847063
 20
68.04277189218554
 30
0.0
 10
45.57653479235703
 20
68.15646878130411
 30
0.0
 10
45.5767576691722
 20
68.29581933479025
 30
0.0
 10
45.57666072348793
 20
68.47959619910812
 30
0.0
 10
45.57615397036889
 20
68.73246153161858
 30
0.0
 10
45.5752277269568
 20
69.02405650264808
 30
0.0
 10
45.57428705209014
 20
69.34818186686941
 30
0.0
 10
45.57320778374147
 20
69.6743791354348
 30
0.0
 10
45.57254025304159
 20
70.00396227409436
 30
0.0
 10
45.57263442767678
 20
70.33823199515399
 30
0.0
 10
45.57320446946024
 20
70.65157644570307
 30
0.0
 10
45.57390078225713
 20
70.92801305941862
 30
0.0
 10
45.57447870808866
 20
71.15349329917431
 30
0.0
 10
45.5751102636319
 20
71.38389319664151
 30
0.0
 10
45.57577230752938
 20
71.61882056290014
 30
0.0
 10
45.57656510645294
 20
71.87191255291937
 30
0.0
 10
45.57727190001889
 20
72.15035651624389
 30
0.0
 10
45.57767358351187
 20
72.46176697768196
 30
0.0
 10
45.577824937848
 20
72.79932996918834
 30
0.0
 10
45.57770488898588
 20
73.16312152063082
 30
0.0
 10
45.57731560044763
 20
73.5529133367658
 30
0.0
 10
45.57666570796544
 20
73.96806641744145
 30
0.0
 10
45.57578505870964
 20
74.37225446047192
 30
0.0
 10
45.57491559970779
 20
74.74013471335107
 30
0.0
 10
45.57425739248922
 20
75.0472746088193
 30
0.0
 10
45.57375598576473
 20
75.30510907491309
 30
0.0
 10
45.57341877136863
 20
75.51385670826578
 30
0.0
 10
45.57320744776892
 20
75.70383537347517
 30
0.0
 10
45.57321381251572
 20
75.89958353933619
 30
0.0
 10
45.57340425720878
 20
76.12490882991587
 30
0.0
 10
45.57378999329624
 20
76.37363383477553
 30
0.0
 10
45.5743616420083
 20
76.64443484073493
 30
0.0
 10
45.57518599593803
 20
76.95116649876282
 30
0.0
 10
45.57608526899844
 20
77.26526735609404
 30
0.0
 10
45.57687989876525
 20
77.56017683103295
 30
0.0
 10
45.57748296962399
 20
77.79855157532432
 30
0.0
 10
45.57794818614836
 20
78.00502750099342
 30
0.0
 10
45.57821285197279
 20
78.18362455551537
 30
0.0
 10
45.57836713819454
 20
78.35070921959401
 30
0.0
 10
45.57842896602229
 20
78.50184600345659
 30
0.0
 10
45.57840789416675
 20
78.649780075485
 30
0.0
 10
45.57830724514545
 20
78.79439466852169
 30
0.0
 10
45.57812163496475
 20
78.93557881160267
 30
0.0
 10
45.57785550892978
 20
79.0775703743384
 30
0.0
 10
45.57739949039754
 20
79.2377441865915
 30
0.0
 10
45.57671162769129
 20
79.43034171559175
 30
0.0
 10
45.57576862769771
 20
79.66118201501153
 30
0.0
 10
45.5746539973623
 20
79.89144119858183
 30
0.0
 10
45.57362579335798
 20
80.0974015454229
 30
0.0
 10
45.57294541319135
 20
80.26353873660844
 30
0.0
 10
45.57253579414384
 20
80.40030245263434
 30
0.0
 10
45.57242097547168
 20
80.5157862804058
 30
0.0
 10
45.57261695066141
 20
80.62379569163878
 30
0.0
 10
45.57300701375411
 20
80.73235946528214
 30
0.0
 10
45.57362149369195
 20
80.83994489791534
 30
0.0
 10
45.57429817549259
 20
80.91371791528829
 30
0.0
 10
45.57483036701655
 20
80.9578859702398
 30
0.0
 10
45.57518905140277
 20
80.98078636764869
 30
0.0
 10
45.57548641383928
 20
80.99495329767427
 30
0.0
 10
45.57572798137073
 20
81.0025943348053
 30
0.0
 10
45.57590468898576
 20
81.00593167552351
 30
0.0
 10
45.57598788025376
 20
81.00611149655052
 30
0.0
 10
45.57602071215857
 20
81.00618246393665
 30
0.0
  0
LINE
  5
286
330
1F
100
AcDbEntity
  8
0
  6
Continuous
 62
     8
370
    25
100
AcDbLine
 10
46.5013390501
 20
80.3841702771
 30
0.0
 11
46.5013390501
 21
68.3856062722
 31
0.0
  0
SPLINE
  5
287
330
1F
100
AcDbEntity
  8
0
  6
Continuous
 62
     8
370
    25
100
AcDbSpline
210
0.0
220
0.0
230
1.0
 70
     8
 71
     3
 72
    50
 73
    46
 74
     0
 42
0.000000001
 43
0.00000001
 40
0.0
 40
0.0
 40
0.0
 40
0.0
 40
0.0010283531841097
 40
0.0355554655206709
 40
0.07088988920272
 40
0.0800382774901052
 40
0.0891870122148684
 40
0.0983361536056596
 40
0.1074857710201483
 40
0.1166359202700575
 40
0.1257866678569167
 40
0.1381306367004574
 40
0.1544700420569427
 40
0.1748034552906974
 40
0.1977084945745143
 40
0.2085764977062658
 40
0.218633989949825
 40
0.2278810472940682
 40
0.2363177835902349
 40
0.2439442512452608
 40
0.2507605049111499
 40
0.2862630744515917
 40
0.3205408036148091
 40
0.3535939558414207
 40
0.385422761881991
 40
0.4100078406419588
 40
0.4338092279289983
 40
0.4568270365368042
 40
0.4790613432825968
 40
0.5005352446570611
 40
0.5421526596976102
 40
0.5837712665426069
 40
0.6253910295817515
 40
0.6670118987038598
 40
0.7086338311778417
 40
0.7502568010503963
 40
0.7918807491498421
 40
0.833505614275716
 40
0.87514716846331
 40
0.8959783975081194
 40
0.9168085737246413
 40
0.9286832438563374
 40
0.9465066281509844
 40
0.9702787377527435
 40
1.0
 40
1.0
 40
1.0
 40
1.0
 10
65.71855732252348
 20
81.00618246393665
 30
0.0
 10
65.7185495128313
 20
81.00622540573863
 30
0.0
 10
65.71827949155349
 20
81.00771012498065
 30
0.0
 10
65.7180891403792
 20
80.97776187498361
 30
0.0
 10
65.71842195825772
 20
80.88943782694183
 30
0.0
 10
65.71878117666758
 20
80.80374273809035
 30
0.0
 10
65.71897976707699
 20
80.75464544705366
 30
0.0
 10
65.71919740453073
 20
80.70030430224055
 30
0.0
 10
65.71943584886354
 20
80.64078083865539
 30
0.0
 10
65.71968377667517
 20
80.57609168180971
 30
0.0
 10
65.72001972574347
 20
80.49828485461384
 30
0.0
 10
65.7202567030653
 20
80.39360488356446
 30
0.0
 10
65.72029024081765
 20
80.24341744693666
 30
0.0
 10
65.72018792383561
 20
80.03943564034924
 30
0.0
 10
65.71997070354415
 20
79.83209564737058
 30
0.0
 10
65.71981912901981
 20
79.65108279640641
 30
0.0
 10
65.719720537421
 20
79.52101783807846
 30
0.0
 10
65.71963901673503
 20
79.39692937233383
 30
0.0
 10
65.71957486004939
 20
79.28004545783199
 30
0.0
 10
65.7195247163408
 20
79.1714431374075
 30
0.0
 10
65.71945193151078
 20
78.92877435008265
 30
0.0
 10
65.71937499689459
 20
78.53130830481989
 30
0.0
 10
65.71927356423558
 20
77.94900431458517
 30
0.0
 10
65.71919818459729
 20
77.34841835276148
 30
0.0
 10
65.71914936760588
 20
76.7782917287327
 30
0.0
 10
65.71912032705973
 20
76.24979209543758
 30
0.0
 10
65.71910929262087
 20
75.76875331483222
 30
0.0
 10
65.71911167856086
 20
75.29623895912913
 30
0.0
 10
65.71912850419034
 20
74.83513368335309
 30
0.0
 10
65.71917455728382
 20
74.24287427039205
 30
0.0
 10
65.71924338890211
 20
73.51541867749319
 30
0.0
 10
65.71931620209614
 20
72.6631579243584
 30
0.0
 10
65.71938991134087
 20
71.84027105048625
 30
0.0
 10
65.71945811969958
 20
71.06094771262752
 30
0.0
 10
65.71952508376914
 20
70.33851197152896
 30
0.0
 10
65.71959135025833
 20
69.68534314606329
 30
0.0
 10
65.71964488704299
 20
69.11264293544677
 30
0.0
 10
65.71972769998068
 20
68.63011038608758
 30
0.0
 10
65.71970041500536
 20
68.31020776671112
 30
0.0
 10
65.71959324776705
 20
68.10719389107105
 30
0.0
 10
65.71941277017434
 20
68.00005600826803
 30
0.0
 10
65.71940873902746
 20
67.9159011946557
 30
0.0
 10
65.7195753127159
 20
67.84380892154454
 30
0.0
 10
65.71985696718093
 20
67.77647598985592
 30
0.0
 10
65.7201189033684
 20
67.76627354807081
 30
0.0
 10
65.72026443680275
 20
67.76060500564441
 30
0.0
  0
SPLINE
  5
288
330
1F
100
AcDbEntity
  8
0
  6
Continuous
 62
     8
370
    25
100
AcDbSpline
210
0.0
220
0.0
230
1.0
 70
    24
 71
     3
 72
    32
 73
    28
 74
     0
 42
0.000000001
 43
0.00000001
 40
0.0
 40
0.0
 40
0.0
 40
0.0
 40
0.0416176797032943
 40
0.0832353676929536
 40
0.1248530485793556
 40
0.1664707228260686
 40
0.2080884144980396
 40
0.2497060790831502
 40
0.2913237726951729
 40
0.3329414596565394
 40
0.3745591270800701
 40
0.4161768160929624
 40
0.4577944988656582
 40
0.4994121815451297
 40
0.541029861248424
 40
0.5826475492380834
 40
0.6242652301244853
 40
0.6658829043711982
 40
0.7075005960431693
 40
0.7491182606282799
 40
0.7907359542403026
 40
0.8323536412016692
 40
0.8739713086251997
 40
0.9155889976380921
 40
0.9572066804107879
 40
0.9988243630902593
 40
1.0
 40
1.0
 40
1.0
 40
1.0
 10
64.79323898454655
 20
68.38560627224311
 30
0.0
 10
64.79323898454655
 20
68.39530078264748
 30
0.0
 10
64.79323898454655
 20
68.41468980538646
 30
0.0
 10
64.79323898454655
 20
68.57344585243085
 30
0.0
 10
64.79323898454655
 20
68.8242786226742
 30
0.0
 10
64.79323898454655
 20
69.17224164962984
 30
0.0
 10
64.79323898454655
 20
69.60887819025956
 30
0.0
 10
64.79323898454655
 20
70.12738738515623
 30
0.0
 10
64.79323898454655
 20
70.71871803321751
 30
0.0
 10
64.79323898454655
 20
71.37280000561537
 30
0.0
 10
64.79323898454655
 20
72.07842947784559
 30
0.0
 10
64.79323898454655
 20
72.82353579291956
 30
0.0
 10
64.79323898454655
 20
73.59536955053844
 30
0.0
 10
64.79323898454655
 20
74.38072444379073
 30
0.0
 10
64.79323898454655
 20
75.16616284732892
 30
0.0
 10
64.79323898454655
 20
75.93824570163088
 30
0.0
 10
64.79323898454655
 20
76.6837620359938
 30
0.0
 10
64.79323898454655
 20
77.38995777900307
 30
0.0
 10
64.79323898454655
 20
78.04474326433503
 30
0.0
 10
64.79323898454655
 20
78.63693688432708
 30
0.0
 10
64.79323898454655
 20
79.1563264337501
 30
0.0
 10
64.79323898454655
 20
79.59432080446294
 30
0.0
 10
64.79323898454655
 20
79.94232339163632
 30
0.0
 10
64.79323898454655
 20
80.19849124463367
 30
0.0
 10
64.79323898454655
 20
80.34310065136829
 30
0.0
 10
64.79323898454656
 20
80.40247815082509
 30
0.0
 10
64.79323898454655
 20
80.38465979096537
 30
0.0
 10
64.79323898454655
 20
80.38417027714118
 30
0.0
  0
LINE
  5
289
330
1F
100
AcDbEntity
  8
0
  6
Continuous
 62
     8
370
    25
100
AcDbLine
 10
60.4472892453
 20
80.185604388
 30
0.0
 11
59.1228097772
 21
80.185604388
 31
0.0
  0
LINE
  5
28A
330
1F
100
AcDbEntity
  8
0
  6
Continuous
 62
     8
370
    25
100
AcDbLine
 10
60.4472892453
 20
79.1478772779
 30
0.0
 11
60.4472892453
 21
80.185604388
 31
0.0
  0
LINE
  5
28B
330
1F
100
AcDbEntity
  8
0
  6
Continuous
 62
     8
370
    25
100
AcDbLine
 10
52.1717682575
 20
80.185604388
 30
0.0
 11
50.8472887894
 21
80.185604388
 31
0.0
  0
LINE
  5
28C
330
1F
100
AcDbEntity
  8
0
  6
Continuous
 62
     8
370
    25
100
AcDbLine
 10
50.8472887894
 20
80.185604388
 30
0.0
 11
50.8472887894
 21
79.1478772779
 31
0.0
  0
LINE
  5
28D
330
1F
100
AcDbEntity
  8
0
  6
Continuous
 62
     8
370
    25
100
AcDbLine
 10
59.1228097772
 20
68.5856045355
 30
0.0
 11
60.6472889056
 21
68.5856045355
 31
0.0
  0
LINE
  5
28E
330
1F
100
AcDbEntity
  8
0
  6
Continuous
 62
     8
370
    25
100
AcDbLine
 10
50.8472887894
 20
69.6233316456
 30
0.0
 11
50.8472887894
 21
68.5856045355
 31
0.0
  0
LINE
  5
28F
330
1F
100
AcDbEntity
  8
0
  6
Continuous
 62
     8
370
    25
100
AcDbLine
 10
50.8472887894
 20
68.5856045355
 30
0.0
 11
52.1717682575
 21
68.5856045355
 31
0.0
  0
LINE
  5
290
330
1F
100
AcDbEntity
  8
0
  6
Continuous
 62
     8
370
    25
100
AcDbLine
 10
49.7401450855
 20
77.6374098976
 30
0.0
 11
49.6472889652
 21
77.6530773045
 31
0.0
  0
LINE
  5
291
330
1F
100
AcDbEntity
  8
0
  6
Continuous
 62
     8
370
    25
100
AcDbLine
 10
49.6472889652
 20
71.118131619
 30
0.0
 11
49.73493387
 21
71.1329196245
 31
0.0
  0
LINE
  5
292
330
1F
100
AcDbEntity
  8
0
  6
Continuous
 62
     8
370
    25
100
AcDbLine
 10
61.5553377291
 20
71.133646289
 30
0.0
 11
61.6472890695
 21
71.118131619
 31
0.0
  0
LINE
  5
293
330
1F
100
AcDbEntity
  8
0
  6
Continuous
 62
     8
370
    25
100
AcDbLine
 10
61.6472890695
 20
77.6530773045
 30
0.0
 11
61.5674411972
 21
77.6396047921
 31
0.0
  0
LINE
  5
294
330
1F
100
AcDbEntity
  8
0
  6
Continuous
 62
     8
370
    25
100
AcDbLine
 10
49.6472889652
 20
77.7619931513
 30
0.0
 11
49.7965864932
 21
77.7411690113
 31
0.0
  0
LINE
  5
295
330
1F
100
AcDbEntity
  8
0
  6
Continuous
 62
     8
370
    25
100
AcDbLine
 10
61.5028400068
 20
77.7418451515
 30
0.0
 11
61.6472890695
 21
77.7619931513
 31
0.0
  0
LINE
  5
296
330
1F
100
AcDbEntity
  8
0
  6
Continuous
 62
     8
370
    25
100
AcDbLine
 10
61.6472890695
 20
71.0092157722
 30
0.0
 11
61.4961666149
 21
71.0302943961
 31
0.0
  0
LINE
  5
297
330
1F
100
AcDbEntity
  8
0
  6
Continuous
 62
     8
370
    25
100
AcDbLine
 10
49.7968267744
 20
71.0300734398
 30
0.0
 11
49.6472889652
 21
71.0092157722
 31
0.0
  0
LINE
  5
298
330
1F
100
AcDbEntity
  8
0
  6
Continuous
 62
     8
370
    25
100
AcDbLine
 10
63.1472888497
 20
80.435604429
 30
0.0
 11
62.1472891515
 21
80.435604429
 31
0.0
  0
INSERT
  5
2A4
330
1F
100
AcDbEntity
  8
0
  6
Continuous
 62
     7
370
    18
100
AcDbBlockReference
  2
SW_CENTERMARKSYMBOL_1
 10
55.6472890173
 20
74.3856044618
 30
0.0
  0
LINE
  5
2A5
330
1F
100
AcDbEntity
  8
0
  6
Continuous
 62
     7
370
    18
100
AcDbLine
 10
76.7820632948
 20
68.6360661579
 30
0.0
 11
65.7882890173
 21
68.2925107118
 31
0.0
  0
LINE
  5
2A6
330
1F
100
AcDbEntity
  8
0
  6
Continuous
 62
     7
370
    18
100
AcDbLine
 10
76.7820632948
 20
80.1351427656
 30
0.0
 11
65.7882890173
 21
80.4786982118
 31
0.0
  0
LINE
  5
2A7
330
1F
100
AcDbEntity
  8
0
  6
Continuous
 62
     7
370
    18
100
AcDbLine
 10
65.7882890173
 20
81.1471982118
 30
0.0
 11
65.7882890173
 21
67.6240107118
 31
0.0
  0
ARC
  5
2A8
330
1F
100
AcDbEntity
  8
0
  6
Continuous
 62
     7
370
    18
100
AcDbCircle
 10
55.6472890173
 20
74.3856044618
 30
0.0
 40
5.722499999999997
100
AcDbArc
 50
75.0
 51
345.0
  0
LINE
  5
2A9
330
1F
100
AcDbEntity
  8
0
  6
Continuous
 62
     7
370
    18
100
AcDbLine
 10
34.5125147399
 20
80.1351427656
 30
0.0
 11
45.5062890173
 21
80.4786982118
 31
0.0
  0
LINE
  5
2AA
330
1F
100
AcDbEntity
  8
0
  6
Continuous
 62
     7
370
    18
100
AcDbLine
 10
34.5125147399
 20
68.6360661579
 30
0.0
 11
45.5062890173
 21
68.2925107118
 31
0.0
  0
LINE
  5
2AB
330
1F
100
AcDbEntity
  8
0
  6
Continuous
 62
     7
370
    18
100
AcDbLine
 10
45.5062890173
 20
67.6240107118
 30
0.0
 11
45.5062890173
 21
81.1471982118
 31
0.0
  0
ENDSEC
  0
SECTION
  2
OBJECTS
  0
DICTIONARY
  5
C
330
0
100
AcDbDictionary
281
     1
  3
ACAD_GROUP
350
D
  3
ACAD_LAYOUT
350
1A
  3
ACAD_MLINESTYLE
350
17
  3
ACAD_PLOTSETTINGS
350
19
  3
ACAD_PLOTSTYLENAME
350
E
  3
ACAD_SCALELIST
350
47
  0
DICTIONARY
  5
D
102
{ACAD_REACTORS
330
C
102
}
330
C
100
AcDbDictionary
281
     1
  0
DICTIONARY
  5
1A
102
{ACAD_REACTORS
330
C
102
}
330
C
100
AcDbDictionary
281
     1
  3
Layout1
350
1E
  3
Layout2
350
26
  3
Model
350
22
  0
DICTIONARY
  5
17
102
{ACAD_REACTORS
330
C
102
}
330
C
100
AcDbDictionary
281
     1
  3
Standard
350
18
  0
DICTIONARY
  5
19
102
{ACAD_REACTORS
330
C
102
}
330
C
100
AcDbDictionary
281
     1
  0
ACDBDICTIONARYWDFLT
  5
E
102
{ACAD_REACTORS
330
C
102
}
330
C
100
AcDbDictionary
281
     1
  3
Normal
350
F
100
AcDbDictionaryWithDefault
340
F
  0
DICTIONARY
  5
47
102
{ACAD_REACTORS
330
C
102
}
330
C
100
AcDbDictionary
281
     1
  3
A0
350
48
  3
A1
350
49
  3
A2
350
4A
  3
A3
350
4B
  3
A4
350
4C
  3
A5
350
4D
  3
A6
350
4E
  3
A7
350
4F
  3
A8
350
50
  3
A9
350
51
  3
B0
350
52
  3
B1
350
53
  3
B2
350
54
  3
B3
350
55
  3
B4
350
56
  3
B5
350
57
  3
B6
350
58
  3
B7
350
59
  3
B8
350
5A
  3
B9
350
5B
  3
C0
350
5C
  3
C1
350
5D
  3
C2
350
5E
  3
C3
350
5F
  3
C4
350
60
  3
C5
350
61
  3
C6
350
62
  3
C7
350
63
  3
C8
350
64
  3
C9
350
65
  3
D0
350
66
  3
D1
350
67
  3
D2
350
68
  0
LAYOUT
  5
1E
102
{ACAD_REACTORS
330
1A
102
}
330
1A
100
AcDbPlotSettings
  1

  2
none_device
  4

  6

 40
0.0
 41
0.0
 42
0.0
 43
0.0
 44
0.0
 45
0.0
 46
0.0
 47
0.0
 48
0.0
 49
0.0
140
0.0
141
0.0
142
1.0
143
1.0
 70
   688
 72
     1
 73
     0
 74
     5
  7

 75
    16
147
1.0
148
0.0
149
0.0
100
AcDbLayout
  1
Layout1
 70
     1
 71
     1
 10
0.0
 20
0.0
 11
420.0
 21
297.0
 12
0.0
 22
0.0
 32
0.0
 14
1.0000000000E+20
 24
1.0000000000E+20
 34
1.0000000000E+20
 15
-1.0000000000E+20
 25
-1.0000000000E+20
 35
-1.0000000000E+20
146
0.0
 13
0.0
 23
0.0
 33
0.0
 16
1.0
 26
0.0
 36
0.0
 17
0.0
 27
1.0
 37
0.0
 76
     0
330
1B
  0
LAYOUT
  5
26
102
{ACAD_REACTORS
330
1A
102
}
330
1A
100
AcDbPlotSettings
  1

  2
none_device
  4

  6

 40
0.0
 41
0.0
 42
0.0
 43
0.0
 44
0.0
 45
0.0
 46
0.0
 47
0.0
 48
0.0
 49
0.0
140
0.0
141
0.0
142
1.0
143
1.0
 70
   688
 72
     1
 73
     0
 74
     5
  7

 75
    16
147
1.0
148
0.0
149
0.0
100
AcDbLayout
  1
Layout2
 70
     1
 71
     2
 10
0.0
 20
0.0
 11
0.0
 21
0.0
 12
0.0
 22
0.0
 32
0.0
 14
0.0
 24
0.0
 34
0.0
 15
0.0
 25
0.0
 35
0.0
146
0.0
 13
0.0
 23
0.0
 33
0.0
 16
1.0
 26
0.0
 36
0.0
 17
0.0
 27
1.0
 37
0.0
 76
     0
330
23
  0
LAYOUT
  5
22
102
{ACAD_REACTORS
330
1A
102
}
330
1A
100
AcDbPlotSettings
  1

  2
none_device
  4
Letter_(8.50_x_11.00_Inches)
  6

 40
6.35
 41
6.35
 42
6.35000508
 43
6.35000508
 44
215.9
 45
279.4
 46
0.0
 47
0.0
 48
0.0
 49
0.0
140
0.0
141
0.0
142
1.0
143
1.0
 70
  1712
 72
     1
 73
     0
 74
     0
  7

 75
     0
147
1.0
148
0.0
149
0.0
100
AcDbLayout
  1
Model
 70
     1
 71
     0
 10
0.0
 20
0.0
 11
215.9
 21
139.7
 12
0.0
 22
0.0
 32
0.0
 14
0.0
 24
0.0
 34
0.0
 15
215.9
 25
139.7
 35
0.0
146
0.0
 13
0.0
 23
0.0
 33
0.0
 16
1.0
 26
0.0
 36
0.0
 17
0.0
 27
1.0
 37
0.0
 76
     0
330
1F
331
29
  0
MLINESTYLE
  5
18
102
{ACAD_REACTORS
330
17
102
}
330
17
100
AcDbMlineStyle
  2
Standard
 70
     0
  3

 62
   256
 51
90.0
 52
90.0
 71
     2
 49
0.5
 62
   256
  6
BYLAYER
 49
-0.5
 62
   256
  6
BYLAYER
  0
ACDBPLACEHOLDER
  5
F
102
{ACAD_REACTORS
330
E
102
}
330
E
  0
SCALE
  5
48
102
{ACAD_REACTORS
330
47
102
}
330
47
100
AcDbScale
 70
     0
300
1:1
140
1.0
141
1.0
290
     1
  0
SCALE
  5
49
102
{ACAD_REACTORS
330
47
102
}
330
47
100
AcDbScale
 70
     0
300
1:2
140
1.0
141
2.0
290
     0
  0
SCALE
  5
4A
102
{ACAD_REACTORS
330
47
102
}
330
47
100
AcDbScale
 70
     0
300
1:4
140
1.0
141
4.0
290
     0
  0
SCALE
  5
4B
102
{ACAD_REACTORS
330
47
102
}
330
47
100
AcDbScale
 70
     0
300
1:5
140
1.0
141
5.0
290
     0
  0
SCALE
  5
4C
102
{ACAD_REACTORS
330
47
102
}
330
47
100
AcDbScale
 70
     0
300
1:8
140
1.0
141
8.0
290
     0
  0
SCALE
  5
4D
102
{ACAD_REACTORS
330
47
102
}
330
47
100
AcDbScale
 70
     0
300
1:10
140
1.0
141
10.0
290
     0
  0
SCALE
  5
4E
102
{ACAD_REACTORS
330
47
102
}
330
47
100
AcDbScale
 70
     0
300
1:16
140
1.0
141
16.0
290
     0
  0
SCALE
  5
4F
102
{ACAD_REACTORS
330
47
102
}
330
47
100
AcDbScale
 70
     0
300
1:20
140
1.0
141
20.0
290
     0
  0
SCALE
  5
50
102
{ACAD_REACTORS
330
47
102
}
330
47
100
AcDbScale
 70
     0
300
1:30
140
1.0
141
30.0
290
     0
  0
SCALE
  5
51
102
{ACAD_REACTORS
330
47
102
}
330
47
100
AcDbScale
 70
     0
300
1:40
140
1.0
141
40.0
290
     0
  0
SCALE
  5
52
102
{ACAD_REACTORS
330
47
102
}
330
47
100
AcDbScale
 70
     0
300
1:50
140
1.0
141
50.0
290
     0
  0
SCALE
  5
53
102
{ACAD_REACTORS
330
47
102
}
330
47
100
AcDbScale
 70
     0
300
1:100
140
1.0
141
100.0
290
     0
  0
SCALE
  5
54
102
{ACAD_REACTORS
330
47
102
}
330
47
100
AcDbScale
 70
     0
300
2:1
140
2.0
141
1.0
290
     0
  0
SCALE
  5
55
102
{ACAD_REACTORS
330
47
102
}
330
47
100
AcDbScale
 70
     0
300
4:1
140
4.0
141
1.0
290
     0
  0
SCALE
  5
56
102
{ACAD_REACTORS
330
47
102
}
330
47
100
AcDbScale
 70
     0
300
8:1
140
8.0
141
1.0
290
     0
  0
SCALE
  5
57
102
{ACAD_REACTORS
330
47
102
}
330
47
100
AcDbScale
 70
     0
300
10:1
140
10.0
141
1.0
290
     0
  0
SCALE
  5
58
102
{ACAD_REACTORS
330
47
102
}
330
47
100
AcDbScale
 70
     0
300
100:1
140
100.0
141
1.0
290
     0
  0
SCALE
  5
59
102
{ACAD_REACTORS
330
47
102
}
330
47
100
AcDbScale
 70
     0
300
1/128" = 1'-0"
140
0.0078125
141
12.0
290
     0
  0
SCALE
  5
5A
102
{ACAD_REACTORS
330
47
102
}
330
47
100
AcDbScale
 70
     0
300
1/64" = 1'-0"
140
0.015625
141
12.0
290
     0
  0
SCALE
  5
5B
102
{ACAD_REACTORS
330
47
102
}
330
47
100
AcDbScale
 70
     0
300
1/32" = 1'-0"
140
0.03125
141
12.0
290
     0
  0
SCALE
  5
5C
102
{ACAD_REACTORS
330
47
102
}
330
47
100
AcDbScale
 70
     0
300
1/16" = 1'-0"
140
0.0625
141
12.0
290
     0
  0
SCALE
  5
5D
102
{ACAD_REACTORS
330
47
102
}
330
47
100
AcDbScale
 70
     0
300
3/32" = 1'-0"
140
0.09375
141
12.0
290
     0
  0
SCALE
  5
5E
102
{ACAD_REACTORS
330
47
102
}
330
47
100
AcDbScale
 70
     0
300
1/8" = 1'-0"
140
0.125
141
12.0
290
     0
  0
SCALE
  5
5F
102
{ACAD_REACTORS
330
47
102
}
330
47
100
AcDbScale
 70
     0
300
3/16" = 1'-0"
140
0.1875
141
12.0
290
     0
  0
SCALE
  5
60
102
{ACAD_REACTORS
330
47
102
}
330
47
100
AcDbScale
 70
     0
300
1/4" = 1'-0"
140
0.25
141
12.0
290
     0
  0
SCALE
  5
61
102
{ACAD_REACTORS
330
47
102
}
330
47
100
AcDbScale
 70
     0
300
3/8" = 1'-0"
140
0.375
141
12.0
290
     0
  0
SCALE
  5
62
102
{ACAD_REACTORS
330
47
102
}
330
47
100
AcDbScale
 70
     0
300
1/2" = 1'-0"
140
0.5
141
12.0
290
     0
  0
SCALE
  5
63
102
{ACAD_REACTORS
330
47
102
}
330
47
100
AcDbScale
 70
     0
300
3/4" = 1'-0"
140
0.75
141
12.0
290
     0
  0
SCALE
  5
64
102
{ACAD_REACTORS
330
47
102
}
330
47
100
AcDbScale
 70
     0
300
1" = 1'-0"
140
1.0
141
12.0
290
     0
  0
SCALE
  5
65
102
{ACAD_REACTORS
330
47
102
}
330
47
100
AcDbScale
 70
     0
300
1-1/2" = 1'-0"
140
1.5
141
12.0
290
     0
  0
SCALE
  5
66
102
{ACAD_REACTORS
330
47
102
}
330
47
100
AcDbScale
 70
     0
300
3" = 1'-0"
140
3.0
141
12.0
290
     0
  0
SCALE
  5
67
102
{ACAD_REACTORS
330
47
102
}
330
47
100
AcDbScale
 70
     0
300
6" = 1'-0"
140
6.0
141
12.0
290
     0
  0
SCALE
  5
68
102
{ACAD_REACTORS
330
47
102
}
330
47
100
AcDbScale
 70
     0
300
1'-0" = 1'-0"
140
12.0
141
12.0
290
     0
  0
ENDSEC
  0
EOF
