  0
SECTION
  2
HEADER
  9
$ACADVER
  1
AC1015
  9
$ACADMAINTVER
 70
     6
  9
$DWGCODEPAGE
  3
DOS932
  9
$INSBASE
 10
0.0
 20
0.0
 30
0.0
  9
$EXTMIN
 10
0.0
 20
0.0
 30
0.0
  9
$EXTMAX
 10
431.8
 20
279.4
 30
0.0
  9
$LIMMIN
 10
0.0
 20
0.0
  9
$LIMMAX
 10
431.8
 20
279.4
  9
$ORTHOMODE
 70
     0
  9
$REGENMODE
 70
     1
  9
$FILLMODE
 70
     1
  9
$QTEXTMODE
 70
     0
  9
$MIRRTEXT
 70
     1
  9
$LTSCALE
 40
1.0
  9
$ATTMODE
 70
     1
  9
$TEXTSIZE
 40
3.5
  9
$TRACEWID
 40
1.0
  9
$TEXTSTYLE
  7
Standard
  9
$CLAYER
  8
0
  9
$CELTYPE
  6
ByLayer
  9
$CECOLOR
 62
   256
  9
$CELTSCALE
 40
1.0
  9
$DISPSILH
 70
     0
  9
$DIMSCALE
 40
1.0
  9
$DIMASZ
 40
3.302
  9
$DIMEXO
 40
1.0
  9
$DIMDLI
 40
3.75
  9
$DIMRND
 40
0.0
  9
$DIMDLE
 40
0.0
  9
$DIMEXE
 40
1.0
  9
$DIMTP
 40
0.0
  9
$DIMTM
 40
0.0
  9
$DIMTXT
 40
3.5
  9
$DIMCEN
 40
2.5
  9
$DIMTSZ
 40
0.0
  9
$DIMTOL
 70
     0
  9
$DIMLIM
 70
     0
  9
$DIMTIH
 70
     1
  9
$DIMTOH
 70
     1
  9
$DIMSE1
 70
     0
  9
$DIMSE2
 70
     0
  9
$DIMTAD
 70
     1
  9
$DIMZIN
 70
     1
  9
$DIMBLK
  1

  9
$DIMASO
 70
     1
  9
$DIMSHO
 70
     1
  9
$DIMPOST
  1

  9
$DIMAPOST
  1

  9
$DIMALT
 70
     0
  9
$DIMALTD
 70
     3
  9
$DIMALTF
 40
0.0393700787
  9
$DIMLFAC
 40
1.0
  9
$DIMTOFL
 70
     1
  9
$DIMTVP
 40
0.0
  9
$DIMTIX
 70
     0
  9
$DIMSOXD
 70
     0
  9
$DIMSAH
 70
     0
  9
$DIMBLK1
  1

  9
$DIMBLK2
  1

  9
$DIMSTYLE
  2
ISO-25
  9
$DIMCLRD
 70
     0
  9
$DIMCLRE
 70
     0
  9
$DIMCLRT
 70
     0
  9
$DIMTFAC
 40
1.0
  9
$DIMGAP
 40
1.524
  9
$DIMJUST
 70
     0
  9
$DIMSD1
 70
     0
  9
$DIMSD2
 70
     0
  9
$DIMTOLJ
 70
     0
  9
$DIMTZIN
 70
     1
  9
$DIMALTZ
 70
     0
  9
$DIMALTTZ
 70
     0
  9
$DIMUPT
 70
     0
  9
$DIMDEC
 70
     2
  9
$DIMTDEC
 70
     2
  9
$DIMALTU
 70
     2
  9
$DIMALTTD
 70
     3
  9
$DIMTXSTY
  7
Standard
  9
$DIMAUNIT
 70
     0
  9
$DIMADEC
 70
     2
  9
$DIMALTRND
 40
0.0
  9
$DIMAZIN
 70
     0
  9
$DIMDSEP
 70
    44
  9
$DIMATFIT
 70
     3
  9
$DIMFRAC
 70
     0
  9
$DIMLDRBLK
  1

  9
$DIMLUNIT
 70
     2
  9
$DIMLWD
 70
    -2
  9
$DIMLWE
 70
    -2
  9
$DIMTMOVE
 70
     0
  9
$LUNITS
 70
     2
  9
$LUPREC
 70
     2
  9
$SKETCHINC
 40
1.0
  9
$FILLETRAD
 40
10.0
  9
$AUNITS
 70
     0
  9
$AUPREC
 70
     2
  9
$MENU
  1
.
  9
$ELEVATION
 40
0.0
  9
$PELEVATION
 40
0.0
  9
$THICKNESS
 40
0.0
  9
$LIMCHECK
 70
     0
  9
$CHAMFERA
 40
0.0
  9
$CHAMFERB
 40
0.0
  9
$CHAMFERC
 40
0.0
  9
$CHAMFERD
 40
0.0
  9
$SKPOLY
 70
     0
  9
$TDCREATE
 40
2459230.381592199
  9
$TDUCREATE
 40
2459230.006592199
  9
$TDUPDATE
 40
2459230.381592789
  9
$TDUUPDATE
 40
2459230.006592789
  9
$TDINDWG
 40
0.0000000116
  9
$TDUSRTIMER
 40
0.0000000116
  9
$USRTIMER
 70
     1
  9
$ANGBASE
 50
0.0
  9
$ANGDIR
 70
     0
  9
$PDMODE
 70
     0
  9
$PDSIZE
 40
-1.0
  9
$PLINEWID
 40
0.0
  9
$SPLFRAME
 70
     0
  9
$SPLINETYPE
 70
     6
  9
$SPLINESEGS
 70
     8
  9
$HANDSEED
  5
258
  9
$SURFTAB1
 70
     6
  9
$SURFTAB2
 70
     6
  9
$SURFTYPE
 70
     6
  9
$SURFU
 70
     6
  9
$SURFV
 70
     6
  9
$UCSBASE
  2

  9
$UCSNAME
  2

  9
$UCSORG
 10
0.0
 20
0.0
 30
0.0
  9
$UCSXDIR
 10
1.0
 20
0.0
 30
0.0
  9
$UCSYDIR
 10
0.0
 20
1.0
 30
0.0
  9
$UCSORTHOREF
  2

  9
$UCSORTHOVIEW
 70
     0
  9
$UCSORGTOP
 10
0.0
 20
0.0
 30
0.0
  9
$UCSORGBOTTOM
 10
0.0
 20
0.0
 30
0.0
  9
$UCSORGLEFT
 10
0.0
 20
0.0
 30
0.0
  9
$UCSORGRIGHT
 10
0.0
 20
0.0
 30
0.0
  9
$UCSORGFRONT
 10
0.0
 20
0.0
 30
0.0
  9
$UCSORGBACK
 10
0.0
 20
0.0
 30
0.0
  9
$PUCSBASE
  2

  9
$PUCSNAME
  2

  9
$PUCSORG
 10
0.0
 20
0.0
 30
0.0
  9
$PUCSXDIR
 10
1.0
 20
0.0
 30
0.0
  9
$PUCSYDIR
 10
0.0
 20
1.0
 30
0.0
  9
$PUCSORTHOREF
  2

  9
$PUCSORTHOVIEW
 70
     0
  9
$PUCSORGTOP
 10
0.0
 20
0.0
 30
0.0
  9
$PUCSORGBOTTOM
 10
0.0
 20
0.0
 30
0.0
  9
$PUCSORGLEFT
 10
0.0
 20
0.0
 30
0.0
  9
$PUCSORGRIGHT
 10
0.0
 20
0.0
 30
0.0
  9
$PUCSORGFRONT
 10
0.0
 20
0.0
 30
0.0
  9
$PUCSORGBACK
 10
0.0
 20
0.0
 30
0.0
  9
$USERI1
 70
     0
  9
$USERI2
 70
     0
  9
$USERI3
 70
     0
  9
$USERI4
 70
     0
  9
$USERI5
 70
     0
  9
$USERR1
 40
0.0
  9
$USERR2
 40
0.0
  9
$USERR3
 40
0.0
  9
$USERR4
 40
0.0
  9
$USERR5
 40
0.0
  9
$WORLDVIEW
 70
     1
  9
$SHADEDGE
 70
     3
  9
$SHADEDIF
 70
    70
  9
$TILEMODE
 70
     1
  9
$MAXACTVP
 70
    64
  9
$PINSBASE
 10
0.0
 20
0.0
 30
0.0
  9
$PLIMCHECK
 70
     0
  9
$PEXTMIN
 10
1.0000000000E+20
 20
1.0000000000E+20
 30
1.0000000000E+20
  9
$PEXTMAX
 10
-1.0000000000E+20
 20
-1.0000000000E+20
 30
-1.0000000000E+20
  9
$PLIMMIN
 10
0.0
 20
0.0
  9
$PLIMMAX
 10
420.0
 20
297.0
  9
$UNITMODE
 70
     0
  9
$VISRETAIN
 70
     1
  9
$PLINEGEN
 70
     0
  9
$PSLTSCALE
 70
     1
  9
$TREEDEPTH
 70
  3020
  9
$CMLSTYLE
  2
Standard
  9
$CMLJUST
 70
     0
  9
$CMLSCALE
 40
20.0
  9
$PROXYGRAPHICS
 70
     1
  9
$MEASUREMENT
 70
     1
  9
$CELWEIGHT
370
    -1
  9
$ENDCAPS
280
     0
  9
$JOINSTYLE
280
     0
  9
$LWDISPLAY
290
     1
  9
$INSUNITS
 70
     4
  9
$HYPERLINKBASE
  1

  9
$STYLESHEET
  1

  9
$XEDIT
290
     1
  9
$CEPSNTYPE
380
     0
  9
$PSTYLEMODE
290
     1
  9
$FINGERPRINTGUID
  2
{A2DC7B22-85D5-4EE5-878E-13371194B643}
  9
$VERSIONGUID
  2
{FAEB1C32-E019-11D5-929B-00C0DF256EC4}
  9
$EXTNAMES
290
     1
  9
$PSVPSCALE
 40
0.0
  9
$OLESTARTUP
290
     0
  0
ENDSEC
  0
SECTION
  2
CLASSES
  0
CLASS
  1
ACDBDICTIONARYWDFLT
  2
AcDbDictionaryWithDefault
  3
ObjectDBX Classes
 90
        0
280
     0
281
     0
  0
CLASS
  1
VISUALSTYLE
  2
AcDbVisualStyle
  3
ObjectDBX Classes
 90
     4095
280
     0
281
     0
  0
CLASS
  1
MATERIAL
  2
AcDbMaterial
  3
ObjectDBX Classes
 90
     1153
280
     0
281
     0
  0
CLASS
  1
SCALE
  2
AcDbScale
  3
ObjectDBX Classes
 90
     1153
280
     0
281
     0
  0
CLASS
  1
TABLESTYLE
  2
AcDbTableStyle
  3
ObjectDBX Classes
 90
     4095
280
     0
281
     0
  0
CLASS
  1
MLEADERSTYLE
  2
AcDbMLeaderStyle
  3
ACDB_MLEADERSTYLE_CLASS
 90
     4095
280
     0
281
     0
  0
CLASS
  1
SUN
  2
AcDbSun
  3
SCENEOE
 90
     1153
280
     0
281
     0
  0
CLASS
  1
ACDBPLACEHOLDER
  2
AcDbPlaceHolder
  3
ObjectDBX Classes
 90
        0
280
     0
281
     0
  0
CLASS
  1
LAYOUT
  2
AcDbLayout
  3
ObjectDBX Classes
 90
        0
280
     0
281
     0
  0
ENDSEC
  0
SECTION
  2
TABLES
  0
TABLE
  2
VPORT
  5
8
330
0
100
AcDbSymbolTable
 70
     1
  0
VPORT
  5
29
330
8
100
AcDbSymbolTableRecord
100
AcDbViewportTableRecord
  2
*Active
 70
     0
 10
0.0
 20
0.0
 11
1.0
 21
1.0
 12
215.9
 22
139.7
 13
0.0
 23
0.0
 14
10.0
 24
10.0
 15
10.0
 25
10.0
 16
0.0
 26
0.0
 36
1.0
 17
0.0
 27
0.0
 37
0.0
 40
279.4
 41
1.5454545455
 42
50.0
 43
0.0
 44
0.0
 50
0.0
 51
0.0
 71
     0
 72
  2000
 73
     1
 74
     3
 75
     0
 76
     0
 77
     0
 78
     0
281
     0
 65
     1
110
0.0
120
0.0
130
0.0
111
1.0
121
0.0
131
0.0
112
0.0
122
1.0
132
0.0
 79
     0
146
0.0
  0
ENDTAB
  0
TABLE
  2
LTYPE
  5
5
330
0
100
AcDbSymbolTable
 70
     6
  0
LTYPE
  5
14
330
5
100
AcDbSymbolTableRecord
100
AcDbLinetypeTableRecord
  2
ByBlock
 70
     0
  3

 72
    65
 73
     0
 40
0.0
  0
LTYPE
  5
15
330
5
100
AcDbSymbolTableRecord
100
AcDbLinetypeTableRecord
  2
ByLayer
 70
     0
  3

 72
    65
 73
     0
 40
0.0
  0
LTYPE
  5
16
330
5
100
AcDbSymbolTableRecord
100
AcDbLinetypeTableRecord
  2
Continuous
 70
     0
  3
Solid line
 72
    65
 73
     0
 40
0.0
  0
LTYPE
  5
6E
330
5
100
AcDbSymbolTableRecord
100
AcDbLinetypeTableRecord
  2
HIDDEN
 70
     0
  3
Hidden __ __ __ __ __ __ __ __ __ __ __ __ __ __
 72
    65
 73
     2
 40
1.905
 49
1.27
 74
     0
 49
-0.635
 74
     0
  0
LTYPE
  5
6F
330
5
100
AcDbSymbolTableRecord
100
AcDbLinetypeTableRecord
  2
PHANTOM
 70
     0
  3
Phantom ______  __  __  ______  __  __  ______
 72
    65
 73
     6
 40
12.7
 49
6.35
 74
     0
 49
-1.27
 74
     0
 49
1.27
 74
     0
 49
-1.27
 74
     0
 49
1.27
 74
     0
 49
-1.27
 74
     0
  0
LTYPE
  5
70
330
5
100
AcDbSymbolTableRecord
100
AcDbLinetypeTableRecord
  2
CENTER
 70
     0
  3
Center ____ _ ____ _ ____ _ ____ _ ____ _ ____
 72
    65
 73
     4
 40
10.16
 49
6.35
 74
     0
 49
-1.27
 74
     0
 49
1.27
 74
     0
 49
-1.27
 74
     0
  0
LTYPE
  5
71
330
5
100
AcDbSymbolTableRecord
100
AcDbLinetypeTableRecord
  2
CENTERX2
 70
     0
  3
Center (2x) ________  __  ________  __  _____
 72
    65
 73
     4
 40
20.32
 49
12.7
 74
     0
 49
-2.54
 74
     0
 49
2.54
 74
     0
 49
-2.54
 74
     0
  0
LTYPE
  5
72
330
5
100
AcDbSymbolTableRecord
100
AcDbLinetypeTableRecord
  2
DOT2
 70
     0
  3
Dot (.5x) ........................................
 72
    65
 73
     2
 40
0.635
 49
0.0
 74
     0
 49
-0.635
 74
     0
  0
ENDTAB
  0
TABLE
  2
LAYER
  5
2
330
0
100
AcDbSymbolTable
 70
     1
  0
LAYER
  5
10
330
2
100
AcDbSymbolTableRecord
100
AcDbLayerTableRecord
  2
0
 70
     0
 62
     7
  6
Continuous
370
    -3
390
F
  0
ENDTAB
  0
TABLE
  2
STYLE
  5
3
330
0
100
AcDbSymbolTable
 70
     2
  0
STYLE
  5
11
330
3
100
AcDbSymbolTableRecord
100
AcDbTextStyleTableRecord
  2
Standard
 70
     0
 40
0.0
 41
1.0
 50
0.0
 71
     0
 42
3.5
  3
txt
  4
bigfont
  0
STYLE
  5
73
330
3
100
AcDbSymbolTableRecord
100
AcDbTextStyleTableRecord
  2
SLDTEXTSTYLE0
 70
     0
 40
0.0
 41
0.7
 50
0.0
 71
     0
 42
3.5
  3
TXT
  4
bigfont
  0
ENDTAB
  0
TABLE
  2
VIEW
  5
6
330
0
100
AcDbSymbolTable
 70
     0
  0
ENDTAB
  0
TABLE
  2
UCS
  5
7
330
0
100
AcDbSymbolTable
 70
     0
  0
ENDTAB
  0
TABLE
  2
APPID
  5
9
330
0
100
AcDbSymbolTable
 70
     1
  0
APPID
  5
12
330
9
100
AcDbSymbolTableRecord
100
AcDbRegAppTableRecord
  2
ACAD
 70
     0
  0
ENDTAB
  0
TABLE
  2
DIMSTYLE
  5
A
330
0
100
AcDbSymbolTable
 70
     1
100
AcDbDimStyleTable
  0
DIMSTYLE
105
27
330
A
100
AcDbSymbolTableRecord
100
AcDbDimStyleTableRecord
  2
ISO-25
 70
     0
 41
2.5
 42
0.625
 43
3.75
 44
1.25
 73
     0
 74
     0
 77
     1
 78
     8
140
2.5
141
2.5
143
0.0393700787
147
0.625
171
     3
172
     1
178
     0
271
     2
272
     2
274
     3
278
    44
283
     0
284
     8
340
11
  0
ENDTAB
  0
TABLE
  2
BLOCK_RECORD
  5
1
330
0
100
AcDbSymbolTable
 70
     3
  0
BLOCK_RECORD
  5
1F
330
1
100
AcDbSymbolTableRecord
100
AcDbBlockTableRecord
  2
*Model_Space
340
22
  0
BLOCK_RECORD
  5
1B
330
1
100
AcDbSymbolTableRecord
100
AcDbBlockTableRecord
  2
*Paper_Space
340
1E
  0
BLOCK_RECORD
  5
23
330
1
100
AcDbSymbolTableRecord
100
AcDbBlockTableRecord
  2
*Paper_Space0
340
26
  0
BLOCK_RECORD
  5
17D
330
1
100
AcDbSymbolTableRecord
100
AcDbBlockTableRecord
  2
SW_CENTERMARKSYMBOL_0
340
0
102
{BLKREFS
331
188
102
}
  0
BLOCK_RECORD
  5
24B
330
1
100
AcDbSymbolTableRecord
100
AcDbBlockTableRecord
  2
SW_CENTERMARKSYMBOL_1
340
0
102
{BLKREFS
331
256
102
}
  0
ENDTAB
  0
ENDSEC
  0
SECTION
  2
BLOCKS
  0
BLOCK
  5
20
330
1F
100
AcDbEntity
  8
0
100
AcDbBlockBegin
  2
*Model_Space
 70
     0
 10
0.0
 20
0.0
 30
0.0
  3
*Model_Space
  1

  0
ENDBLK
  5
21
330
1F
100
AcDbEntity
  8
0
100
AcDbBlockEnd
  0
BLOCK
  5
1C
330
1B
100
AcDbEntity
 67
     1
  8
0
100
AcDbBlockBegin
  2
*Paper_Space
 70
     0
 10
0.0
 20
0.0
 30
0.0
  3
*Paper_Space
  1

  0
ENDBLK
  5
1D
330
1B
100
AcDbEntity
 67
     1
  8
0
100
AcDbBlockEnd
  0
BLOCK
  5
24
330
23
100
AcDbEntity
  8
0
100
AcDbBlockBegin
  2
*Paper_Space0
 70
     0
 10
0.0
 20
0.0
 30
0.0
  3
*Paper_Space0
  1

  0
ENDBLK
  5
25
330
23
100
AcDbEntity
  8
0
100
AcDbBlockEnd
  0
BLOCK
  5
17E
330
17D
100
AcDbEntity
  8
0
100
AcDbBlockBegin
  2
SW_CENTERMARKSYMBOL_0
 70
     0
 10
0.0
 20
0.0
 30
0.0
  3
SW_CENTERMARKSYMBOL_0
  1

  0
LINE
  5
180
330
17D
100
AcDbEntity
  8
0
  6
Continuous
 62
     0
370
    18
100
AcDbLine
 10
0.0
 20
0.0
 30
0.0
 11
0.0
 21
2.5
 31
0.0
  0
LINE
  5
181
330
17D
100
AcDbEntity
  8
0
  6
Continuous
 62
     0
370
    18
100
AcDbLine
 10
0.0
 20
0.0
 30
0.0
 11
-2.5
 21
0.0
 31
0.0
  0
LINE
  5
182
330
17D
100
AcDbEntity
  8
0
  6
Continuous
 62
     0
370
    18
100
AcDbLine
 10
0.0
 20
0.0
 30
0.0
 11
0.0
 21
-2.5
 31
0.0
  0
LINE
  5
183
330
17D
100
AcDbEntity
  8
0
  6
Continuous
 62
     0
370
    18
100
AcDbLine
 10
0.0
 20
0.0
 30
0.0
 11
2.5
 21
0.0
 31
0.0
  0
LINE
  5
184
330
17D
100
AcDbEntity
  8
0
  6
Continuous
 62
     0
370
    18
100
AcDbLine
 10
0.0
 20
5.0
 30
0.0
 11
0.0
 21
34.8221350229
 31
0.0
  0
LINE
  5
185
330
17D
100
AcDbEntity
  8
0
  6
Continuous
 62
     0
370
    18
100
AcDbLine
 10
-5.0
 20
0.0
 30
0.0
 11
-16.5
 21
0.0
 31
0.0
  0
LINE
  5
186
330
17D
100
AcDbEntity
  8
0
  6
Continuous
 62
     0
370
    18
100
AcDbLine
 10
0.0
 20
-5.0
 30
0.0
 11
0.0
 21
-16.5
 31
0.0
  0
LINE
  5
187
330
17D
100
AcDbEntity
  8
0
  6
Continuous
 62
     0
370
    18
100
AcDbLine
 10
5.0
 20
0.0
 30
0.0
 11
16.5
 21
0.0
 31
0.0
  0
ENDBLK
  5
17F
330
17D
100
AcDbEntity
  8
0
100
AcDbBlockEnd
  0
BLOCK
  5
24C
330
24B
100
AcDbEntity
  8
0
100
AcDbBlockBegin
  2
SW_CENTERMARKSYMBOL_1
 70
     0
 10
0.0
 20
0.0
 30
0.0
  3
SW_CENTERMARKSYMBOL_1
  1

  0
LINE
  5
24E
330
24B
100
AcDbEntity
  8
0
  6
Continuous
 62
     0
370
    18
100
AcDbLine
 10
0.0
 20
0.0
 30
0.0
 11
0.0
 21
2.5
 31
0.0
  0
LINE
  5
24F
330
24B
100
AcDbEntity
  8
0
  6
Continuous
 62
     0
370
    18
100
AcDbLine
 10
0.0
 20
0.0
 30
0.0
 11
-2.5
 21
0.0
 31
0.0
  0
LINE
  5
250
330
24B
100
AcDbEntity
  8
0
  6
Continuous
 62
     0
370
    18
100
AcDbLine
 10
0.0
 20
0.0
 30
0.0
 11
0.0
 21
-2.5
 31
0.0
  0
LINE
  5
251
330
24B
100
AcDbEntity
  8
0
  6
Continuous
 62
     0
370
    18
100
AcDbLine
 10
0.0
 20
0.0
 30
0.0
 11
2.5
 21
0.0
 31
0.0
  0
LINE
  5
252
330
24B
100
AcDbEntity
  8
0
  6
Continuous
 62
     0
370
    18
100
AcDbLine
 10
0.0
 20
5.0
 30
0.0
 11
0.0
 21
13.2732381151
 31
0.0
  0
LINE
  5
253
330
24B
100
AcDbEntity
  8
0
  6
Continuous
 62
     0
370
    18
100
AcDbLine
 10
-5.0
 20
0.0
 30
0.0
 11
-35.5820186059
 21
0.0
 31
0.0
  0
LINE
  5
254
330
24B
100
AcDbEntity
  8
0
  6
Continuous
 62
     0
370
    18
100
AcDbLine
 10
0.0
 20
-5.0
 30
0.0
 11
0.0
 21
-13.1292073123
 31
0.0
  0
LINE
  5
255
330
24B
100
AcDbEntity
  8
0
  6
Continuous
 62
     0
370
    18
100
AcDbLine
 10
5.0
 20
0.0
 30
0.0
 11
36.4135386013
 21
0.0
 31
0.0
  0
ENDBLK
  5
24D
330
24B
100
AcDbEntity
  8
0
100
AcDbBlockEnd
  0
ENDSEC
  0
SECTION
  2
ENTITIES
  0
MTEXT
  5
74
330
1F
100
AcDbEntity
  8
0
  6
Continuous
 62
     7
370
     0
100
AcDbMText
 10
180.7213044265
 20
127.0413600227
 30
0.0
 40
5.2916666667
 41
0.0
 71
     1
 72
     1
  1
5R-TK1444
  7
SLDTEXTSTYLE0
 73
     1
 44
1.0
  0
ARC
  5
75
330
1F
100
AcDbEntity
  8
0
  6
Continuous
 62
     7
370
    25
100
AcDbCircle
 10
164.2295653179
 20
89.5028601156
 30
0.0
 40
1.0
100
AcDbArc
 50
90.0
 51
180.0
  0
ARC
  5
76
330
1F
100
AcDbEntity
  8
0
  6
Continuous
 62
     7
370
    25
100
AcDbCircle
 10
164.2295653179
 20
63.5028601156
 30
0.0
 40
1.0
100
AcDbArc
 50
180.0
 51
270.0
  0
LINE
  5
77
330
1F
100
AcDbEntity
  8
0
  6
Continuous
 62
     7
370
    25
100
AcDbLine
 10
178.2295651391
 20
90.5028605477
 30
0.0
 11
164.229564707
 21
90.5028605477
 31
0.0
  0
LINE
  5
78
330
1F
100
AcDbEntity
  8
0
  6
Continuous
 62
     7
370
    25
100
AcDbLine
 10
164.229564707
 20
62.5028596835
 30
0.0
 11
178.2295651391
 21
62.5028596835
 31
0.0
  0
LINE
  5
79
330
1F
100
AcDbEntity
  8
0
  6
Continuous
 62
     7
370
    25
100
AcDbLine
 10
112.2295654967
 20
62.5028596835
 30
0.0
 11
126.2295659289
 21
62.5028596835
 31
0.0
  0
LINE
  5
7A
330
1F
100
AcDbEntity
  8
0
  6
Continuous
 62
     7
370
    25
100
AcDbLine
 10
126.2295659289
 20
90.5028605477
 30
0.0
 11
112.2295654967
 21
90.5028605477
 31
0.0
  0
LINE
  5
7B
330
1F
100
AcDbEntity
  8
0
  6
Continuous
 62
     7
370
    25
100
AcDbLine
 10
178.2295651391
 20
62.5028596835
 30
0.0
 11
179.2295671657
 21
63.5028598474
 31
0.0
  0
LINE
  5
7C
330
1F
100
AcDbEntity
  8
0
  6
Continuous
 62
     7
370
    25
100
AcDbLine
 10
179.2295671657
 20
89.5028603838
 30
0.0
 11
178.2295651391
 21
90.5028605477
 31
0.0
  0
LINE
  5
7D
330
1F
100
AcDbEntity
  8
0
  6
Continuous
 62
     7
370
    25
100
AcDbLine
 10
112.2295654967
 20
90.5028605477
 30
0.0
 11
111.2295634702
 21
89.5028603838
 31
0.0
  0
LINE
  5
7E
330
1F
100
AcDbEntity
  8
0
  6
Continuous
 62
     7
370
    25
100
AcDbLine
 10
111.2295634702
 20
63.5028598474
 30
0.0
 11
112.2295654967
 21
62.5028596835
 31
0.0
  0
ARC
  5
7F
330
1F
100
AcDbEntity
  8
0
  6
Continuous
 62
     7
370
    25
100
AcDbCircle
 10
126.2295653179
 20
63.5028601156
 30
0.0
 40
1.0
100
AcDbArc
 50
270.0
 51
0.0
  0
ARC
  5
80
330
1F
100
AcDbEntity
  8
0
  6
Continuous
 62
     7
370
    25
100
AcDbCircle
 10
126.2295653179
 20
89.5028601156
 30
0.0
 40
1.0
100
AcDbArc
 50
0.0
 51
90.0
  0
ARC
  5
81
330
1F
100
AcDbEntity
  8
0
  6
Continuous
 62
     7
370
    25
100
AcDbCircle
 10
162.2295653179
 20
88.5028601156
 30
0.0
 40
1.000000000000014
100
AcDbArc
 50
270.0
 51
0.0
  0
ARC
  5
82
330
1F
100
AcDbEntity
  8
0
  6
Continuous
 62
     7
370
    25
100
AcDbCircle
 10
162.2295653179
 20
64.5028601156
 30
0.0
 40
1.0
100
AcDbArc
 50
0.0
 51
90.0
  0
ARC
  5
83
330
1F
100
AcDbEntity
  8
0
  6
Continuous
 62
     7
370
    25
100
AcDbCircle
 10
128.2295653179
 20
64.5028601156
 30
0.0
 40
1.000000000000014
100
AcDbArc
 50
90.0
 51
180.0
  0
ARC
  5
84
330
1F
100
AcDbEntity
  8
0
  6
Continuous
 62
     7
370
    25
100
AcDbCircle
 10
128.2295653179
 20
88.5028601156
 30
0.0
 40
1.000000000000014
100
AcDbArc
 50
180.0
 51
270.0
  0
LINE
  5
85
330
1F
100
AcDbEntity
  8
0
  6
Continuous
 62
     7
370
    25
100
AcDbLine
 10
156.3731984824
 20
94.019227253
 30
0.0
 11
155.8895654634
 21
94.5028593407
 31
0.0
  0
LINE
  5
86
330
1F
100
AcDbEntity
  8
0
  6
Continuous
 62
     7
370
    25
100
AcDbLine
 10
134.5695651725
 20
94.5028593407
 30
0.0
 11
134.0859321535
 21
94.019227253
 31
0.0
  0
ARC
  5
87
330
1F
100
AcDbEntity
  8
0
  6
Continuous
 62
     7
370
    25
100
AcDbCircle
 10
133.2295653179
 20
93.5028601156
 30
0.0
 40
1.0
100
AcDbArc
 50
0.0
 51
31.0888876498
  0
ARC
  5
88
330
1F
100
AcDbEntity
  8
0
  6
Continuous
 62
     7
370
    25
100
AcDbCircle
 10
157.2295653179
 20
93.5028601156
 30
0.0
 40
1.000000000000028
100
AcDbArc
 50
148.9111123502
 51
180.0
  0
LINE
  5
89
330
1F
100
AcDbEntity
  8
0
  6
Continuous
 62
     7
370
    25
100
AcDbLine
 10
133.7295652956
 20
87.502860056
 30
0.0
 11
128.229564394
 21
87.502860056
 31
0.0
  0
LINE
  5
8A
330
1F
100
AcDbEntity
  8
0
  6
Continuous
 62
     7
370
    25
100
AcDbLine
 10
162.2295662418
 20
87.502860056
 30
0.0
 11
156.7295653403
 21
87.502860056
 31
0.0
  0
LINE
  5
8B
330
1F
100
AcDbEntity
  8
0
  6
Continuous
 62
     7
370
    25
100
AcDbLine
 10
128.229564394
 20
65.5028601752
 30
0.0
 11
162.2295662418
 21
65.5028601752
 31
0.0
  0
LINE
  5
8C
330
1F
100
AcDbEntity
  8
0
  6
Continuous
 62
     7
370
    25
100
AcDbLine
 10
156.2295652583
 20
88.002860138
 30
0.0
 11
156.2295652583
 21
93.5028610395
 31
0.0
  0
LINE
  5
8D
330
1F
100
AcDbEntity
  8
0
  6
Continuous
 62
     7
370
    25
100
AcDbLine
 10
134.2295653775
 20
93.5028610395
 30
0.0
 11
134.2295653775
 21
88.002860138
 31
0.0
  0
LINE
  5
8E
330
1F
100
AcDbEntity
  8
0
  6
Continuous
 62
     7
370
    25
100
AcDbLine
 10
155.8895654634
 20
94.5028593407
 30
0.0
 11
155.5363278493
 21
105.8064685778
 31
0.0
  0
LINE
  5
8F
330
1F
100
AcDbEntity
  8
0
  6
Continuous
 62
     7
370
    25
100
AcDbLine
 10
134.9228027865
 20
105.8064685778
 30
0.0
 11
134.5695651725
 21
94.5028593407
 31
0.0
  0
LINE
  5
90
330
1F
100
AcDbEntity
  8
0
  6
Continuous
 62
     7
370
    25
100
AcDbLine
 10
155.5363278493
 20
105.8064685778
 30
0.0
 11
153.9795653552
 21
108.5028616355
 31
0.0
  0
LINE
  5
91
330
1F
100
AcDbEntity
  8
0
  6
Continuous
 62
     7
370
    25
100
AcDbLine
 10
136.4795652807
 20
108.5028616355
 30
0.0
 11
134.9228027865
 21
105.8064685778
 31
0.0
  0
ARC
  5
92
330
1F
100
AcDbEntity
  8
0
  6
Continuous
 62
     7
370
    25
100
AcDbCircle
 10
156.7295653179
 20
88.0028601156
 30
0.0
 40
0.5000000000000174
100
AcDbArc
 50
180.1994680079
 51
269.8889770763
  0
ARC
  5
93
330
1F
100
AcDbEntity
  8
0
  6
Continuous
 62
     7
370
    25
100
AcDbCircle
 10
133.7295653179
 20
88.0028601156
 30
0.0
 40
0.5000000000000023
100
AcDbArc
 50
270.1994680079
 51
359.8889770763
  0
LINE
  5
94
330
1F
100
AcDbEntity
  8
0
  6
Continuous
 62
     7
370
    25
100
AcDbLine
 10
163.2295645431
 20
63.5028598474
 30
0.0
 11
163.2295645431
 21
89.5028603838
 31
0.0
  0
LINE
  5
95
330
1F
100
AcDbEntity
  8
0
  6
Continuous
 62
     7
370
    25
100
AcDbLine
 10
178.2295651391
 20
62.5028596835
 30
0.0
 11
178.2295651391
 21
90.5028605477
 31
0.0
  0
LINE
  5
96
330
1F
100
AcDbEntity
  8
0
  6
Continuous
 62
     7
370
    25
100
AcDbLine
 10
112.2295654967
 20
76.5028601156
 30
0.0
 11
112.2295654967
 21
62.5028596835
 31
0.0
  0
LINE
  5
97
330
1F
100
AcDbEntity
  8
0
  6
Continuous
 62
     7
370
    25
100
AcDbLine
 10
112.2295654967
 20
90.5028605477
 30
0.0
 11
112.2295654967
 21
76.5028601156
 31
0.0
  0
LINE
  5
98
330
1F
100
AcDbEntity
  8
0
  6
Continuous
 62
     7
370
    25
100
AcDbLine
 10
179.2295671657
 20
89.5028603838
 30
0.0
 11
179.2295671657
 21
63.5028598474
 31
0.0
  0
LINE
  5
99
330
1F
100
AcDbEntity
  8
0
  6
Continuous
 62
     7
370
    25
100
AcDbLine
 10
111.2295634702
 20
76.5028601156
 30
0.0
 11
111.2295634702
 21
89.5028603838
 31
0.0
  0
LINE
  5
9A
330
1F
100
AcDbEntity
  8
0
  6
Continuous
 62
     7
370
    25
100
AcDbLine
 10
111.2295634702
 20
63.5028598474
 30
0.0
 11
111.2295634702
 21
76.5028601156
 31
0.0
  0
LINE
  5
9B
330
1F
100
AcDbEntity
  8
0
  6
Continuous
 62
     7
370
    25
100
AcDbLine
 10
127.2295660928
 20
76.5028601156
 30
0.0
 11
127.2295660928
 21
63.5028598474
 31
0.0
  0
LINE
  5
9C
330
1F
100
AcDbEntity
  8
0
  6
Continuous
 62
     7
370
    25
100
AcDbLine
 10
127.2295660928
 20
89.5028603838
 30
0.0
 11
127.2295660928
 21
76.5028601156
 31
0.0
  0
LINE
  5
9D
330
1F
100
AcDbEntity
  8
0
  6
Continuous
 62
     7
370
    25
100
AcDbLine
 10
134.0859321535
 20
94.019227253
 30
0.0
 11
156.3731984824
 21
94.019227253
 31
0.0
  0
LINE
  5
9E
330
1F
100
AcDbEntity
  8
0
  6
Continuous
 62
     7
370
    25
100
AcDbLine
 10
134.5695651725
 20
94.5028593407
 30
0.0
 11
155.8895654634
 21
94.5028593407
 31
0.0
  0
LINE
  5
9F
330
1F
100
AcDbEntity
  8
0
  6
Continuous
 62
     7
370
    25
100
AcDbLine
 10
134.7295654595
 20
73.2241408543
 30
0.0
 11
134.3033084303
 21
73.2241408543
 31
0.0
  0
SPLINE
  5
A0
330
1F
100
AcDbEntity
  8
0
  6
Continuous
 62
     7
370
    25
100
AcDbSpline
210
0.0
220
0.0
230
1.0
 70
     8
 71
     3
 72
    12
 73
     8
 74
     0
 42
0.000000001
 43
0.00000001
 40
0.0
 40
0.0
 40
0.0
 40
0.0
 40
0.2500000000000001
 40
0.2500000000000001
 40
0.5000000000000001
 40
0.5000000000000001
 40
1.0
 40
1.0
 40
1.0
 40
1.0
 10
134.3033081499411
 20
73.22414085345595
 30
0.0
 10
134.3260206516491
 20
73.49544529182842
 30
0.0
 10
134.3335331714786
 20
73.76755749038877
 30
0.0
 10
134.3350892461791
 20
74.31326717486056
 30
0.0
 10
134.3286624043381
 20
74.58666312902301
 30
0.0
 10
134.2984374040373
 20
75.40688500609227
 30
0.0
 10
134.2637418829236
 20
75.95522040340822
 30
0.0
 10
134.229565317919
 20
76.50286011560692
 30
0.0
  0
SPLINE
  5
A1
330
1F
100
AcDbEntity
  8
0
  6
Continuous
 62
     7
370
    25
100
AcDbSpline
210
0.0
220
0.0
230
1.0
 70
     8
 71
     3
 72
    12
 73
     8
 74
     0
 42
0.000000001
 43
0.00000001
 40
0.0
 40
0.0
 40
0.0
 40
0.0
 40
0.25
 40
0.25
 40
0.5
 40
0.5
 40
1.0
 40
1.0
 40
1.0
 40
1.0
 10
134.729565317919
 20
73.22414085345592
 30
0.0
 10
134.729565317919
 20
73.50166285936574
 30
0.0
 10
134.7098423725111
 20
73.7777991862985
 30
0.0
 10
134.6492059077498
 20
74.32858304971107
 30
0.0
 10
134.6079493620615
 20
74.60279144623645
 30
0.0
 10
134.4661760523894
 20
75.42094772388525
 30
0.0
 10
134.3476090072291
 20
75.96191063899026
 30
0.0
 10
134.229565317919
 20
76.50286011560692
 30
0.0
  0
ARC
  5
A2
330
1F
100
AcDbEntity
  8
0
  6
Continuous
 62
     7
370
    25
100
AcDbCircle
 10
133.7185226232
 20
72.1841016452
 30
0.0
 40
1.193170564788406
100
AcDbArc
 50
60.65213411
 51
82.3649073709
  0
SPLINE
  5
A3
330
1F
100
AcDbEntity
  8
0
  6
Continuous
 62
     7
370
    25
100
AcDbSpline
210
0.0
220
0.0
230
1.0
 70
     8
 71
     3
 72
    12
 73
     8
 74
     0
 42
0.000000001
 43
0.00000001
 40
0.0
 40
0.0
 40
0.0
 40
0.0
 40
0.25
 40
0.25
 40
0.5
 40
0.5
 40
1.0
 40
1.0
 40
1.0
 40
1.0
 10
133.8770509819632
 20
73.3666938648539
 30
0.0
 10
133.925092952593
 20
73.61866196603995
 30
0.0
 10
133.9617865952367
 20
73.87426048469753
 30
0.0
 10
134.0277772766614
 20
74.39078684955835
 30
0.0
 10
134.0565507648383
 20
74.65220700887878
 30
0.0
 10
134.137026471849
 20
75.43989076321716
 30
0.0
 10
134.1831561750928
 20
75.97190233585239
 30
0.0
 10
134.229565317919
 20
76.50286011560692
 30
0.0
  0
ARC
  5
A4
330
1F
100
AcDbEntity
  8
0
  6
Continuous
 62
     7
370
    25
100
AcDbCircle
 10
140.9108068475
 20
88.0139028104
 30
0.0
 40
1.19317056478839
100
AcDbArc
 50
330.65213411
 51
352.3649073709
  0
SPLINE
  5
A5
330
1F
100
AcDbEntity
  8
0
  6
Continuous
 62
     7
370
    25
100
AcDbSpline
210
0.0
220
0.0
230
1.0
 70
     8
 71
     3
 72
    12
 73
     8
 74
     0
 42
0.000000001
 43
0.00000001
 40
0.0
 40
0.0
 40
0.0
 40
0.0
 40
0.2499999999999999
 40
0.2499999999999999
 40
0.4999999999999999
 40
0.4999999999999999
 40
1.0
 40
1.0
 40
1.0
 40
1.0
 10
142.093399067166
 20
87.8553744515628
 30
0.0
 10
142.3453671683521
 20
87.8073324809329
 30
0.0
 10
142.6009656870096
 20
87.77063883828929
 30
0.0
 10
143.1174920518705
 20
87.70464815686458
 30
0.0
 10
143.3789122111909
 20
87.67587466868764
 30
0.0
 10
144.1665959655293
 20
87.59539896167692
 30
0.0
 10
144.6986075381645
 20
87.54926925843313
 30
0.0
 10
145.229565317919
 20
87.50286011560692
 30
0.0
  0
SPLINE
  5
A6
330
1F
100
AcDbEntity
  8
0
  6
Continuous
 62
     7
370
    25
100
AcDbSpline
210
0.0
220
0.0
230
1.0
 70
     8
 71
     3
 72
    12
 73
     8
 74
     0
 42
0.000000001
 43
0.00000001
 40
0.0
 40
0.0
 40
0.0
 40
0.0
 40
0.2500000000000001
 40
0.2500000000000001
 40
0.5000000000000002
 40
0.5000000000000002
 40
1.0
 40
1.0
 40
1.0
 40
1.0
 10
141.950846055768
 20
87.42911728358486
 30
0.0
 10
142.2221504941405
 20
87.4064047818768
 30
0.0
 10
142.4942626927009
 20
87.39889226204731
 30
0.0
 10
143.0399723771727
 20
87.39733618734684
 30
0.0
 10
143.3133683313351
 20
87.4037630291878
 30
0.0
 10
144.1335902084044
 20
87.43398802948863
 30
0.0
 10
144.6819256057203
 20
87.46868355060234
 30
0.0
 10
145.229565317919
 20
87.50286011560692
 30
0.0
  0
LINE
  5
A7
330
1F
100
AcDbEntity
  8
0
  6
Continuous
 62
     7
370
    25
100
AcDbLine
 10
141.9508460566
 20
87.002859974
 30
0.0
 11
141.9508460566
 21
87.4291170032
 31
0.0
  0
SPLINE
  5
A8
330
1F
100
AcDbEntity
  8
0
  6
Continuous
 62
     7
370
    25
100
AcDbSpline
210
0.0
220
0.0
230
1.0
 70
     8
 71
     3
 72
    12
 73
     8
 74
     0
 42
0.000000001
 43
0.00000001
 40
0.0
 40
0.0
 40
0.0
 40
0.0
 40
0.2500000000000001
 40
0.2500000000000001
 40
0.5000000000000001
 40
0.5000000000000001
 40
1.0
 40
1.0
 40
1.0
 40
1.0
 10
141.950846055768
 20
87.00286011560691
 30
0.0
 10
142.2283680616779
 20
87.00286011560691
 30
0.0
 10
142.5045043886106
 20
87.02258306101484
 30
0.0
 10
143.0552882520232
 20
87.0832195257761
 30
0.0
 10
143.3294966485485
 20
87.12447607146446
 30
0.0
 10
144.1476529261974
 20
87.26624938113653
 30
0.0
 10
144.6886158413024
 20
87.38481642629687
 30
0.0
 10
145.229565317919
 20
87.50286011560692
 30
0.0
  0
ARC
  5
A9
330
1F
100
AcDbEntity
  8
0
  6
Continuous
 62
     7
370
    25
100
AcDbCircle
 10
133.7185226232
 20
80.821618586
 30
0.0
 40
1.193170564788403
100
AcDbArc
 50
277.6350926291
 51
299.34786589
  0
SPLINE
  5
AA
330
1F
100
AcDbEntity
  8
0
  6
Continuous
 62
     7
370
    25
100
AcDbSpline
210
0.0
220
0.0
230
1.0
 70
     8
 71
     3
 72
    12
 73
     8
 74
     0
 42
0.000000001
 43
0.00000001
 40
0.0
 40
0.0
 40
0.0
 40
0.0
 40
0.2499999999999999
 40
0.2499999999999999
 40
0.4999999999999998
 40
0.4999999999999998
 40
1.0
 40
1.0
 40
1.0
 40
1.0
 10
134.3033081499411
 20
79.78157937775792
 30
0.0
 10
134.3260206516502
 20
79.51027493937286
 30
0.0
 10
134.3335331714794
 20
79.23816274079986
 30
0.0
 10
134.3350892461786
 20
78.69245305630261
 30
0.0
 10
134.3286624043365
 20
78.41905710212747
 30
0.0
 10
134.2984374040322
 20
77.59883522502003
 30
0.0
 10
134.263741882914
 20
77.05049982783314
 30
0.0
 10
134.229565317919
 20
76.50286011560692
 30
0.0
  0
SPLINE
  5
AB
330
1F
100
AcDbEntity
  8
0
  6
Continuous
 62
     7
370
    25
100
AcDbSpline
210
0.0
220
0.0
230
1.0
 70
     8
 71
     3
 72
    12
 73
     8
 74
     0
 42
0.000000001
 43
0.00000001
 40
0.0
 40
0.0
 40
0.0
 40
0.0
 40
0.2499999999999999
 40
0.2499999999999999
 40
0.4999999999999998
 40
0.4999999999999998
 40
1.0
 40
1.0
 40
1.0
 40
1.0
 10
133.8770509819631
 20
79.63902636636006
 30
0.0
 10
133.9250761996058
 20
79.38714613039514
 30
0.0
 10
133.9617604698807
 20
79.13163793991149
 30
0.0
 10
134.0277343628101
 20
78.61529554873158
 30
0.0
 10
134.0564859953784
 20
78.35412649715931
 30
0.0
 10
134.1370408961684
 20
77.56572959828591
 30
0.0
 10
134.1831723727873
 20
77.0336327433103
 30
0.0
 10
134.229565317919
 20
76.50286011560692
 30
0.0
  0
SPLINE
  5
AC
330
1F
100
AcDbEntity
  8
0
  6
Continuous
 62
     7
370
    25
100
AcDbSpline
210
0.0
220
0.0
230
1.0
 70
     8
 71
     3
 72
    12
 73
     8
 74
     0
 42
0.000000001
 43
0.00000001
 40
0.0
 40
0.0
 40
0.0
 40
0.0
 40
0.2499999999999999
 40
0.2499999999999999
 40
0.4999999999999999
 40
0.4999999999999999
 40
1.0
 40
1.0
 40
1.0
 40
1.0
 10
134.729565317919
 20
79.78157937775792
 30
0.0
 10
134.729565317919
 20
79.5040573718481
 30
0.0
 10
134.7098423725111
 20
79.22792104491536
 30
0.0
 10
134.6492059077498
 20
78.67713718150279
 30
0.0
 10
134.6079493620615
 20
78.4029287849774
 30
0.0
 10
134.4661760523894
 20
77.5847725073286
 30
0.0
 10
134.3476090072291
 20
77.0438095922236
 30
0.0
 10
134.229565317919
 20
76.50286011560692
 30
0.0
  0
LINE
  5
AD
330
1F
100
AcDbEntity
  8
0
  6
Continuous
 62
     7
370
    25
100
AcDbLine
 10
134.3033084303
 20
79.7815793769
 30
0.0
 11
134.7295654595
 21
79.7815793769
 31
0.0
  0
ARC
  5
AE
330
1F
100
AcDbEntity
  8
0
  6
Continuous
 62
     7
370
    25
100
AcDbCircle
 10
149.5483237883
 20
88.0139028104
 30
0.0
 40
1.193170564788394
100
AcDbArc
 50
187.6350926291
 51
209.34786589
  0
SPLINE
  5
AF
330
1F
100
AcDbEntity
  8
0
  6
Continuous
 62
     7
370
    25
100
AcDbSpline
210
0.0
220
0.0
230
1.0
 70
     8
 71
     3
 72
    12
 73
     8
 74
     0
 42
0.000000001
 43
0.00000001
 40
0.0
 40
0.0
 40
0.0
 40
0.0
 40
0.25
 40
0.25
 40
0.5
 40
0.5
 40
1.0
 40
1.0
 40
1.0
 40
1.0
 10
148.50828458007
 20
87.42911728358486
 30
0.0
 10
148.236980141685
 20
87.40640478187575
 30
0.0
 10
147.964867943112
 20
87.39889226204656
 30
0.0
 10
147.4191582586147
 20
87.39733618734738
 30
0.0
 10
147.1457623044396
 20
87.40376302918942
 30
0.0
 10
146.3255404273322
 20
87.4339880294938
 30
0.0
 10
145.7772050301453
 20
87.46868355061243
 30
0.0
 10
145.229565317919
 20
87.50286011560692
 30
0.0
  0
SPLINE
  5
B0
330
1F
100
AcDbEntity
  8
0
  6
Continuous
 62
     7
370
    25
100
AcDbSpline
210
0.0
220
0.0
230
1.0
 70
     8
 71
     3
 72
    12
 73
     8
 74
     0
 42
0.000000001
 43
0.00000001
 40
0.0
 40
0.0
 40
0.0
 40
0.0
 40
0.2499999999999999
 40
0.2499999999999999
 40
0.4999999999999998
 40
0.4999999999999998
 40
1.0
 40
1.0
 40
1.0
 40
1.0
 10
148.3657315686722
 20
87.85537445156281
 30
0.0
 10
148.1138513327072
 20
87.8073492339201
 30
0.0
 10
147.8583431422236
 20
87.77066496364522
 30
0.0
 10
147.3420007510437
 20
87.70469107071582
 30
0.0
 10
147.0808316994714
 20
87.67593943814755
 30
0.0
 10
146.292434800598
 20
87.59538453735759
 30
0.0
 10
145.7603379456224
 20
87.54925306073866
 30
0.0
 10
145.229565317919
 20
87.50286011560692
 30
0.0
  0
SPLINE
  5
B1
330
1F
100
AcDbEntity
  8
0
  6
Continuous
 62
     7
370
    25
100
AcDbSpline
210
0.0
220
0.0
230
1.0
 70
     8
 71
     3
 72
    12
 73
     8
 74
     0
 42
0.000000001
 43
0.00000001
 40
0.0
 40
0.0
 40
0.0
 40
0.0
 40
0.25
 40
0.25
 40
0.5
 40
0.5
 40
1.0
 40
1.0
 40
1.0
 40
1.0
 10
148.50828458007
 20
87.00286011560691
 30
0.0
 10
148.2307625741602
 20
87.00286011560691
 30
0.0
 10
147.9546262472275
 20
87.02258306101484
 30
0.0
 10
147.4038423838149
 20
87.0832195257761
 30
0.0
 10
147.1296339872895
 20
87.12447607146446
 30
0.0
 10
146.3114777096407
 20
87.26624938113655
 30
0.0
 10
145.7705147945357
 20
87.38481642629687
 30
0.0
 10
145.229565317919
 20
87.50286011560692
 30
0.0
  0
LINE
  5
B2
330
1F
100
AcDbEntity
  8
0
  6
Continuous
 62
     7
370
    25
100
AcDbLine
 10
148.5082845792
 20
87.002859974
 30
0.0
 11
148.5082845792
 21
87.4291170032
 31
0.0
  0
ARC
  5
B3
330
1F
100
AcDbEntity
  8
0
  6
Continuous
 62
     7
370
    25
100
AcDbCircle
 10
156.7406080127
 20
72.1841016452
 30
0.0
 40
1.193170564788403
100
AcDbArc
 50
97.6350926291
 51
119.34786589
  0
SPLINE
  5
B4
330
1F
100
AcDbEntity
  8
0
  6
Continuous
 62
     7
370
    25
100
AcDbSpline
210
0.0
220
0.0
230
1.0
 70
     8
 71
     3
 72
    12
 73
     8
 74
     0
 42
0.000000001
 43
0.00000001
 40
0.0
 40
0.0
 40
0.0
 40
0.0
 40
0.2500000000000001
 40
0.2500000000000001
 40
0.5000000000000001
 40
0.5000000000000001
 40
1.0
 40
1.0
 40
1.0
 40
1.0
 10
156.155822485897
 20
73.2241408534559
 30
0.0
 10
156.1331099841879
 20
73.49544529184095
 30
0.0
 10
156.1255974643587
 20
73.7675574904139
 30
0.0
 10
156.1240413896595
 20
74.31326717491109
 30
0.0
 10
156.1304682315015
 20
74.5866631290862
 30
0.0
 10
156.1606932318059
 20
75.40688500619353
 30
0.0
 10
156.1953887529242
 20
75.95522040338078
 30
0.0
 10
156.229565317919
 20
76.50286011560692
 30
0.0
  0
SPLINE
  5
B5
330
1F
100
AcDbEntity
  8
0
  6
Continuous
 62
     7
370
    25
100
AcDbSpline
210
0.0
220
0.0
230
1.0
 70
     8
 71
     3
 72
    12
 73
     8
 74
     0
 42
0.000000001
 43
0.00000001
 40
0.0
 40
0.0
 40
0.0
 40
0.0
 40
0.2499999999999999
 40
0.2499999999999999
 40
0.4999999999999999
 40
0.4999999999999999
 40
1.0
 40
1.0
 40
1.0
 40
1.0
 10
156.5820796538749
 20
73.3666938648538
 30
0.0
 10
156.5340376832387
 20
73.61866196607313
 30
0.0
 10
156.4973440405915
 20
73.87426048476495
 30
0.0
 10
156.4313533591604
 20
74.39078684969547
 30
0.0
 10
156.4025798709809
 20
74.6522070090515
 30
0.0
 10
156.3221041639629
 20
75.43989076349587
 30
0.0
 10
156.2759744607623
 20
75.97190233577746
 30
0.0
 10
156.229565317919
 20
76.50286011560692
 30
0.0
  0
SPLINE
  5
B6
330
1F
100
AcDbEntity
  8
0
  6
Continuous
 62
     7
370
    25
100
AcDbSpline
210
0.0
220
0.0
230
1.0
 70
     8
 71
     3
 72
    12
 73
     8
 74
     0
 42
0.000000001
 43
0.00000001
 40
0.0
 40
0.0
 40
0.0
 40
0.0
 40
0.25
 40
0.25
 40
0.5
 40
0.5
 40
1.0
 40
1.0
 40
1.0
 40
1.0
 10
155.729565317919
 20
73.2241408534559
 30
0.0
 10
155.729565317919
 20
73.50166285936572
 30
0.0
 10
155.7492882633269
 20
73.7777991862985
 30
0.0
 10
155.8099247280882
 20
74.32858304971106
 30
0.0
 10
155.8511812737766
 20
74.60279144623645
 30
0.0
 10
155.9929545834486
 20
75.42094772388525
 30
0.0
 10
156.111521628609
 20
75.96191063899025
 30
0.0
 10
156.229565317919
 20
76.50286011560692
 30
0.0
  0
LINE
  5
B7
330
1F
100
AcDbEntity
  8
0
  6
Continuous
 62
     7
370
    25
100
AcDbLine
 10
156.1558222055
 20
73.2241408543
 30
0.0
 11
155.7295651764
 21
73.2241408543
 31
0.0
  0
LINE
  5
B8
330
1F
100
AcDbEntity
  8
0
  6
Continuous
 62
     7
370
    25
100
AcDbLine
 10
155.7295651764
 20
79.7815793769
 30
0.0
 11
156.1558222055
 21
79.7815793769
 31
0.0
  0
SPLINE
  5
B9
330
1F
100
AcDbEntity
  8
0
  6
Continuous
 62
     7
370
    25
100
AcDbSpline
210
0.0
220
0.0
230
1.0
 70
     8
 71
     3
 72
    12
 73
     8
 74
     0
 42
0.000000001
 43
0.00000001
 40
0.0
 40
0.0
 40
0.0
 40
0.0
 40
0.2500000000000001
 40
0.2500000000000001
 40
0.5000000000000001
 40
0.5000000000000001
 40
1.0
 40
1.0
 40
1.0
 40
1.0
 10
156.155822485897
 20
79.7815793777579
 30
0.0
 10
156.1331099841889
 20
79.5102749393856
 30
0.0
 10
156.1255974643595
 20
79.23816274082543
 30
0.0
 10
156.1240413896589
 20
78.69245305635398
 30
0.0
 10
156.1304682314999
 20
78.4190571021914
 30
0.0
 10
156.1606932318007
 20
77.598835225122
 30
0.0
 10
156.1953887529144
 20
77.05049982780528
 30
0.0
 10
156.229565317919
 20
76.50286011560692
 30
0.0
  0
SPLINE
  5
BA
330
1F
100
AcDbEntity
  8
0
  6
Continuous
 62
     7
370
    25
100
AcDbSpline
210
0.0
220
0.0
230
1.0
 70
     8
 71
     3
 72
    12
 73
     8
 74
     0
 42
0.000000001
 43
0.00000001
 40
0.0
 40
0.0
 40
0.0
 40
0.0
 40
0.2499999999999999
 40
0.2499999999999999
 40
0.4999999999999999
 40
0.4999999999999999
 40
1.0
 40
1.0
 40
1.0
 40
1.0
 10
155.729565317919
 20
79.78157937775792
 30
0.0
 10
155.729565317919
 20
79.5040573718481
 30
0.0
 10
155.7492882633269
 20
79.22792104491536
 30
0.0
 10
155.8099247280882
 20
78.67713718150279
 30
0.0
 10
155.8511812737766
 20
78.4029287849774
 30
0.0
 10
155.9929545834486
 20
77.5847725073286
 30
0.0
 10
156.111521628609
 20
77.0438095922236
 30
0.0
 10
156.229565317919
 20
76.50286011560692
 30
0.0
  0
ARC
  5
BB
330
1F
100
AcDbEntity
  8
0
  6
Continuous
 62
     7
370
    25
100
AcDbCircle
 10
156.7406080127
 20
80.821618586
 30
0.0
 40
1.193170564788406
100
AcDbArc
 50
240.65213411
 51
262.3649073709
  0
SPLINE
  5
BC
330
1F
100
AcDbEntity
  8
0
  6
Continuous
 62
     7
370
    25
100
AcDbSpline
210
0.0
220
0.0
230
1.0
 70
     8
 71
     3
 72
    12
 73
     8
 74
     0
 42
0.000000001
 43
0.00000001
 40
0.0
 40
0.0
 40
0.0
 40
0.0
 40
0.2499999999999999
 40
0.2499999999999999
 40
0.4999999999999998
 40
0.4999999999999998
 40
1.0
 40
1.0
 40
1.0
 40
1.0
 10
156.5820796538749
 20
79.63902636636003
 30
0.0
 10
156.534037683245
 20
79.38705826517396
 30
0.0
 10
156.4973440406014
 20
79.13145974651637
 30
0.0
 10
156.4313533591767
 20
78.61493338165552
 30
0.0
 10
156.4025798709997
 20
78.3535132223351
 30
0.0
 10
156.322104163989
 20
77.5658294679967
 30
0.0
 10
156.2759744607443
 20
77.03381789536155
 30
0.0
 10
156.229565317919
 20
76.50286011560692
 30
0.0
  0
LINE
  5
BD
330
1F
100
AcDbEntity
  8
0
  6
Continuous
 62
     7
370
    25
100
AcDbLine
 10
136.2295657053
 20
87.002859974
 30
0.0
 11
135.7295656234
 21
87.002859974
 31
0.0
  0
LINE
  5
BE
330
1F
100
AcDbEntity
  8
0
  6
Continuous
 62
     7
370
    25
100
AcDbLine
 10
135.7295656234
 20
87.002859974
 30
0.0
 11
135.7295656234
 21
87.502860056
 31
0.0
  0
LWPOLYLINE
  5
BF
330
1F
100
AcDbEntity
  8
0
  6
Continuous
 62
     7
370
    25
100
AcDbPolyline
 90
        9
 70
   128
 43
0.0
 10
136.2295657053
 20
87.002859974
 10
136.1320199102
 20
87.1004048379
 10
136.0382236197
 20
87.1942020596
 10
135.951780121
 20
87.2806455584
 10
135.876012373
 20
87.3564133064
 10
135.8138307586
 20
87.4185949208
 10
135.767625983
 20
87.4647996963
 10
135.7391722157
 20
87.4932525323
 10
135.7295656234
 20
87.502860056
  0
LINE
  5
C0
330
1F
100
AcDbEntity
  8
0
  6
Continuous
 62
     7
370
    25
100
AcDbLine
 10
155.7295651764
 20
85.5028597282
 30
0.0
 11
155.7295651764
 21
86.0028598101
 31
0.0
  0
LINE
  5
C1
330
1F
100
AcDbEntity
  8
0
  6
Continuous
 62
     7
370
    25
100
AcDbLine
 10
155.7295651764
 20
86.0028598101
 30
0.0
 11
156.2295652583
 21
86.0028598101
 31
0.0
  0
LWPOLYLINE
  5
C2
330
1F
100
AcDbEntity
  8
0
  6
Continuous
 62
     7
370
    25
100
AcDbPolyline
 90
        9
 70
   128
 43
0.0
 10
155.7295651764
 20
85.5028597282
 10
155.8271100402
 20
85.6004055233
 10
155.920907262
 20
85.6942018138
 10
156.0073507607
 20
85.7806453125
 10
156.0831185087
 20
85.8564130606
 10
156.1453001231
 20
85.9185946749
 10
156.1915048987
 20
85.9647994505
 10
156.2199577346
 20
85.9932532178
 10
156.2295652583
 20
86.0028598101
  0
ARC
  5
C3
330
1F
100
AcDbEntity
  8
0
  6
Continuous
 62
     7
370
    25
100
AcDbCircle
 10
134.7295653179
 20
87.0028601156
 30
0.0
 40
1.5
100
AcDbArc
 50
270.0
 51
0.0
  0
LINE
  5
C4
330
1F
100
AcDbEntity
  8
0
  6
Continuous
 62
     7
370
    25
100
AcDbLine
 10
134.7295654595
 20
85.5028597282
 30
0.0
 11
134.7295654595
 21
86.0028598101
 31
0.0
  0
ARC
  5
C5
330
1F
100
AcDbEntity
  8
0
  6
Continuous
 62
     7
370
    25
100
AcDbCircle
 10
134.7295653179
 20
87.0028601156
 30
0.0
 40
1.0
100
AcDbArc
 50
270.0
 51
0.0
  0
LWPOLYLINE
  5
C6
330
1F
100
AcDbEntity
  8
0
  6
Continuous
 62
     7
370
    25
100
AcDbPolyline
 90
        9
 70
   128
 43
0.0
 10
154.2295649305
 20
87.002859974
 10
154.3271107256
 20
87.1004048379
 10
154.4209070161
 20
87.1942020596
 10
154.5073505148
 20
87.2806455584
 10
154.5831182629
 20
87.3564133064
 10
154.6452998772
 20
87.4185949208
 10
154.6915046528
 20
87.4647996963
 10
154.7199584201
 20
87.4932525323
 10
154.7295650124
 20
87.502860056
  0
LINE
  5
C7
330
1F
100
AcDbEntity
  8
0
  6
Continuous
 62
     7
370
    25
100
AcDbLine
 10
154.7295650124
 20
87.502860056
 30
0.0
 11
154.7295650124
 21
87.002859974
 31
0.0
  0
LINE
  5
C8
330
1F
100
AcDbEntity
  8
0
  6
Continuous
 62
     7
370
    25
100
AcDbLine
 10
154.2295649305
 20
87.002859974
 30
0.0
 11
154.7295650124
 21
87.002859974
 31
0.0
  0
ARC
  5
C9
330
1F
100
AcDbEntity
  8
0
  6
Continuous
 62
     7
370
    25
100
AcDbCircle
 10
155.7295653179
 20
87.0028601156
 30
0.0
 40
1.5
100
AcDbArc
 50
180.0
 51
270.0
  0
ARC
  5
CA
330
1F
100
AcDbEntity
  8
0
  6
Continuous
 62
     7
370
    25
100
AcDbCircle
 10
155.7295653179
 20
87.0028601156
 30
0.0
 40
1.0
100
AcDbArc
 50
180.0
 51
270.0
  0
SPLINE
  5
CB
330
1F
100
AcDbEntity
  8
0
  6
Continuous
 62
     7
370
    25
100
AcDbSpline
210
0.0
220
0.0
230
1.0
 70
     8
 71
     3
 72
    10
 73
     6
 74
     0
 42
0.000000001
 43
0.00000001
 40
0.0
 40
0.0
 40
0.0
 40
0.0
 40
0.5
 40
0.5
 40
1.0
 40
1.0
 40
1.0
 40
1.0
 10
134.729565317919
 20
86.06807750691127
 30
0.0
 10
134.8108021386475
 20
86.06807750691127
 30
0.0
 10
134.8865701477571
 20
86.08808464807646
 30
0.0
 10
135.0031552857982
 20
86.14128785102407
 30
0.0
 10
135.0475660576252
 20
86.17414998897355
 30
0.0
 10
135.0831187085123
 20
86.20815687243075
 30
0.0
  0
LINE
  5
CC
330
1F
100
AcDbEntity
  8
0
  6
Continuous
 62
     7
370
    25
100
AcDbLine
 10
133.7295652956
 20
86.0680775361
 30
0.0
 11
134.7295654595
 21
86.0680775361
 31
0.0
  0
LINE
  5
CD
330
1F
100
AcDbEntity
  8
0
  6
Continuous
 62
     7
370
    25
100
AcDbLine
 10
133.7295652956
 20
80.9893445687
 30
0.0
 11
133.7295652956
 21
86.0680775361
 31
0.0
  0
SPLINE
  5
CE
330
1F
100
AcDbEntity
  8
0
  6
Continuous
 62
     7
370
    25
100
AcDbSpline
210
0.0
220
0.0
230
1.0
 70
     8
 71
     3
 72
     8
 73
     4
 74
     0
 42
0.000000001
 43
0.00000001
 40
0.0
 40
0.0
 40
0.0
 40
0.0
 40
1.0
 40
1.0
 40
1.0
 40
1.0
 10
133.8770509819631
 20
79.63902636636006
 30
0.0
 10
133.7898598024046
 20
80.09632226129276
 30
0.0
 10
133.729565317919
 20
80.54556245752663
 30
0.0
 10
133.729565317919
 20
80.98934475543803
 30
0.0
  0
SPLINE
  5
CF
330
1F
100
AcDbEntity
  8
0
  6
Continuous
 62
     7
370
    25
100
AcDbSpline
210
0.0
220
0.0
230
1.0
 70
     8
 71
     3
 72
     8
 73
     4
 74
     0
 42
0.000000001
 43
0.00000001
 40
0.0
 40
0.0
 40
0.0
 40
0.0
 40
1.0
 40
1.0
 40
1.0
 40
1.0
 10
133.729565317919
 20
72.01637547577582
 30
0.0
 10
133.729565317919
 20
72.46015777368724
 30
0.0
 10
133.7898598024046
 20
72.90939796992116
 30
0.0
 10
133.8770509819632
 20
73.3666938648539
 30
0.0
  0
LINE
  5
D0
330
1F
100
AcDbEntity
  8
0
  6
Continuous
 62
     7
370
    25
100
AcDbLine
 10
133.7295652956
 20
66.4593815447
 30
0.0
 11
133.7295652956
 21
72.0163756625
 31
0.0
  0
LINE
  5
D1
330
1F
100
AcDbEntity
  8
0
  6
Continuous
 62
     7
370
    25
100
AcDbLine
 10
156.7295653403
 20
66.4593815447
 30
0.0
 11
133.7295652956
 21
66.4593815447
 31
0.0
  0
LINE
  5
D2
330
1F
100
AcDbEntity
  8
0
  6
Continuous
 62
     7
370
    25
100
AcDbLine
 10
156.7295653403
 20
72.0163756625
 30
0.0
 11
156.7295653403
 21
66.4593815447
 31
0.0
  0
SPLINE
  5
D3
330
1F
100
AcDbEntity
  8
0
  6
Continuous
 62
     7
370
    25
100
AcDbSpline
210
0.0
220
0.0
230
1.0
 70
     8
 71
     3
 72
     8
 73
     4
 74
     0
 42
0.000000001
 43
0.00000001
 40
0.0
 40
0.0
 40
0.0
 40
0.0
 40
1.0
 40
1.0
 40
1.0
 40
1.0
 10
156.5820796538749
 20
73.3666938648538
 30
0.0
 10
156.6692708334334
 20
72.9093979699211
 30
0.0
 10
156.729565317919
 20
72.46015777368721
 30
0.0
 10
156.729565317919
 20
72.01637547577582
 30
0.0
  0
SPLINE
  5
D4
330
1F
100
AcDbEntity
  8
0
  6
Continuous
 62
     7
370
    25
100
AcDbSpline
210
0.0
220
0.0
230
1.0
 70
     8
 71
     3
 72
     8
 73
     4
 74
     0
 42
0.000000001
 43
0.00000001
 40
0.0
 40
0.0
 40
0.0
 40
0.0
 40
1.0
 40
1.0
 40
1.0
 40
1.0
 10
156.729565317919
 20
80.98934475543803
 30
0.0
 10
156.729565317919
 20
80.54556245752663
 30
0.0
 10
156.6692708334334
 20
80.09632226129273
 30
0.0
 10
156.5820796538749
 20
79.63902636636003
 30
0.0
  0
LINE
  5
D5
330
1F
100
AcDbEntity
  8
0
  6
Continuous
 62
     7
370
    25
100
AcDbLine
 10
156.7295653403
 20
86.0680775361
 30
0.0
 11
156.7295653403
 21
80.9893445687
 31
0.0
  0
LINE
  5
D6
330
1F
100
AcDbEntity
  8
0
  6
Continuous
 62
     7
370
    25
100
AcDbLine
 10
155.7295651764
 20
86.0680775361
 30
0.0
 11
156.7295653403
 21
86.0680775361
 31
0.0
  0
SPLINE
  5
D7
330
1F
100
AcDbEntity
  8
0
  6
Continuous
 62
     7
370
    25
100
AcDbSpline
210
0.0
220
0.0
230
1.0
 70
     8
 71
     3
 72
    10
 73
     6
 74
     0
 42
0.000000001
 43
0.00000001
 40
0.0
 40
0.0
 40
0.0
 40
0.0
 40
0.5
 40
0.5
 40
1.0
 40
1.0
 40
1.0
 40
1.0
 10
155.3760119273257
 20
86.20815687243075
 30
0.0
 10
155.4115645782128
 20
86.17414998897354
 30
0.0
 10
155.4559753500399
 20
86.14128785102407
 30
0.0
 10
155.5725604880809
 20
86.08808464807645
 30
0.0
 10
155.6483284971906
 20
86.06807750691125
 30
0.0
 10
155.729565317919
 20
86.06807750691127
 30
0.0
  0
LINE
  5
D8
330
1F
100
AcDbEntity
  8
0
  6
Continuous
 62
     7
370
    25
100
AcDbLine
 10
134.7295654595
 20
67.0028604211
 30
0.0
 11
155.7295651764
 21
67.0028604211
 31
0.0
  0
LWPOLYLINE
  5
D9
330
1F
100
AcDbEntity
  8
0
  6
Continuous
 62
     7
370
    25
100
AcDbPolyline
 90
        9
 70
   128
 43
0.0
 10
155.7295651764
 20
67.0028604211
 10
155.8271100402
 20
66.9053146259
 10
155.920907262
 20
66.8115183355
 10
156.0073507607
 20
66.7250748368
 10
156.0831185087
 20
66.6493070887
 10
156.1453001231
 20
66.5871254744
 10
156.1915048987
 20
66.5409206988
 10
156.2199577346
 20
66.5124678628
 10
156.2295652583
 20
66.5028603391
  0
LINE
  5
DA
330
1F
100
AcDbEntity
  8
0
  6
Continuous
 62
     7
370
    25
100
AcDbLine
 10
156.2295652583
 20
66.5028603391
 30
0.0
 11
134.2295653775
 21
66.5028603391
 31
0.0
  0
LWPOLYLINE
  5
DB
330
1F
100
AcDbEntity
  8
0
  6
Continuous
 62
     7
370
    25
100
AcDbPolyline
 90
        9
 70
   128
 43
0.0
 10
134.7295654595
 20
67.0028604211
 10
134.6320205957
 20
66.9053146259
 10
134.5382233739
 20
66.8115183355
 10
134.4517798751
 20
66.7250748368
 10
134.3760121271
 20
66.6493070887
 10
134.3138305128
 20
66.5871254744
 10
134.2676257372
 20
66.5409206988
 10
134.2391729012
 20
66.5124678628
 10
134.2295653775
 20
66.5028603391
  0
LWPOLYLINE
  5
DC
330
1F
100
AcDbEntity
  8
0
  6
Continuous
 62
     7
370
    25
100
AcDbPolyline
 90
        9
 70
   128
 43
0.0
 10
134.2295653775
 20
86.0028598101
 10
134.2391729012
 20
85.9932532178
 10
134.2676257372
 20
85.9647994505
 10
134.3138305128
 20
85.9185946749
 10
134.3760121271
 20
85.8564130606
 10
134.4517798751
 20
85.7806453125
 10
134.5382233739
 20
85.6942018138
 10
134.6320205957
 20
85.6004055233
 10
134.7295654595
 20
85.5028597282
  0
LINE
  5
DD
330
1F
100
AcDbEntity
  8
0
  6
Continuous
 62
     7
370
    25
100
AcDbLine
 10
134.7295654595
 20
85.5028597282
 30
0.0
 11
134.7295654595
 21
79.7815793769
 31
0.0
  0
SPLINE
  5
DE
330
1F
100
AcDbEntity
  8
0
  6
Continuous
 62
     7
370
    25
100
AcDbSpline
210
0.0
220
0.0
230
1.0
 70
     8
 71
     3
 72
     8
 73
     4
 74
     0
 42
0.000000001
 43
0.00000001
 40
0.0
 40
0.0
 40
0.0
 40
0.0
 40
1.0
 40
1.0
 40
1.0
 40
1.0
 10
134.229565317919
 20
81.19327587543034
 30
0.0
 10
134.229565317919
 20
80.7250514516568
 30
0.0
 10
134.2602223479026
 20
80.25407096728719
 30
0.0
 10
134.3033081499411
 20
79.78157937775792
 30
0.0
  0
LINE
  5
DF
330
1F
100
AcDbEntity
  8
0
  6
Continuous
 62
     7
370
    25
100
AcDbLine
 10
134.2295653775
 20
81.1932758072
 30
0.0
 11
134.2295653775
 21
86.0028598101
 31
0.0
  0
SPLINE
  5
E0
330
1F
100
AcDbEntity
  8
0
  6
Continuous
 62
     7
370
    25
100
AcDbSpline
210
0.0
220
0.0
230
1.0
 70
     8
 71
     3
 72
     8
 73
     4
 74
     0
 42
0.000000001
 43
0.00000001
 40
0.0
 40
0.0
 40
0.0
 40
0.0
 40
1.0
 40
1.0
 40
1.0
 40
1.0
 10
140.7430806780879
 20
88.00286011560692
 30
0.0
 10
141.1868629759994
 20
88.00286011560692
 30
0.0
 10
141.6361031722333
 20
87.94256563112133
 30
0.0
 10
142.093399067166
 20
87.8553744515628
 30
0.0
  0
LINE
  5
E1
330
1F
100
AcDbEntity
  8
0
  6
Continuous
 62
     7
370
    25
100
AcDbLine
 10
135.6643478975
 20
88.002860138
 30
0.0
 11
140.7430808648
 21
88.002860138
 31
0.0
  0
LINE
  5
E2
330
1F
100
AcDbEntity
  8
0
  6
Continuous
 62
     7
370
    25
100
AcDbLine
 10
135.6643478975
 20
87.002859974
 30
0.0
 11
135.6643478975
 21
88.002860138
 31
0.0
  0
SPLINE
  5
E3
330
1F
100
AcDbEntity
  8
0
  6
Continuous
 62
     7
370
    25
100
AcDbSpline
210
0.0
220
0.0
230
1.0
 70
     8
 71
     3
 72
    10
 73
     6
 74
     0
 42
0.000000001
 43
0.00000001
 40
0.0
 40
0.0
 40
0.0
 40
0.0
 40
0.5
 40
0.5
 40
1.0
 40
1.0
 40
1.0
 40
1.0
 10
135.5242685610952
 20
86.64930672501366
 30
0.0
 10
135.5582754445524
 20
86.68485937590073
 30
0.0
 10
135.5911375825019
 20
86.72927014772777
 30
0.0
 10
135.6443407854495
 20
86.8458552857688
 30
0.0
 10
135.6643479266147
 20
86.92162329487849
 30
0.0
 10
135.6643479266147
 20
87.00286011560692
 30
0.0
  0
SPLINE
  5
E4
330
1F
100
AcDbEntity
  8
0
  6
Continuous
 62
     7
370
    25
100
AcDbSpline
210
0.0
220
0.0
230
1.0
 70
     8
 71
     3
 72
    10
 73
     6
 74
     0
 42
0.000000001
 43
0.00000001
 40
0.0
 40
0.0
 40
0.0
 40
0.0
 40
0.5
 40
0.5
 40
1.0
 40
1.0
 40
1.0
 40
1.0
 10
154.7947827092234
 20
87.00286011560691
 30
0.0
 10
154.7947827092234
 20
86.92162329487849
 30
0.0
 10
154.8147898503886
 20
86.84585528576879
 30
0.0
 10
154.8679930533362
 20
86.72927014772776
 30
0.0
 10
154.9008551912857
 20
86.68485937590071
 30
0.0
 10
154.9348620747429
 20
86.64930672501364
 30
0.0
  0
LINE
  5
E5
330
1F
100
AcDbEntity
  8
0
  6
Continuous
 62
     7
370
    25
100
AcDbLine
 10
154.7947827384
 20
88.002860138
 30
0.0
 11
154.7947827384
 21
87.002859974
 31
0.0
  0
LINE
  5
E6
330
1F
100
AcDbEntity
  8
0
  6
Continuous
 62
     7
370
    25
100
AcDbLine
 10
149.716049771
 20
88.002860138
 30
0.0
 11
154.7947827384
 21
88.002860138
 31
0.0
  0
SPLINE
  5
E7
330
1F
100
AcDbEntity
  8
0
  6
Continuous
 62
     7
370
    25
100
AcDbSpline
210
0.0
220
0.0
230
1.0
 70
     8
 71
     3
 72
     8
 73
     4
 74
     0
 42
0.000000001
 43
0.00000001
 40
0.0
 40
0.0
 40
0.0
 40
0.0
 40
1.0
 40
1.0
 40
1.0
 40
1.0
 10
148.3657315686722
 20
87.85537445156281
 30
0.0
 10
148.8230274636049
 20
87.94256563112133
 30
0.0
 10
149.2722676598387
 20
88.00286011560692
 30
0.0
 10
149.7160499577502
 20
88.00286011560692
 30
0.0
  0
LINE
  5
E8
330
1F
100
AcDbEntity
  8
0
  6
Continuous
 62
     7
370
    25
100
AcDbLine
 10
141.9508460566
 20
87.002859974
 30
0.0
 11
136.2295657053
 21
87.002859974
 31
0.0
  0
LINE
  5
E9
330
1F
100
AcDbEntity
  8
0
  6
Continuous
 62
     7
370
    25
100
AcDbLine
 10
135.7295656234
 20
87.502860056
 30
0.0
 11
140.5391496263
 21
87.502860056
 31
0.0
  0
SPLINE
  5
EA
330
1F
100
AcDbEntity
  8
0
  6
Continuous
 62
     7
370
    25
100
AcDbSpline
210
0.0
220
0.0
230
1.0
 70
     8
 71
     3
 72
     8
 73
     4
 74
     0
 42
0.000000001
 43
0.00000001
 40
0.0
 40
0.0
 40
0.0
 40
0.0
 40
1.0
 40
1.0
 40
1.0
 40
1.0
 10
141.950846055768
 20
87.42911728358486
 30
0.0
 10
141.4784050998143
 20
87.47219846842326
 30
0.0
 10
141.0072799214549
 20
87.50286011560692
 30
0.0
 10
140.5391495580956
 20
87.50286011560692
 30
0.0
  0
LINE
  5
EB
330
1F
100
AcDbEntity
  8
0
  6
Continuous
 62
     7
370
    25
100
AcDbLine
 10
155.7295651764
 20
79.7815793769
 30
0.0
 11
155.7295651764
 21
85.5028597282
 31
0.0
  0
LINE
  5
EC
330
1F
100
AcDbEntity
  8
0
  6
Continuous
 62
     7
370
    25
100
AcDbLine
 10
156.2295652583
 20
86.0028598101
 30
0.0
 11
156.2295652583
 21
81.1932758072
 31
0.0
  0
SPLINE
  5
ED
330
1F
100
AcDbEntity
  8
0
  6
Continuous
 62
     7
370
    25
100
AcDbSpline
210
0.0
220
0.0
230
1.0
 70
     8
 71
     3
 72
     8
 73
     4
 74
     0
 42
0.000000001
 43
0.00000001
 40
0.0
 40
0.0
 40
0.0
 40
0.0
 40
1.0
 40
1.0
 40
1.0
 40
1.0
 10
156.155822485897
 20
79.7815793777579
 30
0.0
 10
156.1989036707353
 20
80.2540203337117
 30
0.0
 10
156.229565317919
 20
80.72514551207112
 30
0.0
 10
156.229565317919
 20
81.19327587543034
 30
0.0
  0
LINE
  5
EE
330
1F
100
AcDbEntity
  8
0
  6
Continuous
 62
     7
370
    25
100
AcDbLine
 10
154.2295649305
 20
87.002859974
 30
0.0
 11
148.5082845792
 21
87.002859974
 31
0.0
  0
SPLINE
  5
EF
330
1F
100
AcDbEntity
  8
0
  6
Continuous
 62
     7
370
    25
100
AcDbSpline
210
0.0
220
0.0
230
1.0
 70
     8
 71
     3
 72
     8
 73
     4
 74
     0
 42
0.000000001
 43
0.00000001
 40
0.0
 40
0.0
 40
0.0
 40
0.0
 40
1.0
 40
1.0
 40
1.0
 40
1.0
 10
149.9199810777424
 20
87.50286011560692
 30
0.0
 10
149.4517566539689
 20
87.50286011560692
 30
0.0
 10
148.9807761695993
 20
87.47220308562335
 30
0.0
 10
148.50828458007
 20
87.42911728358486
 30
0.0
  0
LINE
  5
F0
330
1F
100
AcDbEntity
  8
0
  6
Continuous
 62
     7
370
    25
100
AcDbLine
 10
149.9199810095
 20
87.502860056
 30
0.0
 11
154.7295650124
 21
87.502860056
 31
0.0
  0
LINE
  5
F1
330
1F
100
AcDbEntity
  8
0
  6
Continuous
 62
     7
370
    25
100
AcDbLine
 10
134.2295653775
 20
86.0028598101
 30
0.0
 11
134.7295654595
 21
86.0028598101
 31
0.0
  0
LINE
  5
F2
330
1F
100
AcDbEntity
  8
0
  6
Continuous
 62
     7
370
    25
100
AcDbLine
 10
134.7295654595
 20
73.2241408543
 30
0.0
 11
134.7295654595
 21
67.0028604211
 31
0.0
  0
LINE
  5
F3
330
1F
100
AcDbEntity
  8
0
  6
Continuous
 62
     7
370
    25
100
AcDbLine
 10
134.2295653775
 20
66.5028603391
 30
0.0
 11
134.2295653775
 21
71.812444424
 31
0.0
  0
SPLINE
  5
F4
330
1F
100
AcDbEntity
  8
0
  6
Continuous
 62
     7
370
    25
100
AcDbSpline
210
0.0
220
0.0
230
1.0
 70
     8
 71
     3
 72
     8
 73
     4
 74
     0
 42
0.000000001
 43
0.00000001
 40
0.0
 40
0.0
 40
0.0
 40
0.0
 40
1.0
 40
1.0
 40
1.0
 40
1.0
 10
134.3033081499411
 20
73.22414085345595
 30
0.0
 10
134.2602269651027
 20
72.75169989750216
 30
0.0
 10
134.229565317919
 20
72.28057471914273
 30
0.0
 10
134.229565317919
 20
71.81244435578348
 30
0.0
  0
ELLIPSE
  5
F5
330
1F
100
AcDbEntity
  8
0
  6
Continuous
 62
     7
370
    25
100
AcDbEllipse
 10
151.2678764372
 20
69.9855647783
 30
0.0
 11
-0.07471508237068747
 21
0.0
 31
0.0
210
0.0
220
0.0
230
1.0
 40
0.9531667975
 41
5.94016136489802
 42
7.853981633974483
  0
LINE
  5
F6
330
1F
100
AcDbEntity
  8
0
  6
Continuous
 62
     7
370
    25
100
AcDbLine
 10
151.4650684439
 20
70.723584445
 30
0.0
 11
151.1975139037
 21
70.0095170753
 31
0.0
  0
ELLIPSE
  5
F7
330
1F
100
AcDbEntity
  8
0
  6
Continuous
 62
     7
370
    25
100
AcDbEllipse
 10
151.5354307818
 20
70.6996317441
 30
0.0
 11
0.07471508237068747
 21
0.0
 31
0.0
210
0.0
220
0.0
230
1.0
 40
0.9531667975
 41
0.3430239404210493
 42
2.798568713168556
  0
LINE
  5
F8
330
1F
100
AcDbEntity
  8
0
  6
Continuous
 62
     7
370
    25
100
AcDbLine
 10
151.8733472221
 20
70.0095170753
 30
0.0
 11
151.6057931475
 21
70.723584445
 31
0.0
  0
ELLIPSE
  5
F9
330
1F
100
AcDbEntity
  8
0
  6
Continuous
 62
     7
370
    25
100
AcDbEllipse
 10
151.8029851234
 20
69.9855647783
 30
0.0
 11
0.0747150823706022
 21
2.842170943040401E-14
 31
0.0
210
0.0
220
0.0
230
1.0
 40
0.9531667975
 41
4.712388980384341
 42
6.626209245754747
  0
LINE
  5
FA
330
1F
100
AcDbEntity
  8
0
  6
Continuous
 62
     7
370
    25
100
AcDbLine
 10
151.2678762555
 20
69.9143489467
 30
0.0
 11
151.8029853359
 21
69.9143489467
 31
0.0
  0
LINE
  5
FB
330
1F
100
AcDbEntity
  8
0
  6
Continuous
 62
     7
370
    25
100
AcDbLine
 10
155.7295651764
 20
67.0028604211
 30
0.0
 11
155.7295651764
 21
73.2241408543
 31
0.0
  0
SPLINE
  5
FC
330
1F
100
AcDbEntity
  8
0
  6
Continuous
 62
     7
370
    25
100
AcDbSpline
210
0.0
220
0.0
230
1.0
 70
     8
 71
     3
 72
     8
 73
     4
 74
     0
 42
0.000000001
 43
0.00000001
 40
0.0
 40
0.0
 40
0.0
 40
0.0
 40
1.0
 40
1.0
 40
1.0
 40
1.0
 10
156.229565317919
 20
71.81244435578348
 30
0.0
 10
156.229565317919
 20
72.28066877955705
 30
0.0
 10
156.1989082879354
 20
72.75164926392665
 30
0.0
 10
156.155822485897
 20
73.2241408534559
 30
0.0
  0
LINE
  5
FD
330
1F
100
AcDbEntity
  8
0
  6
Continuous
 62
     7
370
    25
100
AcDbLine
 10
156.2295652583
 20
71.812444424
 30
0.0
 11
156.2295652583
 21
66.5028603391
 31
0.0
  0
LINE
  5
FE
330
1F
100
AcDbEntity
  8
0
  6
Continuous
 62
     7
370
    25
100
AcDbLine
 10
149.0405633703
 20
69.60447604
 30
0.0
 11
148.9951180883
 21
69.6294853108
 31
0.0
  0
ELLIPSE
  5
FF
330
1F
100
AcDbEntity
  8
0
  6
Continuous
 62
     7
370
    25
100
AcDbEllipse
 10
151.5354307801
 20
72.7852412541
 30
0.0
 11
0.5743721957241519
 21
1.250555214937776E-12
 31
0.0
210
0.0
220
0.0
230
1.0
 40
0.9531667975
 41
0.435791898753024
 42
2.705800754832443
  0
ELLIPSE
  5
100
330
1F
100
AcDbEntity
  8
0
  6
Continuous
 62
     7
370
    25
100
AcDbEllipse
 10
153.7316964451
 20
70.0971513276
 30
0.0
 11
-0.5977206589648176
 21
-1.705302565824240E-13
 31
0.0
210
0.0
220
0.0
230
1.0
 40
0.9531667975
 41
0.3285531705514293
 42
2.110876526947171
  0
LINE
  5
101
330
1F
100
AcDbEntity
  8
0
  6
Continuous
 62
     7
370
    25
100
AcDbLine
 10
154.0757439688
 20
69.6294853108
 30
0.0
 11
154.0390470654
 21
69.6085147203
 31
0.0
  0
LINE
  5
102
330
1F
100
AcDbEntity
  8
0
  6
Continuous
 62
     7
370
    25
100
AcDbLine
 10
153.3741851926
 20
68.2920809479
 30
0.0
 11
154.0757439688
 21
69.6294853108
 31
0.0
  0
ELLIPSE
  5
103
330
1F
100
AcDbEntity
  8
0
  6
Continuous
 62
     7
370
    25
100
AcDbEllipse
 10
153.3073580891
 20
68.3239296962
 30
0.0
 11
0.07471508237063063
 21
2.842170943040401E-14
 31
0.0
210
0.0
220
0.0
230
1.0
 40
0.9531667976
 41
3.962594650565323
 42
5.819537698169306
  0
ELLIPSE
  5
104
330
1F
100
AcDbEntity
  8
0
  6
Continuous
 62
     7
370
    25
100
AcDbEllipse
 10
151.5354307801
 20
66.5102271117
 30
0.0
 11
2.525369784127122
 21
-1.705302565824240E-13
 31
0.0
210
0.0
220
0.0
230
1.0
 40
0.9531667975
 41
0.8210019969639482
 42
2.320590656625483
  0
ELLIPSE
  5
105
330
1F
100
AcDbEntity
  8
0
  6
Continuous
 62
     7
370
    25
100
AcDbEllipse
 10
149.7635034711
 20
68.3239296962
 30
0.0
 11
0.07471508237068747
 21
0.0
 31
0.0
210
0.0
220
0.0
230
1.0
 40
0.9531667975
 41
3.605240262591964
 42
5.462183310213519
  0
LINE
  5
106
330
1F
100
AcDbEntity
  8
0
  6
Continuous
 62
     7
370
    25
100
AcDbLine
 10
148.9951180883
 20
69.6294853108
 30
0.0
 11
149.6966763988
 21
68.2920809479
 31
0.0
  0
ELLIPSE
  5
107
330
1F
100
AcDbEntity
  8
0
  6
Continuous
 62
     7
370
    25
100
AcDbEllipse
 10
149.3394237455
 20
70.0978744472
 30
0.0
 11
-0.5977206589639081
 21
5.684341886080801E-14
 31
0.0
210
0.0
220
0.0
230
1.0
 40
0.9531667975
 41
1.047197551195639
 42
2.813039483037407
  0
LINE
  5
108
330
1F
100
AcDbEntity
  8
0
  6
Continuous
 62
     7
370
    25
100
AcDbLine
 10
153.1659479841
 20
69.9133151786
 30
0.0
 11
152.056119743
 21
73.01634486
 31
0.0
  0
LINE
  5
109
330
1F
100
AcDbEntity
  8
0
  6
Continuous
 62
     7
370
    25
100
AcDbLine
 10
151.0147418484
 20
73.01634486
 30
0.0
 11
149.9051725149
 21
69.9140383506
 31
0.0
  0
LWPOLYLINE
  5
10A
330
1F
100
AcDbEntity
  8
0
  6
Continuous
 62
     7
370
    25
100
AcDbPolyline
 90
        9
 70
   128
 43
0.0
 10
156.2295652583
 20
81.1932758072
 10
156.239172782
 20
81.1534911038
 10
156.267625618
 20
81.1152347007
 10
156.3138303935
 20
81.079977622
 10
156.3760120079
 20
81.049074942
 10
156.4517797559
 20
81.0237131657
 10
156.5382232547
 20
81.004868319
 10
156.6320204765
 20
80.9932631084
 10
156.7295653403
 20
80.9893445687
  0
LWPOLYLINE
  5
10B
330
1F
100
AcDbEntity
  8
0
  6
Continuous
 62
     7
370
    25
100
AcDbPolyline
 90
        9
 70
   128
 43
0.0
 10
149.716049771
 20
88.002860138
 10
149.7199683107
 20
87.9053152741
 10
149.7315735213
 20
87.8115180524
 10
149.750418368
 20
87.7250745536
 10
149.7757801443
 20
87.6493068056
 10
149.8066828243
 20
87.5871251912
 10
149.841939903
 20
87.5409204157
 10
149.8801963061
 20
87.5124675797
 10
149.9199810095
 20
87.502860056
  0
LWPOLYLINE
  5
10C
330
1F
100
AcDbEntity
  8
0
  6
Continuous
 62
     7
370
    25
100
AcDbPolyline
 90
        9
 70
   128
 43
0.0
 10
133.7295652956
 20
80.9893445687
 10
133.8271101594
 20
80.9932631084
 10
133.9209073812
 20
81.004868319
 10
134.0073508799
 20
81.0237131657
 10
134.083118628
 20
81.049074942
 10
134.1453002423
 20
81.079977622
 10
134.1915050179
 20
81.1152347007
 10
134.2199578538
 20
81.1534911038
 10
134.2295653775
 20
81.1932758072
  0
LWPOLYLINE
  5
10D
330
1F
100
AcDbEntity
  8
0
  6
Continuous
 62
     7
370
    25
100
AcDbPolyline
 90
        9
 70
   128
 43
0.0
 10
133.7295652956
 20
72.0163756625
 10
133.8271101594
 20
72.0124571228
 10
133.9209073812
 20
72.0008519122
 10
134.0073508799
 20
71.9820070656
 10
134.083118628
 20
71.9566452892
 10
134.1453002423
 20
71.9257426092
 10
134.1915050179
 20
71.8904855305
 10
134.2199578538
 20
71.8522291274
 10
134.2295653775
 20
71.812444424
  0
LWPOLYLINE
  5
10E
330
1F
100
AcDbEntity
  8
0
  6
Continuous
 62
     7
370
    25
100
AcDbPolyline
 90
        9
 70
   128
 43
0.0
 10
140.5391496263
 20
87.502860056
 10
140.5789343297
 20
87.5124675797
 10
140.6171907328
 20
87.5409204157
 10
140.6524478115
 20
87.5871251912
 10
140.6833504915
 20
87.6493068056
 10
140.7087122679
 20
87.7250745536
 10
140.7275571145
 20
87.8115180524
 10
140.7391623251
 20
87.9053152741
 10
140.7430808648
 20
88.002860138
  0
LWPOLYLINE
  5
10F
330
1F
100
AcDbEntity
  8
0
  6
Continuous
 62
     7
370
    25
100
AcDbPolyline
 90
        9
 70
   128
 43
0.0
 10
156.7295653403
 20
72.0163756625
 10
156.6320204765
 20
72.0124571228
 10
156.5382232547
 20
72.0008519122
 10
156.4517797559
 20
71.9820070656
 10
156.3760120079
 20
71.9566452892
 10
156.3138303935
 20
71.9257426092
 10
156.267625618
 20
71.8904855305
 10
156.239172782
 20
71.8522291274
 10
156.2295652583
 20
71.812444424
  0
LINE
  5
110
330
1F
100
AcDbEntity
  8
0
  6
Continuous
 62
     7
370
    25
100
AcDbLine
 10
155.5363278493
 20
105.8064685778
 30
0.0
 11
134.9228027865
 21
105.8064685778
 31
0.0
  0
SPLINE
  5
111
330
1F
100
AcDbEntity
  8
0
  6
Continuous
 62
     7
370
    25
100
AcDbSpline
210
0.0
220
0.0
230
1.0
 70
     8
 71
     3
 72
     8
 73
     4
 74
     0
 42
0.000000001
 43
0.00000001
 40
0.0
 40
0.0
 40
0.0
 40
0.0
 40
1.0
 40
1.0
 40
1.0
 40
1.0
 10
133.9812628418744
 20
86.00286011560692
 30
0.0
 10
133.9010520634758
 20
86.00286011560692
 30
0.0
 10
133.8150515667532
 20
86.02679073771515
 30
0.0
 10
133.729565317919
 20
86.06807750691127
 30
0.0
  0
SPLINE
  5
112
330
1F
100
AcDbEntity
  8
0
  6
Continuous
 62
     7
370
    25
100
AcDbSpline
210
0.0
220
0.0
230
1.0
 70
    24
 71
     3
 72
    10
 73
     6
 74
     0
 42
0.000000001
 43
0.00000001
 40
0.0
 40
0.0
 40
0.0
 40
0.0
 40
0.5
 40
0.5
 40
1.0
 40
1.0
 40
1.0
 40
1.0
 10
133.9812628418744
 20
86.00286011560692
 30
0.0
 10
134.0767399108058
 20
86.00286011560692
 30
0.0
 10
134.1336187160144
 20
86.00286011560692
 30
0.0
 10
134.2107162245417
 20
86.00286011560692
 30
0.0
 10
134.2295653179189
 20
86.00286011560692
 30
0.0
 10
134.229565317919
 20
86.00286011560692
 30
0.0
  0
SPLINE
  5
113
330
1F
100
AcDbEntity
  8
0
  6
Continuous
 62
     7
370
    25
100
AcDbSpline
210
0.0
220
0.0
230
1.0
 70
    24
 71
     3
 72
    12
 73
     8
 74
     0
 42
0.000000001
 43
0.00000001
 40
0.0
 40
0.0
 40
0.0
 40
0.0
 40
0.5000000000000022
 40
0.5000000000000022
 40
0.7500000000000011
 40
0.7500000000000011
 40
1.0
 40
1.0
 40
1.0
 40
1.0
 10
135.729565317919
 20
87.50286011560692
 30
0.0
 10
135.729565317919
 20
87.50286011560692
 30
0.0
 10
135.729565317919
 20
87.52134484674427
 30
0.0
 10
135.729565317919
 20
87.57948103062489
 30
0.0
 10
135.729565317919
 20
87.60432581666686
 30
0.0
 10
135.729565317919
 20
87.6662704767446
 30
0.0
 10
135.729565317919
 20
87.70310603736172
 30
0.0
 10
135.729565317919
 20
87.751162591653
 30
0.0
  0
SPLINE
  5
114
330
1F
100
AcDbEntity
  8
0
  6
Continuous
 62
     7
370
    25
100
AcDbSpline
210
0.0
220
0.0
230
1.0
 70
     8
 71
     3
 72
     8
 73
     4
 74
     0
 42
0.000000001
 43
0.00000001
 40
0.0
 40
0.0
 40
0.0
 40
0.0
 40
1.0
 40
1.0
 40
1.0
 40
1.0
 10
135.729565317919
 20
87.75116259165158
 30
0.0
 10
135.729565317919
 20
87.83137337005014
 30
0.0
 10
135.7056346958118
 20
87.91737386677478
 30
0.0
 10
135.6643479266147
 20
88.00286011560692
 30
0.0
  0
SPLINE
  5
115
330
1F
100
AcDbEntity
  8
0
  6
Continuous
 62
     7
370
    25
100
AcDbSpline
210
0.0
220
0.0
230
1.0
 70
     8
 71
     3
 72
     8
 73
     4
 74
     0
 42
0.000000001
 43
0.00000001
 40
0.0
 40
0.0
 40
0.0
 40
0.0
 40
1.0
 40
1.0
 40
1.0
 40
1.0
 10
156.4778677939637
 20
86.00286011560691
 30
0.0
 10
156.5580785723622
 20
86.00286011560691
 30
0.0
 10
156.644079069086
 20
86.0267907377146
 30
0.0
 10
156.729565317919
 20
86.06807750691127
 30
0.0
  0
SPLINE
  5
116
330
1F
100
AcDbEntity
  8
0
  6
Continuous
 62
     7
370
    25
100
AcDbSpline
210
0.0
220
0.0
230
1.0
 70
    24
 71
     3
 72
    12
 73
     8
 74
     0
 42
0.000000001
 43
0.00000001
 40
0.0
 40
0.0
 40
0.0
 40
0.0
 40
0.5000000000000023
 40
0.5000000000000023
 40
0.7500000000000011
 40
0.7500000000000011
 40
1.0
 40
1.0
 40
1.0
 40
1.0
 10
156.229565317919
 20
86.00286011560691
 30
0.0
 10
156.229565317919
 20
86.00286011560691
 30
0.0
 10
156.2480500490564
 20
86.00286011560691
 30
0.0
 10
156.306186232937
 20
86.00286011560691
 30
0.0
 10
156.331031018979
 20
86.00286011560691
 30
0.0
 10
156.3929756790567
 20
86.00286011560691
 30
0.0
 10
156.4298112396738
 20
86.00286011560691
 30
0.0
 10
156.4778677939651
 20
86.00286011560691
 30
0.0
  0
SPLINE
  5
117
330
1F
100
AcDbEntity
  8
0
  6
Continuous
 62
     7
370
    25
100
AcDbSpline
210
0.0
220
0.0
230
1.0
 70
     8
 71
     3
 72
     8
 73
     4
 74
     0
 42
0.000000001
 43
0.00000001
 40
0.0
 40
0.0
 40
0.0
 40
0.0
 40
1.0
 40
1.0
 40
1.0
 40
1.0
 10
133.937659996628
 20
66.50286011560692
 30
0.0
 10
133.8700704015265
 20
66.50286011560692
 30
0.0
 10
133.7997791180076
 20
66.48738995151676
 30
0.0
 10
133.729565317919
 20
66.45938185473736
 30
0.0
  0
SPLINE
  5
118
330
1F
100
AcDbEntity
  8
0
  6
Continuous
 62
     7
370
    25
100
AcDbSpline
210
0.0
220
0.0
230
1.0
 70
    24
 71
     3
 72
    12
 73
     8
 74
     0
 42
0.000000001
 43
0.00000001
 40
0.0
 40
0.0
 40
0.0
 40
0.0
 40
0.4999999999999989
 40
0.4999999999999989
 40
0.7499999999999994
 40
0.7499999999999994
 40
1.0
 40
1.0
 40
1.0
 40
1.0
 10
134.229565317919
 20
66.50286011560692
 30
0.0
 10
134.229565317919
 20
66.50286011560692
 30
0.0
 10
134.2083657699433
 20
66.50286011560692
 30
0.0
 10
134.1424384336131
 20
66.50286011560692
 30
0.0
 10
134.1141991866982
 20
66.50286011560692
 30
0.0
 10
134.0416488109806
 20
66.50286011560692
 30
0.0
 10
133.9986619787626
 20
66.50286011560692
 30
0.0
 10
133.937659996628
 20
66.50286011560692
 30
0.0
  0
SPLINE
  5
119
330
1F
100
AcDbEntity
  8
0
  6
Continuous
 62
     7
370
    25
100
AcDbSpline
210
0.0
220
0.0
230
1.0
 70
     8
 71
     3
 72
     8
 73
     4
 74
     0
 42
0.000000001
 43
0.00000001
 40
0.0
 40
0.0
 40
0.0
 40
0.0
 40
1.0
 40
1.0
 40
1.0
 40
1.0
 10
156.52147063921
 20
66.50286011560692
 30
0.0
 10
156.5890602343116
 20
66.50286011560692
 30
0.0
 10
156.6593515178305
 20
66.48738995151676
 30
0.0
 10
156.729565317919
 20
66.45938185473736
 30
0.0
  0
SPLINE
  5
11A
330
1F
100
AcDbEntity
  8
0
  6
Continuous
 62
     7
370
    25
100
AcDbSpline
210
0.0
220
0.0
230
1.0
 70
    24
 71
     3
 72
    12
 73
     8
 74
     0
 42
0.000000001
 43
0.00000001
 40
0.0
 40
0.0
 40
0.0
 40
0.0
 40
0.2499999999999997
 40
0.2499999999999997
 40
0.4999999999999993
 40
0.4999999999999993
 40
1.0
 40
1.0
 40
1.0
 40
1.0
 10
156.52147063921
 20
66.50286011560692
 30
0.0
 10
156.4610508926813
 20
66.50286011560692
 30
0.0
 10
156.4177046396181
 20
66.50286011560692
 30
0.0
 10
156.3448350215499
 20
66.50286011560692
 30
0.0
 10
156.3171830140855
 20
66.50286011560692
 30
0.0
 10
156.2511514451454
 20
66.50286011560692
 30
0.0
 10
156.229565317919
 20
66.50286011560692
 30
0.0
 10
156.229565317919
 20
66.50286011560692
 30
0.0
  0
SPLINE
  5
11B
330
1F
100
AcDbEntity
  8
0
  6
Continuous
 62
     7
370
    25
100
AcDbSpline
210
0.0
220
0.0
230
1.0
 70
     8
 71
     3
 72
     8
 73
     4
 74
     0
 42
0.000000001
 43
0.00000001
 40
0.0
 40
0.0
 40
0.0
 40
0.0
 40
1.0
 40
1.0
 40
1.0
 40
1.0
 10
154.729565317919
 20
87.75116259165155
 30
0.0
 10
154.729565317919
 20
87.8313733700501
 30
0.0
 10
154.7534959400276
 20
87.91737386677195
 30
0.0
 10
154.7947827092234
 20
88.00286011560692
 30
0.0
  0
SPLINE
  5
11C
330
1F
100
AcDbEntity
  8
0
  6
Continuous
 62
     7
370
    25
100
AcDbSpline
210
0.0
220
0.0
230
1.0
 70
    24
 71
     3
 72
    10
 73
     6
 74
     0
 42
0.000000001
 43
0.00000001
 40
0.0
 40
0.0
 40
0.0
 40
0.0
 40
0.5
 40
0.5
 40
1.0
 40
1.0
 40
1.0
 40
1.0
 10
154.729565317919
 20
87.75116259165155
 30
0.0
 10
154.729565317919
 20
87.65568552272018
 30
0.0
 10
154.729565317919
 20
87.5988067175116
 30
0.0
 10
154.729565317919
 20
87.52170920898429
 30
0.0
 10
154.729565317919
 20
87.50286011560704
 30
0.0
 10
154.729565317919
 20
87.50286011560692
 30
0.0
  0
LINE
  5
11D
330
1F
100
AcDbEntity
  8
0
  6
Continuous
 62
     7
370
    25
100
AcDbLine
 10
136.4795652807
 20
108.5028616355
 30
0.0
 11
153.9795653552
 21
108.5028616355
 31
0.0
  0
ARC
  5
11E
330
1F
100
AcDbEntity
  8
0
  6
Continuous
 62
     7
370
    25
100
AcDbCircle
 10
155.2985211737
 20
86.5517788048
 30
0.0
 40
0.3765098242385556
100
AcDbArc
 50
164.9874081083
 51
222.8433971034
  0
LINE
  5
11F
330
1F
100
AcDbEntity
  8
0
  6
Continuous
 62
     7
370
    25
100
AcDbLine
 10
154.7947827384
 20
87.002859974
 30
0.0
 11
154.7295650124
 21
87.002859974
 31
0.0
  0
LINE
  5
120
330
1F
100
AcDbEntity
  8
0
  6
Continuous
 62
     7
370
    25
100
AcDbLine
 10
155.7295651764
 20
86.0680775361
 30
0.0
 11
155.7295651764
 21
86.0028598101
 31
0.0
  0
ARC
  5
121
330
1F
100
AcDbEntity
  8
0
  6
Continuous
 62
     7
370
    25
100
AcDbCircle
 10
155.2784840071
 20
86.5718159714
 30
0.0
 40
0.3765098242385355
100
AcDbArc
 50
227.1566028966
 51
285.0125918917
  0
ARC
  5
122
330
1F
100
AcDbEntity
  8
0
  6
Continuous
 62
     7
370
    25
100
AcDbCircle
 10
135.1806466288
 20
86.5718159714
 30
0.0
 40
0.3765098242385355
100
AcDbArc
 50
254.9874081083
 51
312.8433971034
  0
LINE
  5
123
330
1F
100
AcDbEntity
  8
0
  6
Continuous
 62
     7
370
    25
100
AcDbLine
 10
134.7295654595
 20
86.0680775361
 30
0.0
 11
134.7295654595
 21
86.0028598101
 31
0.0
  0
ARC
  5
124
330
1F
100
AcDbEntity
  8
0
  6
Continuous
 62
     7
370
    25
100
AcDbCircle
 10
135.1606094622
 20
86.5517788048
 30
0.0
 40
0.3765098242385556
100
AcDbArc
 50
317.1566028966
 51
15.0125918917
  0
LINE
  5
125
330
1F
100
AcDbEntity
  8
0
  6
Continuous
 62
     7
370
    25
100
AcDbLine
 10
135.7295656234
 20
87.002859974
 30
0.0
 11
135.6643478975
 21
87.002859974
 31
0.0
  0
ARC
  5
126
330
1F
100
AcDbEntity
  8
0
  6
Continuous
 62
     7
370
    25
100
AcDbCircle
 10
155.5161051604
 20
86.7893999581
 30
0.0
 40
0.5978877047882769
100
AcDbArc
 50
193.551174763
 51
256.448825237
  0
ARC
  5
127
330
1F
100
AcDbEntity
  8
0
  6
Continuous
 62
     7
370
    25
100
AcDbCircle
 10
134.9430254754
 20
86.7893999581
 30
0.0
 40
0.5978877047882769
100
AcDbArc
 50
283.551174763
 51
346.448825237
  0
LINE
  5
128
330
1F
100
AcDbEntity
  8
0
  6
Continuous
 62
     8
370
    25
100
AcDbLine
 10
164.229564707
 20
90.5028605477
 30
0.0
 11
164.229564707
 21
62.5028596835
 31
0.0
  0
LINE
  5
129
330
1F
100
AcDbEntity
  8
0
  6
Continuous
 62
     8
370
    25
100
AcDbLine
 10
126.2295659289
 20
76.5028601156
 30
0.0
 11
126.2295659289
 21
90.5028605477
 31
0.0
  0
LINE
  5
12A
330
1F
100
AcDbEntity
  8
0
  6
Continuous
 62
     8
370
    25
100
AcDbLine
 10
126.2295659289
 20
62.5028596835
 30
0.0
 11
126.2295659289
 21
76.5028601156
 31
0.0
  0
LINE
  5
12B
330
1F
100
AcDbEntity
  8
0
  6
Continuous
 62
     8
370
    25
100
AcDbLine
 10
162.2295662418
 20
65.5028601752
 30
0.0
 11
162.2295662418
 21
87.502860056
 31
0.0
  0
LINE
  5
12C
330
1F
100
AcDbEntity
  8
0
  6
Continuous
 62
     8
370
    25
100
AcDbLine
 10
128.229564394
 20
76.5028601156
 30
0.0
 11
128.229564394
 21
65.5028601752
 31
0.0
  0
LINE
  5
12D
330
1F
100
AcDbEntity
  8
0
  6
Continuous
 62
     8
370
    25
100
AcDbLine
 10
128.229564394
 20
87.502860056
 30
0.0
 11
128.229564394
 21
76.5028601156
 31
0.0
  0
LINE
  5
12E
330
1F
100
AcDbEntity
  8
0
  6
Continuous
 62
     8
370
    25
100
AcDbLine
 10
156.2295652583
 20
93.5028610395
 30
0.0
 11
134.2295653775
 21
93.5028610395
 31
0.0
  0
LWPOLYLINE
  5
12F
330
1F
100
AcDbEntity
  8
0
  6
Continuous
 62
     8
370
    25
100
AcDbPolyline
 90
        9
 70
   128
 43
0.0
 10
135.0831187919
 20
86.2081568332
 10
134.7707699641
 20
86.5069260465
 10
134.4976558939
 20
86.7681648226
 10
134.2648028985
 20
86.9908934103
 10
134.0730845585
 20
87.1742764132
 10
133.9232189238
 20
87.3176265152
 10
133.8157685131
 20
87.4204054119
 10
133.751136589
 20
87.4822266044
 10
133.7295652956
 20
87.502860056
  0
LWPOLYLINE
  5
130
330
1F
100
AcDbEntity
  8
0
  6
Continuous
 62
     8
370
    25
100
AcDbPolyline
 90
        9
 70
   128
 43
0.0
 10
156.7295653403
 20
87.502860056
 10
156.7079940468
 20
87.4822266044
 10
156.6433621228
 20
87.4204054119
 10
156.535911712
 20
87.3176265152
 10
156.3860460773
 20
87.1742764132
 10
156.1943277374
 20
86.9908934103
 10
155.961474742
 20
86.7681648226
 10
155.6883606717
 20
86.5069260465
 10
155.376011844
 20
86.2081568332
  0
LWPOLYLINE
  5
131
330
1F
100
AcDbEntity
  8
0
  6
Continuous
 62
     8
370
    25
100
AcDbPolyline
 90
        9
 70
   128
 43
0.0
 10
134.2295653775
 20
88.002860138
 10
134.2501988292
 20
87.9812888445
 10
134.3120200217
 20
87.9166569205
 10
134.4147989184
 20
87.8092065097
 10
134.5581490204
 20
87.659340875
 10
134.7415320232
 20
87.4676225351
 10
134.9642606109
 20
87.2347695397
 10
135.2254993871
 20
86.9616554694
 10
135.5242686003
 20
86.6493066417
  0
LWPOLYLINE
  5
132
330
1F
100
AcDbEntity
  8
0
  6
Continuous
 62
     8
370
    25
100
AcDbPolyline
 90
        9
 70
   128
 43
0.0
 10
154.9348620355
 20
86.6493066417
 10
155.2336312488
 20
86.9616554694
 10
155.4948700249
 20
87.2347695397
 10
155.7175986126
 20
87.4676225351
 10
155.9009816155
 20
87.659340875
 10
156.0443317175
 20
87.8092065097
 10
156.1471106142
 20
87.9166569205
 10
156.2089318067
 20
87.9812888445
 10
156.2295652583
 20
88.002860138
  0
LINE
  5
133
330
1F
100
AcDbEntity
  8
0
  6
Continuous
 62
     7
370
    18
100
AcDbLine
 10
154.5774254466
 20
107.4673359969
 30
0.0
 11
154.9825653179
 21
94.5028601156
 31
0.0
  0
LINE
  5
134
330
1F
100
AcDbEntity
  8
0
  6
Continuous
 62
     7
370
    18
100
AcDbLine
 10
135.8817051892
 20
107.4673359969
 30
0.0
 11
135.4765653179
 21
94.5028601156
 31
0.0
  0
LINE
  5
135
330
1F
100
AcDbEntity
  8
0
  6
Continuous
 62
     7
370
    18
100
AcDbLine
 10
134.5695653179
 20
94.5028601156
 30
0.0
 11
155.8895653179
 21
94.5028601156
 31
0.0
  0
LINE
  5
136
330
1F
100
AcDbEntity
  8
0
  6
CENTERX2
 62
     7
370
    18
100
AcDbLine
 10
145.2295653179
 20
105.8064688427
 30
0.0
 11
145.2295653179
 21
63.6172430537
 31
0.0
  0
LINE
  5
137
330
1F
100
AcDbEntity
  8
0
  6
CENTERX2
 62
     7
370
    18
100
AcDbLine
 10
145.2295653179
 20
105.8064688427
 30
0.0
 11
145.2295653179
 21
110.5028601156
 31
0.0
  0
LINE
  5
138
330
1F
100
AcDbEntity
  8
0
  6
CENTERX2
 62
     7
370
    18
100
AcDbLine
 10
110.2295653179
 20
76.5028601156
 30
0.0
 11
180.2295653179
 21
76.5028601156
 31
0.0
  0
ARC
  5
139
330
1F
100
AcDbEntity
  8
0
  6
Continuous
 62
     7
370
    25
100
AcDbCircle
 10
207.2953909311
 20
93.5028601156
 30
0.0
 40
1.0
100
AcDbArc
 50
0.0
 51
31.0888876498
  0
ARC
  5
13A
330
1F
100
AcDbEntity
  8
0
  6
Continuous
 62
     7
370
    25
100
AcDbCircle
 10
231.2953909311
 20
93.5028601156
 30
0.0
 40
1.0
100
AcDbArc
 50
148.9111123502
 51
180.0
  0
LINE
  5
13B
330
1F
100
AcDbEntity
  8
0
  6
Continuous
 62
     7
370
    25
100
AcDbLine
 10
230.4390240956
 20
94.019227253
 30
0.0
 11
229.9553910765
 21
94.5028593407
 31
0.0
  0
LINE
  5
13C
330
1F
100
AcDbEntity
  8
0
  6
Continuous
 62
     7
370
    25
100
AcDbLine
 10
208.6353907857
 20
94.5028593407
 30
0.0
 11
208.1517577666
 21
94.019227253
 31
0.0
  0
LINE
  5
13D
330
1F
100
AcDbEntity
  8
0
  6
Continuous
 62
     7
370
    25
100
AcDbLine
 10
230.2953908715
 20
87.502860056
 30
0.0
 11
230.2953908715
 21
93.5028610395
 31
0.0
  0
LINE
  5
13E
330
1F
100
AcDbEntity
  8
0
  6
Continuous
 62
     7
370
    25
100
AcDbLine
 10
208.2953909907
 20
93.5028610395
 30
0.0
 11
208.2953909907
 21
87.502860056
 31
0.0
  0
LINE
  5
13F
330
1F
100
AcDbEntity
  8
0
  6
Continuous
 62
     7
370
    25
100
AcDbLine
 10
229.9553910765
 20
94.5028593407
 30
0.0
 11
229.6021534625
 21
105.8064685778
 31
0.0
  0
LINE
  5
140
330
1F
100
AcDbEntity
  8
0
  6
Continuous
 62
     7
370
    25
100
AcDbLine
 10
208.9886283997
 20
105.8064685778
 30
0.0
 11
208.6353907857
 21
94.5028593407
 31
0.0
  0
LINE
  5
141
330
1F
100
AcDbEntity
  8
0
  6
Continuous
 62
     7
370
    25
100
AcDbLine
 10
229.6021534625
 20
105.8064685778
 30
0.0
 11
228.0453909684
 21
108.5028616355
 31
0.0
  0
LINE
  5
142
330
1F
100
AcDbEntity
  8
0
  6
Continuous
 62
     7
370
    25
100
AcDbLine
 10
210.5453908939
 20
108.5028616355
 30
0.0
 11
208.9886283997
 21
105.8064685778
 31
0.0
  0
CIRCLE
  5
143
330
1F
100
AcDbEntity
  8
0
  6
Continuous
 62
     7
370
    25
100
AcDbCircle
 10
219.2953909311
 20
76.5028601156
 30
0.0
 40
10.75
  0
CIRCLE
  5
144
330
1F
100
AcDbEntity
  8
0
  6
Continuous
 62
     7
370
    25
100
AcDbCircle
 10
219.2953909311
 20
76.5028601156
 30
0.0
 40
13.00000000000003
  0
CIRCLE
  5
145
330
1F
100
AcDbEntity
  8
0
  6
Continuous
 62
     7
370
    25
100
AcDbCircle
 10
219.2953909311
 20
76.5028601156
 30
0.0
 40
14.00000000000003
  0
CIRCLE
  5
146
330
1F
100
AcDbEntity
  8
0
  6
Continuous
 62
     7
370
    25
100
AcDbCircle
 10
219.2953909311
 20
76.5028601156
 30
0.0
 40
9.798213046580457
  0
CIRCLE
  5
147
330
1F
100
AcDbEntity
  8
0
  6
Continuous
 62
     7
370
    25
100
AcDbCircle
 10
219.2953909311
 20
76.5028601156
 30
0.0
 40
9.428250615618282
  0
CIRCLE
  5
148
330
1F
100
AcDbEntity
  8
0
  6
Continuous
 62
     7
370
    25
100
AcDbCircle
 10
219.2953909311
 20
76.5028601156
 30
0.0
 40
9.315500000000014
  0
CIRCLE
  5
149
330
1F
100
AcDbEntity
  8
0
  6
Continuous
 62
     7
370
    25
100
AcDbCircle
 10
219.2953909311
 20
76.5028601156
 30
0.0
 40
6.499999999999972
  0
LINE
  5
14A
330
1F
100
AcDbEntity
  8
0
  6
Continuous
 62
     7
370
    25
100
AcDbLine
 10
219.2953909311
 20
94.019227253
 30
0.0
 11
230.4390240956
 21
94.019227253
 31
0.0
  0
LINE
  5
14B
330
1F
100
AcDbEntity
  8
0
  6
Continuous
 62
     7
370
    25
100
AcDbLine
 10
208.1517577666
 20
94.019227253
 30
0.0
 11
219.2953909311
 21
94.019227253
 31
0.0
  0
LINE
  5
14C
330
1F
100
AcDbEntity
  8
0
  6
Continuous
 62
     7
370
    25
100
AcDbLine
 10
208.6353907857
 20
94.5028593407
 30
0.0
 11
229.9553910765
 21
94.5028593407
 31
0.0
  0
SPLINE
  5
14D
330
1F
100
AcDbEntity
  8
0
  6
Continuous
 62
     7
370
    25
100
AcDbSpline
210
0.0
220
0.0
230
1.0
 70
     8
 71
     3
 72
    12
 73
     8
 74
     0
 42
0.000000001
 43
0.00000001
 40
0.0
 40
0.0
 40
0.0
 40
0.0
 40
0.25
 40
0.25
 40
0.5
 40
0.5
 40
1.0
 40
1.0
 40
1.0
 40
1.0
 10
229.8388467804756
 20
87.8553744515628
 30
0.0
 10
229.9137950580233
 20
87.80733248092655
 30
0.0
 10
229.9799785131336
 20
87.7706388382794
 30
0.0
 10
230.0939600185685
 20
87.70464815684831
 30
0.0
 10
230.141841455548
 20
87.67587466866881
 30
0.0
 10
230.256764921462
 20
87.59539896165077
 30
0.0
 10
230.2953909311045
 20
87.54926925845005
 30
0.0
 10
230.2953909311045
 20
87.50286011560692
 30
0.0
  0
SPLINE
  5
14E
330
1F
100
AcDbEntity
  8
0
  6
Continuous
 62
     7
370
    25
100
AcDbSpline
210
0.0
220
0.0
230
1.0
 70
     8
 71
     3
 72
     8
 73
     4
 74
     0
 42
0.000000001
 43
0.00000001
 40
0.0
 40
0.0
 40
0.0
 40
0.0
 40
1.0
 40
1.0
 40
1.0
 40
1.0
 10
229.3388691919741
 20
88.00286011560692
 30
0.0
 10
229.5371095237888
 20
88.00286011560692
 30
0.0
 10
229.7028234525663
 20
87.94256563112133
 30
0.0
 10
229.8388467804756
 20
87.8553744515628
 30
0.0
  0
SPLINE
  5
14F
330
1F
100
AcDbEntity
  8
0
  6
Continuous
 62
     7
370
    25
100
AcDbSpline
210
0.0
220
0.0
230
1.0
 70
     8
 71
     3
 72
     8
 73
     4
 74
     0
 42
0.000000001
 43
0.00000001
 40
0.0
 40
0.0
 40
0.0
 40
0.0
 40
1.0
 40
1.0
 40
1.0
 40
1.0
 10
208.7519350817334
 20
87.85537445156281
 30
0.0
 10
208.8879584096427
 20
87.94256563112133
 30
0.0
 10
209.0536723384202
 20
88.00286011560692
 30
0.0
 10
209.2519126702349
 20
88.00286011560692
 30
0.0
  0
SPLINE
  5
150
330
1F
100
AcDbEntity
  8
0
  6
Continuous
 62
     7
370
    25
100
AcDbSpline
210
0.0
220
0.0
230
1.0
 70
     8
 71
     3
 72
    12
 73
     8
 74
     0
 42
0.000000001
 43
0.00000001
 40
0.0
 40
0.0
 40
0.0
 40
0.0
 40
0.2499999999999999
 40
0.2499999999999999
 40
0.4999999999999998
 40
0.4999999999999998
 40
1.0
 40
1.0
 40
1.0
 40
1.0
 10
208.7519350817334
 20
87.85537445156281
 30
0.0
 10
208.6770129398332
 20
87.8073492339201
 30
0.0
 10
208.6108494844493
 20
87.77066496364522
 30
0.0
 10
208.4968949563991
 20
87.70469107071582
 30
0.0
 10
208.4490391509384
 20
87.67593943814755
 30
0.0
 10
208.333983855318
 20
87.59538453735759
 30
0.0
 10
208.2953909311045
 20
87.54925306073866
 30
0.0
 10
208.2953909311045
 20
87.50286011560692
 30
0.0
  0
ARC
  5
151
330
1F
100
AcDbEntity
  8
0
  6
Continuous
 62
     7
370
    25
100
AcDbCircle
 10
229.7953909311
 20
67.0028601156
 30
0.0
 40
0.5
100
AcDbArc
 50
270.0
 51
0.0
  0
LINE
  5
152
330
1F
100
AcDbEntity
  8
0
  6
Continuous
 62
     7
370
    25
100
AcDbLine
 10
230.2953908715
 20
67.8426060469
 30
0.0
 11
230.2953908715
 21
67.0028604211
 31
0.0
  0
ARC
  5
153
330
1F
100
AcDbEntity
  8
0
  6
Continuous
 62
     7
370
    25
100
AcDbCircle
 10
229.7953909311
 20
85.5028601156
 30
0.0
 40
0.5
100
AcDbArc
 50
0.0
 51
90.0
  0
LINE
  5
154
330
1F
100
AcDbEntity
  8
0
  6
Continuous
 62
     7
370
    25
100
AcDbLine
 10
230.2953908715
 20
85.5028597282
 30
0.0
 11
230.2953908715
 21
85.1631141843
 31
0.0
  0
LINE
  5
155
330
1F
100
AcDbEntity
  8
0
  6
Continuous
 62
     7
370
    25
100
AcDbLine
 10
229.5788731921
 20
86.0028598101
 30
0.0
 11
229.7953907895
 21
86.0028598101
 31
0.0
  0
LINE
  5
156
330
1F
100
AcDbEntity
  8
0
  6
Continuous
 62
     7
370
    25
100
AcDbLine
 10
229.0933495882
 20
66.5028603391
 30
0.0
 11
229.7953907895
 21
66.5028603391
 31
0.0
  0
LINE
  5
157
330
1F
100
AcDbEntity
  8
0
  6
Continuous
 62
     7
370
    25
100
AcDbLine
 10
208.7953910727
 20
66.5028603391
 30
0.0
 11
209.497432274
 21
66.5028603391
 31
0.0
  0
LINE
  5
158
330
1F
100
AcDbEntity
  8
0
  6
Continuous
 62
     7
370
    25
100
AcDbLine
 10
208.7953910727
 20
86.0028598101
 30
0.0
 11
209.0119086701
 21
86.0028598101
 31
0.0
  0
ARC
  5
159
330
1F
100
AcDbEntity
  8
0
  6
Continuous
 62
     7
370
    25
100
AcDbCircle
 10
208.7953909311
 20
85.5028601156
 30
0.0
 40
0.5
100
AcDbArc
 50
90.0
 51
180.0
  0
LINE
  5
15A
330
1F
100
AcDbEntity
  8
0
  6
Continuous
 62
     7
370
    25
100
AcDbLine
 10
208.2953909907
 20
85.1631141843
 30
0.0
 11
208.2953909907
 21
85.5028597282
 31
0.0
  0
ARC
  5
15B
330
1F
100
AcDbEntity
  8
0
  6
Continuous
 62
     7
370
    25
100
AcDbCircle
 10
208.7953909311
 20
67.0028601156
 30
0.0
 40
0.5
100
AcDbArc
 50
180.0
 51
270.0
  0
LINE
  5
15C
330
1F
100
AcDbEntity
  8
0
  6
Continuous
 62
     7
370
    25
100
AcDbLine
 10
208.2953909907
 20
67.0028604211
 30
0.0
 11
208.2953909907
 21
67.8426060469
 31
0.0
  0
LINE
  5
15D
330
1F
100
AcDbEntity
  8
0
  6
Continuous
 62
     7
370
    25
100
AcDbLine
 10
219.2953909311
 20
105.8064685778
 30
0.0
 11
208.9886283997
 21
105.8064685778
 31
0.0
  0
LINE
  5
15E
330
1F
100
AcDbEntity
  8
0
  6
Continuous
 62
     7
370
    25
100
AcDbLine
 10
229.6021534625
 20
105.8064685778
 30
0.0
 11
219.2953909311
 21
105.8064685778
 31
0.0
  0
LINE
  5
15F
330
1F
100
AcDbEntity
  8
0
  6
Continuous
 62
     7
370
    25
100
AcDbLine
 10
229.7953907895
 20
86.0028598101
 30
0.0
 11
229.7953907895
 21
87.002859974
 31
0.0
  0
LINE
  5
160
330
1F
100
AcDbEntity
  8
0
  6
Continuous
 62
     7
370
    25
100
AcDbLine
 10
230.2953908715
 20
87.002859974
 30
0.0
 11
229.7953907895
 21
87.002859974
 31
0.0
  0
LINE
  5
161
330
1F
100
AcDbEntity
  8
0
  6
Continuous
 62
     7
370
    25
100
AcDbLine
 10
230.2953908715
 20
87.002859974
 30
0.0
 11
230.2953908715
 21
85.5028597282
 31
0.0
  0
LINE
  5
162
330
1F
100
AcDbEntity
  8
0
  6
Continuous
 62
     7
370
    25
100
AcDbLine
 10
208.7953910727
 20
87.002859974
 30
0.0
 11
208.7953910727
 21
86.0028598101
 31
0.0
  0
LINE
  5
163
330
1F
100
AcDbEntity
  8
0
  6
Continuous
 62
     7
370
    25
100
AcDbLine
 10
208.2953909907
 20
87.002859974
 30
0.0
 11
208.7953910727
 21
87.002859974
 31
0.0
  0
LINE
  5
164
330
1F
100
AcDbEntity
  8
0
  6
Continuous
 62
     7
370
    25
100
AcDbLine
 10
208.2953909907
 20
85.5028597282
 30
0.0
 11
208.2953909907
 21
87.002859974
 31
0.0
  0
LINE
  5
165
330
1F
100
AcDbEntity
  8
0
  6
Continuous
 62
     7
370
    25
100
AcDbLine
 10
210.5453908939
 20
108.5028616355
 30
0.0
 11
228.0453909684
 21
108.5028616355
 31
0.0
  0
ARC
  5
166
330
1F
100
AcDbEntity
  8
0
  6
Continuous
 62
     7
370
    25
100
AcDbCircle
 10
229.8181652011
 20
87.9820657527
 30
0.0
 40
0.4797465722737439
100
AcDbArc
 50
177.5157636109
 51
267.2790461907
  0
ARC
  5
167
330
1F
100
AcDbEntity
  8
0
  6
Continuous
 62
     7
370
    25
100
AcDbCircle
 10
208.7726166612
 20
87.9820657527
 30
0.0
 40
0.4797465722737426
100
AcDbArc
 50
272.7209538093
 51
2.4842363891
  0
LINE
  5
168
330
1F
100
AcDbEntity
  8
0
  6
Continuous
 62
     7
370
    25
100
AcDbLine
 10
229.7953907895
 20
87.002859974
 30
0.0
 11
229.7953907895
 21
87.502860056
 31
0.0
  0
ARC
  5
169
330
1F
100
AcDbEntity
  8
0
  6
Continuous
 62
     7
370
    25
100
AcDbCircle
 10
229.7953909311
 20
87.0028601156
 30
0.0
 40
0.5000000000000142
100
AcDbArc
 50
0.0
 51
90.0
  0
LINE
  5
16A
330
1F
100
AcDbEntity
  8
0
  6
Continuous
 62
     7
370
    25
100
AcDbLine
 10
227.9556449998
 20
87.502860056
 30
0.0
 11
229.7953907895
 21
87.502860056
 31
0.0
  0
LINE
  5
16B
330
1F
100
AcDbEntity
  8
0
  6
Continuous
 62
     7
370
    25
100
AcDbLine
 10
208.7953910727
 20
87.502860056
 30
0.0
 11
208.7953910727
 21
87.002859974
 31
0.0
  0
LINE
  5
16C
330
1F
100
AcDbEntity
  8
0
  6
Continuous
 62
     7
370
    25
100
AcDbLine
 10
208.7953910727
 20
87.502860056
 30
0.0
 11
210.6351368624
 21
87.502860056
 31
0.0
  0
ARC
  5
16D
330
1F
100
AcDbEntity
  8
0
  6
Continuous
 62
     7
370
    25
100
AcDbCircle
 10
208.7953909311
 20
87.0028601156
 30
0.0
 40
0.5000000000000142
100
AcDbArc
 50
90.0
 51
180.0
  0
ARC
  5
16E
330
1F
100
AcDbEntity
  8
0
  6
Continuous
 62
     7
370
    25
100
AcDbCircle
 10
230.3060445286
 20
87.8253769903
 30
0.0
 40
0.4681593065413163
100
AcDbArc
 50
176.3262887358
 51
237.8245327008
  0
ARC
  5
16F
330
1F
100
AcDbEntity
  8
0
  6
Continuous
 62
     7
370
    25
100
AcDbCircle
 10
208.2847373336
 20
87.8253769903
 30
0.0
 40
0.468159306541287
100
AcDbArc
 50
302.1754672992
 51
3.6737112642
  0
SPLINE
  5
170
330
1F
100
AcDbEntity
  8
0
  6
Continuous
 62
     7
370
    25
100
AcDbSpline
210
0.0
220
0.0
230
1.0
 70
     8
 71
     3
 72
    12
 73
     8
 74
     0
 42
0.000000001
 43
0.00000001
 40
0.0
 40
0.0
 40
0.0
 40
0.0
 40
0.25
 40
0.25
 40
0.5
 40
0.5
 40
1.0
 40
1.0
 40
1.0
 40
1.0
 10
230.0567428523666
 20
87.42911728358486
 30
0.0
 10
230.093786263448
 20
87.40640478187575
 30
0.0
 10
230.1279991647363
 20
87.39889226204656
 30
0.0
 10
230.1875313195972
 20
87.39733618734738
 30
0.0
 10
230.2129320506196
 20
87.40376302918942
 30
0.0
 10
230.2742906823486
 20
87.43398802949378
 30
0.0
 10
230.2953909311045
 20
87.46868355061233
 30
0.0
 10
230.2953909311045
 20
87.50286011560692
 30
0.0
  0
SPLINE
  5
171
330
1F
100
AcDbEntity
  8
0
  6
Continuous
 62
     7
370
    25
100
AcDbSpline
210
0.0
220
0.0
230
1.0
 70
    24
 71
     3
 72
    12
 73
     8
 74
     0
 42
0.000000001
 43
0.00000001
 40
0.0
 40
0.0
 40
0.0
 40
0.0
 40
0.2500000000000001
 40
0.2500000000000001
 40
0.5000000000000001
 40
0.5000000000000001
 40
1.0
 40
1.0
 40
1.0
 40
1.0
 10
230.2953909311045
 20
87.00286011560691
 30
0.0
 10
230.2953909311045
 20
87.00286011560691
 30
0.0
 10
230.2953909311045
 20
87.02258306101484
 30
0.0
 10
230.2953909311045
 20
87.08321952577609
 30
0.0
 10
230.2953909311045
 20
87.12447607146446
 30
0.0
 10
230.2953909311045
 20
87.26624938113655
 30
0.0
 10
230.2953909311045
 20
87.38481642629688
 30
0.0
 10
230.2953909311045
 20
87.50286011560692
 30
0.0
  0
SPLINE
  5
172
330
1F
100
AcDbEntity
  8
0
  6
Continuous
 62
     7
370
    25
100
AcDbSpline
210
0.0
220
0.0
230
1.0
 70
     8
 71
     3
 72
    12
 73
     8
 74
     0
 42
0.000000001
 43
0.00000001
 40
0.0
 40
0.0
 40
0.0
 40
0.0
 40
0.25
 40
0.25
 40
0.5
 40
0.5
 40
1.0
 40
1.0
 40
1.0
 40
1.0
 10
208.5340390098423
 20
87.42911728358486
 30
0.0
 10
208.4969955987609
 20
87.40640478187575
 30
0.0
 10
208.4627826974727
 20
87.39889226204656
 30
0.0
 10
208.4032505426117
 20
87.39733618734738
 30
0.0
 10
208.3778498115893
 20
87.40376302918942
 30
0.0
 10
208.3164911798603
 20
87.4339880294938
 30
0.0
 10
208.2953909311045
 20
87.46868355061243
 30
0.0
 10
208.2953909311045
 20
87.50286011560692
 30
0.0
  0
SPLINE
  5
173
330
1F
100
AcDbEntity
  8
0
  6
Continuous
 62
     7
370
    25
100
AcDbSpline
210
0.0
220
0.0
230
1.0
 70
    24
 71
     3
 72
    12
 73
     8
 74
     0
 42
0.000000001
 43
0.00000001
 40
0.0
 40
0.0
 40
0.0
 40
0.0
 40
0.25
 40
0.25
 40
0.5
 40
0.5
 40
1.0
 40
1.0
 40
1.0
 40
1.0
 10
208.2953909311045
 20
87.00286011560691
 30
0.0
 10
208.2953909311045
 20
87.00286011560691
 30
0.0
 10
208.2953909311045
 20
87.02258306101484
 30
0.0
 10
208.2953909311045
 20
87.0832195257761
 30
0.0
 10
208.2953909311045
 20
87.12447607146446
 30
0.0
 10
208.2953909311045
 20
87.26624938113655
 30
0.0
 10
208.2953909311045
 20
87.38481642629687
 30
0.0
 10
208.2953909311045
 20
87.50286011560692
 30
0.0
  0
LINE
  5
174
330
1F
100
AcDbEntity
  8
0
  6
Continuous
 62
     8
370
    25
100
AcDbLine
 10
230.2953908715
 20
93.5028610395
 30
0.0
 11
208.2953909907
 21
93.5028610395
 31
0.0
  0
LINE
  5
175
330
1F
100
AcDbEntity
  8
0
  6
Continuous
 62
     8
370
    25
100
AcDbLine
 10
227.2797506798
 20
88.002860138
 30
0.0
 11
229.338869502
 21
88.002860138
 31
0.0
  0
LINE
  5
176
330
1F
100
AcDbEntity
  8
0
  6
Continuous
 62
     8
370
    25
100
AcDbLine
 10
209.2519123602
 20
88.002860138
 30
0.0
 11
211.3110311824
 21
88.002860138
 31
0.0
  0
LINE
  5
177
330
1F
100
AcDbEntity
  8
0
  6
Continuous
 62
     8
370
    25
100
AcDbLine
 10
229.7953907895
 20
66.5028603391
 30
0.0
 11
229.7953907895
 21
67.2427309321
 31
0.0
  0
LINE
  5
178
330
1F
100
AcDbEntity
  8
0
  6
Continuous
 62
     8
370
    25
100
AcDbLine
 10
229.7953907895
 20
85.7629892991
 30
0.0
 11
229.7953907895
 21
86.0028598101
 31
0.0
  0
LINE
  5
179
330
1F
100
AcDbEntity
  8
0
  6
Continuous
 62
     8
370
    25
100
AcDbLine
 10
208.7953910727
 20
67.2427309321
 30
0.0
 11
208.7953910727
 21
66.5028603391
 31
0.0
  0
LINE
  5
17A
330
1F
100
AcDbEntity
  8
0
  6
Continuous
 62
     8
370
    25
100
AcDbLine
 10
208.7953910727
 20
86.0028598101
 30
0.0
 11
208.7953910727
 21
85.7629892991
 31
0.0
  0
LINE
  5
17B
330
1F
100
AcDbEntity
  8
0
  6
Continuous
 62
     8
370
    25
100
AcDbLine
 10
228.5555201146
 20
87.002859974
 30
0.0
 11
229.7953907895
 21
87.002859974
 31
0.0
  0
LINE
  5
17C
330
1F
100
AcDbEntity
  8
0
  6
Continuous
 62
     8
370
    25
100
AcDbLine
 10
208.7953910727
 20
87.002859974
 30
0.0
 11
210.0352617476
 21
87.002859974
 31
0.0
  0
INSERT
  5
188
330
1F
100
AcDbEntity
  8
0
  6
Continuous
 62
     7
370
    18
100
AcDbBlockReference
  2
SW_CENTERMARKSYMBOL_0
 10
219.2953909311
 20
76.5028601156
 30
0.0
  0
LINE
  5
189
330
1F
100
AcDbEntity
  8
0
  6
Continuous
 62
     7
370
    18
100
AcDbLine
 10
228.6432510598
 20
107.4673359969
 30
0.0
 11
229.0483909311
 21
94.5028601156
 31
0.0
  0
LINE
  5
18A
330
1F
100
AcDbEntity
  8
0
  6
Continuous
 62
     7
370
    18
100
AcDbLine
 10
209.9475308024
 20
107.4673359969
 30
0.0
 11
209.5423909311
 21
94.5028601156
 31
0.0
  0
LINE
  5
18B
330
1F
100
AcDbEntity
  8
0
  6
Continuous
 62
     7
370
    18
100
AcDbLine
 10
208.6353909311
 20
94.5028601156
 30
0.0
 11
229.9553909311
 21
94.5028601156
 31
0.0
  0
ARC
  5
18C
330
1F
100
AcDbEntity
  8
0
  6
Continuous
 62
     7
370
    18
100
AcDbCircle
 10
219.2953909311
 20
76.5028601156
 30
0.0
 40
10.43039212103399
100
AcDbArc
 50
75.0
 51
345.0
  0
ARC
  5
18D
330
1F
100
AcDbEntity
  8
0
  6
Continuous
 62
     7
370
    18
100
AcDbCircle
 10
219.2953909311
 20
76.5028601156
 30
0.0
 40
10.43039212103396
100
AcDbArc
 50
75.0
 51
345.0
  0
ARC
  5
18E
330
1F
100
AcDbEntity
  8
0
  6
Continuous
 62
     7
370
    25
100
AcDbCircle
 10
164.2295653179
 20
161.7786776363
 30
0.0
 40
1.0
100
AcDbArc
 50
90.0
 51
180.0
  0
ARC
  5
18F
330
1F
100
AcDbEntity
  8
0
  6
Continuous
 62
     7
370
    25
100
AcDbCircle
 10
164.2295653179
 20
135.7786776363
 30
0.0
 40
1.0
100
AcDbArc
 50
180.0
 51
270.0
  0
LINE
  5
190
330
1F
100
AcDbEntity
  8
0
  6
Continuous
 62
     7
370
    25
100
AcDbLine
 10
178.2295651391
 20
162.7786780684
 30
0.0
 11
164.229564707
 21
162.7786780684
 31
0.0
  0
LINE
  5
191
330
1F
100
AcDbEntity
  8
0
  6
Continuous
 62
     7
370
    25
100
AcDbLine
 10
164.229564707
 20
134.7786772042
 30
0.0
 11
178.2295651391
 21
134.7786772042
 31
0.0
  0
LINE
  5
192
330
1F
100
AcDbEntity
  8
0
  6
Continuous
 62
     7
370
    25
100
AcDbLine
 10
178.2295651391
 20
134.7786772042
 30
0.0
 11
179.2295671657
 21
135.7786773681
 31
0.0
  0
LINE
  5
193
330
1F
100
AcDbEntity
  8
0
  6
Continuous
 62
     7
370
    25
100
AcDbLine
 10
179.2295671657
 20
161.7786779045
 30
0.0
 11
178.2295651391
 21
162.7786780684
 31
0.0
  0
LINE
  5
194
330
1F
100
AcDbEntity
  8
0
  6
Continuous
 62
     7
370
    25
100
AcDbLine
 10
112.2295654967
 20
134.7786772042
 30
0.0
 11
126.2295659289
 21
134.7786772042
 31
0.0
  0
LINE
  5
195
330
1F
100
AcDbEntity
  8
0
  6
Continuous
 62
     7
370
    25
100
AcDbLine
 10
126.2295659289
 20
162.7786780684
 30
0.0
 11
112.2295654967
 21
162.7786780684
 31
0.0
  0
LINE
  5
196
330
1F
100
AcDbEntity
  8
0
  6
Continuous
 62
     7
370
    25
100
AcDbLine
 10
112.2295654967
 20
162.7786780684
 30
0.0
 11
111.2295634702
 21
161.7786779045
 31
0.0
  0
LINE
  5
197
330
1F
100
AcDbEntity
  8
0
  6
Continuous
 62
     7
370
    25
100
AcDbLine
 10
111.2295634702
 20
135.7786773681
 30
0.0
 11
112.2295654967
 21
134.7786772042
 31
0.0
  0
ARC
  5
198
330
1F
100
AcDbEntity
  8
0
  6
Continuous
 62
     7
370
    25
100
AcDbCircle
 10
126.2295653179
 20
135.7786776363
 30
0.0
 40
1.0
100
AcDbArc
 50
270.0
 51
0.0
  0
ARC
  5
199
330
1F
100
AcDbEntity
  8
0
  6
Continuous
 62
     7
370
    25
100
AcDbCircle
 10
126.2295653179
 20
161.7786776363
 30
0.0
 40
1.0
100
AcDbArc
 50
0.0
 51
90.0
  0
ARC
  5
19A
330
1F
100
AcDbEntity
  8
0
  6
Continuous
 62
     7
370
    25
100
AcDbCircle
 10
162.2295653179
 20
160.7786776363
 30
0.0
 40
1.0
100
AcDbArc
 50
270.0
 51
0.0
  0
ARC
  5
19B
330
1F
100
AcDbEntity
  8
0
  6
Continuous
 62
     7
370
    25
100
AcDbCircle
 10
162.2295653179
 20
136.7786776363
 30
0.0
 40
1.0
100
AcDbArc
 50
0.0
 51
90.0
  0
ARC
  5
19C
330
1F
100
AcDbEntity
  8
0
  6
Continuous
 62
     7
370
    25
100
AcDbCircle
 10
128.2295653179
 20
136.7786776363
 30
0.0
 40
1.000000000000014
100
AcDbArc
 50
90.0
 51
180.0
  0
ARC
  5
19D
330
1F
100
AcDbEntity
  8
0
  6
Continuous
 62
     7
370
    25
100
AcDbCircle
 10
128.2295653179
 20
160.7786776363
 30
0.0
 40
1.000000000000014
100
AcDbArc
 50
180.0
 51
270.0
  0
LINE
  5
19E
330
1F
100
AcDbEntity
  8
0
  6
Continuous
 62
     7
370
    25
100
AcDbLine
 10
134.2295653775
 20
159.7786775767
 30
0.0
 11
128.229564394
 21
159.7786775767
 31
0.0
  0
LINE
  5
19F
330
1F
100
AcDbEntity
  8
0
  6
Continuous
 62
     7
370
    25
100
AcDbLine
 10
162.2295662418
 20
159.7786775767
 30
0.0
 11
158.2295655861
 21
159.7786775767
 31
0.0
  0
LINE
  5
1A0
330
1F
100
AcDbEntity
  8
0
  6
Continuous
 62
     7
370
    25
100
AcDbLine
 10
156.2295652583
 20
137.7786776959
 30
0.0
 11
162.2295662418
 21
137.7786776959
 31
0.0
  0
LINE
  5
1A1
330
1F
100
AcDbEntity
  8
0
  6
Continuous
 62
     7
370
    25
100
AcDbLine
 10
128.229564394
 20
137.7786776959
 30
0.0
 11
134.2295653775
 21
137.7786776959
 31
0.0
  0
ARC
  5
1A2
330
1F
100
AcDbEntity
  8
0
  6
Continuous
 62
     7
370
    25
100
AcDbCircle
 10
157.7713077484
 20
159.5786776363
 30
0.0
 40
0.5000000000000367
100
AcDbArc
 50
23.5781784782
 51
90.0
  0
ARC
  5
1A3
330
1F
100
AcDbEntity
  8
0
  6
Continuous
 62
     7
370
    25
100
AcDbCircle
 10
156.6878228874
 20
159.5786776363
 30
0.0
 40
0.5000000000000107
100
AcDbArc
 50
90.0
 51
156.4218215218
  0
CIRCLE
  5
1A4
330
1F
100
AcDbEntity
  8
0
  6
Continuous
 62
     7
370
    25
100
AcDbCircle
 10
145.2295653179
 20
148.7786776363
 30
0.0
 40
8.75
  0
CIRCLE
  5
1A5
330
1F
100
AcDbEntity
  8
0
  6
Continuous
 62
     7
370
    25
100
AcDbCircle
 10
145.2295653179
 20
148.7786776363
 30
0.0
 40
10.30676222727979
  0
CIRCLE
  5
1A6
330
1F
100
AcDbEntity
  8
0
  6
Continuous
 62
     7
370
    25
100
AcDbCircle
 10
145.2295653179
 20
148.7786776363
 30
0.0
 40
7.0
  0
CIRCLE
  5
1A7
330
1F
100
AcDbEntity
  8
0
  6
Continuous
 62
     7
370
    25
100
AcDbCircle
 10
145.2295653179
 20
148.7786776363
 30
0.0
 40
6.5
  0
CIRCLE
  5
1A8
330
1F
100
AcDbEntity
  8
0
  6
Continuous
 62
     7
370
    25
100
AcDbCircle
 10
145.2295653179
 20
148.7786776363
 30
0.0
 40
10.66
  0
CIRCLE
  5
1A9
330
1F
100
AcDbEntity
  8
0
  6
Continuous
 62
     7
370
    25
100
AcDbCircle
 10
145.2295653179
 20
148.7786776363
 30
0.0
 40
11.14363275136409
  0
LINE
  5
1AA
330
1F
100
AcDbEntity
  8
0
  6
Continuous
 62
     7
370
    25
100
AcDbLine
 10
163.2295645431
 20
135.7786773681
 30
0.0
 11
163.2295645431
 21
161.7786779045
 31
0.0
  0
LINE
  5
1AB
330
1F
100
AcDbEntity
  8
0
  6
Continuous
 62
     7
370
    25
100
AcDbLine
 10
178.2295651391
 20
134.7786772042
 30
0.0
 11
178.2295651391
 21
162.7786780684
 31
0.0
  0
LINE
  5
1AC
330
1F
100
AcDbEntity
  8
0
  6
Continuous
 62
     7
370
    25
100
AcDbLine
 10
179.2295671657
 20
161.7786779045
 30
0.0
 11
179.2295671657
 21
135.7786773681
 31
0.0
  0
LINE
  5
1AD
330
1F
100
AcDbEntity
  8
0
  6
Continuous
 62
     7
370
    25
100
AcDbLine
 10
112.2295654967
 20
162.7786780684
 30
0.0
 11
112.2295654967
 21
134.7786772042
 31
0.0
  0
LINE
  5
1AE
330
1F
100
AcDbEntity
  8
0
  6
Continuous
 62
     7
370
    25
100
AcDbLine
 10
111.2295634702
 20
135.7786773681
 30
0.0
 11
111.2295634702
 21
161.7786779045
 31
0.0
  0
LINE
  5
1AF
330
1F
100
AcDbEntity
  8
0
  6
Continuous
 62
     7
370
    25
100
AcDbLine
 10
127.2295660928
 20
161.7786779045
 30
0.0
 11
127.2295660928
 21
135.7786773681
 31
0.0
  0
SPLINE
  5
1B0
330
1F
100
AcDbEntity
  8
0
  6
Continuous
 62
     7
370
    25
100
AcDbSpline
210
0.0
220
0.0
230
1.0
 70
     8
 71
     3
 72
     8
 73
     4
 74
     0
 42
0.000000001
 43
0.00000001
 40
0.0
 40
0.0
 40
0.0
 40
0.0
 40
1.0
 40
1.0
 40
1.0
 40
1.0
 10
148.50828458007
 20
159.540029557569
 30
0.0
 10
148.9807255360238
 20
159.4697654334193
 30
0.0
 10
149.4518507143832
 20
159.383236018876
 30
0.0
 10
149.9199810777424
 20
159.2786776363069
 30
0.0
  0
SPLINE
  5
1B1
330
1F
100
AcDbEntity
  8
0
  6
Continuous
 62
     7
370
    25
100
AcDbSpline
210
0.0
220
0.0
230
1.0
 70
     8
 71
     3
 72
     8
 73
     4
 74
     0
 42
0.000000001
 43
0.00000001
 40
0.0
 40
0.0
 40
0.0
 40
0.0
 40
1.0
 40
1.0
 40
1.0
 40
1.0
 10
140.5391495580956
 20
159.2786776363069
 30
0.0
 10
141.0073739818692
 20
159.3832570275641
 30
0.0
 10
141.4783544662388
 20
159.469757902904
 30
0.0
 10
141.950846055768
 20
159.540029557569
 30
0.0
  0
SPLINE
  5
1B2
330
1F
100
AcDbEntity
  8
0
  6
Continuous
 62
     7
370
    25
100
AcDbSpline
210
0.0
220
0.0
230
1.0
 70
     8
 71
     3
 72
     8
 73
     4
 74
     0
 42
0.000000001
 43
0.00000001
 40
0.0
 40
0.0
 40
0.0
 40
0.0
 40
1.0
 40
1.0
 40
1.0
 40
1.0
 10
141.950846055768
 20
138.0173257150447
 30
0.0
 10
141.4784050998143
 20
138.0875898391945
 30
0.0
 10
141.0072799214549
 20
138.1741192537377
 30
0.0
 10
140.5391495580956
 20
138.2786776363069
 30
0.0
  0
SPLINE
  5
1B3
330
1F
100
AcDbEntity
  8
0
  6
Continuous
 62
     7
370
    25
100
AcDbSpline
210
0.0
220
0.0
230
1.0
 70
     8
 71
     3
 72
     8
 73
     4
 74
     0
 42
0.000000001
 43
0.00000001
 40
0.0
 40
0.0
 40
0.0
 40
0.0
 40
1.0
 40
1.0
 40
1.0
 40
1.0
 10
149.9199810777424
 20
138.2786776363069
 30
0.0
 10
149.4517566539689
 20
138.1740982450496
 30
0.0
 10
148.9807761695993
 20
138.0875973697098
 30
0.0
 10
148.50828458007
 20
138.0173257150447
 30
0.0
  0
SPLINE
  5
1B4
330
1F
100
AcDbEntity
  8
0
  6
Continuous
 62
     7
370
    25
100
AcDbSpline
210
0.0
220
0.0
230
1.0
 70
    24
 71
     3
 72
    10
 73
     6
 74
     0
 42
0.000000001
 43
0.00000001
 40
0.0
 40
0.0
 40
0.0
 40
0.0
 40
0.1736713072029533
 40
0.7880944084450424
 40
1.0
 40
1.0
 40
1.0
 40
1.0
 10
135.7295656233928
 20
154.566443709206
 30
0.0
 10
135.7295656233928
 20
154.601624693261
 30
0.0
 10
135.7295656233928
 20
154.7612707353387
 30
0.0
 10
135.7295656233928
 20
155.009424335762
 30
0.0
 10
135.7295656233928
 20
155.2083942039843
 30
0.0
 10
135.7295656233928
 20
155.2594184852356
 30
0.0
  0
ARC
  5
1B5
330
1F
100
AcDbEntity
  8
0
  6
Continuous
 62
     7
370
    25
100
AcDbCircle
 10
145.2295653179
 20
148.7786776363
 30
0.0
 40
11.5
100
AcDbArc
 50
114.0706146226
 51
145.6988472432
  0
ARC
  5
1B6
330
1F
100
AcDbEntity
  8
0
  6
Continuous
 62
     7
370
    25
100
AcDbCircle
 10
145.2295653179
 20
148.7786776363
 30
0.0
 40
11.50000000000001
100
AcDbArc
 50
34.3011527568
 51
65.9293853774
  0
SPLINE
  5
1B7
330
1F
100
AcDbEntity
  8
0
  6
Continuous
 62
     7
370
    25
100
AcDbSpline
210
0.0
220
0.0
230
1.0
 70
    24
 71
     3
 72
     9
 73
     5
 74
     0
 42
0.000000001
 43
0.00000001
 40
0.0
 40
0.0
 40
0.0
 40
0.0
 40
0.6910512703591413
 40
1.0
 40
1.0
 40
1.0
 40
1.0
 10
154.7295650124452
 20
155.2594184852356
 30
0.0
 10
154.7295650124452
 20
155.0862651248686
 30
0.0
 10
154.7295650124452
 20
154.8356999818844
 30
0.0
 10
154.7295650124452
 20
154.6258843382639
 30
0.0
 10
154.7295650124452
 20
154.5610620617086
 30
0.0
  0
ELLIPSE
  5
1B8
330
1F
100
AcDbEntity
  8
0
  6
Continuous
 62
     7
370
    25
100
AcDbEllipse
 10
145.2295653179
 20
148.7786776363
 30
0.0
 11
11.5
 21
0.0
 31
0.0
210
0.0
220
0.0
230
1.0
 40
0.9565217391
 41
5.793114866398176
 42
6.773255747961011
  0
ELLIPSE
  5
1B9
330
1F
100
AcDbEntity
  8
0
  6
Continuous
 62
     7
370
    25
100
AcDbEllipse
 10
145.2295653179
 20
148.7786776363
 30
0.0
 11
11.5
 21
0.0
 31
0.0
210
0.0
220
0.0
230
1.0
 40
0.9565217391
 41
2.651522212808368
 42
3.631663094371232
  0
SPLINE
  5
1BA
330
1F
100
AcDbEntity
  8
0
  6
Continuous
 62
     7
370
    25
100
AcDbSpline
210
0.0
220
0.0
230
1.0
 70
    24
 71
     3
 72
    10
 73
     6
 74
     0
 42
0.000000001
 43
0.00000001
 40
0.0
 40
0.0
 40
0.0
 40
0.0
 40
0.1923685737456911
 40
0.792889177598935
 40
1.0
 40
1.0
 40
1.0
 40
1.0
 10
154.7295650124452
 20
143.0052134185248
 30
0.0
 10
154.7295650124452
 20
142.9654056945607
 30
0.0
 10
154.7295650124452
 20
142.8013294481063
 30
0.0
 10
154.7295650124452
 20
142.5479833337142
 30
0.0
 10
154.7295650124452
 20
142.3489717629287
 30
0.0
 10
154.7295650124452
 20
142.2979367873782
 30
0.0
  0
ARC
  5
1BB
330
1F
100
AcDbEntity
  8
0
  6
Continuous
 62
     7
370
    25
100
AcDbCircle
 10
145.2295653179
 20
148.7786776363
 30
0.0
 40
11.5
100
AcDbArc
 50
294.0706146226
 51
325.6988472432
  0
ARC
  5
1BC
330
1F
100
AcDbEntity
  8
0
  6
Continuous
 62
     7
370
    25
100
AcDbCircle
 10
145.2295653179
 20
148.7786776363
 30
0.0
 40
11.5
100
AcDbArc
 50
214.3011527568
 51
245.9293853774
  0
SPLINE
  5
1BD
330
1F
100
AcDbEntity
  8
0
  6
Continuous
 62
     7
370
    25
100
AcDbSpline
210
0.0
220
0.0
230
1.0
 70
    24
 71
     3
 72
     9
 73
     5
 74
     0
 42
0.000000001
 43
0.00000001
 40
0.0
 40
0.0
 40
0.0
 40
0.0
 40
0.6861817816275299
 40
1.0
 40
1.0
 40
1.0
 40
1.0
 10
135.7295656233928
 20
142.2979367873782
 30
0.0
 10
135.7295656233928
 20
142.4710443683743
 30
0.0
 10
135.7295656233928
 20
142.7233209306951
 30
0.0
 10
135.7295656233928
 20
142.9345592679516
 30
0.0
 10
135.7295656233928
 20
143.0008497066015
 30
0.0
  0
SPLINE
  5
1BE
330
1F
100
AcDbEntity
  8
0
  6
Continuous
 62
     7
370
    25
100
AcDbSpline
210
0.0
220
0.0
230
1.0
 70
    24
 71
     3
 72
     9
 73
     5
 74
     0
 42
0.000000001
 43
0.00000001
 40
0.0
 40
0.0
 40
0.0
 40
0.0
 40
0.6156996827895902
 40
1.0
 40
1.0
 40
1.0
 40
1.0
 10
141.9508460566304
 20
159.7786775767022
 30
0.0
 10
142.2853137684676
 20
159.7786775767022
 30
0.0
 10
142.8285456738696
 20
159.7786775767022
 30
0.0
 10
143.3628001874997
 20
159.7786775767022
 30
0.0
 10
143.5681143665589
 20
159.7786775767022
 30
0.0
  0
LINE
  5
1BF
330
1F
100
AcDbEntity
  8
0
  6
Continuous
 62
     7
370
    25
100
AcDbLine
 10
141.9508460566
 20
159.5400298922
 30
0.0
 11
141.9508460566
 21
159.7786775767
 31
0.0
  0
LINE
  5
1C0
330
1F
100
AcDbEntity
  8
0
  6
Continuous
 62
     7
370
    25
100
AcDbLine
 10
148.5082845792
 20
159.7786775767
 30
0.0
 11
148.5082845792
 21
159.5400298922
 31
0.0
  0
SPLINE
  5
1C1
330
1F
100
AcDbEntity
  8
0
  6
Continuous
 62
     7
370
    25
100
AcDbSpline
210
0.0
220
0.0
230
1.0
 70
    24
 71
     3
 72
     9
 73
     5
 74
     0
 42
0.000000001
 43
0.00000001
 40
0.0
 40
0.0
 40
0.0
 40
0.0
 40
0.3917581049209946
 40
1.0
 40
1.0
 40
1.0
 40
1.0
 10
146.8713282264671
 20
159.7786775767022
 30
0.0
 10
147.0831817379118
 20
159.7786775767022
 30
0.0
 10
147.6239580710203
 20
159.7786775767022
 30
0.0
 10
148.1738296487309
 20
159.7786775767022
 30
0.0
 10
148.5082845792077
 20
159.7786775767022
 30
0.0
  0
LINE
  5
1C2
330
1F
100
AcDbEntity
  8
0
  6
Continuous
 62
     7
370
    25
100
AcDbLine
 10
141.9508460566
 20
137.7786776959
 30
0.0
 11
141.9508460566
 21
138.0173253804
 31
0.0
  0
SPLINE
  5
1C3
330
1F
100
AcDbEntity
  8
0
  6
Continuous
 62
     7
370
    25
100
AcDbSpline
210
0.0
220
0.0
230
1.0
 70
    24
 71
     3
 72
     9
 73
     5
 74
     0
 42
0.000000001
 43
0.00000001
 40
0.0
 40
0.0
 40
0.0
 40
0.0
 40
0.4017607739244191
 40
1.0
 40
1.0
 40
1.0
 40
1.0
 10
143.6149875989086
 20
137.7786776959115
 30
0.0
 10
143.3941046052963
 20
137.7786776959115
 30
0.0
 10
142.8443172493661
 20
137.7786776959115
 30
0.0
 10
142.2852825453252
 20
137.7786776959115
 30
0.0
 10
141.9508460566304
 20
137.7786776959115
 30
0.0
  0
LINE
  5
1C4
330
1F
100
AcDbEntity
  8
0
  6
Continuous
 62
     7
370
    25
100
AcDbLine
 10
148.5082845792
 20
137.7786776959
 30
0.0
 11
148.5082845792
 21
138.0173253804
 31
0.0
  0
SPLINE
  5
1C5
330
1F
100
AcDbEntity
  8
0
  6
Continuous
 62
     7
370
    25
100
AcDbSpline
210
0.0
220
0.0
230
1.0
 70
    24
 71
     3
 72
     9
 73
     5
 74
     0
 42
0.000000001
 43
0.00000001
 40
0.0
 40
0.0
 40
0.0
 40
0.0
 40
0.5983245685372228
 40
0.9999999999999999
 40
0.9999999999999999
 40
0.9999999999999999
 40
0.9999999999999999
 10
148.5082845792077
 20
137.7786776959115
 30
0.0
 10
148.1738488738922
 20
137.7786776959115
 30
0.0
 10
147.6148952174628
 20
137.7786776959115
 30
0.0
 10
147.0651797065546
 20
137.7786776959115
 30
0.0
 10
146.8443724915288
 20
137.7786776959115
 30
0.0
  0
SPLINE
  5
1C6
330
1F
100
AcDbEntity
  8
0
  6
Continuous
 62
     7
370
    25
100
AcDbSpline
210
0.0
220
0.0
230
1.0
 70
     8
 71
     3
 72
    12
 73
     8
 74
     0
 42
0.000000001
 43
0.00000001
 40
0.0
 40
0.0
 40
0.0
 40
0.0
 40
0.2500000000000001
 40
0.2500000000000001
 40
0.5000000000000002
 40
0.5000000000000002
 40
1.0
 40
1.0
 40
1.0
 40
1.0
 10
133.8770509819632
 20
159.322133485678
 30
0.0
 10
133.9250929525994
 20
159.3970817632257
 30
0.0
 10
133.9617865952465
 20
159.4632652183359
 30
0.0
 10
134.0277772766777
 20
159.5772467237709
 30
0.0
 10
134.0565507648571
 20
159.6251281607504
 30
0.0
 10
134.1370264718752
 20
159.7400516266644
 30
0.0
 10
134.1831561750758
 20
159.7786776363069
 30
0.0
 10
134.229565317919
 20
159.7786776363069
 30
0.0
  0
SPLINE
  5
1C7
330
1F
100
AcDbEntity
  8
0
  6
Continuous
 62
     7
370
    25
100
AcDbSpline
210
0.0
220
0.0
230
1.0
 70
     8
 71
     3
 72
     8
 73
     4
 74
     0
 42
0.000000001
 43
0.00000001
 40
0.0
 40
0.0
 40
0.0
 40
0.0
 40
1.0
 40
1.0
 40
1.0
 40
1.0
 10
133.729565317919
 20
158.8221558971764
 30
0.0
 10
133.729565317919
 20
159.0203962289911
 30
0.0
 10
133.7898598024046
 20
159.1861101577687
 30
0.0
 10
133.8770509819632
 20
159.322133485678
 30
0.0
  0
LINE
  5
1C8
330
1F
100
AcDbEntity
  8
0
  6
Continuous
 62
     7
370
    25
100
AcDbLine
 10
133.7295652956
 20
154.2106770887
 30
0.0
 11
133.7295652956
 21
158.8221562072
 31
0.0
  0
LINE
  5
1C9
330
1F
100
AcDbEntity
  8
0
  6
Continuous
 62
     7
370
    25
100
AcDbLine
 10
134.7295654595
 20
154.2106770887
 30
0.0
 11
133.7295652956
 21
154.2106770887
 31
0.0
  0
SPLINE
  5
1CA
330
1F
100
AcDbEntity
  8
0
  6
Continuous
 62
     7
370
    25
100
AcDbSpline
210
0.0
220
0.0
230
1.0
 70
     8
 71
     3
 72
    10
 73
     6
 74
     0
 42
0.000000001
 43
0.00000001
 40
0.0
 40
0.0
 40
0.0
 40
0.0
 40
0.5
 40
0.5
 40
1.0
 40
1.0
 40
1.0
 40
1.0
 10
135.0831187085123
 20
153.9562460677218
 30
0.0
 10
135.0475660576252
 20
154.0199916077565
 30
0.0
 10
135.0031552857982
 20
154.079970245995
 30
0.0
 10
134.8865701477571
 20
154.1755714843028
 30
0.0
 10
134.8108021386475
 20
154.2106769235941
 30
0.0
 10
134.729565317919
 20
154.2106769235941
 30
0.0
  0
SPLINE
  5
1CB
330
1F
100
AcDbEntity
  8
0
  6
Continuous
 62
     7
370
    25
100
AcDbSpline
210
0.0
220
0.0
230
1.0
 70
     8
 71
     3
 72
    10
 73
     6
 74
     0
 42
0.000000001
 43
0.00000001
 40
0.0
 40
0.0
 40
0.0
 40
0.0
 40
0.5
 40
0.5
 40
1.0
 40
1.0
 40
1.0
 40
1.0
 10
134.729565317919
 20
143.3466783490196
 30
0.0
 10
134.8108021386475
 20
143.3466783490196
 30
0.0
 10
134.8865701477571
 20
143.3817837883109
 30
0.0
 10
135.0031552857982
 20
143.4773850266188
 30
0.0
 10
135.0475660576252
 20
143.5373636648573
 30
0.0
 10
135.0831187085123
 20
143.6011092048919
 30
0.0
  0
LINE
  5
1CC
330
1F
100
AcDbEntity
  8
0
  6
Continuous
 62
     7
370
    25
100
AcDbLine
 10
133.7295652956
 20
143.3466781839
 30
0.0
 11
134.7295654595
 21
143.3466781839
 31
0.0
  0
LINE
  5
1CD
330
1F
100
AcDbEntity
  8
0
  6
Continuous
 62
     7
370
    25
100
AcDbLine
 10
133.7295652956
 20
138.7351990654
 30
0.0
 11
133.7295652956
 21
143.3466781839
 31
0.0
  0
SPLINE
  5
1CE
330
1F
100
AcDbEntity
  8
0
  6
Continuous
 62
     7
370
    25
100
AcDbSpline
210
0.0
220
0.0
230
1.0
 70
     8
 71
     3
 72
     8
 73
     4
 74
     0
 42
0.000000001
 43
0.00000001
 40
0.0
 40
0.0
 40
0.0
 40
0.0
 40
1.0
 40
1.0
 40
1.0
 40
1.0
 10
133.8770509819631
 20
138.2352217869358
 30
0.0
 10
133.7898598024046
 20
138.3712451148451
 30
0.0
 10
133.729565317919
 20
138.5369590436226
 30
0.0
 10
133.729565317919
 20
138.7351993754373
 30
0.0
  0
SPLINE
  5
1CF
330
1F
100
AcDbEntity
  8
0
  6
Continuous
 62
     7
370
    25
100
AcDbSpline
210
0.0
220
0.0
230
1.0
 70
     8
 71
     3
 72
    12
 73
     8
 74
     0
 42
0.000000001
 43
0.00000001
 40
0.0
 40
0.0
 40
0.0
 40
0.0
 40
0.2499999999999999
 40
0.2499999999999999
 40
0.4999999999999998
 40
0.4999999999999998
 40
1.0
 40
1.0
 40
1.0
 40
1.0
 10
133.8770509819631
 20
138.2352217869358
 30
0.0
 10
133.9250761996058
 20
138.1602996450356
 30
0.0
 10
133.9617604698807
 20
138.0941361896517
 30
0.0
 10
134.0277343628101
 20
137.9801816616015
 30
0.0
 10
134.0564859953784
 20
137.9323258561408
 30
0.0
 10
134.1370408961684
 20
137.8172705605204
 30
0.0
 10
134.1831723727873
 20
137.7786776363069
 30
0.0
 10
134.229565317919
 20
137.7786776363069
 30
0.0
  0
SPLINE
  5
1D0
330
1F
100
AcDbEntity
  8
0
  6
Continuous
 62
     7
370
    25
100
AcDbSpline
210
0.0
220
0.0
230
1.0
 70
     8
 71
     3
 72
    12
 73
     8
 74
     0
 42
0.000000001
 43
0.00000001
 40
0.0
 40
0.0
 40
0.0
 40
0.0
 40
0.2499999999999999
 40
0.2499999999999999
 40
0.4999999999999998
 40
0.4999999999999998
 40
1.0
 40
1.0
 40
1.0
 40
1.0
 10
156.5820796538749
 20
138.2352217869358
 30
0.0
 10
156.534037683245
 20
138.160273509398
 30
0.0
 10
156.4973440406014
 20
138.0940900542953
 30
0.0
 10
156.4313533591767
 20
137.9801085488705
 30
0.0
 10
156.4025798709997
 20
137.9322271118937
 30
0.0
 10
156.322104163989
 20
137.8173036459797
 30
0.0
 10
156.2759744607443
 20
137.7786776363069
 30
0.0
 10
156.229565317919
 20
137.7786776363069
 30
0.0
  0
SPLINE
  5
1D1
330
1F
100
AcDbEntity
  8
0
  6
Continuous
 62
     7
370
    25
100
AcDbSpline
210
0.0
220
0.0
230
1.0
 70
     8
 71
     3
 72
     8
 73
     4
 74
     0
 42
0.000000001
 43
0.00000001
 40
0.0
 40
0.0
 40
0.0
 40
0.0
 40
1.0
 40
1.0
 40
1.0
 40
1.0
 10
156.729565317919
 20
138.7351993754373
 30
0.0
 10
156.729565317919
 20
138.5369590436226
 30
0.0
 10
156.6692708334334
 20
138.3712451148451
 30
0.0
 10
156.5820796538749
 20
138.2352217869358
 30
0.0
  0
LINE
  5
1D2
330
1F
100
AcDbEntity
  8
0
  6
Continuous
 62
     7
370
    25
100
AcDbLine
 10
156.7295653403
 20
143.3466781839
 30
0.0
 11
156.7295653403
 21
138.7351990654
 31
0.0
  0
LINE
  5
1D3
330
1F
100
AcDbEntity
  8
0
  6
Continuous
 62
     7
370
    25
100
AcDbLine
 10
155.7295651764
 20
143.3466781839
 30
0.0
 11
156.7295653403
 21
143.3466781839
 31
0.0
  0
SPLINE
  5
1D4
330
1F
100
AcDbEntity
  8
0
  6
Continuous
 62
     7
370
    25
100
AcDbSpline
210
0.0
220
0.0
230
1.0
 70
     8
 71
     3
 72
    10
 73
     6
 74
     0
 42
0.000000001
 43
0.00000001
 40
0.0
 40
0.0
 40
0.0
 40
0.0
 40
0.5
 40
0.5
 40
1.0
 40
1.0
 40
1.0
 40
1.0
 10
155.3760119273257
 20
143.6011092048919
 30
0.0
 10
155.4115645782128
 20
143.5373636648572
 30
0.0
 10
155.4559753500399
 20
143.4773850266187
 30
0.0
 10
155.5725604880809
 20
143.3817837883109
 30
0.0
 10
155.6483284971906
 20
143.3466783490196
 30
0.0
 10
155.729565317919
 20
143.3466783490196
 30
0.0
  0
SPLINE
  5
1D5
330
1F
100
AcDbEntity
  8
0
  6
Continuous
 62
     7
370
    25
100
AcDbSpline
210
0.0
220
0.0
230
1.0
 70
     8
 71
     3
 72
    10
 73
     6
 74
     0
 42
0.000000001
 43
0.00000001
 40
0.0
 40
0.0
 40
0.0
 40
0.0
 40
0.5
 40
0.5
 40
1.0
 40
1.0
 40
1.0
 40
1.0
 10
155.729565317919
 20
154.2106769235941
 30
0.0
 10
155.6483284971906
 20
154.2106769235941
 30
0.0
 10
155.5725604880809
 20
154.1755714843028
 30
0.0
 10
155.4559753500399
 20
154.079970245995
 30
0.0
 10
155.4115645782128
 20
154.0199916077565
 30
0.0
 10
155.3760119273257
 20
153.9562460677218
 30
0.0
  0
LINE
  5
1D6
330
1F
100
AcDbEntity
  8
0
  6
Continuous
 62
     7
370
    25
100
AcDbLine
 10
156.7295653403
 20
154.2106770887
 30
0.0
 11
155.7295651764
 21
154.2106770887
 31
0.0
  0
LINE
  5
1D7
330
1F
100
AcDbEntity
  8
0
  6
Continuous
 62
     7
370
    25
100
AcDbLine
 10
156.7295653403
 20
158.8221562072
 30
0.0
 11
156.7295653403
 21
154.2106770887
 31
0.0
  0
SPLINE
  5
1D8
330
1F
100
AcDbEntity
  8
0
  6
Continuous
 62
     7
370
    25
100
AcDbSpline
210
0.0
220
0.0
230
1.0
 70
     8
 71
     3
 72
     8
 73
     4
 74
     0
 42
0.000000001
 43
0.00000001
 40
0.0
 40
0.0
 40
0.0
 40
0.0
 40
1.0
 40
1.0
 40
1.0
 40
1.0
 10
156.5820796538749
 20
159.3221334856779
 30
0.0
 10
156.6692708334334
 20
159.1861101577687
 30
0.0
 10
156.729565317919
 20
159.0203962289911
 30
0.0
 10
156.729565317919
 20
158.8221558971764
 30
0.0
  0
SPLINE
  5
1D9
330
1F
100
AcDbEntity
  8
0
  6
Continuous
 62
     7
370
    25
100
AcDbSpline
210
0.0
220
0.0
230
1.0
 70
     8
 71
     3
 72
    12
 73
     8
 74
     0
 42
0.000000001
 43
0.00000001
 40
0.0
 40
0.0
 40
0.0
 40
0.0
 40
0.2500000000000001
 40
0.2500000000000001
 40
0.5000000000000001
 40
0.5000000000000001
 40
1.0
 40
1.0
 40
1.0
 40
1.0
 10
156.5820796538749
 20
159.3221334856779
 30
0.0
 10
156.534037683245
 20
159.3970817632157
 30
0.0
 10
156.4973440406014
 20
159.4632652183185
 30
0.0
 10
156.4313533591767
 20
159.5772467237432
 30
0.0
 10
156.4025798709997
 20
159.62512816072
 30
0.0
 10
156.322104163989
 20
159.7400516266341
 30
0.0
 10
156.2759744607445
 20
159.7786776363069
 30
0.0
 10
156.229565317919
 20
159.7786776363069
 30
0.0
  0
ARC
  5
1DA
330
1F
100
AcDbEntity
  8
0
  6
Continuous
 62
     7
370
    25
100
AcDbCircle
 10
136.2295653179
 20
159.2786776363
 30
0.0
 40
0.5
100
AcDbArc
 50
90.0
 51
180.0
  0
LINE
  5
1DB
330
1F
100
AcDbEntity
  8
0
  6
Continuous
 62
     7
370
    25
100
AcDbLine
 10
140.5391496263
 20
159.2786774947
 30
0.0
 11
135.7295656234
 21
159.2786774947
 31
0.0
  0
LINE
  5
1DC
330
1F
100
AcDbEntity
  8
0
  6
Continuous
 62
     7
370
    25
100
AcDbLine
 10
136.2295657053
 20
159.7786775767
 30
0.0
 11
141.9508460566
 21
159.7786775767
 31
0.0
  0
LINE
  5
1DD
330
1F
100
AcDbEntity
  8
0
  6
Continuous
 62
     7
370
    25
100
AcDbLine
 10
154.7295650124
 20
159.2786774947
 30
0.0
 11
149.9199810095
 21
159.2786774947
 31
0.0
  0
ARC
  5
1DE
330
1F
100
AcDbEntity
  8
0
  6
Continuous
 62
     7
370
    25
100
AcDbCircle
 10
154.2295653179
 20
159.2786776363
 30
0.0
 40
0.5
100
AcDbArc
 50
0.0
 51
90.0
  0
LINE
  5
1DF
330
1F
100
AcDbEntity
  8
0
  6
Continuous
 62
     7
370
    25
100
AcDbLine
 10
148.5082845792
 20
159.7786775767
 30
0.0
 11
154.2295649305
 21
159.7786775767
 31
0.0
  0
LINE
  5
1E0
330
1F
100
AcDbEntity
  8
0
  6
Continuous
 62
     7
370
    25
100
AcDbLine
 10
135.7295656234
 20
155.2594184852
 30
0.0
 11
135.7295656234
 21
159.2786774947
 31
0.0
  0
LINE
  5
1E1
330
1F
100
AcDbEntity
  8
0
  6
Continuous
 62
     7
370
    25
100
AcDbLine
 10
154.7295650124
 20
155.2594184852
 30
0.0
 11
154.7295650124
 21
159.2786774947
 31
0.0
  0
LINE
  5
1E2
330
1F
100
AcDbEntity
  8
0
  6
Continuous
 62
     7
370
    25
100
AcDbLine
 10
135.7295656234
 20
138.2786777779
 30
0.0
 11
140.5391496263
 21
138.2786777779
 31
0.0
  0
LINE
  5
1E3
330
1F
100
AcDbEntity
  8
0
  6
Continuous
 62
     7
370
    25
100
AcDbLine
 10
135.7295656234
 20
138.2786777779
 30
0.0
 11
135.7295656234
 21
142.2979367874
 31
0.0
  0
LINE
  5
1E4
330
1F
100
AcDbEntity
  8
0
  6
Continuous
 62
     7
370
    25
100
AcDbLine
 10
149.9199810095
 20
138.2786777779
 30
0.0
 11
154.7295650124
 21
138.2786777779
 31
0.0
  0
LINE
  5
1E5
330
1F
100
AcDbEntity
  8
0
  6
Continuous
 62
     7
370
    25
100
AcDbLine
 10
154.7295650124
 20
138.2786777779
 30
0.0
 11
154.7295650124
 21
142.2979367874
 31
0.0
  0
ARC
  5
1E6
330
1F
100
AcDbEntity
  8
0
  6
Continuous
 62
     7
370
    25
100
AcDbCircle
 10
154.2295653179
 20
138.2786776363
 30
0.0
 40
0.5
100
AcDbArc
 50
270.0
 51
0.0
  0
LINE
  5
1E7
330
1F
100
AcDbEntity
  8
0
  6
Continuous
 62
     7
370
    25
100
AcDbLine
 10
154.2295649305
 20
137.7786776959
 30
0.0
 11
148.5082845792
 21
137.7786776959
 31
0.0
  0
ARC
  5
1E8
330
1F
100
AcDbEntity
  8
0
  6
Continuous
 62
     7
370
    25
100
AcDbCircle
 10
136.2295653179
 20
138.2786776363
 30
0.0
 40
0.5
100
AcDbArc
 50
180.0
 51
270.0
  0
LINE
  5
1E9
330
1F
100
AcDbEntity
  8
0
  6
Continuous
 62
     7
370
    25
100
AcDbLine
 10
141.9508460566
 20
137.7786776959
 30
0.0
 11
136.2295657053
 21
137.7786776959
 31
0.0
  0
LINE
  5
1EA
330
1F
100
AcDbEntity
  8
0
  6
Continuous
 62
     7
370
    25
100
AcDbLine
 10
135.7295656234
 20
159.2786774947
 30
0.0
 11
134.7295654595
 21
159.2786774947
 31
0.0
  0
LINE
  5
1EB
330
1F
100
AcDbEntity
  8
0
  6
Continuous
 62
     7
370
    25
100
AcDbLine
 10
134.7295654595
 20
159.7786775767
 30
0.0
 11
134.7295654595
 21
159.2786774947
 31
0.0
  0
LINE
  5
1EC
330
1F
100
AcDbEntity
  8
0
  6
Continuous
 62
     7
370
    25
100
AcDbLine
 10
134.7295654595
 20
159.7786775767
 30
0.0
 11
136.2295657053
 21
159.7786775767
 31
0.0
  0
SPLINE
  5
1ED
330
1F
100
AcDbEntity
  8
0
  6
Continuous
 62
     7
370
    25
100
AcDbSpline
210
0.0
220
0.0
230
1.0
 70
     8
 71
     3
 72
    10
 73
     6
 74
     0
 42
0.000000001
 43
0.00000001
 40
0.0
 40
0.0
 40
0.0
 40
0.0
 40
0.5
 40
0.5
 40
1.0
 40
1.0
 40
1.0
 40
1.0
 10
134.729565317919
 20
154.4575859821072
 30
0.0
 10
134.8706686345578
 20
154.4575859821072
 30
0.0
 10
135.0095949305141
 20
154.4304698241695
 30
0.0
 10
135.251209214423
 20
154.3357635756782
 30
0.0
 10
135.3537055283038
 20
154.269350063003
 30
0.0
 10
135.4366720991056
 20
154.1915900873316
 30
0.0
  0
LINE
  5
1EE
330
1F
100
AcDbEntity
  8
0
  6
Continuous
 62
     7
370
    25
100
AcDbLine
 10
134.7295654595
 20
154.4575860701
 30
0.0
 11
134.7295654595
 21
159.2786774947
 31
0.0
  0
LINE
  5
1EF
330
1F
100
AcDbEntity
  8
0
  6
Continuous
 62
     7
370
    25
100
AcDbLine
 10
155.7295651764
 20
159.7786775767
 30
0.0
 11
155.7295651764
 21
159.2786774947
 31
0.0
  0
LINE
  5
1F0
330
1F
100
AcDbEntity
  8
0
  6
Continuous
 62
     7
370
    25
100
AcDbLine
 10
155.7295651764
 20
159.2786774947
 30
0.0
 11
154.7295650124
 21
159.2786774947
 31
0.0
  0
LINE
  5
1F1
330
1F
100
AcDbEntity
  8
0
  6
Continuous
 62
     7
370
    25
100
AcDbLine
 10
154.2295649305
 20
159.7786775767
 30
0.0
 11
155.7295651764
 21
159.7786775767
 31
0.0
  0
LINE
  5
1F2
330
1F
100
AcDbEntity
  8
0
  6
Continuous
 62
     7
370
    25
100
AcDbLine
 10
155.7295651764
 20
154.4575860701
 30
0.0
 11
155.7295651764
 21
159.2786774947
 31
0.0
  0
SPLINE
  5
1F3
330
1F
100
AcDbEntity
  8
0
  6
Continuous
 62
     7
370
    25
100
AcDbSpline
210
0.0
220
0.0
230
1.0
 70
     8
 71
     3
 72
    10
 73
     6
 74
     0
 42
0.000000001
 43
0.00000001
 40
0.0
 40
0.0
 40
0.0
 40
0.0
 40
0.5
 40
0.5
 40
1.0
 40
1.0
 40
1.0
 40
1.0
 10
155.0224585367325
 20
154.1915900873316
 30
0.0
 10
155.1054251075343
 20
154.269350063003
 30
0.0
 10
155.2079214214151
 20
154.3357635756782
 30
0.0
 10
155.4495357053239
 20
154.4304698241695
 30
0.0
 10
155.5884620012803
 20
154.4575859821072
 30
0.0
 10
155.729565317919
 20
154.4575859821072
 30
0.0
  0
LINE
  5
1F4
330
1F
100
AcDbEntity
  8
0
  6
Continuous
 62
     7
370
    25
100
AcDbLine
 10
134.7295654595
 20
138.2786777779
 30
0.0
 11
135.7295656234
 21
138.2786777779
 31
0.0
  0
LINE
  5
1F5
330
1F
100
AcDbEntity
  8
0
  6
Continuous
 62
     7
370
    25
100
AcDbLine
 10
134.7295654595
 20
138.2786777779
 30
0.0
 11
134.7295654595
 21
143.0997692025
 31
0.0
  0
SPLINE
  5
1F6
330
1F
100
AcDbEntity
  8
0
  6
Continuous
 62
     7
370
    25
100
AcDbSpline
210
0.0
220
0.0
230
1.0
 70
     8
 71
     3
 72
    10
 73
     6
 74
     0
 42
0.000000001
 43
0.00000001
 40
0.0
 40
0.0
 40
0.0
 40
0.0
 40
0.5
 40
0.5
 40
1.0
 40
1.0
 40
1.0
 40
1.0
 10
135.4366720991056
 20
143.3657651852821
 30
0.0
 10
135.3537055283038
 20
143.2880052096107
 30
0.0
 10
135.251209214423
 20
143.2215916969355
 30
0.0
 10
135.0095949305141
 20
143.1268854484442
 30
0.0
 10
134.8706686345578
 20
143.0997692905066
 30
0.0
 10
134.729565317919
 20
143.0997692905066
 30
0.0
  0
LINE
  5
1F7
330
1F
100
AcDbEntity
  8
0
  6
Continuous
 62
     7
370
    25
100
AcDbLine
 10
154.7295650124
 20
138.2786777779
 30
0.0
 11
155.7295651764
 21
138.2786777779
 31
0.0
  0
SPLINE
  5
1F8
330
1F
100
AcDbEntity
  8
0
  6
Continuous
 62
     7
370
    25
100
AcDbSpline
210
0.0
220
0.0
230
1.0
 70
     8
 71
     3
 72
    10
 73
     6
 74
     0
 42
0.000000001
 43
0.00000001
 40
0.0
 40
0.0
 40
0.0
 40
0.0
 40
0.5
 40
0.5
 40
1.0
 40
1.0
 40
1.0
 40
1.0
 10
155.729565317919
 20
143.0997692905066
 30
0.0
 10
155.5884620012803
 20
143.0997692905066
 30
0.0
 10
155.4495357053239
 20
143.1268854484442
 30
0.0
 10
155.2079214214151
 20
143.2215916969355
 30
0.0
 10
155.1054251075343
 20
143.2880052096107
 30
0.0
 10
155.0224585367325
 20
143.3657651852821
 30
0.0
  0
LINE
  5
1F9
330
1F
100
AcDbEntity
  8
0
  6
Continuous
 62
     7
370
    25
100
AcDbLine
 10
155.7295651764
 20
138.2786777779
 30
0.0
 11
155.7295651764
 21
143.0997692025
 31
0.0
  0
LINE
  5
1FA
330
1F
100
AcDbEntity
  8
0
  6
Continuous
 62
     7
370
    25
100
AcDbLine
 10
134.7295654595
 20
137.7786776959
 30
0.0
 11
134.7295654595
 21
138.2786777779
 31
0.0
  0
LINE
  5
1FB
330
1F
100
AcDbEntity
  8
0
  6
Continuous
 62
     7
370
    25
100
AcDbLine
 10
136.2295657053
 20
137.7786776959
 30
0.0
 11
134.7295654595
 21
137.7786776959
 31
0.0
  0
LINE
  5
1FC
330
1F
100
AcDbEntity
  8
0
  6
Continuous
 62
     7
370
    25
100
AcDbLine
 10
155.7295651764
 20
137.7786776959
 30
0.0
 11
155.7295651764
 21
138.2786777779
 31
0.0
  0
LINE
  5
1FD
330
1F
100
AcDbEntity
  8
0
  6
Continuous
 62
     7
370
    25
100
AcDbLine
 10
155.7295651764
 20
137.7786776959
 30
0.0
 11
154.2295649305
 21
137.7786776959
 31
0.0
  0
ARC
  5
1FE
330
1F
100
AcDbEntity
  8
0
  6
Continuous
 62
     7
370
    25
100
AcDbCircle
 10
134.6898881983
 20
154.9302311711
 30
0.0
 40
1.050369871327904
100
AcDbArc
 50
291.985593584
 51
315.314082801
  0
ARC
  5
1FF
330
1F
100
AcDbEntity
  8
0
  6
Continuous
 62
     7
370
    25
100
AcDbCircle
 10
155.7692424376
 20
154.9302311711
 30
0.0
 40
1.050369871327904
100
AcDbArc
 50
224.685917199
 51
248.014406416
  0
ARC
  5
200
330
1F
100
AcDbEntity
  8
0
  6
Continuous
 62
     7
370
    25
100
AcDbCircle
 10
134.6898881983
 20
142.6271241016
 30
0.0
 40
1.050369871327855
100
AcDbArc
 50
44.685917199
 51
68.014406416
  0
ARC
  5
201
330
1F
100
AcDbEntity
  8
0
  6
Continuous
 62
     7
370
    25
100
AcDbCircle
 10
155.7692424376
 20
142.6271241016
 30
0.0
 40
1.050369871327855
100
AcDbArc
 50
111.985593584
 51
135.314082801
  0
LINE
  5
202
330
1F
100
AcDbEntity
  8
0
  6
Continuous
 62
     7
370
    25
100
AcDbLine
 10
134.7295654595
 20
154.2106770887
 30
0.0
 11
134.7295654595
 21
154.4575860701
 31
0.0
  0
LINE
  5
203
330
1F
100
AcDbEntity
  8
0
  6
Continuous
 62
     7
370
    25
100
AcDbLine
 10
155.7295651764
 20
154.2106770887
 30
0.0
 11
155.7295651764
 21
154.4575860701
 31
0.0
  0
LINE
  5
204
330
1F
100
AcDbEntity
  8
0
  6
Continuous
 62
     7
370
    25
100
AcDbLine
 10
134.7295654595
 20
143.3466781839
 30
0.0
 11
134.7295654595
 21
143.0997692025
 31
0.0
  0
LINE
  5
205
330
1F
100
AcDbEntity
  8
0
  6
Continuous
 62
     7
370
    25
100
AcDbLine
 10
155.7295651764
 20
143.3466781839
 30
0.0
 11
155.7295651764
 21
143.0997692025
 31
0.0
  0
SPLINE
  5
206
330
1F
100
AcDbEntity
  8
0
  6
Continuous
 62
     7
370
    25
100
AcDbSpline
210
0.0
220
0.0
230
1.0
 70
     8
 71
     3
 72
     8
 73
     4
 74
     0
 42
0.000000001
 43
0.00000001
 40
0.0
 40
0.0
 40
0.0
 40
0.0
 40
1.0
 40
1.0
 40
1.0
 40
1.0
 10
133.9812628418744
 20
154.4575859821072
 30
0.0
 10
133.9010520634758
 20
154.3665102283907
 30
0.0
 10
133.8150515667532
 20
154.2833788703101
 30
0.0
 10
133.729565317919
 20
154.2106769235941
 30
0.0
  0
ARC
  5
207
330
1F
100
AcDbEntity
  8
0
  6
Continuous
 62
     7
370
    25
100
AcDbCircle
 10
133.7503596808
 20
159.3014519063
 30
0.0
 40
0.4797465722737297
100
AcDbArc
 50
267.5157636109
 51
357.2790461907
  0
SPLINE
  5
208
330
1F
100
AcDbEntity
  8
0
  6
Continuous
 62
     7
370
    25
100
AcDbSpline
210
0.0
220
0.0
230
1.0
 70
     8
 71
     3
 72
    12
 73
     8
 74
     0
 42
0.000000001
 43
0.00000001
 40
0.0
 40
0.0
 40
0.0
 40
0.0
 40
0.5
 40
0.5
 40
0.75
 40
0.75
 40
1.0
 40
1.0
 40
1.0
 40
1.0
 10
134.229565317919
 20
155.2594183347148
 30
0.0
 10
134.229565317919
 20
155.1156992731967
 30
0.0
 10
134.2110805867817
 20
154.9750069848014
 30
0.0
 10
134.1529444029011
 20
154.7689478730898
 30
0.0
 10
134.1280996168591
 20
154.7008779779509
 30
0.0
 10
134.0661549567814
 20
154.572905371862
 30
0.0
 10
134.0293193961643
 20
154.5121520515369
 30
0.0
 10
133.981262841873
 20
154.4575859821076
 30
0.0
  0
ARC
  5
209
330
1F
100
AcDbEntity
  8
0
  6
Continuous
 62
     7
370
    25
100
AcDbCircle
 10
156.7087709551
 20
159.3014519063
 30
0.0
 40
0.4797465722737297
100
AcDbArc
 50
182.7209538093
 51
272.4842363891
  0
SPLINE
  5
20A
330
1F
100
AcDbEntity
  8
0
  6
Continuous
 62
     7
370
    25
100
AcDbSpline
210
0.0
220
0.0
230
1.0
 70
     8
 71
     3
 72
     8
 73
     4
 74
     0
 42
0.000000001
 43
0.00000001
 40
0.0
 40
0.0
 40
0.0
 40
0.0
 40
1.0
 40
1.0
 40
1.0
 40
1.0
 10
156.4778677939637
 20
154.4575859821072
 30
0.0
 10
156.5580785723622
 20
154.3665102283907
 30
0.0
 10
156.644079069086
 20
154.283378870311
 30
0.0
 10
156.729565317919
 20
154.2106769235941
 30
0.0
  0
SPLINE
  5
20B
330
1F
100
AcDbEntity
  8
0
  6
Continuous
 62
     7
370
    25
100
AcDbSpline
210
0.0
220
0.0
230
1.0
 70
     8
 71
     3
 72
    10
 73
     6
 74
     0
 42
0.000000001
 43
0.00000001
 40
0.0
 40
0.0
 40
0.0
 40
0.0
 40
0.5
 40
0.5
 40
1.0
 40
1.0
 40
1.0
 40
1.0
 10
156.4778677939637
 20
154.4575859821072
 30
0.0
 10
156.3823907250322
 20
154.5659959263714
 30
0.0
 10
156.3255119198235
 20
154.7006632157296
 30
0.0
 10
156.2484144112962
 20
154.9735026800908
 30
0.0
 10
156.229565317919
 20
155.1161382169238
 30
0.0
 10
156.229565317919
 20
155.2594183347148
 30
0.0
  0
LINE
  5
20C
330
1F
100
AcDbEntity
  8
0
  6
Continuous
 62
     7
370
    25
100
AcDbLine
 10
133.9812626719
 20
154.4575860701
 30
0.0
 11
134.7295654595
 21
154.4575860701
 31
0.0
  0
LINE
  5
20D
330
1F
100
AcDbEntity
  8
0
  6
Continuous
 62
     7
370
    25
100
AcDbLine
 10
155.7295651764
 20
154.4575860701
 30
0.0
 11
156.4778679639
 21
154.4575860701
 31
0.0
  0
LINE
  5
20E
330
1F
100
AcDbEntity
  8
0
  6
Continuous
 62
     7
370
    25
100
AcDbLine
 10
134.7295654595
 20
143.0997692025
 30
0.0
 11
133.9812626719
 21
143.0997692025
 31
0.0
  0
SPLINE
  5
20F
330
1F
100
AcDbEntity
  8
0
  6
Continuous
 62
     7
370
    25
100
AcDbSpline
210
0.0
220
0.0
230
1.0
 70
     8
 71
     3
 72
     8
 73
     4
 74
     0
 42
0.000000001
 43
0.00000001
 40
0.0
 40
0.0
 40
0.0
 40
0.0
 40
1.0
 40
1.0
 40
1.0
 40
1.0
 10
133.9812628418744
 20
143.0997692905066
 30
0.0
 10
133.9010520634758
 20
143.190845044223
 30
0.0
 10
133.8150515667532
 20
143.2739764023037
 30
0.0
 10
133.729565317919
 20
143.3466783490196
 30
0.0
  0
ARC
  5
210
330
1F
100
AcDbEntity
  8
0
  6
Continuous
 62
     7
370
    25
100
AcDbCircle
 10
133.7503596808
 20
138.2559033664
 30
0.0
 40
0.4797465722737284
100
AcDbArc
 50
2.7209538093
 51
92.4842363891
  0
SPLINE
  5
211
330
1F
100
AcDbEntity
  8
0
  6
Continuous
 62
     7
370
    25
100
AcDbSpline
210
0.0
220
0.0
230
1.0
 70
     8
 71
     3
 72
    10
 73
     6
 74
     0
 42
0.000000001
 43
0.00000001
 40
0.0
 40
0.0
 40
0.0
 40
0.0
 40
0.5
 40
0.5
 40
1.0
 40
1.0
 40
1.0
 40
1.0
 10
133.9812628418744
 20
143.0997692905066
 30
0.0
 10
134.0767399108058
 20
142.9913593462426
 30
0.0
 10
134.1336187160144
 20
142.8566920568846
 30
0.0
 10
134.2107162245417
 20
142.5838525925238
 30
0.0
 10
134.2295653179189
 20
142.4412170556911
 30
0.0
 10
134.229565317919
 20
142.2979369379004
 30
0.0
  0
SPLINE
  5
212
330
1F
100
AcDbEntity
  8
0
  6
Continuous
 62
     7
370
    25
100
AcDbSpline
210
0.0
220
0.0
230
1.0
 70
     8
 71
     3
 72
     8
 73
     4
 74
     0
 42
0.000000001
 43
0.00000001
 40
0.0
 40
0.0
 40
0.0
 40
0.0
 40
1.0
 40
1.0
 40
1.0
 40
1.0
 10
156.4778677939637
 20
143.0997692905066
 30
0.0
 10
156.5580785723622
 20
143.190845044223
 30
0.0
 10
156.644079069086
 20
143.2739764023027
 30
0.0
 10
156.729565317919
 20
143.3466783490196
 30
0.0
  0
LINE
  5
213
330
1F
100
AcDbEntity
  8
0
  6
Continuous
 62
     7
370
    25
100
AcDbLine
 10
156.4778679639
 20
143.0997692025
 30
0.0
 11
155.7295651764
 21
143.0997692025
 31
0.0
  0
SPLINE
  5
214
330
1F
100
AcDbEntity
  8
0
  6
Continuous
 62
     7
370
    25
100
AcDbSpline
210
0.0
220
0.0
230
1.0
 70
     8
 71
     3
 72
    12
 73
     8
 74
     0
 42
0.000000001
 43
0.00000001
 40
0.0
 40
0.0
 40
0.0
 40
0.0
 40
0.5000000000000023
 40
0.5000000000000023
 40
0.7500000000000011
 40
0.7500000000000011
 40
1.0
 40
1.0
 40
1.0
 40
1.0
 10
156.229565317919
 20
142.297936937899
 30
0.0
 10
156.229565317919
 20
142.441655999417
 30
0.0
 10
156.2480500490564
 20
142.5823482878124
 30
0.0
 10
156.306186232937
 20
142.7884073995239
 30
0.0
 10
156.331031018979
 20
142.8564772946629
 30
0.0
 10
156.3929756790567
 20
142.9844499007517
 30
0.0
 10
156.4298112396738
 20
143.0452032210768
 30
0.0
 10
156.4778677939651
 20
143.0997692905061
 30
0.0
  0
ARC
  5
215
330
1F
100
AcDbEntity
  8
0
  6
Continuous
 62
     7
370
    25
100
AcDbCircle
 10
156.7087709551
 20
138.2559033664
 30
0.0
 40
0.4797465722737284
100
AcDbArc
 50
87.5157636109
 51
177.2790461907
  0
LINE
  5
216
330
1F
100
AcDbEntity
  8
0
  6
Continuous
 62
     7
370
    25
100
AcDbLine
 10
134.7295654595
 20
159.2786774947
 30
0.0
 11
134.2295653775
 21
159.2786774947
 31
0.0
  0
ARC
  5
217
330
1F
100
AcDbEntity
  8
0
  6
Continuous
 62
     7
370
    25
100
AcDbCircle
 10
134.7295653179
 20
159.2786776363
 30
0.0
 40
0.5
100
AcDbArc
 50
90.0
 51
180.0
  0
LINE
  5
218
330
1F
100
AcDbEntity
  8
0
  6
Continuous
 62
     7
370
    25
100
AcDbLine
 10
134.2295653775
 20
155.2594184852
 30
0.0
 11
134.2295653775
 21
159.2786774947
 31
0.0
  0
ARC
  5
219
330
1F
100
AcDbEntity
  8
0
  6
Continuous
 62
     7
370
    25
100
AcDbCircle
 10
155.7295653179
 20
159.2786776363
 30
0.0
 40
0.5
100
AcDbArc
 50
0.0
 51
90.0
  0
LINE
  5
21A
330
1F
100
AcDbEntity
  8
0
  6
Continuous
 62
     7
370
    25
100
AcDbLine
 10
156.2295652583
 20
159.2786774947
 30
0.0
 11
155.7295651764
 21
159.2786774947
 31
0.0
  0
LINE
  5
21B
330
1F
100
AcDbEntity
  8
0
  6
Continuous
 62
     7
370
    25
100
AcDbLine
 10
156.2295652583
 20
155.2594184852
 30
0.0
 11
156.2295652583
 21
159.2786774947
 31
0.0
  0
LINE
  5
21C
330
1F
100
AcDbEntity
  8
0
  6
Continuous
 62
     7
370
    25
100
AcDbLine
 10
134.2295653775
 20
138.2786777779
 30
0.0
 11
134.7295654595
 21
138.2786777779
 31
0.0
  0
LINE
  5
21D
330
1F
100
AcDbEntity
  8
0
  6
Continuous
 62
     7
370
    25
100
AcDbLine
 10
134.2295653775
 20
138.2786777779
 30
0.0
 11
134.2295653775
 21
142.2979367874
 31
0.0
  0
LINE
  5
21E
330
1F
100
AcDbEntity
  8
0
  6
Continuous
 62
     7
370
    25
100
AcDbLine
 10
156.2295652583
 20
138.2786777779
 30
0.0
 11
156.2295652583
 21
142.2979367874
 31
0.0
  0
LINE
  5
21F
330
1F
100
AcDbEntity
  8
0
  6
Continuous
 62
     7
370
    25
100
AcDbLine
 10
155.7295651764
 20
138.2786777779
 30
0.0
 11
156.2295652583
 21
138.2786777779
 31
0.0
  0
ARC
  5
220
330
1F
100
AcDbEntity
  8
0
  6
Continuous
 62
     7
370
    25
100
AcDbCircle
 10
134.7295653179
 20
138.2786776363
 30
0.0
 40
0.5
100
AcDbArc
 50
180.0
 51
270.0
  0
ARC
  5
221
330
1F
100
AcDbEntity
  8
0
  6
Continuous
 62
     7
370
    25
100
AcDbCircle
 10
155.7295653179
 20
138.2786776363
 30
0.0
 40
0.5
100
AcDbArc
 50
270.0
 51
0.0
  0
ARC
  5
222
330
1F
100
AcDbEntity
  8
0
  6
Continuous
 62
     7
370
    25
100
AcDbCircle
 10
133.9070484432
 20
159.7893312338
 30
0.0
 40
0.4681593065412952
100
AcDbArc
 50
266.3262887358
 51
327.8245327008
  0
ARC
  5
223
330
1F
100
AcDbEntity
  8
0
  6
Continuous
 62
     7
370
    25
100
AcDbCircle
 10
156.5520821927
 20
159.7893312338
 30
0.0
 40
0.4681593065412952
100
AcDbArc
 50
212.1754672992
 51
273.6737112642
  0
ARC
  5
224
330
1F
100
AcDbEntity
  8
0
  6
Continuous
 62
     7
370
    25
100
AcDbCircle
 10
156.5520821927
 20
137.7680240388
 30
0.0
 40
0.4681593065412952
100
AcDbArc
 50
86.3262887358
 51
147.8245327008
  0
ARC
  5
225
330
1F
100
AcDbEntity
  8
0
  6
Continuous
 62
     7
370
    25
100
AcDbCircle
 10
133.9070484432
 20
137.7680240388
 30
0.0
 40
0.46815930654128
100
AcDbArc
 50
32.1754672991
 51
93.6737112642
  0
SPLINE
  5
226
330
1F
100
AcDbEntity
  8
0
  6
Continuous
 62
     7
370
    25
100
AcDbSpline
210
0.0
220
0.0
230
1.0
 70
     8
 71
     3
 72
    12
 73
     8
 74
     0
 42
0.000000001
 43
0.00000001
 40
0.0
 40
0.0
 40
0.0
 40
0.0
 40
0.25
 40
0.25
 40
0.5
 40
0.5
 40
1.0
 40
1.0
 40
1.0
 40
1.0
 10
134.3033081499411
 20
159.540029557569
 30
0.0
 10
134.3260206516502
 20
159.5770729686504
 30
0.0
 10
134.3335331714794
 20
159.6112858699386
 30
0.0
 10
134.3350892461786
 20
159.6708180247996
 30
0.0
 10
134.3286624043365
 20
159.696218755822
 30
0.0
 10
134.2984374040322
 20
159.757577387551
 30
0.0
 10
134.2637418829136
 20
159.7786776363069
 30
0.0
 10
134.229565317919
 20
159.7786776363069
 30
0.0
  0
SPLINE
  5
227
330
1F
100
AcDbEntity
  8
0
  6
Continuous
 62
     7
370
    25
100
AcDbSpline
210
0.0
220
0.0
230
1.0
 70
    24
 71
     3
 72
    12
 73
     8
 74
     0
 42
0.000000001
 43
0.00000001
 40
0.0
 40
0.0
 40
0.0
 40
0.0
 40
0.2499999999999999
 40
0.2499999999999999
 40
0.4999999999999999
 40
0.4999999999999999
 40
1.0
 40
1.0
 40
1.0
 40
1.0
 10
134.729565317919
 20
159.7786776363069
 30
0.0
 10
134.729565317919
 20
159.7786776363069
 30
0.0
 10
134.7098423725111
 20
159.7786776363069
 30
0.0
 10
134.6492059077498
 20
159.7786776363069
 30
0.0
 10
134.6079493620615
 20
159.7786776363069
 30
0.0
 10
134.4661760523894
 20
159.7786776363069
 30
0.0
 10
134.3476090072291
 20
159.7786776363069
 30
0.0
 10
134.229565317919
 20
159.7786776363069
 30
0.0
  0
SPLINE
  5
228
330
1F
100
AcDbEntity
  8
0
  6
Continuous
 62
     7
370
    25
100
AcDbSpline
210
0.0
220
0.0
230
1.0
 70
     8
 71
     3
 72
    12
 73
     8
 74
     0
 42
0.000000001
 43
0.00000001
 40
0.0
 40
0.0
 40
0.0
 40
0.0
 40
0.25
 40
0.25
 40
0.5
 40
0.5
 40
1.0
 40
1.0
 40
1.0
 40
1.0
 10
156.155822485897
 20
159.540029557569
 30
0.0
 10
156.1331099841889
 20
159.5770729686487
 30
0.0
 10
156.1255974643594
 20
159.6112858699355
 30
0.0
 10
156.1240413896589
 20
159.6708180247945
 30
0.0
 10
156.1304682314999
 20
159.6962187558164
 30
0.0
 10
156.1606932318007
 20
159.7575773875453
 30
0.0
 10
156.1953887529146
 20
159.7786776363069
 30
0.0
 10
156.229565317919
 20
159.7786776363069
 30
0.0
  0
SPLINE
  5
229
330
1F
100
AcDbEntity
  8
0
  6
Continuous
 62
     7
370
    25
100
AcDbSpline
210
0.0
220
0.0
230
1.0
 70
    24
 71
     3
 72
    12
 73
     8
 74
     0
 42
0.000000001
 43
0.00000001
 40
0.0
 40
0.0
 40
0.0
 40
0.0
 40
0.2499999999999999
 40
0.2499999999999999
 40
0.4999999999999999
 40
0.4999999999999999
 40
1.0
 40
1.0
 40
1.0
 40
1.0
 10
155.729565317919
 20
159.7786776363069
 30
0.0
 10
155.729565317919
 20
159.7786776363069
 30
0.0
 10
155.7492882633269
 20
159.7786776363069
 30
0.0
 10
155.8099247280882
 20
159.7786776363069
 30
0.0
 10
155.8511812737766
 20
159.7786776363069
 30
0.0
 10
155.9929545834486
 20
159.7786776363069
 30
0.0
 10
156.111521628609
 20
159.7786776363069
 30
0.0
 10
156.229565317919
 20
159.7786776363069
 30
0.0
  0
SPLINE
  5
22A
330
1F
100
AcDbEntity
  8
0
  6
Continuous
 62
     7
370
    25
100
AcDbSpline
210
0.0
220
0.0
230
1.0
 70
     8
 71
     3
 72
    12
 73
     8
 74
     0
 42
0.000000001
 43
0.00000001
 40
0.0
 40
0.0
 40
0.0
 40
0.0
 40
0.2499999999999999
 40
0.2499999999999999
 40
0.4999999999999998
 40
0.4999999999999998
 40
1.0
 40
1.0
 40
1.0
 40
1.0
 10
134.3033081499411
 20
138.0173257150447
 30
0.0
 10
134.3260206516502
 20
137.9802823039634
 30
0.0
 10
134.3335331714794
 20
137.9460694026751
 30
0.0
 10
134.3350892461786
 20
137.8865372478141
 30
0.0
 10
134.3286624043365
 20
137.8611365167917
 30
0.0
 10
134.2984374040322
 20
137.7997778850627
 30
0.0
 10
134.263741882914
 20
137.7786776363069
 30
0.0
 10
134.229565317919
 20
137.7786776363069
 30
0.0
  0
SPLINE
  5
22B
330
1F
100
AcDbEntity
  8
0
  6
Continuous
 62
     7
370
    25
100
AcDbSpline
210
0.0
220
0.0
230
1.0
 70
    24
 71
     3
 72
    12
 73
     8
 74
     0
 42
0.000000001
 43
0.00000001
 40
0.0
 40
0.0
 40
0.0
 40
0.0
 40
0.2499999999999999
 40
0.2499999999999999
 40
0.4999999999999999
 40
0.4999999999999999
 40
1.0
 40
1.0
 40
1.0
 40
1.0
 10
134.729565317919
 20
137.7786776363069
 30
0.0
 10
134.729565317919
 20
137.7786776363069
 30
0.0
 10
134.7098423725111
 20
137.7786776363069
 30
0.0
 10
134.6492059077498
 20
137.7786776363069
 30
0.0
 10
134.6079493620615
 20
137.7786776363069
 30
0.0
 10
134.4661760523894
 20
137.7786776363069
 30
0.0
 10
134.3476090072291
 20
137.7786776363069
 30
0.0
 10
134.229565317919
 20
137.7786776363069
 30
0.0
  0
SPLINE
  5
22C
330
1F
100
AcDbEntity
  8
0
  6
Continuous
 62
     7
370
    25
100
AcDbSpline
210
0.0
220
0.0
230
1.0
 70
     8
 71
     3
 72
    12
 73
     8
 74
     0
 42
0.000000001
 43
0.00000001
 40
0.0
 40
0.0
 40
0.0
 40
0.0
 40
0.2500000000000001
 40
0.2500000000000001
 40
0.5000000000000001
 40
0.5000000000000001
 40
1.0
 40
1.0
 40
1.0
 40
1.0
 10
156.155822485897
 20
138.0173257150447
 30
0.0
 10
156.1331099841889
 20
137.9802823039651
 30
0.0
 10
156.1255974643595
 20
137.9460694026783
 30
0.0
 10
156.1240413896589
 20
137.8865372478193
 30
0.0
 10
156.1304682314999
 20
137.8611365167974
 30
0.0
 10
156.1606932318007
 20
137.7997778850685
 30
0.0
 10
156.1953887529144
 20
137.7786776363069
 30
0.0
 10
156.229565317919
 20
137.7786776363069
 30
0.0
  0
SPLINE
  5
22D
330
1F
100
AcDbEntity
  8
0
  6
Continuous
 62
     7
370
    25
100
AcDbSpline
210
0.0
220
0.0
230
1.0
 70
    24
 71
     3
 72
    12
 73
     8
 74
     0
 42
0.000000001
 43
0.00000001
 40
0.0
 40
0.0
 40
0.0
 40
0.0
 40
0.2499999999999999
 40
0.2499999999999999
 40
0.4999999999999999
 40
0.4999999999999999
 40
1.0
 40
1.0
 40
1.0
 40
1.0
 10
155.729565317919
 20
137.7786776363069
 30
0.0
 10
155.729565317919
 20
137.7786776363069
 30
0.0
 10
155.7492882633269
 20
137.7786776363069
 30
0.0
 10
155.8099247280882
 20
137.7786776363069
 30
0.0
 10
155.8511812737766
 20
137.7786776363069
 30
0.0
 10
155.9929545834486
 20
137.7786776363069
 30
0.0
 10
156.111521628609
 20
137.7786776363069
 30
0.0
 10
156.229565317919
 20
137.7786776363069
 30
0.0
  0
LINE
  5
22E
330
1F
100
AcDbEntity
  8
0
  6
Continuous
 62
     7
370
    25
100
AcDbLine
 10
156.6878225312
 20
160.0786779984
 30
0.0
 11
157.771307382
 21
160.0786779984
 31
0.0
  0
LINE
  5
22F
330
1F
100
AcDbEntity
  8
0
  6
Continuous
 62
     7
370
    25
100
AcDbLine
 10
156.2295652583
 20
159.7786775767
 30
0.0
 11
158.2295655861
 21
159.7786775767
 31
0.0
  0
LINE
  5
230
330
1F
100
AcDbEntity
  8
0
  6
Continuous
 62
     8
370
    25
100
AcDbLine
 10
164.229564707
 20
162.7786780684
 30
0.0
 11
164.229564707
 21
134.7786772042
 31
0.0
  0
LINE
  5
231
330
1F
100
AcDbEntity
  8
0
  6
Continuous
 62
     8
370
    25
100
AcDbLine
 10
126.2295659289
 20
134.7786772042
 30
0.0
 11
126.2295659289
 21
162.7786780684
 31
0.0
  0
LINE
  5
232
330
1F
100
AcDbEntity
  8
0
  6
Continuous
 62
     8
370
    25
100
AcDbLine
 10
162.2295662418
 20
137.7786776959
 30
0.0
 11
162.2295662418
 21
159.7786775767
 31
0.0
  0
LINE
  5
233
330
1F
100
AcDbEntity
  8
0
  6
Continuous
 62
     8
370
    25
100
AcDbLine
 10
128.229564394
 20
159.7786775767
 30
0.0
 11
128.229564394
 21
137.7786776959
 31
0.0
  0
LWPOLYLINE
  5
234
330
1F
100
AcDbEntity
  8
0
  6
Continuous
 62
     8
370
    25
100
AcDbPolyline
 90
        6
 70
   128
 43
0.0
 10
149.9199810095
 20
159.2786774947
 10
149.8801963061
 20
159.1896151169
 10
149.841939903
 20
159.1039744183
 10
149.8066828243
 20
159.025047624
 10
149.7757801443
 20
158.9558680519
 10
149.7746322893
 20
158.9532985329
  0
ARC
  5
235
330
1F
100
AcDbEntity
  8
0
  6
Continuous
 62
     8
370
    25
100
AcDbCircle
 10
147.2157791858
 20
160.0613765808
 30
0.0
 40
1.393690267503961
100
AcDbArc
 50
333.6342161825
 51
338.0327575355
  0
LWPOLYLINE
  5
236
330
1F
100
AcDbEntity
  8
0
  6
Continuous
 62
     8
370
    25
100
AcDbPolyline
 90
        6
 70
   128
 43
0.0
 10
140.6844983466
 20
158.9532985329
 10
140.6833504915
 20
158.9558680519
 10
140.6524478115
 20
159.025047624
 10
140.6171907328
 20
159.1039744183
 10
140.5789343297
 20
159.1896151169
 10
140.5391496263
 20
159.2786774947
  0
ARC
  5
237
330
1F
100
AcDbEntity
  8
0
  6
Continuous
 62
     8
370
    25
100
AcDbCircle
 10
143.2433514501
 20
160.0613765808
 30
0.0
 40
1.393690267503961
100
AcDbArc
 50
201.9672424645
 51
206.3657838175
  0
LWPOLYLINE
  5
238
330
1F
100
AcDbEntity
  8
0
  6
Continuous
 62
     8
370
    25
100
AcDbPolyline
 90
        6
 70
   128
 43
0.0
 10
140.5391496263
 20
138.2786777779
 10
140.5789343297
 20
138.3677401557
 10
140.6171907328
 20
138.4533808543
 10
140.6524478115
 20
138.5323076486
 10
140.6833504915
 20
138.6014872207
 10
140.6844983466
 20
138.6040567397
  0
ARC
  5
239
330
1F
100
AcDbEntity
  8
0
  6
Continuous
 62
     8
370
    25
100
AcDbCircle
 10
143.2433514501
 20
137.4959786918
 30
0.0
 40
1.393690267503961
100
AcDbArc
 50
153.6342161825
 51
158.0327575355
  0
LWPOLYLINE
  5
23A
330
1F
100
AcDbEntity
  8
0
  6
Continuous
 62
     8
370
    25
100
AcDbPolyline
 90
        6
 70
   128
 43
0.0
 10
149.7746322893
 20
138.6040567397
 10
149.7757801443
 20
138.6014872207
 10
149.8066828243
 20
138.5323076486
 10
149.841939903
 20
138.4533808543
 10
149.8801963061
 20
138.3677401557
 10
149.9199810095
 20
138.2786777779
  0
ARC
  5
23B
330
1F
100
AcDbEntity
  8
0
  6
Continuous
 62
     8
370
    25
100
AcDbCircle
 10
147.2157791858
 20
137.4959786918
 30
0.0
 40
1.393690267503961
100
AcDbArc
 50
21.9672424645
 51
26.3657838175
  0
ARC
  5
23C
330
1F
100
AcDbEntity
  8
0
  6
Continuous
 62
     8
370
    25
100
AcDbCircle
 10
155.0501182002
 20
142.8575403063
 30
0.0
 40
0.8118503910722822
100
AcDbArc
 50
66.3329695675
 51
84.2958485065
  0
ARC
  5
23D
330
1F
100
AcDbEntity
  8
0
  6
Continuous
 62
     8
370
    25
100
AcDbCircle
 10
155.0501182002
 20
154.6998149663
 30
0.0
 40
0.8118503910722822
100
AcDbArc
 50
275.7041514935
 51
293.6670304325
  0
ARC
  5
23E
330
1F
100
AcDbEntity
  8
0
  6
Continuous
 62
     8
370
    25
100
AcDbCircle
 10
135.4090124356
 20
154.6998149663
 30
0.0
 40
0.8118503910722935
100
AcDbArc
 50
246.3329695675
 51
264.2958485065
  0
ARC
  5
23F
330
1F
100
AcDbEntity
  8
0
  6
Continuous
 62
     8
370
    25
100
AcDbCircle
 10
135.4090124356
 20
142.8575403063
 30
0.0
 40
0.8118503910722935
100
AcDbArc
 50
95.7041514935
 51
113.6670304325
  0
LINE
  5
240
330
1F
100
AcDbEntity
  8
0
  6
Continuous
 62
     8
370
    25
100
AcDbLine
 10
141.9508460566
 20
159.5400298922
 30
0.0
 11
142.8936218034
 21
159.6536437958
 31
0.0
  0
SPLINE
  5
241
330
1F
100
AcDbEntity
  8
0
  6
Continuous
 62
     8
370
    25
100
AcDbSpline
210
0.0
220
0.0
230
1.0
 70
     8
 71
     3
 72
     9
 73
     5
 74
     0
 42
0.000000001
 43
0.00000001
 40
0.0
 40
0.0
 40
0.0
 40
0.0
 40
0.0159643605311884
 40
1.0
 40
1.0
 40
1.0
 40
1.0
 10
147.4982515100292
 20
159.6609425707871
 30
0.0
 10
147.5036503472224
 20
159.6605628504567
 30
0.0
 10
147.8418309578838
 20
159.6367773483955
 30
0.0
 10
148.1777390474695
 20
159.5880143855618
 30
0.0
 10
148.5082845792077
 20
159.5400298922473
 30
0.0
  0
LINE
  5
242
330
1F
100
AcDbEntity
  8
0
  6
Continuous
 62
     8
370
    25
100
AcDbLine
 10
142.8452638101
 20
137.9095387622
 30
0.0
 11
141.9508460566
 21
138.0173253804
 31
0.0
  0
LINE
  5
243
330
1F
100
AcDbEntity
  8
0
  6
Continuous
 62
     8
370
    25
100
AcDbLine
 10
148.5082845792
 20
138.0173253804
 30
0.0
 11
147.5593164686
 21
137.9029654875
 31
0.0
  0
SPLINE
  5
244
330
1F
100
AcDbEntity
  8
0
  6
Continuous
 62
     8
370
    25
100
AcDbSpline
210
0.0
220
0.0
230
1.0
 70
     8
 71
     3
 72
     9
 73
     5
 74
     0
 42
0.000000001
 43
0.00000001
 40
0.0
 40
0.0
 40
0.0
 40
0.0
 40
0.9560896045926386
 40
1.0
 40
1.0
 40
1.0
 40
1.0
 10
135.4366721242569
 20
154.1915900982135
 30
0.0
 10
135.4757329122407
 20
154.2280709063537
 30
0.0
 10
135.516587647818
 20
154.2662271711692
 30
0.0
 10
135.5456202492755
 20
154.2924586002432
 30
0.0
 10
135.5468950822852
 20
154.2936104326659
 30
0.0
  0
SPLINE
  5
245
330
1F
100
AcDbEntity
  8
0
  6
Continuous
 62
     8
370
    25
100
AcDbSpline
210
0.0
220
0.0
230
1.0
 70
     8
 71
     3
 72
     9
 73
     5
 74
     0
 42
0.000000001
 43
0.00000001
 40
0.0
 40
0.0
 40
0.0
 40
0.0
 40
0.4572687798290229
 40
1.0
 40
1.0
 40
1.0
 40
1.0
 10
154.8455053597591
 20
154.3539447686785
 30
0.0
 10
154.8675795522142
 20
154.3341379935095
 30
0.0
 10
154.9158535508531
 20
154.2908226043058
 30
0.0
 10
154.9849549985546
 20
154.2264999894557
 30
0.0
 10
155.0224585115812
 20
154.1915900982135
 30
0.0
  0
LWPOLYLINE
  5
246
330
1F
100
AcDbEntity
  8
0
  6
Continuous
 62
     8
370
    25
100
AcDbPolyline
 90
        3
 70
   128
 43
0.0
 10
135.4685186997
 20
154.1547832987
 10
135.4660348624
 20
154.1578920535
 10
135.4366721243
 20
154.1915900982
  0
LWPOLYLINE
  5
247
330
1F
100
AcDbEntity
  8
0
  6
Continuous
 62
     8
370
    25
100
AcDbPolyline
 90
        3
 70
   128
 43
0.0
 10
155.0224585116
 20
154.1915900982
 10
154.9930957734
 20
154.1578920535
 10
154.9906119361
 20
154.1547832987
  0
LWPOLYLINE
  5
248
330
1F
100
AcDbEntity
  8
0
  6
Continuous
 62
     8
370
    25
100
AcDbPolyline
 90
        3
 70
   128
 43
0.0
 10
135.4366721243
 20
143.3657651744
 10
135.4660348624
 20
143.3994632191
 10
135.4685186997
 20
143.4025719739
  0
LWPOLYLINE
  5
249
330
1F
100
AcDbEntity
  8
0
  6
Continuous
 62
     8
370
    25
100
AcDbPolyline
 90
        3
 70
   128
 43
0.0
 10
154.9906119361
 20
143.4025719739
 10
154.9930957734
 20
143.3994632191
 10
155.0224585116
 20
143.3657651744
  0
SPLINE
  5
24A
330
1F
100
AcDbEntity
  8
0
  6
Continuous
 62
     8
370
    25
100
AcDbSpline
210
0.0
220
0.0
230
1.0
 70
     8
 71
     3
 72
     9
 73
     5
 74
     0
 42
0.000000001
 43
0.00000001
 40
0.0
 40
0.0
 40
0.0
 40
0.0
 40
0.5322723979000072
 40
1.0
 40
1.0
 40
1.0
 40
1.0
 10
155.0224585115812
 20
143.3657651744002
 30
0.0
 10
154.9849943648163
 20
143.3308950479797
 30
0.0
 10
154.914609075418
 20
143.265383241322
 30
0.0
 10
154.8654609215926
 20
143.2212912608924
 30
0.0
 10
154.8424729734562
 20
143.2006682246142
 30
0.0
  0
INSERT
  5
256
330
1F
100
AcDbEntity
  8
0
  6
Continuous
 62
     7
370
    18
100
AcDbBlockReference
  2
SW_CENTERMARKSYMBOL_1
 10
145.2295653179
 20
148.7786776363
 30
0.0
  0
ARC
  5
257
330
1F
100
AcDbEntity
  8
0
  6
Continuous
 62
     7
370
    18
100
AcDbCircle
 10
145.2295653179
 20
148.7786776363
 30
0.0
 40
9.315500000000018
100
AcDbArc
 50
75.0
 51
345.0
  0
ENDSEC
  0
SECTION
  2
OBJECTS
  0
DICTIONARY
  5
C
330
0
100
AcDbDictionary
281
     1
  3
ACAD_GROUP
350
D
  3
ACAD_LAYOUT
350
1A
  3
ACAD_MLINESTYLE
350
17
  3
ACAD_PLOTSETTINGS
350
19
  3
ACAD_PLOTSTYLENAME
350
E
  3
ACAD_SCALELIST
350
47
  0
DICTIONARY
  5
D
102
{ACAD_REACTORS
330
C
102
}
330
C
100
AcDbDictionary
281
     1
  0
DICTIONARY
  5
1A
102
{ACAD_REACTORS
330
C
102
}
330
C
100
AcDbDictionary
281
     1
  3
Layout1
350
1E
  3
Layout2
350
26
  3
Model
350
22
  0
DICTIONARY
  5
17
102
{ACAD_REACTORS
330
C
102
}
330
C
100
AcDbDictionary
281
     1
  3
Standard
350
18
  0
DICTIONARY
  5
19
102
{ACAD_REACTORS
330
C
102
}
330
C
100
AcDbDictionary
281
     1
  0
ACDBDICTIONARYWDFLT
  5
E
102
{ACAD_REACTORS
330
C
102
}
330
C
100
AcDbDictionary
281
     1
  3
Normal
350
F
100
AcDbDictionaryWithDefault
340
F
  0
DICTIONARY
  5
47
102
{ACAD_REACTORS
330
C
102
}
330
C
100
AcDbDictionary
281
     1
  3
A0
350
48
  3
A1
350
49
  3
A2
350
4A
  3
A3
350
4B
  3
A4
350
4C
  3
A5
350
4D
  3
A6
350
4E
  3
A7
350
4F
  3
A8
350
50
  3
A9
350
51
  3
B0
350
52
  3
B1
350
53
  3
B2
350
54
  3
B3
350
55
  3
B4
350
56
  3
B5
350
57
  3
B6
350
58
  3
B7
350
59
  3
B8
350
5A
  3
B9
350
5B
  3
C0
350
5C
  3
C1
350
5D
  3
C2
350
5E
  3
C3
350
5F
  3
C4
350
60
  3
C5
350
61
  3
C6
350
62
  3
C7
350
63
  3
C8
350
64
  3
C9
350
65
  3
D0
350
66
  3
D1
350
67
  3
D2
350
68
  0
LAYOUT
  5
1E
102
{ACAD_REACTORS
330
1A
102
}
330
1A
100
AcDbPlotSettings
  1

  2
none_device
  4

  6

 40
0.0
 41
0.0
 42
0.0
 43
0.0
 44
0.0
 45
0.0
 46
0.0
 47
0.0
 48
0.0
 49
0.0
140
0.0
141
0.0
142
1.0
143
1.0
 70
   688
 72
     1
 73
     0
 74
     5
  7

 75
    16
147
1.0
148
0.0
149
0.0
100
AcDbLayout
  1
Layout1
 70
     1
 71
     1
 10
0.0
 20
0.0
 11
420.0
 21
297.0
 12
0.0
 22
0.0
 32
0.0
 14
1.0000000000E+20
 24
1.0000000000E+20
 34
1.0000000000E+20
 15
-1.0000000000E+20
 25
-1.0000000000E+20
 35
-1.0000000000E+20
146
0.0
 13
0.0
 23
0.0
 33
0.0
 16
1.0
 26
0.0
 36
0.0
 17
0.0
 27
1.0
 37
0.0
 76
     0
330
1B
  0
LAYOUT
  5
26
102
{ACAD_REACTORS
330
1A
102
}
330
1A
100
AcDbPlotSettings
  1

  2
none_device
  4

  6

 40
0.0
 41
0.0
 42
0.0
 43
0.0
 44
0.0
 45
0.0
 46
0.0
 47
0.0
 48
0.0
 49
0.0
140
0.0
141
0.0
142
1.0
143
1.0
 70
   688
 72
     1
 73
     0
 74
     5
  7

 75
    16
147
1.0
148
0.0
149
0.0
100
AcDbLayout
  1
Layout2
 70
     1
 71
     2
 10
0.0
 20
0.0
 11
0.0
 21
0.0
 12
0.0
 22
0.0
 32
0.0
 14
0.0
 24
0.0
 34
0.0
 15
0.0
 25
0.0
 35
0.0
146
0.0
 13
0.0
 23
0.0
 33
0.0
 16
1.0
 26
0.0
 36
0.0
 17
0.0
 27
1.0
 37
0.0
 76
     0
330
23
  0
LAYOUT
  5
22
102
{ACAD_REACTORS
330
1A
102
}
330
1A
100
AcDbPlotSettings
  1

  2
none_device
  4
Letter_(8.50_x_11.00_Inches)
  6

 40
6.35
 41
6.35
 42
6.35000508
 43
6.35000508
 44
215.9
 45
279.4
 46
0.0
 47
0.0
 48
0.0
 49
0.0
140
0.0
141
0.0
142
1.0
143
1.0
 70
  1712
 72
     1
 73
     0
 74
     0
  7

 75
     0
147
1.0
148
0.0
149
0.0
100
AcDbLayout
  1
Model
 70
     1
 71
     0
 10
0.0
 20
0.0
 11
431.8
 21
279.4
 12
0.0
 22
0.0
 32
0.0
 14
0.0
 24
0.0
 34
0.0
 15
431.8
 25
279.4
 35
0.0
146
0.0
 13
0.0
 23
0.0
 33
0.0
 16
1.0
 26
0.0
 36
0.0
 17
0.0
 27
1.0
 37
0.0
 76
     0
330
1F
331
29
  0
MLINESTYLE
  5
18
102
{ACAD_REACTORS
330
17
102
}
330
17
100
AcDbMlineStyle
  2
Standard
 70
     0
  3

 62
   256
 51
90.0
 52
90.0
 71
     2
 49
0.5
 62
   256
  6
BYLAYER
 49
-0.5
 62
   256
  6
BYLAYER
  0
ACDBPLACEHOLDER
  5
F
102
{ACAD_REACTORS
330
E
102
}
330
E
  0
SCALE
  5
48
102
{ACAD_REACTORS
330
47
102
}
330
47
100
AcDbScale
 70
     0
300
1:1
140
1.0
141
1.0
290
     1
  0
SCALE
  5
49
102
{ACAD_REACTORS
330
47
102
}
330
47
100
AcDbScale
 70
     0
300
1:2
140
1.0
141
2.0
290
     0
  0
SCALE
  5
4A
102
{ACAD_REACTORS
330
47
102
}
330
47
100
AcDbScale
 70
     0
300
1:4
140
1.0
141
4.0
290
     0
  0
SCALE
  5
4B
102
{ACAD_REACTORS
330
47
102
}
330
47
100
AcDbScale
 70
     0
300
1:5
140
1.0
141
5.0
290
     0
  0
SCALE
  5
4C
102
{ACAD_REACTORS
330
47
102
}
330
47
100
AcDbScale
 70
     0
300
1:8
140
1.0
141
8.0
290
     0
  0
SCALE
  5
4D
102
{ACAD_REACTORS
330
47
102
}
330
47
100
AcDbScale
 70
     0
300
1:10
140
1.0
141
10.0
290
     0
  0
SCALE
  5
4E
102
{ACAD_REACTORS
330
47
102
}
330
47
100
AcDbScale
 70
     0
300
1:16
140
1.0
141
16.0
290
     0
  0
SCALE
  5
4F
102
{ACAD_REACTORS
330
47
102
}
330
47
100
AcDbScale
 70
     0
300
1:20
140
1.0
141
20.0
290
     0
  0
SCALE
  5
50
102
{ACAD_REACTORS
330
47
102
}
330
47
100
AcDbScale
 70
     0
300
1:30
140
1.0
141
30.0
290
     0
  0
SCALE
  5
51
102
{ACAD_REACTORS
330
47
102
}
330
47
100
AcDbScale
 70
     0
300
1:40
140
1.0
141
40.0
290
     0
  0
SCALE
  5
52
102
{ACAD_REACTORS
330
47
102
}
330
47
100
AcDbScale
 70
     0
300
1:50
140
1.0
141
50.0
290
     0
  0
SCALE
  5
53
102
{ACAD_REACTORS
330
47
102
}
330
47
100
AcDbScale
 70
     0
300
1:100
140
1.0
141
100.0
290
     0
  0
SCALE
  5
54
102
{ACAD_REACTORS
330
47
102
}
330
47
100
AcDbScale
 70
     0
300
2:1
140
2.0
141
1.0
290
     0
  0
SCALE
  5
55
102
{ACAD_REACTORS
330
47
102
}
330
47
100
AcDbScale
 70
     0
300
4:1
140
4.0
141
1.0
290
     0
  0
SCALE
  5
56
102
{ACAD_REACTORS
330
47
102
}
330
47
100
AcDbScale
 70
     0
300
8:1
140
8.0
141
1.0
290
     0
  0
SCALE
  5
57
102
{ACAD_REACTORS
330
47
102
}
330
47
100
AcDbScale
 70
     0
300
10:1
140
10.0
141
1.0
290
     0
  0
SCALE
  5
58
102
{ACAD_REACTORS
330
47
102
}
330
47
100
AcDbScale
 70
     0
300
100:1
140
100.0
141
1.0
290
     0
  0
SCALE
  5
59
102
{ACAD_REACTORS
330
47
102
}
330
47
100
AcDbScale
 70
     0
300
1/128" = 1'-0"
140
0.0078125
141
12.0
290
     0
  0
SCALE
  5
5A
102
{ACAD_REACTORS
330
47
102
}
330
47
100
AcDbScale
 70
     0
300
1/64" = 1'-0"
140
0.015625
141
12.0
290
     0
  0
SCALE
  5
5B
102
{ACAD_REACTORS
330
47
102
}
330
47
100
AcDbScale
 70
     0
300
1/32" = 1'-0"
140
0.03125
141
12.0
290
     0
  0
SCALE
  5
5C
102
{ACAD_REACTORS
330
47
102
}
330
47
100
AcDbScale
 70
     0
300
1/16" = 1'-0"
140
0.0625
141
12.0
290
     0
  0
SCALE
  5
5D
102
{ACAD_REACTORS
330
47
102
}
330
47
100
AcDbScale
 70
     0
300
3/32" = 1'-0"
140
0.09375
141
12.0
290
     0
  0
SCALE
  5
5E
102
{ACAD_REACTORS
330
47
102
}
330
47
100
AcDbScale
 70
     0
300
1/8" = 1'-0"
140
0.125
141
12.0
290
     0
  0
SCALE
  5
5F
102
{ACAD_REACTORS
330
47
102
}
330
47
100
AcDbScale
 70
     0
300
3/16" = 1'-0"
140
0.1875
141
12.0
290
     0
  0
SCALE
  5
60
102
{ACAD_REACTORS
330
47
102
}
330
47
100
AcDbScale
 70
     0
300
1/4" = 1'-0"
140
0.25
141
12.0
290
     0
  0
SCALE
  5
61
102
{ACAD_REACTORS
330
47
102
}
330
47
100
AcDbScale
 70
     0
300
3/8" = 1'-0"
140
0.375
141
12.0
290
     0
  0
SCALE
  5
62
102
{ACAD_REACTORS
330
47
102
}
330
47
100
AcDbScale
 70
     0
300
1/2" = 1'-0"
140
0.5
141
12.0
290
     0
  0
SCALE
  5
63
102
{ACAD_REACTORS
330
47
102
}
330
47
100
AcDbScale
 70
     0
300
3/4" = 1'-0"
140
0.75
141
12.0
290
     0
  0
SCALE
  5
64
102
{ACAD_REACTORS
330
47
102
}
330
47
100
AcDbScale
 70
     0
300
1" = 1'-0"
140
1.0
141
12.0
290
     0
  0
SCALE
  5
65
102
{ACAD_REACTORS
330
47
102
}
330
47
100
AcDbScale
 70
     0
300
1-1/2" = 1'-0"
140
1.5
141
12.0
290
     0
  0
SCALE
  5
66
102
{ACAD_REACTORS
330
47
102
}
330
47
100
AcDbScale
 70
     0
300
3" = 1'-0"
140
3.0
141
12.0
290
     0
  0
SCALE
  5
67
102
{ACAD_REACTORS
330
47
102
}
330
47
100
AcDbScale
 70
     0
300
6" = 1'-0"
140
6.0
141
12.0
290
     0
  0
SCALE
  5
68
102
{ACAD_REACTORS
330
47
102
}
330
47
100
AcDbScale
 70
     0
300
1'-0" = 1'-0"
140
12.0
141
12.0
290
     0
  0
ENDSEC
  0
EOF
