  0
SECTION
  2
HEADER
  9
$ACADVER
  1
AC1015
  9
$ACADMAINTVER
 70
     6
  9
$DWGCODEPAGE
  3
DOS932
  9
$INSBASE
 10
0.0
 20
0.0
 30
0.0
  9
$EXTMIN
 10
0.0
 20
0.0
 30
0.0
  9
$EXTMAX
 10
431.8
 20
279.4
 30
0.0
  9
$LIMMIN
 10
0.0
 20
0.0
  9
$LIMMAX
 10
431.8
 20
279.4
  9
$ORTHOMODE
 70
     0
  9
$REGENMODE
 70
     1
  9
$FILLMODE
 70
     1
  9
$QTEXTMODE
 70
     0
  9
$MIRRTEXT
 70
     1
  9
$LTSCALE
 40
1.0
  9
$ATTMODE
 70
     1
  9
$TEXTSIZE
 40
3.5
  9
$TRACEWID
 40
1.0
  9
$TEXTSTYLE
  7
Standard
  9
$CLAYER
  8
0
  9
$CELTYPE
  6
ByLayer
  9
$CECOLOR
 62
   256
  9
$CELTSCALE
 40
1.0
  9
$DISPSILH
 70
     0
  9
$DIMSCALE
 40
1.0
  9
$DIMASZ
 40
3.302
  9
$DIMEXO
 40
1.0
  9
$DIMDLI
 40
3.75
  9
$DIMRND
 40
0.0
  9
$DIMDLE
 40
0.0
  9
$DIMEXE
 40
1.0
  9
$DIMTP
 40
0.0
  9
$DIMTM
 40
0.0
  9
$DIMTXT
 40
3.5
  9
$DIMCEN
 40
2.5
  9
$DIMTSZ
 40
0.0
  9
$DIMTOL
 70
     0
  9
$DIMLIM
 70
     0
  9
$DIMTIH
 70
     1
  9
$DIMTOH
 70
     1
  9
$DIMSE1
 70
     0
  9
$DIMSE2
 70
     0
  9
$DIMTAD
 70
     1
  9
$DIMZIN
 70
     1
  9
$DIMBLK
  1

  9
$DIMASO
 70
     1
  9
$DIMSHO
 70
     1
  9
$DIMPOST
  1

  9
$DIMAPOST
  1

  9
$DIMALT
 70
     0
  9
$DIMALTD
 70
     3
  9
$DIMALTF
 40
0.0393700787
  9
$DIMLFAC
 40
1.0
  9
$DIMTOFL
 70
     1
  9
$DIMTVP
 40
0.0
  9
$DIMTIX
 70
     0
  9
$DIMSOXD
 70
     0
  9
$DIMSAH
 70
     0
  9
$DIMBLK1
  1

  9
$DIMBLK2
  1

  9
$DIMSTYLE
  2
ISO-25
  9
$DIMCLRD
 70
     0
  9
$DIMCLRE
 70
     0
  9
$DIMCLRT
 70
     0
  9
$DIMTFAC
 40
1.0
  9
$DIMGAP
 40
1.524
  9
$DIMJUST
 70
     0
  9
$DIMSD1
 70
     0
  9
$DIMSD2
 70
     0
  9
$DIMTOLJ
 70
     0
  9
$DIMTZIN
 70
     1
  9
$DIMALTZ
 70
     0
  9
$DIMALTTZ
 70
     0
  9
$DIMUPT
 70
     0
  9
$DIMDEC
 70
     2
  9
$DIMTDEC
 70
     2
  9
$DIMALTU
 70
     2
  9
$DIMALTTD
 70
     3
  9
$DIMTXSTY
  7
Standard
  9
$DIMAUNIT
 70
     0
  9
$DIMADEC
 70
     2
  9
$DIMALTRND
 40
0.0
  9
$DIMAZIN
 70
     0
  9
$DIMDSEP
 70
    44
  9
$DIMATFIT
 70
     3
  9
$DIMFRAC
 70
     0
  9
$DIMLDRBLK
  1

  9
$DIMLUNIT
 70
     2
  9
$DIMLWD
 70
    -2
  9
$DIMLWE
 70
    -2
  9
$DIMTMOVE
 70
     0
  9
$LUNITS
 70
     2
  9
$LUPREC
 70
     2
  9
$SKETCHINC
 40
1.0
  9
$FILLETRAD
 40
10.0
  9
$AUNITS
 70
     0
  9
$AUPREC
 70
     2
  9
$MENU
  1
.
  9
$ELEVATION
 40
0.0
  9
$PELEVATION
 40
0.0
  9
$THICKNESS
 40
0.0
  9
$LIMCHECK
 70
     0
  9
$CHAMFERA
 40
0.0
  9
$CHAMFERB
 40
0.0
  9
$CHAMFERC
 40
0.0
  9
$CHAMFERD
 40
0.0
  9
$SKPOLY
 70
     0
  9
$TDCREATE
 40
2459230.383940544
  9
$TDUCREATE
 40
2459230.008940544
  9
$TDUPDATE
 40
2459230.383941204
  9
$TDUUPDATE
 40
2459230.008941204
  9
$TDINDWG
 40
0.0000000116
  9
$TDUSRTIMER
 40
0.0000000116
  9
$USRTIMER
 70
     1
  9
$ANGBASE
 50
0.0
  9
$ANGDIR
 70
     0
  9
$PDMODE
 70
     0
  9
$PDSIZE
 40
-1.0
  9
$PLINEWID
 40
0.0
  9
$SPLFRAME
 70
     0
  9
$SPLINETYPE
 70
     6
  9
$SPLINESEGS
 70
     8
  9
$HANDSEED
  5
257
  9
$SURFTAB1
 70
     6
  9
$SURFTAB2
 70
     6
  9
$SURFTYPE
 70
     6
  9
$SURFU
 70
     6
  9
$SURFV
 70
     6
  9
$UCSBASE
  2

  9
$UCSNAME
  2

  9
$UCSORG
 10
0.0
 20
0.0
 30
0.0
  9
$UCSXDIR
 10
1.0
 20
0.0
 30
0.0
  9
$UCSYDIR
 10
0.0
 20
1.0
 30
0.0
  9
$UCSORTHOREF
  2

  9
$UCSORTHOVIEW
 70
     0
  9
$UCSORGTOP
 10
0.0
 20
0.0
 30
0.0
  9
$UCSORGBOTTOM
 10
0.0
 20
0.0
 30
0.0
  9
$UCSORGLEFT
 10
0.0
 20
0.0
 30
0.0
  9
$UCSORGRIGHT
 10
0.0
 20
0.0
 30
0.0
  9
$UCSORGFRONT
 10
0.0
 20
0.0
 30
0.0
  9
$UCSORGBACK
 10
0.0
 20
0.0
 30
0.0
  9
$PUCSBASE
  2

  9
$PUCSNAME
  2

  9
$PUCSORG
 10
0.0
 20
0.0
 30
0.0
  9
$PUCSXDIR
 10
1.0
 20
0.0
 30
0.0
  9
$PUCSYDIR
 10
0.0
 20
1.0
 30
0.0
  9
$PUCSORTHOREF
  2

  9
$PUCSORTHOVIEW
 70
     0
  9
$PUCSORGTOP
 10
0.0
 20
0.0
 30
0.0
  9
$PUCSORGBOTTOM
 10
0.0
 20
0.0
 30
0.0
  9
$PUCSORGLEFT
 10
0.0
 20
0.0
 30
0.0
  9
$PUCSORGRIGHT
 10
0.0
 20
0.0
 30
0.0
  9
$PUCSORGFRONT
 10
0.0
 20
0.0
 30
0.0
  9
$PUCSORGBACK
 10
0.0
 20
0.0
 30
0.0
  9
$USERI1
 70
     0
  9
$USERI2
 70
     0
  9
$USERI3
 70
     0
  9
$USERI4
 70
     0
  9
$USERI5
 70
     0
  9
$USERR1
 40
0.0
  9
$USERR2
 40
0.0
  9
$USERR3
 40
0.0
  9
$USERR4
 40
0.0
  9
$USERR5
 40
0.0
  9
$WORLDVIEW
 70
     1
  9
$SHADEDGE
 70
     3
  9
$SHADEDIF
 70
    70
  9
$TILEMODE
 70
     1
  9
$MAXACTVP
 70
    64
  9
$PINSBASE
 10
0.0
 20
0.0
 30
0.0
  9
$PLIMCHECK
 70
     0
  9
$PEXTMIN
 10
1.0000000000E+20
 20
1.0000000000E+20
 30
1.0000000000E+20
  9
$PEXTMAX
 10
-1.0000000000E+20
 20
-1.0000000000E+20
 30
-1.0000000000E+20
  9
$PLIMMIN
 10
0.0
 20
0.0
  9
$PLIMMAX
 10
420.0
 20
297.0
  9
$UNITMODE
 70
     0
  9
$VISRETAIN
 70
     1
  9
$PLINEGEN
 70
     0
  9
$PSLTSCALE
 70
     1
  9
$TREEDEPTH
 70
  3020
  9
$CMLSTYLE
  2
Standard
  9
$CMLJUST
 70
     0
  9
$CMLSCALE
 40
20.0
  9
$PROXYGRAPHICS
 70
     1
  9
$MEASUREMENT
 70
     1
  9
$CELWEIGHT
370
    -1
  9
$ENDCAPS
280
     0
  9
$JOINSTYLE
280
     0
  9
$LWDISPLAY
290
     1
  9
$INSUNITS
 70
     4
  9
$HYPERLINKBASE
  1

  9
$STYLESHEET
  1

  9
$XEDIT
290
     1
  9
$CEPSNTYPE
380
     0
  9
$PSTYLEMODE
290
     1
  9
$FINGERPRINTGUID
  2
{A0A123E3-9E6C-419E-A88C-0C978E161EEE}
  9
$VERSIONGUID
  2
{FAEB1C32-E019-11D5-929B-00C0DF256EC4}
  9
$EXTNAMES
290
     1
  9
$PSVPSCALE
 40
0.0
  9
$OLESTARTUP
290
     0
  0
ENDSEC
  0
SECTION
  2
CLASSES
  0
CLASS
  1
ACDBDICTIONARYWDFLT
  2
AcDbDictionaryWithDefault
  3
ObjectDBX Classes
 90
        0
280
     0
281
     0
  0
CLASS
  1
VISUALSTYLE
  2
AcDbVisualStyle
  3
ObjectDBX Classes
 90
     4095
280
     0
281
     0
  0
CLASS
  1
MATERIAL
  2
AcDbMaterial
  3
ObjectDBX Classes
 90
     1153
280
     0
281
     0
  0
CLASS
  1
SCALE
  2
AcDbScale
  3
ObjectDBX Classes
 90
     1153
280
     0
281
     0
  0
CLASS
  1
TABLESTYLE
  2
AcDbTableStyle
  3
ObjectDBX Classes
 90
     4095
280
     0
281
     0
  0
CLASS
  1
MLEADERSTYLE
  2
AcDbMLeaderStyle
  3
ACDB_MLEADERSTYLE_CLASS
 90
     4095
280
     0
281
     0
  0
CLASS
  1
SUN
  2
AcDbSun
  3
SCENEOE
 90
     1153
280
     0
281
     0
  0
CLASS
  1
ACDBPLACEHOLDER
  2
AcDbPlaceHolder
  3
ObjectDBX Classes
 90
        0
280
     0
281
     0
  0
CLASS
  1
LAYOUT
  2
AcDbLayout
  3
ObjectDBX Classes
 90
        0
280
     0
281
     0
  0
ENDSEC
  0
SECTION
  2
TABLES
  0
TABLE
  2
VPORT
  5
8
330
0
100
AcDbSymbolTable
 70
     1
  0
VPORT
  5
29
330
8
100
AcDbSymbolTableRecord
100
AcDbViewportTableRecord
  2
*Active
 70
     0
 10
0.0
 20
0.0
 11
1.0
 21
1.0
 12
215.9
 22
139.7
 13
0.0
 23
0.0
 14
10.0
 24
10.0
 15
10.0
 25
10.0
 16
0.0
 26
0.0
 36
1.0
 17
0.0
 27
0.0
 37
0.0
 40
279.4
 41
1.5454545455
 42
50.0
 43
0.0
 44
0.0
 50
0.0
 51
0.0
 71
     0
 72
  2000
 73
     1
 74
     3
 75
     0
 76
     0
 77
     0
 78
     0
281
     0
 65
     1
110
0.0
120
0.0
130
0.0
111
1.0
121
0.0
131
0.0
112
0.0
122
1.0
132
0.0
 79
     0
146
0.0
  0
ENDTAB
  0
TABLE
  2
LTYPE
  5
5
330
0
100
AcDbSymbolTable
 70
     6
  0
LTYPE
  5
14
330
5
100
AcDbSymbolTableRecord
100
AcDbLinetypeTableRecord
  2
ByBlock
 70
     0
  3

 72
    65
 73
     0
 40
0.0
  0
LTYPE
  5
15
330
5
100
AcDbSymbolTableRecord
100
AcDbLinetypeTableRecord
  2
ByLayer
 70
     0
  3

 72
    65
 73
     0
 40
0.0
  0
LTYPE
  5
16
330
5
100
AcDbSymbolTableRecord
100
AcDbLinetypeTableRecord
  2
Continuous
 70
     0
  3
Solid line
 72
    65
 73
     0
 40
0.0
  0
LTYPE
  5
6E
330
5
100
AcDbSymbolTableRecord
100
AcDbLinetypeTableRecord
  2
HIDDEN
 70
     0
  3
Hidden __ __ __ __ __ __ __ __ __ __ __ __ __ __
 72
    65
 73
     2
 40
1.905
 49
1.27
 74
     0
 49
-0.635
 74
     0
  0
LTYPE
  5
6F
330
5
100
AcDbSymbolTableRecord
100
AcDbLinetypeTableRecord
  2
PHANTOM
 70
     0
  3
Phantom ______  __  __  ______  __  __  ______
 72
    65
 73
     6
 40
12.7
 49
6.35
 74
     0
 49
-1.27
 74
     0
 49
1.27
 74
     0
 49
-1.27
 74
     0
 49
1.27
 74
     0
 49
-1.27
 74
     0
  0
LTYPE
  5
70
330
5
100
AcDbSymbolTableRecord
100
AcDbLinetypeTableRecord
  2
CENTER
 70
     0
  3
Center ____ _ ____ _ ____ _ ____ _ ____ _ ____
 72
    65
 73
     4
 40
10.16
 49
6.35
 74
     0
 49
-1.27
 74
     0
 49
1.27
 74
     0
 49
-1.27
 74
     0
  0
LTYPE
  5
71
330
5
100
AcDbSymbolTableRecord
100
AcDbLinetypeTableRecord
  2
CENTERX2
 70
     0
  3
Center (2x) ________  __  ________  __  _____
 72
    65
 73
     4
 40
20.32
 49
12.7
 74
     0
 49
-2.54
 74
     0
 49
2.54
 74
     0
 49
-2.54
 74
     0
  0
LTYPE
  5
72
330
5
100
AcDbSymbolTableRecord
100
AcDbLinetypeTableRecord
  2
DOT2
 70
     0
  3
Dot (.5x) ........................................
 72
    65
 73
     2
 40
0.635
 49
0.0
 74
     0
 49
-0.635
 74
     0
  0
ENDTAB
  0
TABLE
  2
LAYER
  5
2
330
0
100
AcDbSymbolTable
 70
     1
  0
LAYER
  5
10
330
2
100
AcDbSymbolTableRecord
100
AcDbLayerTableRecord
  2
0
 70
     0
 62
     7
  6
Continuous
370
    -3
390
F
  0
ENDTAB
  0
TABLE
  2
STYLE
  5
3
330
0
100
AcDbSymbolTable
 70
     2
  0
STYLE
  5
11
330
3
100
AcDbSymbolTableRecord
100
AcDbTextStyleTableRecord
  2
Standard
 70
     0
 40
0.0
 41
1.0
 50
0.0
 71
     0
 42
3.5
  3
txt
  4
bigfont
  0
STYLE
  5
73
330
3
100
AcDbSymbolTableRecord
100
AcDbTextStyleTableRecord
  2
SLDTEXTSTYLE0
 70
     0
 40
0.0
 41
0.7
 50
0.0
 71
     0
 42
3.5
  3
TXT
  4
bigfont
  0
ENDTAB
  0
TABLE
  2
VIEW
  5
6
330
0
100
AcDbSymbolTable
 70
     0
  0
ENDTAB
  0
TABLE
  2
UCS
  5
7
330
0
100
AcDbSymbolTable
 70
     0
  0
ENDTAB
  0
TABLE
  2
APPID
  5
9
330
0
100
AcDbSymbolTable
 70
     1
  0
APPID
  5
12
330
9
100
AcDbSymbolTableRecord
100
AcDbRegAppTableRecord
  2
ACAD
 70
     0
  0
ENDTAB
  0
TABLE
  2
DIMSTYLE
  5
A
330
0
100
AcDbSymbolTable
 70
     1
100
AcDbDimStyleTable
  0
DIMSTYLE
105
27
330
A
100
AcDbSymbolTableRecord
100
AcDbDimStyleTableRecord
  2
ISO-25
 70
     0
 41
2.5
 42
0.625
 43
3.75
 44
1.25
 73
     0
 74
     0
 77
     1
 78
     8
140
2.5
141
2.5
143
0.0393700787
147
0.625
171
     3
172
     1
178
     0
271
     2
272
     2
274
     3
278
    44
283
     0
284
     8
340
11
  0
ENDTAB
  0
TABLE
  2
BLOCK_RECORD
  5
1
330
0
100
AcDbSymbolTable
 70
     3
  0
BLOCK_RECORD
  5
1F
330
1
100
AcDbSymbolTableRecord
100
AcDbBlockTableRecord
  2
*Model_Space
340
22
  0
BLOCK_RECORD
  5
1B
330
1
100
AcDbSymbolTableRecord
100
AcDbBlockTableRecord
  2
*Paper_Space
340
1E
  0
BLOCK_RECORD
  5
23
330
1
100
AcDbSymbolTableRecord
100
AcDbBlockTableRecord
  2
*Paper_Space0
340
26
  0
BLOCK_RECORD
  5
177
330
1
100
AcDbSymbolTableRecord
100
AcDbBlockTableRecord
  2
SW_CENTERMARKSYMBOL_0
340
0
102
{BLKREFS
331
182
102
}
  0
BLOCK_RECORD
  5
24A
330
1
100
AcDbSymbolTableRecord
100
AcDbBlockTableRecord
  2
SW_CENTERMARKSYMBOL_1
340
0
102
{BLKREFS
331
255
102
}
  0
ENDTAB
  0
ENDSEC
  0
SECTION
  2
BLOCKS
  0
BLOCK
  5
20
330
1F
100
AcDbEntity
  8
0
100
AcDbBlockBegin
  2
*Model_Space
 70
     0
 10
0.0
 20
0.0
 30
0.0
  3
*Model_Space
  1

  0
ENDBLK
  5
21
330
1F
100
AcDbEntity
  8
0
100
AcDbBlockEnd
  0
BLOCK
  5
1C
330
1B
100
AcDbEntity
 67
     1
  8
0
100
AcDbBlockBegin
  2
*Paper_Space
 70
     0
 10
0.0
 20
0.0
 30
0.0
  3
*Paper_Space
  1

  0
ENDBLK
  5
1D
330
1B
100
AcDbEntity
 67
     1
  8
0
100
AcDbBlockEnd
  0
BLOCK
  5
24
330
23
100
AcDbEntity
  8
0
100
AcDbBlockBegin
  2
*Paper_Space0
 70
     0
 10
0.0
 20
0.0
 30
0.0
  3
*Paper_Space0
  1

  0
ENDBLK
  5
25
330
23
100
AcDbEntity
  8
0
100
AcDbBlockEnd
  0
BLOCK
  5
178
330
177
100
AcDbEntity
  8
0
100
AcDbBlockBegin
  2
SW_CENTERMARKSYMBOL_0
 70
     0
 10
0.0
 20
0.0
 30
0.0
  3
SW_CENTERMARKSYMBOL_0
  1

  0
LINE
  5
17A
330
177
100
AcDbEntity
  8
0
  6
Continuous
 62
     0
370
    18
100
AcDbLine
 10
0.0
 20
0.0
 30
0.0
 11
0.0
 21
2.5
 31
0.0
  0
LINE
  5
17B
330
177
100
AcDbEntity
  8
0
  6
Continuous
 62
     0
370
    18
100
AcDbLine
 10
0.0
 20
0.0
 30
0.0
 11
-2.5
 21
0.0
 31
0.0
  0
LINE
  5
17C
330
177
100
AcDbEntity
  8
0
  6
Continuous
 62
     0
370
    18
100
AcDbLine
 10
0.0
 20
0.0
 30
0.0
 11
0.0
 21
-2.5
 31
0.0
  0
LINE
  5
17D
330
177
100
AcDbEntity
  8
0
  6
Continuous
 62
     0
370
    18
100
AcDbLine
 10
0.0
 20
0.0
 30
0.0
 11
2.5
 21
0.0
 31
0.0
  0
LINE
  5
17E
330
177
100
AcDbEntity
  8
0
  6
Continuous
 62
     0
370
    18
100
AcDbLine
 10
0.0
 20
5.0
 30
0.0
 11
0.0
 21
37.0830383415
 31
0.0
  0
LINE
  5
17F
330
177
100
AcDbEntity
  8
0
  6
Continuous
 62
     0
370
    18
100
AcDbLine
 10
-5.0
 20
0.0
 30
0.0
 11
-16.5
 21
0.0
 31
0.0
  0
LINE
  5
180
330
177
100
AcDbEntity
  8
0
  6
Continuous
 62
     0
370
    18
100
AcDbLine
 10
0.0
 20
-5.0
 30
0.0
 11
0.0
 21
-16.5
 31
0.0
  0
LINE
  5
181
330
177
100
AcDbEntity
  8
0
  6
Continuous
 62
     0
370
    18
100
AcDbLine
 10
5.0
 20
0.0
 30
0.0
 11
16.5
 21
0.0
 31
0.0
  0
ENDBLK
  5
179
330
177
100
AcDbEntity
  8
0
100
AcDbBlockEnd
  0
BLOCK
  5
24B
330
24A
100
AcDbEntity
  8
0
100
AcDbBlockBegin
  2
SW_CENTERMARKSYMBOL_1
 70
     0
 10
0.0
 20
0.0
 30
0.0
  3
SW_CENTERMARKSYMBOL_1
  1

  0
LINE
  5
24D
330
24A
100
AcDbEntity
  8
0
  6
Continuous
 62
     0
370
    18
100
AcDbLine
 10
0.0
 20
0.0
 30
0.0
 11
0.0
 21
2.5
 31
0.0
  0
LINE
  5
24E
330
24A
100
AcDbEntity
  8
0
  6
Continuous
 62
     0
370
    18
100
AcDbLine
 10
0.0
 20
0.0
 30
0.0
 11
-2.5
 21
0.0
 31
0.0
  0
LINE
  5
24F
330
24A
100
AcDbEntity
  8
0
  6
Continuous
 62
     0
370
    18
100
AcDbLine
 10
0.0
 20
0.0
 30
0.0
 11
0.0
 21
-2.5
 31
0.0
  0
LINE
  5
250
330
24A
100
AcDbEntity
  8
0
  6
Continuous
 62
     0
370
    18
100
AcDbLine
 10
0.0
 20
0.0
 30
0.0
 11
2.5
 21
0.0
 31
0.0
  0
LINE
  5
251
330
24A
100
AcDbEntity
  8
0
  6
Continuous
 62
     0
370
    18
100
AcDbLine
 10
0.0
 20
5.0
 30
0.0
 11
0.0
 21
12.9834500357
 31
0.0
  0
LINE
  5
252
330
24A
100
AcDbEntity
  8
0
  6
Continuous
 62
     0
370
    18
100
AcDbLine
 10
-5.0
 20
0.0
 30
0.0
 11
-36.3817348572
 21
0.0
 31
0.0
  0
LINE
  5
253
330
24A
100
AcDbEntity
  8
0
  6
Continuous
 62
     0
370
    18
100
AcDbLine
 10
0.0
 20
-5.0
 30
0.0
 11
0.0
 21
-13.6935733301
 31
0.0
  0
LINE
  5
254
330
24A
100
AcDbEntity
  8
0
  6
Continuous
 62
     0
370
    18
100
AcDbLine
 10
5.0
 20
0.0
 30
0.0
 11
36.0772543722
 21
0.0
 31
0.0
  0
ENDBLK
  5
24C
330
24A
100
AcDbEntity
  8
0
100
AcDbBlockEnd
  0
ENDSEC
  0
SECTION
  2
ENTITIES
  0
MTEXT
  5
74
330
1F
100
AcDbEntity
  8
0
  6
Continuous
 62
     7
370
     0
100
AcDbMText
 10
178.764212756
 20
123.9659302548
 30
0.0
 40
5.2916666667
 41
0.0
 71
     1
 72
     1
  1
5R-TK1443
  7
SLDTEXTSTYLE0
 73
     1
 44
1.0
  0
ARC
  5
75
330
1F
100
AcDbEntity
  8
0
  6
Continuous
 62
     7
370
    25
100
AcDbCircle
 10
121.1959749922
 20
60.5041195132
 30
0.0
 40
1.000000000000007
100
AcDbArc
 50
270.0
 51
0.0
  0
ARC
  5
76
330
1F
100
AcDbEntity
  8
0
  6
Continuous
 62
     7
370
    25
100
AcDbCircle
 10
121.1959749922
 20
86.5041195132
 30
0.0
 40
1.0
100
AcDbArc
 50
0.0
 51
90.0
  0
LINE
  5
77
330
1F
100
AcDbEntity
  8
0
  6
Continuous
 62
     7
370
    25
100
AcDbLine
 10
173.1959748133
 20
59.504119081
 30
0.0
 11
174.1959768399
 21
60.504119245
 31
0.0
  0
LINE
  5
78
330
1F
100
AcDbEntity
  8
0
  6
Continuous
 62
     7
370
    25
100
AcDbLine
 10
174.1959768399
 20
86.5041197814
 30
0.0
 11
173.1959748133
 21
87.5041199453
 31
0.0
  0
LINE
  5
79
330
1F
100
AcDbEntity
  8
0
  6
Continuous
 62
     7
370
    25
100
AcDbLine
 10
173.1959748133
 20
87.5041199453
 30
0.0
 11
159.1959743812
 21
87.5041199453
 31
0.0
  0
LINE
  5
7A
330
1F
100
AcDbEntity
  8
0
  6
Continuous
 62
     7
370
    25
100
AcDbLine
 10
159.1959743812
 20
59.504119081
 30
0.0
 11
173.1959748133
 21
59.504119081
 31
0.0
  0
LINE
  5
7B
330
1F
100
AcDbEntity
  8
0
  6
Continuous
 62
     7
370
    25
100
AcDbLine
 10
107.195975171
 20
59.504119081
 30
0.0
 11
121.1959756031
 21
59.504119081
 31
0.0
  0
LINE
  5
7C
330
1F
100
AcDbEntity
  8
0
  6
Continuous
 62
     7
370
    25
100
AcDbLine
 10
121.1959756031
 20
87.5041199453
 30
0.0
 11
107.195975171
 21
87.5041199453
 31
0.0
  0
ARC
  5
7D
330
1F
100
AcDbEntity
  8
0
  6
Continuous
 62
     7
370
    25
100
AcDbCircle
 10
159.1959749922
 20
86.5041195132
 30
0.0
 40
1.0
100
AcDbArc
 50
90.0
 51
180.0
  0
ARC
  5
7E
330
1F
100
AcDbEntity
  8
0
  6
Continuous
 62
     7
370
    25
100
AcDbCircle
 10
159.1959749922
 20
60.5041195132
 30
0.0
 40
1.000000000000007
100
AcDbArc
 50
180.0
 51
270.0
  0
LINE
  5
7F
330
1F
100
AcDbEntity
  8
0
  6
Continuous
 62
     7
370
    25
100
AcDbLine
 10
107.195975171
 20
87.5041199453
 30
0.0
 11
106.1959731444
 21
86.5041197814
 31
0.0
  0
LINE
  5
80
330
1F
100
AcDbEntity
  8
0
  6
Continuous
 62
     7
370
    25
100
AcDbLine
 10
106.1959731444
 20
60.504119245
 30
0.0
 11
107.195975171
 21
59.504119081
 31
0.0
  0
ARC
  5
81
330
1F
100
AcDbEntity
  8
0
  6
Continuous
 62
     7
370
    25
100
AcDbCircle
 10
123.1959749922
 20
61.5041195132
 30
0.0
 40
1.0
100
AcDbArc
 50
90.0
 51
180.0
  0
ARC
  5
82
330
1F
100
AcDbEntity
  8
0
  6
Continuous
 62
     7
370
    25
100
AcDbCircle
 10
123.1959749922
 20
85.5041195132
 30
0.0
 40
1.0
100
AcDbArc
 50
180.0
 51
270.0
  0
ARC
  5
83
330
1F
100
AcDbEntity
  8
0
  6
Continuous
 62
     7
370
    25
100
AcDbCircle
 10
157.1959749922
 20
85.5041195132
 30
0.0
 40
1.0
100
AcDbArc
 50
270.0
 51
0.0
  0
ARC
  5
84
330
1F
100
AcDbEntity
  8
0
  6
Continuous
 62
     7
370
    25
100
AcDbCircle
 10
157.1959749922
 20
61.5041195132
 30
0.0
 40
1.0
100
AcDbArc
 50
0.0
 51
90.0
  0
LINE
  5
85
330
1F
100
AcDbEntity
  8
0
  6
Continuous
 62
     7
370
    25
100
AcDbLine
 10
151.1959749325
 20
85.0041195355
 30
0.0
 11
151.1959749325
 21
90.1054324187
 31
0.0
  0
LINE
  5
86
330
1F
100
AcDbEntity
  8
0
  6
Continuous
 62
     7
370
    25
100
AcDbLine
 10
129.1959750518
 20
90.1054324187
 30
0.0
 11
129.1959750518
 21
85.0041195355
 31
0.0
  0
LINE
  5
87
330
1F
100
AcDbEntity
  8
0
  6
Continuous
 62
     7
370
    25
100
AcDbLine
 10
128.6959749698
 20
84.5041194536
 30
0.0
 11
123.1959740683
 21
84.5041194536
 31
0.0
  0
LINE
  5
88
330
1F
100
AcDbEntity
  8
0
  6
Continuous
 62
     7
370
    25
100
AcDbLine
 10
157.195975916
 20
84.5041194536
 30
0.0
 11
151.6959750145
 21
84.5041194536
 31
0.0
  0
LINE
  5
89
330
1F
100
AcDbEntity
  8
0
  6
Continuous
 62
     7
370
    25
100
AcDbLine
 10
123.1959740683
 20
62.5041195728
 30
0.0
 11
157.195975916
 21
62.5041195728
 31
0.0
  0
LINE
  5
8A
330
1F
100
AcDbEntity
  8
0
  6
Continuous
 62
     7
370
    25
100
AcDbLine
 10
151.1959749325
 20
90.1054324187
 30
0.0
 11
148.7972875177
 21
92.5041189022
 31
0.0
  0
LINE
  5
8B
330
1F
100
AcDbEntity
  8
0
  6
Continuous
 62
     7
370
    25
100
AcDbLine
 10
131.5946624666
 20
92.5041189022
 30
0.0
 11
129.1959750518
 21
90.1054324187
 31
0.0
  0
LINE
  5
8C
330
1F
100
AcDbEntity
  8
0
  6
Continuous
 62
     7
370
    25
100
AcDbLine
 10
148.7972875177
 20
92.5041189022
 30
0.0
 11
148.3933468401
 21
105.4302112736
 31
0.0
  0
LINE
  5
8D
330
1F
100
AcDbEntity
  8
0
  6
Continuous
 62
     7
370
    25
100
AcDbLine
 10
131.9986031442
 20
105.4302112736
 30
0.0
 11
131.5946624666
 21
92.5041189022
 31
0.0
  0
LINE
  5
8E
330
1F
100
AcDbEntity
  8
0
  6
Continuous
 62
     7
370
    25
100
AcDbLine
 10
148.3933468401
 20
105.4302112736
 30
0.0
 11
147.1959752082
 21
107.5041213609
 31
0.0
  0
LINE
  5
8F
330
1F
100
AcDbEntity
  8
0
  6
Continuous
 62
     7
370
    25
100
AcDbLine
 10
133.1959747761
 20
107.5041213609
 30
0.0
 11
131.9986031442
 21
105.4302112736
 31
0.0
  0
ARC
  5
90
330
1F
100
AcDbEntity
  8
0
  6
Continuous
 62
     7
370
    25
100
AcDbCircle
 10
151.6959749922
 20
85.0041195132
 30
0.0
 40
0.5000000000000057
100
AcDbArc
 50
180.1005417843
 51
269.9608729934
  0
ARC
  5
91
330
1F
100
AcDbEntity
  8
0
  6
Continuous
 62
     7
370
    25
100
AcDbCircle
 10
128.6959749922
 20
85.0041195132
 30
0.0
 40
0.5000000000000057
100
AcDbArc
 50
270.1005417843
 51
359.9608729934
  0
LINE
  5
92
330
1F
100
AcDbEntity
  8
0
  6
Continuous
 62
     7
370
    25
100
AcDbLine
 10
122.195975767
 20
73.5041195132
 30
0.0
 11
122.195975767
 21
60.504119245
 31
0.0
  0
LINE
  5
93
330
1F
100
AcDbEntity
  8
0
  6
Continuous
 62
     7
370
    25
100
AcDbLine
 10
122.195975767
 20
86.5041197814
 30
0.0
 11
122.195975767
 21
73.5041195132
 31
0.0
  0
LINE
  5
94
330
1F
100
AcDbEntity
  8
0
  6
Continuous
 62
     7
370
    25
100
AcDbLine
 10
174.1959768399
 20
86.5041197814
 30
0.0
 11
174.1959768399
 21
60.504119245
 31
0.0
  0
LINE
  5
95
330
1F
100
AcDbEntity
  8
0
  6
Continuous
 62
     7
370
    25
100
AcDbLine
 10
173.1959748133
 20
59.504119081
 30
0.0
 11
173.1959748133
 21
87.5041199453
 31
0.0
  0
LINE
  5
96
330
1F
100
AcDbEntity
  8
0
  6
Continuous
 62
     7
370
    25
100
AcDbLine
 10
107.195975171
 20
73.5041195132
 30
0.0
 11
107.195975171
 21
59.504119081
 31
0.0
  0
LINE
  5
97
330
1F
100
AcDbEntity
  8
0
  6
Continuous
 62
     7
370
    25
100
AcDbLine
 10
107.195975171
 20
87.5041199453
 30
0.0
 11
107.195975171
 21
73.5041195132
 31
0.0
  0
LINE
  5
98
330
1F
100
AcDbEntity
  8
0
  6
Continuous
 62
     7
370
    25
100
AcDbLine
 10
158.1959742173
 20
60.504119245
 30
0.0
 11
158.1959742173
 21
86.5041197814
 31
0.0
  0
LINE
  5
99
330
1F
100
AcDbEntity
  8
0
  6
Continuous
 62
     7
370
    25
100
AcDbLine
 10
106.1959731444
 20
73.5041195132
 30
0.0
 11
106.1959731444
 21
86.5041197814
 31
0.0
  0
LINE
  5
9A
330
1F
100
AcDbEntity
  8
0
  6
Continuous
 62
     7
370
    25
100
AcDbLine
 10
106.1959731444
 20
60.504119245
 30
0.0
 11
106.1959731444
 21
73.5041195132
 31
0.0
  0
LINE
  5
9B
330
1F
100
AcDbEntity
  8
0
  6
Continuous
 62
     7
370
    25
100
AcDbLine
 10
129.6959751337
 20
70.2254002519
 30
0.0
 11
129.2697181045
 21
70.2254002519
 31
0.0
  0
SPLINE
  5
9C
330
1F
100
AcDbEntity
  8
0
  6
Continuous
 62
     7
370
    25
100
AcDbSpline
210
0.0
220
0.0
230
1.0
 70
     8
 71
     3
 72
    12
 73
     8
 74
     0
 42
0.000000001
 43
0.00000001
 40
0.0
 40
0.0
 40
0.0
 40
0.0
 40
0.2500000000000001
 40
0.2500000000000001
 40
0.5000000000000001
 40
0.5000000000000001
 40
1.0
 40
1.0
 40
1.0
 40
1.0
 10
129.269717824174
 20
70.22540025102944
 30
0.0
 10
129.2924303258821
 20
70.49670468940191
 30
0.0
 10
129.2999428457116
 20
70.76881688796226
 30
0.0
 10
129.301498920412
 20
71.31452657243405
 30
0.0
 10
129.2950720785711
 20
71.5879225265965
 30
0.0
 10
129.2648470782702
 20
72.40814440366577
 30
0.0
 10
129.2301515571565
 20
72.95647980098171
 30
0.0
 10
129.1959749921519
 20
73.50411951318043
 30
0.0
  0
SPLINE
  5
9D
330
1F
100
AcDbEntity
  8
0
  6
Continuous
 62
     7
370
    25
100
AcDbSpline
210
0.0
220
0.0
230
1.0
 70
     8
 71
     3
 72
    12
 73
     8
 74
     0
 42
0.000000001
 43
0.00000001
 40
0.0
 40
0.0
 40
0.0
 40
0.0
 40
0.25
 40
0.25
 40
0.5
 40
0.5
 40
1.0
 40
1.0
 40
1.0
 40
1.0
 10
129.6959749921519
 20
70.22540025102941
 30
0.0
 10
129.6959749921519
 20
70.50292225693923
 30
0.0
 10
129.676252046744
 20
70.77905858387199
 30
0.0
 10
129.6156155819828
 20
71.32984244728456
 30
0.0
 10
129.5743590362944
 20
71.60405084380994
 30
0.0
 10
129.4325857266223
 20
72.42220712145874
 30
0.0
 10
129.314018681462
 20
72.96317003656375
 30
0.0
 10
129.1959749921519
 20
73.50411951318043
 30
0.0
  0
ARC
  5
9E
330
1F
100
AcDbEntity
  8
0
  6
Continuous
 62
     7
370
    25
100
AcDbCircle
 10
128.6849322974
 20
69.1853610428
 30
0.0
 40
1.19317056478842
100
AcDbArc
 50
60.65213411
 51
82.3649073709
  0
SPLINE
  5
9F
330
1F
100
AcDbEntity
  8
0
  6
Continuous
 62
     7
370
    25
100
AcDbSpline
210
0.0
220
0.0
230
1.0
 70
     8
 71
     3
 72
    12
 73
     8
 74
     0
 42
0.000000001
 43
0.00000001
 40
0.0
 40
0.0
 40
0.0
 40
0.0
 40
0.25
 40
0.25
 40
0.5
 40
0.5
 40
1.0
 40
1.0
 40
1.0
 40
1.0
 10
128.8434606561961
 20
70.36795326242738
 30
0.0
 10
128.891502626826
 20
70.61992136361343
 30
0.0
 10
128.9281962694696
 20
70.87551988227102
 30
0.0
 10
128.9941869508943
 20
71.39204624713184
 30
0.0
 10
129.0229604390713
 20
71.65346640645225
 30
0.0
 10
129.1034361460819
 20
72.44115016079067
 30
0.0
 10
129.1495658493257
 20
72.97316173342588
 30
0.0
 10
129.1959749921519
 20
73.50411951318043
 30
0.0
  0
ARC
  5
A0
330
1F
100
AcDbEntity
  8
0
  6
Continuous
 62
     7
370
    25
100
AcDbCircle
 10
135.8772165218
 20
85.0151622079
 30
0.0
 40
1.193170564788362
100
AcDbArc
 50
330.65213411
 51
352.3649073709
  0
SPLINE
  5
A1
330
1F
100
AcDbEntity
  8
0
  6
Continuous
 62
     7
370
    25
100
AcDbSpline
210
0.0
220
0.0
230
1.0
 70
     8
 71
     3
 72
    12
 73
     8
 74
     0
 42
0.000000001
 43
0.00000001
 40
0.0
 40
0.0
 40
0.0
 40
0.0
 40
0.2499999999999999
 40
0.2499999999999999
 40
0.4999999999999999
 40
0.4999999999999999
 40
1.0
 40
1.0
 40
1.0
 40
1.0
 10
137.0598087413989
 20
84.85663384913629
 30
0.0
 10
137.311776842585
 20
84.80859187850639
 30
0.0
 10
137.5673753612426
 20
84.77189823586279
 30
0.0
 10
138.0839017261034
 20
84.70590755443806
 30
0.0
 10
138.3453218854238
 20
84.67713406626112
 30
0.0
 10
139.1330056397622
 20
84.59665835925041
 30
0.0
 10
139.6650172123974
 20
84.55052865600662
 30
0.0
 10
140.1959749921519
 20
84.5041195131804
 30
0.0
  0
SPLINE
  5
A2
330
1F
100
AcDbEntity
  8
0
  6
Continuous
 62
     7
370
    25
100
AcDbSpline
210
0.0
220
0.0
230
1.0
 70
     8
 71
     3
 72
    12
 73
     8
 74
     0
 42
0.000000001
 43
0.00000001
 40
0.0
 40
0.0
 40
0.0
 40
0.0
 40
0.2500000000000001
 40
0.2500000000000001
 40
0.5000000000000002
 40
0.5000000000000002
 40
1.0
 40
1.0
 40
1.0
 40
1.0
 10
136.917255730001
 20
84.43037668115835
 30
0.0
 10
137.1885601683734
 20
84.40766417945031
 30
0.0
 10
137.4606723669338
 20
84.4001516596208
 30
0.0
 10
138.0063820514056
 20
84.39859558492033
 30
0.0
 10
138.279778005568
 20
84.4050224267613
 30
0.0
 10
139.0999998826373
 20
84.43524742706212
 30
0.0
 10
139.6483352799532
 20
84.46994294817583
 30
0.0
 10
140.1959749921519
 20
84.5041195131804
 30
0.0
  0
LINE
  5
A3
330
1F
100
AcDbEntity
  8
0
  6
Continuous
 62
     7
370
    25
100
AcDbLine
 10
136.9172557309
 20
84.0041193716
 30
0.0
 11
136.9172557309
 21
84.4303764008
 31
0.0
  0
SPLINE
  5
A4
330
1F
100
AcDbEntity
  8
0
  6
Continuous
 62
     7
370
    25
100
AcDbSpline
210
0.0
220
0.0
230
1.0
 70
     8
 71
     3
 72
    12
 73
     8
 74
     0
 42
0.000000001
 43
0.00000001
 40
0.0
 40
0.0
 40
0.0
 40
0.0
 40
0.2500000000000001
 40
0.2500000000000001
 40
0.5000000000000001
 40
0.5000000000000001
 40
1.0
 40
1.0
 40
1.0
 40
1.0
 10
136.9172557300009
 20
84.0041195131804
 30
0.0
 10
137.1947777359108
 20
84.0041195131804
 30
0.0
 10
137.4709140628435
 20
84.02384245858833
 30
0.0
 10
138.0216979262561
 20
84.0844789233496
 30
0.0
 10
138.2959063227815
 20
84.12573546903795
 30
0.0
 10
139.1140626004303
 20
84.26750877871004
 30
0.0
 10
139.6550255155353
 20
84.38607582387037
 30
0.0
 10
140.1959749921519
 20
84.5041195131804
 30
0.0
  0
ARC
  5
A5
330
1F
100
AcDbEntity
  8
0
  6
Continuous
 62
     7
370
    25
100
AcDbCircle
 10
128.6849322974
 20
77.8228779836
 30
0.0
 40
1.193170564788394
100
AcDbArc
 50
277.6350926291
 51
299.34786589
  0
SPLINE
  5
A6
330
1F
100
AcDbEntity
  8
0
  6
Continuous
 62
     7
370
    25
100
AcDbSpline
210
0.0
220
0.0
230
1.0
 70
     8
 71
     3
 72
    12
 73
     8
 74
     0
 42
0.000000001
 43
0.00000001
 40
0.0
 40
0.0
 40
0.0
 40
0.0
 40
0.2499999999999999
 40
0.2499999999999999
 40
0.4999999999999998
 40
0.4999999999999998
 40
1.0
 40
1.0
 40
1.0
 40
1.0
 10
129.269717824174
 20
76.78283877533141
 30
0.0
 10
129.2924303258831
 20
76.51153433694635
 30
0.0
 10
129.2999428457123
 20
76.23942213837337
 30
0.0
 10
129.3014989204115
 20
75.6937124538761
 30
0.0
 10
129.2950720785694
 20
75.42031649970096
 30
0.0
 10
129.2648470782651
 20
74.60009462259353
 30
0.0
 10
129.2301515571469
 20
74.05175922540661
 30
0.0
 10
129.1959749921519
 20
73.50411951318043
 30
0.0
  0
SPLINE
  5
A7
330
1F
100
AcDbEntity
  8
0
  6
Continuous
 62
     7
370
    25
100
AcDbSpline
210
0.0
220
0.0
230
1.0
 70
     8
 71
     3
 72
    12
 73
     8
 74
     0
 42
0.000000001
 43
0.00000001
 40
0.0
 40
0.0
 40
0.0
 40
0.0
 40
0.2499999999999999
 40
0.2499999999999999
 40
0.4999999999999998
 40
0.4999999999999998
 40
1.0
 40
1.0
 40
1.0
 40
1.0
 10
128.843460656196
 20
76.64028576393355
 30
0.0
 10
128.8914858738387
 20
76.38840552796863
 30
0.0
 10
128.9281701441136
 20
76.13289733748498
 30
0.0
 10
128.994144037043
 20
75.61655494630507
 30
0.0
 10
129.0228956696113
 20
75.35538589473282
 30
0.0
 10
129.1034505704013
 20
74.56698899585939
 30
0.0
 10
129.1495820470202
 20
74.03489214088381
 30
0.0
 10
129.1959749921519
 20
73.50411951318043
 30
0.0
  0
SPLINE
  5
A8
330
1F
100
AcDbEntity
  8
0
  6
Continuous
 62
     7
370
    25
100
AcDbSpline
210
0.0
220
0.0
230
1.0
 70
     8
 71
     3
 72
    12
 73
     8
 74
     0
 42
0.000000001
 43
0.00000001
 40
0.0
 40
0.0
 40
0.0
 40
0.0
 40
0.2499999999999999
 40
0.2499999999999999
 40
0.4999999999999999
 40
0.4999999999999999
 40
1.0
 40
1.0
 40
1.0
 40
1.0
 10
129.6959749921519
 20
76.78283877533141
 30
0.0
 10
129.6959749921519
 20
76.50531676942161
 30
0.0
 10
129.676252046744
 20
76.22918044248884
 30
0.0
 10
129.6156155819828
 20
75.67839657907626
 30
0.0
 10
129.5743590362944
 20
75.40418818255088
 30
0.0
 10
129.4325857266223
 20
74.5860319049021
 30
0.0
 10
129.314018681462
 20
74.04506898979709
 30
0.0
 10
129.1959749921519
 20
73.50411951318043
 30
0.0
  0
LINE
  5
A9
330
1F
100
AcDbEntity
  8
0
  6
Continuous
 62
     7
370
    25
100
AcDbLine
 10
129.2697181045
 20
76.7828387745
 30
0.0
 11
129.6959751337
 21
76.7828387745
 31
0.0
  0
SPLINE
  5
AA
330
1F
100
AcDbEntity
  8
0
  6
Continuous
 62
     7
370
    25
100
AcDbSpline
210
0.0
220
0.0
230
1.0
 70
     8
 71
     3
 72
    12
 73
     8
 74
     0
 42
0.000000001
 43
0.00000001
 40
0.0
 40
0.0
 40
0.0
 40
0.0
 40
0.25
 40
0.25
 40
0.5
 40
0.5
 40
1.0
 40
1.0
 40
1.0
 40
1.0
 10
143.474694254303
 20
84.0041195131804
 30
0.0
 10
143.1971722483931
 20
84.0041195131804
 30
0.0
 10
142.9210359214604
 20
84.02384245858835
 30
0.0
 10
142.3702520580478
 20
84.0844789233496
 30
0.0
 10
142.0960436615224
 20
84.12573546903795
 30
0.0
 10
141.2778873838736
 20
84.26750877871004
 30
0.0
 10
140.7369244687686
 20
84.38607582387037
 30
0.0
 10
140.1959749921519
 20
84.5041195131804
 30
0.0
  0
SPLINE
  5
AB
330
1F
100
AcDbEntity
  8
0
  6
Continuous
 62
     7
370
    25
100
AcDbSpline
210
0.0
220
0.0
230
1.0
 70
     8
 71
     3
 72
    12
 73
     8
 74
     0
 42
0.000000001
 43
0.00000001
 40
0.0
 40
0.0
 40
0.0
 40
0.0
 40
0.25
 40
0.25
 40
0.5
 40
0.5
 40
1.0
 40
1.0
 40
1.0
 40
1.0
 10
143.474694254303
 20
84.43037668115835
 30
0.0
 10
143.2033898159179
 20
84.40766417944926
 30
0.0
 10
142.9312776173449
 20
84.40015165962005
 30
0.0
 10
142.3855679328477
 20
84.39859558492087
 30
0.0
 10
142.1121719786725
 20
84.40502242676293
 30
0.0
 10
141.291950101565
 20
84.4352474270673
 30
0.0
 10
140.7436147043782
 20
84.46994294818593
 30
0.0
 10
140.1959749921519
 20
84.5041195131804
 30
0.0
  0
LINE
  5
AC
330
1F
100
AcDbEntity
  8
0
  6
Continuous
 62
     7
370
    25
100
AcDbLine
 10
143.4746942534
 20
84.0041193716
 30
0.0
 11
143.4746942534
 21
84.4303764008
 31
0.0
  0
ARC
  5
AD
330
1F
100
AcDbEntity
  8
0
  6
Continuous
 62
     7
370
    25
100
AcDbCircle
 10
144.5147334625
 20
85.0151622079
 30
0.0
 40
1.193170564788394
100
AcDbArc
 50
187.6350926291
 51
209.34786589
  0
SPLINE
  5
AE
330
1F
100
AcDbEntity
  8
0
  6
Continuous
 62
     7
370
    25
100
AcDbSpline
210
0.0
220
0.0
230
1.0
 70
     8
 71
     3
 72
    12
 73
     8
 74
     0
 42
0.000000001
 43
0.00000001
 40
0.0
 40
0.0
 40
0.0
 40
0.0
 40
0.2499999999999999
 40
0.2499999999999999
 40
0.4999999999999998
 40
0.4999999999999998
 40
1.0
 40
1.0
 40
1.0
 40
1.0
 10
143.3321412429051
 20
84.8566338491363
 30
0.0
 10
143.0802610069402
 20
84.80860863149361
 30
0.0
 10
142.8247528164565
 20
84.77192436121871
 30
0.0
 10
142.3084104252766
 20
84.70595046828933
 30
0.0
 10
142.0472413737043
 20
84.67719883572104
 30
0.0
 10
141.2588444748309
 20
84.59664393493108
 30
0.0
 10
140.7267476198554
 20
84.55051245831214
 30
0.0
 10
140.1959749921519
 20
84.5041195131804
 30
0.0
  0
ARC
  5
AF
330
1F
100
AcDbEntity
  8
0
  6
Continuous
 62
     7
370
    25
100
AcDbCircle
 10
151.7070176869
 20
69.1853610428
 30
0.0
 40
1.19317056478842
100
AcDbArc
 50
97.6350926291
 51
119.34786589
  0
SPLINE
  5
B0
330
1F
100
AcDbEntity
  8
0
  6
Continuous
 62
     7
370
    25
100
AcDbSpline
210
0.0
220
0.0
230
1.0
 70
     8
 71
     3
 72
    12
 73
     8
 74
     0
 42
0.000000001
 43
0.00000001
 40
0.0
 40
0.0
 40
0.0
 40
0.0
 40
0.2500000000000001
 40
0.2500000000000001
 40
0.5000000000000001
 40
0.5000000000000001
 40
1.0
 40
1.0
 40
1.0
 40
1.0
 10
151.1222321601299
 20
70.22540025102941
 30
0.0
 10
151.0995196584208
 20
70.49670468941443
 30
0.0
 10
151.0920071385916
 20
70.76881688798738
 30
0.0
 10
151.0904510638924
 20
71.31452657248458
 30
0.0
 10
151.0968779057345
 20
71.58792252665968
 30
0.0
 10
151.1271029060388
 20
72.40814440376703
 30
0.0
 10
151.1617984271571
 20
72.95647980095428
 30
0.0
 10
151.1959749921519
 20
73.50411951318043
 30
0.0
  0
SPLINE
  5
B1
330
1F
100
AcDbEntity
  8
0
  6
Continuous
 62
     7
370
    25
100
AcDbSpline
210
0.0
220
0.0
230
1.0
 70
     8
 71
     3
 72
    12
 73
     8
 74
     0
 42
0.000000001
 43
0.00000001
 40
0.0
 40
0.0
 40
0.0
 40
0.0
 40
0.2499999999999999
 40
0.2499999999999999
 40
0.4999999999999999
 40
0.4999999999999999
 40
1.0
 40
1.0
 40
1.0
 40
1.0
 10
151.5484893281078
 20
70.36795326242728
 30
0.0
 10
151.5004473574716
 20
70.61992136364663
 30
0.0
 10
151.4637537148244
 20
70.87551988233844
 30
0.0
 10
151.3977630333933
 20
71.39204624726896
 30
0.0
 10
151.3689895452139
 20
71.65346640662499
 30
0.0
 10
151.2885138381958
 20
72.44115016106937
 30
0.0
 10
151.2423841349952
 20
72.97316173335095
 30
0.0
 10
151.1959749921519
 20
73.50411951318043
 30
0.0
  0
SPLINE
  5
B2
330
1F
100
AcDbEntity
  8
0
  6
Continuous
 62
     7
370
    25
100
AcDbSpline
210
0.0
220
0.0
230
1.0
 70
     8
 71
     3
 72
    12
 73
     8
 74
     0
 42
0.000000001
 43
0.00000001
 40
0.0
 40
0.0
 40
0.0
 40
0.0
 40
0.25
 40
0.25
 40
0.5
 40
0.5
 40
1.0
 40
1.0
 40
1.0
 40
1.0
 10
150.6959749921519
 20
70.22540025102941
 30
0.0
 10
150.6959749921519
 20
70.50292225693921
 30
0.0
 10
150.7156979375599
 20
70.77905858387199
 30
0.0
 10
150.7763344023211
 20
71.32984244728455
 30
0.0
 10
150.8175909480095
 20
71.60405084380994
 30
0.0
 10
150.9593642576816
 20
72.42220712145874
 30
0.0
 10
151.0779313028419
 20
72.96317003656375
 30
0.0
 10
151.1959749921519
 20
73.50411951318043
 30
0.0
  0
LINE
  5
B3
330
1F
100
AcDbEntity
  8
0
  6
Continuous
 62
     7
370
    25
100
AcDbLine
 10
151.1222318798
 20
70.2254002519
 30
0.0
 11
150.6959748506
 21
70.2254002519
 31
0.0
  0
LINE
  5
B4
330
1F
100
AcDbEntity
  8
0
  6
Continuous
 62
     7
370
    25
100
AcDbLine
 10
150.6959748506
 20
76.7828387745
 30
0.0
 11
151.1222318798
 21
76.7828387745
 31
0.0
  0
SPLINE
  5
B5
330
1F
100
AcDbEntity
  8
0
  6
Continuous
 62
     7
370
    25
100
AcDbSpline
210
0.0
220
0.0
230
1.0
 70
     8
 71
     3
 72
    12
 73
     8
 74
     0
 42
0.000000001
 43
0.00000001
 40
0.0
 40
0.0
 40
0.0
 40
0.0
 40
0.2500000000000001
 40
0.2500000000000001
 40
0.5000000000000001
 40
0.5000000000000001
 40
1.0
 40
1.0
 40
1.0
 40
1.0
 10
151.1222321601299
 20
76.78283877533138
 30
0.0
 10
151.0995196584219
 20
76.51153433695909
 30
0.0
 10
151.0920071385924
 20
76.23942213839892
 30
0.0
 10
151.0904510638919
 20
75.69371245392747
 30
0.0
 10
151.0968779057328
 20
75.4203164997649
 30
0.0
 10
151.1271029060336
 20
74.60009462269548
 30
0.0
 10
151.1617984271473
 20
74.05175922537876
 30
0.0
 10
151.1959749921519
 20
73.50411951318043
 30
0.0
  0
SPLINE
  5
B6
330
1F
100
AcDbEntity
  8
0
  6
Continuous
 62
     7
370
    25
100
AcDbSpline
210
0.0
220
0.0
230
1.0
 70
     8
 71
     3
 72
    12
 73
     8
 74
     0
 42
0.000000001
 43
0.00000001
 40
0.0
 40
0.0
 40
0.0
 40
0.0
 40
0.2499999999999999
 40
0.2499999999999999
 40
0.4999999999999999
 40
0.4999999999999999
 40
1.0
 40
1.0
 40
1.0
 40
1.0
 10
150.6959749921519
 20
76.78283877533141
 30
0.0
 10
150.6959749921519
 20
76.5053167694216
 30
0.0
 10
150.7156979375599
 20
76.22918044248884
 30
0.0
 10
150.7763344023211
 20
75.67839657907626
 30
0.0
 10
150.8175909480095
 20
75.40418818255088
 30
0.0
 10
150.9593642576816
 20
74.5860319049021
 30
0.0
 10
151.0779313028419
 20
74.04506898979709
 30
0.0
 10
151.1959749921519
 20
73.50411951318043
 30
0.0
  0
ARC
  5
B7
330
1F
100
AcDbEntity
  8
0
  6
Continuous
 62
     7
370
    25
100
AcDbCircle
 10
151.7070176869
 20
77.8228779836
 30
0.0
 40
1.193170564788394
100
AcDbArc
 50
240.65213411
 51
262.3649073709
  0
SPLINE
  5
B8
330
1F
100
AcDbEntity
  8
0
  6
Continuous
 62
     7
370
    25
100
AcDbSpline
210
0.0
220
0.0
230
1.0
 70
     8
 71
     3
 72
    12
 73
     8
 74
     0
 42
0.000000001
 43
0.00000001
 40
0.0
 40
0.0
 40
0.0
 40
0.0
 40
0.2499999999999999
 40
0.2499999999999999
 40
0.4999999999999998
 40
0.4999999999999998
 40
1.0
 40
1.0
 40
1.0
 40
1.0
 10
151.5484893281078
 20
76.64028576393352
 30
0.0
 10
151.500447357478
 20
76.38831766274745
 30
0.0
 10
151.4637537148343
 20
76.13271914408985
 30
0.0
 10
151.3977630334096
 20
75.61619277922901
 30
0.0
 10
151.3689895452327
 20
75.35477261990859
 30
0.0
 10
151.2885138382219
 20
74.5670888655702
 30
0.0
 10
151.2423841349772
 20
74.03507729293506
 30
0.0
 10
151.1959749921519
 20
73.50411951318043
 30
0.0
  0
LINE
  5
B9
330
1F
100
AcDbEntity
  8
0
  6
Continuous
 62
     7
370
    25
100
AcDbLine
 10
150.6959748506
 20
76.7828387745
 30
0.0
 11
150.6959748506
 21
82.5041191258
 31
0.0
  0
LWPOLYLINE
  5
BA
330
1F
100
AcDbEntity
  8
0
  6
Continuous
 62
     7
370
    25
100
AcDbPolyline
 90
        9
 70
   128
 43
0.0
 10
150.6959748506
 20
82.5041191258
 10
150.7935197144
 20
82.6016649209
 10
150.8873169362
 20
82.6954612114
 10
150.9737604349
 20
82.7819047101
 10
151.049528183
 20
82.8576724581
 10
151.1117097973
 20
82.9198540725
 10
151.1579145729
 20
82.966058848
 10
151.1863674089
 20
82.9945126153
 10
151.1959749325
 20
83.0041192077
  0
LINE
  5
BB
330
1F
100
AcDbEntity
  8
0
  6
Continuous
 62
     7
370
    25
100
AcDbLine
 10
151.1959749325
 20
83.0041192077
 30
0.0
 11
151.1959749325
 21
78.1945352048
 31
0.0
  0
SPLINE
  5
BC
330
1F
100
AcDbEntity
  8
0
  6
Continuous
 62
     7
370
    25
100
AcDbSpline
210
0.0
220
0.0
230
1.0
 70
     8
 71
     3
 72
     8
 73
     4
 74
     0
 42
0.000000001
 43
0.00000001
 40
0.0
 40
0.0
 40
0.0
 40
0.0
 40
1.0
 40
1.0
 40
1.0
 40
1.0
 10
151.1222321601299
 20
76.78283877533138
 30
0.0
 10
151.1653133449683
 20
77.25527973128519
 30
0.0
 10
151.1959749921519
 20
77.72640490964461
 30
0.0
 10
151.1959749921519
 20
78.19453527300385
 30
0.0
  0
LWPOLYLINE
  5
BD
330
1F
100
AcDbEntity
  8
0
  6
Continuous
 62
     7
370
    25
100
AcDbPolyline
 90
        9
 70
   128
 43
0.0
 10
149.1959746047
 20
84.0041193716
 10
149.2935203999
 20
84.1016642354
 10
149.3873166903
 20
84.1954614572
 10
149.4737601891
 20
84.2819049559
 10
149.5495279371
 20
84.357672704
 10
149.6117095514
 20
84.4198543183
 10
149.657914327
 20
84.4660590939
 10
149.6863680943
 20
84.4945119299
 10
149.6959746867
 20
84.5041194536
  0
LINE
  5
BE
330
1F
100
AcDbEntity
  8
0
  6
Continuous
 62
     7
370
    25
100
AcDbLine
 10
149.6959746867
 20
84.5041194536
 30
0.0
 11
149.6959746867
 21
84.0041193716
 31
0.0
  0
LINE
  5
BF
330
1F
100
AcDbEntity
  8
0
  6
Continuous
 62
     7
370
    25
100
AcDbLine
 10
149.1959746047
 20
84.0041193716
 30
0.0
 11
149.6959746867
 21
84.0041193716
 31
0.0
  0
LINE
  5
C0
330
1F
100
AcDbEntity
  8
0
  6
Continuous
 62
     7
370
    25
100
AcDbLine
 10
129.1959750518
 20
90.1054324187
 30
0.0
 11
151.1959749325
 21
90.1054324187
 31
0.0
  0
SPLINE
  5
C1
330
1F
100
AcDbEntity
  8
0
  6
Continuous
 62
     7
370
    25
100
AcDbSpline
210
0.0
220
0.0
230
1.0
 70
     8
 71
     3
 72
     8
 73
     4
 74
     0
 42
0.000000001
 43
0.00000001
 40
0.0
 40
0.0
 40
0.0
 40
0.0
 40
1.0
 40
1.0
 40
1.0
 40
1.0
 10
135.7094903523208
 20
85.0041195131804
 30
0.0
 10
136.1532726502323
 20
85.0041195131804
 30
0.0
 10
136.6025128464662
 20
84.94382502869482
 30
0.0
 10
137.0598087413989
 20
84.85663384913629
 30
0.0
  0
LINE
  5
C2
330
1F
100
AcDbEntity
  8
0
  6
Continuous
 62
     7
370
    25
100
AcDbLine
 10
130.6307575717
 20
85.0041195355
 30
0.0
 11
135.7094905391
 21
85.0041195355
 31
0.0
  0
LINE
  5
C3
330
1F
100
AcDbEntity
  8
0
  6
Continuous
 62
     7
370
    25
100
AcDbLine
 10
130.6307575717
 20
84.0041193716
 30
0.0
 11
130.6307575717
 21
85.0041195355
 31
0.0
  0
SPLINE
  5
C4
330
1F
100
AcDbEntity
  8
0
  6
Continuous
 62
     7
370
    25
100
AcDbSpline
210
0.0
220
0.0
230
1.0
 70
     8
 71
     3
 72
    10
 73
     6
 74
     0
 42
0.000000001
 43
0.00000001
 40
0.0
 40
0.0
 40
0.0
 40
0.0
 40
0.5
 40
0.5
 40
1.0
 40
1.0
 40
1.0
 40
1.0
 10
130.4906782353281
 20
83.65056612258715
 30
0.0
 10
130.5246851187853
 20
83.68611877347422
 30
0.0
 10
130.5575472567348
 20
83.73052954530127
 30
0.0
 10
130.6107504596824
 20
83.8471146833423
 30
0.0
 10
130.6307576008476
 20
83.92288269245199
 30
0.0
 10
130.6307576008476
 20
84.00411951318041
 30
0.0
  0
SPLINE
  5
C5
330
1F
100
AcDbEntity
  8
0
  6
Continuous
 62
     7
370
    25
100
AcDbSpline
210
0.0
220
0.0
230
1.0
 70
     8
 71
     3
 72
    10
 73
     6
 74
     0
 42
0.000000001
 43
0.00000001
 40
0.0
 40
0.0
 40
0.0
 40
0.0
 40
0.5
 40
0.5
 40
1.0
 40
1.0
 40
1.0
 40
1.0
 10
149.7611923834563
 20
84.00411951318041
 30
0.0
 10
149.7611923834563
 20
83.92288269245198
 30
0.0
 10
149.7811995246215
 20
83.8471146833423
 30
0.0
 10
149.8344027275691
 20
83.73052954530125
 30
0.0
 10
149.8672648655186
 20
83.6861187734742
 30
0.0
 10
149.9012717489758
 20
83.65056612258714
 30
0.0
  0
LINE
  5
C6
330
1F
100
AcDbEntity
  8
0
  6
Continuous
 62
     7
370
    25
100
AcDbLine
 10
149.7611924126
 20
85.0041195355
 30
0.0
 11
149.7611924126
 21
84.0041193716
 31
0.0
  0
LINE
  5
C7
330
1F
100
AcDbEntity
  8
0
  6
Continuous
 62
     7
370
    25
100
AcDbLine
 10
144.6824594452
 20
85.0041195355
 30
0.0
 11
149.7611924126
 21
85.0041195355
 31
0.0
  0
SPLINE
  5
C8
330
1F
100
AcDbEntity
  8
0
  6
Continuous
 62
     7
370
    25
100
AcDbSpline
210
0.0
220
0.0
230
1.0
 70
     8
 71
     3
 72
     8
 73
     4
 74
     0
 42
0.000000001
 43
0.00000001
 40
0.0
 40
0.0
 40
0.0
 40
0.0
 40
1.0
 40
1.0
 40
1.0
 40
1.0
 10
143.3321412429051
 20
84.8566338491363
 30
0.0
 10
143.7894371378378
 20
84.94382502869482
 30
0.0
 10
144.2386773340717
 20
85.0041195131804
 30
0.0
 10
144.6824596319831
 20
85.0041195131804
 30
0.0
  0
ARC
  5
C9
330
1F
100
AcDbEntity
  8
0
  6
Continuous
 62
     7
370
    25
100
AcDbCircle
 10
150.6959749922
 20
84.0041195132
 30
0.0
 40
1.5
100
AcDbArc
 50
180.0
 51
270.0
  0
ARC
  5
CA
330
1F
100
AcDbEntity
  8
0
  6
Continuous
 62
     7
370
    25
100
AcDbCircle
 10
150.6959749922
 20
84.0041195132
 30
0.0
 40
1.0
100
AcDbArc
 50
180.0
 51
270.0
  0
LINE
  5
CB
330
1F
100
AcDbEntity
  8
0
  6
Continuous
 62
     7
370
    25
100
AcDbLine
 10
150.6959748506
 20
82.5041191258
 30
0.0
 11
150.6959748506
 21
83.0041192077
 31
0.0
  0
SPLINE
  5
CC
330
1F
100
AcDbEntity
  8
0
  6
Continuous
 62
     7
370
    25
100
AcDbSpline
210
0.0
220
0.0
230
1.0
 70
     8
 71
     3
 72
    10
 73
     6
 74
     0
 42
0.000000001
 43
0.00000001
 40
0.0
 40
0.0
 40
0.0
 40
0.0
 40
0.5
 40
0.5
 40
1.0
 40
1.0
 40
1.0
 40
1.0
 10
129.6959749921519
 20
83.06933690448476
 30
0.0
 10
129.7772118128804
 20
83.06933690448476
 30
0.0
 10
129.8529798219901
 20
83.08934404564995
 30
0.0
 10
129.9695649600311
 20
83.14254724859758
 30
0.0
 10
130.0139757318581
 20
83.17540938654703
 30
0.0
 10
130.0495283827452
 20
83.20941627000425
 30
0.0
  0
LINE
  5
CD
330
1F
100
AcDbEntity
  8
0
  6
Continuous
 62
     7
370
    25
100
AcDbLine
 10
128.6959749698
 20
83.0693369336
 30
0.0
 11
129.6959751337
 21
83.0693369336
 31
0.0
  0
LINE
  5
CE
330
1F
100
AcDbEntity
  8
0
  6
Continuous
 62
     7
370
    25
100
AcDbLine
 10
128.6959749698
 20
77.9906039663
 30
0.0
 11
128.6959749698
 21
83.0693369336
 31
0.0
  0
SPLINE
  5
CF
330
1F
100
AcDbEntity
  8
0
  6
Continuous
 62
     7
370
    25
100
AcDbSpline
210
0.0
220
0.0
230
1.0
 70
     8
 71
     3
 72
     8
 73
     4
 74
     0
 42
0.000000001
 43
0.00000001
 40
0.0
 40
0.0
 40
0.0
 40
0.0
 40
1.0
 40
1.0
 40
1.0
 40
1.0
 10
128.843460656196
 20
76.64028576393355
 30
0.0
 10
128.7562694766376
 20
77.09758165886623
 30
0.0
 10
128.6959749921519
 20
77.54682185510013
 30
0.0
 10
128.6959749921519
 20
77.99060415301153
 30
0.0
  0
SPLINE
  5
D0
330
1F
100
AcDbEntity
  8
0
  6
Continuous
 62
     7
370
    25
100
AcDbSpline
210
0.0
220
0.0
230
1.0
 70
     8
 71
     3
 72
     8
 73
     4
 74
     0
 42
0.000000001
 43
0.00000001
 40
0.0
 40
0.0
 40
0.0
 40
0.0
 40
1.0
 40
1.0
 40
1.0
 40
1.0
 10
128.6959749921519
 20
69.01763487334931
 30
0.0
 10
128.6959749921519
 20
69.46141717126072
 30
0.0
 10
128.7562694766376
 20
69.91065736749466
 30
0.0
 10
128.8434606561961
 20
70.36795326242738
 30
0.0
  0
LINE
  5
D1
330
1F
100
AcDbEntity
  8
0
  6
Continuous
 62
     7
370
    25
100
AcDbLine
 10
128.6959749698
 20
63.4606409423
 30
0.0
 11
128.6959749698
 21
69.0176350601
 31
0.0
  0
LINE
  5
D2
330
1F
100
AcDbEntity
  8
0
  6
Continuous
 62
     7
370
    25
100
AcDbLine
 10
151.6959750145
 20
63.4606409423
 30
0.0
 11
128.6959749698
 21
63.4606409423
 31
0.0
  0
LINE
  5
D3
330
1F
100
AcDbEntity
  8
0
  6
Continuous
 62
     7
370
    25
100
AcDbLine
 10
151.6959750145
 20
69.0176350601
 30
0.0
 11
151.6959750145
 21
63.4606409423
 31
0.0
  0
SPLINE
  5
D4
330
1F
100
AcDbEntity
  8
0
  6
Continuous
 62
     7
370
    25
100
AcDbSpline
210
0.0
220
0.0
230
1.0
 70
     8
 71
     3
 72
     8
 73
     4
 74
     0
 42
0.000000001
 43
0.00000001
 40
0.0
 40
0.0
 40
0.0
 40
0.0
 40
1.0
 40
1.0
 40
1.0
 40
1.0
 10
151.5484893281078
 20
70.36795326242728
 30
0.0
 10
151.6356805076663
 20
69.9106573674946
 30
0.0
 10
151.6959749921519
 20
69.46141717126069
 30
0.0
 10
151.6959749921519
 20
69.01763487334931
 30
0.0
  0
SPLINE
  5
D5
330
1F
100
AcDbEntity
  8
0
  6
Continuous
 62
     7
370
    25
100
AcDbSpline
210
0.0
220
0.0
230
1.0
 70
     8
 71
     3
 72
     8
 73
     4
 74
     0
 42
0.000000001
 43
0.00000001
 40
0.0
 40
0.0
 40
0.0
 40
0.0
 40
1.0
 40
1.0
 40
1.0
 40
1.0
 10
151.6959749921519
 20
77.99060415301153
 30
0.0
 10
151.6959749921519
 20
77.54682185510012
 30
0.0
 10
151.6356805076663
 20
77.09758165886622
 30
0.0
 10
151.5484893281078
 20
76.64028576393352
 30
0.0
  0
LINE
  5
D6
330
1F
100
AcDbEntity
  8
0
  6
Continuous
 62
     7
370
    25
100
AcDbLine
 10
151.6959750145
 20
83.0693369336
 30
0.0
 11
151.6959750145
 21
77.9906039663
 31
0.0
  0
LINE
  5
D7
330
1F
100
AcDbEntity
  8
0
  6
Continuous
 62
     7
370
    25
100
AcDbLine
 10
150.6959748506
 20
83.0693369336
 30
0.0
 11
151.6959750145
 21
83.0693369336
 31
0.0
  0
SPLINE
  5
D8
330
1F
100
AcDbEntity
  8
0
  6
Continuous
 62
     7
370
    25
100
AcDbSpline
210
0.0
220
0.0
230
1.0
 70
     8
 71
     3
 72
    10
 73
     6
 74
     0
 42
0.000000001
 43
0.00000001
 40
0.0
 40
0.0
 40
0.0
 40
0.0
 40
0.5
 40
0.5
 40
1.0
 40
1.0
 40
1.0
 40
1.0
 10
150.3424216015587
 20
83.20941627000424
 30
0.0
 10
150.3779742524458
 20
83.17540938654702
 30
0.0
 10
150.4223850242728
 20
83.14254724859757
 30
0.0
 10
150.5389701623138
 20
83.08934404564994
 30
0.0
 10
150.6147381714235
 20
83.06933690448476
 30
0.0
 10
150.6959749921519
 20
83.06933690448476
 30
0.0
  0
LINE
  5
D9
330
1F
100
AcDbEntity
  8
0
  6
Continuous
 62
     7
370
    25
100
AcDbLine
 10
129.6959751337
 20
70.2254002519
 30
0.0
 11
129.6959751337
 21
64.0041198187
 31
0.0
  0
LWPOLYLINE
  5
DA
330
1F
100
AcDbEntity
  8
0
  6
Continuous
 62
     7
370
    25
100
AcDbPolyline
 90
        9
 70
   128
 43
0.0
 10
129.6959751337
 20
64.0041198187
 10
129.5984302699
 20
63.9065740235
 10
129.5046330481
 20
63.8127777331
 10
129.4181895494
 20
63.7263342343
 10
129.3424218013
 20
63.6505664863
 10
129.280240187
 20
63.5883848719
 10
129.2340354114
 20
63.5421800964
 10
129.2055825754
 20
63.5137272604
 10
129.1959750518
 20
63.5041197367
  0
LINE
  5
DB
330
1F
100
AcDbEntity
  8
0
  6
Continuous
 62
     7
370
    25
100
AcDbLine
 10
129.1959750518
 20
63.5041197367
 30
0.0
 11
129.1959750518
 21
68.8137038216
 31
0.0
  0
SPLINE
  5
DC
330
1F
100
AcDbEntity
  8
0
  6
Continuous
 62
     7
370
    25
100
AcDbSpline
210
0.0
220
0.0
230
1.0
 70
     8
 71
     3
 72
     8
 73
     4
 74
     0
 42
0.000000001
 43
0.00000001
 40
0.0
 40
0.0
 40
0.0
 40
0.0
 40
1.0
 40
1.0
 40
1.0
 40
1.0
 10
129.269717824174
 20
70.22540025102944
 30
0.0
 10
129.2266366393356
 20
69.75295929507564
 30
0.0
 10
129.1959749921519
 20
69.28183411671623
 30
0.0
 10
129.1959749921519
 20
68.81370375335698
 30
0.0
  0
ARC
  5
DD
330
1F
100
AcDbEntity
  8
0
  6
Continuous
 62
     7
370
    25
100
AcDbCircle
 10
129.6959749922
 20
84.0041195132
 30
0.0
 40
1.5
100
AcDbArc
 50
270.0
 51
0.0
  0
LINE
  5
DE
330
1F
100
AcDbEntity
  8
0
  6
Continuous
 62
     7
370
    25
100
AcDbLine
 10
129.6959751337
 20
82.5041191258
 30
0.0
 11
129.6959751337
 21
83.0041192077
 31
0.0
  0
ARC
  5
DF
330
1F
100
AcDbEntity
  8
0
  6
Continuous
 62
     7
370
    25
100
AcDbCircle
 10
129.6959749922
 20
84.0041195132
 30
0.0
 40
1.0
100
AcDbArc
 50
270.0
 51
0.0
  0
LINE
  5
E0
330
1F
100
AcDbEntity
  8
0
  6
Continuous
 62
     7
370
    25
100
AcDbLine
 10
131.1959753796
 20
84.0041193716
 30
0.0
 11
130.6959752976
 21
84.0041193716
 31
0.0
  0
LINE
  5
E1
330
1F
100
AcDbEntity
  8
0
  6
Continuous
 62
     7
370
    25
100
AcDbLine
 10
149.1959746047
 20
84.0041193716
 30
0.0
 11
143.4746942534
 21
84.0041193716
 31
0.0
  0
SPLINE
  5
E2
330
1F
100
AcDbEntity
  8
0
  6
Continuous
 62
     7
370
    25
100
AcDbSpline
210
0.0
220
0.0
230
1.0
 70
     8
 71
     3
 72
     8
 73
     4
 74
     0
 42
0.000000001
 43
0.00000001
 40
0.0
 40
0.0
 40
0.0
 40
0.0
 40
1.0
 40
1.0
 40
1.0
 40
1.0
 10
144.8863907519754
 20
84.5041195131804
 30
0.0
 10
144.4181663282018
 20
84.5041195131804
 30
0.0
 10
143.9471858438322
 20
84.47346248319684
 30
0.0
 10
143.474694254303
 20
84.43037668115835
 30
0.0
  0
LINE
  5
E3
330
1F
100
AcDbEntity
  8
0
  6
Continuous
 62
     7
370
    25
100
AcDbLine
 10
144.8863906837
 20
84.5041194536
 30
0.0
 11
149.6959746867
 21
84.5041194536
 31
0.0
  0
LINE
  5
E4
330
1F
100
AcDbEntity
  8
0
  6
Continuous
 62
     7
370
    25
100
AcDbLine
 10
136.9172557309
 20
84.0041193716
 30
0.0
 11
131.1959753796
 21
84.0041193716
 31
0.0
  0
LWPOLYLINE
  5
E5
330
1F
100
AcDbEntity
  8
0
  6
Continuous
 62
     7
370
    25
100
AcDbPolyline
 90
        9
 70
   128
 43
0.0
 10
131.1959753796
 20
84.0041193716
 10
131.0984295844
 20
84.1016642354
 10
131.004633294
 20
84.1954614572
 10
130.9181897953
 20
84.2819049559
 10
130.8424220472
 20
84.357672704
 10
130.7802404329
 20
84.4198543183
 10
130.7340356573
 20
84.4660590939
 10
130.70558189
 20
84.4945119299
 10
130.6959752976
 20
84.5041194536
  0
LINE
  5
E6
330
1F
100
AcDbEntity
  8
0
  6
Continuous
 62
     7
370
    25
100
AcDbLine
 10
130.6959752976
 20
84.5041194536
 30
0.0
 11
135.5055593006
 21
84.5041194536
 31
0.0
  0
SPLINE
  5
E7
330
1F
100
AcDbEntity
  8
0
  6
Continuous
 62
     7
370
    25
100
AcDbSpline
210
0.0
220
0.0
230
1.0
 70
     8
 71
     3
 72
     8
 73
     4
 74
     0
 42
0.000000001
 43
0.00000001
 40
0.0
 40
0.0
 40
0.0
 40
0.0
 40
1.0
 40
1.0
 40
1.0
 40
1.0
 10
136.917255730001
 20
84.43037668115835
 30
0.0
 10
136.4448147740472
 20
84.47345786599675
 30
0.0
 10
135.9736895956877
 20
84.5041195131804
 30
0.0
 10
135.5055592323285
 20
84.5041195131804
 30
0.0
  0
LINE
  5
E8
330
1F
100
AcDbEntity
  8
0
  6
Continuous
 62
     7
370
    25
100
AcDbLine
 10
150.6959748506
 20
83.0041192077
 30
0.0
 11
151.1959749325
 21
83.0041192077
 31
0.0
  0
LINE
  5
E9
330
1F
100
AcDbEntity
  8
0
  6
Continuous
 62
     7
370
    25
100
AcDbLine
 10
131.5946624666
 20
92.5041189022
 30
0.0
 11
148.7972875177
 21
92.5041189022
 31
0.0
  0
LINE
  5
EA
330
1F
100
AcDbEntity
  8
0
  6
Continuous
 62
     7
370
    25
100
AcDbLine
 10
130.6959752976
 20
84.0041193716
 30
0.0
 11
130.6959752976
 21
84.5041194536
 31
0.0
  0
LINE
  5
EB
330
1F
100
AcDbEntity
  8
0
  6
Continuous
 62
     7
370
    25
100
AcDbLine
 10
150.6959748506
 20
64.0041198187
 30
0.0
 11
150.6959748506
 21
70.2254002519
 31
0.0
  0
LINE
  5
EC
330
1F
100
AcDbEntity
  8
0
  6
Continuous
 62
     7
370
    25
100
AcDbLine
 10
129.6959751337
 20
64.0041198187
 30
0.0
 11
150.6959748506
 21
64.0041198187
 31
0.0
  0
LINE
  5
ED
330
1F
100
AcDbEntity
  8
0
  6
Continuous
 62
     7
370
    25
100
AcDbLine
 10
129.6959751337
 20
82.5041191258
 30
0.0
 11
129.6959751337
 21
76.7828387745
 31
0.0
  0
LINE
  5
EE
330
1F
100
AcDbEntity
  8
0
  6
Continuous
 62
     7
370
    25
100
AcDbLine
 10
143.9615277625
 20
66.6307447083
 30
0.0
 11
144.663086073
 21
65.2933403455
 31
0.0
  0
ELLIPSE
  5
EF
330
1F
100
AcDbEntity
  8
0
  6
Continuous
 62
     7
370
    25
100
AcDbEllipse
 10
144.7299131453
 20
65.3251890938
 30
0.0
 11
0.07471508237065905
 21
0.0
 31
0.0
210
0.0
220
0.0
230
1.0
 40
0.9531667975
 41
3.605240262591804
 42
5.462183310213709
  0
LINE
  5
F0
330
1F
100
AcDbEntity
  8
0
  6
Continuous
 62
     7
370
    25
100
AcDbLine
 10
149.042153643
 20
66.6307447083
 30
0.0
 11
149.0054567396
 21
66.6097741179
 31
0.0
  0
ELLIPSE
  5
F1
330
1F
100
AcDbEntity
  8
0
  6
Continuous
 62
     7
370
    25
100
AcDbEllipse
 10
148.6981061194
 20
67.0984107251
 30
0.0
 11
-0.5977206589647892
 21
-1.563194018672221E-13
 31
0.0
210
0.0
220
0.0
230
1.0
 40
0.9531667975
 41
0.3285531705514235
 42
2.11087652694728
  0
ELLIPSE
  5
F2
330
1F
100
AcDbEntity
  8
0
  6
Continuous
 62
     7
370
    25
100
AcDbEllipse
 10
146.5018404543
 20
69.7865006516
 30
0.0
 11
0.5743721957241519
 21
1.250555214937776E-12
 31
0.0
210
0.0
220
0.0
230
1.0
 40
0.9531667975
 41
0.4357918987530006
 42
2.705800754832464
  0
LINE
  5
F3
330
1F
100
AcDbEntity
  8
0
  6
Continuous
 62
     7
370
    25
100
AcDbLine
 10
148.3405948668
 20
65.2933403455
 30
0.0
 11
149.042153643
 21
66.6307447083
 31
0.0
  0
ELLIPSE
  5
F4
330
1F
100
AcDbEntity
  8
0
  6
Continuous
 62
     7
370
    25
100
AcDbEllipse
 10
148.2737677633
 20
65.3251890938
 30
0.0
 11
0.07471508237063063
 21
2.842170943040401E-14
 31
0.0
210
0.0
220
0.0
230
1.0
 40
0.9531667976
 41
3.962594650565187
 42
5.819537698169127
  0
ELLIPSE
  5
F5
330
1F
100
AcDbEntity
  8
0
  6
Continuous
 62
     7
370
    25
100
AcDbEllipse
 10
146.5018404543
 20
63.5114865093
 30
0.0
 11
2.525369784127093
 21
-1.705302565824240E-13
 31
0.0
210
0.0
220
0.0
230
1.0
 40
0.9531667975
 41
0.8210019969639395
 42
2.320590656625496
  0
LINE
  5
F6
330
1F
100
AcDbEntity
  8
0
  6
Continuous
 62
     7
370
    25
100
AcDbLine
 10
144.0069730445
 20
66.6057354376
 30
0.0
 11
143.9615277625
 21
66.6307447083
 31
0.0
  0
ELLIPSE
  5
F7
330
1F
100
AcDbEntity
  8
0
  6
Continuous
 62
     7
370
    25
100
AcDbEllipse
 10
144.3058334198
 20
67.0991338448
 30
0.0
 11
-0.5977206589639081
 21
5.684341886080801E-14
 31
0.0
210
0.0
220
0.0
230
1.0
 40
0.9531667975
 41
1.047197551195651
 42
2.813039483037407
  0
LINE
  5
F8
330
1F
100
AcDbEntity
  8
0
  6
Continuous
 62
     7
370
    25
100
AcDbLine
 10
145.9811515226
 20
70.0176042575
 30
0.0
 11
144.8715821891
 21
66.9152977481
 31
0.0
  0
LINE
  5
F9
330
1F
100
AcDbEntity
  8
0
  6
Continuous
 62
     7
370
    25
100
AcDbLine
 10
148.1323576584
 20
66.9145745762
 30
0.0
 11
147.0225294172
 21
70.0176042575
 31
0.0
  0
LWPOLYLINE
  5
FA
330
1F
100
AcDbEntity
  8
0
  6
Continuous
 62
     7
370
    25
100
AcDbPolyline
 90
        9
 70
   128
 43
0.0
 10
150.6959748506
 20
64.0041198187
 10
150.7935197144
 20
63.9065740235
 10
150.8873169362
 20
63.8127777331
 10
150.9737604349
 20
63.7263342343
 10
151.049528183
 20
63.6505664863
 10
151.1117097973
 20
63.5883848719
 10
151.1579145729
 20
63.5421800964
 10
151.1863674089
 20
63.5137272604
 10
151.1959749325
 20
63.5041197367
  0
SPLINE
  5
FB
330
1F
100
AcDbEntity
  8
0
  6
Continuous
 62
     7
370
    25
100
AcDbSpline
210
0.0
220
0.0
230
1.0
 70
     8
 71
     3
 72
     8
 73
     4
 74
     0
 42
0.000000001
 43
0.00000001
 40
0.0
 40
0.0
 40
0.0
 40
0.0
 40
1.0
 40
1.0
 40
1.0
 40
1.0
 10
151.1959749921519
 20
68.81370375335699
 30
0.0
 10
151.1959749921519
 20
69.28192817713054
 30
0.0
 10
151.1653179621684
 20
69.75290866150013
 30
0.0
 10
151.1222321601299
 20
70.22540025102941
 30
0.0
  0
LINE
  5
FC
330
1F
100
AcDbEntity
  8
0
  6
Continuous
 62
     7
370
    25
100
AcDbLine
 10
151.1959749325
 20
68.8137038216
 30
0.0
 11
151.1959749325
 21
63.5041197367
 31
0.0
  0
LWPOLYLINE
  5
FD
330
1F
100
AcDbEntity
  8
0
  6
Continuous
 62
     7
370
    25
100
AcDbPolyline
 90
        9
 70
   128
 43
0.0
 10
129.1959750518
 20
83.0041192077
 10
129.2055825754
 20
82.9945126153
 10
129.2340354114
 20
82.966058848
 10
129.280240187
 20
82.9198540725
 10
129.3424218013
 20
82.8576724581
 10
129.4181895494
 20
82.7819047101
 10
129.5046330481
 20
82.6954612114
 10
129.5984302699
 20
82.6016649209
 10
129.6959751337
 20
82.5041191258
  0
LINE
  5
FE
330
1F
100
AcDbEntity
  8
0
  6
Continuous
 62
     7
370
    25
100
AcDbLine
 10
129.1959750518
 20
83.0041192077
 30
0.0
 11
129.6959751337
 21
83.0041192077
 31
0.0
  0
LINE
  5
FF
330
1F
100
AcDbEntity
  8
0
  6
Continuous
 62
     7
370
    25
100
AcDbLine
 10
151.1959749325
 20
63.5041197367
 30
0.0
 11
129.1959750518
 21
63.5041197367
 31
0.0
  0
SPLINE
  5
100
330
1F
100
AcDbEntity
  8
0
  6
Continuous
 62
     7
370
    25
100
AcDbSpline
210
0.0
220
0.0
230
1.0
 70
     8
 71
     3
 72
     8
 73
     4
 74
     0
 42
0.000000001
 43
0.00000001
 40
0.0
 40
0.0
 40
0.0
 40
0.0
 40
1.0
 40
1.0
 40
1.0
 40
1.0
 10
129.1959749921519
 20
78.19453527300384
 30
0.0
 10
129.1959749921519
 20
77.72631084923029
 30
0.0
 10
129.2266320221355
 20
77.25533036486068
 30
0.0
 10
129.269717824174
 20
76.78283877533141
 30
0.0
  0
LINE
  5
101
330
1F
100
AcDbEntity
  8
0
  6
Continuous
 62
     7
370
    25
100
AcDbLine
 10
129.1959750518
 20
78.1945352048
 30
0.0
 11
129.1959750518
 21
83.0041192077
 31
0.0
  0
ELLIPSE
  5
102
330
1F
100
AcDbEntity
  8
0
  6
Continuous
 62
     7
370
    25
100
AcDbEllipse
 10
146.5018404561
 20
67.7008911417
 30
0.0
 11
0.07471508237068747
 21
0.0
 31
0.0
210
0.0
220
0.0
230
1.0
 40
0.9531667975
 41
0.3430239404210493
 42
2.798568713168556
  0
LINE
  5
103
330
1F
100
AcDbEntity
  8
0
  6
Continuous
 62
     7
370
    25
100
AcDbLine
 10
146.2342859297
 20
66.9156083442
 30
0.0
 11
146.7693950101
 21
66.9156083442
 31
0.0
  0
LINE
  5
104
330
1F
100
AcDbEntity
  8
0
  6
Continuous
 62
     7
370
    25
100
AcDbLine
 10
146.4314781181
 20
67.7248438425
 30
0.0
 11
146.1639235779
 21
67.0107764728
 31
0.0
  0
LINE
  5
105
330
1F
100
AcDbEntity
  8
0
  6
Continuous
 62
     7
370
    25
100
AcDbLine
 10
146.8397568963
 20
67.0107764728
 30
0.0
 11
146.5722028218
 21
67.7248438425
 31
0.0
  0
ELLIPSE
  5
106
330
1F
100
AcDbEntity
  8
0
  6
Continuous
 62
     7
370
    25
100
AcDbEllipse
 10
146.2342861114
 20
66.9868241759
 30
0.0
 11
-0.07471508237068747
 21
0.0
 31
0.0
210
0.0
220
0.0
230
1.0
 40
0.9531667975
 41
5.94016136489802
 42
7.853981633974483
  0
ELLIPSE
  5
107
330
1F
100
AcDbEntity
  8
0
  6
Continuous
 62
     7
370
    25
100
AcDbEllipse
 10
146.7693947976
 20
66.9868241758
 30
0.0
 11
0.07471508237063063
 21
2.842170943040401E-14
 31
0.0
210
0.0
220
0.0
230
1.0
 40
0.9531667975
 41
4.712388980384341
 42
6.626209245754739
  0
LWPOLYLINE
  5
108
330
1F
100
AcDbEntity
  8
0
  6
Continuous
 62
     7
370
    25
100
AcDbPolyline
 90
        9
 70
   128
 43
0.0
 10
151.1959749325
 20
78.1945352048
 10
151.2055824562
 20
78.1547505014
 10
151.2340352922
 20
78.1164940983
 10
151.2802400678
 20
78.0812370196
 10
151.3424216821
 20
78.0503343396
 10
151.4181894302
 20
78.0249725632
 10
151.5046329289
 20
78.0061277166
 10
151.5984301507
 20
77.994522506
 10
151.6959750145
 20
77.9906039663
  0
LWPOLYLINE
  5
109
330
1F
100
AcDbEntity
  8
0
  6
Continuous
 62
     7
370
    25
100
AcDbPolyline
 90
        9
 70
   128
 43
0.0
 10
128.6959749698
 20
69.0176350601
 10
128.7935198336
 20
69.0137165204
 10
128.8873170554
 20
69.0021113098
 10
128.9737605541
 20
68.9832664631
 10
129.0495283022
 20
68.9579046868
 10
129.1117099165
 20
68.9270020068
 10
129.1579146921
 20
68.8917449281
 10
129.1863675281
 20
68.853488525
 10
129.1959750518
 20
68.8137038216
  0
LWPOLYLINE
  5
10A
330
1F
100
AcDbEntity
  8
0
  6
Continuous
 62
     7
370
    25
100
AcDbPolyline
 90
        9
 70
   128
 43
0.0
 10
128.6959749698
 20
77.9906039663
 10
128.7935198336
 20
77.994522506
 10
128.8873170554
 20
78.0061277166
 10
128.9737605541
 20
78.0249725632
 10
129.0495283022
 20
78.0503343396
 10
129.1117099165
 20
78.0812370196
 10
129.1579146921
 20
78.1164940983
 10
129.1863675281
 20
78.1547505014
 10
129.1959750518
 20
78.1945352048
  0
LWPOLYLINE
  5
10B
330
1F
100
AcDbEntity
  8
0
  6
Continuous
 62
     7
370
    25
100
AcDbPolyline
 90
        9
 70
   128
 43
0.0
 10
144.6824594452
 20
85.0041195355
 10
144.686377985
 20
84.9065746717
 10
144.6979831956
 20
84.8127774499
 10
144.7168280422
 20
84.7263339512
 10
144.7421898186
 20
84.6505662031
 10
144.7730924986
 20
84.5883845888
 10
144.8083495773
 20
84.5421798132
 10
144.8466059803
 20
84.5137269773
 10
144.8863906837
 20
84.5041194536
  0
LWPOLYLINE
  5
10C
330
1F
100
AcDbEntity
  8
0
  6
Continuous
 62
     7
370
    25
100
AcDbPolyline
 90
        9
 70
   128
 43
0.0
 10
135.5055593006
 20
84.5041194536
 10
135.545344004
 20
84.5137269773
 10
135.583600407
 20
84.5421798132
 10
135.6188574857
 20
84.5883845888
 10
135.6497601657
 20
84.6505662031
 10
135.6751219421
 20
84.7263339512
 10
135.6939667887
 20
84.8127774499
 10
135.7055719993
 20
84.9065746717
 10
135.7094905391
 20
85.0041195355
  0
LWPOLYLINE
  5
10D
330
1F
100
AcDbEntity
  8
0
  6
Continuous
 62
     7
370
    25
100
AcDbPolyline
 90
        9
 70
   128
 43
0.0
 10
151.6959750145
 20
69.0176350601
 10
151.5984301507
 20
69.0137165204
 10
151.5046329289
 20
69.0021113098
 10
151.4181894302
 20
68.9832664631
 10
151.3424216821
 20
68.9579046868
 10
151.2802400678
 20
68.9270020068
 10
151.2340352922
 20
68.8917449281
 10
151.2055824562
 20
68.853488525
 10
151.1959749325
 20
68.8137038216
  0
SPLINE
  5
10E
330
1F
100
AcDbEntity
  8
0
  6
Continuous
 62
     7
370
    25
100
AcDbSpline
210
0.0
220
0.0
230
1.0
 70
    24
 71
     3
 72
    12
 73
     8
 74
     0
 42
0.000000001
 43
0.00000001
 40
0.0
 40
0.0
 40
0.0
 40
0.0
 40
0.5000000000000022
 40
0.5000000000000022
 40
0.7500000000000011
 40
0.7500000000000011
 40
1.0
 40
1.0
 40
1.0
 40
1.0
 10
130.6959749921519
 20
84.5041195131804
 30
0.0
 10
130.6959749921519
 20
84.5041195131804
 30
0.0
 10
130.6959749921519
 20
84.52260424431776
 30
0.0
 10
130.6959749921519
 20
84.58074042819838
 30
0.0
 10
130.6959749921519
 20
84.60558521424035
 30
0.0
 10
130.6959749921519
 20
84.6675298743181
 30
0.0
 10
130.6959749921519
 20
84.7043654349352
 30
0.0
 10
130.6959749921519
 20
84.7524219892265
 30
0.0
  0
SPLINE
  5
10F
330
1F
100
AcDbEntity
  8
0
  6
Continuous
 62
     7
370
    25
100
AcDbSpline
210
0.0
220
0.0
230
1.0
 70
     8
 71
     3
 72
     8
 73
     4
 74
     0
 42
0.000000001
 43
0.00000001
 40
0.0
 40
0.0
 40
0.0
 40
0.0
 40
1.0
 40
1.0
 40
1.0
 40
1.0
 10
130.6959749921519
 20
84.75242198922508
 30
0.0
 10
130.6959749921519
 20
84.83263276762364
 30
0.0
 10
130.6720443700447
 20
84.91863326434827
 30
0.0
 10
130.6307576008476
 20
85.0041195131804
 30
0.0
  0
SPLINE
  5
110
330
1F
100
AcDbEntity
  8
0
  6
Continuous
 62
     7
370
    25
100
AcDbSpline
210
0.0
220
0.0
230
1.0
 70
     8
 71
     3
 72
     8
 73
     4
 74
     0
 42
0.000000001
 43
0.00000001
 40
0.0
 40
0.0
 40
0.0
 40
0.0
 40
1.0
 40
1.0
 40
1.0
 40
1.0
 10
151.4442774681966
 20
83.0041195131804
 30
0.0
 10
151.5244882465952
 20
83.0041195131804
 30
0.0
 10
151.6104887433189
 20
83.02805013528811
 30
0.0
 10
151.6959749921519
 20
83.06933690448476
 30
0.0
  0
SPLINE
  5
111
330
1F
100
AcDbEntity
  8
0
  6
Continuous
 62
     7
370
    25
100
AcDbSpline
210
0.0
220
0.0
230
1.0
 70
    24
 71
     3
 72
    12
 73
     8
 74
     0
 42
0.000000001
 43
0.00000001
 40
0.0
 40
0.0
 40
0.0
 40
0.0
 40
0.5000000000000023
 40
0.5000000000000023
 40
0.7500000000000011
 40
0.7500000000000011
 40
1.0
 40
1.0
 40
1.0
 40
1.0
 10
151.1959749921519
 20
83.0041195131804
 30
0.0
 10
151.1959749921519
 20
83.0041195131804
 30
0.0
 10
151.2144597232893
 20
83.0041195131804
 30
0.0
 10
151.2725959071699
 20
83.0041195131804
 30
0.0
 10
151.2974406932119
 20
83.00411951318041
 30
0.0
 10
151.3593853532896
 20
83.0041195131804
 30
0.0
 10
151.3962209139067
 20
83.0041195131804
 30
0.0
 10
151.444277468198
 20
83.0041195131804
 30
0.0
  0
SPLINE
  5
112
330
1F
100
AcDbEntity
  8
0
  6
Continuous
 62
     7
370
    25
100
AcDbSpline
210
0.0
220
0.0
230
1.0
 70
     8
 71
     3
 72
     8
 73
     4
 74
     0
 42
0.000000001
 43
0.00000001
 40
0.0
 40
0.0
 40
0.0
 40
0.0
 40
1.0
 40
1.0
 40
1.0
 40
1.0
 10
128.9476725161073
 20
83.00411951318041
 30
0.0
 10
128.8674617377087
 20
83.00411951318041
 30
0.0
 10
128.7814612409861
 20
83.02805013528864
 30
0.0
 10
128.6959749921519
 20
83.06933690448476
 30
0.0
  0
SPLINE
  5
113
330
1F
100
AcDbEntity
  8
0
  6
Continuous
 62
     7
370
    25
100
AcDbSpline
210
0.0
220
0.0
230
1.0
 70
    24
 71
     3
 72
    10
 73
     6
 74
     0
 42
0.000000001
 43
0.00000001
 40
0.0
 40
0.0
 40
0.0
 40
0.0
 40
0.5
 40
0.5
 40
1.0
 40
1.0
 40
1.0
 40
1.0
 10
128.9476725161073
 20
83.00411951318041
 30
0.0
 10
129.0431495850387
 20
83.00411951318041
 30
0.0
 10
129.1000283902472
 20
83.00411951318041
 30
0.0
 10
129.1771258987746
 20
83.00411951318041
 30
0.0
 10
129.1959749921518
 20
83.00411951318041
 30
0.0
 10
129.1959749921519
 20
83.00411951318041
 30
0.0
  0
SPLINE
  5
114
330
1F
100
AcDbEntity
  8
0
  6
Continuous
 62
     7
370
    25
100
AcDbSpline
210
0.0
220
0.0
230
1.0
 70
     8
 71
     3
 72
     8
 73
     4
 74
     0
 42
0.000000001
 43
0.00000001
 40
0.0
 40
0.0
 40
0.0
 40
0.0
 40
1.0
 40
1.0
 40
1.0
 40
1.0
 10
149.6959749921519
 20
84.75242198922504
 30
0.0
 10
149.6959749921519
 20
84.8326327676236
 30
0.0
 10
149.7199056142606
 20
84.91863326434544
 30
0.0
 10
149.7611923834563
 20
85.0041195131804
 30
0.0
  0
SPLINE
  5
115
330
1F
100
AcDbEntity
  8
0
  6
Continuous
 62
     7
370
    25
100
AcDbSpline
210
0.0
220
0.0
230
1.0
 70
    24
 71
     3
 72
    10
 73
     6
 74
     0
 42
0.000000001
 43
0.00000001
 40
0.0
 40
0.0
 40
0.0
 40
0.0
 40
0.5
 40
0.5
 40
1.0
 40
1.0
 40
1.0
 40
1.0
 10
149.6959749921519
 20
84.75242198922504
 30
0.0
 10
149.6959749921519
 20
84.65694492029367
 30
0.0
 10
149.6959749921519
 20
84.6000661150851
 30
0.0
 10
149.6959749921519
 20
84.52296860655778
 30
0.0
 10
149.6959749921519
 20
84.50411951318054
 30
0.0
 10
149.6959749921519
 20
84.5041195131804
 30
0.0
  0
SPLINE
  5
116
330
1F
100
AcDbEntity
  8
0
  6
Continuous
 62
     7
370
    25
100
AcDbSpline
210
0.0
220
0.0
230
1.0
 70
     8
 71
     3
 72
     8
 73
     4
 74
     0
 42
0.000000001
 43
0.00000001
 40
0.0
 40
0.0
 40
0.0
 40
0.0
 40
1.0
 40
1.0
 40
1.0
 40
1.0
 10
128.9040696708609
 20
63.50411951318041
 30
0.0
 10
128.8364800757594
 20
63.50411951318041
 30
0.0
 10
128.7661887922405
 20
63.48864934909025
 30
0.0
 10
128.6959749921519
 20
63.46064125231085
 30
0.0
  0
SPLINE
  5
117
330
1F
100
AcDbEntity
  8
0
  6
Continuous
 62
     7
370
    25
100
AcDbSpline
210
0.0
220
0.0
230
1.0
 70
    24
 71
     3
 72
    12
 73
     8
 74
     0
 42
0.000000001
 43
0.00000001
 40
0.0
 40
0.0
 40
0.0
 40
0.0
 40
0.4999999999999989
 40
0.4999999999999989
 40
0.7499999999999994
 40
0.7499999999999994
 40
1.0
 40
1.0
 40
1.0
 40
1.0
 10
129.1959749921519
 20
63.50411951318041
 30
0.0
 10
129.1959749921519
 20
63.50411951318041
 30
0.0
 10
129.1747754441762
 20
63.50411951318041
 30
0.0
 10
129.1088481078461
 20
63.50411951318041
 30
0.0
 10
129.0806088609311
 20
63.50411951318041
 30
0.0
 10
129.0080584852135
 20
63.50411951318041
 30
0.0
 10
128.9650716529955
 20
63.50411951318041
 30
0.0
 10
128.9040696708609
 20
63.50411951318041
 30
0.0
  0
SPLINE
  5
118
330
1F
100
AcDbEntity
  8
0
  6
Continuous
 62
     7
370
    25
100
AcDbSpline
210
0.0
220
0.0
230
1.0
 70
     8
 71
     3
 72
     8
 73
     4
 74
     0
 42
0.000000001
 43
0.00000001
 40
0.0
 40
0.0
 40
0.0
 40
0.0
 40
1.0
 40
1.0
 40
1.0
 40
1.0
 10
151.487880313443
 20
63.50411951318041
 30
0.0
 10
151.5554699085445
 20
63.50411951318041
 30
0.0
 10
151.6257611920634
 20
63.48864934909025
 30
0.0
 10
151.6959749921519
 20
63.46064125231085
 30
0.0
  0
SPLINE
  5
119
330
1F
100
AcDbEntity
  8
0
  6
Continuous
 62
     7
370
    25
100
AcDbSpline
210
0.0
220
0.0
230
1.0
 70
    24
 71
     3
 72
    12
 73
     8
 74
     0
 42
0.000000001
 43
0.00000001
 40
0.0
 40
0.0
 40
0.0
 40
0.0
 40
0.2499999999999997
 40
0.2499999999999997
 40
0.4999999999999993
 40
0.4999999999999993
 40
1.0
 40
1.0
 40
1.0
 40
1.0
 10
151.487880313443
 20
63.50411951318041
 30
0.0
 10
151.4274605669142
 20
63.50411951318041
 30
0.0
 10
151.384114313851
 20
63.50411951318041
 30
0.0
 10
151.3112446957828
 20
63.50411951318041
 30
0.0
 10
151.2835926883184
 20
63.50411951318041
 30
0.0
 10
151.2175611193783
 20
63.50411951318041
 30
0.0
 10
151.1959749921519
 20
63.50411951318041
 30
0.0
 10
151.1959749921519
 20
63.50411951318041
 30
0.0
  0
LINE
  5
11A
330
1F
100
AcDbEntity
  8
0
  6
Continuous
 62
     7
370
    25
100
AcDbLine
 10
148.3933468401
 20
105.4302112736
 30
0.0
 11
131.9986031442
 21
105.4302112736
 31
0.0
  0
LINE
  5
11B
330
1F
100
AcDbEntity
  8
0
  6
Continuous
 62
     7
370
    25
100
AcDbLine
 10
133.1959747761
 20
107.5041213609
 30
0.0
 11
147.1959752082
 21
107.5041213609
 31
0.0
  0
ARC
  5
11C
330
1F
100
AcDbEntity
  8
0
  6
Continuous
 62
     7
370
    25
100
AcDbCircle
 10
150.2649308479
 20
83.5530382023
 30
0.0
 40
0.3765098242385761
100
AcDbArc
 50
164.9874081083
 51
222.8433971034
  0
LINE
  5
11D
330
1F
100
AcDbEntity
  8
0
  6
Continuous
 62
     7
370
    25
100
AcDbLine
 10
149.7611924126
 20
84.0041193716
 30
0.0
 11
149.6959746867
 21
84.0041193716
 31
0.0
  0
LINE
  5
11E
330
1F
100
AcDbEntity
  8
0
  6
Continuous
 62
     7
370
    25
100
AcDbLine
 10
150.6959748506
 20
83.0693369336
 30
0.0
 11
150.6959748506
 21
83.0041192077
 31
0.0
  0
ARC
  5
11F
330
1F
100
AcDbEntity
  8
0
  6
Continuous
 62
     7
370
    25
100
AcDbCircle
 10
150.2448936813
 20
83.5730753689
 30
0.0
 40
0.3765098242385286
100
AcDbArc
 50
227.1566028966
 51
285.0125918917
  0
ARC
  5
120
330
1F
100
AcDbEntity
  8
0
  6
Continuous
 62
     7
370
    25
100
AcDbCircle
 10
130.147056303
 20
83.5730753689
 30
0.0
 40
0.3765098242385286
100
AcDbArc
 50
254.9874081083
 51
312.8433971034
  0
LINE
  5
121
330
1F
100
AcDbEntity
  8
0
  6
Continuous
 62
     7
370
    25
100
AcDbLine
 10
129.6959751337
 20
83.0693369336
 30
0.0
 11
129.6959751337
 21
83.0041192077
 31
0.0
  0
ARC
  5
122
330
1F
100
AcDbEntity
  8
0
  6
Continuous
 62
     7
370
    25
100
AcDbCircle
 10
130.1270191364
 20
83.5530382023
 30
0.0
 40
0.3765098242385251
100
AcDbArc
 50
317.1566028966
 51
15.0125918917
  0
LINE
  5
123
330
1F
100
AcDbEntity
  8
0
  6
Continuous
 62
     7
370
    25
100
AcDbLine
 10
130.6959752976
 20
84.0041193716
 30
0.0
 11
130.6307575717
 21
84.0041193716
 31
0.0
  0
ARC
  5
124
330
1F
100
AcDbEntity
  8
0
  6
Continuous
 62
     7
370
    25
100
AcDbCircle
 10
150.4825148346
 20
83.7906593557
 30
0.0
 40
0.5978877047882493
100
AcDbArc
 50
193.551174763
 51
256.448825237
  0
ARC
  5
125
330
1F
100
AcDbEntity
  8
0
  6
Continuous
 62
     7
370
    25
100
AcDbCircle
 10
129.9094351497
 20
83.7906593557
 30
0.0
 40
0.5978877047882493
100
AcDbArc
 50
283.551174763
 51
346.448825237
  0
LINE
  5
126
330
1F
100
AcDbEntity
  8
0
  6
Continuous
 62
     8
370
    25
100
AcDbLine
 10
121.1959756031
 20
73.5041195132
 30
0.0
 11
121.1959756031
 21
87.5041199453
 31
0.0
  0
LINE
  5
127
330
1F
100
AcDbEntity
  8
0
  6
Continuous
 62
     8
370
    25
100
AcDbLine
 10
121.1959756031
 20
59.504119081
 30
0.0
 11
121.1959756031
 21
73.5041195132
 31
0.0
  0
LINE
  5
128
330
1F
100
AcDbEntity
  8
0
  6
Continuous
 62
     8
370
    25
100
AcDbLine
 10
159.1959743812
 20
87.5041199453
 30
0.0
 11
159.1959743812
 21
59.504119081
 31
0.0
  0
LINE
  5
129
330
1F
100
AcDbEntity
  8
0
  6
Continuous
 62
     8
370
    25
100
AcDbLine
 10
123.1959740683
 20
73.5041195132
 30
0.0
 11
123.1959740683
 21
62.5041195728
 31
0.0
  0
LINE
  5
12A
330
1F
100
AcDbEntity
  8
0
  6
Continuous
 62
     8
370
    25
100
AcDbLine
 10
123.1959740683
 20
84.5041194536
 30
0.0
 11
123.1959740683
 21
73.5041195132
 31
0.0
  0
LINE
  5
12B
330
1F
100
AcDbEntity
  8
0
  6
Continuous
 62
     8
370
    25
100
AcDbLine
 10
157.195975916
 20
62.5041195728
 30
0.0
 11
157.195975916
 21
84.5041194536
 31
0.0
  0
LWPOLYLINE
  5
12C
330
1F
100
AcDbEntity
  8
0
  6
Continuous
 62
     8
370
    25
100
AcDbPolyline
 90
        9
 70
   128
 43
0.0
 10
129.1959750518
 20
85.0041195355
 10
129.2018451779
 20
84.9979821198
 10
129.2487698659
 20
84.9489247031
 10
129.3424190074
 20
84.8510194175
 10
129.4823921337
 20
84.7046834953
 10
129.6680931985
 20
84.5105409227
 10
129.8987287148
 20
84.2694224395
 10
130.1733142748
 20
83.9823552944
 10
130.4906782746
 20
83.6505660392
  0
LWPOLYLINE
  5
12D
330
1F
100
AcDbEntity
  8
0
  6
Continuous
 62
     8
370
    25
100
AcDbPolyline
 90
        9
 70
   128
 43
0.0
 10
149.9012717097
 20
83.6505660392
 10
150.2186357095
 20
83.9823552944
 10
150.4932212695
 20
84.2694224395
 10
150.7238567858
 20
84.5105409227
 10
150.9095578506
 20
84.7046834953
 10
151.0495309769
 20
84.8510194175
 10
151.1431801184
 20
84.9489247031
 10
151.1901048064
 20
84.9979821198
 10
151.1959749325
 20
85.0041195355
  0
LWPOLYLINE
  5
12E
330
1F
100
AcDbEntity
  8
0
  6
Continuous
 62
     8
370
    25
100
AcDbPolyline
 90
        9
 70
   128
 43
0.0
 10
130.0495284661
 20
83.2094162308
 10
129.717739211
 20
83.5267802305
 10
129.4306720658
 20
83.8013657905
 10
129.1895535826
 20
84.0320013069
 10
128.99541101
 20
84.2177023716
 10
128.8490750878
 20
84.357675498
 10
128.7511698022
 20
84.4513246395
 10
128.7021123856
 20
84.4982493274
 10
128.6959749698
 20
84.5041194536
  0
LWPOLYLINE
  5
12F
330
1F
100
AcDbEntity
  8
0
  6
Continuous
 62
     8
370
    25
100
AcDbPolyline
 90
        9
 70
   128
 43
0.0
 10
151.6959750145
 20
84.5041194536
 10
151.6898375987
 20
84.4982493274
 10
151.6407801821
 20
84.4513246395
 10
151.5428748965
 20
84.357675498
 10
151.3965389743
 20
84.2177023716
 10
151.2023964017
 20
84.0320013069
 10
150.9612779185
 20
83.8013657905
 10
150.6742107733
 20
83.5267802305
 10
150.3424215182
 20
83.2094162308
  0
LINE
  5
130
330
1F
100
AcDbEntity
  8
0
  6
Continuous
 62
     7
370
    18
100
AcDbLine
 10
147.6981563558
 20
106.6343158767
 30
0.0
 11
148.0772249922
 21
94.5041195132
 31
0.0
  0
LINE
  5
131
330
1F
100
AcDbEntity
  8
0
  6
Continuous
 62
     7
370
    18
100
AcDbLine
 10
132.6937936285
 20
106.6343158767
 30
0.0
 11
132.3147249922
 21
94.5041195132
 31
0.0
  0
LINE
  5
132
330
1F
100
AcDbEntity
  8
0
  6
Continuous
 62
     7
370
    18
100
AcDbLine
 10
131.6571624922
 20
94.5041195132
 30
0.0
 11
148.7347874922
 21
94.5041195132
 31
0.0
  0
LINE
  5
133
330
1F
100
AcDbEntity
  8
0
  6
CENTERX2
 62
     7
370
    18
100
AcDbLine
 10
140.1959749922
 20
105.4302100795
 30
0.0
 11
140.1959749922
 21
60.22702012
 31
0.0
  0
LINE
  5
134
330
1F
100
AcDbEntity
  8
0
  6
CENTERX2
 62
     7
370
    18
100
AcDbLine
 10
140.1959749922
 20
105.4302100795
 30
0.0
 11
140.1959749922
 21
109.5041195132
 31
0.0
  0
LINE
  5
135
330
1F
100
AcDbEntity
  8
0
  6
CENTERX2
 62
     7
370
    18
100
AcDbLine
 10
105.1959749922
 20
73.5041195132
 30
0.0
 11
175.1959749922
 21
73.5041195132
 31
0.0
  0
LINE
  5
136
330
1F
100
AcDbEntity
  8
0
  6
Continuous
 62
     7
370
    25
100
AcDbLine
 10
228.9852107417
 20
90.1054324187
 30
0.0
 11
226.5865233269
 21
92.5041189022
 31
0.0
  0
LINE
  5
137
330
1F
100
AcDbEntity
  8
0
  6
Continuous
 62
     7
370
    25
100
AcDbLine
 10
209.3838982757
 20
92.5041189022
 30
0.0
 11
206.9852108609
 21
90.1054324187
 31
0.0
  0
LINE
  5
138
330
1F
100
AcDbEntity
  8
0
  6
Continuous
 62
     7
370
    25
100
AcDbLine
 10
228.9852107417
 20
84.5041194536
 30
0.0
 11
228.9852107417
 21
90.1054324187
 31
0.0
  0
LINE
  5
139
330
1F
100
AcDbEntity
  8
0
  6
Continuous
 62
     7
370
    25
100
AcDbLine
 10
206.9852108609
 20
90.1054324187
 30
0.0
 11
206.9852108609
 21
84.5041194536
 31
0.0
  0
LINE
  5
13A
330
1F
100
AcDbEntity
  8
0
  6
Continuous
 62
     7
370
    25
100
AcDbLine
 10
226.5865233269
 20
92.5041189022
 30
0.0
 11
226.1825826492
 21
105.4302112736
 31
0.0
  0
LINE
  5
13B
330
1F
100
AcDbEntity
  8
0
  6
Continuous
 62
     7
370
    25
100
AcDbLine
 10
209.7878389534
 20
105.4302112736
 30
0.0
 11
209.3838982757
 21
92.5041189022
 31
0.0
  0
LINE
  5
13C
330
1F
100
AcDbEntity
  8
0
  6
Continuous
 62
     7
370
    25
100
AcDbLine
 10
226.1825826492
 20
105.4302112736
 30
0.0
 11
224.9852110174
 21
107.5041213609
 31
0.0
  0
LINE
  5
13D
330
1F
100
AcDbEntity
  8
0
  6
Continuous
 62
     7
370
    25
100
AcDbLine
 10
210.9852105852
 20
107.5041213609
 30
0.0
 11
209.7878389534
 21
105.4302112736
 31
0.0
  0
CIRCLE
  5
13E
330
1F
100
AcDbEntity
  8
0
  6
Continuous
 62
     7
370
    25
100
AcDbCircle
 10
217.9852108013
 20
73.5041195132
 30
0.0
 40
13.00000000000003
  0
CIRCLE
  5
13F
330
1F
100
AcDbEntity
  8
0
  6
Continuous
 62
     7
370
    25
100
AcDbCircle
 10
217.9852108013
 20
73.5041195132
 30
0.0
 40
14.00000000000003
  0
CIRCLE
  5
140
330
1F
100
AcDbEntity
  8
0
  6
Continuous
 62
     7
370
    25
100
AcDbCircle
 10
217.9852108013
 20
73.5041195132
 30
0.0
 40
10.75
  0
CIRCLE
  5
141
330
1F
100
AcDbEntity
  8
0
  6
Continuous
 62
     7
370
    25
100
AcDbCircle
 10
217.9852108013
 20
73.5041195132
 30
0.0
 40
9.798213046580429
  0
CIRCLE
  5
142
330
1F
100
AcDbEntity
  8
0
  6
Continuous
 62
     7
370
    25
100
AcDbCircle
 10
217.9852108013
 20
73.5041195132
 30
0.0
 40
9.428250615618282
  0
CIRCLE
  5
143
330
1F
100
AcDbEntity
  8
0
  6
Continuous
 62
     7
370
    25
100
AcDbCircle
 10
217.9852108013
 20
73.5041195132
 30
0.0
 40
9.315500000000014
  0
CIRCLE
  5
144
330
1F
100
AcDbEntity
  8
0
  6
Continuous
 62
     7
370
    25
100
AcDbCircle
 10
217.9852108013
 20
73.5041195132
 30
0.0
 40
6.499999999999972
  0
LINE
  5
145
330
1F
100
AcDbEntity
  8
0
  6
Continuous
 62
     7
370
    25
100
AcDbLine
 10
217.9852108013
 20
90.1054324187
 30
0.0
 11
228.9852107417
 21
90.1054324187
 31
0.0
  0
LINE
  5
146
330
1F
100
AcDbEntity
  8
0
  6
Continuous
 62
     7
370
    25
100
AcDbLine
 10
206.9852108609
 20
90.1054324187
 30
0.0
 11
217.9852108013
 21
90.1054324187
 31
0.0
  0
LINE
  5
147
330
1F
100
AcDbEntity
  8
0
  6
Continuous
 62
     7
370
    25
100
AcDbLine
 10
209.3838982757
 20
92.5041189022
 30
0.0
 11
226.5865233269
 21
92.5041189022
 31
0.0
  0
SPLINE
  5
148
330
1F
100
AcDbEntity
  8
0
  6
Continuous
 62
     7
370
    25
100
AcDbSpline
210
0.0
220
0.0
230
1.0
 70
     8
 71
     3
 72
    12
 73
     8
 74
     0
 42
0.000000001
 43
0.00000001
 40
0.0
 40
0.0
 40
0.0
 40
0.0
 40
0.25
 40
0.25
 40
0.5
 40
0.5
 40
1.0
 40
1.0
 40
1.0
 40
1.0
 10
228.5286666506874
 20
84.8566338491363
 30
0.0
 10
228.603614928235
 20
84.80859187850007
 30
0.0
 10
228.6697983833453
 20
84.7718982358529
 30
0.0
 10
228.7837798887803
 20
84.70590755442181
 30
0.0
 10
228.8316613257597
 20
84.67713406624232
 30
0.0
 10
228.9465847916738
 20
84.59665835922428
 30
0.0
 10
228.9852108013163
 20
84.55052865602356
 30
0.0
 10
228.9852108013163
 20
84.50411951318043
 30
0.0
  0
SPLINE
  5
149
330
1F
100
AcDbEntity
  8
0
  6
Continuous
 62
     7
370
    25
100
AcDbSpline
210
0.0
220
0.0
230
1.0
 70
     8
 71
     3
 72
     8
 73
     4
 74
     0
 42
0.000000001
 43
0.00000001
 40
0.0
 40
0.0
 40
0.0
 40
0.0
 40
1.0
 40
1.0
 40
1.0
 40
1.0
 10
228.0286890621858
 20
85.00411951318041
 30
0.0
 10
228.2269293940005
 20
85.00411951318041
 30
0.0
 10
228.3926433227781
 20
84.94382502869483
 30
0.0
 10
228.5286666506874
 20
84.8566338491363
 30
0.0
  0
SPLINE
  5
14A
330
1F
100
AcDbEntity
  8
0
  6
Continuous
 62
     7
370
    25
100
AcDbSpline
210
0.0
220
0.0
230
1.0
 70
     8
 71
     3
 72
     8
 73
     4
 74
     0
 42
0.000000001
 43
0.00000001
 40
0.0
 40
0.0
 40
0.0
 40
0.0
 40
1.0
 40
1.0
 40
1.0
 40
1.0
 10
207.4417549519452
 20
84.85663384913632
 30
0.0
 10
207.5777782798544
 20
84.94382502869483
 30
0.0
 10
207.743492208632
 20
85.00411951318041
 30
0.0
 10
207.9417325404467
 20
85.00411951318041
 30
0.0
  0
SPLINE
  5
14B
330
1F
100
AcDbEntity
  8
0
  6
Continuous
 62
     7
370
    25
100
AcDbSpline
210
0.0
220
0.0
230
1.0
 70
     8
 71
     3
 72
    12
 73
     8
 74
     0
 42
0.000000001
 43
0.00000001
 40
0.0
 40
0.0
 40
0.0
 40
0.0
 40
0.2499999999999999
 40
0.2499999999999999
 40
0.4999999999999998
 40
0.4999999999999998
 40
1.0
 40
1.0
 40
1.0
 40
1.0
 10
207.4417549519452
 20
84.85663384913632
 30
0.0
 10
207.366832810045
 20
84.80860863149363
 30
0.0
 10
207.300669354661
 20
84.77192436121872
 30
0.0
 10
207.1867148266109
 20
84.70595046828934
 30
0.0
 10
207.1388590211502
 20
84.67719883572106
 30
0.0
 10
207.0238037255297
 20
84.5966439349311
 30
0.0
 10
206.9852108013162
 20
84.55051245831216
 30
0.0
 10
206.9852108013162
 20
84.50411951318043
 30
0.0
  0
ARC
  5
14C
330
1F
100
AcDbEntity
  8
0
  6
Continuous
 62
     7
370
    25
100
AcDbCircle
 10
228.4852108013
 20
64.0041195132
 30
0.0
 40
0.5
100
AcDbArc
 50
270.0
 51
0.0
  0
LINE
  5
14D
330
1F
100
AcDbEntity
  8
0
  6
Continuous
 62
     7
370
    25
100
AcDbLine
 10
228.9852107417
 20
64.8438654445
 30
0.0
 11
228.9852107417
 21
64.0041198187
 31
0.0
  0
ARC
  5
14E
330
1F
100
AcDbEntity
  8
0
  6
Continuous
 62
     7
370
    25
100
AcDbCircle
 10
228.4852108013
 20
82.5041195132
 30
0.0
 40
0.5
100
AcDbArc
 50
0.0
 51
90.0
  0
LINE
  5
14F
330
1F
100
AcDbEntity
  8
0
  6
Continuous
 62
     7
370
    25
100
AcDbLine
 10
228.9852107417
 20
82.5041191258
 30
0.0
 11
228.9852107417
 21
82.1643735819
 31
0.0
  0
LINE
  5
150
330
1F
100
AcDbEntity
  8
0
  6
Continuous
 62
     7
370
    25
100
AcDbLine
 10
227.7831694585
 20
63.5041197367
 30
0.0
 11
228.4852106598
 21
63.5041197367
 31
0.0
  0
LINE
  5
151
330
1F
100
AcDbEntity
  8
0
  6
Continuous
 62
     7
370
    25
100
AcDbLine
 10
228.2686930623
 20
83.0041192077
 30
0.0
 11
228.4852106598
 21
83.0041192077
 31
0.0
  0
LINE
  5
152
330
1F
100
AcDbEntity
  8
0
  6
Continuous
 62
     7
370
    25
100
AcDbLine
 10
207.4852109429
 20
63.5041197367
 30
0.0
 11
208.1872521442
 21
63.5041197367
 31
0.0
  0
LINE
  5
153
330
1F
100
AcDbEntity
  8
0
  6
Continuous
 62
     7
370
    25
100
AcDbLine
 10
207.4852109429
 20
83.0041192077
 30
0.0
 11
207.7017285403
 21
83.0041192077
 31
0.0
  0
ARC
  5
154
330
1F
100
AcDbEntity
  8
0
  6
Continuous
 62
     7
370
    25
100
AcDbCircle
 10
207.4852108013
 20
64.0041195132
 30
0.0
 40
0.5
100
AcDbArc
 50
180.0
 51
270.0
  0
LINE
  5
155
330
1F
100
AcDbEntity
  8
0
  6
Continuous
 62
     7
370
    25
100
AcDbLine
 10
206.9852108609
 20
64.0041198187
 30
0.0
 11
206.9852108609
 21
64.8438654445
 31
0.0
  0
ARC
  5
156
330
1F
100
AcDbEntity
  8
0
  6
Continuous
 62
     7
370
    25
100
AcDbCircle
 10
207.4852108013
 20
82.5041195132
 30
0.0
 40
0.5
100
AcDbArc
 50
90.0
 51
180.0
  0
LINE
  5
157
330
1F
100
AcDbEntity
  8
0
  6
Continuous
 62
     7
370
    25
100
AcDbLine
 10
206.9852108609
 20
82.1643735819
 30
0.0
 11
206.9852108609
 21
82.5041191258
 31
0.0
  0
LINE
  5
158
330
1F
100
AcDbEntity
  8
0
  6
Continuous
 62
     7
370
    25
100
AcDbLine
 10
228.4852106598
 20
83.0041192077
 30
0.0
 11
228.4852106598
 21
84.0041193716
 31
0.0
  0
LINE
  5
159
330
1F
100
AcDbEntity
  8
0
  6
Continuous
 62
     7
370
    25
100
AcDbLine
 10
228.9852107417
 20
84.0041193716
 30
0.0
 11
228.4852106598
 21
84.0041193716
 31
0.0
  0
LINE
  5
15A
330
1F
100
AcDbEntity
  8
0
  6
Continuous
 62
     7
370
    25
100
AcDbLine
 10
228.9852107417
 20
84.0041193716
 30
0.0
 11
228.9852107417
 21
82.5041191258
 31
0.0
  0
LINE
  5
15B
330
1F
100
AcDbEntity
  8
0
  6
Continuous
 62
     7
370
    25
100
AcDbLine
 10
207.4852109429
 20
84.0041193716
 30
0.0
 11
207.4852109429
 21
83.0041192077
 31
0.0
  0
LINE
  5
15C
330
1F
100
AcDbEntity
  8
0
  6
Continuous
 62
     7
370
    25
100
AcDbLine
 10
206.9852108609
 20
84.0041193716
 30
0.0
 11
207.4852109429
 21
84.0041193716
 31
0.0
  0
LINE
  5
15D
330
1F
100
AcDbEntity
  8
0
  6
Continuous
 62
     7
370
    25
100
AcDbLine
 10
206.9852108609
 20
82.5041191258
 30
0.0
 11
206.9852108609
 21
84.0041193716
 31
0.0
  0
ARC
  5
15E
330
1F
100
AcDbEntity
  8
0
  6
Continuous
 62
     7
370
    25
100
AcDbCircle
 10
228.5079850713
 20
84.9833251503
 30
0.0
 40
0.4797465722737284
100
AcDbArc
 50
177.5157636109
 51
267.2790461907
  0
ARC
  5
15F
330
1F
100
AcDbEntity
  8
0
  6
Continuous
 62
     7
370
    25
100
AcDbCircle
 10
207.4624365314
 20
84.9833251503
 30
0.0
 40
0.4797465722737297
100
AcDbArc
 50
272.7209538093
 51
2.4842363891
  0
LINE
  5
160
330
1F
100
AcDbEntity
  8
0
  6
Continuous
 62
     7
370
    25
100
AcDbLine
 10
228.4852106598
 20
84.0041193716
 30
0.0
 11
228.4852106598
 21
84.5041194536
 31
0.0
  0
ARC
  5
161
330
1F
100
AcDbEntity
  8
0
  6
Continuous
 62
     7
370
    25
100
AcDbCircle
 10
228.4852108013
 20
84.0041195132
 30
0.0
 40
0.5
100
AcDbArc
 50
0.0
 51
90.0
  0
LINE
  5
162
330
1F
100
AcDbEntity
  8
0
  6
Continuous
 62
     7
370
    25
100
AcDbLine
 10
226.64546487
 20
84.5041194536
 30
0.0
 11
228.4852106598
 21
84.5041194536
 31
0.0
  0
LINE
  5
163
330
1F
100
AcDbEntity
  8
0
  6
Continuous
 62
     7
370
    25
100
AcDbLine
 10
207.4852109429
 20
84.5041194536
 30
0.0
 11
207.4852109429
 21
84.0041193716
 31
0.0
  0
LINE
  5
164
330
1F
100
AcDbEntity
  8
0
  6
Continuous
 62
     7
370
    25
100
AcDbLine
 10
207.4852109429
 20
84.5041194536
 30
0.0
 11
209.3249567326
 21
84.5041194536
 31
0.0
  0
ARC
  5
165
330
1F
100
AcDbEntity
  8
0
  6
Continuous
 62
     7
370
    25
100
AcDbCircle
 10
207.4852108013
 20
84.0041195132
 30
0.0
 40
0.5
100
AcDbArc
 50
90.0
 51
180.0
  0
LINE
  5
166
330
1F
100
AcDbEntity
  8
0
  6
Continuous
 62
     7
370
    25
100
AcDbLine
 10
217.9852108013
 20
105.4302112736
 30
0.0
 11
209.7878389534
 21
105.4302112736
 31
0.0
  0
LINE
  5
167
330
1F
100
AcDbEntity
  8
0
  6
Continuous
 62
     7
370
    25
100
AcDbLine
 10
226.1825826492
 20
105.4302112736
 30
0.0
 11
217.9852108013
 21
105.4302112736
 31
0.0
  0
LINE
  5
168
330
1F
100
AcDbEntity
  8
0
  6
Continuous
 62
     7
370
    25
100
AcDbLine
 10
210.9852105852
 20
107.5041213609
 30
0.0
 11
224.9852110174
 21
107.5041213609
 31
0.0
  0
ARC
  5
169
330
1F
100
AcDbEntity
  8
0
  6
Continuous
 62
     7
370
    25
100
AcDbCircle
 10
228.9958643988
 20
84.8266363879
 30
0.0
 40
0.4681593065412595
100
AcDbArc
 50
176.3262887358
 51
237.8245327009
  0
ARC
  5
16A
330
1F
100
AcDbEntity
  8
0
  6
Continuous
 62
     7
370
    25
100
AcDbCircle
 10
206.9745572038
 20
84.8266363879
 30
0.0
 40
0.4681593065412879
100
AcDbArc
 50
302.1754672992
 51
3.6737112642
  0
SPLINE
  5
16B
330
1F
100
AcDbEntity
  8
0
  6
Continuous
 62
     7
370
    25
100
AcDbSpline
210
0.0
220
0.0
230
1.0
 70
     8
 71
     3
 72
    12
 73
     8
 74
     0
 42
0.000000001
 43
0.00000001
 40
0.0
 40
0.0
 40
0.0
 40
0.0
 40
0.25
 40
0.25
 40
0.5
 40
0.5
 40
1.0
 40
1.0
 40
1.0
 40
1.0
 10
228.7465627225784
 20
84.43037668115836
 30
0.0
 10
228.7836061336598
 20
84.40766417944927
 30
0.0
 10
228.817819034948
 20
84.40015165962006
 30
0.0
 10
228.877351189809
 20
84.39859558492088
 30
0.0
 10
228.9027519208314
 20
84.40502242676293
 30
0.0
 10
228.9641105525604
 20
84.4352474270673
 30
0.0
 10
228.9852108013163
 20
84.46994294818585
 30
0.0
 10
228.9852108013163
 20
84.50411951318043
 30
0.0
  0
SPLINE
  5
16C
330
1F
100
AcDbEntity
  8
0
  6
Continuous
 62
     7
370
    25
100
AcDbSpline
210
0.0
220
0.0
230
1.0
 70
    24
 71
     3
 72
    12
 73
     8
 74
     0
 42
0.000000001
 43
0.00000001
 40
0.0
 40
0.0
 40
0.0
 40
0.0
 40
0.2500000000000001
 40
0.2500000000000001
 40
0.5000000000000001
 40
0.5000000000000001
 40
1.0
 40
1.0
 40
1.0
 40
1.0
 10
228.9852108013163
 20
84.00411951318043
 30
0.0
 10
228.9852108013163
 20
84.00411951318043
 30
0.0
 10
228.9852108013163
 20
84.02384245858835
 30
0.0
 10
228.9852108013162
 20
84.08447892334961
 30
0.0
 10
228.9852108013163
 20
84.12573546903795
 30
0.0
 10
228.9852108013163
 20
84.26750877871005
 30
0.0
 10
228.9852108013163
 20
84.38607582387039
 30
0.0
 10
228.9852108013163
 20
84.50411951318043
 30
0.0
  0
SPLINE
  5
16D
330
1F
100
AcDbEntity
  8
0
  6
Continuous
 62
     7
370
    25
100
AcDbSpline
210
0.0
220
0.0
230
1.0
 70
     8
 71
     3
 72
    12
 73
     8
 74
     0
 42
0.000000001
 43
0.00000001
 40
0.0
 40
0.0
 40
0.0
 40
0.0
 40
0.25
 40
0.25
 40
0.5
 40
0.5
 40
1.0
 40
1.0
 40
1.0
 40
1.0
 10
207.2238588800541
 20
84.43037668115836
 30
0.0
 10
207.1868154689727
 20
84.40766417944926
 30
0.0
 10
207.1526025676845
 20
84.40015165962006
 30
0.0
 10
207.0930704128235
 20
84.39859558492088
 30
0.0
 10
207.0676696818011
 20
84.40502242676294
 30
0.0
 10
207.0063110500721
 20
84.43524742706731
 30
0.0
 10
206.9852108013162
 20
84.46994294818595
 30
0.0
 10
206.9852108013162
 20
84.50411951318043
 30
0.0
  0
SPLINE
  5
16E
330
1F
100
AcDbEntity
  8
0
  6
Continuous
 62
     7
370
    25
100
AcDbSpline
210
0.0
220
0.0
230
1.0
 70
    24
 71
     3
 72
    12
 73
     8
 74
     0
 42
0.000000001
 43
0.00000001
 40
0.0
 40
0.0
 40
0.0
 40
0.0
 40
0.25
 40
0.25
 40
0.5
 40
0.5
 40
1.0
 40
1.0
 40
1.0
 40
1.0
 10
206.9852108013162
 20
84.00411951318043
 30
0.0
 10
206.9852108013162
 20
84.00411951318043
 30
0.0
 10
206.9852108013162
 20
84.02384245858835
 30
0.0
 10
206.9852108013163
 20
84.08447892334961
 30
0.0
 10
206.9852108013162
 20
84.12573546903796
 30
0.0
 10
206.9852108013162
 20
84.26750877871005
 30
0.0
 10
206.9852108013162
 20
84.38607582387039
 30
0.0
 10
206.9852108013162
 20
84.50411951318043
 30
0.0
  0
LINE
  5
16F
330
1F
100
AcDbEntity
  8
0
  6
Continuous
 62
     8
370
    25
100
AcDbLine
 10
225.96957055
 20
85.0041195355
 30
0.0
 11
228.0286893722
 21
85.0041195355
 31
0.0
  0
LINE
  5
170
330
1F
100
AcDbEntity
  8
0
  6
Continuous
 62
     8
370
    25
100
AcDbLine
 10
207.9417322304
 20
85.0041195355
 30
0.0
 11
210.0008510527
 21
85.0041195355
 31
0.0
  0
LINE
  5
171
330
1F
100
AcDbEntity
  8
0
  6
Continuous
 62
     8
370
    25
100
AcDbLine
 10
228.4852106598
 20
63.5041197367
 30
0.0
 11
228.4852106598
 21
64.2439903296
 31
0.0
  0
LINE
  5
172
330
1F
100
AcDbEntity
  8
0
  6
Continuous
 62
     8
370
    25
100
AcDbLine
 10
228.4852106598
 20
82.7642486967
 30
0.0
 11
228.4852106598
 21
83.0041192077
 31
0.0
  0
LINE
  5
173
330
1F
100
AcDbEntity
  8
0
  6
Continuous
 62
     8
370
    25
100
AcDbLine
 10
207.4852109429
 20
64.2439903296
 30
0.0
 11
207.4852109429
 21
63.5041197367
 31
0.0
  0
LINE
  5
174
330
1F
100
AcDbEntity
  8
0
  6
Continuous
 62
     8
370
    25
100
AcDbLine
 10
207.4852109429
 20
83.0041192077
 30
0.0
 11
207.4852109429
 21
82.7642486967
 31
0.0
  0
LINE
  5
175
330
1F
100
AcDbEntity
  8
0
  6
Continuous
 62
     8
370
    25
100
AcDbLine
 10
227.2453399848
 20
84.0041193716
 30
0.0
 11
228.4852106598
 21
84.0041193716
 31
0.0
  0
LINE
  5
176
330
1F
100
AcDbEntity
  8
0
  6
Continuous
 62
     8
370
    25
100
AcDbLine
 10
207.4852109429
 20
84.0041193716
 30
0.0
 11
208.7250816178
 21
84.0041193716
 31
0.0
  0
INSERT
  5
182
330
1F
100
AcDbEntity
  8
0
  6
Continuous
 62
     7
370
    18
100
AcDbBlockReference
  2
SW_CENTERMARKSYMBOL_0
 10
217.9852108013
 20
73.5041195132
 30
0.0
  0
ARC
  5
183
330
1F
100
AcDbEntity
  8
0
  6
Continuous
 62
     7
370
    18
100
AcDbCircle
 10
217.9852108013
 20
73.5041195132
 30
0.0
 40
10.43039212103399
100
AcDbArc
 50
75.0
 51
345.0
  0
ARC
  5
184
330
1F
100
AcDbEntity
  8
0
  6
Continuous
 62
     7
370
    18
100
AcDbCircle
 10
217.9852108013
 20
73.5041195132
 30
0.0
 40
10.43039212103399
100
AcDbArc
 50
75.0
 51
345.0
  0
LINE
  5
185
330
1F
100
AcDbEntity
  8
0
  6
Continuous
 62
     7
370
    18
100
AcDbLine
 10
225.487392165
 20
106.6343158767
 30
0.0
 11
225.8664608013
 21
94.5041195132
 31
0.0
  0
LINE
  5
186
330
1F
100
AcDbEntity
  8
0
  6
Continuous
 62
     7
370
    18
100
AcDbLine
 10
210.4830294377
 20
106.6343158767
 30
0.0
 11
210.1039608013
 21
94.5041195132
 31
0.0
  0
LINE
  5
187
330
1F
100
AcDbEntity
  8
0
  6
Continuous
 62
     7
370
    18
100
AcDbLine
 10
209.4463983013
 20
94.5041195132
 30
0.0
 11
226.5240233013
 21
94.5041195132
 31
0.0
  0
LINE
  5
188
330
1F
100
AcDbEntity
  8
0
  6
Continuous
 62
     7
370
    25
100
AcDbLine
 10
173.1959748133
 20
130.8651660738
 30
0.0
 11
174.1959768399
 21
131.8651662377
 31
0.0
  0
LINE
  5
189
330
1F
100
AcDbEntity
  8
0
  6
Continuous
 62
     7
370
    25
100
AcDbLine
 10
174.1959768399
 20
157.8651667741
 30
0.0
 11
173.1959748133
 21
158.865166938
 31
0.0
  0
LINE
  5
18A
330
1F
100
AcDbEntity
  8
0
  6
Continuous
 62
     7
370
    25
100
AcDbLine
 10
107.195975171
 20
158.865166938
 30
0.0
 11
106.1959731444
 21
157.8651667741
 31
0.0
  0
LINE
  5
18B
330
1F
100
AcDbEntity
  8
0
  6
Continuous
 62
     7
370
    25
100
AcDbLine
 10
106.1959731444
 20
131.8651662377
 30
0.0
 11
107.195975171
 21
130.8651660738
 31
0.0
  0
ARC
  5
18C
330
1F
100
AcDbEntity
  8
0
  6
Continuous
 62
     7
370
    25
100
AcDbCircle
 10
121.1959749922
 20
131.8651665059
 30
0.0
 40
1.0
100
AcDbArc
 50
270.0
 51
0.0
  0
ARC
  5
18D
330
1F
100
AcDbEntity
  8
0
  6
Continuous
 62
     7
370
    25
100
AcDbCircle
 10
121.1959749922
 20
157.8651665059
 30
0.0
 40
1.000000000000028
100
AcDbArc
 50
0.0
 51
90.0
  0
ARC
  5
18E
330
1F
100
AcDbEntity
  8
0
  6
Continuous
 62
     7
370
    25
100
AcDbCircle
 10
159.1959749922
 20
157.8651665059
 30
0.0
 40
1.000000000000028
100
AcDbArc
 50
90.0
 51
180.0
  0
ARC
  5
18F
330
1F
100
AcDbEntity
  8
0
  6
Continuous
 62
     7
370
    25
100
AcDbCircle
 10
159.1959749922
 20
131.8651665059
 30
0.0
 40
1.0
100
AcDbArc
 50
180.0
 51
270.0
  0
LINE
  5
190
330
1F
100
AcDbEntity
  8
0
  6
Continuous
 62
     7
370
    25
100
AcDbLine
 10
173.1959748133
 20
158.865166938
 30
0.0
 11
159.1959743812
 21
158.865166938
 31
0.0
  0
LINE
  5
191
330
1F
100
AcDbEntity
  8
0
  6
Continuous
 62
     7
370
    25
100
AcDbLine
 10
159.1959743812
 20
130.8651660738
 30
0.0
 11
173.1959748133
 21
130.8651660738
 31
0.0
  0
LINE
  5
192
330
1F
100
AcDbEntity
  8
0
  6
Continuous
 62
     7
370
    25
100
AcDbLine
 10
107.195975171
 20
130.8651660738
 30
0.0
 11
121.1959756031
 21
130.8651660738
 31
0.0
  0
LINE
  5
193
330
1F
100
AcDbEntity
  8
0
  6
Continuous
 62
     7
370
    25
100
AcDbLine
 10
121.1959756031
 20
158.865166938
 30
0.0
 11
107.195975171
 21
158.865166938
 31
0.0
  0
ARC
  5
194
330
1F
100
AcDbEntity
  8
0
  6
Continuous
 62
     7
370
    25
100
AcDbCircle
 10
123.1959749922
 20
132.8651665059
 30
0.0
 40
1.0
100
AcDbArc
 50
90.0
 51
180.0
  0
ARC
  5
195
330
1F
100
AcDbEntity
  8
0
  6
Continuous
 62
     7
370
    25
100
AcDbCircle
 10
123.1959749922
 20
156.8651665059
 30
0.0
 40
1.0
100
AcDbArc
 50
180.0
 51
270.0
  0
ARC
  5
196
330
1F
100
AcDbEntity
  8
0
  6
Continuous
 62
     7
370
    25
100
AcDbCircle
 10
157.1959749922
 20
156.8651665059
 30
0.0
 40
1.0
100
AcDbArc
 50
270.0
 51
0.0
  0
ARC
  5
197
330
1F
100
AcDbEntity
  8
0
  6
Continuous
 62
     7
370
    25
100
AcDbCircle
 10
157.1959749922
 20
132.8651665059
 30
0.0
 40
1.0
100
AcDbArc
 50
0.0
 51
90.0
  0
LINE
  5
198
330
1F
100
AcDbEntity
  8
0
  6
Continuous
 62
     7
370
    25
100
AcDbLine
 10
129.1959750518
 20
155.8651664463
 30
0.0
 11
123.1959740683
 21
155.8651664463
 31
0.0
  0
LINE
  5
199
330
1F
100
AcDbEntity
  8
0
  6
Continuous
 62
     7
370
    25
100
AcDbLine
 10
157.195975916
 20
155.8651664463
 30
0.0
 11
153.1959752604
 21
155.8651664463
 31
0.0
  0
LINE
  5
19A
330
1F
100
AcDbEntity
  8
0
  6
Continuous
 62
     7
370
    25
100
AcDbLine
 10
151.1959749325
 20
133.8651665655
 30
0.0
 11
157.195975916
 21
133.8651665655
 31
0.0
  0
LINE
  5
19B
330
1F
100
AcDbEntity
  8
0
  6
Continuous
 62
     7
370
    25
100
AcDbLine
 10
123.1959740683
 20
133.8651665655
 30
0.0
 11
129.1959750518
 21
133.8651665655
 31
0.0
  0
ARC
  5
19C
330
1F
100
AcDbEntity
  8
0
  6
Continuous
 62
     7
370
    25
100
AcDbCircle
 10
152.7377174227
 20
155.6651665059
 30
0.0
 40
0.5000000000000107
100
AcDbArc
 50
23.5781784782
 51
90.0
  0
ARC
  5
19D
330
1F
100
AcDbEntity
  8
0
  6
Continuous
 62
     7
370
    25
100
AcDbCircle
 10
151.6542325616
 20
155.6651665059
 30
0.0
 40
0.5000000000000107
100
AcDbArc
 50
90.0
 51
156.4218215218
  0
CIRCLE
  5
19E
330
1F
100
AcDbEntity
  8
0
  6
Continuous
 62
     7
370
    25
100
AcDbCircle
 10
140.1959749922
 20
144.8651665059
 30
0.0
 40
7.0
  0
CIRCLE
  5
19F
330
1F
100
AcDbEntity
  8
0
  6
Continuous
 62
     7
370
    25
100
AcDbCircle
 10
140.1959749922
 20
144.8651665059
 30
0.0
 40
8.197372169802037
  0
CIRCLE
  5
1A0
330
1F
100
AcDbEntity
  8
0
  6
Continuous
 62
     7
370
    25
100
AcDbCircle
 10
140.1959749922
 20
144.8651665059
 30
0.0
 40
5.500000000000028
  0
CIRCLE
  5
1A1
330
1F
100
AcDbEntity
  8
0
  6
Continuous
 62
     7
370
    25
100
AcDbCircle
 10
140.1959749922
 20
144.8651665059
 30
0.0
 40
5.0
  0
CIRCLE
  5
1A2
330
1F
100
AcDbEntity
  8
0
  6
Continuous
 62
     7
370
    25
100
AcDbCircle
 10
140.1959749922
 20
144.8651665059
 30
0.0
 40
8.601312500000006
  0
CIRCLE
  5
1A3
330
1F
100
AcDbEntity
  8
0
  6
Continuous
 62
     7
370
    25
100
AcDbCircle
 10
140.1959749922
 20
144.8651665059
 30
0.0
 40
11.0
  0
LINE
  5
1A4
330
1F
100
AcDbEntity
  8
0
  6
Continuous
 62
     7
370
    25
100
AcDbLine
 10
174.1959768399
 20
157.8651667741
 30
0.0
 11
174.1959768399
 21
131.8651662377
 31
0.0
  0
LINE
  5
1A5
330
1F
100
AcDbEntity
  8
0
  6
Continuous
 62
     7
370
    25
100
AcDbLine
 10
173.1959748133
 20
130.8651660738
 30
0.0
 11
173.1959748133
 21
158.865166938
 31
0.0
  0
LINE
  5
1A6
330
1F
100
AcDbEntity
  8
0
  6
Continuous
 62
     7
370
    25
100
AcDbLine
 10
107.195975171
 20
158.865166938
 30
0.0
 11
107.195975171
 21
130.8651660738
 31
0.0
  0
LINE
  5
1A7
330
1F
100
AcDbEntity
  8
0
  6
Continuous
 62
     7
370
    25
100
AcDbLine
 10
106.1959731444
 20
131.8651662377
 30
0.0
 11
106.1959731444
 21
157.8651667741
 31
0.0
  0
LINE
  5
1A8
330
1F
100
AcDbEntity
  8
0
  6
Continuous
 62
     7
370
    25
100
AcDbLine
 10
122.195975767
 20
131.8651662377
 30
0.0
 11
122.195975767
 21
157.8651667741
 31
0.0
  0
LINE
  5
1A9
330
1F
100
AcDbEntity
  8
0
  6
Continuous
 62
     7
370
    25
100
AcDbLine
 10
158.1959742173
 20
157.8651667741
 30
0.0
 11
158.1959742173
 21
131.8651662377
 31
0.0
  0
SPLINE
  5
1AA
330
1F
100
AcDbEntity
  8
0
  6
Continuous
 62
     7
370
    25
100
AcDbSpline
210
0.0
220
0.0
230
1.0
 70
     8
 71
     3
 72
     8
 73
     4
 74
     0
 42
0.000000001
 43
0.00000001
 40
0.0
 40
0.0
 40
0.0
 40
0.0
 40
1.0
 40
1.0
 40
1.0
 40
1.0
 10
143.4746942543029
 20
155.6265184271768
 30
0.0
 10
143.9471352102567
 20
155.5562543030271
 30
0.0
 10
144.4182603886161
 20
155.4697248884839
 30
0.0
 10
144.8863907519754
 20
155.3651665059147
 30
0.0
  0
LWPOLYLINE
  5
1AB
330
1F
100
AcDbEntity
  8
0
  6
Continuous
 62
     7
370
    25
100
AcDbPolyline
 90
        9
 70
   128
 43
0.0
 10
144.8863906837
 20
155.3651663644
 10
144.8466059803
 20
155.2761039865
 10
144.8083495773
 20
155.1904632879
 10
144.7730924986
 20
155.1115364936
 10
144.7421898186
 20
155.0423569215
 10
144.7168280422
 20
154.985582566
 10
144.6979831956
 20
154.943395516
 10
144.686377985
 20
154.9174162728
 10
144.6824594452
 20
154.9086450768
  0
ARC
  5
1AC
330
1F
100
AcDbEntity
  8
0
  6
Continuous
 62
     7
370
    25
100
AcDbCircle
 10
143.1394030444
 20
155.690295939
 30
0.0
 40
0.3413029785968121
100
AcDbArc
 50
304.3823348856
 51
349.2301836113
  0
LWPOLYLINE
  5
1AD
330
1F
100
AcDbEntity
  8
0
  6
Continuous
 62
     7
370
    25
100
AcDbPolyline
 90
        9
 70
   128
 43
0.0
 10
135.7094905391
 20
154.9086450768
 10
135.7055719993
 20
154.9174162728
 10
135.6939667887
 20
154.943395516
 10
135.6751219421
 20
154.985582566
 10
135.6497601657
 20
155.0423569215
 10
135.6188574857
 20
155.1115364936
 10
135.583600407
 20
155.1904632879
 10
135.545344004
 20
155.2761039865
 10
135.5055593006
 20
155.3651663644
  0
SPLINE
  5
1AE
330
1F
100
AcDbEntity
  8
0
  6
Continuous
 62
     7
370
    25
100
AcDbSpline
210
0.0
220
0.0
230
1.0
 70
     8
 71
     3
 72
     8
 73
     4
 74
     0
 42
0.000000001
 43
0.00000001
 40
0.0
 40
0.0
 40
0.0
 40
0.0
 40
1.0
 40
1.0
 40
1.0
 40
1.0
 10
135.5055592323285
 20
155.3651665059147
 30
0.0
 10
135.9737836561021
 20
155.4697458971719
 30
0.0
 10
136.4447641404717
 20
155.5562467725118
 30
0.0
 10
136.9172557300009
 20
155.6265184271768
 30
0.0
  0
ARC
  5
1AF
330
1F
100
AcDbEntity
  8
0
  6
Continuous
 62
     7
370
    25
100
AcDbCircle
 10
137.2525469399
 20
155.690295939
 30
0.0
 40
0.3413029785968192
100
AcDbArc
 50
190.7698163887
 51
235.6176651144
  0
SPLINE
  5
1B0
330
1F
100
AcDbEntity
  8
0
  6
Continuous
 62
     7
370
    25
100
AcDbSpline
210
0.0
220
0.0
230
1.0
 70
     8
 71
     3
 72
     8
 73
     4
 74
     0
 42
0.000000001
 43
0.00000001
 40
0.0
 40
0.0
 40
0.0
 40
0.0
 40
1.0
 40
1.0
 40
1.0
 40
1.0
 10
136.917255730001
 20
134.1038145846525
 30
0.0
 10
136.4448147740472
 20
134.1740787088023
 30
0.0
 10
135.9736895956877
 20
134.2606081233455
 30
0.0
 10
135.5055592323285
 20
134.3651665059147
 30
0.0
  0
LWPOLYLINE
  5
1B1
330
1F
100
AcDbEntity
  8
0
  6
Continuous
 62
     7
370
    25
100
AcDbPolyline
 90
        9
 70
   128
 43
0.0
 10
135.5055593006
 20
134.3651666475
 10
135.545344004
 20
134.4542290253
 10
135.583600407
 20
134.539869724
 10
135.6188574857
 20
134.6187965182
 10
135.6497601657
 20
134.6879760904
 10
135.6751219421
 20
134.7447504458
 10
135.6939667887
 20
134.7869374958
 10
135.7055719993
 20
134.812916739
 10
135.7094905391
 20
134.821687935
  0
ARC
  5
1B2
330
1F
100
AcDbEntity
  8
0
  6
Continuous
 62
     7
370
    25
100
AcDbCircle
 10
137.2525469399
 20
134.0400370729
 30
0.0
 40
0.3413029785968121
100
AcDbArc
 50
124.3823348856
 51
169.2301836113
  0
LWPOLYLINE
  5
1B3
330
1F
100
AcDbEntity
  8
0
  6
Continuous
 62
     7
370
    25
100
AcDbPolyline
 90
        9
 70
   128
 43
0.0
 10
144.6824594452
 20
134.821687935
 10
144.686377985
 20
134.812916739
 10
144.6979831956
 20
134.7869374958
 10
144.7168280422
 20
134.7447504458
 10
144.7421898186
 20
134.6879760904
 10
144.7730924986
 20
134.6187965182
 10
144.8083495773
 20
134.539869724
 10
144.8466059803
 20
134.4542290253
 10
144.8863906837
 20
134.3651666475
  0
SPLINE
  5
1B4
330
1F
100
AcDbEntity
  8
0
  6
Continuous
 62
     7
370
    25
100
AcDbSpline
210
0.0
220
0.0
230
1.0
 70
     8
 71
     3
 72
     8
 73
     4
 74
     0
 42
0.000000001
 43
0.00000001
 40
0.0
 40
0.0
 40
0.0
 40
0.0
 40
1.0
 40
1.0
 40
1.0
 40
1.0
 10
144.8863907519754
 20
134.3651665059147
 30
0.0
 10
144.4181663282018
 20
134.2605871146575
 30
0.0
 10
143.9471858438322
 20
134.1740862393176
 30
0.0
 10
143.474694254303
 20
134.1038145846525
 30
0.0
  0
ARC
  5
1B5
330
1F
100
AcDbEntity
  8
0
  6
Continuous
 62
     7
370
    25
100
AcDbCircle
 10
143.1394030444
 20
134.0400370729
 30
0.0
 40
0.3413029785968192
100
AcDbArc
 50
10.7698163887
 51
55.6176651144
  0
ARC
  5
1B6
330
1F
100
AcDbEntity
  8
0
  6
Continuous
 62
     7
370
    25
100
AcDbCircle
 10
140.1959749922
 20
144.8651665059
 30
0.0
 40
11.50000000000001
100
AcDbArc
 50
34.3011527568
 51
65.9293853774
  0
SPLINE
  5
1B7
330
1F
100
AcDbEntity
  8
0
  6
Continuous
 62
     7
370
    25
100
AcDbSpline
210
0.0
220
0.0
230
1.0
 70
    24
 71
     3
 72
    12
 73
     8
 74
     0
 42
0.000000001
 43
0.00000001
 40
0.0
 40
0.0
 40
0.0
 40
0.0
 40
0.4999999999999986
 40
0.4999999999999986
 40
0.7499999999999992
 40
0.7499999999999992
 40
1.0
 40
1.0
 40
1.0
 40
1.0
 10
149.6959749921519
 20
151.3459072043226
 30
0.0
 10
149.6959749921519
 20
151.2021881428046
 30
0.0
 10
149.6959749921519
 20
151.0614958544092
 30
0.0
 10
149.6959749921519
 20
150.8554367426977
 30
0.0
 10
149.6959749921519
 20
150.7873668475587
 30
0.0
 10
149.6959749921519
 20
150.6593942414698
 30
0.0
 10
149.6959749921519
 20
150.5986409211448
 30
0.0
 10
149.6959749921519
 20
150.5440748517155
 30
0.0
  0
SPLINE
  5
1B8
330
1F
100
AcDbEntity
  8
0
  6
Continuous
 62
     7
370
    25
100
AcDbSpline
210
0.0
220
0.0
230
1.0
 70
     8
 71
     3
 72
     8
 73
     4
 74
     0
 42
0.000000001
 43
0.00000001
 40
0.0
 40
0.0
 40
0.0
 40
0.0
 40
1.0
 40
1.0
 40
1.0
 40
1.0
 10
149.6959749921519
 20
150.544074851715
 30
0.0
 10
149.6959749921519
 20
150.4529990979986
 30
0.0
 10
149.7199056142606
 20
150.3698677399172
 30
0.0
 10
149.7611923834563
 20
150.2971657932019
 30
0.0
  0
SPLINE
  5
1B9
330
1F
100
AcDbEntity
  8
0
  6
Continuous
 62
     7
370
    25
100
AcDbSpline
210
0.0
220
0.0
230
1.0
 70
     8
 71
     3
 72
     8
 73
     4
 74
     0
 42
0.000000001
 43
0.00000001
 40
0.0
 40
0.0
 40
0.0
 40
0.0
 40
1.0
 40
1.0
 40
1.0
 40
1.0
 10
130.6959749921519
 20
150.544074851715
 30
0.0
 10
130.6959749921519
 20
150.4529990979985
 30
0.0
 10
130.6720443700447
 20
150.3698677399196
 30
0.0
 10
130.6307576008476
 20
150.2971657932019
 30
0.0
  0
SPLINE
  5
1BA
330
1F
100
AcDbEntity
  8
0
  6
Continuous
 62
     7
370
    25
100
AcDbSpline
210
0.0
220
0.0
230
1.0
 70
    24
 71
     3
 72
    10
 73
     6
 74
     0
 42
0.000000001
 43
0.00000001
 40
0.0
 40
0.0
 40
0.0
 40
0.0
 40
0.5
 40
0.5
 40
1.0
 40
1.0
 40
1.0
 40
1.0
 10
130.6959749921519
 20
150.544074851715
 30
0.0
 10
130.6959749921519
 20
150.6524847959791
 30
0.0
 10
130.6959749921519
 20
150.7871520853374
 30
0.0
 10
130.6959749921519
 20
151.0599915496986
 30
0.0
 10
130.6959749921519
 20
151.2026270865316
 30
0.0
 10
130.6959749921519
 20
151.3459072043226
 30
0.0
  0
ARC
  5
1BB
330
1F
100
AcDbEntity
  8
0
  6
Continuous
 62
     7
370
    25
100
AcDbCircle
 10
140.1959749922
 20
144.8651665059
 30
0.0
 40
11.50000000000001
100
AcDbArc
 50
114.0706146226
 51
145.6988472432
  0
ELLIPSE
  5
1BC
330
1F
100
AcDbEntity
  8
0
  6
Continuous
 62
     7
370
    25
100
AcDbEllipse
 10
140.1959749922
 20
144.8651665059
 30
0.0
 11
11.5
 21
0.0
 31
0.0
210
0.0
220
0.0
230
1.0
 40
0.9565217391
 41
5.793114866398175
 42
6.773255747961012
  0
LWPOLYLINE
  5
1BD
330
1F
100
AcDbEntity
  8
0
  6
Continuous
 62
     7
370
    25
100
AcDbPolyline
 90
        9
 70
   128
 43
0.0
 10
150.3424215182
 20
139.6875978616
 10
150.2665876462
 20
139.7157610563
 10
150.1928995415
 20
139.7364666854
 10
150.1234424352
 20
139.7491294128
 10
150.0601832806
 20
139.7533902136
 10
150.0049111485
 20
139.7491294128
 10
149.9591906607
 20
139.7364666854
 10
149.9243144929
 20
139.7157610563
 10
149.9012717097
 20
139.6875978616
  0
LWPOLYLINE
  5
1BE
330
1F
100
AcDbEntity
  8
0
  6
Continuous
 62
     7
370
    25
100
AcDbPolyline
 90
        9
 70
   128
 43
0.0
 10
150.3424215182
 20
150.0427351502
 10
150.2665876462
 20
150.0145719555
 10
150.1928995415
 20
149.9938663264
 10
150.1234424352
 20
149.981203599
 10
150.0601832806
 20
149.9769427982
 10
150.0049111485
 20
149.981203599
 10
149.9591906607
 20
149.9938663264
 10
149.9243144929
 20
150.0145719555
 10
149.9012717097
 20
150.0427351502
  0
ELLIPSE
  5
1BF
330
1F
100
AcDbEntity
  8
0
  6
Continuous
 62
     7
370
    25
100
AcDbEllipse
 10
140.1959749922
 20
144.8651665059
 30
0.0
 11
11.49999999999997
 21
0.0
 31
0.0
210
0.0
220
0.0
230
1.0
 40
0.9565217391
 41
2.651522212808368
 42
3.63166309437123
  0
LWPOLYLINE
  5
1C0
330
1F
100
AcDbEntity
  8
0
  6
Continuous
 62
     7
370
    25
100
AcDbPolyline
 90
        9
 70
   128
 43
0.0
 10
130.0495284661
 20
150.0427351502
 10
130.1253623381
 20
150.0145719555
 10
130.1990504428
 20
149.9938663264
 10
130.2685075491
 20
149.981203599
 10
130.3317667037
 20
149.9769427982
 10
130.3870388358
 20
149.981203599
 10
130.4327593237
 20
149.9938663264
 10
130.4676354914
 20
150.0145719555
 10
130.4906782746
 20
150.0427351502
  0
LWPOLYLINE
  5
1C1
330
1F
100
AcDbEntity
  8
0
  6
Continuous
 62
     7
370
    25
100
AcDbPolyline
 90
        9
 70
   128
 43
0.0
 10
130.0495284661
 20
139.6875978616
 10
130.1253623381
 20
139.7157610563
 10
130.1990504428
 20
139.7364666854
 10
130.2685075491
 20
139.7491294128
 10
130.3317667037
 20
139.7533902136
 10
130.3870388358
 20
139.7491294128
 10
130.4327593237
 20
139.7364666854
 10
130.4676354914
 20
139.7157610563
 10
130.4906782746
 20
139.6875978616
  0
ARC
  5
1C2
330
1F
100
AcDbEntity
  8
0
  6
Continuous
 62
     7
370
    25
100
AcDbCircle
 10
140.1959749922
 20
144.8651665059
 30
0.0
 40
11.49999999999998
100
AcDbArc
 50
214.3011527568
 51
245.9293853774
  0
SPLINE
  5
1C3
330
1F
100
AcDbEntity
  8
0
  6
Continuous
 62
     7
370
    25
100
AcDbSpline
210
0.0
220
0.0
230
1.0
 70
    24
 71
     3
 72
    12
 73
     8
 74
     0
 42
0.000000001
 43
0.00000001
 40
0.0
 40
0.0
 40
0.0
 40
0.0
 40
0.5000000000000022
 40
0.5000000000000022
 40
0.7500000000000011
 40
0.7500000000000011
 40
1.0
 40
1.0
 40
1.0
 40
1.0
 10
130.6959749921519
 20
138.3844258075069
 30
0.0
 10
130.6959749921519
 20
138.5281448690249
 30
0.0
 10
130.6959749921519
 20
138.6688371574202
 30
0.0
 10
130.6959749921519
 20
138.8748962691318
 30
0.0
 10
130.6959749921519
 20
138.9429661642707
 30
0.0
 10
130.6959749921519
 20
139.0709387703596
 30
0.0
 10
130.6959749921519
 20
139.1316920906847
 30
0.0
 10
130.6959749921519
 20
139.186258160114
 30
0.0
  0
SPLINE
  5
1C4
330
1F
100
AcDbEntity
  8
0
  6
Continuous
 62
     7
370
    25
100
AcDbSpline
210
0.0
220
0.0
230
1.0
 70
     8
 71
     3
 72
     8
 73
     4
 74
     0
 42
0.000000001
 43
0.00000001
 40
0.0
 40
0.0
 40
0.0
 40
0.0
 40
1.0
 40
1.0
 40
1.0
 40
1.0
 10
130.6959749921519
 20
139.1862581601144
 30
0.0
 10
130.6959749921519
 20
139.2773339138309
 30
0.0
 10
130.6720443700447
 20
139.3604652719098
 30
0.0
 10
130.6307576008476
 20
139.4331672186275
 30
0.0
  0
SPLINE
  5
1C5
330
1F
100
AcDbEntity
  8
0
  6
Continuous
 62
     7
370
    25
100
AcDbSpline
210
0.0
220
0.0
230
1.0
 70
     8
 71
     3
 72
     8
 73
     4
 74
     0
 42
0.000000001
 43
0.00000001
 40
0.0
 40
0.0
 40
0.0
 40
0.0
 40
1.0
 40
1.0
 40
1.0
 40
1.0
 10
149.6959749921519
 20
139.1862581601144
 30
0.0
 10
149.6959749921519
 20
139.2773339138309
 30
0.0
 10
149.7199056142606
 20
139.3604652719122
 30
0.0
 10
149.7611923834563
 20
139.4331672186275
 30
0.0
  0
SPLINE
  5
1C6
330
1F
100
AcDbEntity
  8
0
  6
Continuous
 62
     7
370
    25
100
AcDbSpline
210
0.0
220
0.0
230
1.0
 70
    24
 71
     3
 72
    10
 73
     6
 74
     0
 42
0.000000001
 43
0.00000001
 40
0.0
 40
0.0
 40
0.0
 40
0.0
 40
0.5
 40
0.5
 40
1.0
 40
1.0
 40
1.0
 40
1.0
 10
149.6959749921519
 20
139.1862581601144
 30
0.0
 10
149.6959749921519
 20
139.0778482158504
 30
0.0
 10
149.6959749921519
 20
138.9431809264923
 30
0.0
 10
149.6959749921519
 20
138.6703414621316
 30
0.0
 10
149.6959749921519
 20
138.5277059252989
 30
0.0
 10
149.6959749921519
 20
138.3844258075082
 30
0.0
  0
ARC
  5
1C7
330
1F
100
AcDbEntity
  8
0
  6
Continuous
 62
     7
370
    25
100
AcDbCircle
 10
140.1959749922
 20
144.8651665059
 30
0.0
 40
11.49999999999997
100
AcDbArc
 50
294.0706146226
 51
325.6988472432
  0
SPLINE
  5
1C8
330
1F
100
AcDbEntity
  8
0
  6
Continuous
 62
     7
370
    25
100
AcDbSpline
210
0.0
220
0.0
230
1.0
 70
     8
 71
     3
 72
    12
 73
     8
 74
     0
 42
0.000000001
 43
0.00000001
 40
0.0
 40
0.0
 40
0.0
 40
0.0
 40
0.2500000000000001
 40
0.2500000000000001
 40
0.5000000000000001
 40
0.5000000000000001
 40
1.0
 40
1.0
 40
1.0
 40
1.0
 10
136.9172557300009
 20
155.6265184271768
 30
0.0
 10
137.1885601683734
 20
155.6635618382565
 30
0.0
 10
137.4606723669338
 20
155.6977747395433
 30
0.0
 10
138.0063820514057
 20
155.7573068944024
 30
0.0
 10
138.2797780055682
 20
155.7827076254242
 30
0.0
 10
139.0999998826376
 20
155.8440662571531
 30
0.0
 10
139.6483352799532
 20
155.8651665059147
 30
0.0
 10
140.1959749921519
 20
155.8651665059147
 30
0.0
  0
SPLINE
  5
1C9
330
1F
100
AcDbEntity
  8
0
  6
Continuous
 62
     7
370
    25
100
AcDbSpline
210
0.0
220
0.0
230
1.0
 70
     8
 71
     3
 72
    12
 73
     8
 74
     0
 42
0.000000001
 43
0.00000001
 40
0.0
 40
0.0
 40
0.0
 40
0.0
 40
0.25
 40
0.25
 40
0.5
 40
0.5
 40
1.0
 40
1.0
 40
1.0
 40
1.0
 10
143.4746942543029
 20
155.6265184271768
 30
0.0
 10
143.2033898159179
 20
155.6635618382582
 30
0.0
 10
142.9312776173449
 20
155.6977747395465
 30
0.0
 10
142.3855679328477
 20
155.7573068944075
 30
0.0
 10
142.1121719786726
 20
155.7827076254299
 30
0.0
 10
141.2919501015653
 20
155.8440662571589
 30
0.0
 10
140.7436147043781
 20
155.8651665059147
 30
0.0
 10
140.1959749921519
 20
155.8651665059147
 30
0.0
  0
SPLINE
  5
1CA
330
1F
100
AcDbEntity
  8
0
  6
Continuous
 62
     7
370
    25
100
AcDbSpline
210
0.0
220
0.0
230
1.0
 70
     8
 71
     3
 72
    12
 73
     8
 74
     0
 42
0.000000001
 43
0.00000001
 40
0.0
 40
0.0
 40
0.0
 40
0.0
 40
0.25
 40
0.25
 40
0.5
 40
0.5
 40
1.0
 40
1.0
 40
1.0
 40
1.0
 10
143.474694254303
 20
134.1038145846525
 30
0.0
 10
143.2033898159179
 20
134.0667711735712
 30
0.0
 10
142.9312776173449
 20
134.0325582722829
 30
0.0
 10
142.3855679328477
 20
133.9730261174219
 30
0.0
 10
142.1121719786725
 20
133.9476253863996
 30
0.0
 10
141.291950101565
 20
133.8862667546705
 30
0.0
 10
140.7436147043782
 20
133.8651665059147
 30
0.0
 10
140.1959749921519
 20
133.8651665059147
 30
0.0
  0
SPLINE
  5
1CB
330
1F
100
AcDbEntity
  8
0
  6
Continuous
 62
     7
370
    25
100
AcDbSpline
210
0.0
220
0.0
230
1.0
 70
     8
 71
     3
 72
    12
 73
     8
 74
     0
 42
0.000000001
 43
0.00000001
 40
0.0
 40
0.0
 40
0.0
 40
0.0
 40
0.2500000000000001
 40
0.2500000000000001
 40
0.5000000000000002
 40
0.5000000000000002
 40
1.0
 40
1.0
 40
1.0
 40
1.0
 10
136.917255730001
 20
134.1038145846525
 30
0.0
 10
137.1885601683734
 20
134.0667711735729
 30
0.0
 10
137.4606723669338
 20
134.0325582722861
 30
0.0
 10
138.0063820514056
 20
133.973026117427
 30
0.0
 10
138.279778005568
 20
133.9476253864052
 30
0.0
 10
139.0999998826373
 20
133.8862667546763
 30
0.0
 10
139.6483352799532
 20
133.8651665059147
 30
0.0
 10
140.1959749921519
 20
133.8651665059147
 30
0.0
  0
LINE
  5
1CC
330
1F
100
AcDbEntity
  8
0
  6
Continuous
 62
     7
370
    25
100
AcDbLine
 10
136.9172557309
 20
155.6265187619
 30
0.0
 11
136.9172557309
 21
155.8651664463
 31
0.0
  0
SPLINE
  5
1CD
330
1F
100
AcDbEntity
  8
0
  6
Continuous
 62
     7
370
    25
100
AcDbSpline
210
0.0
220
0.0
230
1.0
 70
    24
 71
     3
 72
    12
 73
     8
 74
     0
 42
0.000000001
 43
0.00000001
 40
0.0
 40
0.0
 40
0.0
 40
0.0
 40
0.2500000000000001
 40
0.2500000000000001
 40
0.5000000000000001
 40
0.5000000000000001
 40
1.0
 40
1.0
 40
1.0
 40
1.0
 10
136.9172557300009
 20
155.8651665059147
 30
0.0
 10
137.1947777359108
 20
155.8651665059147
 30
0.0
 10
137.4709140628435
 20
155.8651665059147
 30
0.0
 10
138.0216979262561
 20
155.8651665059147
 30
0.0
 10
138.2959063227815
 20
155.8651665059147
 30
0.0
 10
139.1140626004303
 20
155.8651665059147
 30
0.0
 10
139.6550255155353
 20
155.8651665059147
 30
0.0
 10
140.1959749921519
 20
155.8651665059147
 30
0.0
  0
LINE
  5
1CE
330
1F
100
AcDbEntity
  8
0
  6
Continuous
 62
     7
370
    25
100
AcDbLine
 10
143.4746942534
 20
155.8651664463
 30
0.0
 11
143.4746942534
 21
155.6265187619
 31
0.0
  0
SPLINE
  5
1CF
330
1F
100
AcDbEntity
  8
0
  6
Continuous
 62
     7
370
    25
100
AcDbSpline
210
0.0
220
0.0
230
1.0
 70
    24
 71
     3
 72
    12
 73
     8
 74
     0
 42
0.000000001
 43
0.00000001
 40
0.0
 40
0.0
 40
0.0
 40
0.0
 40
0.2500000000000001
 40
0.2500000000000001
 40
0.5000000000000001
 40
0.5000000000000001
 40
1.0
 40
1.0
 40
1.0
 40
1.0
 10
143.474694254303
 20
155.8651665059147
 30
0.0
 10
143.1971722483931
 20
155.8651665059147
 30
0.0
 10
142.9210359214604
 20
155.8651665059147
 30
0.0
 10
142.3702520580478
 20
155.8651665059147
 30
0.0
 10
142.0960436615224
 20
155.8651665059147
 30
0.0
 10
141.2778873838736
 20
155.8651665059147
 30
0.0
 10
140.7369244687686
 20
155.8651665059147
 30
0.0
 10
140.1959749921519
 20
155.8651665059147
 30
0.0
  0
LINE
  5
1D0
330
1F
100
AcDbEntity
  8
0
  6
Continuous
 62
     7
370
    25
100
AcDbLine
 10
136.9172557309
 20
133.8651665655
 30
0.0
 11
136.9172557309
 21
134.10381425
 31
0.0
  0
SPLINE
  5
1D1
330
1F
100
AcDbEntity
  8
0
  6
Continuous
 62
     7
370
    25
100
AcDbSpline
210
0.0
220
0.0
230
1.0
 70
    24
 71
     3
 72
    12
 73
     8
 74
     0
 42
0.000000001
 43
0.00000001
 40
0.0
 40
0.0
 40
0.0
 40
0.0
 40
0.2500000000000001
 40
0.2500000000000001
 40
0.5000000000000001
 40
0.5000000000000001
 40
1.0
 40
1.0
 40
1.0
 40
1.0
 10
136.9172557300009
 20
133.8651665059147
 30
0.0
 10
137.1947777359108
 20
133.8651665059147
 30
0.0
 10
137.4709140628435
 20
133.8651665059147
 30
0.0
 10
138.0216979262561
 20
133.8651665059147
 30
0.0
 10
138.2959063227815
 20
133.8651665059147
 30
0.0
 10
139.1140626004303
 20
133.8651665059147
 30
0.0
 10
139.6550255155353
 20
133.8651665059147
 30
0.0
 10
140.1959749921519
 20
133.8651665059147
 30
0.0
  0
LINE
  5
1D2
330
1F
100
AcDbEntity
  8
0
  6
Continuous
 62
     7
370
    25
100
AcDbLine
 10
143.4746942534
 20
133.8651665655
 30
0.0
 11
143.4746942534
 21
134.10381425
 31
0.0
  0
SPLINE
  5
1D3
330
1F
100
AcDbEntity
  8
0
  6
Continuous
 62
     7
370
    25
100
AcDbSpline
210
0.0
220
0.0
230
1.0
 70
    24
 71
     3
 72
    12
 73
     8
 74
     0
 42
0.000000001
 43
0.00000001
 40
0.0
 40
0.0
 40
0.0
 40
0.0
 40
0.25
 40
0.25
 40
0.5
 40
0.5
 40
1.0
 40
1.0
 40
1.0
 40
1.0
 10
143.474694254303
 20
133.8651665059147
 30
0.0
 10
143.1971722483931
 20
133.8651665059147
 30
0.0
 10
142.9210359214604
 20
133.8651665059147
 30
0.0
 10
142.3702520580478
 20
133.8651665059147
 30
0.0
 10
142.0960436615224
 20
133.8651665059147
 30
0.0
 10
141.2778873838736
 20
133.8651665059147
 30
0.0
 10
140.7369244687686
 20
133.8651665059147
 30
0.0
 10
140.1959749921519
 20
133.8651665059147
 30
0.0
  0
SPLINE
  5
1D4
330
1F
100
AcDbEntity
  8
0
  6
Continuous
 62
     7
370
    25
100
AcDbSpline
210
0.0
220
0.0
230
1.0
 70
     8
 71
     3
 72
    12
 73
     8
 74
     0
 42
0.000000001
 43
0.00000001
 40
0.0
 40
0.0
 40
0.0
 40
0.0
 40
0.2500000000000001
 40
0.2500000000000001
 40
0.5000000000000002
 40
0.5000000000000002
 40
1.0
 40
1.0
 40
1.0
 40
1.0
 10
128.8434606561961
 20
155.4086223552858
 30
0.0
 10
128.8915026268323
 20
155.4835706328335
 30
0.0
 10
128.9281962694795
 20
155.5497540879438
 30
0.0
 10
128.9941869509105
 20
155.6637355933788
 30
0.0
 10
129.0229604390901
 20
155.7116170303582
 30
0.0
 10
129.1034361461081
 20
155.8265404962723
 30
0.0
 10
129.1495658493087
 20
155.8651665059147
 30
0.0
 10
129.1959749921519
 20
155.8651665059147
 30
0.0
  0
SPLINE
  5
1D5
330
1F
100
AcDbEntity
  8
0
  6
Continuous
 62
     7
370
    25
100
AcDbSpline
210
0.0
220
0.0
230
1.0
 70
     8
 71
     3
 72
     8
 73
     4
 74
     0
 42
0.000000001
 43
0.00000001
 40
0.0
 40
0.0
 40
0.0
 40
0.0
 40
1.0
 40
1.0
 40
1.0
 40
1.0
 10
128.6959749921519
 20
154.9086447667842
 30
0.0
 10
128.6959749921519
 20
155.106885098599
 30
0.0
 10
128.7562694766376
 20
155.2725990273765
 30
0.0
 10
128.8434606561961
 20
155.4086223552858
 30
0.0
  0
LINE
  5
1D6
330
1F
100
AcDbEntity
  8
0
  6
Continuous
 62
     7
370
    25
100
AcDbLine
 10
128.6959749698
 20
150.2971659583
 30
0.0
 11
128.6959749698
 21
154.9086450768
 31
0.0
  0
LINE
  5
1D7
330
1F
100
AcDbEntity
  8
0
  6
Continuous
 62
     7
370
    25
100
AcDbLine
 10
129.6959751337
 20
150.2971659583
 30
0.0
 11
128.6959749698
 21
150.2971659583
 31
0.0
  0
SPLINE
  5
1D8
330
1F
100
AcDbEntity
  8
0
  6
Continuous
 62
     7
370
    25
100
AcDbSpline
210
0.0
220
0.0
230
1.0
 70
     8
 71
     3
 72
    10
 73
     6
 74
     0
 42
0.000000001
 43
0.00000001
 40
0.0
 40
0.0
 40
0.0
 40
0.0
 40
0.5
 40
0.5
 40
1.0
 40
1.0
 40
1.0
 40
1.0
 10
130.0495283827452
 20
150.0427349373297
 30
0.0
 10
130.0139757318581
 20
150.1064804773643
 30
0.0
 10
129.9695649600311
 20
150.1664591156028
 30
0.0
 10
129.8529798219901
 20
150.2620603539106
 30
0.0
 10
129.7772118128804
 20
150.2971657932019
 30
0.0
 10
129.6959749921519
 20
150.2971657932019
 30
0.0
  0
SPLINE
  5
1D9
330
1F
100
AcDbEntity
  8
0
  6
Continuous
 62
     7
370
    25
100
AcDbSpline
210
0.0
220
0.0
230
1.0
 70
     8
 71
     3
 72
    10
 73
     6
 74
     0
 42
0.000000001
 43
0.00000001
 40
0.0
 40
0.0
 40
0.0
 40
0.0
 40
0.5
 40
0.5
 40
1.0
 40
1.0
 40
1.0
 40
1.0
 10
129.6959749921519
 20
139.4331672186275
 30
0.0
 10
129.7772118128804
 20
139.4331672186275
 30
0.0
 10
129.8529798219901
 20
139.4682726579187
 30
0.0
 10
129.9695649600311
 20
139.5638738962266
 30
0.0
 10
130.0139757318581
 20
139.6238525344651
 30
0.0
 10
130.0495283827452
 20
139.6875980744997
 30
0.0
  0
LINE
  5
1DA
330
1F
100
AcDbEntity
  8
0
  6
Continuous
 62
     7
370
    25
100
AcDbLine
 10
128.6959749698
 20
139.4331670535
 30
0.0
 11
129.6959751337
 21
139.4331670535
 31
0.0
  0
LINE
  5
1DB
330
1F
100
AcDbEntity
  8
0
  6
Continuous
 62
     7
370
    25
100
AcDbLine
 10
128.6959749698
 20
134.821687935
 30
0.0
 11
128.6959749698
 21
139.4331670535
 31
0.0
  0
SPLINE
  5
1DC
330
1F
100
AcDbEntity
  8
0
  6
Continuous
 62
     7
370
    25
100
AcDbSpline
210
0.0
220
0.0
230
1.0
 70
     8
 71
     3
 72
     8
 73
     4
 74
     0
 42
0.000000001
 43
0.00000001
 40
0.0
 40
0.0
 40
0.0
 40
0.0
 40
1.0
 40
1.0
 40
1.0
 40
1.0
 10
128.843460656196
 20
134.3217106565436
 30
0.0
 10
128.7562694766376
 20
134.4577339844529
 30
0.0
 10
128.6959749921519
 20
134.6234479132305
 30
0.0
 10
128.6959749921519
 20
134.8216882450451
 30
0.0
  0
SPLINE
  5
1DD
330
1F
100
AcDbEntity
  8
0
  6
Continuous
 62
     7
370
    25
100
AcDbSpline
210
0.0
220
0.0
230
1.0
 70
     8
 71
     3
 72
    12
 73
     8
 74
     0
 42
0.000000001
 43
0.00000001
 40
0.0
 40
0.0
 40
0.0
 40
0.0
 40
0.2499999999999999
 40
0.2499999999999999
 40
0.4999999999999998
 40
0.4999999999999998
 40
1.0
 40
1.0
 40
1.0
 40
1.0
 10
128.843460656196
 20
134.3217106565436
 30
0.0
 10
128.8914858738387
 20
134.2467885146434
 30
0.0
 10
128.9281701441136
 20
134.1806250592595
 30
0.0
 10
128.994144037043
 20
134.0666705312094
 30
0.0
 10
129.0228956696113
 20
134.0188147257486
 30
0.0
 10
129.1034505704013
 20
133.9037594301282
 30
0.0
 10
129.1495820470202
 20
133.8651665059147
 30
0.0
 10
129.1959749921519
 20
133.8651665059147
 30
0.0
  0
SPLINE
  5
1DE
330
1F
100
AcDbEntity
  8
0
  6
Continuous
 62
     7
370
    25
100
AcDbSpline
210
0.0
220
0.0
230
1.0
 70
     8
 71
     3
 72
    12
 73
     8
 74
     0
 42
0.000000001
 43
0.00000001
 40
0.0
 40
0.0
 40
0.0
 40
0.0
 40
0.2499999999999999
 40
0.2499999999999999
 40
0.4999999999999998
 40
0.4999999999999998
 40
1.0
 40
1.0
 40
1.0
 40
1.0
 10
151.5484893281078
 20
134.3217106565436
 30
0.0
 10
151.500447357478
 20
134.2467623790058
 30
0.0
 10
151.4637537148343
 20
134.1805789239031
 30
0.0
 10
151.3977630334096
 20
134.0665974184783
 30
0.0
 10
151.3689895452327
 20
134.0187159815015
 30
0.0
 10
151.2885138382219
 20
133.9037925155875
 30
0.0
 10
151.2423841349772
 20
133.8651665059147
 30
0.0
 10
151.1959749921519
 20
133.8651665059147
 30
0.0
  0
SPLINE
  5
1DF
330
1F
100
AcDbEntity
  8
0
  6
Continuous
 62
     7
370
    25
100
AcDbSpline
210
0.0
220
0.0
230
1.0
 70
     8
 71
     3
 72
     8
 73
     4
 74
     0
 42
0.000000001
 43
0.00000001
 40
0.0
 40
0.0
 40
0.0
 40
0.0
 40
1.0
 40
1.0
 40
1.0
 40
1.0
 10
151.6959749921519
 20
134.8216882450452
 30
0.0
 10
151.6959749921519
 20
134.6234479132305
 30
0.0
 10
151.6356805076663
 20
134.4577339844529
 30
0.0
 10
151.5484893281078
 20
134.3217106565436
 30
0.0
  0
LINE
  5
1E0
330
1F
100
AcDbEntity
  8
0
  6
Continuous
 62
     7
370
    25
100
AcDbLine
 10
151.6959750145
 20
139.4331670535
 30
0.0
 11
151.6959750145
 21
134.821687935
 31
0.0
  0
LINE
  5
1E1
330
1F
100
AcDbEntity
  8
0
  6
Continuous
 62
     7
370
    25
100
AcDbLine
 10
150.6959748506
 20
139.4331670535
 30
0.0
 11
151.6959750145
 21
139.4331670535
 31
0.0
  0
SPLINE
  5
1E2
330
1F
100
AcDbEntity
  8
0
  6
Continuous
 62
     7
370
    25
100
AcDbSpline
210
0.0
220
0.0
230
1.0
 70
     8
 71
     3
 72
    10
 73
     6
 74
     0
 42
0.000000001
 43
0.00000001
 40
0.0
 40
0.0
 40
0.0
 40
0.0
 40
0.5
 40
0.5
 40
1.0
 40
1.0
 40
1.0
 40
1.0
 10
150.3424216015587
 20
139.6875980744997
 30
0.0
 10
150.3779742524458
 20
139.623852534465
 30
0.0
 10
150.4223850242728
 20
139.5638738962266
 30
0.0
 10
150.5389701623138
 20
139.4682726579187
 30
0.0
 10
150.6147381714235
 20
139.4331672186275
 30
0.0
 10
150.6959749921519
 20
139.4331672186275
 30
0.0
  0
SPLINE
  5
1E3
330
1F
100
AcDbEntity
  8
0
  6
Continuous
 62
     7
370
    25
100
AcDbSpline
210
0.0
220
0.0
230
1.0
 70
     8
 71
     3
 72
    10
 73
     6
 74
     0
 42
0.000000001
 43
0.00000001
 40
0.0
 40
0.0
 40
0.0
 40
0.0
 40
0.5
 40
0.5
 40
1.0
 40
1.0
 40
1.0
 40
1.0
 10
150.6959749921519
 20
150.2971657932019
 30
0.0
 10
150.6147381714235
 20
150.2971657932019
 30
0.0
 10
150.5389701623138
 20
150.2620603539107
 30
0.0
 10
150.4223850242728
 20
150.1664591156028
 30
0.0
 10
150.3779742524458
 20
150.1064804773643
 30
0.0
 10
150.3424216015587
 20
150.0427349373297
 30
0.0
  0
LINE
  5
1E4
330
1F
100
AcDbEntity
  8
0
  6
Continuous
 62
     7
370
    25
100
AcDbLine
 10
151.6959750145
 20
150.2971659583
 30
0.0
 11
150.6959748506
 21
150.2971659583
 31
0.0
  0
LINE
  5
1E5
330
1F
100
AcDbEntity
  8
0
  6
Continuous
 62
     7
370
    25
100
AcDbLine
 10
151.6959750145
 20
154.9086450768
 30
0.0
 11
151.6959750145
 21
150.2971659583
 31
0.0
  0
SPLINE
  5
1E6
330
1F
100
AcDbEntity
  8
0
  6
Continuous
 62
     7
370
    25
100
AcDbSpline
210
0.0
220
0.0
230
1.0
 70
     8
 71
     3
 72
     8
 73
     4
 74
     0
 42
0.000000001
 43
0.00000001
 40
0.0
 40
0.0
 40
0.0
 40
0.0
 40
1.0
 40
1.0
 40
1.0
 40
1.0
 10
151.5484893281078
 20
155.4086223552858
 30
0.0
 10
151.6356805076663
 20
155.2725990273765
 30
0.0
 10
151.6959749921519
 20
155.106885098599
 30
0.0
 10
151.6959749921519
 20
154.9086447667842
 30
0.0
  0
SPLINE
  5
1E7
330
1F
100
AcDbEntity
  8
0
  6
Continuous
 62
     7
370
    25
100
AcDbSpline
210
0.0
220
0.0
230
1.0
 70
     8
 71
     3
 72
    12
 73
     8
 74
     0
 42
0.000000001
 43
0.00000001
 40
0.0
 40
0.0
 40
0.0
 40
0.0
 40
0.2500000000000001
 40
0.2500000000000001
 40
0.5000000000000001
 40
0.5000000000000001
 40
1.0
 40
1.0
 40
1.0
 40
1.0
 10
151.5484893281078
 20
155.4086223552858
 30
0.0
 10
151.500447357478
 20
155.4835706328236
 30
0.0
 10
151.4637537148343
 20
155.5497540879263
 30
0.0
 10
151.3977630334096
 20
155.663735593351
 30
0.0
 10
151.3689895452327
 20
155.7116170303279
 30
0.0
 10
151.2885138382219
 20
155.8265404962419
 30
0.0
 10
151.2423841349774
 20
155.8651665059147
 30
0.0
 10
151.1959749921519
 20
155.8651665059147
 30
0.0
  0
LINE
  5
1E8
330
1F
100
AcDbEntity
  8
0
  6
Continuous
 62
     7
370
    25
100
AcDbLine
 10
135.5055593006
 20
155.3651663644
 30
0.0
 11
130.6959752976
 21
155.3651663644
 31
0.0
  0
ARC
  5
1E9
330
1F
100
AcDbEntity
  8
0
  6
Continuous
 62
     7
370
    25
100
AcDbCircle
 10
131.1959749922
 20
155.3651665059
 30
0.0
 40
0.5
100
AcDbArc
 50
90.0
 51
180.0
  0
LINE
  5
1EA
330
1F
100
AcDbEntity
  8
0
  6
Continuous
 62
     7
370
    25
100
AcDbLine
 10
131.1959753796
 20
155.8651664463
 30
0.0
 11
136.9172557309
 21
155.8651664463
 31
0.0
  0
LINE
  5
1EB
330
1F
100
AcDbEntity
  8
0
  6
Continuous
 62
     7
370
    25
100
AcDbLine
 10
149.6959746867
 20
155.3651663644
 30
0.0
 11
144.8863906837
 21
155.3651663644
 31
0.0
  0
ARC
  5
1EC
330
1F
100
AcDbEntity
  8
0
  6
Continuous
 62
     7
370
    25
100
AcDbCircle
 10
149.1959749922
 20
155.3651665059
 30
0.0
 40
0.5
100
AcDbArc
 50
0.0
 51
90.0
  0
LINE
  5
1ED
330
1F
100
AcDbEntity
  8
0
  6
Continuous
 62
     7
370
    25
100
AcDbLine
 10
143.4746942534
 20
155.8651664463
 30
0.0
 11
149.1959746047
 21
155.8651664463
 31
0.0
  0
LINE
  5
1EE
330
1F
100
AcDbEntity
  8
0
  6
Continuous
 62
     7
370
    25
100
AcDbLine
 10
130.6959752976
 20
151.3459073548
 30
0.0
 11
130.6959752976
 21
155.3651663644
 31
0.0
  0
LINE
  5
1EF
330
1F
100
AcDbEntity
  8
0
  6
Continuous
 62
     7
370
    25
100
AcDbLine
 10
149.6959746867
 20
151.3459073548
 30
0.0
 11
149.6959746867
 21
155.3651663644
 31
0.0
  0
LINE
  5
1F0
330
1F
100
AcDbEntity
  8
0
  6
Continuous
 62
     7
370
    25
100
AcDbLine
 10
144.8863906837
 20
134.3651666475
 30
0.0
 11
149.6959746867
 21
134.3651666475
 31
0.0
  0
LINE
  5
1F1
330
1F
100
AcDbEntity
  8
0
  6
Continuous
 62
     7
370
    25
100
AcDbLine
 10
149.6959746867
 20
134.3651666475
 30
0.0
 11
149.6959746867
 21
138.384425657
 31
0.0
  0
LINE
  5
1F2
330
1F
100
AcDbEntity
  8
0
  6
Continuous
 62
     7
370
    25
100
AcDbLine
 10
130.6959752976
 20
134.3651666475
 30
0.0
 11
135.5055593006
 21
134.3651666475
 31
0.0
  0
LINE
  5
1F3
330
1F
100
AcDbEntity
  8
0
  6
Continuous
 62
     7
370
    25
100
AcDbLine
 10
130.6959752976
 20
134.3651666475
 30
0.0
 11
130.6959752976
 21
138.384425657
 31
0.0
  0
ARC
  5
1F4
330
1F
100
AcDbEntity
  8
0
  6
Continuous
 62
     7
370
    25
100
AcDbCircle
 10
131.1959749922
 20
134.3651665059
 30
0.0
 40
0.5
100
AcDbArc
 50
180.0
 51
270.0
  0
LINE
  5
1F5
330
1F
100
AcDbEntity
  8
0
  6
Continuous
 62
     7
370
    25
100
AcDbLine
 10
136.9172557309
 20
133.8651665655
 30
0.0
 11
131.1959753796
 21
133.8651665655
 31
0.0
  0
ARC
  5
1F6
330
1F
100
AcDbEntity
  8
0
  6
Continuous
 62
     7
370
    25
100
AcDbCircle
 10
149.1959749922
 20
134.3651665059
 30
0.0
 40
0.5
100
AcDbArc
 50
270.0
 51
0.0
  0
LINE
  5
1F7
330
1F
100
AcDbEntity
  8
0
  6
Continuous
 62
     7
370
    25
100
AcDbLine
 10
149.1959746047
 20
133.8651665655
 30
0.0
 11
143.4746942534
 21
133.8651665655
 31
0.0
  0
LINE
  5
1F8
330
1F
100
AcDbEntity
  8
0
  6
Continuous
 62
     7
370
    25
100
AcDbLine
 10
130.6959752976
 20
155.3651663644
 30
0.0
 11
129.6959751337
 21
155.3651663644
 31
0.0
  0
LINE
  5
1F9
330
1F
100
AcDbEntity
  8
0
  6
Continuous
 62
     7
370
    25
100
AcDbLine
 10
129.6959751337
 20
155.8651664463
 30
0.0
 11
129.6959751337
 21
155.3651663644
 31
0.0
  0
LINE
  5
1FA
330
1F
100
AcDbEntity
  8
0
  6
Continuous
 62
     7
370
    25
100
AcDbLine
 10
129.6959751337
 20
155.8651664463
 30
0.0
 11
131.1959753796
 21
155.8651664463
 31
0.0
  0
SPLINE
  5
1FB
330
1F
100
AcDbEntity
  8
0
  6
Continuous
 62
     7
370
    25
100
AcDbSpline
210
0.0
220
0.0
230
1.0
 70
     8
 71
     3
 72
    10
 73
     6
 74
     0
 42
0.000000001
 43
0.00000001
 40
0.0
 40
0.0
 40
0.0
 40
0.0
 40
0.5
 40
0.5
 40
1.0
 40
1.0
 40
1.0
 40
1.0
 10
130.4030817733385
 20
150.2780789569395
 30
0.0
 10
130.4860483441403
 20
150.3558389326109
 30
0.0
 10
130.5592685466167
 20
150.422252445286
 30
0.0
 10
130.6649804266104
 20
150.5169586937774
 30
0.0
 10
130.6959749921519
 20
150.544074851715
 30
0.0
 10
130.6959749921519
 20
150.544074851715
 30
0.0
  0
SPLINE
  5
1FC
330
1F
100
AcDbEntity
  8
0
  6
Continuous
 62
     7
370
    25
100
AcDbSpline
210
0.0
220
0.0
230
1.0
 70
     8
 71
     3
 72
    10
 73
     6
 74
     0
 42
0.000000001
 43
0.00000001
 40
0.0
 40
0.0
 40
0.0
 40
0.0
 40
0.5
 40
0.5
 40
1.0
 40
1.0
 40
1.0
 40
1.0
 10
129.6959749921519
 20
150.544074851715
 30
0.0
 10
129.8370783087907
 20
150.544074851715
 30
0.0
 10
129.976004604747
 20
150.5169586937774
 30
0.0
 10
130.2176188886559
 20
150.422252445286
 30
0.0
 10
130.3201152025367
 20
150.3558389326109
 30
0.0
 10
130.4030817733385
 20
150.2780789569395
 30
0.0
  0
LINE
  5
1FD
330
1F
100
AcDbEntity
  8
0
  6
Continuous
 62
     7
370
    25
100
AcDbLine
 10
129.6959751337
 20
150.5440749397
 30
0.0
 11
129.6959751337
 21
155.3651663644
 31
0.0
  0
LINE
  5
1FE
330
1F
100
AcDbEntity
  8
0
  6
Continuous
 62
     7
370
    25
100
AcDbLine
 10
150.6959748506
 20
155.8651664463
 30
0.0
 11
150.6959748506
 21
155.3651663644
 31
0.0
  0
LINE
  5
1FF
330
1F
100
AcDbEntity
  8
0
  6
Continuous
 62
     7
370
    25
100
AcDbLine
 10
150.6959748506
 20
155.3651663644
 30
0.0
 11
149.6959746867
 21
155.3651663644
 31
0.0
  0
LINE
  5
200
330
1F
100
AcDbEntity
  8
0
  6
Continuous
 62
     7
370
    25
100
AcDbLine
 10
149.1959746047
 20
155.8651664463
 30
0.0
 11
150.6959748506
 21
155.8651664463
 31
0.0
  0
LINE
  5
201
330
1F
100
AcDbEntity
  8
0
  6
Continuous
 62
     7
370
    25
100
AcDbLine
 10
150.6959748506
 20
150.5440749397
 30
0.0
 11
150.6959748506
 21
155.3651663644
 31
0.0
  0
SPLINE
  5
202
330
1F
100
AcDbEntity
  8
0
  6
Continuous
 62
     7
370
    25
100
AcDbSpline
210
0.0
220
0.0
230
1.0
 70
     8
 71
     3
 72
    10
 73
     6
 74
     0
 42
0.000000001
 43
0.00000001
 40
0.0
 40
0.0
 40
0.0
 40
0.0
 40
0.5
 40
0.5
 40
1.0
 40
1.0
 40
1.0
 40
1.0
 10
149.9888682109654
 20
150.2780789569395
 30
0.0
 10
150.0718347817672
 20
150.3558389326109
 30
0.0
 10
150.174331095648
 20
150.4222524452861
 30
0.0
 10
150.4159453795569
 20
150.5169586937774
 30
0.0
 10
150.5548716755132
 20
150.544074851715
 30
0.0
 10
150.6959749921519
 20
150.544074851715
 30
0.0
  0
SPLINE
  5
203
330
1F
100
AcDbEntity
  8
0
  6
Continuous
 62
     7
370
    25
100
AcDbSpline
210
0.0
220
0.0
230
1.0
 70
     8
 71
     3
 72
    10
 73
     6
 74
     0
 42
0.000000001
 43
0.00000001
 40
0.0
 40
0.0
 40
0.0
 40
0.0
 40
0.5
 40
0.5
 40
1.0
 40
1.0
 40
1.0
 40
1.0
 10
149.6959749921519
 20
150.544074851715
 30
0.0
 10
149.6959749921519
 20
150.544074851715
 30
0.0
 10
149.7269695576935
 20
150.5169586937774
 30
0.0
 10
149.8326814376872
 20
150.422252445286
 30
0.0
 10
149.9059016401636
 20
150.3558389326109
 30
0.0
 10
149.9888682109654
 20
150.2780789569395
 30
0.0
  0
ARC
  5
204
330
1F
100
AcDbEntity
  8
0
  6
Continuous
 62
     7
370
    25
100
AcDbCircle
 10
130.2677435787
 20
150.0937313222
 30
0.0
 40
0.2286929998851789
100
AcDbArc
 50
347.1153095445
 51
53.7158681013
  0
ARC
  5
205
330
1F
100
AcDbEntity
  8
0
  6
Continuous
 62
     7
370
    25
100
AcDbCircle
 10
150.1242064056
 20
150.0937313222
 30
0.0
 40
0.2286929998851789
100
AcDbArc
 50
126.2841318987
 51
192.8846904555
  0
SPLINE
  5
206
330
1F
100
AcDbEntity
  8
0
  6
Continuous
 62
     7
370
    25
100
AcDbSpline
210
0.0
220
0.0
230
1.0
 70
     8
 71
     3
 72
    10
 73
     6
 74
     0
 42
0.000000001
 43
0.00000001
 40
0.0
 40
0.0
 40
0.0
 40
0.0
 40
0.5
 40
0.5
 40
1.0
 40
1.0
 40
1.0
 40
1.0
 10
130.6959749921519
 20
139.1862581601144
 30
0.0
 10
130.6959749921519
 20
139.1862581601144
 30
0.0
 10
130.6649804266104
 20
139.213374318052
 30
0.0
 10
130.5592685466167
 20
139.3080805665434
 30
0.0
 10
130.4860483441403
 20
139.3744940792186
 30
0.0
 10
130.4030817733385
 20
139.4522540548899
 30
0.0
  0
ARC
  5
207
330
1F
100
AcDbEntity
  8
0
  6
Continuous
 62
     7
370
    25
100
AcDbCircle
 10
130.2677435787
 20
139.6366016896
 30
0.0
 40
0.2286929998851789
100
AcDbArc
 50
306.2841318987
 51
12.8846904555
  0
LINE
  5
208
330
1F
100
AcDbEntity
  8
0
  6
Continuous
 62
     7
370
    25
100
AcDbLine
 10
129.6959751337
 20
134.3651666475
 30
0.0
 11
130.6959752976
 21
134.3651666475
 31
0.0
  0
LINE
  5
209
330
1F
100
AcDbEntity
  8
0
  6
Continuous
 62
     7
370
    25
100
AcDbLine
 10
129.6959751337
 20
134.3651666475
 30
0.0
 11
129.6959751337
 21
139.1862580721
 31
0.0
  0
SPLINE
  5
20A
330
1F
100
AcDbEntity
  8
0
  6
Continuous
 62
     7
370
    25
100
AcDbSpline
210
0.0
220
0.0
230
1.0
 70
     8
 71
     3
 72
    10
 73
     6
 74
     0
 42
0.000000001
 43
0.00000001
 40
0.0
 40
0.0
 40
0.0
 40
0.0
 40
0.5
 40
0.5
 40
1.0
 40
1.0
 40
1.0
 40
1.0
 10
130.4030817733385
 20
139.4522540548899
 30
0.0
 10
130.3201152025367
 20
139.3744940792186
 30
0.0
 10
130.2176188886559
 20
139.3080805665434
 30
0.0
 10
129.976004604747
 20
139.213374318052
 30
0.0
 10
129.8370783087907
 20
139.1862581601144
 30
0.0
 10
129.6959749921519
 20
139.1862581601144
 30
0.0
  0
ARC
  5
20B
330
1F
100
AcDbEntity
  8
0
  6
Continuous
 62
     7
370
    25
100
AcDbCircle
 10
150.1242064056
 20
139.6366016896
 30
0.0
 40
0.2286929998851789
100
AcDbArc
 50
167.1153095445
 51
233.7158681013
  0
SPLINE
  5
20C
330
1F
100
AcDbEntity
  8
0
  6
Continuous
 62
     7
370
    25
100
AcDbSpline
210
0.0
220
0.0
230
1.0
 70
     8
 71
     3
 72
    10
 73
     6
 74
     0
 42
0.000000001
 43
0.00000001
 40
0.0
 40
0.0
 40
0.0
 40
0.0
 40
0.5
 40
0.5
 40
1.0
 40
1.0
 40
1.0
 40
1.0
 10
149.9888682109654
 20
139.4522540548899
 30
0.0
 10
149.9059016401636
 20
139.3744940792186
 30
0.0
 10
149.8326814376872
 20
139.3080805665433
 30
0.0
 10
149.7269695576935
 20
139.213374318052
 30
0.0
 10
149.6959749921519
 20
139.1862581601144
 30
0.0
 10
149.6959749921519
 20
139.1862581601144
 30
0.0
  0
LINE
  5
20D
330
1F
100
AcDbEntity
  8
0
  6
Continuous
 62
     7
370
    25
100
AcDbLine
 10
149.6959746867
 20
134.3651666475
 30
0.0
 11
150.6959748506
 21
134.3651666475
 31
0.0
  0
SPLINE
  5
20E
330
1F
100
AcDbEntity
  8
0
  6
Continuous
 62
     7
370
    25
100
AcDbSpline
210
0.0
220
0.0
230
1.0
 70
     8
 71
     3
 72
    10
 73
     6
 74
     0
 42
0.000000001
 43
0.00000001
 40
0.0
 40
0.0
 40
0.0
 40
0.0
 40
0.5
 40
0.5
 40
1.0
 40
1.0
 40
1.0
 40
1.0
 10
150.6959749921519
 20
139.1862581601144
 30
0.0
 10
150.5548716755132
 20
139.1862581601144
 30
0.0
 10
150.4159453795569
 20
139.213374318052
 30
0.0
 10
150.174331095648
 20
139.3080805665433
 30
0.0
 10
150.0718347817672
 20
139.3744940792186
 30
0.0
 10
149.9888682109654
 20
139.4522540548899
 30
0.0
  0
LINE
  5
20F
330
1F
100
AcDbEntity
  8
0
  6
Continuous
 62
     7
370
    25
100
AcDbLine
 10
150.6959748506
 20
134.3651666475
 30
0.0
 11
150.6959748506
 21
139.1862580721
 31
0.0
  0
LINE
  5
210
330
1F
100
AcDbEntity
  8
0
  6
Continuous
 62
     7
370
    25
100
AcDbLine
 10
129.6959751337
 20
133.8651665655
 30
0.0
 11
129.6959751337
 21
134.3651666475
 31
0.0
  0
LINE
  5
211
330
1F
100
AcDbEntity
  8
0
  6
Continuous
 62
     7
370
    25
100
AcDbLine
 10
131.1959753796
 20
133.8651665655
 30
0.0
 11
129.6959751337
 21
133.8651665655
 31
0.0
  0
LINE
  5
212
330
1F
100
AcDbEntity
  8
0
  6
Continuous
 62
     7
370
    25
100
AcDbLine
 10
150.6959748506
 20
133.8651665655
 30
0.0
 11
150.6959748506
 21
134.3651666475
 31
0.0
  0
LINE
  5
213
330
1F
100
AcDbEntity
  8
0
  6
Continuous
 62
     7
370
    25
100
AcDbLine
 10
150.6959748506
 20
133.8651665655
 30
0.0
 11
149.1959746047
 21
133.8651665655
 31
0.0
  0
ARC
  5
214
330
1F
100
AcDbEntity
  8
0
  6
Continuous
 62
     7
370
    25
100
AcDbCircle
 10
129.6562978725
 20
151.0167200407
 30
0.0
 40
1.050369871327915
100
AcDbArc
 50
291.985593584
 51
315.314082801
  0
ARC
  5
215
330
1F
100
AcDbEntity
  8
0
  6
Continuous
 62
     7
370
    25
100
AcDbCircle
 10
150.7356521118
 20
151.0167200407
 30
0.0
 40
1.050369871327915
100
AcDbArc
 50
224.685917199
 51
248.014406416
  0
ARC
  5
216
330
1F
100
AcDbEntity
  8
0
  6
Continuous
 62
     7
370
    25
100
AcDbCircle
 10
129.6562978725
 20
138.7136129712
 30
0.0
 40
1.050369871327895
100
AcDbArc
 50
44.685917199
 51
68.014406416
  0
ARC
  5
217
330
1F
100
AcDbEntity
  8
0
  6
Continuous
 62
     7
370
    25
100
AcDbCircle
 10
150.7356521118
 20
138.7136129712
 30
0.0
 40
1.050369871327895
100
AcDbArc
 50
111.985593584
 51
135.314082801
  0
LINE
  5
218
330
1F
100
AcDbEntity
  8
0
  6
Continuous
 62
     7
370
    25
100
AcDbLine
 10
129.6959751337
 20
150.2971659583
 30
0.0
 11
129.6959751337
 21
150.5440749397
 31
0.0
  0
LINE
  5
219
330
1F
100
AcDbEntity
  8
0
  6
Continuous
 62
     7
370
    25
100
AcDbLine
 10
150.6959748506
 20
150.2971659583
 30
0.0
 11
150.6959748506
 21
150.5440749397
 31
0.0
  0
LINE
  5
21A
330
1F
100
AcDbEntity
  8
0
  6
Continuous
 62
     7
370
    25
100
AcDbLine
 10
129.6959751337
 20
139.4331670535
 30
0.0
 11
129.6959751337
 21
139.1862580721
 31
0.0
  0
LINE
  5
21B
330
1F
100
AcDbEntity
  8
0
  6
Continuous
 62
     7
370
    25
100
AcDbLine
 10
150.6959748506
 20
139.4331670535
 30
0.0
 11
150.6959748506
 21
139.1862580721
 31
0.0
  0
SPLINE
  5
21C
330
1F
100
AcDbEntity
  8
0
  6
Continuous
 62
     7
370
    25
100
AcDbSpline
210
0.0
220
0.0
230
1.0
 70
     8
 71
     3
 72
     8
 73
     4
 74
     0
 42
0.000000001
 43
0.00000001
 40
0.0
 40
0.0
 40
0.0
 40
0.0
 40
1.0
 40
1.0
 40
1.0
 40
1.0
 10
128.9476725161073
 20
150.544074851715
 30
0.0
 10
128.8674617377087
 20
150.4529990979985
 30
0.0
 10
128.7814612409861
 20
150.3698677399179
 30
0.0
 10
128.6959749921519
 20
150.2971657932019
 30
0.0
  0
ARC
  5
21D
330
1F
100
AcDbEntity
  8
0
  6
Continuous
 62
     7
370
    25
100
AcDbCircle
 10
128.716769355
 20
155.3879407759
 30
0.0
 40
0.4797465722737581
100
AcDbArc
 50
267.5157636109
 51
357.2790461907
  0
SPLINE
  5
21E
330
1F
100
AcDbEntity
  8
0
  6
Continuous
 62
     7
370
    25
100
AcDbSpline
210
0.0
220
0.0
230
1.0
 70
     8
 71
     3
 72
    12
 73
     8
 74
     0
 42
0.000000001
 43
0.00000001
 40
0.0
 40
0.0
 40
0.0
 40
0.0
 40
0.5
 40
0.5
 40
0.75
 40
0.75
 40
1.0
 40
1.0
 40
1.0
 40
1.0
 10
129.1959749921519
 20
151.3459072043226
 30
0.0
 10
129.1959749921519
 20
151.2021881428046
 30
0.0
 10
129.1774902610146
 20
151.0614958544092
 30
0.0
 10
129.119354077134
 20
150.8554367426977
 30
0.0
 10
129.094509291092
 20
150.7873668475587
 30
0.0
 10
129.0325646310143
 20
150.6593942414698
 30
0.0
 10
128.9957290703972
 20
150.5986409211447
 30
0.0
 10
128.9476725161059
 20
150.5440748517155
 30
0.0
  0
ARC
  5
21F
330
1F
100
AcDbEntity
  8
0
  6
Continuous
 62
     7
370
    25
100
AcDbCircle
 10
151.6751806293
 20
155.3879407759
 30
0.0
 40
0.4797465722737581
100
AcDbArc
 50
182.7209538093
 51
272.4842363891
  0
SPLINE
  5
220
330
1F
100
AcDbEntity
  8
0
  6
Continuous
 62
     7
370
    25
100
AcDbSpline
210
0.0
220
0.0
230
1.0
 70
     8
 71
     3
 72
     8
 73
     4
 74
     0
 42
0.000000001
 43
0.00000001
 40
0.0
 40
0.0
 40
0.0
 40
0.0
 40
1.0
 40
1.0
 40
1.0
 40
1.0
 10
151.4442774681966
 20
150.544074851715
 30
0.0
 10
151.5244882465952
 20
150.4529990979985
 30
0.0
 10
151.6104887433189
 20
150.3698677399188
 30
0.0
 10
151.6959749921519
 20
150.2971657932019
 30
0.0
  0
SPLINE
  5
221
330
1F
100
AcDbEntity
  8
0
  6
Continuous
 62
     7
370
    25
100
AcDbSpline
210
0.0
220
0.0
230
1.0
 70
     8
 71
     3
 72
    10
 73
     6
 74
     0
 42
0.000000001
 43
0.00000001
 40
0.0
 40
0.0
 40
0.0
 40
0.0
 40
0.5
 40
0.5
 40
1.0
 40
1.0
 40
1.0
 40
1.0
 10
151.4442774681966
 20
150.544074851715
 30
0.0
 10
151.3488003992651
 20
150.6524847959792
 30
0.0
 10
151.2919215940564
 20
150.7871520853374
 30
0.0
 10
151.2148240855291
 20
151.0599915496987
 30
0.0
 10
151.1959749921519
 20
151.2026270865316
 30
0.0
 10
151.1959749921519
 20
151.3459072043226
 30
0.0
  0
LINE
  5
222
330
1F
100
AcDbEntity
  8
0
  6
Continuous
 62
     7
370
    25
100
AcDbLine
 10
128.9476723462
 20
150.5440749397
 30
0.0
 11
129.6959751337
 21
150.5440749397
 31
0.0
  0
LINE
  5
223
330
1F
100
AcDbEntity
  8
0
  6
Continuous
 62
     7
370
    25
100
AcDbLine
 10
150.6959748506
 20
150.5440749397
 30
0.0
 11
151.4442776381
 21
150.5440749397
 31
0.0
  0
ARC
  5
224
330
1F
100
AcDbEntity
  8
0
  6
Continuous
 62
     7
370
    25
100
AcDbCircle
 10
128.716769355
 20
134.342392236
 30
0.0
 40
0.4797465722737567
100
AcDbArc
 50
2.7209538093
 51
92.4842363891
  0
SPLINE
  5
225
330
1F
100
AcDbEntity
  8
0
  6
Continuous
 62
     7
370
    25
100
AcDbSpline
210
0.0
220
0.0
230
1.0
 70
     8
 71
     3
 72
     8
 73
     4
 74
     0
 42
0.000000001
 43
0.00000001
 40
0.0
 40
0.0
 40
0.0
 40
0.0
 40
1.0
 40
1.0
 40
1.0
 40
1.0
 10
128.9476725161073
 20
139.1862581601144
 30
0.0
 10
128.8674617377087
 20
139.2773339138309
 30
0.0
 10
128.7814612409861
 20
139.3604652719115
 30
0.0
 10
128.6959749921519
 20
139.4331672186275
 30
0.0
  0
SPLINE
  5
226
330
1F
100
AcDbEntity
  8
0
  6
Continuous
 62
     7
370
    25
100
AcDbSpline
210
0.0
220
0.0
230
1.0
 70
     8
 71
     3
 72
    10
 73
     6
 74
     0
 42
0.000000001
 43
0.00000001
 40
0.0
 40
0.0
 40
0.0
 40
0.0
 40
0.5
 40
0.5
 40
1.0
 40
1.0
 40
1.0
 40
1.0
 10
128.9476725161073
 20
139.1862581601144
 30
0.0
 10
129.0431495850387
 20
139.0778482158504
 30
0.0
 10
129.1000283902472
 20
138.9431809264924
 30
0.0
 10
129.1771258987746
 20
138.6703414621316
 30
0.0
 10
129.1959749921518
 20
138.5277059252989
 30
0.0
 10
129.1959749921519
 20
138.3844258075082
 30
0.0
  0
LINE
  5
227
330
1F
100
AcDbEntity
  8
0
  6
Continuous
 62
     7
370
    25
100
AcDbLine
 10
129.6959751337
 20
139.1862580721
 30
0.0
 11
128.9476723462
 21
139.1862580721
 31
0.0
  0
SPLINE
  5
228
330
1F
100
AcDbEntity
  8
0
  6
Continuous
 62
     7
370
    25
100
AcDbSpline
210
0.0
220
0.0
230
1.0
 70
     8
 71
     3
 72
     8
 73
     4
 74
     0
 42
0.000000001
 43
0.00000001
 40
0.0
 40
0.0
 40
0.0
 40
0.0
 40
1.0
 40
1.0
 40
1.0
 40
1.0
 10
151.4442774681966
 20
139.1862581601144
 30
0.0
 10
151.5244882465952
 20
139.2773339138309
 30
0.0
 10
151.6104887433189
 20
139.3604652719106
 30
0.0
 10
151.6959749921519
 20
139.4331672186275
 30
0.0
  0
LINE
  5
229
330
1F
100
AcDbEntity
  8
0
  6
Continuous
 62
     7
370
    25
100
AcDbLine
 10
151.4442776381
 20
139.1862580721
 30
0.0
 11
150.6959748506
 21
139.1862580721
 31
0.0
  0
SPLINE
  5
22A
330
1F
100
AcDbEntity
  8
0
  6
Continuous
 62
     7
370
    25
100
AcDbSpline
210
0.0
220
0.0
230
1.0
 70
     8
 71
     3
 72
    12
 73
     8
 74
     0
 42
0.000000001
 43
0.00000001
 40
0.0
 40
0.0
 40
0.0
 40
0.0
 40
0.5000000000000023
 40
0.5000000000000023
 40
0.7500000000000011
 40
0.7500000000000011
 40
1.0
 40
1.0
 40
1.0
 40
1.0
 10
151.1959749921519
 20
138.3844258075068
 30
0.0
 10
151.1959749921519
 20
138.5281448690248
 30
0.0
 10
151.2144597232893
 20
138.6688371574202
 30
0.0
 10
151.2725959071699
 20
138.8748962691317
 30
0.0
 10
151.2974406932119
 20
138.9429661642707
 30
0.0
 10
151.3593853532896
 20
139.0709387703596
 30
0.0
 10
151.3962209139067
 20
139.1316920906847
 30
0.0
 10
151.444277468198
 20
139.1862581601139
 30
0.0
  0
ARC
  5
22B
330
1F
100
AcDbEntity
  8
0
  6
Continuous
 62
     7
370
    25
100
AcDbCircle
 10
151.6751806293
 20
134.342392236
 30
0.0
 40
0.4797465722737284
100
AcDbArc
 50
87.5157636109
 51
177.2790461907
  0
LINE
  5
22C
330
1F
100
AcDbEntity
  8
0
  6
Continuous
 62
     7
370
    25
100
AcDbLine
 10
129.6959751337
 20
155.3651663644
 30
0.0
 11
129.1959750518
 21
155.3651663644
 31
0.0
  0
ARC
  5
22D
330
1F
100
AcDbEntity
  8
0
  6
Continuous
 62
     7
370
    25
100
AcDbCircle
 10
129.6959749922
 20
155.3651665059
 30
0.0
 40
0.5
100
AcDbArc
 50
90.0
 51
180.0
  0
LINE
  5
22E
330
1F
100
AcDbEntity
  8
0
  6
Continuous
 62
     7
370
    25
100
AcDbLine
 10
129.1959750518
 20
151.3459073548
 30
0.0
 11
129.1959750518
 21
155.3651663644
 31
0.0
  0
ARC
  5
22F
330
1F
100
AcDbEntity
  8
0
  6
Continuous
 62
     7
370
    25
100
AcDbCircle
 10
150.6959749922
 20
155.3651665059
 30
0.0
 40
0.5
100
AcDbArc
 50
0.0
 51
90.0
  0
LINE
  5
230
330
1F
100
AcDbEntity
  8
0
  6
Continuous
 62
     7
370
    25
100
AcDbLine
 10
151.1959749325
 20
155.3651663644
 30
0.0
 11
150.6959748506
 21
155.3651663644
 31
0.0
  0
LINE
  5
231
330
1F
100
AcDbEntity
  8
0
  6
Continuous
 62
     7
370
    25
100
AcDbLine
 10
151.1959749325
 20
151.3459073548
 30
0.0
 11
151.1959749325
 21
155.3651663644
 31
0.0
  0
LINE
  5
232
330
1F
100
AcDbEntity
  8
0
  6
Continuous
 62
     7
370
    25
100
AcDbLine
 10
129.1959750518
 20
134.3651666475
 30
0.0
 11
129.6959751337
 21
134.3651666475
 31
0.0
  0
LINE
  5
233
330
1F
100
AcDbEntity
  8
0
  6
Continuous
 62
     7
370
    25
100
AcDbLine
 10
129.1959750518
 20
134.3651666475
 30
0.0
 11
129.1959750518
 21
138.384425657
 31
0.0
  0
LINE
  5
234
330
1F
100
AcDbEntity
  8
0
  6
Continuous
 62
     7
370
    25
100
AcDbLine
 10
151.1959749325
 20
134.3651666475
 30
0.0
 11
151.1959749325
 21
138.384425657
 31
0.0
  0
LINE
  5
235
330
1F
100
AcDbEntity
  8
0
  6
Continuous
 62
     7
370
    25
100
AcDbLine
 10
150.6959748506
 20
134.3651666475
 30
0.0
 11
151.1959749325
 21
134.3651666475
 31
0.0
  0
ARC
  5
236
330
1F
100
AcDbEntity
  8
0
  6
Continuous
 62
     7
370
    25
100
AcDbCircle
 10
129.6959749922
 20
134.3651665059
 30
0.0
 40
0.5
100
AcDbArc
 50
180.0
 51
270.0
  0
ARC
  5
237
330
1F
100
AcDbEntity
  8
0
  6
Continuous
 62
     7
370
    25
100
AcDbCircle
 10
150.6959749922
 20
134.3651665059
 30
0.0
 40
0.5
100
AcDbArc
 50
270.0
 51
0.0
  0
ARC
  5
238
330
1F
100
AcDbEntity
  8
0
  6
Continuous
 62
     7
370
    25
100
AcDbCircle
 10
128.8734581174
 20
155.8758201034
 30
0.0
 40
0.4681593065412952
100
AcDbArc
 50
266.3262887358
 51
327.8245327008
  0
ARC
  5
239
330
1F
100
AcDbEntity
  8
0
  6
Continuous
 62
     7
370
    25
100
AcDbCircle
 10
151.5184918669
 20
155.8758201034
 30
0.0
 40
0.4681593065412879
100
AcDbArc
 50
212.1754672992
 51
273.6737112642
  0
ARC
  5
23A
330
1F
100
AcDbEntity
  8
0
  6
Continuous
 62
     7
370
    25
100
AcDbCircle
 10
151.5184918669
 20
133.8545129084
 30
0.0
 40
0.4681593065412952
100
AcDbArc
 50
86.3262887358
 51
147.8245327008
  0
ARC
  5
23B
330
1F
100
AcDbEntity
  8
0
  6
Continuous
 62
     7
370
    25
100
AcDbCircle
 10
128.8734581174
 20
133.8545129084
 30
0.0
 40
0.4681593065412595
100
AcDbArc
 50
32.1754672991
 51
93.6737112642
  0
SPLINE
  5
23C
330
1F
100
AcDbEntity
  8
0
  6
Continuous
 62
     7
370
    25
100
AcDbSpline
210
0.0
220
0.0
230
1.0
 70
     8
 71
     3
 72
    12
 73
     8
 74
     0
 42
0.000000001
 43
0.00000001
 40
0.0
 40
0.0
 40
0.0
 40
0.0
 40
0.25
 40
0.25
 40
0.5
 40
0.5
 40
1.0
 40
1.0
 40
1.0
 40
1.0
 10
129.269717824174
 20
155.6265184271768
 30
0.0
 10
129.2924303258831
 20
155.6635618382582
 30
0.0
 10
129.2999428457123
 20
155.6977747395465
 30
0.0
 10
129.3014989204115
 20
155.7573068944075
 30
0.0
 10
129.2950720785694
 20
155.7827076254299
 30
0.0
 10
129.2648470782651
 20
155.8440662571589
 30
0.0
 10
129.2301515571465
 20
155.8651665059147
 30
0.0
 10
129.1959749921519
 20
155.8651665059147
 30
0.0
  0
SPLINE
  5
23D
330
1F
100
AcDbEntity
  8
0
  6
Continuous
 62
     7
370
    25
100
AcDbSpline
210
0.0
220
0.0
230
1.0
 70
    24
 71
     3
 72
    12
 73
     8
 74
     0
 42
0.000000001
 43
0.00000001
 40
0.0
 40
0.0
 40
0.0
 40
0.0
 40
0.2499999999999999
 40
0.2499999999999999
 40
0.4999999999999999
 40
0.4999999999999999
 40
1.0
 40
1.0
 40
1.0
 40
1.0
 10
129.6959749921519
 20
155.8651665059147
 30
0.0
 10
129.6959749921519
 20
155.8651665059147
 30
0.0
 10
129.676252046744
 20
155.8651665059147
 30
0.0
 10
129.6156155819828
 20
155.8651665059147
 30
0.0
 10
129.5743590362944
 20
155.8651665059147
 30
0.0
 10
129.4325857266223
 20
155.8651665059147
 30
0.0
 10
129.314018681462
 20
155.8651665059147
 30
0.0
 10
129.1959749921519
 20
155.8651665059147
 30
0.0
  0
SPLINE
  5
23E
330
1F
100
AcDbEntity
  8
0
  6
Continuous
 62
     7
370
    25
100
AcDbSpline
210
0.0
220
0.0
230
1.0
 70
     8
 71
     3
 72
    12
 73
     8
 74
     0
 42
0.000000001
 43
0.00000001
 40
0.0
 40
0.0
 40
0.0
 40
0.0
 40
0.25
 40
0.25
 40
0.5
 40
0.5
 40
1.0
 40
1.0
 40
1.0
 40
1.0
 10
151.1222321601299
 20
155.6265184271768
 30
0.0
 10
151.0995196584218
 20
155.6635618382565
 30
0.0
 10
151.0920071385923
 20
155.6977747395433
 30
0.0
 10
151.0904510638919
 20
155.7573068944023
 30
0.0
 10
151.0968779057328
 20
155.7827076254242
 30
0.0
 10
151.1271029060337
 20
155.8440662571531
 30
0.0
 10
151.1617984271475
 20
155.8651665059147
 30
0.0
 10
151.1959749921519
 20
155.8651665059147
 30
0.0
  0
SPLINE
  5
23F
330
1F
100
AcDbEntity
  8
0
  6
Continuous
 62
     7
370
    25
100
AcDbSpline
210
0.0
220
0.0
230
1.0
 70
    24
 71
     3
 72
    12
 73
     8
 74
     0
 42
0.000000001
 43
0.00000001
 40
0.0
 40
0.0
 40
0.0
 40
0.0
 40
0.2499999999999999
 40
0.2499999999999999
 40
0.4999999999999999
 40
0.4999999999999999
 40
1.0
 40
1.0
 40
1.0
 40
1.0
 10
150.6959749921519
 20
155.8651665059147
 30
0.0
 10
150.6959749921519
 20
155.8651665059147
 30
0.0
 10
150.7156979375599
 20
155.8651665059147
 30
0.0
 10
150.7763344023211
 20
155.8651665059147
 30
0.0
 10
150.8175909480095
 20
155.8651665059147
 30
0.0
 10
150.9593642576816
 20
155.8651665059147
 30
0.0
 10
151.0779313028419
 20
155.8651665059147
 30
0.0
 10
151.1959749921519
 20
155.8651665059147
 30
0.0
  0
SPLINE
  5
240
330
1F
100
AcDbEntity
  8
0
  6
Continuous
 62
     7
370
    25
100
AcDbSpline
210
0.0
220
0.0
230
1.0
 70
     8
 71
     3
 72
    12
 73
     8
 74
     0
 42
0.000000001
 43
0.00000001
 40
0.0
 40
0.0
 40
0.0
 40
0.0
 40
0.2499999999999999
 40
0.2499999999999999
 40
0.4999999999999998
 40
0.4999999999999998
 40
1.0
 40
1.0
 40
1.0
 40
1.0
 10
129.269717824174
 20
134.1038145846525
 30
0.0
 10
129.2924303258831
 20
134.0667711735712
 30
0.0
 10
129.2999428457123
 20
134.0325582722829
 30
0.0
 10
129.3014989204115
 20
133.9730261174219
 30
0.0
 10
129.2950720785694
 20
133.9476253863996
 30
0.0
 10
129.2648470782651
 20
133.8862667546705
 30
0.0
 10
129.2301515571469
 20
133.8651665059147
 30
0.0
 10
129.1959749921519
 20
133.8651665059147
 30
0.0
  0
SPLINE
  5
241
330
1F
100
AcDbEntity
  8
0
  6
Continuous
 62
     7
370
    25
100
AcDbSpline
210
0.0
220
0.0
230
1.0
 70
    24
 71
     3
 72
    12
 73
     8
 74
     0
 42
0.000000001
 43
0.00000001
 40
0.0
 40
0.0
 40
0.0
 40
0.0
 40
0.2499999999999999
 40
0.2499999999999999
 40
0.4999999999999999
 40
0.4999999999999999
 40
1.0
 40
1.0
 40
1.0
 40
1.0
 10
129.6959749921519
 20
133.8651665059147
 30
0.0
 10
129.6959749921519
 20
133.8651665059147
 30
0.0
 10
129.676252046744
 20
133.8651665059147
 30
0.0
 10
129.6156155819828
 20
133.8651665059147
 30
0.0
 10
129.5743590362944
 20
133.8651665059147
 30
0.0
 10
129.4325857266223
 20
133.8651665059147
 30
0.0
 10
129.314018681462
 20
133.8651665059147
 30
0.0
 10
129.1959749921519
 20
133.8651665059147
 30
0.0
  0
SPLINE
  5
242
330
1F
100
AcDbEntity
  8
0
  6
Continuous
 62
     7
370
    25
100
AcDbSpline
210
0.0
220
0.0
230
1.0
 70
     8
 71
     3
 72
    12
 73
     8
 74
     0
 42
0.000000001
 43
0.00000001
 40
0.0
 40
0.0
 40
0.0
 40
0.0
 40
0.2500000000000001
 40
0.2500000000000001
 40
0.5000000000000001
 40
0.5000000000000001
 40
1.0
 40
1.0
 40
1.0
 40
1.0
 10
151.1222321601299
 20
134.1038145846525
 30
0.0
 10
151.0995196584219
 20
134.0667711735729
 30
0.0
 10
151.0920071385924
 20
134.0325582722861
 30
0.0
 10
151.0904510638919
 20
133.9730261174271
 30
0.0
 10
151.0968779057328
 20
133.9476253864052
 30
0.0
 10
151.1271029060336
 20
133.8862667546763
 30
0.0
 10
151.1617984271473
 20
133.8651665059147
 30
0.0
 10
151.1959749921519
 20
133.8651665059147
 30
0.0
  0
SPLINE
  5
243
330
1F
100
AcDbEntity
  8
0
  6
Continuous
 62
     7
370
    25
100
AcDbSpline
210
0.0
220
0.0
230
1.0
 70
    24
 71
     3
 72
    12
 73
     8
 74
     0
 42
0.000000001
 43
0.00000001
 40
0.0
 40
0.0
 40
0.0
 40
0.0
 40
0.2499999999999999
 40
0.2499999999999999
 40
0.4999999999999999
 40
0.4999999999999999
 40
1.0
 40
1.0
 40
1.0
 40
1.0
 10
150.6959749921519
 20
133.8651665059147
 30
0.0
 10
150.6959749921519
 20
133.8651665059147
 30
0.0
 10
150.7156979375599
 20
133.8651665059147
 30
0.0
 10
150.7763344023211
 20
133.8651665059147
 30
0.0
 10
150.8175909480095
 20
133.8651665059147
 30
0.0
 10
150.9593642576816
 20
133.8651665059147
 30
0.0
 10
151.0779313028419
 20
133.8651665059147
 30
0.0
 10
151.1959749921519
 20
133.8651665059147
 30
0.0
  0
LINE
  5
244
330
1F
100
AcDbEntity
  8
0
  6
Continuous
 62
     7
370
    25
100
AcDbLine
 10
151.6542322054
 20
156.165166868
 30
0.0
 11
152.7377170562
 21
156.165166868
 31
0.0
  0
LINE
  5
245
330
1F
100
AcDbEntity
  8
0
  6
Continuous
 62
     7
370
    25
100
AcDbLine
 10
151.1959749325
 20
155.8651664463
 30
0.0
 11
153.1959752604
 21
155.8651664463
 31
0.0
  0
LINE
  5
246
330
1F
100
AcDbEntity
  8
0
  6
Continuous
 62
     8
370
    25
100
AcDbLine
 10
121.1959756031
 20
130.8651660738
 30
0.0
 11
121.1959756031
 21
158.865166938
 31
0.0
  0
LINE
  5
247
330
1F
100
AcDbEntity
  8
0
  6
Continuous
 62
     8
370
    25
100
AcDbLine
 10
159.1959743812
 20
158.865166938
 30
0.0
 11
159.1959743812
 21
130.8651660738
 31
0.0
  0
LINE
  5
248
330
1F
100
AcDbEntity
  8
0
  6
Continuous
 62
     8
370
    25
100
AcDbLine
 10
123.1959740683
 20
155.8651664463
 30
0.0
 11
123.1959740683
 21
133.8651665655
 31
0.0
  0
LINE
  5
249
330
1F
100
AcDbEntity
  8
0
  6
Continuous
 62
     8
370
    25
100
AcDbLine
 10
157.195975916
 20
133.8651665655
 30
0.0
 11
157.195975916
 21
155.8651664463
 31
0.0
  0
INSERT
  5
255
330
1F
100
AcDbEntity
  8
0
  6
Continuous
 62
     7
370
    18
100
AcDbBlockReference
  2
SW_CENTERMARKSYMBOL_1
 10
140.1959749922
 20
144.8651665059
 30
0.0
  0
ARC
  5
256
330
1F
100
AcDbEntity
  8
0
  6
Continuous
 62
     7
370
    18
100
AcDbCircle
 10
140.1959749922
 20
144.8651665059
 30
0.0
 40
7.475000000000025
100
AcDbArc
 50
75.0
 51
345.0
  0
ENDSEC
  0
SECTION
  2
OBJECTS
  0
DICTIONARY
  5
C
330
0
100
AcDbDictionary
281
     1
  3
ACAD_GROUP
350
D
  3
ACAD_LAYOUT
350
1A
  3
ACAD_MLINESTYLE
350
17
  3
ACAD_PLOTSETTINGS
350
19
  3
ACAD_PLOTSTYLENAME
350
E
  3
ACAD_SCALELIST
350
47
  0
DICTIONARY
  5
D
102
{ACAD_REACTORS
330
C
102
}
330
C
100
AcDbDictionary
281
     1
  0
DICTIONARY
  5
1A
102
{ACAD_REACTORS
330
C
102
}
330
C
100
AcDbDictionary
281
     1
  3
Layout1
350
1E
  3
Layout2
350
26
  3
Model
350
22
  0
DICTIONARY
  5
17
102
{ACAD_REACTORS
330
C
102
}
330
C
100
AcDbDictionary
281
     1
  3
Standard
350
18
  0
DICTIONARY
  5
19
102
{ACAD_REACTORS
330
C
102
}
330
C
100
AcDbDictionary
281
     1
  0
ACDBDICTIONARYWDFLT
  5
E
102
{ACAD_REACTORS
330
C
102
}
330
C
100
AcDbDictionary
281
     1
  3
Normal
350
F
100
AcDbDictionaryWithDefault
340
F
  0
DICTIONARY
  5
47
102
{ACAD_REACTORS
330
C
102
}
330
C
100
AcDbDictionary
281
     1
  3
A0
350
48
  3
A1
350
49
  3
A2
350
4A
  3
A3
350
4B
  3
A4
350
4C
  3
A5
350
4D
  3
A6
350
4E
  3
A7
350
4F
  3
A8
350
50
  3
A9
350
51
  3
B0
350
52
  3
B1
350
53
  3
B2
350
54
  3
B3
350
55
  3
B4
350
56
  3
B5
350
57
  3
B6
350
58
  3
B7
350
59
  3
B8
350
5A
  3
B9
350
5B
  3
C0
350
5C
  3
C1
350
5D
  3
C2
350
5E
  3
C3
350
5F
  3
C4
350
60
  3
C5
350
61
  3
C6
350
62
  3
C7
350
63
  3
C8
350
64
  3
C9
350
65
  3
D0
350
66
  3
D1
350
67
  3
D2
350
68
  0
LAYOUT
  5
1E
102
{ACAD_REACTORS
330
1A
102
}
330
1A
100
AcDbPlotSettings
  1

  2
none_device
  4

  6

 40
0.0
 41
0.0
 42
0.0
 43
0.0
 44
0.0
 45
0.0
 46
0.0
 47
0.0
 48
0.0
 49
0.0
140
0.0
141
0.0
142
1.0
143
1.0
 70
   688
 72
     1
 73
     0
 74
     5
  7

 75
    16
147
1.0
148
0.0
149
0.0
100
AcDbLayout
  1
Layout1
 70
     1
 71
     1
 10
0.0
 20
0.0
 11
420.0
 21
297.0
 12
0.0
 22
0.0
 32
0.0
 14
1.0000000000E+20
 24
1.0000000000E+20
 34
1.0000000000E+20
 15
-1.0000000000E+20
 25
-1.0000000000E+20
 35
-1.0000000000E+20
146
0.0
 13
0.0
 23
0.0
 33
0.0
 16
1.0
 26
0.0
 36
0.0
 17
0.0
 27
1.0
 37
0.0
 76
     0
330
1B
  0
LAYOUT
  5
26
102
{ACAD_REACTORS
330
1A
102
}
330
1A
100
AcDbPlotSettings
  1

  2
none_device
  4

  6

 40
0.0
 41
0.0
 42
0.0
 43
0.0
 44
0.0
 45
0.0
 46
0.0
 47
0.0
 48
0.0
 49
0.0
140
0.0
141
0.0
142
1.0
143
1.0
 70
   688
 72
     1
 73
     0
 74
     5
  7

 75
    16
147
1.0
148
0.0
149
0.0
100
AcDbLayout
  1
Layout2
 70
     1
 71
     2
 10
0.0
 20
0.0
 11
0.0
 21
0.0
 12
0.0
 22
0.0
 32
0.0
 14
0.0
 24
0.0
 34
0.0
 15
0.0
 25
0.0
 35
0.0
146
0.0
 13
0.0
 23
0.0
 33
0.0
 16
1.0
 26
0.0
 36
0.0
 17
0.0
 27
1.0
 37
0.0
 76
     0
330
23
  0
LAYOUT
  5
22
102
{ACAD_REACTORS
330
1A
102
}
330
1A
100
AcDbPlotSettings
  1

  2
none_device
  4
Letter_(8.50_x_11.00_Inches)
  6

 40
6.35
 41
6.35
 42
6.35000508
 43
6.35000508
 44
215.9
 45
279.4
 46
0.0
 47
0.0
 48
0.0
 49
0.0
140
0.0
141
0.0
142
1.0
143
1.0
 70
  1712
 72
     1
 73
     0
 74
     0
  7

 75
     0
147
1.0
148
0.0
149
0.0
100
AcDbLayout
  1
Model
 70
     1
 71
     0
 10
0.0
 20
0.0
 11
431.8
 21
279.4
 12
0.0
 22
0.0
 32
0.0
 14
0.0
 24
0.0
 34
0.0
 15
431.8
 25
279.4
 35
0.0
146
0.0
 13
0.0
 23
0.0
 33
0.0
 16
1.0
 26
0.0
 36
0.0
 17
0.0
 27
1.0
 37
0.0
 76
     0
330
1F
331
29
  0
MLINESTYLE
  5
18
102
{ACAD_REACTORS
330
17
102
}
330
17
100
AcDbMlineStyle
  2
Standard
 70
     0
  3

 62
   256
 51
90.0
 52
90.0
 71
     2
 49
0.5
 62
   256
  6
BYLAYER
 49
-0.5
 62
   256
  6
BYLAYER
  0
ACDBPLACEHOLDER
  5
F
102
{ACAD_REACTORS
330
E
102
}
330
E
  0
SCALE
  5
48
102
{ACAD_REACTORS
330
47
102
}
330
47
100
AcDbScale
 70
     0
300
1:1
140
1.0
141
1.0
290
     1
  0
SCALE
  5
49
102
{ACAD_REACTORS
330
47
102
}
330
47
100
AcDbScale
 70
     0
300
1:2
140
1.0
141
2.0
290
     0
  0
SCALE
  5
4A
102
{ACAD_REACTORS
330
47
102
}
330
47
100
AcDbScale
 70
     0
300
1:4
140
1.0
141
4.0
290
     0
  0
SCALE
  5
4B
102
{ACAD_REACTORS
330
47
102
}
330
47
100
AcDbScale
 70
     0
300
1:5
140
1.0
141
5.0
290
     0
  0
SCALE
  5
4C
102
{ACAD_REACTORS
330
47
102
}
330
47
100
AcDbScale
 70
     0
300
1:8
140
1.0
141
8.0
290
     0
  0
SCALE
  5
4D
102
{ACAD_REACTORS
330
47
102
}
330
47
100
AcDbScale
 70
     0
300
1:10
140
1.0
141
10.0
290
     0
  0
SCALE
  5
4E
102
{ACAD_REACTORS
330
47
102
}
330
47
100
AcDbScale
 70
     0
300
1:16
140
1.0
141
16.0
290
     0
  0
SCALE
  5
4F
102
{ACAD_REACTORS
330
47
102
}
330
47
100
AcDbScale
 70
     0
300
1:20
140
1.0
141
20.0
290
     0
  0
SCALE
  5
50
102
{ACAD_REACTORS
330
47
102
}
330
47
100
AcDbScale
 70
     0
300
1:30
140
1.0
141
30.0
290
     0
  0
SCALE
  5
51
102
{ACAD_REACTORS
330
47
102
}
330
47
100
AcDbScale
 70
     0
300
1:40
140
1.0
141
40.0
290
     0
  0
SCALE
  5
52
102
{ACAD_REACTORS
330
47
102
}
330
47
100
AcDbScale
 70
     0
300
1:50
140
1.0
141
50.0
290
     0
  0
SCALE
  5
53
102
{ACAD_REACTORS
330
47
102
}
330
47
100
AcDbScale
 70
     0
300
1:100
140
1.0
141
100.0
290
     0
  0
SCALE
  5
54
102
{ACAD_REACTORS
330
47
102
}
330
47
100
AcDbScale
 70
     0
300
2:1
140
2.0
141
1.0
290
     0
  0
SCALE
  5
55
102
{ACAD_REACTORS
330
47
102
}
330
47
100
AcDbScale
 70
     0
300
4:1
140
4.0
141
1.0
290
     0
  0
SCALE
  5
56
102
{ACAD_REACTORS
330
47
102
}
330
47
100
AcDbScale
 70
     0
300
8:1
140
8.0
141
1.0
290
     0
  0
SCALE
  5
57
102
{ACAD_REACTORS
330
47
102
}
330
47
100
AcDbScale
 70
     0
300
10:1
140
10.0
141
1.0
290
     0
  0
SCALE
  5
58
102
{ACAD_REACTORS
330
47
102
}
330
47
100
AcDbScale
 70
     0
300
100:1
140
100.0
141
1.0
290
     0
  0
SCALE
  5
59
102
{ACAD_REACTORS
330
47
102
}
330
47
100
AcDbScale
 70
     0
300
1/128" = 1'-0"
140
0.0078125
141
12.0
290
     0
  0
SCALE
  5
5A
102
{ACAD_REACTORS
330
47
102
}
330
47
100
AcDbScale
 70
     0
300
1/64" = 1'-0"
140
0.015625
141
12.0
290
     0
  0
SCALE
  5
5B
102
{ACAD_REACTORS
330
47
102
}
330
47
100
AcDbScale
 70
     0
300
1/32" = 1'-0"
140
0.03125
141
12.0
290
     0
  0
SCALE
  5
5C
102
{ACAD_REACTORS
330
47
102
}
330
47
100
AcDbScale
 70
     0
300
1/16" = 1'-0"
140
0.0625
141
12.0
290
     0
  0
SCALE
  5
5D
102
{ACAD_REACTORS
330
47
102
}
330
47
100
AcDbScale
 70
     0
300
3/32" = 1'-0"
140
0.09375
141
12.0
290
     0
  0
SCALE
  5
5E
102
{ACAD_REACTORS
330
47
102
}
330
47
100
AcDbScale
 70
     0
300
1/8" = 1'-0"
140
0.125
141
12.0
290
     0
  0
SCALE
  5
5F
102
{ACAD_REACTORS
330
47
102
}
330
47
100
AcDbScale
 70
     0
300
3/16" = 1'-0"
140
0.1875
141
12.0
290
     0
  0
SCALE
  5
60
102
{ACAD_REACTORS
330
47
102
}
330
47
100
AcDbScale
 70
     0
300
1/4" = 1'-0"
140
0.25
141
12.0
290
     0
  0
SCALE
  5
61
102
{ACAD_REACTORS
330
47
102
}
330
47
100
AcDbScale
 70
     0
300
3/8" = 1'-0"
140
0.375
141
12.0
290
     0
  0
SCALE
  5
62
102
{ACAD_REACTORS
330
47
102
}
330
47
100
AcDbScale
 70
     0
300
1/2" = 1'-0"
140
0.5
141
12.0
290
     0
  0
SCALE
  5
63
102
{ACAD_REACTORS
330
47
102
}
330
47
100
AcDbScale
 70
     0
300
3/4" = 1'-0"
140
0.75
141
12.0
290
     0
  0
SCALE
  5
64
102
{ACAD_REACTORS
330
47
102
}
330
47
100
AcDbScale
 70
     0
300
1" = 1'-0"
140
1.0
141
12.0
290
     0
  0
SCALE
  5
65
102
{ACAD_REACTORS
330
47
102
}
330
47
100
AcDbScale
 70
     0
300
1-1/2" = 1'-0"
140
1.5
141
12.0
290
     0
  0
SCALE
  5
66
102
{ACAD_REACTORS
330
47
102
}
330
47
100
AcDbScale
 70
     0
300
3" = 1'-0"
140
3.0
141
12.0
290
     0
  0
SCALE
  5
67
102
{ACAD_REACTORS
330
47
102
}
330
47
100
AcDbScale
 70
     0
300
6" = 1'-0"
140
6.0
141
12.0
290
     0
  0
SCALE
  5
68
102
{ACAD_REACTORS
330
47
102
}
330
47
100
AcDbScale
 70
     0
300
1'-0" = 1'-0"
140
12.0
141
12.0
290
     0
  0
ENDSEC
  0
EOF
