  0
SECTION
  2
HEADER
  9
$ACADVER
  1
AC1015
  9
$ACADMAINTVER
 70
     6
  9
$DWGCODEPAGE
  3
DOS932
  9
$INSBASE
 10
0.0
 20
0.0
 30
0.0
  9
$EXTMIN
 10
0.0
 20
0.0
 30
0.0
  9
$EXTMAX
 10
431.8
 20
279.4
 30
0.0
  9
$LIMMIN
 10
0.0
 20
0.0
  9
$LIMMAX
 10
431.8
 20
279.4
  9
$ORTHOMODE
 70
     0
  9
$REGENMODE
 70
     1
  9
$FILLMODE
 70
     1
  9
$QTEXTMODE
 70
     0
  9
$MIRRTEXT
 70
     1
  9
$LTSCALE
 40
1.0
  9
$ATTMODE
 70
     1
  9
$TEXTSIZE
 40
3.5
  9
$TRACEWID
 40
1.0
  9
$TEXTSTYLE
  7
Standard
  9
$CLAYER
  8
0
  9
$CELTYPE
  6
ByLayer
  9
$CECOLOR
 62
   256
  9
$CELTSCALE
 40
1.0
  9
$DISPSILH
 70
     0
  9
$DIMSCALE
 40
1.0
  9
$DIMASZ
 40
3.302
  9
$DIMEXO
 40
1.0
  9
$DIMDLI
 40
3.75
  9
$DIMRND
 40
0.0
  9
$DIMDLE
 40
0.0
  9
$DIMEXE
 40
1.0
  9
$DIMTP
 40
0.0
  9
$DIMTM
 40
0.0
  9
$DIMTXT
 40
3.5
  9
$DIMCEN
 40
2.5
  9
$DIMTSZ
 40
0.0
  9
$DIMTOL
 70
     0
  9
$DIMLIM
 70
     0
  9
$DIMTIH
 70
     1
  9
$DIMTOH
 70
     1
  9
$DIMSE1
 70
     0
  9
$DIMSE2
 70
     0
  9
$DIMTAD
 70
     1
  9
$DIMZIN
 70
     1
  9
$DIMBLK
  1

  9
$DIMASO
 70
     1
  9
$DIMSHO
 70
     1
  9
$DIMPOST
  1

  9
$DIMAPOST
  1

  9
$DIMALT
 70
     0
  9
$DIMALTD
 70
     3
  9
$DIMALTF
 40
0.0393700787
  9
$DIMLFAC
 40
1.0
  9
$DIMTOFL
 70
     1
  9
$DIMTVP
 40
0.0
  9
$DIMTIX
 70
     0
  9
$DIMSOXD
 70
     0
  9
$DIMSAH
 70
     0
  9
$DIMBLK1
  1

  9
$DIMBLK2
  1

  9
$DIMSTYLE
  2
ISO-25
  9
$DIMCLRD
 70
     0
  9
$DIMCLRE
 70
     0
  9
$DIMCLRT
 70
     0
  9
$DIMTFAC
 40
1.0
  9
$DIMGAP
 40
1.524
  9
$DIMJUST
 70
     0
  9
$DIMSD1
 70
     0
  9
$DIMSD2
 70
     0
  9
$DIMTOLJ
 70
     0
  9
$DIMTZIN
 70
     1
  9
$DIMALTZ
 70
     0
  9
$DIMALTTZ
 70
     0
  9
$DIMUPT
 70
     0
  9
$DIMDEC
 70
     2
  9
$DIMTDEC
 70
     2
  9
$DIMALTU
 70
     2
  9
$DIMALTTD
 70
     3
  9
$DIMTXSTY
  7
Standard
  9
$DIMAUNIT
 70
     0
  9
$DIMADEC
 70
     2
  9
$DIMALTRND
 40
0.0
  9
$DIMAZIN
 70
     0
  9
$DIMDSEP
 70
    44
  9
$DIMATFIT
 70
     3
  9
$DIMFRAC
 70
     0
  9
$DIMLDRBLK
  1

  9
$DIMLUNIT
 70
     2
  9
$DIMLWD
 70
    -2
  9
$DIMLWE
 70
    -2
  9
$DIMTMOVE
 70
     0
  9
$LUNITS
 70
     2
  9
$LUPREC
 70
     2
  9
$SKETCHINC
 40
1.0
  9
$FILLETRAD
 40
10.0
  9
$AUNITS
 70
     0
  9
$AUPREC
 70
     2
  9
$MENU
  1
.
  9
$ELEVATION
 40
0.0
  9
$PELEVATION
 40
0.0
  9
$THICKNESS
 40
0.0
  9
$LIMCHECK
 70
     0
  9
$CHAMFERA
 40
0.0
  9
$CHAMFERB
 40
0.0
  9
$CHAMFERC
 40
0.0
  9
$CHAMFERD
 40
0.0
  9
$SKPOLY
 70
     0
  9
$TDCREATE
 40
2459229.400665232
  9
$TDUCREATE
 40
2459229.025665232
  9
$TDUPDATE
 40
2459229.400665961
  9
$TDUUPDATE
 40
2459229.025665961
  9
$TDINDWG
 40
0.0000000116
  9
$TDUSRTIMER
 40
0.0000000116
  9
$USRTIMER
 70
     1
  9
$ANGBASE
 50
0.0
  9
$ANGDIR
 70
     0
  9
$PDMODE
 70
     0
  9
$PDSIZE
 40
-1.0
  9
$PLINEWID
 40
0.0
  9
$SPLFRAME
 70
     0
  9
$SPLINETYPE
 70
     6
  9
$SPLINESEGS
 70
     8
  9
$HANDSEED
  5
23A
  9
$SURFTAB1
 70
     6
  9
$SURFTAB2
 70
     6
  9
$SURFTYPE
 70
     6
  9
$SURFU
 70
     6
  9
$SURFV
 70
     6
  9
$UCSBASE
  2

  9
$UCSNAME
  2

  9
$UCSORG
 10
0.0
 20
0.0
 30
0.0
  9
$UCSXDIR
 10
1.0
 20
0.0
 30
0.0
  9
$UCSYDIR
 10
0.0
 20
1.0
 30
0.0
  9
$UCSORTHOREF
  2

  9
$UCSORTHOVIEW
 70
     0
  9
$UCSORGTOP
 10
0.0
 20
0.0
 30
0.0
  9
$UCSORGBOTTOM
 10
0.0
 20
0.0
 30
0.0
  9
$UCSORGLEFT
 10
0.0
 20
0.0
 30
0.0
  9
$UCSORGRIGHT
 10
0.0
 20
0.0
 30
0.0
  9
$UCSORGFRONT
 10
0.0
 20
0.0
 30
0.0
  9
$UCSORGBACK
 10
0.0
 20
0.0
 30
0.0
  9
$PUCSBASE
  2

  9
$PUCSNAME
  2

  9
$PUCSORG
 10
0.0
 20
0.0
 30
0.0
  9
$PUCSXDIR
 10
1.0
 20
0.0
 30
0.0
  9
$PUCSYDIR
 10
0.0
 20
1.0
 30
0.0
  9
$PUCSORTHOREF
  2

  9
$PUCSORTHOVIEW
 70
     0
  9
$PUCSORGTOP
 10
0.0
 20
0.0
 30
0.0
  9
$PUCSORGBOTTOM
 10
0.0
 20
0.0
 30
0.0
  9
$PUCSORGLEFT
 10
0.0
 20
0.0
 30
0.0
  9
$PUCSORGRIGHT
 10
0.0
 20
0.0
 30
0.0
  9
$PUCSORGFRONT
 10
0.0
 20
0.0
 30
0.0
  9
$PUCSORGBACK
 10
0.0
 20
0.0
 30
0.0
  9
$USERI1
 70
     0
  9
$USERI2
 70
     0
  9
$USERI3
 70
     0
  9
$USERI4
 70
     0
  9
$USERI5
 70
     0
  9
$USERR1
 40
0.0
  9
$USERR2
 40
0.0
  9
$USERR3
 40
0.0
  9
$USERR4
 40
0.0
  9
$USERR5
 40
0.0
  9
$WORLDVIEW
 70
     1
  9
$SHADEDGE
 70
     3
  9
$SHADEDIF
 70
    70
  9
$TILEMODE
 70
     1
  9
$MAXACTVP
 70
    64
  9
$PINSBASE
 10
0.0
 20
0.0
 30
0.0
  9
$PLIMCHECK
 70
     0
  9
$PEXTMIN
 10
1.0000000000E+20
 20
1.0000000000E+20
 30
1.0000000000E+20
  9
$PEXTMAX
 10
-1.0000000000E+20
 20
-1.0000000000E+20
 30
-1.0000000000E+20
  9
$PLIMMIN
 10
0.0
 20
0.0
  9
$PLIMMAX
 10
420.0
 20
297.0
  9
$UNITMODE
 70
     0
  9
$VISRETAIN
 70
     1
  9
$PLINEGEN
 70
     0
  9
$PSLTSCALE
 70
     1
  9
$TREEDEPTH
 70
  3020
  9
$CMLSTYLE
  2
Standard
  9
$CMLJUST
 70
     0
  9
$CMLSCALE
 40
20.0
  9
$PROXYGRAPHICS
 70
     1
  9
$MEASUREMENT
 70
     1
  9
$CELWEIGHT
370
    -1
  9
$ENDCAPS
280
     0
  9
$JOINSTYLE
280
     0
  9
$LWDISPLAY
290
     1
  9
$INSUNITS
 70
     4
  9
$HYPERLINKBASE
  1

  9
$STYLESHEET
  1

  9
$XEDIT
290
     1
  9
$CEPSNTYPE
380
     0
  9
$PSTYLEMODE
290
     1
  9
$FINGERPRINTGUID
  2
{F8E438EB-76CA-48BA-864D-D619BAEEB053}
  9
$VERSIONGUID
  2
{FAEB1C32-E019-11D5-929B-00C0DF256EC4}
  9
$EXTNAMES
290
     1
  9
$PSVPSCALE
 40
0.0
  9
$OLESTARTUP
290
     0
  0
ENDSEC
  0
SECTION
  2
CLASSES
  0
CLASS
  1
ACDBDICTIONARYWDFLT
  2
AcDbDictionaryWithDefault
  3
ObjectDBX Classes
 90
        0
280
     0
281
     0
  0
CLASS
  1
VISUALSTYLE
  2
AcDbVisualStyle
  3
ObjectDBX Classes
 90
     4095
280
     0
281
     0
  0
CLASS
  1
MATERIAL
  2
AcDbMaterial
  3
ObjectDBX Classes
 90
     1153
280
     0
281
     0
  0
CLASS
  1
SCALE
  2
AcDbScale
  3
ObjectDBX Classes
 90
     1153
280
     0
281
     0
  0
CLASS
  1
TABLESTYLE
  2
AcDbTableStyle
  3
ObjectDBX Classes
 90
     4095
280
     0
281
     0
  0
CLASS
  1
MLEADERSTYLE
  2
AcDbMLeaderStyle
  3
ACDB_MLEADERSTYLE_CLASS
 90
     4095
280
     0
281
     0
  0
CLASS
  1
SUN
  2
AcDbSun
  3
SCENEOE
 90
     1153
280
     0
281
     0
  0
CLASS
  1
ACDBPLACEHOLDER
  2
AcDbPlaceHolder
  3
ObjectDBX Classes
 90
        0
280
     0
281
     0
  0
CLASS
  1
LAYOUT
  2
AcDbLayout
  3
ObjectDBX Classes
 90
        0
280
     0
281
     0
  0
ENDSEC
  0
SECTION
  2
TABLES
  0
TABLE
  2
VPORT
  5
8
330
0
100
AcDbSymbolTable
 70
     1
  0
VPORT
  5
29
330
8
100
AcDbSymbolTableRecord
100
AcDbViewportTableRecord
  2
*Active
 70
     0
 10
0.0
 20
0.0
 11
1.0
 21
1.0
 12
215.9
 22
139.7
 13
0.0
 23
0.0
 14
10.0
 24
10.0
 15
10.0
 25
10.0
 16
0.0
 26
0.0
 36
1.0
 17
0.0
 27
0.0
 37
0.0
 40
279.4
 41
1.5454545455
 42
50.0
 43
0.0
 44
0.0
 50
0.0
 51
0.0
 71
     0
 72
  2000
 73
     1
 74
     3
 75
     0
 76
     0
 77
     0
 78
     0
281
     0
 65
     1
110
0.0
120
0.0
130
0.0
111
1.0
121
0.0
131
0.0
112
0.0
122
1.0
132
0.0
 79
     0
146
0.0
  0
ENDTAB
  0
TABLE
  2
LTYPE
  5
5
330
0
100
AcDbSymbolTable
 70
     6
  0
LTYPE
  5
14
330
5
100
AcDbSymbolTableRecord
100
AcDbLinetypeTableRecord
  2
ByBlock
 70
     0
  3

 72
    65
 73
     0
 40
0.0
  0
LTYPE
  5
15
330
5
100
AcDbSymbolTableRecord
100
AcDbLinetypeTableRecord
  2
ByLayer
 70
     0
  3

 72
    65
 73
     0
 40
0.0
  0
LTYPE
  5
16
330
5
100
AcDbSymbolTableRecord
100
AcDbLinetypeTableRecord
  2
Continuous
 70
     0
  3
Solid line
 72
    65
 73
     0
 40
0.0
  0
LTYPE
  5
6E
330
5
100
AcDbSymbolTableRecord
100
AcDbLinetypeTableRecord
  2
HIDDEN
 70
     0
  3
Hidden __ __ __ __ __ __ __ __ __ __ __ __ __ __
 72
    65
 73
     2
 40
1.905
 49
1.27
 74
     0
 49
-0.635
 74
     0
  0
LTYPE
  5
6F
330
5
100
AcDbSymbolTableRecord
100
AcDbLinetypeTableRecord
  2
PHANTOM
 70
     0
  3
Phantom ______  __  __  ______  __  __  ______
 72
    65
 73
     6
 40
12.7
 49
6.35
 74
     0
 49
-1.27
 74
     0
 49
1.27
 74
     0
 49
-1.27
 74
     0
 49
1.27
 74
     0
 49
-1.27
 74
     0
  0
LTYPE
  5
70
330
5
100
AcDbSymbolTableRecord
100
AcDbLinetypeTableRecord
  2
CENTER
 70
     0
  3
Center ____ _ ____ _ ____ _ ____ _ ____ _ ____
 72
    65
 73
     4
 40
10.16
 49
6.35
 74
     0
 49
-1.27
 74
     0
 49
1.27
 74
     0
 49
-1.27
 74
     0
  0
LTYPE
  5
71
330
5
100
AcDbSymbolTableRecord
100
AcDbLinetypeTableRecord
  2
CENTERX2
 70
     0
  3
Center (2x) ________  __  ________  __  _____
 72
    65
 73
     4
 40
20.32
 49
12.7
 74
     0
 49
-2.54
 74
     0
 49
2.54
 74
     0
 49
-2.54
 74
     0
  0
LTYPE
  5
72
330
5
100
AcDbSymbolTableRecord
100
AcDbLinetypeTableRecord
  2
DOT2
 70
     0
  3
Dot (.5x) ........................................
 72
    65
 73
     2
 40
0.635
 49
0.0
 74
     0
 49
-0.635
 74
     0
  0
ENDTAB
  0
TABLE
  2
LAYER
  5
2
330
0
100
AcDbSymbolTable
 70
     1
  0
LAYER
  5
10
330
2
100
AcDbSymbolTableRecord
100
AcDbLayerTableRecord
  2
0
 70
     0
 62
     7
  6
Continuous
370
    -3
390
F
  0
ENDTAB
  0
TABLE
  2
STYLE
  5
3
330
0
100
AcDbSymbolTable
 70
     2
  0
STYLE
  5
11
330
3
100
AcDbSymbolTableRecord
100
AcDbTextStyleTableRecord
  2
Standard
 70
     0
 40
0.0
 41
1.0
 50
0.0
 71
     0
 42
3.5
  3
txt
  4
bigfont
  0
STYLE
  5
73
330
3
100
AcDbSymbolTableRecord
100
AcDbTextStyleTableRecord
  2
SLDTEXTSTYLE0
 70
     0
 40
0.0
 41
0.7
 50
0.0
 71
     0
 42
3.5
  3
TXT
  4
bigfont
  0
ENDTAB
  0
TABLE
  2
VIEW
  5
6
330
0
100
AcDbSymbolTable
 70
     0
  0
ENDTAB
  0
TABLE
  2
UCS
  5
7
330
0
100
AcDbSymbolTable
 70
     0
  0
ENDTAB
  0
TABLE
  2
APPID
  5
9
330
0
100
AcDbSymbolTable
 70
     1
  0
APPID
  5
12
330
9
100
AcDbSymbolTableRecord
100
AcDbRegAppTableRecord
  2
ACAD
 70
     0
  0
ENDTAB
  0
TABLE
  2
DIMSTYLE
  5
A
330
0
100
AcDbSymbolTable
 70
     1
100
AcDbDimStyleTable
  0
DIMSTYLE
105
27
330
A
100
AcDbSymbolTableRecord
100
AcDbDimStyleTableRecord
  2
ISO-25
 70
     0
 41
2.5
 42
0.625
 43
3.75
 44
1.25
 73
     0
 74
     0
 77
     1
 78
     8
140
2.5
141
2.5
143
0.0393700787
147
0.625
171
     3
172
     1
178
     0
271
     2
272
     2
274
     3
278
    44
283
     0
284
     8
340
11
  0
ENDTAB
  0
TABLE
  2
BLOCK_RECORD
  5
1
330
0
100
AcDbSymbolTable
 70
     3
  0
BLOCK_RECORD
  5
1F
330
1
100
AcDbSymbolTableRecord
100
AcDbBlockTableRecord
  2
*Model_Space
340
22
  0
BLOCK_RECORD
  5
1B
330
1
100
AcDbSymbolTableRecord
100
AcDbBlockTableRecord
  2
*Paper_Space
340
1E
  0
BLOCK_RECORD
  5
23
330
1
100
AcDbSymbolTableRecord
100
AcDbBlockTableRecord
  2
*Paper_Space0
340
26
  0
BLOCK_RECORD
  5
161
330
1
100
AcDbSymbolTableRecord
100
AcDbBlockTableRecord
  2
SW_CENTERMARKSYMBOL_0
340
0
102
{BLKREFS
331
16C
102
}
  0
BLOCK_RECORD
  5
22D
330
1
100
AcDbSymbolTableRecord
100
AcDbBlockTableRecord
  2
SW_CENTERMARKSYMBOL_1
340
0
102
{BLKREFS
331
238
102
}
  0
ENDTAB
  0
ENDSEC
  0
SECTION
  2
BLOCKS
  0
BLOCK
  5
20
330
1F
100
AcDbEntity
  8
0
100
AcDbBlockBegin
  2
*Model_Space
 70
     0
 10
0.0
 20
0.0
 30
0.0
  3
*Model_Space
  1

  0
ENDBLK
  5
21
330
1F
100
AcDbEntity
  8
0
100
AcDbBlockEnd
  0
BLOCK
  5
1C
330
1B
100
AcDbEntity
 67
     1
  8
0
100
AcDbBlockBegin
  2
*Paper_Space
 70
     0
 10
0.0
 20
0.0
 30
0.0
  3
*Paper_Space
  1

  0
ENDBLK
  5
1D
330
1B
100
AcDbEntity
 67
     1
  8
0
100
AcDbBlockEnd
  0
BLOCK
  5
24
330
23
100
AcDbEntity
  8
0
100
AcDbBlockBegin
  2
*Paper_Space0
 70
     0
 10
0.0
 20
0.0
 30
0.0
  3
*Paper_Space0
  1

  0
ENDBLK
  5
25
330
23
100
AcDbEntity
  8
0
100
AcDbBlockEnd
  0
BLOCK
  5
162
330
161
100
AcDbEntity
  8
0
100
AcDbBlockBegin
  2
SW_CENTERMARKSYMBOL_0
 70
     0
 10
0.0
 20
0.0
 30
0.0
  3
SW_CENTERMARKSYMBOL_0
  1

  0
LINE
  5
164
330
161
100
AcDbEntity
  8
0
  6
Continuous
 62
     0
370
    18
100
AcDbLine
 10
0.0
 20
0.0
 30
0.0
 11
0.0
 21
2.5
 31
0.0
  0
LINE
  5
165
330
161
100
AcDbEntity
  8
0
  6
Continuous
 62
     0
370
    18
100
AcDbLine
 10
0.0
 20
0.0
 30
0.0
 11
-2.5
 21
0.0
 31
0.0
  0
LINE
  5
166
330
161
100
AcDbEntity
  8
0
  6
Continuous
 62
     0
370
    18
100
AcDbLine
 10
0.0
 20
0.0
 30
0.0
 11
0.0
 21
-2.5
 31
0.0
  0
LINE
  5
167
330
161
100
AcDbEntity
  8
0
  6
Continuous
 62
     0
370
    18
100
AcDbLine
 10
0.0
 20
0.0
 30
0.0
 11
2.5
 21
0.0
 31
0.0
  0
LINE
  5
168
330
161
100
AcDbEntity
  8
0
  6
Continuous
 62
     0
370
    18
100
AcDbLine
 10
0.0
 20
5.0
 30
0.0
 11
0.0
 21
31.1720636965
 31
0.0
  0
LINE
  5
169
330
161
100
AcDbEntity
  8
0
  6
Continuous
 62
     0
370
    18
100
AcDbLine
 10
-5.0
 20
0.0
 30
0.0
 11
-13.75
 21
0.0
 31
0.0
  0
LINE
  5
16A
330
161
100
AcDbEntity
  8
0
  6
Continuous
 62
     0
370
    18
100
AcDbLine
 10
0.0
 20
-5.0
 30
0.0
 11
0.0
 21
-13.75
 31
0.0
  0
LINE
  5
16B
330
161
100
AcDbEntity
  8
0
  6
Continuous
 62
     0
370
    18
100
AcDbLine
 10
5.0
 20
0.0
 30
0.0
 11
13.75
 21
0.0
 31
0.0
  0
ENDBLK
  5
163
330
161
100
AcDbEntity
  8
0
100
AcDbBlockEnd
  0
BLOCK
  5
22E
330
22D
100
AcDbEntity
  8
0
100
AcDbBlockBegin
  2
SW_CENTERMARKSYMBOL_1
 70
     0
 10
0.0
 20
0.0
 30
0.0
  3
SW_CENTERMARKSYMBOL_1
  1

  0
LINE
  5
230
330
22D
100
AcDbEntity
  8
0
  6
Continuous
 62
     0
370
    18
100
AcDbLine
 10
0.0
 20
0.0
 30
0.0
 11
0.0
 21
2.5
 31
0.0
  0
LINE
  5
231
330
22D
100
AcDbEntity
  8
0
  6
Continuous
 62
     0
370
    18
100
AcDbLine
 10
0.0
 20
0.0
 30
0.0
 11
-2.5
 21
0.0
 31
0.0
  0
LINE
  5
232
330
22D
100
AcDbEntity
  8
0
  6
Continuous
 62
     0
370
    18
100
AcDbLine
 10
0.0
 20
0.0
 30
0.0
 11
0.0
 21
-2.5
 31
0.0
  0
LINE
  5
233
330
22D
100
AcDbEntity
  8
0
  6
Continuous
 62
     0
370
    18
100
AcDbLine
 10
0.0
 20
0.0
 30
0.0
 11
2.5
 21
0.0
 31
0.0
  0
LINE
  5
234
330
22D
100
AcDbEntity
  8
0
  6
Continuous
 62
     0
370
    18
100
AcDbLine
 10
0.0
 20
5.0
 30
0.0
 11
0.0
 21
11.0
 31
0.0
  0
LINE
  5
235
330
22D
100
AcDbEntity
  8
0
  6
Continuous
 62
     0
370
    18
100
AcDbLine
 10
-5.0
 20
0.0
 30
0.0
 11
-31.0586626102
 21
0.0
 31
0.0
  0
LINE
  5
236
330
22D
100
AcDbEntity
  8
0
  6
Continuous
 62
     0
370
    18
100
AcDbLine
 10
0.0
 20
-5.0
 30
0.0
 11
0.0
 21
-11.0
 31
0.0
  0
LINE
  5
237
330
22D
100
AcDbEntity
  8
0
  6
Continuous
 62
     0
370
    18
100
AcDbLine
 10
5.0
 20
0.0
 30
0.0
 11
31.1970987943
 21
0.0
 31
0.0
  0
ENDBLK
  5
22F
330
22D
100
AcDbEntity
  8
0
100
AcDbBlockEnd
  0
ENDSEC
  0
SECTION
  2
ENTITIES
  0
MTEXT
  5
74
330
1F
100
AcDbEntity
  8
0
  6
Continuous
 62
     7
370
     0
100
AcDbMText
 10
147.2920362301
 20
117.5974195562
 30
0.0
 40
5.2916666667
 41
0.0
 71
     1
 72
     1
  1
5R-TK1332
  7
SLDTEXTSTYLE0
 73
     1
 44
1.0
  0
LINE
  5
75
330
1F
100
AcDbEntity
  8
0
  6
Continuous
 62
     7
370
    25
100
AcDbLine
 10
90.6919236531
 20
60.0535424305
 30
0.0
 11
103.1919236531
 21
60.0535424305
 31
0.0
  0
LINE
  5
76
330
1F
100
AcDbEntity
  8
0
  6
Continuous
 62
     7
370
    25
100
AcDbLine
 10
103.1919236531
 20
82.5535424305
 30
0.0
 11
90.6919236531
 21
82.5535424305
 31
0.0
  0
ARC
  5
77
330
1F
100
AcDbEntity
  8
0
  6
Continuous
 62
     7
370
    25
100
AcDbCircle
 10
103.1919236531
 20
61.0535424305
 30
0.0
 40
1.0
100
AcDbArc
 50
270.0
 51
0.0
  0
ARC
  5
78
330
1F
100
AcDbEntity
  8
0
  6
Continuous
 62
     7
370
    25
100
AcDbCircle
 10
103.1919236531
 20
81.5535424305
 30
0.0
 40
1.0
100
AcDbArc
 50
0.0
 51
90.0
  0
LINE
  5
79
330
1F
100
AcDbEntity
  8
0
  6
Continuous
 62
     7
370
    25
100
AcDbLine
 10
147.6919236531
 20
82.5535424305
 30
0.0
 11
135.1919236531
 21
82.5535424305
 31
0.0
  0
LINE
  5
7A
330
1F
100
AcDbEntity
  8
0
  6
Continuous
 62
     7
370
    25
100
AcDbLine
 10
135.1919236531
 20
60.0535424305
 30
0.0
 11
147.6919236531
 21
60.0535424305
 31
0.0
  0
LINE
  5
7B
330
1F
100
AcDbEntity
  8
0
  6
Continuous
 62
     7
370
    25
100
AcDbLine
 10
90.6919236531
 20
82.5535424305
 30
0.0
 11
90.1919236531
 21
82.0535424305
 31
0.0
  0
LINE
  5
7C
330
1F
100
AcDbEntity
  8
0
  6
Continuous
 62
     7
370
    25
100
AcDbLine
 10
90.1919236531
 20
60.5535424305
 30
0.0
 11
90.6919236531
 21
60.0535424305
 31
0.0
  0
ARC
  5
7D
330
1F
100
AcDbEntity
  8
0
  6
Continuous
 62
     7
370
    25
100
AcDbCircle
 10
135.1919236531
 20
81.5535424305
 30
0.0
 40
1.0
100
AcDbArc
 50
90.0
 51
180.0
  0
ARC
  5
7E
330
1F
100
AcDbEntity
  8
0
  6
Continuous
 62
     7
370
    25
100
AcDbCircle
 10
135.1919236531
 20
61.0535424305
 30
0.0
 40
1.0
100
AcDbArc
 50
180.0
 51
270.0
  0
LINE
  5
7F
330
1F
100
AcDbEntity
  8
0
  6
Continuous
 62
     7
370
    25
100
AcDbLine
 10
147.6919236531
 20
60.0535424305
 30
0.0
 11
148.1919236531
 21
60.5535424305
 31
0.0
  0
LINE
  5
80
330
1F
100
AcDbEntity
  8
0
  6
Continuous
 62
     7
370
    25
100
AcDbLine
 10
148.1919236531
 20
82.0535424305
 30
0.0
 11
147.6919236531
 21
82.5535424305
 31
0.0
  0
ARC
  5
81
330
1F
100
AcDbEntity
  8
0
  6
Continuous
 62
     7
370
    25
100
AcDbCircle
 10
133.1919236531
 20
80.8035424305
 30
0.0
 40
1.0
100
AcDbArc
 50
270.0
 51
0.0
  0
ARC
  5
82
330
1F
100
AcDbEntity
  8
0
  6
Continuous
 62
     7
370
    25
100
AcDbCircle
 10
133.1919236531
 20
61.8035424305
 30
0.0
 40
1.0
100
AcDbArc
 50
0.0
 51
90.0
  0
ARC
  5
83
330
1F
100
AcDbEntity
  8
0
  6
Continuous
 62
     7
370
    25
100
AcDbCircle
 10
105.1919236531
 20
61.8035424305
 30
0.0
 40
1.0
100
AcDbArc
 50
90.0
 51
180.0
  0
ARC
  5
84
330
1F
100
AcDbEntity
  8
0
  6
Continuous
 62
     7
370
    25
100
AcDbCircle
 10
105.1919236531
 20
80.8035424305
 30
0.0
 40
1.0
100
AcDbArc
 50
180.0
 51
270.0
  0
LINE
  5
85
330
1F
100
AcDbEntity
  8
0
  6
Continuous
 62
     7
370
    25
100
AcDbLine
 10
127.6919236531
 20
80.3035424305
 30
0.0
 11
127.6919236531
 21
84.6317299305
 31
0.0
  0
LINE
  5
86
330
1F
100
AcDbEntity
  8
0
  6
Continuous
 62
     7
370
    25
100
AcDbLine
 10
110.6919236531
 20
84.6317299305
 30
0.0
 11
110.6919236531
 21
80.3035424305
 31
0.0
  0
LINE
  5
87
330
1F
100
AcDbEntity
  8
0
  6
Continuous
 62
     7
370
    25
100
AcDbLine
 10
127.6919236531
 20
84.6317299305
 30
0.0
 11
126.0201111531
 21
86.3035424305
 31
0.0
  0
LINE
  5
88
330
1F
100
AcDbEntity
  8
0
  6
Continuous
 62
     7
370
    25
100
AcDbLine
 10
112.3637361531
 20
86.3035424305
 30
0.0
 11
110.6919236531
 21
84.6317299305
 31
0.0
  0
LINE
  5
89
330
1F
100
AcDbEntity
  8
0
  6
Continuous
 62
     7
370
    25
100
AcDbLine
 10
110.1919236531
 20
79.8035424305
 30
0.0
 11
105.1919236531
 21
79.8035424305
 31
0.0
  0
LINE
  5
8A
330
1F
100
AcDbEntity
  8
0
  6
Continuous
 62
     7
370
    25
100
AcDbLine
 10
133.1919236531
 20
79.8035424305
 30
0.0
 11
128.1919236531
 21
79.8035424305
 31
0.0
  0
LINE
  5
8B
330
1F
100
AcDbEntity
  8
0
  6
Continuous
 62
     7
370
    25
100
AcDbLine
 10
105.1919236531
 20
62.8035424305
 30
0.0
 11
133.1919236531
 21
62.8035424305
 31
0.0
  0
LINE
  5
8C
330
1F
100
AcDbEntity
  8
0
  6
Continuous
 62
     7
370
    25
100
AcDbLine
 10
126.0201111531
 20
86.3035424305
 30
0.0
 11
125.6478857672
 21
98.2147547767
 31
0.0
  0
LINE
  5
8D
330
1F
100
AcDbEntity
  8
0
  6
Continuous
 62
     7
370
    25
100
AcDbLine
 10
112.7359615389
 20
98.2147547767
 30
0.0
 11
112.3637361531
 21
86.3035424305
 31
0.0
  0
LINE
  5
8E
330
1F
100
AcDbEntity
  8
0
  6
Continuous
 62
     7
370
    25
100
AcDbLine
 10
125.6478857672
 20
98.2147547767
 30
0.0
 11
124.4419236531
 21
100.3035424305
 31
0.0
  0
LINE
  5
8F
330
1F
100
AcDbEntity
  8
0
  6
Continuous
 62
     7
370
    25
100
AcDbLine
 10
113.9419236531
 20
100.3035424305
 30
0.0
 11
112.7359615389
 21
98.2147547767
 31
0.0
  0
ARC
  5
90
330
1F
100
AcDbEntity
  8
0
  6
Continuous
 62
     7
370
    25
100
AcDbCircle
 10
128.1919236531
 20
80.3035424305
 30
0.0
 40
0.5000000000000019
100
AcDbArc
 50
181.6119871608
 51
268.2801185035
  0
ARC
  5
91
330
1F
100
AcDbEntity
  8
0
  6
Continuous
 62
     7
370
    25
100
AcDbCircle
 10
110.1919236531
 20
80.3035424305
 30
0.0
 40
0.5000000000000014
100
AcDbArc
 50
271.6119871608
 51
358.2801185035
  0
LINE
  5
92
330
1F
100
AcDbEntity
  8
0
  6
Continuous
 62
     7
370
    25
100
AcDbLine
 10
90.6919236531
 20
71.3035424305
 30
0.0
 11
90.6919236531
 21
60.0535424305
 31
0.0
  0
LINE
  5
93
330
1F
100
AcDbEntity
  8
0
  6
Continuous
 62
     7
370
    25
100
AcDbLine
 10
90.6919236531
 20
82.5535424305
 30
0.0
 11
90.6919236531
 21
71.3035424305
 31
0.0
  0
LINE
  5
94
330
1F
100
AcDbEntity
  8
0
  6
Continuous
 62
     7
370
    25
100
AcDbLine
 10
104.1919236531
 20
71.3035424305
 30
0.0
 11
104.1919236531
 21
61.0535424305
 31
0.0
  0
LINE
  5
95
330
1F
100
AcDbEntity
  8
0
  6
Continuous
 62
     7
370
    25
100
AcDbLine
 10
104.1919236531
 20
81.5535424305
 30
0.0
 11
104.1919236531
 21
71.3035424305
 31
0.0
  0
LINE
  5
96
330
1F
100
AcDbEntity
  8
0
  6
Continuous
 62
     7
370
    25
100
AcDbLine
 10
147.6919236531
 20
60.0535424305
 30
0.0
 11
147.6919236531
 21
82.5535424305
 31
0.0
  0
LINE
  5
97
330
1F
100
AcDbEntity
  8
0
  6
Continuous
 62
     7
370
    25
100
AcDbLine
 10
90.1919236531
 20
71.3035424305
 30
0.0
 11
90.1919236531
 21
82.0535424305
 31
0.0
  0
LINE
  5
98
330
1F
100
AcDbEntity
  8
0
  6
Continuous
 62
     7
370
    25
100
AcDbLine
 10
90.1919236531
 20
60.5535424305
 30
0.0
 11
90.1919236531
 21
71.3035424305
 31
0.0
  0
LINE
  5
99
330
1F
100
AcDbEntity
  8
0
  6
Continuous
 62
     7
370
    25
100
AcDbLine
 10
134.1919236531
 20
61.0535424305
 30
0.0
 11
134.1919236531
 21
81.5535424305
 31
0.0
  0
LINE
  5
9A
330
1F
100
AcDbEntity
  8
0
  6
Continuous
 62
     7
370
    25
100
AcDbLine
 10
148.1919236531
 20
82.0535424305
 30
0.0
 11
148.1919236531
 21
60.5535424305
 31
0.0
  0
ARC
  5
9B
330
1F
100
AcDbEntity
  8
0
  6
Continuous
 62
     7
370
    25
100
AcDbCircle
 10
128.2086127677
 20
67.499827214
 30
0.0
 40
1.10390870724805
100
AcDbArc
 50
98.7690175889
 51
122.4606888392
  0
SPLINE
  5
9C
330
1F
100
AcDbEntity
  8
0
  6
Continuous
 62
     7
370
    25
100
AcDbSpline
210
0.0
220
0.0
230
1.0
 70
     8
 71
     3
 72
    12
 73
     8
 74
     0
 42
0.000000001
 43
0.00000001
 40
0.0
 40
0.0
 40
0.0
 40
0.0
 40
0.2500000000000002
 40
0.2500000000000002
 40
0.5000000000000001
 40
0.5000000000000001
 40
1.0
 40
1.0
 40
1.0
 40
1.0
 10
127.6161219775053
 20
68.43126110722301
 30
0.0
 10
127.5938551353514
 20
68.6686736653433
 30
0.0
 10
127.586817102697
 20
68.9067836795099
 30
0.0
 10
127.5859419812126
 20
69.38448180677194
 30
0.0
 10
127.5926059751616
 20
69.62410466338855
 30
0.0
 10
127.6232583245799
 20
70.34282041752455
 30
0.0
 10
127.6578670074307
 20
70.82363738216345
 30
0.0
 10
127.691923653058
 20
71.30354243049194
 30
0.0
  0
SPLINE
  5
9D
330
1F
100
AcDbEntity
  8
0
  6
Continuous
 62
     7
370
    25
100
AcDbSpline
210
0.0
220
0.0
230
1.0
 70
     8
 71
     3
 72
    12
 73
     8
 74
     0
 42
0.000000001
 43
0.00000001
 40
0.0
 40
0.0
 40
0.0
 40
0.0
 40
0.2499999999999999
 40
0.2499999999999999
 40
0.5
 40
0.5
 40
1.0
 40
1.0
 40
1.0
 40
1.0
 10
128.0403203019527
 20
68.59083229184908
 30
0.0
 10
127.9922121933083
 20
68.8070698763873
 30
0.0
 10
127.9559991358441
 20
69.02683547178096
 30
0.0
 10
127.8908949261912
 20
69.47127845789765
 30
0.0
 10
127.8626547459029
 20
69.69603848187388
 30
0.0
 10
127.7833899146299
 20
70.37700238697208
 30
0.0
 10
127.7375245314322
 20
70.84338531406635
 30
0.0
 10
127.691923653058
 20
71.30354243049194
 30
0.0
  0
SPLINE
  5
9E
330
1F
100
AcDbEntity
  8
0
  6
Continuous
 62
     7
370
    25
100
AcDbSpline
210
0.0
220
0.0
230
1.0
 70
     8
 71
     3
 72
    16
 73
    12
 74
     0
 42
0.000000001
 43
0.00000001
 40
0.0
 40
0.0
 40
0.0
 40
0.0
 40
0.2500000000000001
 40
0.2500000000000001
 40
0.5000000000000001
 40
0.5000000000000001
 40
0.7500000000000002
 40
0.7500000000000002
 40
0.8750000000000001
 40
0.8750000000000001
 40
1.0
 40
1.0
 40
1.0
 40
1.0
 10
127.191923653058
 20
68.43126110722294
 30
0.0
 10
127.191923653058
 20
68.67755643948674
 30
0.0
 10
127.2118554387451
 20
68.92107637426072
 30
0.0
 10
127.2724619853487
 20
69.40376234763599
 30
0.0
 10
127.3135724927939
 20
69.64320281641068
 30
0.0
 10
127.4079489491931
 20
70.11994389607376
 30
0.0
 10
127.4613143110494
 20
70.35722700620067
 30
0.0
 10
127.545621470984
 20
70.71240189151544
 30
0.0
 10
127.5744463478258
 20
70.83066633194949
 30
0.0
 10
127.6328054263913
 20
71.06707034245058
 30
0.0
 10
127.6620565476094
 20
71.18407281400701
 30
0.0
 10
127.691923653058
 20
71.30354243049194
 30
0.0
  0
LINE
  5
9F
330
1F
100
AcDbEntity
  8
0
  6
Continuous
 62
     7
370
    25
100
AcDbLine
 10
127.6161219775
 20
68.4312611072
 30
0.0
 11
127.1919236531
 21
68.4312611072
 31
0.0
  0
SPLINE
  5
A0
330
1F
100
AcDbEntity
  8
0
  6
Continuous
 62
     7
370
    25
100
AcDbSpline
210
0.0
220
0.0
230
1.0
 70
     8
 71
     3
 72
    16
 73
    12
 74
     0
 42
0.000000001
 43
0.00000001
 40
0.0
 40
0.0
 40
0.0
 40
0.0
 40
0.2499999999999999
 40
0.2499999999999999
 40
0.5
 40
0.5
 40
0.7500000000000001
 40
0.7500000000000001
 40
0.875
 40
0.875
 40
1.0
 40
1.0
 40
1.0
 40
1.0
 10
111.191923653058
 20
74.17582375376095
 30
0.0
 10
111.191923653058
 20
73.9295284214972
 30
0.0
 10
111.1719918673708
 20
73.68600848672315
 30
0.0
 10
111.1113853207673
 20
73.2033225133479
 30
0.0
 10
111.0702748133221
 20
72.9638820445732
 30
0.0
 10
110.9758983569229
 20
72.48714096491011
 30
0.0
 10
110.9225329950666
 20
72.2498578547832
 30
0.0
 10
110.838225835132
 20
71.89468296946845
 30
0.0
 10
110.8094009582901
 20
71.7764185290344
 30
0.0
 10
110.7510418797246
 20
71.54001451853331
 30
0.0
 10
110.7217907585065
 20
71.42301204697685
 30
0.0
 10
110.691923653058
 20
71.30354243049194
 30
0.0
  0
SPLINE
  5
A1
330
1F
100
AcDbEntity
  8
0
  6
Continuous
 62
     7
370
    25
100
AcDbSpline
210
0.0
220
0.0
230
1.0
 70
     8
 71
     3
 72
    12
 73
     8
 74
     0
 42
0.000000001
 43
0.00000001
 40
0.0
 40
0.0
 40
0.0
 40
0.0
 40
0.2500000000000002
 40
0.2500000000000002
 40
0.5000000000000001
 40
0.5000000000000001
 40
1.0
 40
1.0
 40
1.0
 40
1.0
 10
110.7677253286106
 20
74.17582375376088
 30
0.0
 10
110.7899921707645
 20
73.93841119564067
 30
0.0
 10
110.797030203419
 20
73.70030118147413
 30
0.0
 10
110.7979053249034
 20
73.22260305421224
 30
0.0
 10
110.7912413309543
 20
72.98298019759571
 30
0.0
 10
110.7605889815361
 20
72.26426444345995
 30
0.0
 10
110.7259802984115
 20
71.78344747883973
 30
0.0
 10
110.691923653058
 20
71.30354243049194
 30
0.0
  0
LINE
  5
A2
330
1F
100
AcDbEntity
  8
0
  6
Continuous
 62
     7
370
    25
100
AcDbLine
 10
110.7677253286
 20
74.1758237538
 30
0.0
 11
111.1919236531
 21
74.1758237538
 31
0.0
  0
ARC
  5
A3
330
1F
100
AcDbEntity
  8
0
  6
Continuous
 62
     7
370
    25
100
AcDbCircle
 10
110.1752345384
 20
75.107257647
 30
0.0
 40
1.103908707248226
100
AcDbArc
 50
278.7690175889
 51
302.4606888392
  0
SPLINE
  5
A4
330
1F
100
AcDbEntity
  8
0
  6
Continuous
 62
     7
370
    25
100
AcDbSpline
210
0.0
220
0.0
230
1.0
 70
     8
 71
     3
 72
    12
 73
     8
 74
     0
 42
0.000000001
 43
0.00000001
 40
0.0
 40
0.0
 40
0.0
 40
0.0
 40
0.2499999999999998
 40
0.2499999999999998
 40
0.4999999999999999
 40
0.4999999999999999
 40
1.0
 40
1.0
 40
1.0
 40
1.0
 10
110.3435270041632
 20
74.01625256913479
 30
0.0
 10
110.3915245760022
 20
73.8005118283196
 30
0.0
 10
110.4277631499013
 20
73.58080600804423
 30
0.0
 10
110.4929681051276
 20
73.13572281212845
 30
0.0
 10
110.5213351623878
 20
72.90992146344024
 30
0.0
 10
110.6007919378772
 20
72.22700685196122
 30
0.0
 10
110.6462379177276
 20
71.76455585927144
 30
0.0
 10
110.691923653058
 20
71.30354243049194
 30
0.0
  0
SPLINE
  5
A5
330
1F
100
AcDbEntity
  8
0
  6
Continuous
 62
     7
370
    25
100
AcDbSpline
210
0.0
220
0.0
230
1.0
 70
     8
 71
     3
 72
    16
 73
    12
 74
     0
 42
0.000000001
 43
0.00000001
 40
0.0
 40
0.0
 40
0.0
 40
0.0
 40
0.2500000000000002
 40
0.2500000000000002
 40
0.5000000000000002
 40
0.5000000000000002
 40
0.7500000000000002
 40
0.7500000000000002
 40
0.8750000000000001
 40
0.8750000000000001
 40
1.0
 40
1.0
 40
1.0
 40
1.0
 10
122.064204976327
 20
78.80354243049196
 30
0.0
 10
121.8179096440632
 20
78.80354243049196
 30
0.0
 10
121.5743897092892
 20
78.82347421617911
 30
0.0
 10
121.0917037359139
 20
78.88408076278267
 30
0.0
 10
120.8522632671392
 20
78.92519127022784
 30
0.0
 10
120.3755221874762
 20
79.01956772662705
 30
0.0
 10
120.1382390773492
 20
79.07293308848334
 30
0.0
 10
119.7830641920345
 20
79.15724024841795
 30
0.0
 10
119.6647997516004
 20
79.18606512525979
 30
0.0
 10
119.4283957410993
 20
79.2444242038253
 30
0.0
 10
119.3113932695429
 20
79.27367532504337
 30
0.0
 10
119.191923653058
 20
79.30354243049196
 30
0.0
  0
SPLINE
  5
A6
330
1F
100
AcDbEntity
  8
0
  6
Continuous
 62
     7
370
    25
100
AcDbSpline
210
0.0
220
0.0
230
1.0
 70
     8
 71
     3
 72
    12
 73
     8
 74
     0
 42
0.000000001
 43
0.00000001
 40
0.0
 40
0.0
 40
0.0
 40
0.0
 40
0.2500000000000002
 40
0.2500000000000002
 40
0.5000000000000001
 40
0.5000000000000001
 40
1.0
 40
1.0
 40
1.0
 40
1.0
 10
122.064204976327
 20
79.2277407549393
 30
0.0
 10
121.8267924182068
 20
79.20547391278541
 30
0.0
 10
121.5886824040403
 20
79.19843588013097
 30
0.0
 10
121.1109842767783
 20
79.19756075864653
 30
0.0
 10
120.8713614201618
 20
79.20422475259561
 30
0.0
 10
120.152645666026
 20
79.23487710201384
 30
0.0
 10
119.6718287014058
 20
79.26948578513824
 30
0.0
 10
119.191923653058
 20
79.30354243049196
 30
0.0
  0
LINE
  5
A7
330
1F
100
AcDbEntity
  8
0
  6
Continuous
 62
     7
370
    25
100
AcDbLine
 10
122.0642049763
 20
78.8035424305
 30
0.0
 11
122.0642049763
 21
79.2277407549
 31
0.0
  0
ARC
  5
A8
330
1F
100
AcDbEntity
  8
0
  6
Continuous
 62
     7
370
    25
100
AcDbCircle
 10
122.9956388696
 20
79.8202315451
 30
0.0
 40
1.103908707246251
100
AcDbArc
 50
188.7690175889
 51
212.4606888392
  0
SPLINE
  5
A9
330
1F
100
AcDbEntity
  8
0
  6
Continuous
 62
     7
370
    25
100
AcDbSpline
210
0.0
220
0.0
230
1.0
 70
     8
 71
     3
 72
    12
 73
     8
 74
     0
 42
0.000000001
 43
0.00000001
 40
0.0
 40
0.0
 40
0.0
 40
0.0
 40
0.2500000000000002
 40
0.2500000000000002
 40
0.5000000000000001
 40
0.5000000000000001
 40
1.0
 40
1.0
 40
1.0
 40
1.0
 10
121.9046337917009
 20
79.6519390793867
 30
0.0
 10
121.6888930508857
 20
79.60394150754772
 30
0.0
 10
121.4691872306103
 20
79.56770293364862
 30
0.0
 10
121.0241040346945
 20
79.50249797842231
 30
0.0
 10
120.7983026860063
 20
79.47413092116217
 30
0.0
 10
120.1153880745273
 20
79.39467414567277
 30
0.0
 10
119.6529370818375
 20
79.34922816582245
 30
0.0
 10
119.191923653058
 20
79.30354243049196
 30
0.0
  0
LINE
  5
AA
330
1F
100
AcDbEntity
  8
0
  6
Continuous
 62
     7
370
    25
100
AcDbLine
 10
116.3196423298
 20
78.8035424305
 30
0.0
 11
116.3196423298
 21
79.2277407549
 31
0.0
  0
SPLINE
  5
AB
330
1F
100
AcDbEntity
  8
0
  6
Continuous
 62
     7
370
    25
100
AcDbSpline
210
0.0
220
0.0
230
1.0
 70
     8
 71
     3
 72
    12
 73
     8
 74
     0
 42
0.000000001
 43
0.00000001
 40
0.0
 40
0.0
 40
0.0
 40
0.0
 40
0.2500000000000001
 40
0.2500000000000001
 40
0.5000000000000002
 40
0.5000000000000002
 40
1.0
 40
1.0
 40
1.0
 40
1.0
 10
116.319642329789
 20
79.2277407549393
 30
0.0
 10
116.5570548878914
 20
79.20547391278707
 30
0.0
 10
116.79516490204
 20
79.19843588013214
 30
0.0
 10
117.2728630292659
 20
79.19756075864557
 30
0.0
 10
117.5124858858645
 20
79.20422475259289
 30
0.0
 10
118.2312016399462
 20
79.23487710200547
 30
0.0
 10
118.7120186047495
 20
79.2694857851172
 30
0.0
 10
119.191923653058
 20
79.30354243049196
 30
0.0
  0
SPLINE
  5
AC
330
1F
100
AcDbEntity
  8
0
  6
Continuous
 62
     7
370
    25
100
AcDbSpline
210
0.0
220
0.0
230
1.0
 70
     8
 71
     3
 72
    16
 73
    12
 74
     0
 42
0.000000001
 43
0.00000001
 40
0.0
 40
0.0
 40
0.0
 40
0.0
 40
0.2500000000000003
 40
0.2500000000000003
 40
0.5000000000000006
 40
0.5000000000000006
 40
0.7500000000000006
 40
0.7500000000000006
 40
0.8750000000000003
 40
0.8750000000000003
 40
1.0
 40
1.0
 40
1.0
 40
1.0
 10
116.319642329789
 20
78.80354243049196
 30
0.0
 10
116.5659376620528
 20
78.80354243049196
 30
0.0
 10
116.8094575968267
 20
78.82347421617911
 30
0.0
 10
117.292143570202
 20
78.88408076278266
 30
0.0
 10
117.5315840389767
 20
78.92519127022784
 30
0.0
 10
118.0083251186398
 20
79.01956772662705
 30
0.0
 10
118.2456082287667
 20
79.07293308848334
 30
0.0
 10
118.6007831140815
 20
79.15724024841795
 30
0.0
 10
118.7190475545155
 20
79.18606512525979
 30
0.0
 10
118.9554515650166
 20
79.2444242038253
 30
0.0
 10
119.072454036573
 20
79.27367532504338
 30
0.0
 10
119.191923653058
 20
79.30354243049196
 30
0.0
  0
ARC
  5
AD
330
1F
100
AcDbEntity
  8
0
  6
Continuous
 62
     7
370
    25
100
AcDbCircle
 10
115.3882084366
 20
79.8202315451
 30
0.0
 40
1.103908707246421
100
AcDbArc
 50
327.5393111608
 51
351.2309824111
  0
SPLINE
  5
AE
330
1F
100
AcDbEntity
  8
0
  6
Continuous
 62
     7
370
    25
100
AcDbSpline
210
0.0
220
0.0
230
1.0
 70
     8
 71
     3
 72
    12
 73
     8
 74
     0
 42
0.000000001
 43
0.00000001
 40
0.0
 40
0.0
 40
0.0
 40
0.0
 40
0.2499999999999999
 40
0.2499999999999999
 40
0.4999999999999998
 40
0.4999999999999998
 40
1.0
 40
1.0
 40
1.0
 40
1.0
 10
116.4792135144151
 20
79.65193907938668
 30
0.0
 10
116.6954510988801
 20
79.60383097075858
 30
0.0
 10
116.9152166941981
 20
79.5676179133032
 30
0.0
 10
117.3596596801607
 20
79.50251370366625
 30
0.0
 10
117.5844197040584
 20
79.47427352338434
 30
0.0
 10
118.2653836089167
 20
79.39500869213018
 30
0.0
 10
118.7317665367938
 20
79.34914330883844
 30
0.0
 10
119.191923653058
 20
79.30354243049196
 30
0.0
  0
LINE
  5
AF
330
1F
100
AcDbEntity
  8
0
  6
Continuous
 62
     7
370
    25
100
AcDbLine
 10
127.1919236531
 20
74.1758237538
 30
0.0
 11
127.6161219775
 21
74.1758237538
 31
0.0
  0
SPLINE
  5
B0
330
1F
100
AcDbEntity
  8
0
  6
Continuous
 62
     7
370
    25
100
AcDbSpline
210
0.0
220
0.0
230
1.0
 70
     8
 71
     3
 72
    12
 73
     8
 74
     0
 42
0.000000001
 43
0.00000001
 40
0.0
 40
0.0
 40
0.0
 40
0.0
 40
0.25
 40
0.25
 40
0.5
 40
0.5
 40
1.0
 40
1.0
 40
1.0
 40
1.0
 10
127.6161219775053
 20
74.17582375376094
 30
0.0
 10
127.5938551353531
 20
73.93841119565853
 30
0.0
 10
127.5868171026981
 20
73.70030118150991
 30
0.0
 10
127.5859419812116
 20
73.22260305428408
 30
0.0
 10
127.5926059751589
 20
72.98298019768572
 30
0.0
 10
127.6232583245714
 20
72.26426444360455
 30
0.0
 10
127.6578670074216
 20
71.78344747878187
 30
0.0
 10
127.691923653058
 20
71.30354243049194
 30
0.0
  0
SPLINE
  5
B1
330
1F
100
AcDbEntity
  8
0
  6
Continuous
 62
     7
370
    25
100
AcDbSpline
210
0.0
220
0.0
230
1.0
 70
     8
 71
     3
 72
    16
 73
    12
 74
     0
 42
0.000000001
 43
0.00000001
 40
0.0
 40
0.0
 40
0.0
 40
0.0
 40
0.2500000000000002
 40
0.2500000000000002
 40
0.5000000000000002
 40
0.5000000000000002
 40
0.7500000000000002
 40
0.7500000000000002
 40
0.8750000000000001
 40
0.8750000000000001
 40
1.0
 40
1.0
 40
1.0
 40
1.0
 10
127.191923653058
 20
74.17582375376095
 30
0.0
 10
127.191923653058
 20
73.9295284214972
 30
0.0
 10
127.2118554387451
 20
73.68600848672317
 30
0.0
 10
127.2724619853487
 20
73.2033225133479
 30
0.0
 10
127.3135724927939
 20
72.9638820445732
 30
0.0
 10
127.4079489491931
 20
72.48714096491011
 30
0.0
 10
127.4613143110494
 20
72.24985785478322
 30
0.0
 10
127.545621470984
 20
71.89468296946845
 30
0.0
 10
127.5744463478258
 20
71.7764185290344
 30
0.0
 10
127.6328054263913
 20
71.54001451853331
 30
0.0
 10
127.6620565476094
 20
71.42301204697685
 30
0.0
 10
127.691923653058
 20
71.30354243049194
 30
0.0
  0
ARC
  5
B2
330
1F
100
AcDbEntity
  8
0
  6
Continuous
 62
     7
370
    25
100
AcDbCircle
 10
110.1752345384
 20
67.499827214
 30
0.0
 40
1.103908707245943
100
AcDbArc
 50
57.5393111608
 51
81.2309824111
  0
SPLINE
  5
B3
330
1F
100
AcDbEntity
  8
0
  6
Continuous
 62
     7
370
    25
100
AcDbSpline
210
0.0
220
0.0
230
1.0
 70
     8
 71
     3
 72
    12
 73
     8
 74
     0
 42
0.000000001
 43
0.00000001
 40
0.0
 40
0.0
 40
0.0
 40
0.0
 40
0.2499999999999999
 40
0.2499999999999999
 40
0.4999999999999998
 40
0.4999999999999998
 40
1.0
 40
1.0
 40
1.0
 40
1.0
 10
110.3435270041632
 20
68.5908322918491
 30
0.0
 10
110.3916351127913
 20
68.80706987631405
 30
0.0
 10
110.4278481702467
 20
69.0268354716321
 30
0.0
 10
110.4929523798837
 20
69.47127845759472
 30
0.0
 10
110.5211925601656
 20
69.69603848149238
 30
0.0
 10
110.6004573914197
 20
70.37700238635065
 30
0.0
 10
110.6463227747115
 20
70.84338531422782
 30
0.0
 10
110.691923653058
 20
71.30354243049194
 30
0.0
  0
SPLINE
  5
B4
330
1F
100
AcDbEntity
  8
0
  6
Continuous
 62
     7
370
    25
100
AcDbSpline
210
0.0
220
0.0
230
1.0
 70
     8
 71
     3
 72
    12
 73
     8
 74
     0
 42
0.000000001
 43
0.00000001
 40
0.0
 40
0.0
 40
0.0
 40
0.0
 40
0.2500000000000001
 40
0.2500000000000001
 40
0.5000000000000001
 40
0.5000000000000001
 40
1.0
 40
1.0
 40
1.0
 40
1.0
 10
110.7677253286106
 20
68.43126110722297
 30
0.0
 10
110.7899921707629
 20
68.66867366532539
 30
0.0
 10
110.7970302034178
 20
68.90678367947402
 30
0.0
 10
110.7979053249043
 20
69.3844818066999
 30
0.0
 10
110.791241330957
 20
69.62410466329843
 30
0.0
 10
110.7605889815444
 20
70.34282041738017
 30
0.0
 10
110.7259802984327
 20
70.82363738218342
 30
0.0
 10
110.691923653058
 20
71.30354243049194
 30
0.0
  0
LINE
  5
B5
330
1F
100
AcDbEntity
  8
0
  6
Continuous
 62
     7
370
    25
100
AcDbLine
 10
111.1919236531
 20
68.4312611072
 30
0.0
 11
110.7677253286
 21
68.4312611072
 31
0.0
  0
SPLINE
  5
B6
330
1F
100
AcDbEntity
  8
0
  6
Continuous
 62
     7
370
    25
100
AcDbSpline
210
0.0
220
0.0
230
1.0
 70
     8
 71
     3
 72
    16
 73
    12
 74
     0
 42
0.000000001
 43
0.00000001
 40
0.0
 40
0.0
 40
0.0
 40
0.0
 40
0.2500000000000001
 40
0.2500000000000001
 40
0.5000000000000001
 40
0.5000000000000001
 40
0.7500000000000002
 40
0.7500000000000002
 40
0.8750000000000001
 40
0.8750000000000001
 40
1.0
 40
1.0
 40
1.0
 40
1.0
 10
111.191923653058
 20
68.43126110722294
 30
0.0
 10
111.191923653058
 20
68.67755643948674
 30
0.0
 10
111.1719918673708
 20
68.92107637426072
 30
0.0
 10
111.1113853207673
 20
69.40376234763599
 30
0.0
 10
111.0702748133221
 20
69.64320281641068
 30
0.0
 10
110.9758983569229
 20
70.11994389607376
 30
0.0
 10
110.9225329950666
 20
70.35722700620067
 30
0.0
 10
110.838225835132
 20
70.71240189151544
 30
0.0
 10
110.8094009582901
 20
70.83066633194949
 30
0.0
 10
110.7510418797246
 20
71.06707034245058
 30
0.0
 10
110.7217907585065
 20
71.18407281400701
 30
0.0
 10
110.691923653058
 20
71.30354243049194
 30
0.0
  0
ARC
  5
B7
330
1F
100
AcDbEntity
  8
0
  6
Continuous
 62
     7
370
    25
100
AcDbCircle
 10
128.2086127677
 20
75.107257647
 30
0.0
 40
1.103908707247074
100
AcDbArc
 50
237.5393111608
 51
261.2309824111
  0
SPLINE
  5
B8
330
1F
100
AcDbEntity
  8
0
  6
Continuous
 62
     7
370
    25
100
AcDbSpline
210
0.0
220
0.0
230
1.0
 70
     8
 71
     3
 72
    12
 73
     8
 74
     0
 42
0.000000001
 43
0.00000001
 40
0.0
 40
0.0
 40
0.0
 40
0.0
 40
0.2499999999999999
 40
0.2499999999999999
 40
0.5
 40
0.5
 40
1.0
 40
1.0
 40
1.0
 40
1.0
 10
128.0403203019527
 20
74.01625256913486
 30
0.0
 10
127.9923621462809
 20
73.80068899713838
 30
0.0
 10
127.9560797311866
 20
73.58081898551661
 30
0.0
 10
127.8907578541505
 20
73.13485124390233
 30
0.0
 10
127.862397338196
 20
72.90895801802841
 30
0.0
 10
127.7831409316339
 20
72.22769561921295
 30
0.0
 10
127.7376701545069
 20
71.76516904854243
 30
0.0
 10
127.691923653058
 20
71.30354243049194
 30
0.0
  0
ARC
  5
B9
330
1F
100
AcDbEntity
  8
0
  6
Continuous
 62
     7
370
    25
100
AcDbCircle
 10
127.1919236531
 20
78.8035424305
 30
0.0
 40
1.500000000000014
100
AcDbArc
 50
180.0
 51
270.0
  0
LINE
  5
BA
330
1F
100
AcDbEntity
  8
0
  6
Continuous
 62
     7
370
    25
100
AcDbLine
 10
125.6919236531
 20
78.8035424305
 30
0.0
 11
126.1919236531
 21
78.8035424305
 31
0.0
  0
ARC
  5
BB
330
1F
100
AcDbEntity
  8
0
  6
Continuous
 62
     7
370
    25
100
AcDbCircle
 10
127.1919236531
 20
78.8035424305
 30
0.0
 40
1.000000000000014
100
AcDbArc
 50
180.0
 51
270.0
  0
LINE
  5
BC
330
1F
100
AcDbEntity
  8
0
  6
Continuous
 62
     7
370
    25
100
AcDbLine
 10
127.1919236531
 20
77.3035424305
 30
0.0
 11
127.1919236531
 21
77.8035424305
 31
0.0
  0
LINE
  5
BD
330
1F
100
AcDbEntity
  8
0
  6
Continuous
 62
     7
370
    25
100
AcDbLine
 10
110.6919236531
 20
84.6317299305
 30
0.0
 11
127.6919236531
 21
84.6317299305
 31
0.0
  0
SPLINE
  5
BE
330
1F
100
AcDbEntity
  8
0
  6
Continuous
 62
     7
370
    25
100
AcDbSpline
210
0.0
220
0.0
230
1.0
 70
     8
 71
     3
 72
     8
 73
     4
 74
     0
 42
0.000000001
 43
0.00000001
 40
0.0
 40
0.0
 40
0.0
 40
0.0
 40
1.0
 40
1.0
 40
1.0
 40
1.0
 10
115.2978794510857
 20
79.80354243049196
 30
0.0
 10
115.6843704906868
 20
79.80354243049196
 30
0.0
 10
116.0771946321077
 20
79.74137944244127
 30
0.0
 10
116.4792135144151
 20
79.65193907938668
 30
0.0
  0
LINE
  5
BF
330
1F
100
AcDbEntity
  8
0
  6
Continuous
 62
     7
370
    25
100
AcDbLine
 10
112.1085903197
 20
79.8035424305
 30
0.0
 11
115.2978794511
 21
79.8035424305
 31
0.0
  0
LINE
  5
C0
330
1F
100
AcDbEntity
  8
0
  6
Continuous
 62
     7
370
    25
100
AcDbLine
 10
112.1085903197
 20
78.8035424305
 30
0.0
 11
112.1085903197
 21
79.8035424305
 31
0.0
  0
LINE
  5
C1
330
1F
100
AcDbEntity
  8
0
  6
Continuous
 62
     7
370
    25
100
AcDbLine
 10
126.2752569864
 20
79.8035424305
 30
0.0
 11
126.2752569864
 21
78.8035424305
 31
0.0
  0
LINE
  5
C2
330
1F
100
AcDbEntity
  8
0
  6
Continuous
 62
     7
370
    25
100
AcDbLine
 10
123.085967855
 20
79.8035424305
 30
0.0
 11
126.2752569864
 21
79.8035424305
 31
0.0
  0
SPLINE
  5
C3
330
1F
100
AcDbEntity
  8
0
  6
Continuous
 62
     7
370
    25
100
AcDbSpline
210
0.0
220
0.0
230
1.0
 70
     8
 71
     3
 72
     8
 73
     4
 74
     0
 42
0.000000001
 43
0.00000001
 40
0.0
 40
0.0
 40
0.0
 40
0.0
 40
1.0
 40
1.0
 40
1.0
 40
1.0
 10
121.9046337917009
 20
79.6519390793867
 30
0.0
 10
122.3066526740083
 20
79.74137944244129
 30
0.0
 10
122.6994768154292
 20
79.80354243049196
 30
0.0
 10
123.0859678550302
 20
79.80354243049196
 30
0.0
  0
LINE
  5
C4
330
1F
100
AcDbEntity
  8
0
  6
Continuous
 62
     7
370
    25
100
AcDbLine
 10
112.6919236531
 20
78.8035424305
 30
0.0
 11
112.1919236531
 21
78.8035424305
 31
0.0
  0
LINE
  5
C5
330
1F
100
AcDbEntity
  8
0
  6
Continuous
 62
     7
370
    25
100
AcDbLine
 10
112.1919236531
 20
78.8035424305
 30
0.0
 11
112.1919236531
 21
79.3035424305
 31
0.0
  0
LINE
  5
C6
330
1F
100
AcDbEntity
  8
0
  6
Continuous
 62
     7
370
    25
100
AcDbLine
 10
112.6919236531
 20
78.8035424305
 30
0.0
 11
112.1919236531
 21
79.3035424305
 31
0.0
  0
LINE
  5
C7
330
1F
100
AcDbEntity
  8
0
  6
Continuous
 62
     7
370
    25
100
AcDbLine
 10
110.6919236531
 20
77.8035424305
 30
0.0
 11
111.1919236531
 21
77.3035424305
 31
0.0
  0
LINE
  5
C8
330
1F
100
AcDbEntity
  8
0
  6
Continuous
 62
     7
370
    25
100
AcDbLine
 10
111.1919236531
 20
77.3035424305
 30
0.0
 11
111.1919236531
 21
74.1758237538
 31
0.0
  0
SPLINE
  5
C9
330
1F
100
AcDbEntity
  8
0
  6
Continuous
 62
     7
370
    25
100
AcDbSpline
210
0.0
220
0.0
230
1.0
 70
     8
 71
     3
 72
     8
 73
     4
 74
     0
 42
0.000000001
 43
0.00000001
 40
0.0
 40
0.0
 40
0.0
 40
0.0
 40
1.0
 40
1.0
 40
1.0
 40
1.0
 10
110.691923653058
 20
75.42664805610961
 30
0.0
 10
110.691923653058
 20
75.0124591236272
 30
0.0
 10
110.7236714153425
 20
74.59514896083411
 30
0.0
 10
110.7677253285999
 20
74.17582375376035
 30
0.0
  0
LINE
  5
CA
330
1F
100
AcDbEntity
  8
0
  6
Continuous
 62
     7
370
    25
100
AcDbLine
 10
110.6919236531
 20
75.4266480561
 30
0.0
 11
110.6919236531
 21
77.8035424305
 31
0.0
  0
LINE
  5
CB
330
1F
100
AcDbEntity
  8
0
  6
Continuous
 62
     7
370
    25
100
AcDbLine
 10
127.1919236531
 20
77.8035424305
 30
0.0
 11
127.6919236531
 21
77.8035424305
 31
0.0
  0
LINE
  5
CC
330
1F
100
AcDbEntity
  8
0
  6
Continuous
 62
     7
370
    25
100
AcDbLine
 10
127.1919236531
 20
77.3035424305
 30
0.0
 11
127.6919236531
 21
77.8035424305
 31
0.0
  0
LINE
  5
CD
330
1F
100
AcDbEntity
  8
0
  6
Continuous
 62
     7
370
    25
100
AcDbLine
 10
111.1919236531
 20
68.4312611072
 30
0.0
 11
111.1919236531
 21
64.8035424305
 31
0.0
  0
LINE
  5
CE
330
1F
100
AcDbEntity
  8
0
  6
Continuous
 62
     7
370
    25
100
AcDbLine
 10
111.1919236531
 20
64.8035424305
 30
0.0
 11
110.6919236531
 21
64.3035424305
 31
0.0
  0
LINE
  5
CF
330
1F
100
AcDbEntity
  8
0
  6
Continuous
 62
     7
370
    25
100
AcDbLine
 10
110.6919236531
 20
64.3035424305
 30
0.0
 11
110.6919236531
 21
67.1804368049
 31
0.0
  0
SPLINE
  5
D0
330
1F
100
AcDbEntity
  8
0
  6
Continuous
 62
     7
370
    25
100
AcDbSpline
210
0.0
220
0.0
230
1.0
 70
     8
 71
     3
 72
     8
 73
     4
 74
     0
 42
0.000000001
 43
0.00000001
 40
0.0
 40
0.0
 40
0.0
 40
0.0
 40
1.0
 40
1.0
 40
1.0
 40
1.0
 10
110.7677253286106
 20
68.43126110722297
 30
0.0
 10
110.7236791758215
 20
68.01200976782862
 30
0.0
 10
110.691923653058
 20
67.59448680406754
 30
0.0
 10
110.691923653058
 20
67.18043680487429
 30
0.0
  0
LINE
  5
D1
330
1F
100
AcDbEntity
  8
0
  6
Continuous
 62
     7
370
    25
100
AcDbLine
 10
111.1919236531
 20
64.8035424305
 30
0.0
 11
127.1919236531
 21
64.8035424305
 31
0.0
  0
LINE
  5
D2
330
1F
100
AcDbEntity
  8
0
  6
Continuous
 62
     7
370
    25
100
AcDbLine
 10
127.1919236531
 20
64.8035424305
 30
0.0
 11
127.6919236531
 21
64.3035424305
 31
0.0
  0
LINE
  5
D3
330
1F
100
AcDbEntity
  8
0
  6
Continuous
 62
     7
370
    25
100
AcDbLine
 10
127.6919236531
 20
64.3035424305
 30
0.0
 11
110.6919236531
 21
64.3035424305
 31
0.0
  0
LINE
  5
D4
330
1F
100
AcDbEntity
  8
0
  6
Continuous
 62
     7
370
    25
100
AcDbLine
 10
127.1919236531
 20
64.8035424305
 30
0.0
 11
127.1919236531
 21
68.4312611072
 31
0.0
  0
SPLINE
  5
D5
330
1F
100
AcDbEntity
  8
0
  6
Continuous
 62
     7
370
    25
100
AcDbSpline
210
0.0
220
0.0
230
1.0
 70
     8
 71
     3
 72
     8
 73
     4
 74
     0
 42
0.000000001
 43
0.00000001
 40
0.0
 40
0.0
 40
0.0
 40
0.0
 40
1.0
 40
1.0
 40
1.0
 40
1.0
 10
127.691923653058
 20
67.18043680487429
 30
0.0
 10
127.691923653058
 20
67.5946257373567
 30
0.0
 10
127.6601758907735
 20
68.0119359001498
 30
0.0
 10
127.616121977516
 20
68.43126110722355
 30
0.0
  0
LINE
  5
D6
330
1F
100
AcDbEntity
  8
0
  6
Continuous
 62
     7
370
    25
100
AcDbLine
 10
127.6919236531
 20
67.1804368049
 30
0.0
 11
127.6919236531
 21
64.3035424305
 31
0.0
  0
LINE
  5
D7
330
1F
100
AcDbEntity
  8
0
  6
Continuous
 62
     7
370
    25
100
AcDbLine
 10
111.1919236531
 20
77.3035424305
 30
0.0
 11
111.1919236531
 21
77.8035424305
 31
0.0
  0
LINE
  5
D8
330
1F
100
AcDbEntity
  8
0
  6
Continuous
 62
     7
370
    25
100
AcDbLine
 10
110.6919236531
 20
77.8035424305
 30
0.0
 11
111.1919236531
 21
77.8035424305
 31
0.0
  0
LINE
  5
D9
330
1F
100
AcDbEntity
  8
0
  6
Continuous
 62
     7
370
    25
100
AcDbLine
 10
127.1919236531
 20
74.1758237538
 30
0.0
 11
127.1919236531
 21
77.3035424305
 31
0.0
  0
LINE
  5
DA
330
1F
100
AcDbEntity
  8
0
  6
Continuous
 62
     7
370
    25
100
AcDbLine
 10
127.6919236531
 20
77.8035424305
 30
0.0
 11
127.6919236531
 21
75.4266480561
 31
0.0
  0
SPLINE
  5
DB
330
1F
100
AcDbEntity
  8
0
  6
Continuous
 62
     7
370
    25
100
AcDbSpline
210
0.0
220
0.0
230
1.0
 70
     8
 71
     3
 72
     8
 73
     4
 74
     0
 42
0.000000001
 43
0.00000001
 40
0.0
 40
0.0
 40
0.0
 40
0.0
 40
1.0
 40
1.0
 40
1.0
 40
1.0
 10
127.6161219775054
 20
74.17582375376094
 30
0.0
 10
127.6601681302944
 20
74.59507509315527
 30
0.0
 10
127.691923653058
 20
75.01259805691635
 30
0.0
 10
127.691923653058
 20
75.42664805610961
 30
0.0
  0
LINE
  5
DC
330
1F
100
AcDbEntity
  8
0
  6
Continuous
 62
     7
370
    25
100
AcDbLine
 10
112.3637361531
 20
86.3035424305
 30
0.0
 11
126.0201111531
 21
86.3035424305
 31
0.0
  0
LINE
  5
DD
330
1F
100
AcDbEntity
  8
0
  6
Continuous
 62
     7
370
    25
100
AcDbLine
 10
116.3196423298
 20
78.8035424305
 30
0.0
 11
112.6919236531
 21
78.8035424305
 31
0.0
  0
LINE
  5
DE
330
1F
100
AcDbEntity
  8
0
  6
Continuous
 62
     7
370
    25
100
AcDbLine
 10
112.1919236531
 20
79.3035424305
 30
0.0
 11
115.0688180274
 21
79.3035424305
 31
0.0
  0
SPLINE
  5
DF
330
1F
100
AcDbEntity
  8
0
  6
Continuous
 62
     7
370
    25
100
AcDbSpline
210
0.0
220
0.0
230
1.0
 70
     8
 71
     3
 72
     8
 73
     4
 74
     0
 42
0.000000001
 43
0.00000001
 40
0.0
 40
0.0
 40
0.0
 40
0.0
 40
1.0
 40
1.0
 40
1.0
 40
1.0
 10
116.319642329789
 20
79.22774075493932
 30
0.0
 10
115.9003909903946
 20
79.27178690772838
 30
0.0
 10
115.4828680266336
 20
79.30354243049196
 30
0.0
 10
115.0688180274403
 20
79.30354243049196
 30
0.0
  0
ARC
  5
E0
330
1F
100
AcDbEntity
  8
0
  6
Continuous
 62
     7
370
    25
100
AcDbCircle
 10
111.1919236531
 20
78.8035424305
 30
0.0
 40
1.500000000000014
100
AcDbArc
 50
270.0
 51
0.0
  0
ARC
  5
E1
330
1F
100
AcDbEntity
  8
0
  6
Continuous
 62
     7
370
    25
100
AcDbCircle
 10
111.1919236531
 20
78.8035424305
 30
0.0
 40
1.000000000000014
100
AcDbArc
 50
270.0
 51
0.0
  0
LINE
  5
E2
330
1F
100
AcDbEntity
  8
0
  6
Continuous
 62
     7
370
    25
100
AcDbLine
 10
125.6919236531
 20
78.8035424305
 30
0.0
 11
126.1919236531
 21
79.3035424305
 31
0.0
  0
LINE
  5
E3
330
1F
100
AcDbEntity
  8
0
  6
Continuous
 62
     7
370
    25
100
AcDbLine
 10
126.1919236531
 20
79.3035424305
 30
0.0
 11
126.1919236531
 21
78.8035424305
 31
0.0
  0
LINE
  5
E4
330
1F
100
AcDbEntity
  8
0
  6
Continuous
 62
     7
370
    25
100
AcDbLine
 10
125.6919236531
 20
78.8035424305
 30
0.0
 11
122.0642049763
 21
78.8035424305
 31
0.0
  0
SPLINE
  5
E5
330
1F
100
AcDbEntity
  8
0
  6
Continuous
 62
     7
370
    25
100
AcDbSpline
210
0.0
220
0.0
230
1.0
 70
     8
 71
     3
 72
     8
 73
     4
 74
     0
 42
0.000000001
 43
0.00000001
 40
0.0
 40
0.0
 40
0.0
 40
0.0
 40
1.0
 40
1.0
 40
1.0
 40
1.0
 10
123.3150292786756
 20
79.30354243049196
 30
0.0
 10
122.9008403461932
 20
79.30354243049196
 30
0.0
 10
122.4835301834002
 20
79.27179466820748
 30
0.0
 10
122.0642049763265
 20
79.22774075494999
 30
0.0
  0
LINE
  5
E6
330
1F
100
AcDbEntity
  8
0
  6
Continuous
 62
     7
370
    25
100
AcDbLine
 10
123.3150292787
 20
79.3035424305
 30
0.0
 11
126.1919236531
 21
79.3035424305
 31
0.0
  0
ELLIPSE
  5
E7
330
1F
100
AcDbEntity
  8
0
  6
Continuous
 62
     7
370
    25
100
AcDbEllipse
 10
121.2325538548
 20
66.3744215554
 30
0.0
 11
0.07471508237067326
 21
0.0
 31
0.0
210
0.0
220
0.0
230
1.0
 40
0.9531667975
 41
3.605240262591968
 42
5.462183310213514
  0
ELLIPSE
  5
E8
330
1F
100
AcDbEntity
  8
0
  6
Continuous
 62
     7
370
    25
100
AcDbEllipse
 10
124.7764084729
 20
66.3744215554
 30
0.0
 11
0.07471508237061641
 21
2.842170943040401E-14
 31
0.0
210
0.0
220
0.0
230
1.0
 40
0.9531667976
 41
3.962594650565228
 42
5.819537698169204
  0
ELLIPSE
  5
E9
330
1F
100
AcDbEntity
  8
0
  6
Continuous
 62
     7
370
    25
100
AcDbEllipse
 10
125.2007468289
 20
68.1476431868
 30
0.0
 11
-0.5977206589647892
 21
-1.705302565824240E-13
 31
0.0
210
0.0
220
0.0
230
1.0
 40
0.9531667975
 41
0.3285531705514148
 42
2.110876526947284
  0
ELLIPSE
  5
EA
330
1F
100
AcDbEntity
  8
0
  6
Continuous
 62
     7
370
    25
100
AcDbEllipse
 10
123.0044811638
 20
64.5607189709
 30
0.0
 11
2.525369784127093
 21
-1.705302565824240E-13
 31
0.0
210
0.0
220
0.0
230
1.0
 40
0.9531667975
 41
0.8210019969639339
 42
2.320590656625497
  0
ELLIPSE
  5
EB
330
1F
100
AcDbEntity
  8
0
  6
Continuous
 62
     7
370
    25
100
AcDbEllipse
 10
123.0044811638
 20
70.8357331133
 30
0.0
 11
0.5743721957241519
 21
1.250555214937776E-12
 31
0.0
210
0.0
220
0.0
230
1.0
 40
0.9531667975
 41
0.4357918987530105
 42
2.705800754832477
  0
LINE
  5
EC
330
1F
100
AcDbEntity
  8
0
  6
Continuous
 62
     7
370
    25
100
AcDbLine
 10
124.6349981355
 20
67.963806981
 30
0.0
 11
123.5251702617
 21
71.0668368165
 31
0.0
  0
LINE
  5
ED
330
1F
100
AcDbEntity
  8
0
  6
Continuous
 62
     7
370
    25
100
AcDbLine
 10
120.4641683632
 20
67.6799769585
 30
0.0
 11
121.1657266536
 21
66.3425728207
 31
0.0
  0
LINE
  5
EE
330
1F
100
AcDbEntity
  8
0
  6
Continuous
 62
     7
370
    25
100
AcDbLine
 10
125.5447939644
 20
67.6799769585
 30
0.0
 11
125.5080976479
 21
67.6590064693
 31
0.0
  0
LINE
  5
EF
330
1F
100
AcDbEntity
  8
0
  6
Continuous
 62
     7
370
    25
100
AcDbLine
 10
124.8432356741
 20
66.3425728207
 30
0.0
 11
125.5447939644
 21
67.6799769585
 31
0.0
  0
LINE
  5
F0
330
1F
100
AcDbEntity
  8
0
  6
Continuous
 62
     7
370
    25
100
AcDbLine
 10
122.483792066
 20
71.0668368165
 30
0.0
 11
121.3742228227
 21
67.9645301006
 31
0.0
  0
LINE
  5
F1
330
1F
100
AcDbEntity
  8
0
  6
Continuous
 62
     7
370
    25
100
AcDbLine
 10
120.5096137998
 20
67.65496783
 30
0.0
 11
120.4641683632
 21
67.6799769585
 31
0.0
  0
ELLIPSE
  5
F2
330
1F
100
AcDbEntity
  8
0
  6
Continuous
 62
     7
370
    25
100
AcDbEllipse
 10
120.8084741293
 20
68.1483663064
 30
0.0
 11
-0.5977206589639081
 21
4.263256414560601E-14
 31
0.0
210
0.0
220
0.0
230
1.0
 40
0.9531667975
 41
1.047197551195608
 42
2.813039483037351
  0
ELLIPSE
  5
F3
330
1F
100
AcDbEntity
  8
0
  6
Continuous
 62
     7
370
    25
100
AcDbEllipse
 10
122.736926821
 20
68.0360566375
 30
0.0
 11
-0.07471508237065905
 21
0.0
 31
0.0
210
0.0
220
0.0
230
1.0
 40
0.9531667975
 41
5.940161364898012
 42
7.853981633974483
  0
LINE
  5
F4
330
1F
100
AcDbEntity
  8
0
  6
Continuous
 62
     7
370
    25
100
AcDbLine
 10
122.9341188411
 20
68.7740761145
 30
0.0
 11
122.6665644965
 21
68.0600091489
 31
0.0
  0
ELLIPSE
  5
F5
330
1F
100
AcDbEntity
  8
0
  6
Continuous
 62
     7
370
    25
100
AcDbEllipse
 10
123.0044811656
 20
68.7501236033
 30
0.0
 11
0.07471508237067326
 21
0.0
 31
0.0
210
0.0
220
0.0
230
1.0
 40
0.9531667975
 41
0.3430239404208619
 42
2.79856871316868
  0
ELLIPSE
  5
F6
330
1F
100
AcDbEntity
  8
0
  6
Continuous
 62
     7
370
    25
100
AcDbEllipse
 10
123.2720355071
 20
68.0360566375
 30
0.0
 11
0.07471508237061641
 21
2.842170943040401E-14
 31
0.0
210
0.0
220
0.0
230
1.0
 40
0.9531667975
 41
4.712388980384341
 42
6.626209245754428
  0
LINE
  5
F7
330
1F
100
AcDbEntity
  8
0
  6
Continuous
 62
     7
370
    25
100
AcDbLine
 10
122.736926821
 20
67.9648407017
 30
0.0
 11
123.2720355071
 21
67.9648407017
 31
0.0
  0
LINE
  5
F8
330
1F
100
AcDbEntity
  8
0
  6
Continuous
 62
     7
370
    25
100
AcDbLine
 10
123.3423978317
 20
68.0600091486
 30
0.0
 11
123.0748434901
 21
68.7740761145
 31
0.0
  0
SPLINE
  5
F9
330
1F
100
AcDbEntity
  8
0
  6
Continuous
 62
     7
370
    25
100
AcDbSpline
210
0.0
220
0.0
230
1.0
 70
     8
 71
     3
 72
     8
 73
     4
 74
     0
 42
0.000000001
 43
0.00000001
 40
0.0
 40
0.0
 40
0.0
 40
0.0
 40
1.0
 40
1.0
 40
1.0
 40
1.0
 10
128.191923653058
 20
75.1975866324642
 30
0.0
 10
128.191923653058
 20
74.81109559286314
 30
0.0
 10
128.1297606650073
 20
74.41827145144228
 30
0.0
 10
128.0403203019527
 20
74.01625256913486
 30
0.0
  0
LINE
  5
FA
330
1F
100
AcDbEntity
  8
0
  6
Continuous
 62
     7
370
    25
100
AcDbLine
 10
128.1919236531
 20
77.9146535416
 30
0.0
 11
128.1919236531
 21
75.1975866325
 31
0.0
  0
LINE
  5
FB
330
1F
100
AcDbEntity
  8
0
  6
Continuous
 62
     7
370
    25
100
AcDbLine
 10
127.1919236531
 20
77.9146535416
 30
0.0
 11
128.1919236531
 21
77.9146535416
 31
0.0
  0
SPLINE
  5
FC
330
1F
100
AcDbEntity
  8
0
  6
Continuous
 62
     7
370
    25
100
AcDbSpline
210
0.0
220
0.0
230
1.0
 70
     8
 71
     3
 72
    14
 73
    10
 74
     0
 42
0.000000001
 43
0.00000001
 40
0.0
 40
0.0
 40
0.0
 40
0.0
 40
0.2499999999999995
 40
0.2499999999999995
 40
0.499999999999999
 40
0.499999999999999
 40
0.7499999999999984
 40
0.7499999999999984
 40
1.0
 40
1.0
 40
1.0
 40
1.0
 10
126.691923653058
 20
78.38687576382527
 30
0.0
 10
126.691923653058
 20
78.33892442129822
 30
0.0
 10
126.699454543056
 20
78.29041059972516
 30
0.0
 10
126.7329350706883
 20
78.19266022918923
 30
0.0
 10
126.7590442736133
 20
78.14336705882182
 30
0.0
 10
126.8353352612553
 20
78.05069200983944
 30
0.0
 10
126.8862723420479
 20
78.00625919597502
 30
0.0
 10
127.0205609390717
 20
77.93742418750071
 30
0.0
 10
127.1041278667313
 20
77.91465354160306
 30
0.0
 10
127.191923653058
 20
77.91465354160307
 30
0.0
  0
SPLINE
  5
FD
330
1F
100
AcDbEntity
  8
0
  6
Continuous
 62
     7
370
    25
100
AcDbSpline
210
0.0
220
0.0
230
1.0
 70
     8
 71
     3
 72
    14
 73
    10
 74
     0
 42
0.000000001
 43
0.00000001
 40
0.0
 40
0.0
 40
0.0
 40
0.0
 40
0.25
 40
0.25
 40
0.5
 40
0.5
 40
0.75
 40
0.75
 40
1.0
 40
1.0
 40
1.0
 40
1.0
 10
111.191923653058
 20
77.91465354160306
 30
0.0
 10
111.2797194393846
 20
77.91465354160306
 30
0.0
 10
111.3632863670442
 20
77.93742418750071
 30
0.0
 10
111.4975749640681
 20
78.00625919597502
 30
0.0
 10
111.5485120448606
 20
78.05069200983944
 30
0.0
 10
111.6248030325027
 20
78.14336705882182
 30
0.0
 10
111.6509122354277
 20
78.19266022918923
 30
0.0
 10
111.68439276306
 20
78.29041059972516
 30
0.0
 10
111.691923653058
 20
78.33892442129822
 30
0.0
 10
111.691923653058
 20
78.38687576382529
 30
0.0
  0
LINE
  5
FE
330
1F
100
AcDbEntity
  8
0
  6
Continuous
 62
     7
370
    25
100
AcDbLine
 10
110.1919236531
 20
77.9146535416
 30
0.0
 11
111.1919236531
 21
77.9146535416
 31
0.0
  0
LINE
  5
FF
330
1F
100
AcDbEntity
  8
0
  6
Continuous
 62
     7
370
    25
100
AcDbLine
 10
110.1919236531
 20
75.1975866325
 30
0.0
 11
110.1919236531
 21
77.9146535416
 31
0.0
  0
SPLINE
  5
100
330
1F
100
AcDbEntity
  8
0
  6
Continuous
 62
     7
370
    25
100
AcDbSpline
210
0.0
220
0.0
230
1.0
 70
     8
 71
     3
 72
     8
 73
     4
 74
     0
 42
0.000000001
 43
0.00000001
 40
0.0
 40
0.0
 40
0.0
 40
0.0
 40
1.0
 40
1.0
 40
1.0
 40
1.0
 10
110.3435270041632
 20
74.01625256913479
 30
0.0
 10
110.2540866411087
 20
74.41827145144222
 30
0.0
 10
110.191923653058
 20
74.81109559286313
 30
0.0
 10
110.191923653058
 20
75.1975866324642
 30
0.0
  0
SPLINE
  5
101
330
1F
100
AcDbEntity
  8
0
  6
Continuous
 62
     7
370
    25
100
AcDbSpline
210
0.0
220
0.0
230
1.0
 70
     8
 71
     3
 72
     8
 73
     4
 74
     0
 42
0.000000001
 43
0.00000001
 40
0.0
 40
0.0
 40
0.0
 40
0.0
 40
1.0
 40
1.0
 40
1.0
 40
1.0
 10
110.191923653058
 20
67.40949822851971
 30
0.0
 10
110.191923653058
 20
67.79598926812078
 30
0.0
 10
110.2540866411087
 20
68.18881340954167
 30
0.0
 10
110.3435270041632
 20
68.5908322918491
 30
0.0
  0
LINE
  5
102
330
1F
100
AcDbEntity
  8
0
  6
Continuous
 62
     7
370
    25
100
AcDbLine
 10
110.1919236531
 20
64.2202090972
 30
0.0
 11
110.1919236531
 21
67.4094982285
 31
0.0
  0
LINE
  5
103
330
1F
100
AcDbEntity
  8
0
  6
Continuous
 62
     7
370
    25
100
AcDbLine
 10
128.1919236531
 20
64.2202090972
 30
0.0
 11
110.1919236531
 21
64.2202090972
 31
0.0
  0
LINE
  5
104
330
1F
100
AcDbEntity
  8
0
  6
Continuous
 62
     7
370
    25
100
AcDbLine
 10
128.1919236531
 20
67.4094982285
 30
0.0
 11
128.1919236531
 21
64.2202090972
 31
0.0
  0
SPLINE
  5
105
330
1F
100
AcDbEntity
  8
0
  6
Continuous
 62
     7
370
    25
100
AcDbSpline
210
0.0
220
0.0
230
1.0
 70
     8
 71
     3
 72
     8
 73
     4
 74
     0
 42
0.000000001
 43
0.00000001
 40
0.0
 40
0.0
 40
0.0
 40
0.0
 40
1.0
 40
1.0
 40
1.0
 40
1.0
 10
128.0403203019527
 20
68.59083229184908
 30
0.0
 10
128.1297606650073
 20
68.18881340954165
 30
0.0
 10
128.191923653058
 20
67.79598926812076
 30
0.0
 10
128.191923653058
 20
67.40949822851971
 30
0.0
  0
LWPOLYLINE
  5
106
330
1F
100
AcDbEntity
  8
0
  6
Continuous
 62
     7
370
    25
100
AcDbPolyline
 90
        9
 70
   128
 43
0.0
 10
128.1919236531
 20
67.4094982285
 10
128.094378492
 20
67.4050968775
 10
128.0005819369
 20
67.3920619659
 10
127.9141385365
 20
67.370894418
 10
127.8383702625
 20
67.3424076908
 10
127.7761888469
 20
67.3076965134
 10
127.7299838868
 20
67.2680948167
 10
127.7015310129
 20
67.2251244718
 10
127.6919236531
 20
67.1804368049
  0
LWPOLYLINE
  5
107
330
1F
100
AcDbEntity
  8
0
  6
Continuous
 62
     7
370
    25
100
AcDbPolyline
 90
        9
 70
   128
 43
0.0
 10
110.1919236531
 20
75.1975866325
 10
110.2894688141
 20
75.2019879835
 10
110.3832653692
 20
75.2150228951
 10
110.4697087696
 20
75.236190443
 10
110.5454770437
 20
75.2646771701
 10
110.6076584592
 20
75.2993883476
 10
110.6538634193
 20
75.3389900443
 10
110.6823162933
 20
75.3819603892
 10
110.6919236531
 20
75.4266480561
  0
LWPOLYLINE
  5
108
330
1F
100
AcDbEntity
  8
0
  6
Continuous
 62
     7
370
    25
100
AcDbPolyline
 90
        9
 70
   128
 43
0.0
 10
123.085967855
 20
79.8035424305
 10
123.0903692061
 20
79.7059972695
 10
123.1034041177
 20
79.6122007143
 10
123.1245716656
 20
79.525757314
 10
123.1530583927
 20
79.4499890399
 10
123.1877695702
 20
79.3878076243
 10
123.2273712669
 20
79.3416026642
 10
123.2703416118
 20
79.3131497903
 10
123.3150292787
 20
79.3035424305
  0
LWPOLYLINE
  5
109
330
1F
100
AcDbEntity
  8
0
  6
Continuous
 62
     7
370
    25
100
AcDbPolyline
 90
        9
 70
   128
 43
0.0
 10
127.6919236531
 20
75.4266480561
 10
127.7015310129
 20
75.3819603892
 10
127.7299838868
 20
75.3389900443
 10
127.7761888469
 20
75.2993883476
 10
127.8383702625
 20
75.2646771701
 10
127.9141385365
 20
75.236190443
 10
128.0005819369
 20
75.2150228951
 10
128.094378492
 20
75.2019879835
 10
128.1919236531
 20
75.1975866325
  0
LWPOLYLINE
  5
10A
330
1F
100
AcDbEntity
  8
0
  6
Continuous
 62
     7
370
    25
100
AcDbPolyline
 90
        9
 70
   128
 43
0.0
 10
115.0688180274
 20
79.3035424305
 10
115.1135056943
 20
79.3131497903
 10
115.1564760393
 20
79.3416026642
 10
115.196077736
 20
79.3878076243
 10
115.2307889134
 20
79.4499890399
 10
115.2592756406
 20
79.525757314
 10
115.2804431884
 20
79.6122007143
 10
115.2934781001
 20
79.7059972695
 10
115.2978794511
 20
79.8035424305
  0
LWPOLYLINE
  5
10B
330
1F
100
AcDbEntity
  8
0
  6
Continuous
 62
     7
370
    25
100
AcDbPolyline
 90
        9
 70
   128
 43
0.0
 10
110.1919236531
 20
67.4094982285
 10
110.2894688141
 20
67.4050968775
 10
110.3832653692
 20
67.3920619659
 10
110.4697087696
 20
67.370894418
 10
110.5454770437
 20
67.3424076908
 10
110.6076584592
 20
67.3076965134
 10
110.6538634193
 20
67.2680948167
 10
110.6823162933
 20
67.2251244718
 10
110.6919236531
 20
67.1804368049
  0
SPLINE
  5
10C
330
1F
100
AcDbEntity
  8
0
  6
Continuous
 62
     7
370
    25
100
AcDbSpline
210
0.0
220
0.0
230
1.0
 70
     8
 71
     3
 72
     8
 73
     4
 74
     0
 42
0.000000001
 43
0.00000001
 40
0.0
 40
0.0
 40
0.0
 40
0.0
 40
1.0
 40
1.0
 40
1.0
 40
1.0
 10
110.4749012773664
 20
64.30354243049196
 30
0.0
 10
110.3867774199077
 20
64.30354243049196
 30
0.0
 10
110.2888399472056
 20
64.27227223688989
 30
0.0
 10
110.191923653058
 20
64.22020909715862
 30
0.0
  0
SPLINE
  5
10D
330
1F
100
AcDbEntity
  8
0
  6
Continuous
 62
     7
370
    25
100
AcDbSpline
210
0.0
220
0.0
230
1.0
 70
    24
 71
     3
 72
    10
 73
     6
 74
     0
 42
0.000000001
 43
0.00000001
 40
0.0
 40
0.0
 40
0.0
 40
0.0
 40
0.5
 40
0.5
 40
1.0
 40
1.0
 40
1.0
 40
1.0
 10
110.691923653058
 20
64.30354243049183
 30
0.0
 10
110.691923653058
 20
64.30354243049183
 30
0.0
 10
110.6750786375041
 20
64.30354243049194
 30
0.0
 10
110.6057189198765
 20
64.30354243049196
 30
0.0
 10
110.5545194338234
 20
64.30354243049196
 30
0.0
 10
110.4749012773665
 20
64.30354243049196
 30
0.0
  0
SPLINE
  5
10E
330
1F
100
AcDbEntity
  8
0
  6
Continuous
 62
     7
370
    25
100
AcDbSpline
210
0.0
220
0.0
230
1.0
 70
     8
 71
     3
 72
     8
 73
     4
 74
     0
 42
0.000000001
 43
0.00000001
 40
0.0
 40
0.0
 40
0.0
 40
0.0
 40
1.0
 40
1.0
 40
1.0
 40
1.0
 10
110.5131579235317
 20
77.80354243049194
 30
0.0
 10
110.4162341870392
 20
77.80354243049194
 30
0.0
 10
110.3032286989493
 20
77.84666498888755
 30
0.0
 10
110.191923653058
 20
77.91465354160306
 30
0.0
  0
SPLINE
  5
10F
330
1F
100
AcDbEntity
  8
0
  6
Continuous
 62
     7
370
    25
100
AcDbSpline
210
0.0
220
0.0
230
1.0
 70
    24
 71
     3
 72
    10
 73
     6
 74
     0
 42
0.000000001
 43
0.00000001
 40
0.0
 40
0.0
 40
0.0
 40
0.0
 40
0.5
 40
0.5
 40
1.0
 40
1.0
 40
1.0
 40
1.0
 10
110.5131579235317
 20
77.80354243049194
 30
0.0
 10
110.5762079460668
 20
77.80354243049194
 30
0.0
 10
110.6195151703727
 20
77.80354243049194
 30
0.0
 10
110.677706346035
 20
77.80354243049194
 30
0.0
 10
110.691923653058
 20
77.80354243049194
 30
0.0
 10
110.691923653058
 20
77.80354243049194
 30
0.0
  0
SPLINE
  5
110
330
1F
100
AcDbEntity
  8
0
  6
Continuous
 62
     7
370
    25
100
AcDbSpline
210
0.0
220
0.0
230
1.0
 70
    24
 71
     3
 72
    10
 73
     6
 74
     0
 42
0.000000001
 43
0.00000001
 40
0.0
 40
0.0
 40
0.0
 40
0.0
 40
0.5
 40
0.5
 40
1.0
 40
1.0
 40
1.0
 40
1.0
 10
112.1919236530578
 20
79.30354243049196
 30
0.0
 10
112.1919236530578
 20
79.30354243049196
 30
0.0
 10
112.191923653058
 20
79.32038744604587
 30
0.0
 10
112.191923653058
 20
79.38974716367346
 30
0.0
 10
112.191923653058
 20
79.44094664972656
 30
0.0
 10
112.191923653058
 20
79.52056480618346
 30
0.0
  0
SPLINE
  5
111
330
1F
100
AcDbEntity
  8
0
  6
Continuous
 62
     7
370
    25
100
AcDbSpline
210
0.0
220
0.0
230
1.0
 70
     8
 71
     3
 72
     8
 73
     4
 74
     0
 42
0.000000001
 43
0.00000001
 40
0.0
 40
0.0
 40
0.0
 40
0.0
 40
1.0
 40
1.0
 40
1.0
 40
1.0
 10
112.191923653058
 20
79.52056480618357
 30
0.0
 10
112.191923653058
 20
79.60868866364225
 30
0.0
 10
112.1606534594542
 20
79.70662613634124
 30
0.0
 10
112.1085903197246
 20
79.80354243049196
 30
0.0
  0
SPLINE
  5
112
330
1F
100
AcDbEntity
  8
0
  6
Continuous
 62
     7
370
    25
100
AcDbSpline
210
0.0
220
0.0
230
1.0
 70
     8
 71
     3
 72
     8
 73
     4
 74
     0
 42
0.000000001
 43
0.00000001
 40
0.0
 40
0.0
 40
0.0
 40
0.0
 40
1.0
 40
1.0
 40
1.0
 40
1.0
 10
126.191923653058
 20
79.52056480618354
 30
0.0
 10
126.191923653058
 20
79.60868866364223
 30
0.0
 10
126.2231938466615
 20
79.70662613634163
 30
0.0
 10
126.2752569863913
 20
79.80354243049196
 30
0.0
  0
SPLINE
  5
113
330
1F
100
AcDbEntity
  8
0
  6
Continuous
 62
     7
370
    25
100
AcDbSpline
210
0.0
220
0.0
230
1.0
 70
    24
 71
     3
 72
    10
 73
     6
 74
     0
 42
0.000000001
 43
0.00000001
 40
0.0
 40
0.0
 40
0.0
 40
0.0
 40
0.5
 40
0.5
 40
1.0
 40
1.0
 40
1.0
 40
1.0
 10
126.191923653058
 20
79.52056480618354
 30
0.0
 10
126.191923653058
 20
79.44122764376199
 30
0.0
 10
126.191923653058
 20
79.38973233525103
 30
0.0
 10
126.191923653058
 20
79.3206299939655
 30
0.0
 10
126.191923653058
 20
79.30354243049199
 30
0.0
 10
126.191923653058
 20
79.30354243049196
 30
0.0
  0
SPLINE
  5
114
330
1F
100
AcDbEntity
  8
0
  6
Continuous
 62
     7
370
    25
100
AcDbSpline
210
0.0
220
0.0
230
1.0
 70
     8
 71
     3
 72
     8
 73
     4
 74
     0
 42
0.000000001
 43
0.00000001
 40
0.0
 40
0.0
 40
0.0
 40
0.0
 40
1.0
 40
1.0
 40
1.0
 40
1.0
 10
127.9089460287496
 20
64.30354243049196
 30
0.0
 10
127.9970698862083
 20
64.30354243049196
 30
0.0
 10
128.0950073589103
 20
64.27227223688989
 30
0.0
 10
128.191923653058
 20
64.22020909715862
 30
0.0
  0
SPLINE
  5
115
330
1F
100
AcDbEntity
  8
0
  6
Continuous
 62
     7
370
    25
100
AcDbSpline
210
0.0
220
0.0
230
1.0
 70
    24
 71
     3
 72
    10
 73
     6
 74
     0
 42
0.000000001
 43
0.00000001
 40
0.0
 40
0.0
 40
0.0
 40
0.0
 40
0.5
 40
0.5
 40
1.0
 40
1.0
 40
1.0
 40
1.0
 10
127.9089460287496
 20
64.30354243049196
 30
0.0
 10
127.829608866328
 20
64.30354243049196
 30
0.0
 10
127.7781135578171
 20
64.30354243049194
 30
0.0
 10
127.7090112165315
 20
64.30354243049196
 30
0.0
 10
127.691923653058
 20
64.30354243049196
 30
0.0
 10
127.691923653058
 20
64.30354243049196
 30
0.0
  0
SPLINE
  5
116
330
1F
100
AcDbEntity
  8
0
  6
Continuous
 62
     7
370
    25
100
AcDbSpline
210
0.0
220
0.0
230
1.0
 70
     8
 71
     3
 72
     8
 73
     4
 74
     0
 42
0.000000001
 43
0.00000001
 40
0.0
 40
0.0
 40
0.0
 40
0.0
 40
1.0
 40
1.0
 40
1.0
 40
1.0
 10
127.8706893825843
 20
77.80354243049194
 30
0.0
 10
127.9676131190768
 20
77.80354243049194
 30
0.0
 10
128.0806186071667
 20
77.84666498888755
 30
0.0
 10
128.191923653058
 20
77.91465354160306
 30
0.0
  0
SPLINE
  5
117
330
1F
100
AcDbEntity
  8
0
  6
Continuous
 62
     7
370
    25
100
AcDbSpline
210
0.0
220
0.0
230
1.0
 70
    24
 71
     3
 72
    10
 73
     6
 74
     0
 42
0.000000001
 43
0.00000001
 40
0.0
 40
0.0
 40
0.0
 40
0.0
 40
0.5
 40
0.5
 40
1.0
 40
1.0
 40
1.0
 40
1.0
 10
127.691923653058
 20
77.80354243049314
 30
0.0
 10
127.691923653058
 20
77.80354243049314
 30
0.0
 10
127.7061416227737
 20
77.80354243049194
 30
0.0
 10
127.7643181375647
 20
77.80354243049194
 30
0.0
 10
127.8076394949034
 20
77.80354243049194
 30
0.0
 10
127.8706893825842
 20
77.80354243049194
 30
0.0
  0
LINE
  5
118
330
1F
100
AcDbEntity
  8
0
  6
Continuous
 62
     7
370
    25
100
AcDbLine
 10
125.6478857672
 20
98.2147547767
 30
0.0
 11
112.7359615389
 21
98.2147547767
 31
0.0
  0
LINE
  5
119
330
1F
100
AcDbEntity
  8
0
  6
Continuous
 62
     7
370
    25
100
AcDbLine
 10
113.9419236531
 20
100.3035424305
 30
0.0
 11
124.4419236531
 21
100.3035424305
 31
0.0
  0
ARC
  5
11A
330
1F
100
AcDbEntity
  8
0
  6
Continuous
 62
     7
370
    25
100
AcDbCircle
 10
111.7301180975
 20
78.8493757638
 30
0.0
 40
0.4640744181555128
100
AcDbArc
 50
265.279079151
 51
354.3320630335
  0
LINE
  5
11B
330
1F
100
AcDbEntity
  8
0
  6
Continuous
 62
     7
370
    25
100
AcDbLine
 10
111.1919236531
 20
77.9146535416
 30
0.0
 11
111.1919236531
 21
77.8035424305
 31
0.0
  0
ARC
  5
11C
330
1F
100
AcDbEntity
  8
0
  6
Continuous
 62
     7
370
    25
100
AcDbCircle
 10
126.6537292086
 20
78.8493757638
 30
0.0
 40
0.4640744181555569
100
AcDbArc
 50
185.6679369665
 51
274.720920849
  0
LINE
  5
11D
330
1F
100
AcDbEntity
  8
0
  6
Continuous
 62
     7
370
    25
100
AcDbLine
 10
127.1919236531
 20
77.8035424305
 30
0.0
 11
127.1919236531
 21
77.9146535416
 31
0.0
  0
LINE
  5
11E
330
1F
100
AcDbEntity
  8
0
  6
Continuous
 62
     7
370
    25
100
AcDbLine
 10
126.2752569864
 20
78.8035424305
 30
0.0
 11
126.1919236531
 21
78.8035424305
 31
0.0
  0
ARC
  5
11F
330
1F
100
AcDbEntity
  8
0
  6
Continuous
 62
     7
370
    25
100
AcDbCircle
 10
126.8933234068
 20
79.0049421842
 30
0.0
 40
0.6500522754721577
100
AcDbArc
 50
198.0484348985
 51
251.9515651015
  0
ARC
  5
120
330
1F
100
AcDbEntity
  8
0
  6
Continuous
 62
     7
370
    25
100
AcDbCircle
 10
111.4905238993
 20
79.0049421842
 30
0.0
 40
0.650052275472104
100
AcDbArc
 50
288.0484348985
 51
341.9515651015
  0
LINE
  5
121
330
1F
100
AcDbEntity
  8
0
  6
Continuous
 62
     7
370
    25
100
AcDbLine
 10
112.1919236531
 20
78.8035424305
 30
0.0
 11
112.1085903197
 21
78.8035424305
 31
0.0
  0
LINE
  5
122
330
1F
100
AcDbEntity
  8
0
  6
Continuous
 62
     8
370
    25
100
AcDbLine
 10
103.1919236531
 20
71.3035424305
 30
0.0
 11
103.1919236531
 21
82.5535424305
 31
0.0
  0
LINE
  5
123
330
1F
100
AcDbEntity
  8
0
  6
Continuous
 62
     8
370
    25
100
AcDbLine
 10
103.1919236531
 20
60.0535424305
 30
0.0
 11
103.1919236531
 21
71.3035424305
 31
0.0
  0
LINE
  5
124
330
1F
100
AcDbEntity
  8
0
  6
Continuous
 62
     8
370
    25
100
AcDbLine
 10
135.1919236531
 20
82.5535424305
 30
0.0
 11
135.1919236531
 21
60.0535424305
 31
0.0
  0
LINE
  5
125
330
1F
100
AcDbEntity
  8
0
  6
Continuous
 62
     8
370
    25
100
AcDbLine
 10
133.1919236531
 20
62.8035424305
 30
0.0
 11
133.1919236531
 21
79.8035424305
 31
0.0
  0
LINE
  5
126
330
1F
100
AcDbEntity
  8
0
  6
Continuous
 62
     8
370
    25
100
AcDbLine
 10
105.1919236531
 20
71.3035424305
 30
0.0
 11
105.1919236531
 21
62.8035424305
 31
0.0
  0
LINE
  5
127
330
1F
100
AcDbEntity
  8
0
  6
Continuous
 62
     8
370
    25
100
AcDbLine
 10
105.1919236531
 20
79.8035424305
 30
0.0
 11
105.1919236531
 21
71.3035424305
 31
0.0
  0
LINE
  5
128
330
1F
100
AcDbEntity
  8
0
  6
Continuous
 62
     8
370
    25
100
AcDbLine
 10
110.6919236531
 20
80.3035424305
 30
0.0
 11
112.1085903197
 21
78.8035424305
 31
0.0
  0
LINE
  5
129
330
1F
100
AcDbEntity
  8
0
  6
Continuous
 62
     8
370
    25
100
AcDbLine
 10
126.2752569864
 20
78.8035424305
 30
0.0
 11
127.6919236531
 21
80.3035424305
 31
0.0
  0
LINE
  5
12A
330
1F
100
AcDbEntity
  8
0
  6
Continuous
 62
     8
370
    25
100
AcDbLine
 10
128.1919236531
 20
79.8035424305
 30
0.0
 11
126.6919236531
 21
78.3868757638
 31
0.0
  0
LINE
  5
12B
330
1F
100
AcDbEntity
  8
0
  6
Continuous
 62
     8
370
    25
100
AcDbLine
 10
111.6919236531
 20
78.3868757638
 30
0.0
 11
110.1919236531
 21
79.8035424305
 31
0.0
  0
LINE
  5
12C
330
1F
100
AcDbEntity
  8
0
  6
Continuous
 62
     7
370
    18
100
AcDbLine
 10
124.9414619569
 20
99.4383167079
 30
0.0
 11
125.2894236531
 21
88.3035424305
 31
0.0
  0
LINE
  5
12D
330
1F
100
AcDbEntity
  8
0
  6
Continuous
 62
     7
370
    18
100
AcDbLine
 10
113.4423853492
 20
99.4383167079
 30
0.0
 11
113.0944236531
 21
88.3035424305
 31
0.0
  0
LINE
  5
12E
330
1F
100
AcDbEntity
  8
0
  6
Continuous
 62
     7
370
    18
100
AcDbLine
 10
112.4262361531
 20
88.3035424305
 30
0.0
 11
125.9576111531
 21
88.3035424305
 31
0.0
  0
LINE
  5
12F
330
1F
100
AcDbEntity
  8
0
  6
CENTERX2
 62
     7
370
    18
100
AcDbLine
 10
119.1919236531
 20
98.2147547767
 30
0.0
 11
119.1919236531
 21
60.8683568613
 31
0.0
  0
LINE
  5
130
330
1F
100
AcDbEntity
  8
0
  6
CENTERX2
 62
     7
370
    18
100
AcDbLine
 10
119.1919236531
 20
98.2147547767
 30
0.0
 11
119.1919236531
 21
102.3035424305
 31
0.0
  0
LINE
  5
131
330
1F
100
AcDbEntity
  8
0
  6
CENTERX2
 62
     7
370
    18
100
AcDbLine
 10
88.6919236531
 20
71.3035424305
 30
0.0
 11
149.6919236531
 21
71.3035424305
 31
0.0
  0
LINE
  5
132
330
1F
100
AcDbEntity
  8
0
  6
Continuous
 62
     7
370
    25
100
AcDbLine
 10
196.9043515146
 20
84.6317299305
 30
0.0
 11
195.2325390146
 21
86.3035424305
 31
0.0
  0
LINE
  5
133
330
1F
100
AcDbEntity
  8
0
  6
Continuous
 62
     7
370
    25
100
AcDbLine
 10
181.5761640146
 20
86.3035424305
 30
0.0
 11
179.9043515146
 21
84.6317299305
 31
0.0
  0
LINE
  5
134
330
1F
100
AcDbEntity
  8
0
  6
Continuous
 62
     7
370
    25
100
AcDbLine
 10
196.9043515146
 20
79.3035424305
 30
0.0
 11
196.9043515146
 21
84.6317299305
 31
0.0
  0
LINE
  5
135
330
1F
100
AcDbEntity
  8
0
  6
Continuous
 62
     7
370
    25
100
AcDbLine
 10
179.9043515146
 20
84.6317299305
 30
0.0
 11
179.9043515146
 21
79.3035424305
 31
0.0
  0
LINE
  5
136
330
1F
100
AcDbEntity
  8
0
  6
Continuous
 62
     7
370
    25
100
AcDbLine
 10
195.2325390146
 20
86.3035424305
 30
0.0
 11
194.8603136288
 21
98.2147547767
 31
0.0
  0
LINE
  5
137
330
1F
100
AcDbEntity
  8
0
  6
Continuous
 62
     7
370
    25
100
AcDbLine
 10
181.9483894005
 20
98.2147547767
 30
0.0
 11
181.5761640146
 21
86.3035424305
 31
0.0
  0
LINE
  5
138
330
1F
100
AcDbEntity
  8
0
  6
Continuous
 62
     7
370
    25
100
AcDbLine
 10
194.8603136288
 20
98.2147547767
 30
0.0
 11
193.6543515146
 21
100.3035424305
 31
0.0
  0
LINE
  5
139
330
1F
100
AcDbEntity
  8
0
  6
Continuous
 62
     7
370
    25
100
AcDbLine
 10
183.1543515146
 20
100.3035424305
 30
0.0
 11
181.9483894005
 21
98.2147547767
 31
0.0
  0
CIRCLE
  5
13A
330
1F
100
AcDbEntity
  8
0
  6
Continuous
 62
     7
370
    25
100
AcDbCircle
 10
188.4043515146
 20
71.3035424305
 30
0.0
 40
8.500000000000028
  0
CIRCLE
  5
13B
330
1F
100
AcDbEntity
  8
0
  6
Continuous
 62
     7
370
    25
100
AcDbCircle
 10
188.4043515146
 20
71.3035424305
 30
0.0
 40
10.75
  0
CIRCLE
  5
13C
330
1F
100
AcDbEntity
  8
0
  6
Continuous
 62
     7
370
    25
100
AcDbCircle
 10
188.4043515146
 20
71.3035424305
 30
0.0
 40
11.25
  0
CIRCLE
  5
13D
330
1F
100
AcDbEntity
  8
0
  6
Continuous
 62
     7
370
    25
100
AcDbCircle
 10
188.4043515146
 20
71.3035424305
 30
0.0
 40
7.872175816270357
  0
CIRCLE
  5
13E
330
1F
100
AcDbEntity
  8
0
  6
Continuous
 62
     7
370
    25
100
AcDbCircle
 10
188.4043515146
 20
71.3035424305
 30
0.0
 40
7.547130357748898
  0
CIRCLE
  5
13F
330
1F
100
AcDbEntity
  8
0
  6
Continuous
 62
     7
370
    25
100
AcDbCircle
 10
188.4043515146
 20
71.3035424305
 30
0.0
 40
7.474999999999994
  0
CIRCLE
  5
140
330
1F
100
AcDbEntity
  8
0
  6
Continuous
 62
     7
370
    25
100
AcDbCircle
 10
188.4043515146
 20
71.3035424305
 30
0.0
 40
5.0
  0
LINE
  5
141
330
1F
100
AcDbEntity
  8
0
  6
Continuous
 62
     7
370
    25
100
AcDbLine
 10
188.4043515146
 20
84.6317299305
 30
0.0
 11
196.9043515146
 21
84.6317299305
 31
0.0
  0
LINE
  5
142
330
1F
100
AcDbEntity
  8
0
  6
Continuous
 62
     7
370
    25
100
AcDbLine
 10
179.9043515146
 20
84.6317299305
 30
0.0
 11
188.4043515146
 21
84.6317299305
 31
0.0
  0
LINE
  5
143
330
1F
100
AcDbEntity
  8
0
  6
Continuous
 62
     7
370
    25
100
AcDbLine
 10
181.5761640146
 20
86.3035424305
 30
0.0
 11
195.2325390146
 21
86.3035424305
 31
0.0
  0
SPLINE
  5
144
330
1F
100
AcDbEntity
  8
0
  6
Continuous
 62
     7
370
    25
100
AcDbSpline
210
0.0
220
0.0
230
1.0
 70
     8
 71
     3
 72
    12
 73
     8
 74
     0
 42
0.000000001
 43
0.00000001
 40
0.0
 40
0.0
 40
0.0
 40
0.0
 40
0.2499999999999999
 40
0.2499999999999999
 40
0.4999999999999999
 40
0.4999999999999999
 40
1.0
 40
1.0
 40
1.0
 40
1.0
 10
196.4598591773255
 20
79.65193907938668
 30
0.0
 10
196.5326776653084
 20
79.6038309707423
 30
0.0
 10
196.5969733037668
 20
79.56761791327807
 30
0.0
 10
196.7076794673497
 20
79.50251370362518
 30
0.0
 10
196.7541329795912
 20
79.47427352333689
 30
0.0
 10
196.8662190022097
 20
79.39500869206391
 30
0.0
 10
196.9043515146326
 20
79.34914330886826
 30
0.0
 10
196.9043515146326
 20
79.30354243049196
 30
0.0
  0
SPLINE
  5
145
330
1F
100
AcDbEntity
  8
0
  6
Continuous
 62
     7
370
    25
100
AcDbSpline
210
0.0
220
0.0
230
1.0
 70
     8
 71
     3
 72
     8
 73
     4
 74
     0
 42
0.000000001
 43
0.00000001
 40
0.0
 40
0.0
 40
0.0
 40
0.0
 40
1.0
 40
1.0
 40
1.0
 40
1.0
 10
195.9599070701881
 20
79.80354243049196
 30
0.0
 10
196.1590999926419
 20
79.80354243049196
 30
0.0
 10
196.324478423731
 20
79.74137944244127
 30
0.0
 10
196.4598591773255
 20
79.65193907938668
 30
0.0
  0
SPLINE
  5
146
330
1F
100
AcDbEntity
  8
0
  6
Continuous
 62
     7
370
    25
100
AcDbSpline
210
0.0
220
0.0
230
1.0
 70
     8
 71
     3
 72
     8
 73
     4
 74
     0
 42
0.000000001
 43
0.00000001
 40
0.0
 40
0.0
 40
0.0
 40
0.0
 40
1.0
 40
1.0
 40
1.0
 40
1.0
 10
180.3488438519397
 20
79.6519390793867
 30
0.0
 10
180.4842246055341
 20
79.74137944244129
 30
0.0
 10
180.6496030366233
 20
79.80354243049196
 30
0.0
 10
180.848795959077
 20
79.80354243049196
 30
0.0
  0
SPLINE
  5
147
330
1F
100
AcDbEntity
  8
0
  6
Continuous
 62
     7
370
    25
100
AcDbSpline
210
0.0
220
0.0
230
1.0
 70
     8
 71
     3
 72
    12
 73
     8
 74
     0
 42
0.000000001
 43
0.00000001
 40
0.0
 40
0.0
 40
0.0
 40
0.0
 40
0.2500000000000002
 40
0.2500000000000002
 40
0.5000000000000001
 40
0.5000000000000001
 40
1.0
 40
1.0
 40
1.0
 40
1.0
 10
180.3488438519397
 20
79.6519390793867
 30
0.0
 10
180.2761926771865
 20
79.60394150754772
 30
0.0
 10
180.2118751545953
 20
79.56770293364862
 30
0.0
 10
180.1009959663881
 20
79.50249797842231
 30
0.0
 10
180.0543355998399
 20
79.47413092116217
 30
0.0
 10
179.942076940889
 20
79.39467414567277
 30
0.0
 10
179.9043515146325
 20
79.34922816582245
 30
0.0
 10
179.9043515146325
 20
79.30354243049196
 30
0.0
  0
LINE
  5
148
330
1F
100
AcDbEntity
  8
0
  6
Continuous
 62
     7
370
    25
100
AcDbLine
 10
196.9043515146
 20
78.8035424305
 30
0.0
 11
196.9043515146
 21
78.673243917
 31
0.0
  0
LINE
  5
149
330
1F
100
AcDbEntity
  8
0
  6
Continuous
 62
     7
370
    25
100
AcDbLine
 10
179.9043515146
 20
78.673243917
 30
0.0
 11
179.9043515146
 21
78.8035424305
 31
0.0
  0
ARC
  5
14A
330
1F
100
AcDbEntity
  8
0
  6
Continuous
 62
     7
370
    25
100
AcDbCircle
 10
196.4043515146
 20
78.8035424305
 30
0.0
 40
0.5
100
AcDbArc
 50
0.0
 51
90.0
  0
LINE
  5
14B
330
1F
100
AcDbEntity
  8
0
  6
Continuous
 62
     7
370
    25
100
AcDbLine
 10
196.3139975244
 20
79.3035424305
 30
0.0
 11
196.4043515146
 21
79.3035424305
 31
0.0
  0
LINE
  5
14C
330
1F
100
AcDbEntity
  8
0
  6
Continuous
 62
     7
370
    25
100
AcDbLine
 10
180.4043515146
 20
79.3035424305
 30
0.0
 11
180.4947055049
 21
79.3035424305
 31
0.0
  0
ARC
  5
14D
330
1F
100
AcDbEntity
  8
0
  6
Continuous
 62
     7
370
    25
100
AcDbCircle
 10
180.4043515146
 20
78.8035424305
 30
0.0
 40
0.5
100
AcDbArc
 50
90.0
 51
180.0
  0
LINE
  5
14E
330
1F
100
AcDbEntity
  8
0
  6
Continuous
 62
     7
370
    25
100
AcDbLine
 10
188.4043515146
 20
98.2147547767
 30
0.0
 11
181.9483894005
 21
98.2147547767
 31
0.0
  0
LINE
  5
14F
330
1F
100
AcDbEntity
  8
0
  6
Continuous
 62
     7
370
    25
100
AcDbLine
 10
194.8603136288
 20
98.2147547767
 30
0.0
 11
188.4043515146
 21
98.2147547767
 31
0.0
  0
LINE
  5
150
330
1F
100
AcDbEntity
  8
0
  6
Continuous
 62
     7
370
    25
100
AcDbLine
 10
183.1543515146
 20
100.3035424305
 30
0.0
 11
193.6543515146
 21
100.3035424305
 31
0.0
  0
ARC
  5
151
330
1F
100
AcDbEntity
  8
0
  6
Continuous
 62
     7
370
    25
100
AcDbCircle
 10
196.9183672533
 20
79.6143592393
 30
0.0
 40
0.4600455413011356
100
AcDbArc
 50
175.3144463661
 51
237.1815121748
  0
ARC
  5
152
330
1F
100
AcDbEntity
  8
0
  6
Continuous
 62
     7
370
    25
100
AcDbCircle
 10
179.890335776
 20
79.6143592393
 30
0.0
 40
0.4600455413014085
100
AcDbArc
 50
302.8184878252
 51
4.6855536339
  0
SPLINE
  5
153
330
1F
100
AcDbEntity
  8
0
  6
Continuous
 62
     7
370
    25
100
AcDbSpline
210
0.0
220
0.0
230
1.0
 70
     8
 71
     3
 72
    12
 73
     8
 74
     0
 42
0.000000001
 43
0.00000001
 40
0.0
 40
0.0
 40
0.0
 40
0.0
 40
0.2500000000000002
 40
0.2500000000000002
 40
0.5000000000000001
 40
0.5000000000000001
 40
1.0
 40
1.0
 40
1.0
 40
1.0
 10
196.6690320419406
 20
79.2277407549393
 30
0.0
 10
196.7047186760443
 20
79.2054739127854
 30
0.0
 10
196.7382775523437
 20
79.19843588013097
 30
0.0
 10
196.7969212973989
 20
79.19756075864653
 30
0.0
 10
196.8221482133607
 20
79.20422475259562
 30
0.0
 10
196.8831820268612
 20
79.23487710201387
 30
0.0
 10
196.9043515146326
 20
79.26948578513839
 30
0.0
 10
196.9043515146326
 20
79.30354243049196
 30
0.0
  0
SPLINE
  5
154
330
1F
100
AcDbEntity
  8
0
  6
Continuous
 62
     7
370
    25
100
AcDbSpline
210
0.0
220
0.0
230
1.0
 70
    24
 71
     3
 72
    16
 73
    12
 74
     0
 42
0.000000001
 43
0.00000001
 40
0.0
 40
0.0
 40
0.0
 40
0.0
 40
0.2500000000000002
 40
0.2500000000000002
 40
0.5000000000000003
 40
0.5000000000000003
 40
0.7500000000000004
 40
0.7500000000000004
 40
0.8750000000000002
 40
0.8750000000000002
 40
1.0
 40
1.0
 40
1.0
 40
1.0
 10
196.9043515146326
 20
78.80354243049196
 30
0.0
 10
196.9043515146326
 20
78.80354243049196
 30
0.0
 10
196.9043515146326
 20
78.8234742161791
 30
0.0
 10
196.9043515146326
 20
78.88408076278266
 30
0.0
 10
196.9043515146326
 20
78.92519127022784
 30
0.0
 10
196.9043515146326
 20
79.01956772662705
 30
0.0
 10
196.9043515146326
 20
79.07293308848334
 30
0.0
 10
196.9043515146326
 20
79.15724024841795
 30
0.0
 10
196.9043515146326
 20
79.18606512525979
 30
0.0
 10
196.9043515146326
 20
79.2444242038253
 30
0.0
 10
196.9043515146326
 20
79.27367532504338
 30
0.0
 10
196.9043515146326
 20
79.30354243049196
 30
0.0
  0
SPLINE
  5
155
330
1F
100
AcDbEntity
  8
0
  6
Continuous
 62
     7
370
    25
100
AcDbSpline
210
0.0
220
0.0
230
1.0
 70
     8
 71
     3
 72
    12
 73
     8
 74
     0
 42
0.000000001
 43
0.00000001
 40
0.0
 40
0.0
 40
0.0
 40
0.0
 40
0.2500000000000002
 40
0.2500000000000002
 40
0.5000000000000001
 40
0.5000000000000001
 40
1.0
 40
1.0
 40
1.0
 40
1.0
 10
180.1396709873246
 20
79.2277407549393
 30
0.0
 10
180.1039843532208
 20
79.20547391278541
 30
0.0
 10
180.0704254769214
 20
79.19843588013097
 30
0.0
 10
180.0117817318662
 20
79.19756075864653
 30
0.0
 10
179.9865548159044
 20
79.20422475259561
 30
0.0
 10
179.9255210024039
 20
79.23487710201384
 30
0.0
 10
179.9043515146325
 20
79.26948578513824
 30
0.0
 10
179.9043515146325
 20
79.30354243049196
 30
0.0
  0
SPLINE
  5
156
330
1F
100
AcDbEntity
  8
0
  6
Continuous
 62
     7
370
    25
100
AcDbSpline
210
0.0
220
0.0
230
1.0
 70
    24
 71
     3
 72
    16
 73
    12
 74
     0
 42
0.000000001
 43
0.00000001
 40
0.0
 40
0.0
 40
0.0
 40
0.0
 40
0.2500000000000002
 40
0.2500000000000002
 40
0.5000000000000002
 40
0.5000000000000002
 40
0.7500000000000002
 40
0.7500000000000002
 40
0.8750000000000001
 40
0.8750000000000001
 40
1.0
 40
1.0
 40
1.0
 40
1.0
 10
179.9043515146325
 20
78.80354243049196
 30
0.0
 10
179.9043515146325
 20
78.80354243049196
 30
0.0
 10
179.9043515146325
 20
78.82347421617911
 30
0.0
 10
179.9043515146325
 20
78.88408076278267
 30
0.0
 10
179.9043515146325
 20
78.92519127022784
 30
0.0
 10
179.9043515146325
 20
79.01956772662705
 30
0.0
 10
179.9043515146325
 20
79.07293308848334
 30
0.0
 10
179.9043515146325
 20
79.15724024841795
 30
0.0
 10
179.9043515146325
 20
79.18606512525979
 30
0.0
 10
179.9043515146325
 20
79.2444242038253
 30
0.0
 10
179.9043515146325
 20
79.27367532504337
 30
0.0
 10
179.9043515146325
 20
79.30354243049196
 30
0.0
  0
LINE
  5
157
330
1F
100
AcDbEntity
  8
0
  6
Continuous
 62
     8
370
    25
100
AcDbLine
 10
195.7740530011
 20
79.8035424305
 30
0.0
 11
195.9599070702
 21
79.8035424305
 31
0.0
  0
LINE
  5
158
330
1F
100
AcDbEntity
  8
0
  6
Continuous
 62
     8
370
    25
100
AcDbLine
 10
180.8487959591
 20
79.8035424305
 30
0.0
 11
181.0346500281
 21
79.8035424305
 31
0.0
  0
LINE
  5
159
330
1F
100
AcDbEntity
  8
0
  6
Continuous
 62
     8
370
    25
100
AcDbLine
 10
196.9043515146
 20
78.8035424305
 30
0.0
 11
196.7896064303
 21
78.8035424305
 31
0.0
  0
LINE
  5
15A
330
1F
100
AcDbEntity
  8
0
  6
Continuous
 62
     8
370
    25
100
AcDbLine
 10
179.9043515146
 20
78.8035424305
 30
0.0
 11
180.019096599
 21
78.8035424305
 31
0.0
  0
LWPOLYLINE
  5
15B
330
1F
100
AcDbEntity
  8
0
  6
Continuous
 62
     8
370
    25
100
AcDbPolyline
 90
        3
 70
   128
 43
0.0
 10
196.4043515146
 20
79.3035424305
 10
196.3176447048
 20
79.3131497903
 10
196.2997731392
 20
79.3175811982
  0
ARC
  5
15C
330
1F
100
AcDbEntity
  8
0
  6
Continuous
 62
     8
370
    25
100
AcDbCircle
 10
196.5115221122
 20
79.8024297646
 30
0.0
 40
0.5516161641533787
100
AcDbArc
 50
179.8844285062
 51
200.8856640101
  0
ARC
  5
15D
330
1F
100
AcDbEntity
  8
0
  6
Continuous
 62
     8
370
    25
100
AcDbCircle
 10
180.2971809171
 20
79.8024297646
 30
0.0
 40
0.5516161641394565
100
AcDbArc
 50
339.1143359896
 51
0.1155714941
  0
LWPOLYLINE
  5
15E
330
1F
100
AcDbEntity
  8
0
  6
Continuous
 62
     8
370
    25
100
AcDbPolyline
 90
        3
 70
   128
 43
0.0
 10
180.5089298901
 20
79.3175811982
 10
180.4910583244
 20
79.3131497903
 10
180.4043515146
 20
79.3035424305
  0
LINE
  5
15F
330
1F
100
AcDbEntity
  8
0
  6
Continuous
 62
     8
370
    25
100
AcDbLine
 10
196.4043515146
 20
79.2131884403
 30
0.0
 11
196.4043515146
 21
79.3035424305
 31
0.0
  0
LINE
  5
160
330
1F
100
AcDbEntity
  8
0
  6
Continuous
 62
     8
370
    25
100
AcDbLine
 10
180.4043515146
 20
79.3035424305
 30
0.0
 11
180.4043515146
 21
79.2131884403
 31
0.0
  0
INSERT
  5
16C
330
1F
100
AcDbEntity
  8
0
  6
Continuous
 62
     7
370
    18
100
AcDbBlockReference
  2
SW_CENTERMARKSYMBOL_0
 10
188.4043515146
 20
71.3035424305
 30
0.0
  0
ARC
  5
16D
330
1F
100
AcDbEntity
  8
0
  6
Continuous
 62
     7
370
    18
100
AcDbCircle
 10
188.4043515146
 20
71.3035424305
 30
0.0
 40
8.334121499999995
100
AcDbArc
 50
75.0
 51
345.0
  0
ARC
  5
16E
330
1F
100
AcDbEntity
  8
0
  6
Continuous
 62
     7
370
    18
100
AcDbCircle
 10
188.4043515146
 20
71.3035424305
 30
0.0
 40
8.334121499999995
100
AcDbArc
 50
75.0
 51
345.0
  0
LINE
  5
16F
330
1F
100
AcDbEntity
  8
0
  6
Continuous
 62
     7
370
    18
100
AcDbLine
 10
194.1538898185
 20
99.4383167079
 30
0.0
 11
194.5018515146
 21
88.3035424305
 31
0.0
  0
LINE
  5
170
330
1F
100
AcDbEntity
  8
0
  6
Continuous
 62
     7
370
    18
100
AcDbLine
 10
182.6548132108
 20
99.4383167079
 30
0.0
 11
182.3068515146
 21
88.3035424305
 31
0.0
  0
LINE
  5
171
330
1F
100
AcDbEntity
  8
0
  6
Continuous
 62
     7
370
    18
100
AcDbLine
 10
181.6386640146
 20
88.3035424305
 30
0.0
 11
195.1700390146
 21
88.3035424305
 31
0.0
  0
LINE
  5
172
330
1F
100
AcDbEntity
  8
0
  6
Continuous
 62
     7
370
    25
100
AcDbLine
 10
90.6919236531
 20
151.3679797978
 30
0.0
 11
90.1919236531
 21
150.8679797978
 31
0.0
  0
LINE
  5
173
330
1F
100
AcDbEntity
  8
0
  6
Continuous
 62
     7
370
    25
100
AcDbLine
 10
90.1919236531
 20
129.3679797978
 30
0.0
 11
90.6919236531
 21
128.8679797978
 31
0.0
  0
LINE
  5
174
330
1F
100
AcDbEntity
  8
0
  6
Continuous
 62
     7
370
    25
100
AcDbLine
 10
147.6919236531
 20
128.8679797978
 30
0.0
 11
148.1919236531
 21
129.3679797978
 31
0.0
  0
LINE
  5
175
330
1F
100
AcDbEntity
  8
0
  6
Continuous
 62
     7
370
    25
100
AcDbLine
 10
148.1919236531
 20
150.8679797978
 30
0.0
 11
147.6919236531
 21
151.3679797978
 31
0.0
  0
LINE
  5
176
330
1F
100
AcDbEntity
  8
0
  6
Continuous
 62
     7
370
    25
100
AcDbLine
 10
90.6919236531
 20
128.8679797978
 30
0.0
 11
103.1919236531
 21
128.8679797978
 31
0.0
  0
LINE
  5
177
330
1F
100
AcDbEntity
  8
0
  6
Continuous
 62
     7
370
    25
100
AcDbLine
 10
103.1919236531
 20
151.3679797978
 30
0.0
 11
90.6919236531
 21
151.3679797978
 31
0.0
  0
ARC
  5
178
330
1F
100
AcDbEntity
  8
0
  6
Continuous
 62
     7
370
    25
100
AcDbCircle
 10
103.1919236531
 20
129.8679797978
 30
0.0
 40
1.0
100
AcDbArc
 50
270.0
 51
0.0
  0
ARC
  5
179
330
1F
100
AcDbEntity
  8
0
  6
Continuous
 62
     7
370
    25
100
AcDbCircle
 10
103.1919236531
 20
150.3679797978
 30
0.0
 40
1.0
100
AcDbArc
 50
0.0
 51
90.0
  0
ARC
  5
17A
330
1F
100
AcDbEntity
  8
0
  6
Continuous
 62
     7
370
    25
100
AcDbCircle
 10
135.1919236531
 20
150.3679797978
 30
0.0
 40
1.0
100
AcDbArc
 50
90.0
 51
180.0
  0
ARC
  5
17B
330
1F
100
AcDbEntity
  8
0
  6
Continuous
 62
     7
370
    25
100
AcDbCircle
 10
135.1919236531
 20
129.8679797978
 30
0.0
 40
1.0
100
AcDbArc
 50
180.0
 51
270.0
  0
LINE
  5
17C
330
1F
100
AcDbEntity
  8
0
  6
Continuous
 62
     7
370
    25
100
AcDbLine
 10
147.6919236531
 20
151.3679797978
 30
0.0
 11
135.1919236531
 21
151.3679797978
 31
0.0
  0
LINE
  5
17D
330
1F
100
AcDbEntity
  8
0
  6
Continuous
 62
     7
370
    25
100
AcDbLine
 10
135.1919236531
 20
128.8679797978
 30
0.0
 11
147.6919236531
 21
128.8679797978
 31
0.0
  0
ARC
  5
17E
330
1F
100
AcDbEntity
  8
0
  6
Continuous
 62
     7
370
    25
100
AcDbCircle
 10
133.1919236531
 20
149.6179797978
 30
0.0
 40
1.0
100
AcDbArc
 50
270.0
 51
0.0
  0
ARC
  5
17F
330
1F
100
AcDbEntity
  8
0
  6
Continuous
 62
     7
370
    25
100
AcDbCircle
 10
133.1919236531
 20
130.6179797978
 30
0.0
 40
1.0
100
AcDbArc
 50
0.0
 51
90.0
  0
ARC
  5
180
330
1F
100
AcDbEntity
  8
0
  6
Continuous
 62
     7
370
    25
100
AcDbCircle
 10
105.1919236531
 20
130.6179797978
 30
0.0
 40
1.0
100
AcDbArc
 50
90.0
 51
180.0
  0
ARC
  5
181
330
1F
100
AcDbEntity
  8
0
  6
Continuous
 62
     7
370
    25
100
AcDbCircle
 10
105.1919236531
 20
149.6179797978
 30
0.0
 40
1.0
100
AcDbArc
 50
180.0
 51
270.0
  0
LINE
  5
182
330
1F
100
AcDbEntity
  8
0
  6
Continuous
 62
     7
370
    25
100
AcDbLine
 10
110.6919236531
 20
148.6179797978
 30
0.0
 11
105.1919236531
 21
148.6179797978
 31
0.0
  0
LINE
  5
183
330
1F
100
AcDbEntity
  8
0
  6
Continuous
 62
     7
370
    25
100
AcDbLine
 10
133.1919236531
 20
148.6179797978
 30
0.0
 11
129.4419236531
 21
148.6179797978
 31
0.0
  0
LINE
  5
184
330
1F
100
AcDbEntity
  8
0
  6
Continuous
 62
     7
370
    25
100
AcDbLine
 10
127.9419236531
 20
148.6179797978
 30
0.0
 11
127.6919236531
 21
148.6179797978
 31
0.0
  0
LINE
  5
185
330
1F
100
AcDbEntity
  8
0
  6
Continuous
 62
     7
370
    25
100
AcDbLine
 10
127.6919236531
 20
131.6179797978
 30
0.0
 11
133.1919236531
 21
131.6179797978
 31
0.0
  0
LINE
  5
186
330
1F
100
AcDbEntity
  8
0
  6
Continuous
 62
     7
370
    25
100
AcDbLine
 10
105.1919236531
 20
131.6179797978
 30
0.0
 11
110.6919236531
 21
131.6179797978
 31
0.0
  0
ARC
  5
187
330
1F
100
AcDbEntity
  8
0
  6
Continuous
 62
     7
370
    25
100
AcDbCircle
 10
128.9836660836
 20
148.4179797978
 30
0.0
 40
0.5000000000000107
100
AcDbArc
 50
23.5781784782
 51
90.0
  0
ARC
  5
188
330
1F
100
AcDbEntity
  8
0
  6
Continuous
 62
     7
370
    25
100
AcDbCircle
 10
128.4001812226
 20
148.4179797978
 30
0.0
 40
0.5
100
AcDbArc
 50
90.0
 51
156.4218215218
  0
CIRCLE
  5
189
330
1F
100
AcDbEntity
  8
0
  6
Continuous
 62
     7
370
    25
100
AcDbCircle
 10
119.1919236531
 20
140.1179797978
 30
0.0
 40
5.25
  0
CIRCLE
  5
18A
330
1F
100
AcDbEntity
  8
0
  6
Continuous
 62
     7
370
    25
100
AcDbCircle
 10
119.1919236531
 20
140.1179797978
 30
0.0
 40
6.45596211418011
  0
CIRCLE
  5
18B
330
1F
100
AcDbEntity
  8
0
  6
Continuous
 62
     7
370
    25
100
AcDbCircle
 10
119.1919236531
 20
140.1179797978
 30
0.0
 40
4.0
  0
CIRCLE
  5
18C
330
1F
100
AcDbEntity
  8
0
  6
Continuous
 62
     7
370
    25
100
AcDbCircle
 10
119.1919236531
 20
140.1179797978
 30
0.0
 40
4.499999999999986
  0
CIRCLE
  5
18D
330
1F
100
AcDbEntity
  8
0
  6
Continuous
 62
     7
370
    25
100
AcDbCircle
 10
119.1919236531
 20
140.1179797978
 30
0.0
 40
6.828187499999999
  0
CIRCLE
  5
18E
330
1F
100
AcDbEntity
  8
0
  6
Continuous
 62
     7
370
    25
100
AcDbCircle
 10
119.1919236531
 20
140.1179797978
 30
0.0
 40
8.5
  0
LINE
  5
18F
330
1F
100
AcDbEntity
  8
0
  6
Continuous
 62
     7
370
    25
100
AcDbLine
 10
90.6919236531
 20
151.3679797978
 30
0.0
 11
90.6919236531
 21
128.8679797978
 31
0.0
  0
LINE
  5
190
330
1F
100
AcDbEntity
  8
0
  6
Continuous
 62
     7
370
    25
100
AcDbLine
 10
90.1919236531
 20
129.3679797978
 30
0.0
 11
90.1919236531
 21
150.8679797978
 31
0.0
  0
LINE
  5
191
330
1F
100
AcDbEntity
  8
0
  6
Continuous
 62
     7
370
    25
100
AcDbLine
 10
148.1919236531
 20
150.8679797978
 30
0.0
 11
148.1919236531
 21
129.3679797978
 31
0.0
  0
LINE
  5
192
330
1F
100
AcDbEntity
  8
0
  6
Continuous
 62
     7
370
    25
100
AcDbLine
 10
147.6919236531
 20
128.8679797978
 30
0.0
 11
147.6919236531
 21
151.3679797978
 31
0.0
  0
LINE
  5
193
330
1F
100
AcDbEntity
  8
0
  6
Continuous
 62
     7
370
    25
100
AcDbLine
 10
104.1919236531
 20
150.3679797966
 30
0.0
 11
104.1919236531
 21
129.8679797978
 31
0.0
  0
LINE
  5
194
330
1F
100
AcDbEntity
  8
0
  6
Continuous
 62
     7
370
    25
100
AcDbLine
 10
134.1919236531
 20
129.8679797989
 30
0.0
 11
134.1919236531
 21
150.3679797978
 31
0.0
  0
ELLIPSE
  5
195
330
1F
100
AcDbEntity
  8
0
  6
Continuous
 62
     7
370
    25
100
AcDbEllipse
 10
119.1919236531
 20
140.1179797978
 30
0.0
 11
9.000000000000014
 21
0.0
 31
0.0
210
0.0
220
0.0
230
1.0
 40
0.9444444444
 41
2.555907110132641
 42
3.727278197046957
  0
LWPOLYLINE
  5
196
330
1F
100
AcDbEntity
  8
0
  6
Continuous
 62
     7
370
    25
100
AcDbPolyline
 90
        9
 70
   128
 43
0.0
 10
111.6919236531
 20
144.8165315841
 10
111.7605750973
 20
144.7883302724
 10
111.8275263351
 20
144.7676722876
 10
111.891119267
 20
144.7550692406
 10
111.9497789646
 20
144.7508332558
 10
112.0020526748
 20
144.7550692406
 10
112.0466457986
 20
144.7676722876
 10
112.0824539525
 20
144.7883302724
 10
112.1085903197
 20
144.8165315841
  0
LWPOLYLINE
  5
197
330
1F
100
AcDbEntity
  8
0
  6
Continuous
 62
     7
370
    25
100
AcDbPolyline
 90
        9
 70
   128
 43
0.0
 10
111.6919236531
 20
135.4194280114
 10
111.7605750973
 20
135.4476293231
 10
111.8275263351
 20
135.4682873079
 10
111.891119267
 20
135.4808903549
 10
111.9497789646
 20
135.4851263397
 10
112.0020526748
 20
135.4808903549
 10
112.0466457986
 20
135.4682873079
 10
112.0824539525
 20
135.4476293231
 10
112.1085903197
 20
135.4194280114
  0
LWPOLYLINE
  5
198
330
1F
100
AcDbEntity
  8
0
  6
Continuous
 62
     7
370
    25
100
AcDbPolyline
 90
        9
 70
   128
 43
0.0
 10
126.2752569864
 20
144.8165315841
 10
126.3013933536
 20
144.7883302724
 10
126.3372015075
 20
144.7676722876
 10
126.3817946313
 20
144.7550692406
 10
126.4340683415
 20
144.7508332558
 10
126.4927280391
 20
144.7550692406
 10
126.556320971
 20
144.7676722876
 10
126.6232722088
 20
144.7883302724
 10
126.6919236531
 20
144.8165315841
  0
ELLIPSE
  5
199
330
1F
100
AcDbEntity
  8
0
  6
Continuous
 62
     7
370
    25
100
AcDbEllipse
 10
119.1919236531
 20
140.1179797978
 30
0.0
 11
9.000000000000014
 21
0.0
 31
0.0
210
0.0
220
0.0
230
1.0
 40
0.9444444444
 41
5.697499763722449
 42
6.868870850636737
  0
LWPOLYLINE
  5
19A
330
1F
100
AcDbEntity
  8
0
  6
Continuous
 62
     7
370
    25
100
AcDbPolyline
 90
        9
 70
   128
 43
0.0
 10
126.2752569864
 20
135.4194280114
 10
126.3013933536
 20
135.4476293231
 10
126.3372015075
 20
135.4682873079
 10
126.3817946313
 20
135.4808903549
 10
126.4340683415
 20
135.4851263397
 10
126.4927280391
 20
135.4808903549
 10
126.556320971
 20
135.4682873079
 10
126.6232722088
 20
135.4476293231
 10
126.6919236531
 20
135.4194280114
  0
LINE
  5
19B
330
1F
100
AcDbEntity
  8
0
  6
Continuous
 62
     7
370
    25
100
AcDbLine
 10
122.0642049763
 20
148.6179797978
 30
0.0
 11
122.0642049763
 21
148.3826603251
 31
0.0
  0
SPLINE
  5
19C
330
1F
100
AcDbEntity
  8
0
  6
Continuous
 62
     7
370
    25
100
AcDbSpline
210
0.0
220
0.0
230
1.0
 70
     8
 71
     3
 72
    12
 73
     8
 74
     0
 42
0.000000001
 43
0.00000001
 40
0.0
 40
0.0
 40
0.0
 40
0.0
 40
0.2500000000000002
 40
0.2500000000000002
 40
0.5000000000000001
 40
0.5000000000000001
 40
1.0
 40
1.0
 40
1.0
 40
1.0
 10
122.064204976327
 20
148.3826603250716
 30
0.0
 10
121.8267924182067
 20
148.4183469591754
 30
0.0
 10
121.5886824040401
 20
148.4519058354748
 30
0.0
 10
121.110984276778
 20
148.51054958053
 30
0.0
 10
120.8713614201614
 20
148.5357764964918
 30
0.0
 10
120.1526456660254
 20
148.5968103099922
 30
0.0
 10
119.6718287014059
 20
148.6179797977636
 30
0.0
 10
119.191923653058
 20
148.6179797977636
 30
0.0
  0
SPLINE
  5
19D
330
1F
100
AcDbEntity
  8
0
  6
Continuous
 62
     7
370
    25
100
AcDbSpline
210
0.0
220
0.0
230
1.0
 70
    24
 71
     3
 72
    16
 73
    12
 74
     0
 42
0.000000001
 43
0.00000001
 40
0.0
 40
0.0
 40
0.0
 40
0.0
 40
0.2500000000000002
 40
0.2500000000000002
 40
0.5000000000000003
 40
0.5000000000000003
 40
0.7500000000000004
 40
0.7500000000000004
 40
0.8750000000000002
 40
0.8750000000000002
 40
1.0
 40
1.0
 40
1.0
 40
1.0
 10
122.064204976327
 20
148.6179797977636
 30
0.0
 10
121.8179096440632
 20
148.6179797977636
 30
0.0
 10
121.5743897092892
 20
148.6179797977636
 30
0.0
 10
121.0917037359139
 20
148.6179797977636
 30
0.0
 10
120.8522632671393
 20
148.6179797977636
 30
0.0
 10
120.3755221874762
 20
148.6179797977636
 30
0.0
 10
120.1382390773493
 20
148.6179797977636
 30
0.0
 10
119.7830641920345
 20
148.6179797977636
 30
0.0
 10
119.6647997516005
 20
148.6179797977636
 30
0.0
 10
119.4283957410994
 20
148.6179797977636
 30
0.0
 10
119.3113932695429
 20
148.6179797977636
 30
0.0
 10
119.191923653058
 20
148.6179797977636
 30
0.0
  0
LINE
  5
19E
330
1F
100
AcDbEntity
  8
0
  6
Continuous
 62
     7
370
    25
100
AcDbLine
 10
116.3196423298
 20
131.6179797978
 30
0.0
 11
116.3196423298
 21
131.8532992705
 31
0.0
  0
SPLINE
  5
19F
330
1F
100
AcDbEntity
  8
0
  6
Continuous
 62
     7
370
    25
100
AcDbSpline
210
0.0
220
0.0
230
1.0
 70
     8
 71
     3
 72
    12
 73
     8
 74
     0
 42
0.000000001
 43
0.00000001
 40
0.0
 40
0.0
 40
0.0
 40
0.0
 40
0.2500000000000001
 40
0.2500000000000001
 40
0.5000000000000002
 40
0.5000000000000002
 40
1.0
 40
1.0
 40
1.0
 40
1.0
 10
116.319642329789
 20
131.8532992704556
 30
0.0
 10
116.5570548878914
 20
131.8176126363545
 30
0.0
 10
116.79516490204
 20
131.7840537600575
 30
0.0
 10
117.2728630292659
 20
131.7254100150054
 30
0.0
 10
117.5124858858645
 20
131.7001830990446
 30
0.0
 10
118.2312016399462
 20
131.6391492855443
 30
0.0
 10
118.7120186047495
 20
131.6179797977636
 30
0.0
 10
119.191923653058
 20
131.6179797977636
 30
0.0
  0
SPLINE
  5
1A0
330
1F
100
AcDbEntity
  8
0
  6
Continuous
 62
     7
370
    25
100
AcDbSpline
210
0.0
220
0.0
230
1.0
 70
    24
 71
     3
 72
    16
 73
    12
 74
     0
 42
0.000000001
 43
0.00000001
 40
0.0
 40
0.0
 40
0.0
 40
0.0
 40
0.2500000000000003
 40
0.2500000000000003
 40
0.5000000000000006
 40
0.5000000000000006
 40
0.7500000000000006
 40
0.7500000000000006
 40
0.8750000000000003
 40
0.8750000000000003
 40
1.0
 40
1.0
 40
1.0
 40
1.0
 10
116.319642329789
 20
131.6179797977636
 30
0.0
 10
116.5659376620528
 20
131.6179797977636
 30
0.0
 10
116.8094575968267
 20
131.6179797977636
 30
0.0
 10
117.292143570202
 20
131.6179797977636
 30
0.0
 10
117.5315840389767
 20
131.6179797977636
 30
0.0
 10
118.0083251186398
 20
131.6179797977636
 30
0.0
 10
118.2456082287667
 20
131.6179797977636
 30
0.0
 10
118.6007831140815
 20
131.6179797977636
 30
0.0
 10
118.7190475545155
 20
131.6179797977636
 30
0.0
 10
118.9554515650166
 20
131.6179797977636
 30
0.0
 10
119.072454036573
 20
131.6179797977636
 30
0.0
 10
119.191923653058
 20
131.6179797977636
 30
0.0
  0
SPLINE
  5
1A1
330
1F
100
AcDbEntity
  8
0
  6
Continuous
 62
     7
370
    25
100
AcDbSpline
210
0.0
220
0.0
230
1.0
 70
     8
 71
     3
 72
    12
 73
     8
 74
     0
 42
0.000000001
 43
0.00000001
 40
0.0
 40
0.0
 40
0.0
 40
0.0
 40
0.2500000000000002
 40
0.2500000000000002
 40
0.5000000000000001
 40
0.5000000000000001
 40
1.0
 40
1.0
 40
1.0
 40
1.0
 10
116.319642329789
 20
148.3826603250716
 30
0.0
 10
116.5570548878914
 20
148.4183469591727
 30
0.0
 10
116.7951649020399
 20
148.4519058354697
 30
0.0
 10
117.2728630292657
 20
148.5105495805218
 30
0.0
 10
117.5124858858641
 20
148.5357764964826
 30
0.0
 10
118.2312016399456
 20
148.5968103099829
 30
0.0
 10
118.7120186047496
 20
148.6179797977636
 30
0.0
 10
119.191923653058
 20
148.6179797977636
 30
0.0
  0
LINE
  5
1A2
330
1F
100
AcDbEntity
  8
0
  6
Continuous
 62
     7
370
    25
100
AcDbLine
 10
116.3196423298
 20
148.3826603251
 30
0.0
 11
116.3196423298
 21
148.6179797978
 31
0.0
  0
SPLINE
  5
1A3
330
1F
100
AcDbEntity
  8
0
  6
Continuous
 62
     7
370
    25
100
AcDbSpline
210
0.0
220
0.0
230
1.0
 70
    24
 71
     3
 72
    16
 73
    12
 74
     0
 42
0.000000001
 43
0.00000001
 40
0.0
 40
0.0
 40
0.0
 40
0.0
 40
0.2500000000000001
 40
0.2500000000000001
 40
0.5000000000000002
 40
0.5000000000000002
 40
0.7500000000000003
 40
0.7500000000000003
 40
0.8750000000000002
 40
0.8750000000000002
 40
1.0
 40
1.0
 40
1.0
 40
1.0
 10
116.319642329789
 20
148.6179797977636
 30
0.0
 10
116.5659376620527
 20
148.6179797977636
 30
0.0
 10
116.8094575968268
 20
148.6179797977636
 30
0.0
 10
117.292143570202
 20
148.6179797977636
 30
0.0
 10
117.5315840389767
 20
148.6179797977636
 30
0.0
 10
118.0083251186398
 20
148.6179797977636
 30
0.0
 10
118.2456082287667
 20
148.6179797977636
 30
0.0
 10
118.6007831140815
 20
148.6179797977636
 30
0.0
 10
118.7190475545155
 20
148.6179797977636
 30
0.0
 10
118.9554515650166
 20
148.6179797977636
 30
0.0
 10
119.0724540365731
 20
148.6179797977636
 30
0.0
 10
119.191923653058
 20
148.6179797977636
 30
0.0
  0
SPLINE
  5
1A4
330
1F
100
AcDbEntity
  8
0
  6
Continuous
 62
     7
370
    25
100
AcDbSpline
210
0.0
220
0.0
230
1.0
 70
     8
 71
     3
 72
    12
 73
     8
 74
     0
 42
0.000000001
 43
0.00000001
 40
0.0
 40
0.0
 40
0.0
 40
0.0
 40
0.2500000000000002
 40
0.2500000000000002
 40
0.5000000000000001
 40
0.5000000000000001
 40
1.0
 40
1.0
 40
1.0
 40
1.0
 10
122.064204976327
 20
131.8532992704556
 30
0.0
 10
121.8267924182068
 20
131.8176126363519
 30
0.0
 10
121.5886824040403
 20
131.7840537600525
 30
0.0
 10
121.1109842767783
 20
131.7254100149973
 30
0.0
 10
120.8713614201618
 20
131.7001830990355
 30
0.0
 10
120.152645666026
 20
131.639149285535
 30
0.0
 10
119.6718287014058
 20
131.6179797977636
 30
0.0
 10
119.191923653058
 20
131.6179797977636
 30
0.0
  0
LINE
  5
1A5
330
1F
100
AcDbEntity
  8
0
  6
Continuous
 62
     7
370
    25
100
AcDbLine
 10
122.0642049763
 20
131.6179797978
 30
0.0
 11
122.0642049763
 21
131.8532992705
 31
0.0
  0
SPLINE
  5
1A6
330
1F
100
AcDbEntity
  8
0
  6
Continuous
 62
     7
370
    25
100
AcDbSpline
210
0.0
220
0.0
230
1.0
 70
    24
 71
     3
 72
    16
 73
    12
 74
     0
 42
0.000000001
 43
0.00000001
 40
0.0
 40
0.0
 40
0.0
 40
0.0
 40
0.2500000000000002
 40
0.2500000000000002
 40
0.5000000000000002
 40
0.5000000000000002
 40
0.7500000000000002
 40
0.7500000000000002
 40
0.8750000000000001
 40
0.8750000000000001
 40
1.0
 40
1.0
 40
1.0
 40
1.0
 10
122.064204976327
 20
131.6179797977636
 30
0.0
 10
121.8179096440632
 20
131.6179797977636
 30
0.0
 10
121.5743897092892
 20
131.6179797977636
 30
0.0
 10
121.0917037359139
 20
131.6179797977636
 30
0.0
 10
120.8522632671392
 20
131.6179797977636
 30
0.0
 10
120.3755221874762
 20
131.6179797977636
 30
0.0
 10
120.1382390773492
 20
131.6179797977636
 30
0.0
 10
119.7830641920345
 20
131.6179797977636
 30
0.0
 10
119.6647997516004
 20
131.6179797977636
 30
0.0
 10
119.4283957410993
 20
131.6179797977636
 30
0.0
 10
119.3113932695429
 20
131.6179797977636
 30
0.0
 10
119.191923653058
 20
131.6179797977636
 30
0.0
  0
LINE
  5
1A7
330
1F
100
AcDbEntity
  8
0
  6
Continuous
 62
     7
370
    25
100
AcDbLine
 10
115.2978794511
 20
147.6735353533
 30
0.0
 11
115.0688180274
 21
148.1179797978
 31
0.0
  0
SPLINE
  5
1A8
330
1F
100
AcDbEntity
  8
0
  6
Continuous
 62
     7
370
    25
100
AcDbSpline
210
0.0
220
0.0
230
1.0
 70
     8
 71
     3
 72
     8
 73
     4
 74
     0
 42
0.000000001
 43
0.00000001
 40
0.0
 40
0.0
 40
0.0
 40
0.0
 40
1.0
 40
1.0
 40
1.0
 40
1.0
 10
115.0688180274403
 20
148.1179797977636
 30
0.0
 10
115.4830069599227
 20
148.2247138426128
 30
0.0
 10
115.9003171227158
 20
148.3120559765805
 30
0.0
 10
116.3196423297896
 20
148.3826603250739
 30
0.0
  0
ARC
  5
1A9
330
1F
100
AcDbEntity
  8
0
  6
Continuous
 62
     7
370
    25
100
AcDbCircle
 10
116.6289850762
 20
148.4531955898
 30
0.0
 40
0.3172824582930762
100
AcDbArc
 50
192.8447840385
 51
241.8328834238
  0
SPLINE
  5
1AA
330
1F
100
AcDbEntity
  8
0
  6
Continuous
 62
     7
370
    25
100
AcDbSpline
210
0.0
220
0.0
230
1.0
 70
     8
 71
     3
 72
     8
 73
     4
 74
     0
 42
0.000000001
 43
0.00000001
 40
0.0
 40
0.0
 40
0.0
 40
0.0
 40
1.0
 40
1.0
 40
1.0
 40
1.0
 10
122.064204976327
 20
148.3826603250716
 30
0.0
 10
122.4834563157213
 20
148.3120684141309
 30
0.0
 10
122.9009792794824
 20
148.2246780403237
 30
0.0
 10
123.3150292786756
 20
148.1179797977636
 30
0.0
  0
LINE
  5
1AB
330
1F
100
AcDbEntity
  8
0
  6
Continuous
 62
     7
370
    25
100
AcDbLine
 10
123.3150292787
 20
148.1179797978
 30
0.0
 11
123.085967855
 21
147.6735353533
 31
0.0
  0
ARC
  5
1AC
330
1F
100
AcDbEntity
  8
0
  6
Continuous
 62
     7
370
    25
100
AcDbCircle
 10
121.7548622299
 20
148.4531955898
 30
0.0
 40
0.3172824582927197
100
AcDbArc
 50
298.1671165762
 51
347.1552159615
  0
SPLINE
  5
1AD
330
1F
100
AcDbEntity
  8
0
  6
Continuous
 62
     7
370
    25
100
AcDbSpline
210
0.0
220
0.0
230
1.0
 70
     8
 71
     3
 72
     8
 73
     4
 74
     0
 42
0.000000001
 43
0.00000001
 40
0.0
 40
0.0
 40
0.0
 40
0.0
 40
1.0
 40
1.0
 40
1.0
 40
1.0
 10
116.319642329789
 20
131.8532992704556
 30
0.0
 10
115.9003909903946
 20
131.9238911813964
 30
0.0
 10
115.4828680266336
 20
132.0112815552036
 30
0.0
 10
115.0688180274403
 20
132.1179797977636
 30
0.0
  0
LINE
  5
1AE
330
1F
100
AcDbEntity
  8
0
  6
Continuous
 62
     7
370
    25
100
AcDbLine
 10
115.0688180274
 20
132.1179797978
 30
0.0
 11
115.2978794511
 21
132.5624242422
 31
0.0
  0
ARC
  5
1AF
330
1F
100
AcDbEntity
  8
0
  6
Continuous
 62
     7
370
    25
100
AcDbCircle
 10
116.6289850762
 20
131.7827640057
 30
0.0
 40
0.3172824582926799
100
AcDbArc
 50
118.1671165762
 51
167.1552159615
  0
LINE
  5
1B0
330
1F
100
AcDbEntity
  8
0
  6
Continuous
 62
     7
370
    25
100
AcDbLine
 10
123.085967855
 20
132.5624242422
 30
0.0
 11
123.3150292787
 21
132.1179797978
 31
0.0
  0
SPLINE
  5
1B1
330
1F
100
AcDbEntity
  8
0
  6
Continuous
 62
     7
370
    25
100
AcDbSpline
210
0.0
220
0.0
230
1.0
 70
     8
 71
     3
 72
     8
 73
     4
 74
     0
 42
0.000000001
 43
0.00000001
 40
0.0
 40
0.0
 40
0.0
 40
0.0
 40
1.0
 40
1.0
 40
1.0
 40
1.0
 10
123.3150292786756
 20
132.1179797977636
 30
0.0
 10
122.9008403461932
 20
132.0112457529144
 30
0.0
 10
122.4835301834002
 20
131.9239036189467
 30
0.0
 10
122.0642049763265
 20
131.8532992704533
 30
0.0
  0
ARC
  5
1B2
330
1F
100
AcDbEntity
  8
0
  6
Continuous
 62
     7
370
    25
100
AcDbCircle
 10
121.7548622299
 20
131.7827640057
 30
0.0
 40
0.3172824582928204
100
AcDbArc
 50
12.8447840385
 51
61.8328834238
  0
SPLINE
  5
1B3
330
1F
100
AcDbEntity
  8
0
  6
Continuous
 62
     7
370
    25
100
AcDbSpline
210
0.0
220
0.0
230
1.0
 70
     8
 71
     3
 72
    12
 73
     8
 74
     0
 42
0.000000001
 43
0.00000001
 40
0.0
 40
0.0
 40
0.0
 40
0.0
 40
0.2499999999999999
 40
0.2499999999999999
 40
0.5
 40
0.5
 40
1.0
 40
1.0
 40
1.0
 40
1.0
 10
128.0403203019527
 20
132.0624721350707
 30
0.0
 10
127.9923621462809
 20
131.9898806223117
 30
0.0
 10
127.9560797311866
 20
131.9254943564216
 30
0.0
 10
127.8907578541505
 20
131.8144194623056
 30
0.0
 10
127.862397338196
 20
131.767794044867
 30
0.0
 10
127.7831409316339
 20
131.6558414066649
 30
0.0
 10
127.7376701545069
 20
131.6179797977636
 30
0.0
 10
127.691923653058
 20
131.6179797977636
 30
0.0
  0
SPLINE
  5
1B4
330
1F
100
AcDbEntity
  8
0
  6
Continuous
 62
     7
370
    25
100
AcDbSpline
210
0.0
220
0.0
230
1.0
 70
     8
 71
     3
 72
     8
 73
     4
 74
     0
 42
0.000000001
 43
0.00000001
 40
0.0
 40
0.0
 40
0.0
 40
0.0
 40
1.0
 40
1.0
 40
1.0
 40
1.0
 10
128.191923653058
 20
132.562424242208
 30
0.0
 10
128.191923653058
 20
132.3632313197543
 30
0.0
 10
128.1297606650073
 20
132.1978528886652
 30
0.0
 10
128.0403203019527
 20
132.0624721350707
 30
0.0
  0
LINE
  5
1B5
330
1F
100
AcDbEntity
  8
0
  6
Continuous
 62
     7
370
    25
100
AcDbLine
 10
128.1919236531
 20
134.7753952288
 30
0.0
 11
128.1919236531
 21
132.5624242422
 31
0.0
  0
LINE
  5
1B6
330
1F
100
AcDbEntity
  8
0
  6
Continuous
 62
     7
370
    25
100
AcDbLine
 10
127.1919236531
 20
134.7753952288
 30
0.0
 11
128.1919236531
 21
134.7753952288
 31
0.0
  0
SPLINE
  5
1B7
330
1F
100
AcDbEntity
  8
0
  6
Continuous
 62
     7
370
    25
100
AcDbSpline
210
0.0
220
0.0
230
1.0
 70
     8
 71
     3
 72
    14
 73
    10
 74
     0
 42
0.000000001
 43
0.00000001
 40
0.0
 40
0.0
 40
0.0
 40
0.0
 40
0.2499999999999995
 40
0.2499999999999995
 40
0.499999999999999
 40
0.499999999999999
 40
0.7499999999999984
 40
0.7499999999999984
 40
1.0
 40
1.0
 40
1.0
 40
1.0
 10
126.691923653058
 20
135.4194280114268
 30
0.0
 10
126.691923653058
 20
135.3471386426286
 30
0.0
 10
126.699454543056
 20
135.2764066703545
 30
0.0
 10
126.7329350706883
 20
135.1382997761191
 30
0.0
 10
126.7590442736133
 20
135.0709268783301
 30
0.0
 10
126.8353352612553
 20
134.9476880582405
 30
0.0
 10
126.8862723420479
 20
134.8904882054154
 30
0.0
 10
127.0205609390717
 20
134.8034061346759
 30
0.0
 10
127.1041278667313
 20
134.7753952287986
 30
0.0
 10
127.191923653058
 20
134.7753952287986
 30
0.0
  0
SPLINE
  5
1B8
330
1F
100
AcDbEntity
  8
0
  6
Continuous
 62
     7
370
    25
100
AcDbSpline
210
0.0
220
0.0
230
1.0
 70
     8
 71
     3
 72
    14
 73
    10
 74
     0
 42
0.000000001
 43
0.00000001
 40
0.0
 40
0.0
 40
0.0
 40
0.0
 40
0.2499999999999985
 40
0.2499999999999985
 40
0.499999999999999
 40
0.499999999999999
 40
0.7499999999999994
 40
0.7499999999999994
 40
1.0
 40
1.0
 40
1.0
 40
1.0
 10
127.191923653058
 20
145.4605643667286
 30
0.0
 10
127.1041278667313
 20
145.4605643667286
 30
0.0
 10
127.0205609390717
 20
145.4325534608513
 30
0.0
 10
126.8862723420479
 20
145.3454713901118
 30
0.0
 10
126.8353352612553
 20
145.2882715372868
 30
0.0
 10
126.7590442736133
 20
145.1650327171971
 30
0.0
 10
126.7329350706883
 20
145.0976598194082
 30
0.0
 10
126.699454543056
 20
144.9595529251727
 30
0.0
 10
126.691923653058
 20
144.8888209528986
 30
0.0
 10
126.691923653058
 20
144.8165315841004
 30
0.0
  0
LINE
  5
1B9
330
1F
100
AcDbEntity
  8
0
  6
Continuous
 62
     7
370
    25
100
AcDbLine
 10
128.1919236531
 20
145.4605643667
 30
0.0
 11
127.1919236531
 21
145.4605643667
 31
0.0
  0
LINE
  5
1BA
330
1F
100
AcDbEntity
  8
0
  6
Continuous
 62
     7
370
    25
100
AcDbLine
 10
128.1919236531
 20
147.6735353533
 30
0.0
 11
128.1919236531
 21
145.4605643667
 31
0.0
  0
SPLINE
  5
1BB
330
1F
100
AcDbEntity
  8
0
  6
Continuous
 62
     7
370
    25
100
AcDbSpline
210
0.0
220
0.0
230
1.0
 70
     8
 71
     3
 72
     8
 73
     4
 74
     0
 42
0.000000001
 43
0.00000001
 40
0.0
 40
0.0
 40
0.0
 40
0.0
 40
1.0
 40
1.0
 40
1.0
 40
1.0
 10
128.0403203019527
 20
148.1734874604565
 30
0.0
 10
128.1297606650073
 20
148.038106706862
 30
0.0
 10
128.191923653058
 20
147.8727282757729
 30
0.0
 10
128.191923653058
 20
147.6735353533192
 30
0.0
  0
SPLINE
  5
1BC
330
1F
100
AcDbEntity
  8
0
  6
Continuous
 62
     7
370
    25
100
AcDbSpline
210
0.0
220
0.0
230
1.0
 70
     8
 71
     3
 72
    12
 73
     8
 74
     0
 42
0.000000001
 43
0.00000001
 40
0.0
 40
0.0
 40
0.0
 40
0.0
 40
0.2499999999999999
 40
0.2499999999999999
 40
0.4999999999999998
 40
0.4999999999999998
 40
1.0
 40
1.0
 40
1.0
 40
1.0
 10
128.0403203019527
 20
148.1734874604565
 30
0.0
 10
127.9922121933246
 20
148.2463059484148
 30
0.0
 10
127.9559991358692
 20
148.3106015868543
 30
0.0
 10
127.8908949262323
 20
148.4213077504117
 30
0.0
 10
127.8626547459504
 20
148.4677612626467
 30
0.0
 10
127.7833899146962
 20
148.5798472852641
 30
0.0
 10
127.7375245314059
 20
148.6179797977636
 30
0.0
 10
127.691923653058
 20
148.6179797977636
 30
0.0
  0
SPLINE
  5
1BD
330
1F
100
AcDbEntity
  8
0
  6
Continuous
 62
     7
370
    25
100
AcDbSpline
210
0.0
220
0.0
230
1.0
 70
     8
 71
     3
 72
    12
 73
     8
 74
     0
 42
0.000000001
 43
0.00000001
 40
0.0
 40
0.0
 40
0.0
 40
0.0
 40
0.25
 40
0.25
 40
0.4999999999999998
 40
0.4999999999999998
 40
1.0
 40
1.0
 40
1.0
 40
1.0
 10
110.3435270041632
 20
148.1734874604565
 30
0.0
 10
110.3916351128076
 20
148.2463059484395
 30
0.0
 10
110.4278481702719
 20
148.3106015868979
 30
0.0
 10
110.4929523799247
 20
148.4213077504808
 30
0.0
 10
110.521192560213
 20
148.4677612627223
 30
0.0
 10
110.600457391486
 20
148.5798472853408
 30
0.0
 10
110.6463227746817
 20
148.6179797977636
 30
0.0
 10
110.691923653058
 20
148.6179797977636
 30
0.0
  0
SPLINE
  5
1BE
330
1F
100
AcDbEntity
  8
0
  6
Continuous
 62
     7
370
    25
100
AcDbSpline
210
0.0
220
0.0
230
1.0
 70
     8
 71
     3
 72
     8
 73
     4
 74
     0
 42
0.000000001
 43
0.00000001
 40
0.0
 40
0.0
 40
0.0
 40
0.0
 40
1.0
 40
1.0
 40
1.0
 40
1.0
 10
110.191923653058
 20
147.6735353533192
 30
0.0
 10
110.191923653058
 20
147.8727282757729
 30
0.0
 10
110.2540866411087
 20
148.0381067068621
 30
0.0
 10
110.3435270041632
 20
148.1734874604565
 30
0.0
  0
LINE
  5
1BF
330
1F
100
AcDbEntity
  8
0
  6
Continuous
 62
     7
370
    25
100
AcDbLine
 10
110.1919236531
 20
145.4605643667
 30
0.0
 11
110.1919236531
 21
147.6735353533
 31
0.0
  0
LINE
  5
1C0
330
1F
100
AcDbEntity
  8
0
  6
Continuous
 62
     7
370
    25
100
AcDbLine
 10
111.1919236531
 20
145.4605643667
 30
0.0
 11
110.1919236531
 21
145.4605643667
 31
0.0
  0
SPLINE
  5
1C1
330
1F
100
AcDbEntity
  8
0
  6
Continuous
 62
     7
370
    25
100
AcDbSpline
210
0.0
220
0.0
230
1.0
 70
     8
 71
     3
 72
    14
 73
    10
 74
     0
 42
0.000000001
 43
0.00000001
 40
0.0
 40
0.0
 40
0.0
 40
0.0
 40
0.2500000000000005
 40
0.2500000000000005
 40
0.500000000000001
 40
0.500000000000001
 40
0.7500000000000016
 40
0.7500000000000016
 40
1.0
 40
1.0
 40
1.0
 40
1.0
 10
111.691923653058
 20
144.8165315841004
 30
0.0
 10
111.691923653058
 20
144.8888209528986
 30
0.0
 10
111.68439276306
 20
144.9595529251727
 30
0.0
 10
111.6509122354277
 20
145.0976598194082
 30
0.0
 10
111.6248030325027
 20
145.1650327171971
 30
0.0
 10
111.5485120448606
 20
145.2882715372868
 30
0.0
 10
111.4975749640681
 20
145.3454713901118
 30
0.0
 10
111.3632863670442
 20
145.4325534608513
 30
0.0
 10
111.2797194393846
 20
145.4605643667286
 30
0.0
 10
111.191923653058
 20
145.4605643667286
 30
0.0
  0
SPLINE
  5
1C2
330
1F
100
AcDbEntity
  8
0
  6
Continuous
 62
     7
370
    25
100
AcDbSpline
210
0.0
220
0.0
230
1.0
 70
     8
 71
     3
 72
    14
 73
    10
 74
     0
 42
0.000000001
 43
0.00000001
 40
0.0
 40
0.0
 40
0.0
 40
0.0
 40
0.25
 40
0.25
 40
0.5
 40
0.5
 40
0.75
 40
0.75
 40
1.0
 40
1.0
 40
1.0
 40
1.0
 10
111.191923653058
 20
134.7753952287986
 30
0.0
 10
111.2797194393846
 20
134.7753952287986
 30
0.0
 10
111.3632863670442
 20
134.8034061346759
 30
0.0
 10
111.4975749640681
 20
134.8904882054154
 30
0.0
 10
111.5485120448606
 20
134.9476880582405
 30
0.0
 10
111.6248030325027
 20
135.0709268783301
 30
0.0
 10
111.6509122354277
 20
135.1382997761191
 30
0.0
 10
111.68439276306
 20
135.2764066703545
 30
0.0
 10
111.691923653058
 20
135.3471386426286
 30
0.0
 10
111.691923653058
 20
135.4194280114268
 30
0.0
  0
LINE
  5
1C3
330
1F
100
AcDbEntity
  8
0
  6
Continuous
 62
     7
370
    25
100
AcDbLine
 10
110.1919236531
 20
134.7753952288
 30
0.0
 11
111.1919236531
 21
134.7753952288
 31
0.0
  0
LINE
  5
1C4
330
1F
100
AcDbEntity
  8
0
  6
Continuous
 62
     7
370
    25
100
AcDbLine
 10
110.1919236531
 20
132.5624242422
 30
0.0
 11
110.1919236531
 21
134.7753952288
 31
0.0
  0
SPLINE
  5
1C5
330
1F
100
AcDbEntity
  8
0
  6
Continuous
 62
     7
370
    25
100
AcDbSpline
210
0.0
220
0.0
230
1.0
 70
     8
 71
     3
 72
     8
 73
     4
 74
     0
 42
0.000000001
 43
0.00000001
 40
0.0
 40
0.0
 40
0.0
 40
0.0
 40
1.0
 40
1.0
 40
1.0
 40
1.0
 10
110.3435270041632
 20
132.0624721350707
 30
0.0
 10
110.2540866411087
 20
132.1978528886652
 30
0.0
 10
110.191923653058
 20
132.3632313197543
 30
0.0
 10
110.191923653058
 20
132.562424242208
 30
0.0
  0
SPLINE
  5
1C6
330
1F
100
AcDbEntity
  8
0
  6
Continuous
 62
     7
370
    25
100
AcDbSpline
210
0.0
220
0.0
230
1.0
 70
     8
 71
     3
 72
    12
 73
     8
 74
     0
 42
0.000000001
 43
0.00000001
 40
0.0
 40
0.0
 40
0.0
 40
0.0
 40
0.2499999999999998
 40
0.2499999999999998
 40
0.4999999999999999
 40
0.4999999999999999
 40
1.0
 40
1.0
 40
1.0
 40
1.0
 10
110.3435270041632
 20
132.0624721350707
 30
0.0
 10
110.3915245760022
 20
131.9898209603175
 30
0.0
 10
110.4277631499013
 20
131.9255034377263
 30
0.0
 10
110.4929681051276
 20
131.8146242495191
 30
0.0
 10
110.5213351623878
 20
131.7679638829709
 30
0.0
 10
110.6007919378772
 20
131.65570522402
 30
0.0
 10
110.6462379177276
 20
131.6179797977636
 30
0.0
 10
110.691923653058
 20
131.6179797977636
 30
0.0
  0
ARC
  5
1C7
330
1F
100
AcDbEntity
  8
0
  6
Continuous
 62
     7
370
    25
100
AcDbCircle
 10
119.1919236531
 20
140.1179797978
 30
0.0
 40
9.000000000000021
100
AcDbArc
 50
38.942441269
 51
62.7339555493
  0
SPLINE
  5
1C8
330
1F
100
AcDbEntity
  8
0
  6
Continuous
 62
     7
370
    25
100
AcDbSpline
210
0.0
220
0.0
230
1.0
 70
    24
 71
     3
 72
    10
 73
     6
 74
     0
 42
0.000000001
 43
0.00000001
 40
0.0
 40
0.0
 40
0.0
 40
0.0
 40
0.5
 40
0.5
 40
1.0
 40
1.0
 40
1.0
 40
1.0
 10
126.191923653058
 20
145.774834047256
 30
0.0
 10
126.191923653058
 20
145.652288368352
 30
0.0
 10
126.191923653058
 20
145.5326412796953
 30
0.0
 10
126.191923653058
 20
145.2994849302242
 30
0.0
 10
126.191923653058
 20
145.1872645474404
 30
0.0
 10
126.191923653058
 20
145.0929169832967
 30
0.0
  0
SPLINE
  5
1C9
330
1F
100
AcDbEntity
  8
0
  6
Continuous
 62
     7
370
    25
100
AcDbSpline
210
0.0
220
0.0
230
1.0
 70
     8
 71
     3
 72
     8
 73
     4
 74
     0
 42
0.000000001
 43
0.00000001
 40
0.0
 40
0.0
 40
0.0
 40
0.0
 40
1.0
 40
1.0
 40
1.0
 40
1.0
 10
126.191923653058
 20
145.0929169832967
 30
0.0
 10
126.191923653058
 20
144.9884901582588
 30
0.0
 10
126.2231938466615
 20
144.8950197204148
 30
0.0
 10
126.2752569863913
 20
144.8165315841005
 30
0.0
  0
SPLINE
  5
1CA
330
1F
100
AcDbEntity
  8
0
  6
Continuous
 62
     7
370
    25
100
AcDbSpline
210
0.0
220
0.0
230
1.0
 70
     8
 71
     3
 72
     8
 73
     4
 74
     0
 42
0.000000001
 43
0.00000001
 40
0.0
 40
0.0
 40
0.0
 40
0.0
 40
1.0
 40
1.0
 40
1.0
 40
1.0
 10
112.191923653058
 20
145.0929169832967
 30
0.0
 10
112.191923653058
 20
144.9884901582588
 30
0.0
 10
112.1606534594542
 20
144.8950197204144
 30
0.0
 10
112.1085903197246
 20
144.8165315841004
 30
0.0
  0
SPLINE
  5
1CB
330
1F
100
AcDbEntity
  8
0
  6
Continuous
 62
     7
370
    25
100
AcDbSpline
210
0.0
220
0.0
230
1.0
 70
    24
 71
     3
 72
    10
 73
     6
 74
     0
 42
0.000000001
 43
0.00000001
 40
0.0
 40
0.0
 40
0.0
 40
0.0
 40
0.5
 40
0.5
 40
1.0
 40
1.0
 40
1.0
 40
1.0
 10
112.191923653058
 20
145.0929169832967
 30
0.0
 10
112.191923653058
 20
145.1869315693365
 30
0.0
 10
112.191923653058
 20
145.2996803006691
 30
0.0
 10
112.191923653058
 20
145.5316808971666
 30
0.0
 10
112.191923653058
 20
145.6525662766157
 30
0.0
 10
112.191923653058
 20
145.774834047256
 30
0.0
  0
ARC
  5
1CC
330
1F
100
AcDbEntity
  8
0
  6
Continuous
 62
     7
370
    25
100
AcDbCircle
 10
119.1919236531
 20
140.1179797978
 30
0.0
 40
9.00000000000001
100
AcDbArc
 50
117.2660444507
 51
141.057558731
  0
SPLINE
  5
1CD
330
1F
100
AcDbEntity
  8
0
  6
Continuous
 62
     7
370
    25
100
AcDbSpline
210
0.0
220
0.0
230
1.0
 70
    24
 71
     3
 72
    10
 73
     6
 74
     0
 42
0.000000001
 43
0.00000001
 40
0.0
 40
0.0
 40
0.0
 40
0.0
 40
0.5
 40
0.5
 40
1.0
 40
1.0
 40
1.0
 40
1.0
 10
126.191923653058
 20
135.1430426122305
 30
0.0
 10
126.191923653058
 20
135.0490280261908
 30
0.0
 10
126.191923653058
 20
134.9362792948583
 30
0.0
 10
126.191923653058
 20
134.7042786983608
 30
0.0
 10
126.191923653058
 20
134.5833933189119
 30
0.0
 10
126.191923653058
 20
134.4611255482717
 30
0.0
  0
ARC
  5
1CE
330
1F
100
AcDbEntity
  8
0
  6
Continuous
 62
     7
370
    25
100
AcDbCircle
 10
119.1919236531
 20
140.1179797978
 30
0.0
 40
9.000000000000004
100
AcDbArc
 50
297.2660444507
 51
321.057558731
  0
SPLINE
  5
1CF
330
1F
100
AcDbEntity
  8
0
  6
Continuous
 62
     7
370
    25
100
AcDbSpline
210
0.0
220
0.0
230
1.0
 70
     8
 71
     3
 72
     8
 73
     4
 74
     0
 42
0.000000001
 43
0.00000001
 40
0.0
 40
0.0
 40
0.0
 40
0.0
 40
1.0
 40
1.0
 40
1.0
 40
1.0
 10
126.191923653058
 20
135.1430426122305
 30
0.0
 10
126.191923653058
 20
135.2474694372684
 30
0.0
 10
126.2231938466615
 20
135.3409398751125
 30
0.0
 10
126.2752569863913
 20
135.4194280114268
 30
0.0
  0
ARC
  5
1D0
330
1F
100
AcDbEntity
  8
0
  6
Continuous
 62
     7
370
    25
100
AcDbCircle
 10
119.1919236531
 20
140.1179797978
 30
0.0
 40
8.999999999999996
100
AcDbArc
 50
218.942441269
 51
242.7339555493
  0
SPLINE
  5
1D1
330
1F
100
AcDbEntity
  8
0
  6
Continuous
 62
     7
370
    25
100
AcDbSpline
210
0.0
220
0.0
230
1.0
 70
    24
 71
     3
 72
    10
 73
     6
 74
     0
 42
0.000000001
 43
0.00000001
 40
0.0
 40
0.0
 40
0.0
 40
0.0
 40
0.5
 40
0.5
 40
1.0
 40
1.0
 40
1.0
 40
1.0
 10
112.1919236530578
 20
134.4611255482714
 30
0.0
 10
112.1919236530578
 20
134.5836712271754
 30
0.0
 10
112.191923653058
 20
134.7033183158321
 30
0.0
 10
112.191923653058
 20
134.9364746653031
 30
0.0
 10
112.191923653058
 20
135.0486950480869
 30
0.0
 10
112.191923653058
 20
135.1430426122306
 30
0.0
  0
SPLINE
  5
1D2
330
1F
100
AcDbEntity
  8
0
  6
Continuous
 62
     7
370
    25
100
AcDbSpline
210
0.0
220
0.0
230
1.0
 70
     8
 71
     3
 72
     8
 73
     4
 74
     0
 42
0.000000001
 43
0.00000001
 40
0.0
 40
0.0
 40
0.0
 40
0.0
 40
1.0
 40
1.0
 40
1.0
 40
1.0
 10
112.191923653058
 20
135.1430426122305
 30
0.0
 10
112.191923653058
 20
135.2474694372684
 30
0.0
 10
112.1606534594542
 20
135.3409398751128
 30
0.0
 10
112.1085903197246
 20
135.4194280114268
 30
0.0
  0
LINE
  5
1D3
330
1F
100
AcDbEntity
  8
0
  6
Continuous
 62
     7
370
    25
100
AcDbLine
 10
115.0688180274
 20
148.1179797978
 30
0.0
 11
112.1919236531
 21
148.1179797978
 31
0.0
  0
ARC
  5
1D4
330
1F
100
AcDbEntity
  8
0
  6
Continuous
 62
     7
370
    25
100
AcDbCircle
 10
112.6919236531
 20
148.1179797978
 30
0.0
 40
0.5
100
AcDbArc
 50
90.0
 51
180.0
  0
LINE
  5
1D5
330
1F
100
AcDbEntity
  8
0
  6
Continuous
 62
     7
370
    25
100
AcDbLine
 10
112.6919236531
 20
148.6179797978
 30
0.0
 11
116.3196423298
 21
148.6179797978
 31
0.0
  0
LINE
  5
1D6
330
1F
100
AcDbEntity
  8
0
  6
Continuous
 62
     7
370
    25
100
AcDbLine
 10
126.1919236531
 20
148.1179797978
 30
0.0
 11
123.3150292787
 21
148.1179797978
 31
0.0
  0
ARC
  5
1D7
330
1F
100
AcDbEntity
  8
0
  6
Continuous
 62
     7
370
    25
100
AcDbCircle
 10
125.6919236531
 20
148.1179797978
 30
0.0
 40
0.5
100
AcDbArc
 50
0.0
 51
90.0
  0
LINE
  5
1D8
330
1F
100
AcDbEntity
  8
0
  6
Continuous
 62
     7
370
    25
100
AcDbLine
 10
122.0642049763
 20
148.6179797978
 30
0.0
 11
125.6919236531
 21
148.6179797978
 31
0.0
  0
LINE
  5
1D9
330
1F
100
AcDbEntity
  8
0
  6
Continuous
 62
     7
370
    25
100
AcDbLine
 10
112.1919236531
 20
145.7748340473
 30
0.0
 11
112.1919236531
 21
148.1179797978
 31
0.0
  0
LINE
  5
1DA
330
1F
100
AcDbEntity
  8
0
  6
Continuous
 62
     7
370
    25
100
AcDbLine
 10
126.1919236531
 20
145.7748340473
 30
0.0
 11
126.1919236531
 21
148.1179797978
 31
0.0
  0
LINE
  5
1DB
330
1F
100
AcDbEntity
  8
0
  6
Continuous
 62
     7
370
    25
100
AcDbLine
 10
123.3150292787
 20
132.1179797978
 30
0.0
 11
126.1919236531
 21
132.1179797978
 31
0.0
  0
LINE
  5
1DC
330
1F
100
AcDbEntity
  8
0
  6
Continuous
 62
     7
370
    25
100
AcDbLine
 10
126.1919236531
 20
132.1179797978
 30
0.0
 11
126.1919236531
 21
134.4611255483
 31
0.0
  0
LINE
  5
1DD
330
1F
100
AcDbEntity
  8
0
  6
Continuous
 62
     7
370
    25
100
AcDbLine
 10
112.1919236531
 20
132.1179797978
 30
0.0
 11
115.0688180274
 21
132.1179797978
 31
0.0
  0
LINE
  5
1DE
330
1F
100
AcDbEntity
  8
0
  6
Continuous
 62
     7
370
    25
100
AcDbLine
 10
112.1919236531
 20
132.1179797978
 30
0.0
 11
112.1919236531
 21
134.4611255483
 31
0.0
  0
ARC
  5
1DF
330
1F
100
AcDbEntity
  8
0
  6
Continuous
 62
     7
370
    25
100
AcDbCircle
 10
112.6919236531
 20
132.1179797978
 30
0.0
 40
0.5
100
AcDbArc
 50
180.0
 51
270.0
  0
LINE
  5
1E0
330
1F
100
AcDbEntity
  8
0
  6
Continuous
 62
     7
370
    25
100
AcDbLine
 10
116.3196423298
 20
131.6179797978
 30
0.0
 11
112.6919236531
 21
131.6179797978
 31
0.0
  0
ARC
  5
1E1
330
1F
100
AcDbEntity
  8
0
  6
Continuous
 62
     7
370
    25
100
AcDbCircle
 10
125.6919236531
 20
132.1179797978
 30
0.0
 40
0.5
100
AcDbArc
 50
270.0
 51
0.0
  0
LINE
  5
1E2
330
1F
100
AcDbEntity
  8
0
  6
Continuous
 62
     7
370
    25
100
AcDbLine
 10
125.6919236531
 20
131.6179797978
 30
0.0
 11
122.0642049763
 21
131.6179797978
 31
0.0
  0
LINE
  5
1E3
330
1F
100
AcDbEntity
  8
0
  6
Continuous
 62
     7
370
    25
100
AcDbLine
 10
127.1919236531
 20
148.1179797978
 30
0.0
 11
126.1919236531
 21
148.1179797978
 31
0.0
  0
LINE
  5
1E4
330
1F
100
AcDbEntity
  8
0
  6
Continuous
 62
     7
370
    25
100
AcDbLine
 10
127.1919236531
 20
145.7748340473
 30
0.0
 11
127.1919236531
 21
148.1179797978
 31
0.0
  0
SPLINE
  5
1E5
330
1F
100
AcDbEntity
  8
0
  6
Continuous
 62
     7
370
    25
100
AcDbSpline
210
0.0
220
0.0
230
1.0
 70
     8
 71
     3
 72
    14
 73
    10
 74
     0
 42
0.000000001
 43
0.00000001
 40
0.0
 40
0.0
 40
0.0
 40
0.0
 40
0.25
 40
0.25
 40
0.5
 40
0.5
 40
0.75
 40
0.75
 40
1.0
 40
1.0
 40
1.0
 40
1.0
 10
126.191923653058
 20
145.0929169832967
 30
0.0
 10
126.191923653058
 20
145.1809181468522
 30
0.0
 10
126.2117552633512
 20
145.2646973932904
 30
0.0
 10
126.2957350024405
 20
145.4242394215634
 30
0.0
 10
126.3596164051324
 20
145.4981247757838
 30
0.0
 10
126.533231593109
 20
145.6259453141239
 30
0.0
 10
126.6438153945076
 20
145.6798608344261
 30
0.0
 10
126.9006094918203
 20
145.7545758226658
 30
0.0
 10
127.0448799389788
 20
145.774834047256
 30
0.0
 10
127.191923653058
 20
145.774834047256
 30
0.0
  0
LINE
  5
1E6
330
1F
100
AcDbEntity
  8
0
  6
Continuous
 62
     7
370
    25
100
AcDbLine
 10
127.1919236531
 20
145.4605643667
 30
0.0
 11
127.1919236531
 21
145.7748340473
 31
0.0
  0
LWPOLYLINE
  5
1E7
330
1F
100
AcDbEntity
  8
0
  6
Continuous
 62
     7
370
    25
100
AcDbPolyline
 90
        9
 70
   128
 43
0.0
 10
126.1919236531
 20
145.0929169833
 10
126.2015310129
 20
145.0389968668
 10
126.2299838868
 20
144.9871488701
 10
126.2761888469
 20
144.9393654827
 10
126.3383702625
 20
144.8974829933
 10
126.4141385365
 20
144.8631109226
 10
126.5005819369
 20
144.8375701699
 10
126.594378492
 20
144.821842252
 10
126.6919236531
 20
144.8165315841
  0
LWPOLYLINE
  5
1E8
330
1F
100
AcDbEntity
  8
0
  6
Continuous
 62
     7
370
    25
100
AcDbPolyline
 90
        9
 70
   128
 43
0.0
 10
111.6919236531
 20
135.4194280114
 10
111.7894688141
 20
135.4141173435
 10
111.8832653692
 20
135.3983894256
 10
111.9697087696
 20
135.3728486729
 10
112.0454770437
 20
135.3384766022
 10
112.1076584592
 20
135.2965941129
 10
112.1538634193
 20
135.2488107255
 10
112.1823162933
 20
135.1969627288
 10
112.1919236531
 20
135.1430426122
  0
SPLINE
  5
1E9
330
1F
100
AcDbEntity
  8
0
  6
Continuous
 62
     7
370
    25
100
AcDbSpline
210
0.0
220
0.0
230
1.0
 70
     8
 71
     3
 72
    14
 73
    10
 74
     0
 42
0.000000001
 43
0.00000001
 40
0.0
 40
0.0
 40
0.0
 40
0.0
 40
0.25
 40
0.25
 40
0.5
 40
0.5
 40
0.75
 40
0.75
 40
1.0
 40
1.0
 40
1.0
 40
1.0
 10
112.191923653058
 20
135.1430426122305
 30
0.0
 10
112.191923653058
 20
135.0550414486751
 30
0.0
 10
112.1720920427647
 20
134.9712622022368
 30
0.0
 10
112.0881123036754
 20
134.8117201739638
 30
0.0
 10
112.0242309009836
 20
134.7378348197434
 30
0.0
 10
111.850615713007
 20
134.6100142814033
 30
0.0
 10
111.7400319116083
 20
134.5560987611011
 30
0.0
 10
111.4832378142957
 20
134.4813837728614
 30
0.0
 10
111.3389673671371
 20
134.4611255482712
 30
0.0
 10
111.191923653058
 20
134.4611255482712
 30
0.0
  0
LINE
  5
1EA
330
1F
100
AcDbEntity
  8
0
  6
Continuous
 62
     7
370
    25
100
AcDbLine
 10
111.1919236531
 20
134.7753952288
 30
0.0
 11
111.1919236531
 21
134.4611255483
 31
0.0
  0
LINE
  5
1EB
330
1F
100
AcDbEntity
  8
0
  6
Continuous
 62
     7
370
    25
100
AcDbLine
 10
111.1919236531
 20
132.1179797978
 30
0.0
 11
112.1919236531
 21
132.1179797978
 31
0.0
  0
LINE
  5
1EC
330
1F
100
AcDbEntity
  8
0
  6
Continuous
 62
     7
370
    25
100
AcDbLine
 10
111.1919236531
 20
132.1179797978
 30
0.0
 11
111.1919236531
 21
134.4611255483
 31
0.0
  0
LINE
  5
1ED
330
1F
100
AcDbEntity
  8
0
  6
Continuous
 62
     7
370
    25
100
AcDbLine
 10
112.1919236531
 20
148.1179797978
 30
0.0
 11
111.1919236531
 21
148.1179797978
 31
0.0
  0
SPLINE
  5
1EE
330
1F
100
AcDbEntity
  8
0
  6
Continuous
 62
     7
370
    25
100
AcDbSpline
210
0.0
220
0.0
230
1.0
 70
     8
 71
     3
 72
    14
 73
    10
 74
     0
 42
0.000000001
 43
0.00000001
 40
0.0
 40
0.0
 40
0.0
 40
0.0
 40
0.25
 40
0.25
 40
0.5
 40
0.5
 40
0.75
 40
0.75
 40
1.0
 40
1.0
 40
1.0
 40
1.0
 10
111.191923653058
 20
145.774834047256
 30
0.0
 10
111.3389673671372
 20
145.774834047256
 30
0.0
 10
111.4832378142957
 20
145.7545758226658
 30
0.0
 10
111.7400319116083
 20
145.6798608344261
 30
0.0
 10
111.850615713007
 20
145.6259453141239
 30
0.0
 10
112.0242309009836
 20
145.4981247757838
 30
0.0
 10
112.0881123036754
 20
145.4242394215634
 30
0.0
 10
112.1720920427647
 20
145.2646973932903
 30
0.0
 10
112.191923653058
 20
145.1809181468521
 30
0.0
 10
112.191923653058
 20
145.0929169832967
 30
0.0
  0
LINE
  5
1EF
330
1F
100
AcDbEntity
  8
0
  6
Continuous
 62
     7
370
    25
100
AcDbLine
 10
111.1919236531
 20
145.7748340473
 30
0.0
 11
111.1919236531
 21
148.1179797978
 31
0.0
  0
LINE
  5
1F0
330
1F
100
AcDbEntity
  8
0
  6
Continuous
 62
     7
370
    25
100
AcDbLine
 10
111.1919236531
 20
145.4605643667
 30
0.0
 11
111.1919236531
 21
145.7748340473
 31
0.0
  0
LWPOLYLINE
  5
1F1
330
1F
100
AcDbEntity
  8
0
  6
Continuous
 62
     7
370
    25
100
AcDbPolyline
 90
        9
 70
   128
 43
0.0
 10
111.6919236531
 20
144.8165315841
 10
111.7894688141
 20
144.821842252
 10
111.8832653692
 20
144.8375701699
 10
111.9697087696
 20
144.8631109226
 10
112.0454770437
 20
144.8974829933
 10
112.1076584592
 20
144.9393654827
 10
112.1538634193
 20
144.9871488701
 10
112.1823162933
 20
145.0389968668
 10
112.1919236531
 20
145.0929169833
  0
SPLINE
  5
1F2
330
1F
100
AcDbEntity
  8
0
  6
Continuous
 62
     7
370
    25
100
AcDbSpline
210
0.0
220
0.0
230
1.0
 70
     8
 71
     3
 72
    14
 73
    10
 74
     0
 42
0.000000001
 43
0.00000001
 40
0.0
 40
0.0
 40
0.0
 40
0.0
 40
0.25
 40
0.25
 40
0.5
 40
0.5
 40
0.75
 40
0.75
 40
1.0
 40
1.0
 40
1.0
 40
1.0
 10
127.191923653058
 20
134.4611255482712
 30
0.0
 10
127.0448799389788
 20
134.4611255482712
 30
0.0
 10
126.9006094918202
 20
134.4813837728614
 30
0.0
 10
126.6438153945076
 20
134.5560987611011
 30
0.0
 10
126.5332315931089
 20
134.6100142814033
 30
0.0
 10
126.3596164051324
 20
134.7378348197435
 30
0.0
 10
126.2957350024405
 20
134.8117201739638
 30
0.0
 10
126.2117552633512
 20
134.9712622022369
 30
0.0
 10
126.191923653058
 20
135.0550414486751
 30
0.0
 10
126.191923653058
 20
135.1430426122305
 30
0.0
  0
LWPOLYLINE
  5
1F3
330
1F
100
AcDbEntity
  8
0
  6
Continuous
 62
     7
370
    25
100
AcDbPolyline
 90
        9
 70
   128
 43
0.0
 10
126.1919236531
 20
135.1430426122
 10
126.2015310129
 20
135.1969627288
 10
126.2299838868
 20
135.2488107255
 10
126.2761888469
 20
135.2965941129
 10
126.3383702625
 20
135.3384766022
 10
126.4141385365
 20
135.3728486729
 10
126.5005819369
 20
135.3983894256
 10
126.594378492
 20
135.4141173435
 10
126.6919236531
 20
135.4194280114
  0
LINE
  5
1F4
330
1F
100
AcDbEntity
  8
0
  6
Continuous
 62
     7
370
    25
100
AcDbLine
 10
127.1919236531
 20
134.4611255483
 30
0.0
 11
127.1919236531
 21
134.7753952288
 31
0.0
  0
LINE
  5
1F5
330
1F
100
AcDbEntity
  8
0
  6
Continuous
 62
     7
370
    25
100
AcDbLine
 10
126.1919236531
 20
132.1179797978
 30
0.0
 11
127.1919236531
 21
132.1179797978
 31
0.0
  0
LINE
  5
1F6
330
1F
100
AcDbEntity
  8
0
  6
Continuous
 62
     7
370
    25
100
AcDbLine
 10
127.1919236531
 20
132.1179797978
 30
0.0
 11
127.1919236531
 21
134.4611255483
 31
0.0
  0
LINE
  5
1F7
330
1F
100
AcDbEntity
  8
0
  6
Continuous
 62
     7
370
    25
100
AcDbLine
 10
127.1919236531
 20
148.6179797978
 30
0.0
 11
127.1919236531
 21
148.1179797978
 31
0.0
  0
LINE
  5
1F8
330
1F
100
AcDbEntity
  8
0
  6
Continuous
 62
     7
370
    25
100
AcDbLine
 10
125.6919236531
 20
148.6179797978
 30
0.0
 11
127.1919236531
 21
148.6179797978
 31
0.0
  0
LINE
  5
1F9
330
1F
100
AcDbEntity
  8
0
  6
Continuous
 62
     7
370
    25
100
AcDbLine
 10
111.1919236531
 20
148.6179797978
 30
0.0
 11
111.1919236531
 21
148.1179797978
 31
0.0
  0
LINE
  5
1FA
330
1F
100
AcDbEntity
  8
0
  6
Continuous
 62
     7
370
    25
100
AcDbLine
 10
111.1919236531
 20
148.6179797978
 30
0.0
 11
112.6919236531
 21
148.6179797978
 31
0.0
  0
LINE
  5
1FB
330
1F
100
AcDbEntity
  8
0
  6
Continuous
 62
     7
370
    25
100
AcDbLine
 10
111.1919236531
 20
131.6179797978
 30
0.0
 11
111.1919236531
 21
132.1179797978
 31
0.0
  0
LINE
  5
1FC
330
1F
100
AcDbEntity
  8
0
  6
Continuous
 62
     7
370
    25
100
AcDbLine
 10
112.6919236531
 20
131.6179797978
 30
0.0
 11
111.1919236531
 21
131.6179797978
 31
0.0
  0
LINE
  5
1FD
330
1F
100
AcDbEntity
  8
0
  6
Continuous
 62
     7
370
    25
100
AcDbLine
 10
127.1919236531
 20
131.6179797978
 30
0.0
 11
127.1919236531
 21
132.1179797978
 31
0.0
  0
LINE
  5
1FE
330
1F
100
AcDbEntity
  8
0
  6
Continuous
 62
     7
370
    25
100
AcDbLine
 10
127.1919236531
 20
131.6179797978
 30
0.0
 11
125.6919236531
 21
131.6179797978
 31
0.0
  0
SPLINE
  5
1FF
330
1F
100
AcDbEntity
  8
0
  6
Continuous
 62
     7
370
    25
100
AcDbSpline
210
0.0
220
0.0
230
1.0
 70
     8
 71
     3
 72
     8
 73
     4
 74
     0
 42
0.000000001
 43
0.00000001
 40
0.0
 40
0.0
 40
0.0
 40
0.0
 40
1.0
 40
1.0
 40
1.0
 40
1.0
 10
110.5131579235317
 20
145.774834047256
 30
0.0
 10
110.4162341870392
 20
145.6510542992199
 30
0.0
 10
110.3032286989493
 20
145.544695908398
 30
0.0
 10
110.191923653058
 20
145.4605643667286
 30
0.0
  0
ARC
  5
200
330
1F
100
AcDbEntity
  8
0
  6
Continuous
 62
     7
370
    25
100
AcDbCircle
 10
110.218158221
 20
148.1474936867
 30
0.0
 40
0.4746838466696409
100
AcDbArc
 50
266.8317938378
 51
356.4352848354
  0
SPLINE
  5
201
330
1F
100
AcDbEntity
  8
0
  6
Continuous
 62
     7
370
    25
100
AcDbSpline
210
0.0
220
0.0
230
1.0
 70
     8
 71
     3
 72
    10
 73
     6
 74
     0
 42
0.000000001
 43
0.00000001
 40
0.0
 40
0.0
 40
0.0
 40
0.0
 40
0.5
 40
0.5
 40
1.0
 40
1.0
 40
1.0
 40
1.0
 10
110.691923653058
 20
146.342929596758
 30
0.0
 10
110.691923653058
 20
146.2411013268774
 30
0.0
 10
110.6777056833424
 20
146.1416992999987
 30
0.0
 10
110.6195291685514
 20
145.9479703634544
 30
0.0
 10
110.5762078112127
 20
145.8553540467245
 30
0.0
 10
110.5131579235317
 20
145.774834047256
 30
0.0
  0
ARC
  5
202
330
1F
100
AcDbEntity
  8
0
  6
Continuous
 62
     7
370
    25
100
AcDbCircle
 10
128.1656890852
 20
148.1474936867
 30
0.0
 40
0.4746838466696219
100
AcDbArc
 50
183.5647151646
 51
273.1682061622
  0
SPLINE
  5
203
330
1F
100
AcDbEntity
  8
0
  6
Continuous
 62
     7
370
    25
100
AcDbSpline
210
0.0
220
0.0
230
1.0
 70
     8
 71
     3
 72
     8
 73
     4
 74
     0
 42
0.000000001
 43
0.00000001
 40
0.0
 40
0.0
 40
0.0
 40
0.0
 40
1.0
 40
1.0
 40
1.0
 40
1.0
 10
127.8706893825843
 20
145.774834047256
 30
0.0
 10
127.9676131190768
 20
145.6510542992199
 30
0.0
 10
128.0806186071667
 20
145.544695908398
 30
0.0
 10
128.191923653058
 20
145.4605643667286
 30
0.0
  0
SPLINE
  5
204
330
1F
100
AcDbEntity
  8
0
  6
Continuous
 62
     7
370
    25
100
AcDbSpline
210
0.0
220
0.0
230
1.0
 70
     8
 71
     3
 72
    10
 73
     6
 74
     0
 42
0.000000001
 43
0.00000001
 40
0.0
 40
0.0
 40
0.0
 40
0.0
 40
0.5
 40
0.5
 40
1.0
 40
1.0
 40
1.0
 40
1.0
 10
127.8706893825843
 20
145.774834047256
 30
0.0
 10
127.8076393600491
 20
145.8553542189445
 30
0.0
 10
127.7643321357433
 20
145.947932086895
 30
0.0
 10
127.706140960081
 20
146.1416931710378
 30
0.0
 10
127.691923653058
 20
146.2411029477335
 30
0.0
 10
127.691923653058
 20
146.342929596758
 30
0.0
  0
LINE
  5
205
330
1F
100
AcDbEntity
  8
0
  6
Continuous
 62
     7
370
    25
100
AcDbLine
 10
127.1919236531
 20
145.7748340473
 30
0.0
 11
127.8706893826
 21
145.7748340473
 31
0.0
  0
LINE
  5
206
330
1F
100
AcDbEntity
  8
0
  6
Continuous
 62
     7
370
    25
100
AcDbLine
 10
110.5131579235
 20
145.7748340473
 30
0.0
 11
111.1919236531
 21
145.7748340473
 31
0.0
  0
ARC
  5
207
330
1F
100
AcDbEntity
  8
0
  6
Continuous
 62
     7
370
    25
100
AcDbCircle
 10
110.218158221
 20
132.0884659089
 30
0.0
 40
0.4746838466696133
100
AcDbArc
 50
3.5647151646
 51
93.1682061622
  0
SPLINE
  5
208
330
1F
100
AcDbEntity
  8
0
  6
Continuous
 62
     7
370
    25
100
AcDbSpline
210
0.0
220
0.0
230
1.0
 70
     8
 71
     3
 72
     8
 73
     4
 74
     0
 42
0.000000001
 43
0.00000001
 40
0.0
 40
0.0
 40
0.0
 40
0.0
 40
1.0
 40
1.0
 40
1.0
 40
1.0
 10
110.5131579235317
 20
134.4611255482712
 30
0.0
 10
110.4162341870392
 20
134.5849052963073
 30
0.0
 10
110.3032286989493
 20
134.6912636871292
 30
0.0
 10
110.191923653058
 20
134.7753952287986
 30
0.0
  0
SPLINE
  5
209
330
1F
100
AcDbEntity
  8
0
  6
Continuous
 62
     7
370
    25
100
AcDbSpline
210
0.0
220
0.0
230
1.0
 70
     8
 71
     3
 72
    10
 73
     6
 74
     0
 42
0.000000001
 43
0.00000001
 40
0.0
 40
0.0
 40
0.0
 40
0.0
 40
0.5
 40
0.5
 40
1.0
 40
1.0
 40
1.0
 40
1.0
 10
110.5131579235317
 20
134.4611255482712
 30
0.0
 10
110.5762079460668
 20
134.3806053765827
 30
0.0
 10
110.6195151703727
 20
134.2880275086322
 30
0.0
 10
110.677706346035
 20
134.0942664244894
 30
0.0
 10
110.691923653058
 20
133.9948566477938
 30
0.0
 10
110.691923653058
 20
133.8930299987693
 30
0.0
  0
LINE
  5
20A
330
1F
100
AcDbEntity
  8
0
  6
Continuous
 62
     7
370
    25
100
AcDbLine
 10
111.1919236531
 20
134.4611255483
 30
0.0
 11
110.5131579235
 21
134.4611255483
 31
0.0
  0
LINE
  5
20B
330
1F
100
AcDbEntity
  8
0
  6
Continuous
 62
     7
370
    25
100
AcDbLine
 10
127.8706893826
 20
134.4611255483
 30
0.0
 11
127.1919236531
 21
134.4611255483
 31
0.0
  0
SPLINE
  5
20C
330
1F
100
AcDbEntity
  8
0
  6
Continuous
 62
     7
370
    25
100
AcDbSpline
210
0.0
220
0.0
230
1.0
 70
     8
 71
     3
 72
     8
 73
     4
 74
     0
 42
0.000000001
 43
0.00000001
 40
0.0
 40
0.0
 40
0.0
 40
0.0
 40
1.0
 40
1.0
 40
1.0
 40
1.0
 10
127.8706893825843
 20
134.4611255482712
 30
0.0
 10
127.9676131190768
 20
134.5849052963073
 30
0.0
 10
128.0806186071667
 20
134.6912636871292
 30
0.0
 10
128.191923653058
 20
134.7753952287986
 30
0.0
  0
SPLINE
  5
20D
330
1F
100
AcDbEntity
  8
0
  6
Continuous
 62
     7
370
    25
100
AcDbSpline
210
0.0
220
0.0
230
1.0
 70
     8
 71
     3
 72
    10
 73
     6
 74
     0
 42
0.000000001
 43
0.00000001
 40
0.0
 40
0.0
 40
0.0
 40
0.0
 40
0.5
 40
0.5
 40
1.0
 40
1.0
 40
1.0
 40
1.0
 10
127.691923653058
 20
133.8930299987705
 30
0.0
 10
127.691923653058
 20
133.9948582686509
 30
0.0
 10
127.7061416227737
 20
134.0942602955294
 30
0.0
 10
127.7643181375647
 20
134.2879892320733
 30
0.0
 10
127.8076394949034
 20
134.3806055488029
 30
0.0
 10
127.8706893825842
 20
134.4611255482712
 30
0.0
  0
ARC
  5
20E
330
1F
100
AcDbEntity
  8
0
  6
Continuous
 62
     7
370
    25
100
AcDbCircle
 10
128.1656890852
 20
132.0884659089
 30
0.0
 40
0.4746838466695917
100
AcDbArc
 50
86.8317938378
 51
176.4352848354
  0
LINE
  5
20F
330
1F
100
AcDbEntity
  8
0
  6
Continuous
 62
     7
370
    25
100
AcDbLine
 10
111.1919236531
 20
148.1179797978
 30
0.0
 11
110.6919236531
 21
148.1179797978
 31
0.0
  0
ARC
  5
210
330
1F
100
AcDbEntity
  8
0
  6
Continuous
 62
     7
370
    25
100
AcDbCircle
 10
111.1919236531
 20
148.1179797978
 30
0.0
 40
0.5
100
AcDbArc
 50
90.0
 51
180.0
  0
LINE
  5
211
330
1F
100
AcDbEntity
  8
0
  6
Continuous
 62
     7
370
    25
100
AcDbLine
 10
127.6919236531
 20
148.1179797978
 30
0.0
 11
127.1919236531
 21
148.1179797978
 31
0.0
  0
ARC
  5
212
330
1F
100
AcDbEntity
  8
0
  6
Continuous
 62
     7
370
    25
100
AcDbCircle
 10
127.1919236531
 20
148.1179797978
 30
0.0
 40
0.5
100
AcDbArc
 50
0.0
 51
90.0
  0
LINE
  5
213
330
1F
100
AcDbEntity
  8
0
  6
Continuous
 62
     7
370
    25
100
AcDbLine
 10
110.6919236531
 20
146.3429295968
 30
0.0
 11
110.6919236531
 21
148.1179797978
 31
0.0
  0
LINE
  5
214
330
1F
100
AcDbEntity
  8
0
  6
Continuous
 62
     7
370
    25
100
AcDbLine
 10
127.6919236531
 20
146.3429295968
 30
0.0
 11
127.6919236531
 21
148.1179797978
 31
0.0
  0
LINE
  5
215
330
1F
100
AcDbEntity
  8
0
  6
Continuous
 62
     7
370
    25
100
AcDbLine
 10
127.6919236531
 20
132.1179797978
 30
0.0
 11
127.6919236531
 21
133.8930299988
 31
0.0
  0
LINE
  5
216
330
1F
100
AcDbEntity
  8
0
  6
Continuous
 62
     7
370
    25
100
AcDbLine
 10
127.1919236531
 20
132.1179797978
 30
0.0
 11
127.6919236531
 21
132.1179797978
 31
0.0
  0
LINE
  5
217
330
1F
100
AcDbEntity
  8
0
  6
Continuous
 62
     7
370
    25
100
AcDbLine
 10
110.6919236531
 20
132.1179797978
 30
0.0
 11
111.1919236531
 21
132.1179797978
 31
0.0
  0
LINE
  5
218
330
1F
100
AcDbEntity
  8
0
  6
Continuous
 62
     7
370
    25
100
AcDbLine
 10
110.6919236531
 20
132.1179797978
 30
0.0
 11
110.6919236531
 21
133.8930299988
 31
0.0
  0
ARC
  5
219
330
1F
100
AcDbEntity
  8
0
  6
Continuous
 62
     7
370
    25
100
AcDbCircle
 10
111.1919236531
 20
132.1179797978
 30
0.0
 40
0.5
100
AcDbArc
 50
180.0
 51
270.0
  0
ARC
  5
21A
330
1F
100
AcDbEntity
  8
0
  6
Continuous
 62
     7
370
    25
100
AcDbCircle
 10
127.1919236531
 20
132.1179797978
 30
0.0
 40
0.5
100
AcDbArc
 50
270.0
 51
0.0
  0
ARC
  5
21B
330
1F
100
AcDbEntity
  8
0
  6
Continuous
 62
     7
370
    25
100
AcDbCircle
 10
110.3811068442
 20
148.6319955364
 30
0.0
 40
0.4600455413011616
100
AcDbArc
 50
265.3144463661
 51
327.1815121748
  0
ARC
  5
21C
330
1F
100
AcDbEntity
  8
0
  6
Continuous
 62
     7
370
    25
100
AcDbCircle
 10
128.0027404619
 20
148.6319955364
 30
0.0
 40
0.4600455413011351
100
AcDbArc
 50
212.8184878252
 51
274.6855536339
  0
ARC
  5
21D
330
1F
100
AcDbEntity
  8
0
  6
Continuous
 62
     7
370
    25
100
AcDbCircle
 10
128.0027404619
 20
131.6039640591
 30
0.0
 40
0.4600455413011504
100
AcDbArc
 50
85.3144463661
 51
147.1815121748
  0
ARC
  5
21E
330
1F
100
AcDbEntity
  8
0
  6
Continuous
 62
     7
370
    25
100
AcDbCircle
 10
110.3811068442
 20
131.6039640591
 30
0.0
 40
0.4600455413018015
100
AcDbArc
 50
32.8184878253
 51
94.6855536338
  0
SPLINE
  5
21F
330
1F
100
AcDbEntity
  8
0
  6
Continuous
 62
     7
370
    25
100
AcDbSpline
210
0.0
220
0.0
230
1.0
 70
     8
 71
     3
 72
    12
 73
     8
 74
     0
 42
0.000000001
 43
0.00000001
 40
0.0
 40
0.0
 40
0.0
 40
0.0
 40
0.2499999999999998
 40
0.2499999999999998
 40
0.4999999999999998
 40
0.4999999999999998
 40
1.0
 40
1.0
 40
1.0
 40
1.0
 10
110.7677253286106
 20
148.3826603250716
 30
0.0
 10
110.7899921707645
 20
148.4183469591754
 30
0.0
 10
110.797030203419
 20
148.4519058354748
 30
0.0
 10
110.7979053249034
 20
148.51054958053
 30
0.0
 10
110.7912413309543
 20
148.5357764964918
 30
0.0
 10
110.7605889815361
 20
148.5968103099922
 30
0.0
 10
110.7259802984117
 20
148.6179797977636
 30
0.0
 10
110.691923653058
 20
148.6179797977636
 30
0.0
  0
SPLINE
  5
220
330
1F
100
AcDbEntity
  8
0
  6
Continuous
 62
     7
370
    25
100
AcDbSpline
210
0.0
220
0.0
230
1.0
 70
    24
 71
     3
 72
    16
 73
    12
 74
     0
 42
0.000000001
 43
0.00000001
 40
0.0
 40
0.0
 40
0.0
 40
0.0
 40
0.2500000000000002
 40
0.2500000000000002
 40
0.5000000000000004
 40
0.5000000000000004
 40
0.7500000000000004
 40
0.7500000000000004
 40
0.8750000000000002
 40
0.8750000000000002
 40
1.0
 40
1.0
 40
1.0
 40
1.0
 10
111.191923653058
 20
148.6179797977636
 30
0.0
 10
111.191923653058
 20
148.6179797977636
 30
0.0
 10
111.1719918673708
 20
148.6179797977636
 30
0.0
 10
111.1113853207673
 20
148.6179797977636
 30
0.0
 10
111.0702748133221
 20
148.6179797977636
 30
0.0
 10
110.9758983569229
 20
148.6179797977636
 30
0.0
 10
110.9225329950666
 20
148.6179797977636
 30
0.0
 10
110.838225835132
 20
148.6179797977636
 30
0.0
 10
110.8094009582901
 20
148.6179797977636
 30
0.0
 10
110.7510418797246
 20
148.6179797977636
 30
0.0
 10
110.7217907585065
 20
148.6179797977636
 30
0.0
 10
110.691923653058
 20
148.6179797977636
 30
0.0
  0
SPLINE
  5
221
330
1F
100
AcDbEntity
  8
0
  6
Continuous
 62
     7
370
    25
100
AcDbSpline
210
0.0
220
0.0
230
1.0
 70
     8
 71
     3
 72
    12
 73
     8
 74
     0
 42
0.000000001
 43
0.00000001
 40
0.0
 40
0.0
 40
0.0
 40
0.0
 40
0.2500000000000001
 40
0.2500000000000001
 40
0.5
 40
0.5
 40
1.0
 40
1.0
 40
1.0
 40
1.0
 10
127.6161219775054
 20
148.3826603250716
 30
0.0
 10
127.5938551353531
 20
148.4183469591727
 30
0.0
 10
127.5868171026981
 20
148.4519058354697
 30
0.0
 10
127.5859419812116
 20
148.5105495805218
 30
0.0
 10
127.5926059751589
 20
148.5357764964826
 30
0.0
 10
127.6232583245715
 20
148.5968103099829
 30
0.0
 10
127.6578670074217
 20
148.6179797977636
 30
0.0
 10
127.691923653058
 20
148.6179797977636
 30
0.0
  0
SPLINE
  5
222
330
1F
100
AcDbEntity
  8
0
  6
Continuous
 62
     7
370
    25
100
AcDbSpline
210
0.0
220
0.0
230
1.0
 70
    24
 71
     3
 72
    16
 73
    12
 74
     0
 42
0.000000001
 43
0.00000001
 40
0.0
 40
0.0
 40
0.0
 40
0.0
 40
0.2500000000000002
 40
0.2500000000000002
 40
0.5000000000000004
 40
0.5000000000000004
 40
0.7500000000000004
 40
0.7500000000000004
 40
0.8750000000000002
 40
0.8750000000000002
 40
1.0
 40
1.0
 40
1.0
 40
1.0
 10
127.191923653058
 20
148.6179797977636
 30
0.0
 10
127.191923653058
 20
148.6179797977636
 30
0.0
 10
127.2118554387451
 20
148.6179797977636
 30
0.0
 10
127.2724619853487
 20
148.6179797977636
 30
0.0
 10
127.3135724927939
 20
148.6179797977636
 30
0.0
 10
127.4079489491931
 20
148.6179797977636
 30
0.0
 10
127.4613143110494
 20
148.6179797977636
 30
0.0
 10
127.545621470984
 20
148.6179797977636
 30
0.0
 10
127.5744463478258
 20
148.6179797977636
 30
0.0
 10
127.6328054263913
 20
148.6179797977636
 30
0.0
 10
127.6620565476094
 20
148.6179797977636
 30
0.0
 10
127.691923653058
 20
148.6179797977636
 30
0.0
  0
SPLINE
  5
223
330
1F
100
AcDbEntity
  8
0
  6
Continuous
 62
     7
370
    25
100
AcDbSpline
210
0.0
220
0.0
230
1.0
 70
     8
 71
     3
 72
    12
 73
     8
 74
     0
 42
0.000000001
 43
0.00000001
 40
0.0
 40
0.0
 40
0.0
 40
0.0
 40
0.25
 40
0.25
 40
0.5
 40
0.5
 40
1.0
 40
1.0
 40
1.0
 40
1.0
 10
127.6161219775053
 20
131.8532992704556
 30
0.0
 10
127.5938551353531
 20
131.8176126363545
 30
0.0
 10
127.5868171026981
 20
131.7840537600575
 30
0.0
 10
127.5859419812116
 20
131.7254100150055
 30
0.0
 10
127.5926059751589
 20
131.7001830990446
 30
0.0
 10
127.6232583245714
 20
131.6391492855444
 30
0.0
 10
127.6578670074216
 20
131.6179797977636
 30
0.0
 10
127.691923653058
 20
131.6179797977636
 30
0.0
  0
SPLINE
  5
224
330
1F
100
AcDbEntity
  8
0
  6
Continuous
 62
     7
370
    25
100
AcDbSpline
210
0.0
220
0.0
230
1.0
 70
    24
 71
     3
 72
    16
 73
    12
 74
     0
 42
0.000000001
 43
0.00000001
 40
0.0
 40
0.0
 40
0.0
 40
0.0
 40
0.2500000000000002
 40
0.2500000000000002
 40
0.5000000000000002
 40
0.5000000000000002
 40
0.7500000000000002
 40
0.7500000000000002
 40
0.8750000000000001
 40
0.8750000000000001
 40
1.0
 40
1.0
 40
1.0
 40
1.0
 10
127.191923653058
 20
131.6179797977636
 30
0.0
 10
127.191923653058
 20
131.6179797977636
 30
0.0
 10
127.2118554387451
 20
131.6179797977636
 30
0.0
 10
127.2724619853487
 20
131.6179797977636
 30
0.0
 10
127.3135724927939
 20
131.6179797977636
 30
0.0
 10
127.4079489491931
 20
131.6179797977636
 30
0.0
 10
127.4613143110494
 20
131.6179797977636
 30
0.0
 10
127.545621470984
 20
131.6179797977636
 30
0.0
 10
127.5744463478258
 20
131.6179797977636
 30
0.0
 10
127.6328054263913
 20
131.6179797977636
 30
0.0
 10
127.6620565476094
 20
131.6179797977636
 30
0.0
 10
127.691923653058
 20
131.6179797977636
 30
0.0
  0
SPLINE
  5
225
330
1F
100
AcDbEntity
  8
0
  6
Continuous
 62
     7
370
    25
100
AcDbSpline
210
0.0
220
0.0
230
1.0
 70
     8
 71
     3
 72
    12
 73
     8
 74
     0
 42
0.000000001
 43
0.00000001
 40
0.0
 40
0.0
 40
0.0
 40
0.0
 40
0.2500000000000002
 40
0.2500000000000002
 40
0.5000000000000001
 40
0.5000000000000001
 40
1.0
 40
1.0
 40
1.0
 40
1.0
 10
110.7677253286106
 20
131.8532992704556
 30
0.0
 10
110.7899921707645
 20
131.8176126363519
 30
0.0
 10
110.797030203419
 20
131.7840537600525
 30
0.0
 10
110.7979053249034
 20
131.7254100149972
 30
0.0
 10
110.7912413309543
 20
131.7001830990355
 30
0.0
 10
110.7605889815361
 20
131.639149285535
 30
0.0
 10
110.7259802984115
 20
131.6179797977636
 30
0.0
 10
110.691923653058
 20
131.6179797977636
 30
0.0
  0
SPLINE
  5
226
330
1F
100
AcDbEntity
  8
0
  6
Continuous
 62
     7
370
    25
100
AcDbSpline
210
0.0
220
0.0
230
1.0
 70
    24
 71
     3
 72
    16
 73
    12
 74
     0
 42
0.000000001
 43
0.00000001
 40
0.0
 40
0.0
 40
0.0
 40
0.0
 40
0.2499999999999999
 40
0.2499999999999999
 40
0.5
 40
0.5
 40
0.7500000000000001
 40
0.7500000000000001
 40
0.875
 40
0.875
 40
1.0
 40
1.0
 40
1.0
 40
1.0
 10
111.191923653058
 20
131.6179797977636
 30
0.0
 10
111.191923653058
 20
131.6179797977636
 30
0.0
 10
111.1719918673708
 20
131.6179797977636
 30
0.0
 10
111.1113853207673
 20
131.6179797977636
 30
0.0
 10
111.0702748133221
 20
131.6179797977636
 30
0.0
 10
110.9758983569229
 20
131.6179797977636
 30
0.0
 10
110.9225329950666
 20
131.6179797977636
 30
0.0
 10
110.838225835132
 20
131.6179797977636
 30
0.0
 10
110.8094009582901
 20
131.6179797977636
 30
0.0
 10
110.7510418797246
 20
131.6179797977636
 30
0.0
 10
110.7217907585065
 20
131.6179797977636
 30
0.0
 10
110.691923653058
 20
131.6179797977636
 30
0.0
  0
LINE
  5
227
330
1F
100
AcDbEntity
  8
0
  6
Continuous
 62
     7
370
    25
100
AcDbLine
 10
128.4001812226
 20
148.9179797978
 30
0.0
 11
128.9836660836
 21
148.9179797978
 31
0.0
  0
LINE
  5
228
330
1F
100
AcDbEntity
  8
0
  6
Continuous
 62
     7
370
    25
100
AcDbLine
 10
127.9419236531
 20
148.6179797978
 30
0.0
 11
129.4419236531
 21
148.6179797978
 31
0.0
  0
LINE
  5
229
330
1F
100
AcDbEntity
  8
0
  6
Continuous
 62
     8
370
    25
100
AcDbLine
 10
103.1919236531
 20
128.8679797978
 30
0.0
 11
103.1919236531
 21
151.3679797978
 31
0.0
  0
LINE
  5
22A
330
1F
100
AcDbEntity
  8
0
  6
Continuous
 62
     8
370
    25
100
AcDbLine
 10
135.1919236531
 20
151.3679797978
 30
0.0
 11
135.1919236531
 21
128.8679797978
 31
0.0
  0
LINE
  5
22B
330
1F
100
AcDbEntity
  8
0
  6
Continuous
 62
     8
370
    25
100
AcDbLine
 10
133.1919236531
 20
131.6179797978
 30
0.0
 11
133.1919236531
 21
148.6179797978
 31
0.0
  0
LINE
  5
22C
330
1F
100
AcDbEntity
  8
0
  6
Continuous
 62
     8
370
    25
100
AcDbLine
 10
105.1919236531
 20
148.6179797978
 30
0.0
 11
105.1919236531
 21
131.6179797978
 31
0.0
  0
INSERT
  5
238
330
1F
100
AcDbEntity
  8
0
  6
Continuous
 62
     7
370
    18
100
AcDbBlockReference
  2
SW_CENTERMARKSYMBOL_1
 10
119.1919236531
 20
140.1179797978
 30
0.0
  0
ARC
  5
239
330
1F
100
AcDbEntity
  8
0
  6
Continuous
 62
     7
370
    18
100
AcDbCircle
 10
119.1919236531
 20
140.1179797978
 30
0.0
 40
5.722500000000011
100
AcDbArc
 50
75.0
 51
345.0
  0
ENDSEC
  0
SECTION
  2
OBJECTS
  0
DICTIONARY
  5
C
330
0
100
AcDbDictionary
281
     1
  3
ACAD_GROUP
350
D
  3
ACAD_LAYOUT
350
1A
  3
ACAD_MLINESTYLE
350
17
  3
ACAD_PLOTSETTINGS
350
19
  3
ACAD_PLOTSTYLENAME
350
E
  3
ACAD_SCALELIST
350
47
  0
DICTIONARY
  5
D
102
{ACAD_REACTORS
330
C
102
}
330
C
100
AcDbDictionary
281
     1
  0
DICTIONARY
  5
1A
102
{ACAD_REACTORS
330
C
102
}
330
C
100
AcDbDictionary
281
     1
  3
Layout1
350
1E
  3
Layout2
350
26
  3
Model
350
22
  0
DICTIONARY
  5
17
102
{ACAD_REACTORS
330
C
102
}
330
C
100
AcDbDictionary
281
     1
  3
Standard
350
18
  0
DICTIONARY
  5
19
102
{ACAD_REACTORS
330
C
102
}
330
C
100
AcDbDictionary
281
     1
  0
ACDBDICTIONARYWDFLT
  5
E
102
{ACAD_REACTORS
330
C
102
}
330
C
100
AcDbDictionary
281
     1
  3
Normal
350
F
100
AcDbDictionaryWithDefault
340
F
  0
DICTIONARY
  5
47
102
{ACAD_REACTORS
330
C
102
}
330
C
100
AcDbDictionary
281
     1
  3
A0
350
48
  3
A1
350
49
  3
A2
350
4A
  3
A3
350
4B
  3
A4
350
4C
  3
A5
350
4D
  3
A6
350
4E
  3
A7
350
4F
  3
A8
350
50
  3
A9
350
51
  3
B0
350
52
  3
B1
350
53
  3
B2
350
54
  3
B3
350
55
  3
B4
350
56
  3
B5
350
57
  3
B6
350
58
  3
B7
350
59
  3
B8
350
5A
  3
B9
350
5B
  3
C0
350
5C
  3
C1
350
5D
  3
C2
350
5E
  3
C3
350
5F
  3
C4
350
60
  3
C5
350
61
  3
C6
350
62
  3
C7
350
63
  3
C8
350
64
  3
C9
350
65
  3
D0
350
66
  3
D1
350
67
  3
D2
350
68
  0
LAYOUT
  5
1E
102
{ACAD_REACTORS
330
1A
102
}
330
1A
100
AcDbPlotSettings
  1

  2
none_device
  4

  6

 40
0.0
 41
0.0
 42
0.0
 43
0.0
 44
0.0
 45
0.0
 46
0.0
 47
0.0
 48
0.0
 49
0.0
140
0.0
141
0.0
142
1.0
143
1.0
 70
   688
 72
     1
 73
     0
 74
     5
  7

 75
    16
147
1.0
148
0.0
149
0.0
100
AcDbLayout
  1
Layout1
 70
     1
 71
     1
 10
0.0
 20
0.0
 11
420.0
 21
297.0
 12
0.0
 22
0.0
 32
0.0
 14
1.0000000000E+20
 24
1.0000000000E+20
 34
1.0000000000E+20
 15
-1.0000000000E+20
 25
-1.0000000000E+20
 35
-1.0000000000E+20
146
0.0
 13
0.0
 23
0.0
 33
0.0
 16
1.0
 26
0.0
 36
0.0
 17
0.0
 27
1.0
 37
0.0
 76
     0
330
1B
  0
LAYOUT
  5
26
102
{ACAD_REACTORS
330
1A
102
}
330
1A
100
AcDbPlotSettings
  1

  2
none_device
  4

  6

 40
0.0
 41
0.0
 42
0.0
 43
0.0
 44
0.0
 45
0.0
 46
0.0
 47
0.0
 48
0.0
 49
0.0
140
0.0
141
0.0
142
1.0
143
1.0
 70
   688
 72
     1
 73
     0
 74
     5
  7

 75
    16
147
1.0
148
0.0
149
0.0
100
AcDbLayout
  1
Layout2
 70
     1
 71
     2
 10
0.0
 20
0.0
 11
0.0
 21
0.0
 12
0.0
 22
0.0
 32
0.0
 14
0.0
 24
0.0
 34
0.0
 15
0.0
 25
0.0
 35
0.0
146
0.0
 13
0.0
 23
0.0
 33
0.0
 16
1.0
 26
0.0
 36
0.0
 17
0.0
 27
1.0
 37
0.0
 76
     0
330
23
  0
LAYOUT
  5
22
102
{ACAD_REACTORS
330
1A
102
}
330
1A
100
AcDbPlotSettings
  1

  2
none_device
  4
Letter_(8.50_x_11.00_Inches)
  6

 40
6.35
 41
6.35
 42
6.35000508
 43
6.35000508
 44
215.9
 45
279.4
 46
0.0
 47
0.0
 48
0.0
 49
0.0
140
0.0
141
0.0
142
1.0
143
1.0
 70
  1712
 72
     1
 73
     0
 74
     0
  7

 75
     0
147
1.0
148
0.0
149
0.0
100
AcDbLayout
  1
Model
 70
     1
 71
     0
 10
0.0
 20
0.0
 11
431.8
 21
279.4
 12
0.0
 22
0.0
 32
0.0
 14
0.0
 24
0.0
 34
0.0
 15
431.8
 25
279.4
 35
0.0
146
0.0
 13
0.0
 23
0.0
 33
0.0
 16
1.0
 26
0.0
 36
0.0
 17
0.0
 27
1.0
 37
0.0
 76
     0
330
1F
331
29
  0
MLINESTYLE
  5
18
102
{ACAD_REACTORS
330
17
102
}
330
17
100
AcDbMlineStyle
  2
Standard
 70
     0
  3

 62
   256
 51
90.0
 52
90.0
 71
     2
 49
0.5
 62
   256
  6
BYLAYER
 49
-0.5
 62
   256
  6
BYLAYER
  0
ACDBPLACEHOLDER
  5
F
102
{ACAD_REACTORS
330
E
102
}
330
E
  0
SCALE
  5
48
102
{ACAD_REACTORS
330
47
102
}
330
47
100
AcDbScale
 70
     0
300
1:1
140
1.0
141
1.0
290
     1
  0
SCALE
  5
49
102
{ACAD_REACTORS
330
47
102
}
330
47
100
AcDbScale
 70
     0
300
1:2
140
1.0
141
2.0
290
     0
  0
SCALE
  5
4A
102
{ACAD_REACTORS
330
47
102
}
330
47
100
AcDbScale
 70
     0
300
1:4
140
1.0
141
4.0
290
     0
  0
SCALE
  5
4B
102
{ACAD_REACTORS
330
47
102
}
330
47
100
AcDbScale
 70
     0
300
1:5
140
1.0
141
5.0
290
     0
  0
SCALE
  5
4C
102
{ACAD_REACTORS
330
47
102
}
330
47
100
AcDbScale
 70
     0
300
1:8
140
1.0
141
8.0
290
     0
  0
SCALE
  5
4D
102
{ACAD_REACTORS
330
47
102
}
330
47
100
AcDbScale
 70
     0
300
1:10
140
1.0
141
10.0
290
     0
  0
SCALE
  5
4E
102
{ACAD_REACTORS
330
47
102
}
330
47
100
AcDbScale
 70
     0
300
1:16
140
1.0
141
16.0
290
     0
  0
SCALE
  5
4F
102
{ACAD_REACTORS
330
47
102
}
330
47
100
AcDbScale
 70
     0
300
1:20
140
1.0
141
20.0
290
     0
  0
SCALE
  5
50
102
{ACAD_REACTORS
330
47
102
}
330
47
100
AcDbScale
 70
     0
300
1:30
140
1.0
141
30.0
290
     0
  0
SCALE
  5
51
102
{ACAD_REACTORS
330
47
102
}
330
47
100
AcDbScale
 70
     0
300
1:40
140
1.0
141
40.0
290
     0
  0
SCALE
  5
52
102
{ACAD_REACTORS
330
47
102
}
330
47
100
AcDbScale
 70
     0
300
1:50
140
1.0
141
50.0
290
     0
  0
SCALE
  5
53
102
{ACAD_REACTORS
330
47
102
}
330
47
100
AcDbScale
 70
     0
300
1:100
140
1.0
141
100.0
290
     0
  0
SCALE
  5
54
102
{ACAD_REACTORS
330
47
102
}
330
47
100
AcDbScale
 70
     0
300
2:1
140
2.0
141
1.0
290
     0
  0
SCALE
  5
55
102
{ACAD_REACTORS
330
47
102
}
330
47
100
AcDbScale
 70
     0
300
4:1
140
4.0
141
1.0
290
     0
  0
SCALE
  5
56
102
{ACAD_REACTORS
330
47
102
}
330
47
100
AcDbScale
 70
     0
300
8:1
140
8.0
141
1.0
290
     0
  0
SCALE
  5
57
102
{ACAD_REACTORS
330
47
102
}
330
47
100
AcDbScale
 70
     0
300
10:1
140
10.0
141
1.0
290
     0
  0
SCALE
  5
58
102
{ACAD_REACTORS
330
47
102
}
330
47
100
AcDbScale
 70
     0
300
100:1
140
100.0
141
1.0
290
     0
  0
SCALE
  5
59
102
{ACAD_REACTORS
330
47
102
}
330
47
100
AcDbScale
 70
     0
300
1/128" = 1'-0"
140
0.0078125
141
12.0
290
     0
  0
SCALE
  5
5A
102
{ACAD_REACTORS
330
47
102
}
330
47
100
AcDbScale
 70
     0
300
1/64" = 1'-0"
140
0.015625
141
12.0
290
     0
  0
SCALE
  5
5B
102
{ACAD_REACTORS
330
47
102
}
330
47
100
AcDbScale
 70
     0
300
1/32" = 1'-0"
140
0.03125
141
12.0
290
     0
  0
SCALE
  5
5C
102
{ACAD_REACTORS
330
47
102
}
330
47
100
AcDbScale
 70
     0
300
1/16" = 1'-0"
140
0.0625
141
12.0
290
     0
  0
SCALE
  5
5D
102
{ACAD_REACTORS
330
47
102
}
330
47
100
AcDbScale
 70
     0
300
3/32" = 1'-0"
140
0.09375
141
12.0
290
     0
  0
SCALE
  5
5E
102
{ACAD_REACTORS
330
47
102
}
330
47
100
AcDbScale
 70
     0
300
1/8" = 1'-0"
140
0.125
141
12.0
290
     0
  0
SCALE
  5
5F
102
{ACAD_REACTORS
330
47
102
}
330
47
100
AcDbScale
 70
     0
300
3/16" = 1'-0"
140
0.1875
141
12.0
290
     0
  0
SCALE
  5
60
102
{ACAD_REACTORS
330
47
102
}
330
47
100
AcDbScale
 70
     0
300
1/4" = 1'-0"
140
0.25
141
12.0
290
     0
  0
SCALE
  5
61
102
{ACAD_REACTORS
330
47
102
}
330
47
100
AcDbScale
 70
     0
300
3/8" = 1'-0"
140
0.375
141
12.0
290
     0
  0
SCALE
  5
62
102
{ACAD_REACTORS
330
47
102
}
330
47
100
AcDbScale
 70
     0
300
1/2" = 1'-0"
140
0.5
141
12.0
290
     0
  0
SCALE
  5
63
102
{ACAD_REACTORS
330
47
102
}
330
47
100
AcDbScale
 70
     0
300
3/4" = 1'-0"
140
0.75
141
12.0
290
     0
  0
SCALE
  5
64
102
{ACAD_REACTORS
330
47
102
}
330
47
100
AcDbScale
 70
     0
300
1" = 1'-0"
140
1.0
141
12.0
290
     0
  0
SCALE
  5
65
102
{ACAD_REACTORS
330
47
102
}
330
47
100
AcDbScale
 70
     0
300
1-1/2" = 1'-0"
140
1.5
141
12.0
290
     0
  0
SCALE
  5
66
102
{ACAD_REACTORS
330
47
102
}
330
47
100
AcDbScale
 70
     0
300
3" = 1'-0"
140
3.0
141
12.0
290
     0
  0
SCALE
  5
67
102
{ACAD_REACTORS
330
47
102
}
330
47
100
AcDbScale
 70
     0
300
6" = 1'-0"
140
6.0
141
12.0
290
     0
  0
SCALE
  5
68
102
{ACAD_REACTORS
330
47
102
}
330
47
100
AcDbScale
 70
     0
300
1'-0" = 1'-0"
140
12.0
141
12.0
290
     0
  0
ENDSEC
  0
EOF
