  0
SECTION
  2
HEADER
  9
$ACADVER
  1
AC1015
  9
$ACADMAINTVER
 70
     6
  9
$DWGCODEPAGE
  3
DOS932
  9
$INSBASE
 10
0.0
 20
0.0
 30
0.0
  9
$EXTMIN
 10
0.0
 20
0.0
 30
0.0
  9
$EXTMAX
 10
431.8
 20
279.4
 30
0.0
  9
$LIMMIN
 10
0.0
 20
0.0
  9
$LIMMAX
 10
431.8
 20
279.4
  9
$ORTHOMODE
 70
     0
  9
$REGENMODE
 70
     1
  9
$FILLMODE
 70
     1
  9
$QTEXTMODE
 70
     0
  9
$MIRRTEXT
 70
     1
  9
$LTSCALE
 40
1.0
  9
$ATTMODE
 70
     1
  9
$TEXTSIZE
 40
3.5
  9
$TRACEWID
 40
1.0
  9
$TEXTSTYLE
  7
Standard
  9
$CLAYER
  8
0
  9
$CELTYPE
  6
ByLayer
  9
$CECOLOR
 62
   256
  9
$CELTSCALE
 40
1.0
  9
$DISPSILH
 70
     0
  9
$DIMSCALE
 40
1.0
  9
$DIMASZ
 40
3.302
  9
$DIMEXO
 40
1.0
  9
$DIMDLI
 40
3.75
  9
$DIMRND
 40
0.0
  9
$DIMDLE
 40
0.0
  9
$DIMEXE
 40
1.0
  9
$DIMTP
 40
0.0
  9
$DIMTM
 40
0.0
  9
$DIMTXT
 40
3.5
  9
$DIMCEN
 40
2.5
  9
$DIMTSZ
 40
0.0
  9
$DIMTOL
 70
     0
  9
$DIMLIM
 70
     0
  9
$DIMTIH
 70
     1
  9
$DIMTOH
 70
     1
  9
$DIMSE1
 70
     0
  9
$DIMSE2
 70
     0
  9
$DIMTAD
 70
     1
  9
$DIMZIN
 70
     1
  9
$DIMBLK
  1

  9
$DIMASO
 70
     1
  9
$DIMSHO
 70
     1
  9
$DIMPOST
  1

  9
$DIMAPOST
  1

  9
$DIMALT
 70
     0
  9
$DIMALTD
 70
     3
  9
$DIMALTF
 40
0.0393700787
  9
$DIMLFAC
 40
1.0
  9
$DIMTOFL
 70
     1
  9
$DIMTVP
 40
0.0
  9
$DIMTIX
 70
     0
  9
$DIMSOXD
 70
     0
  9
$DIMSAH
 70
     0
  9
$DIMBLK1
  1

  9
$DIMBLK2
  1

  9
$DIMSTYLE
  2
ISO-25
  9
$DIMCLRD
 70
     0
  9
$DIMCLRE
 70
     0
  9
$DIMCLRT
 70
     0
  9
$DIMTFAC
 40
1.0
  9
$DIMGAP
 40
1.524
  9
$DIMJUST
 70
     0
  9
$DIMSD1
 70
     0
  9
$DIMSD2
 70
     0
  9
$DIMTOLJ
 70
     0
  9
$DIMTZIN
 70
     1
  9
$DIMALTZ
 70
     0
  9
$DIMALTTZ
 70
     0
  9
$DIMUPT
 70
     0
  9
$DIMDEC
 70
     2
  9
$DIMTDEC
 70
     2
  9
$DIMALTU
 70
     2
  9
$DIMALTTD
 70
     3
  9
$DIMTXSTY
  7
Standard
  9
$DIMAUNIT
 70
     0
  9
$DIMADEC
 70
     2
  9
$DIMALTRND
 40
0.0
  9
$DIMAZIN
 70
     0
  9
$DIMDSEP
 70
    44
  9
$DIMATFIT
 70
     3
  9
$DIMFRAC
 70
     0
  9
$DIMLDRBLK
  1

  9
$DIMLUNIT
 70
     2
  9
$DIMLWD
 70
    -2
  9
$DIMLWE
 70
    -2
  9
$DIMTMOVE
 70
     0
  9
$LUNITS
 70
     2
  9
$LUPREC
 70
     2
  9
$SKETCHINC
 40
1.0
  9
$FILLETRAD
 40
10.0
  9
$AUNITS
 70
     0
  9
$AUPREC
 70
     2
  9
$MENU
  1
.
  9
$ELEVATION
 40
0.0
  9
$PELEVATION
 40
0.0
  9
$THICKNESS
 40
0.0
  9
$LIMCHECK
 70
     0
  9
$CHAMFERA
 40
0.0
  9
$CHAMFERB
 40
0.0
  9
$CHAMFERC
 40
0.0
  9
$CHAMFERD
 40
0.0
  9
$SKPOLY
 70
     0
  9
$TDCREATE
 40
2459229.39927772
  9
$TDUCREATE
 40
2459229.02427772
  9
$TDUPDATE
 40
2459229.399278623
  9
$TDUUPDATE
 40
2459229.024278623
  9
$TDINDWG
 40
0.0000000116
  9
$TDUSRTIMER
 40
0.0000000116
  9
$USRTIMER
 70
     1
  9
$ANGBASE
 50
0.0
  9
$ANGDIR
 70
     0
  9
$PDMODE
 70
     0
  9
$PDSIZE
 40
-1.0
  9
$PLINEWID
 40
0.0
  9
$SPLFRAME
 70
     0
  9
$SPLINETYPE
 70
     6
  9
$SPLINESEGS
 70
     8
  9
$HANDSEED
  5
23C
  9
$SURFTAB1
 70
     6
  9
$SURFTAB2
 70
     6
  9
$SURFTYPE
 70
     6
  9
$SURFU
 70
     6
  9
$SURFV
 70
     6
  9
$UCSBASE
  2

  9
$UCSNAME
  2

  9
$UCSORG
 10
0.0
 20
0.0
 30
0.0
  9
$UCSXDIR
 10
1.0
 20
0.0
 30
0.0
  9
$UCSYDIR
 10
0.0
 20
1.0
 30
0.0
  9
$UCSORTHOREF
  2

  9
$UCSORTHOVIEW
 70
     0
  9
$UCSORGTOP
 10
0.0
 20
0.0
 30
0.0
  9
$UCSORGBOTTOM
 10
0.0
 20
0.0
 30
0.0
  9
$UCSORGLEFT
 10
0.0
 20
0.0
 30
0.0
  9
$UCSORGRIGHT
 10
0.0
 20
0.0
 30
0.0
  9
$UCSORGFRONT
 10
0.0
 20
0.0
 30
0.0
  9
$UCSORGBACK
 10
0.0
 20
0.0
 30
0.0
  9
$PUCSBASE
  2

  9
$PUCSNAME
  2

  9
$PUCSORG
 10
0.0
 20
0.0
 30
0.0
  9
$PUCSXDIR
 10
1.0
 20
0.0
 30
0.0
  9
$PUCSYDIR
 10
0.0
 20
1.0
 30
0.0
  9
$PUCSORTHOREF
  2

  9
$PUCSORTHOVIEW
 70
     0
  9
$PUCSORGTOP
 10
0.0
 20
0.0
 30
0.0
  9
$PUCSORGBOTTOM
 10
0.0
 20
0.0
 30
0.0
  9
$PUCSORGLEFT
 10
0.0
 20
0.0
 30
0.0
  9
$PUCSORGRIGHT
 10
0.0
 20
0.0
 30
0.0
  9
$PUCSORGFRONT
 10
0.0
 20
0.0
 30
0.0
  9
$PUCSORGBACK
 10
0.0
 20
0.0
 30
0.0
  9
$USERI1
 70
     0
  9
$USERI2
 70
     0
  9
$USERI3
 70
     0
  9
$USERI4
 70
     0
  9
$USERI5
 70
     0
  9
$USERR1
 40
0.0
  9
$USERR2
 40
0.0
  9
$USERR3
 40
0.0
  9
$USERR4
 40
0.0
  9
$USERR5
 40
0.0
  9
$WORLDVIEW
 70
     1
  9
$SHADEDGE
 70
     3
  9
$SHADEDIF
 70
    70
  9
$TILEMODE
 70
     1
  9
$MAXACTVP
 70
    64
  9
$PINSBASE
 10
0.0
 20
0.0
 30
0.0
  9
$PLIMCHECK
 70
     0
  9
$PEXTMIN
 10
1.0000000000E+20
 20
1.0000000000E+20
 30
1.0000000000E+20
  9
$PEXTMAX
 10
-1.0000000000E+20
 20
-1.0000000000E+20
 30
-1.0000000000E+20
  9
$PLIMMIN
 10
0.0
 20
0.0
  9
$PLIMMAX
 10
420.0
 20
297.0
  9
$UNITMODE
 70
     0
  9
$VISRETAIN
 70
     1
  9
$PLINEGEN
 70
     0
  9
$PSLTSCALE
 70
     1
  9
$TREEDEPTH
 70
  3020
  9
$CMLSTYLE
  2
Standard
  9
$CMLJUST
 70
     0
  9
$CMLSCALE
 40
20.0
  9
$PROXYGRAPHICS
 70
     1
  9
$MEASUREMENT
 70
     1
  9
$CELWEIGHT
370
    -1
  9
$ENDCAPS
280
     0
  9
$JOINSTYLE
280
     0
  9
$LWDISPLAY
290
     1
  9
$INSUNITS
 70
     4
  9
$HYPERLINKBASE
  1

  9
$STYLESHEET
  1

  9
$XEDIT
290
     1
  9
$CEPSNTYPE
380
     0
  9
$PSTYLEMODE
290
     1
  9
$FINGERPRINTGUID
  2
{15550F2A-B847-41D9-B8C1-FF7B652A705C}
  9
$VERSIONGUID
  2
{FAEB1C32-E019-11D5-929B-00C0DF256EC4}
  9
$EXTNAMES
290
     1
  9
$PSVPSCALE
 40
0.0
  9
$OLESTARTUP
290
     0
  0
ENDSEC
  0
SECTION
  2
CLASSES
  0
CLASS
  1
ACDBDICTIONARYWDFLT
  2
AcDbDictionaryWithDefault
  3
ObjectDBX Classes
 90
        0
280
     0
281
     0
  0
CLASS
  1
VISUALSTYLE
  2
AcDbVisualStyle
  3
ObjectDBX Classes
 90
     4095
280
     0
281
     0
  0
CLASS
  1
MATERIAL
  2
AcDbMaterial
  3
ObjectDBX Classes
 90
     1153
280
     0
281
     0
  0
CLASS
  1
SCALE
  2
AcDbScale
  3
ObjectDBX Classes
 90
     1153
280
     0
281
     0
  0
CLASS
  1
TABLESTYLE
  2
AcDbTableStyle
  3
ObjectDBX Classes
 90
     4095
280
     0
281
     0
  0
CLASS
  1
MLEADERSTYLE
  2
AcDbMLeaderStyle
  3
ACDB_MLEADERSTYLE_CLASS
 90
     4095
280
     0
281
     0
  0
CLASS
  1
SUN
  2
AcDbSun
  3
SCENEOE
 90
     1153
280
     0
281
     0
  0
CLASS
  1
ACDBPLACEHOLDER
  2
AcDbPlaceHolder
  3
ObjectDBX Classes
 90
        0
280
     0
281
     0
  0
CLASS
  1
LAYOUT
  2
AcDbLayout
  3
ObjectDBX Classes
 90
        0
280
     0
281
     0
  0
ENDSEC
  0
SECTION
  2
TABLES
  0
TABLE
  2
VPORT
  5
8
330
0
100
AcDbSymbolTable
 70
     1
  0
VPORT
  5
29
330
8
100
AcDbSymbolTableRecord
100
AcDbViewportTableRecord
  2
*Active
 70
     0
 10
0.0
 20
0.0
 11
1.0
 21
1.0
 12
215.9
 22
139.7
 13
0.0
 23
0.0
 14
10.0
 24
10.0
 15
10.0
 25
10.0
 16
0.0
 26
0.0
 36
1.0
 17
0.0
 27
0.0
 37
0.0
 40
279.4
 41
1.5454545455
 42
50.0
 43
0.0
 44
0.0
 50
0.0
 51
0.0
 71
     0
 72
  2000
 73
     1
 74
     3
 75
     0
 76
     0
 77
     0
 78
     0
281
     0
 65
     1
110
0.0
120
0.0
130
0.0
111
1.0
121
0.0
131
0.0
112
0.0
122
1.0
132
0.0
 79
     0
146
0.0
  0
ENDTAB
  0
TABLE
  2
LTYPE
  5
5
330
0
100
AcDbSymbolTable
 70
     6
  0
LTYPE
  5
14
330
5
100
AcDbSymbolTableRecord
100
AcDbLinetypeTableRecord
  2
ByBlock
 70
     0
  3

 72
    65
 73
     0
 40
0.0
  0
LTYPE
  5
15
330
5
100
AcDbSymbolTableRecord
100
AcDbLinetypeTableRecord
  2
ByLayer
 70
     0
  3

 72
    65
 73
     0
 40
0.0
  0
LTYPE
  5
16
330
5
100
AcDbSymbolTableRecord
100
AcDbLinetypeTableRecord
  2
Continuous
 70
     0
  3
Solid line
 72
    65
 73
     0
 40
0.0
  0
LTYPE
  5
6E
330
5
100
AcDbSymbolTableRecord
100
AcDbLinetypeTableRecord
  2
HIDDEN
 70
     0
  3
Hidden __ __ __ __ __ __ __ __ __ __ __ __ __ __
 72
    65
 73
     2
 40
1.905
 49
1.27
 74
     0
 49
-0.635
 74
     0
  0
LTYPE
  5
6F
330
5
100
AcDbSymbolTableRecord
100
AcDbLinetypeTableRecord
  2
PHANTOM
 70
     0
  3
Phantom ______  __  __  ______  __  __  ______
 72
    65
 73
     6
 40
12.7
 49
6.35
 74
     0
 49
-1.27
 74
     0
 49
1.27
 74
     0
 49
-1.27
 74
     0
 49
1.27
 74
     0
 49
-1.27
 74
     0
  0
LTYPE
  5
70
330
5
100
AcDbSymbolTableRecord
100
AcDbLinetypeTableRecord
  2
CENTER
 70
     0
  3
Center ____ _ ____ _ ____ _ ____ _ ____ _ ____
 72
    65
 73
     4
 40
10.16
 49
6.35
 74
     0
 49
-1.27
 74
     0
 49
1.27
 74
     0
 49
-1.27
 74
     0
  0
LTYPE
  5
71
330
5
100
AcDbSymbolTableRecord
100
AcDbLinetypeTableRecord
  2
CENTERX2
 70
     0
  3
Center (2x) ________  __  ________  __  _____
 72
    65
 73
     4
 40
20.32
 49
12.7
 74
     0
 49
-2.54
 74
     0
 49
2.54
 74
     0
 49
-2.54
 74
     0
  0
LTYPE
  5
72
330
5
100
AcDbSymbolTableRecord
100
AcDbLinetypeTableRecord
  2
DOT2
 70
     0
  3
Dot (.5x) ........................................
 72
    65
 73
     2
 40
0.635
 49
0.0
 74
     0
 49
-0.635
 74
     0
  0
ENDTAB
  0
TABLE
  2
LAYER
  5
2
330
0
100
AcDbSymbolTable
 70
     1
  0
LAYER
  5
10
330
2
100
AcDbSymbolTableRecord
100
AcDbLayerTableRecord
  2
0
 70
     0
 62
     7
  6
Continuous
370
    -3
390
F
  0
ENDTAB
  0
TABLE
  2
STYLE
  5
3
330
0
100
AcDbSymbolTable
 70
     2
  0
STYLE
  5
11
330
3
100
AcDbSymbolTableRecord
100
AcDbTextStyleTableRecord
  2
Standard
 70
     0
 40
0.0
 41
1.0
 50
0.0
 71
     0
 42
3.5
  3
txt
  4
bigfont
  0
STYLE
  5
73
330
3
100
AcDbSymbolTableRecord
100
AcDbTextStyleTableRecord
  2
SLDTEXTSTYLE0
 70
     0
 40
0.0
 41
0.7
 50
0.0
 71
     0
 42
3.5
  3
TXT
  4
bigfont
  0
ENDTAB
  0
TABLE
  2
VIEW
  5
6
330
0
100
AcDbSymbolTable
 70
     0
  0
ENDTAB
  0
TABLE
  2
UCS
  5
7
330
0
100
AcDbSymbolTable
 70
     0
  0
ENDTAB
  0
TABLE
  2
APPID
  5
9
330
0
100
AcDbSymbolTable
 70
     1
  0
APPID
  5
12
330
9
100
AcDbSymbolTableRecord
100
AcDbRegAppTableRecord
  2
ACAD
 70
     0
  0
ENDTAB
  0
TABLE
  2
DIMSTYLE
  5
A
330
0
100
AcDbSymbolTable
 70
     1
100
AcDbDimStyleTable
  0
DIMSTYLE
105
27
330
A
100
AcDbSymbolTableRecord
100
AcDbDimStyleTableRecord
  2
ISO-25
 70
     0
 41
2.5
 42
0.625
 43
3.75
 44
1.25
 73
     0
 74
     0
 77
     1
 78
     8
140
2.5
141
2.5
143
0.0393700787
147
0.625
171
     3
172
     1
178
     0
271
     2
272
     2
274
     3
278
    44
283
     0
284
     8
340
11
  0
ENDTAB
  0
TABLE
  2
BLOCK_RECORD
  5
1
330
0
100
AcDbSymbolTable
 70
     3
  0
BLOCK_RECORD
  5
1F
330
1
100
AcDbSymbolTableRecord
100
AcDbBlockTableRecord
  2
*Model_Space
340
22
  0
BLOCK_RECORD
  5
1B
330
1
100
AcDbSymbolTableRecord
100
AcDbBlockTableRecord
  2
*Paper_Space
340
1E
  0
BLOCK_RECORD
  5
23
330
1
100
AcDbSymbolTableRecord
100
AcDbBlockTableRecord
  2
*Paper_Space0
340
26
  0
BLOCK_RECORD
  5
18A
330
1
100
AcDbSymbolTableRecord
100
AcDbBlockTableRecord
  2
SW_CENTERMARKSYMBOL_0
340
0
102
{BLKREFS
331
195
102
}
  0
BLOCK_RECORD
  5
22F
330
1
100
AcDbSymbolTableRecord
100
AcDbBlockTableRecord
  2
SW_CENTERMARKSYMBOL_1
340
0
102
{BLKREFS
331
23A
102
}
  0
ENDTAB
  0
ENDSEC
  0
SECTION
  2
BLOCKS
  0
BLOCK
  5
20
330
1F
100
AcDbEntity
  8
0
100
AcDbBlockBegin
  2
*Model_Space
 70
     0
 10
0.0
 20
0.0
 30
0.0
  3
*Model_Space
  1

  0
ENDBLK
  5
21
330
1F
100
AcDbEntity
  8
0
100
AcDbBlockEnd
  0
BLOCK
  5
1C
330
1B
100
AcDbEntity
 67
     1
  8
0
100
AcDbBlockBegin
  2
*Paper_Space
 70
     0
 10
0.0
 20
0.0
 30
0.0
  3
*Paper_Space
  1

  0
ENDBLK
  5
1D
330
1B
100
AcDbEntity
 67
     1
  8
0
100
AcDbBlockEnd
  0
BLOCK
  5
24
330
23
100
AcDbEntity
  8
0
100
AcDbBlockBegin
  2
*Paper_Space0
 70
     0
 10
0.0
 20
0.0
 30
0.0
  3
*Paper_Space0
  1

  0
ENDBLK
  5
25
330
23
100
AcDbEntity
  8
0
100
AcDbBlockEnd
  0
BLOCK
  5
18B
330
18A
100
AcDbEntity
  8
0
100
AcDbBlockBegin
  2
SW_CENTERMARKSYMBOL_0
 70
     0
 10
0.0
 20
0.0
 30
0.0
  3
SW_CENTERMARKSYMBOL_0
  1

  0
LINE
  5
18D
330
18A
100
AcDbEntity
  8
0
  6
Continuous
 62
     0
370
    18
100
AcDbLine
 10
0.0
 20
0.0
 30
0.0
 11
0.0
 21
2.5
 31
0.0
  0
LINE
  5
18E
330
18A
100
AcDbEntity
  8
0
  6
Continuous
 62
     0
370
    18
100
AcDbLine
 10
0.0
 20
0.0
 30
0.0
 11
-2.5
 21
0.0
 31
0.0
  0
LINE
  5
18F
330
18A
100
AcDbEntity
  8
0
  6
Continuous
 62
     0
370
    18
100
AcDbLine
 10
0.0
 20
0.0
 30
0.0
 11
0.0
 21
-2.5
 31
0.0
  0
LINE
  5
190
330
18A
100
AcDbEntity
  8
0
  6
Continuous
 62
     0
370
    18
100
AcDbLine
 10
0.0
 20
0.0
 30
0.0
 11
2.5
 21
0.0
 31
0.0
  0
LINE
  5
191
330
18A
100
AcDbEntity
  8
0
  6
Continuous
 62
     0
370
    18
100
AcDbLine
 10
0.0
 20
5.0
 30
0.0
 11
0.0
 21
27.13396364
 31
0.0
  0
LINE
  5
192
330
18A
100
AcDbEntity
  8
0
  6
Continuous
 62
     0
370
    18
100
AcDbLine
 10
-5.0
 20
0.0
 30
0.0
 11
-11.5
 21
0.0
 31
0.0
  0
LINE
  5
193
330
18A
100
AcDbEntity
  8
0
  6
Continuous
 62
     0
370
    18
100
AcDbLine
 10
0.0
 20
-5.0
 30
0.0
 11
0.0
 21
-11.5
 31
0.0
  0
LINE
  5
194
330
18A
100
AcDbEntity
  8
0
  6
Continuous
 62
     0
370
    18
100
AcDbLine
 10
5.0
 20
0.0
 30
0.0
 11
11.5
 21
0.0
 31
0.0
  0
ENDBLK
  5
18C
330
18A
100
AcDbEntity
  8
0
100
AcDbBlockEnd
  0
BLOCK
  5
230
330
22F
100
AcDbEntity
  8
0
100
AcDbBlockBegin
  2
SW_CENTERMARKSYMBOL_1
 70
     0
 10
0.0
 20
0.0
 30
0.0
  3
SW_CENTERMARKSYMBOL_1
  1

  0
LINE
  5
232
330
22F
100
AcDbEntity
  8
0
  6
Continuous
 62
     0
370
    18
100
AcDbLine
 10
0.0
 20
0.0
 30
0.0
 11
0.0
 21
2.5
 31
0.0
  0
LINE
  5
233
330
22F
100
AcDbEntity
  8
0
  6
Continuous
 62
     0
370
    18
100
AcDbLine
 10
0.0
 20
0.0
 30
0.0
 11
-2.5
 21
0.0
 31
0.0
  0
LINE
  5
234
330
22F
100
AcDbEntity
  8
0
  6
Continuous
 62
     0
370
    18
100
AcDbLine
 10
0.0
 20
0.0
 30
0.0
 11
0.0
 21
-2.5
 31
0.0
  0
LINE
  5
235
330
22F
100
AcDbEntity
  8
0
  6
Continuous
 62
     0
370
    18
100
AcDbLine
 10
0.0
 20
0.0
 30
0.0
 11
2.5
 21
0.0
 31
0.0
  0
LINE
  5
236
330
22F
100
AcDbEntity
  8
0
  6
Continuous
 62
     0
370
    18
100
AcDbLine
 10
0.0
 20
5.0
 30
0.0
 11
0.0
 21
9.5
 31
0.0
  0
LINE
  5
237
330
22F
100
AcDbEntity
  8
0
  6
Continuous
 62
     0
370
    18
100
AcDbLine
 10
-5.0
 20
0.0
 30
0.0
 11
-27.4631007648
 21
0.0
 31
0.0
  0
LINE
  5
238
330
22F
100
AcDbEntity
  8
0
  6
Continuous
 62
     0
370
    18
100
AcDbLine
 10
0.0
 20
-5.0
 30
0.0
 11
0.0
 21
-9.5
 31
0.0
  0
LINE
  5
239
330
22F
100
AcDbEntity
  8
0
  6
Continuous
 62
     0
370
    18
100
AcDbLine
 10
5.0
 20
0.0
 30
0.0
 11
28.0900652645
 21
0.0
 31
0.0
  0
ENDBLK
  5
231
330
22F
100
AcDbEntity
  8
0
100
AcDbBlockEnd
  0
ENDSEC
  0
SECTION
  2
ENTITIES
  0
MTEXT
  5
74
330
1F
100
AcDbEntity
  8
0
  6
Continuous
 62
     7
370
     0
100
AcDbMText
 10
147.2920362301
 20
117.5974195562
 30
0.0
 40
5.2916666667
 41
0.0
 71
     1
 72
     1
  1
5R-TK1223
  7
SLDTEXTSTYLE0
 73
     1
 44
1.0
  0
LINE
  5
75
330
1F
100
AcDbEntity
  8
0
  6
Continuous
 62
     7
370
    25
100
AcDbLine
 10
134.0196234716
 20
67.1849969192
 30
0.0
 11
145.0196224806
 21
67.1849969192
 31
0.0
  0
LINE
  5
76
330
1F
100
AcDbEntity
  8
0
  6
Continuous
 62
     7
370
    25
100
AcDbLine
 10
145.0196224806
 20
85.1849961444
 30
0.0
 11
134.0196234716
 21
85.1849961444
 31
0.0
  0
LINE
  5
77
330
1F
100
AcDbEntity
  8
0
  6
Continuous
 62
     7
370
    25
100
AcDbLine
 10
96.0196237621
 20
85.1849961444
 30
0.0
 11
95.5196227489
 21
84.6849969937
 31
0.0
  0
LINE
  5
78
330
1F
100
AcDbEntity
  8
0
  6
Continuous
 62
     7
370
    25
100
AcDbLine
 10
95.5196227489
 20
67.6849960699
 30
0.0
 11
96.0196237621
 21
67.1849969192
 31
0.0
  0
LINE
  5
79
330
1F
100
AcDbEntity
  8
0
  6
Continuous
 62
     7
370
    25
100
AcDbLine
 10
107.0196227712
 20
85.1849961444
 30
0.0
 11
96.0196237621
 21
85.1849961444
 31
0.0
  0
LINE
  5
7A
330
1F
100
AcDbEntity
  8
0
  6
Continuous
 62
     7
370
    25
100
AcDbLine
 10
96.0196237621
 20
67.1849969192
 30
0.0
 11
107.0196227712
 21
67.1849969192
 31
0.0
  0
LINE
  5
7B
330
1F
100
AcDbEntity
  8
0
  6
Continuous
 62
     7
370
    25
100
AcDbLine
 10
145.0196224806
 20
67.1849969192
 30
0.0
 11
145.5196234939
 21
67.6849960699
 31
0.0
  0
LINE
  5
7C
330
1F
100
AcDbEntity
  8
0
  6
Continuous
 62
     7
370
    25
100
AcDbLine
 10
145.5196234939
 20
84.6849969937
 30
0.0
 11
145.0196224806
 21
85.1849961444
 31
0.0
  0
ARC
  5
7D
330
1F
100
AcDbEntity
  8
0
  6
Continuous
 62
     7
370
    25
100
AcDbCircle
 10
107.0196231214
 20
83.6849965318
 30
0.0
 40
1.500000000000001
100
AcDbArc
 50
11.5369590328
 51
90.0
  0
ARC
  5
7E
330
1F
100
AcDbEntity
  8
0
  6
Continuous
 62
     7
370
    25
100
AcDbCircle
 10
107.0196231214
 20
68.6849965318
 30
0.0
 40
1.500000000000004
100
AcDbArc
 50
270.0
 51
348.4630409672
  0
ARC
  5
7F
330
1F
100
AcDbEntity
  8
0
  6
Continuous
 62
     7
370
    25
100
AcDbCircle
 10
134.0196231214
 20
83.6849965318
 30
0.0
 40
1.500000000000015
100
AcDbArc
 50
90.0
 51
168.4630409672
  0
ARC
  5
80
330
1F
100
AcDbEntity
  8
0
  6
Continuous
 62
     7
370
    25
100
AcDbCircle
 10
134.0196231214
 20
68.6849965318
 30
0.0
 40
1.500000000000018
100
AcDbArc
 50
191.5369590328
 51
270.0
  0
LINE
  5
81
330
1F
100
AcDbEntity
  8
0
  6
Continuous
 62
     7
370
    25
100
AcDbLine
 10
129.0411967394
 20
88.586639741
 30
0.0
 11
128.7120394019
 21
99.1196698858
 31
0.0
  0
LINE
  5
82
330
1F
100
AcDbEntity
  8
0
  6
Continuous
 62
     7
370
    25
100
AcDbLine
 10
112.3272068409
 20
99.1196698858
 30
0.0
 11
111.9980495033
 21
88.586639741
 31
0.0
  0
ARC
  5
83
330
1F
100
AcDbEntity
  8
0
  6
Continuous
 62
     7
370
    25
100
AcDbCircle
 10
113.0196231214
 20
89.6849965318
 30
0.0
 40
1.500000000000012
100
AcDbArc
 50
227.0743223655
 51
258.4630409672
  0
ARC
  5
84
330
1F
100
AcDbEntity
  8
0
  6
Continuous
 62
     7
370
    25
100
AcDbCircle
 10
128.0196231214
 20
89.6849965318
 30
0.0
 40
1.500000000000012
100
AcDbArc
 50
281.5369590328
 51
312.9256776345
  0
LINE
  5
85
330
1F
100
AcDbEntity
  8
0
  6
Continuous
 62
     7
370
    25
100
AcDbLine
 10
128.7120394019
 20
99.1196698858
 30
0.0
 11
127.5196233375
 21
101.1849969043
 31
0.0
  0
LINE
  5
86
330
1F
100
AcDbEntity
  8
0
  6
Continuous
 62
     7
370
    25
100
AcDbLine
 10
113.5196229053
 20
101.1849969043
 30
0.0
 11
112.3272068409
 21
99.1196698858
 31
0.0
  0
ARC
  5
87
330
1F
100
AcDbEntity
  8
0
  6
Continuous
 62
     7
370
    25
100
AcDbCircle
 10
109.4691128642
 20
84.1849965318
 30
0.0
 40
1.000000000000006
100
AcDbArc
 50
191.5369590328
 51
270.0
  0
ARC
  5
88
330
1F
100
AcDbEntity
  8
0
  6
Continuous
 62
     7
370
    25
100
AcDbCircle
 10
109.4691128642
 20
68.1849965318
 30
0.0
 40
1.000000000000004
100
AcDbArc
 50
90.0
 51
168.4630409672
  0
ARC
  5
89
330
1F
100
AcDbEntity
  8
0
  6
Continuous
 62
     7
370
    25
100
AcDbCircle
 10
112.5196231214
 20
87.235506789
 30
0.0
 40
1.0
100
AcDbArc
 50
0.0
 51
78.4630409672
  0
ARC
  5
8A
330
1F
100
AcDbEntity
  8
0
  6
Continuous
 62
     7
370
    25
100
AcDbCircle
 10
128.5196231214
 20
87.235506789
 30
0.0
 40
1.000000000000014
100
AcDbArc
 50
101.5369590328
 51
180.0
  0
ARC
  5
8B
330
1F
100
AcDbEntity
  8
0
  6
Continuous
 62
     7
370
    25
100
AcDbCircle
 10
131.5701333786
 20
84.1849965318
 30
0.0
 40
1.0
100
AcDbArc
 50
270.0
 51
348.4630409672
  0
ARC
  5
8C
330
1F
100
AcDbEntity
  8
0
  6
Continuous
 62
     7
370
    25
100
AcDbCircle
 10
131.5701333786
 20
68.1849965318
 30
0.0
 40
1.0
100
AcDbArc
 50
11.5369590328
 51
90.0
  0
LINE
  5
8D
330
1F
100
AcDbEntity
  8
0
  6
Continuous
 62
     7
370
    25
100
AcDbLine
 10
113.019623289
 20
83.1849967479
 30
0.0
 11
109.4691129012
 21
83.1849967479
 31
0.0
  0
LINE
  5
8E
330
1F
100
AcDbEntity
  8
0
  6
Continuous
 62
     7
370
    25
100
AcDbLine
 10
131.5701333416
 20
83.1849967479
 30
0.0
 11
128.0196229537
 21
83.1849967479
 31
0.0
  0
LINE
  5
8F
330
1F
100
AcDbEntity
  8
0
  6
Continuous
 62
     7
370
    25
100
AcDbLine
 10
109.4691129012
 20
69.1849963157
 30
0.0
 11
131.5701333416
 21
69.1849963157
 31
0.0
  0
LINE
  5
90
330
1F
100
AcDbEntity
  8
0
  6
Continuous
 62
     7
370
    25
100
AcDbLine
 10
113.5196229053
 20
87.235506752
 30
0.0
 11
113.5196229053
 21
83.6849963642
 31
0.0
  0
LINE
  5
91
330
1F
100
AcDbEntity
  8
0
  6
Continuous
 62
     7
370
    25
100
AcDbLine
 10
127.5196233375
 20
83.6849963642
 30
0.0
 11
127.5196233375
 21
87.235506752
 31
0.0
  0
SPLINE
  5
92
330
1F
100
AcDbEntity
  8
0
  6
Continuous
 62
     7
370
    25
100
AcDbSpline
210
0.0
220
0.0
230
1.0
 70
     8
 71
     3
 72
    11
 73
     7
 74
     0
 42
0.000000001
 43
0.00000001
 40
0.0
 40
0.0
 40
0.0
 40
0.0
 40
0.2501293618956914
 40
0.5
 40
0.7498706381043087
 40
1.0
 40
1.0
 40
1.0
 40
1.0
 10
128.019567540056
 20
83.18494459379458
 30
0.0
 10
127.9541156024348
 20
83.1926831179589
 30
0.0
 10
127.8232794280545
 20
83.20815216186816
 30
0.0
 10
127.6574650762608
 20
83.32283848666547
 30
0.0
 10
127.5427787514635
 20
83.48865283845909
 30
0.0
 10
127.5273097075542
 20
83.61948901283942
 30
0.0
 10
127.5195711833899
 20
83.68494095046067
 30
0.0
  0
SPLINE
  5
93
330
1F
100
AcDbEntity
  8
0
  6
Continuous
 62
     7
370
    25
100
AcDbSpline
210
0.0
220
0.0
230
1.0
 70
     8
 71
     3
 72
    11
 73
     7
 74
     0
 42
0.000000001
 43
0.00000001
 40
0.0
 40
0.0
 40
0.0
 40
0.0
 40
0.2501293618956914
 40
0.5
 40
0.7498706381043087
 40
1.0
 40
1.0
 40
1.0
 40
1.0
 10
113.5196750593846
 20
83.68494095046067
 30
0.0
 10
113.5119365352203
 20
83.61948901283942
 30
0.0
 10
113.4964674913111
 20
83.4886528384591
 30
0.0
 10
113.3817811665137
 20
83.32283848666547
 30
0.0
 10
113.2159668147201
 20
83.20815216186816
 30
0.0
 10
113.0851306403398
 20
83.1926831179589
 30
0.0
 10
113.0196787027185
 20
83.18494459379458
 30
0.0
  0
LINE
  5
94
330
1F
100
AcDbEntity
  8
0
  6
Continuous
 62
     7
370
    25
100
AcDbLine
 10
145.0196224806
 20
67.1849969192
 30
0.0
 11
145.0196224806
 21
85.1849961444
 31
0.0
  0
LINE
  5
95
330
1F
100
AcDbEntity
  8
0
  6
Continuous
 62
     7
370
    25
100
AcDbLine
 10
96.0196237621
 20
76.1849965318
 30
0.0
 11
96.0196237621
 21
67.1849969192
 31
0.0
  0
LINE
  5
96
330
1F
100
AcDbEntity
  8
0
  6
Continuous
 62
     7
370
    25
100
AcDbLine
 10
96.0196237621
 20
85.1849961444
 30
0.0
 11
96.0196237621
 21
76.1849965318
 31
0.0
  0
LINE
  5
97
330
1F
100
AcDbEntity
  8
0
  6
Continuous
 62
     7
370
    25
100
AcDbLine
 10
95.5196227489
 20
76.1849965318
 30
0.0
 11
95.5196227489
 21
84.6849969937
 31
0.0
  0
LINE
  5
98
330
1F
100
AcDbEntity
  8
0
  6
Continuous
 62
     7
370
    25
100
AcDbLine
 10
95.5196227489
 20
67.6849960699
 30
0.0
 11
95.5196227489
 21
76.1849965318
 31
0.0
  0
LINE
  5
99
330
1F
100
AcDbEntity
  8
0
  6
Continuous
 62
     7
370
    25
100
AcDbLine
 10
145.5196234939
 20
84.6849969937
 30
0.0
 11
145.5196234939
 21
67.6849960699
 31
0.0
  0
LINE
  5
9A
330
1F
100
AcDbEntity
  8
0
  6
Continuous
 62
     7
370
    25
100
AcDbLine
 10
128.7120394019
 20
99.1196698858
 30
0.0
 11
112.3272068409
 21
99.1196698858
 31
0.0
  0
LINE
  5
9B
330
1F
100
AcDbEntity
  8
0
  6
Continuous
 62
     7
370
    25
100
AcDbLine
 10
129.0411967394
 20
88.586639741
 30
0.0
 11
111.9980495033
 21
88.586639741
 31
0.0
  0
LINE
  5
9C
330
1F
100
AcDbEntity
  8
0
  6
Continuous
 62
     7
370
    25
100
AcDbLine
 10
113.5196229053
 20
101.1849969043
 30
0.0
 11
127.5196233375
 21
101.1849969043
 31
0.0
  0
LINE
  5
9D
330
1F
100
AcDbEntity
  8
0
  6
Continuous
 62
     7
370
    25
100
AcDbLine
 10
122.0193152159
 20
72.5400863564
 30
0.0
 11
122.7085331531
 21
71.2262072018
 31
0.0
  0
ARC
  5
9E
330
1F
100
AcDbEntity
  8
0
  6
Continuous
 62
     7
370
    25
100
AcDbCircle
 10
122.7753849009
 20
71.2612753153
 30
0.0
 40
0.0754912582857716
100
AcDbArc
 50
207.6800279694
 51
311.070386533
  0
ARC
  5
9F
330
1F
100
AcDbEntity
  8
0
  6
Continuous
 62
     7
370
    25
100
AcDbCircle
 10
124.5196231214
 20
69.2597301157
 30
0.0
 40
2.579419315655421
100
AcDbArc
 50
48.929613467
 51
131.070386533
  0
ARC
  5
A0
330
1F
100
AcDbEntity
  8
0
  6
Continuous
 62
     7
370
    25
100
AcDbCircle
 10
126.2638613419
 20
71.2612753153
 30
0.0
 40
0.075491258285759
100
AcDbArc
 50
228.929613467
 51
332.3199720306
  0
LINE
  5
A1
330
1F
100
AcDbEntity
  8
0
  6
Continuous
 62
     7
370
    25
100
AcDbLine
 10
126.3307132368
 20
71.2262072018
 30
0.0
 11
127.0199310576
 21
72.5400863564
 31
0.0
  0
LINE
  5
A2
330
1F
100
AcDbEntity
  8
0
  6
Continuous
 62
     7
370
    25
100
AcDbLine
 10
127.0199310576
 20
72.5400863564
 30
0.0
 11
126.9801160862
 21
72.5173336803
 31
0.0
  0
ARC
  5
A3
330
1F
100
AcDbEntity
  8
0
  6
Continuous
 62
     7
370
    25
100
AcDbCircle
 10
126.6828173472
 20
73.0375771964
 30
0.0
 40
0.5991992501208419
100
AcDbArc
 50
199.6800689411
 51
299.7462530425
  0
LINE
  5
A4
330
1F
100
AcDbEntity
  8
0
  6
Continuous
 62
     7
370
    25
100
AcDbLine
 10
126.1186184903
 20
72.8357861633
 30
0.0
 11
125.0321124291
 21
75.8736099058
 31
0.0
  0
SPLINE
  5
A5
330
1F
100
AcDbEntity
  8
0
  6
Continuous
 62
     7
370
    25
100
AcDbSpline
210
0.0
220
0.0
230
1.0
 70
     8
 71
     3
 72
    16
 73
    12
 74
     0
 42
0.000000001
 43
0.00000001
 40
0.0
 40
0.0
 40
0.0
 40
0.0
 40
0.1113160552874951
 40
0.2221777142163596
 40
0.333357231917414
 40
0.4444842326561919
 40
0.5552113451997907
 40
0.6662702792617305
 40
0.7776772343596836
 40
0.888683744007764
 40
1.0
 40
1.0
 40
1.0
 40
1.0
 10
125.0321123909464
 20
75.87360991452483
 30
0.0
 10
125.0082484478084
 20
75.91413211657756
 30
0.0
 10
124.9606179750533
 20
75.99501110751768
 30
0.0
 10
124.8528855429874
 20
76.08806451733093
 30
0.0
 10
124.7277719318542
 20
76.1531256282104
 30
0.0
 10
124.5903710839239
 20
76.18628252395806
 30
0.0
 10
124.4492776315079
 20
76.18634579686706
 30
0.0
 10
124.3117795272516
 20
76.15328959821586
 30
0.0
 10
124.1865361338595
 20
76.08819198168456
 30
0.0
 10
124.0786386480817
 20
75.9950804747551
 30
0.0
 10
124.0309909119691
 20
75.91413769185712
 30
0.0
 10
124.0071338518282
 20
75.87360991452472
 30
0.0
  0
LINE
  5
A6
330
1F
100
AcDbEntity
  8
0
  6
Continuous
 62
     7
370
    25
100
AcDbLine
 10
124.0071339609
 20
75.8736099058
 30
0.0
 11
122.9209056666
 21
72.8365638177
 31
0.0
  0
ARC
  5
A7
330
1F
100
AcDbEntity
  8
0
  6
Continuous
 62
     7
370
    25
100
AcDbCircle
 10
122.3567069866
 20
73.0383547267
 30
0.0
 40
0.5991992501208282
100
AcDbArc
 50
241.1755227373
 51
340.3199310589
  0
LINE
  5
A8
330
1F
100
AcDbEntity
  8
0
  6
Continuous
 62
     7
370
    25
100
AcDbLine
 10
122.0678162837
 20
72.5133958156
 30
0.0
 11
122.0193152159
 21
72.5400863564
 31
0.0
  0
SPLINE
  5
A9
330
1F
100
AcDbEntity
  8
0
  6
Continuous
 62
     7
370
    25
100
AcDbSpline
210
0.0
220
0.0
230
1.0
 70
     8
 71
     3
 72
    16
 73
    12
 74
     0
 42
0.000000001
 43
0.00000001
 40
0.0
 40
0.0
 40
0.0
 40
0.0
 40
0.0739298478380645
 40
0.1513677900875573
 40
0.2324450724520033
 40
0.3172760505712285
 40
0.4059605604870915
 40
0.4985859785248051
 40
0.6141264807254729
 40
0.7496239523722917
 40
1.0
 40
1.0
 40
1.0
 40
1.0
 10
113.5196231213873
 20
73.58692032043861
 30
0.0
 10
113.5187078160946
 20
73.65233195493353
 30
0.0
 10
113.5168337727485
 20
73.78625911492445
 30
0.0
 10
113.5024590211882
 20
73.9915010904597
 30
0.0
 10
113.479765675695
 20
74.20562865803007
 30
0.0
 10
113.4478031164696
 20
74.42864374540783
 30
0.0
 10
113.4068603352998
 20
74.66055406081442
 30
0.0
 10
113.3533926445596
 20
74.91772176155789
 30
0.0
 10
113.282789984074
 20
75.21349588466566
 30
0.0
 10
113.1702832816065
 20
75.64262324009792
 30
0.0
 10
113.0789106987986
 20
75.97156254585721
 30
0.0
 10
113.0196231213873
 20
76.18499653179192
 30
0.0
  0
SPLINE
  5
AA
330
1F
100
AcDbEntity
  8
0
  6
Continuous
 62
     7
370
    25
100
AcDbSpline
210
0.0
220
0.0
230
1.0
 70
     8
 71
     3
 72
    14
 73
    10
 74
     0
 42
0.000000001
 43
0.00000001
 40
0.0
 40
0.0
 40
0.0
 40
0.0
 40
0.2503818975769405
 40
0.3853960642454612
 40
0.5014219062737861
 40
0.6386745024418747
 40
0.7672919706928744
 40
0.8876008223903926
 40
1.0
 40
1.0
 40
1.0
 40
1.0
 10
113.0196231213873
 20
76.18499653179192
 30
0.0
 10
113.0791562051171
 20
76.39836623948801
 30
0.0
 10
113.1707914885937
 20
76.72679192189983
 30
0.0
 10
113.2833175427713
 20
77.15592481447385
 30
0.0
 10
113.3629757524546
 20
77.4901227115049
 30
0.0
 10
113.4296462182519
 20
77.8214855813415
 30
0.0
 10
113.4806685220936
 20
78.15939782841257
 30
0.0
 10
113.513183814114
 20
78.47771388888007
 30
0.0
 10
113.5175258807983
 20
78.68361934603466
 30
0.0
 10
113.5196231213873
 20
78.78307274314525
 30
0.0
  0
LINE
  5
AB
330
1F
100
AcDbEntity
  8
0
  6
Continuous
 62
     7
370
    25
100
AcDbLine
 10
113.5196229053
 20
78.7830726593
 30
0.0
 11
113.5196229053
 21
81.6850426025
 31
0.0
  0
SPLINE
  5
AC
330
1F
100
AcDbEntity
  8
0
  6
Continuous
 62
     7
370
    25
100
AcDbSpline
210
0.0
220
0.0
230
1.0
 70
     8
 71
     3
 72
    19
 73
    15
 74
     0
 42
0.000000001
 43
0.00000001
 40
0.0
 40
0.0
 40
0.0
 40
0.0
 40
0.0504323727095946
 40
0.1003565609002702
 40
0.1500822900422585
 40
0.199922985600534
 40
0.250189922563005
 40
0.3750855037481943
 40
0.5000544104077007
 40
0.6247887185113573
 40
0.7499189120354086
 40
0.8333029051587477
 40
0.9161791203953933
 40
1.0
 40
1.0
 40
1.0
 40
1.0
 10
115.0195770533421
 20
83.18499653179192
 30
0.0
 10
115.0186882700498
 20
83.14541556308745
 30
0.0
 10
115.0169196593379
 20
83.06665246544073
 30
0.0
 10
115.0026803055475
 20
82.94957202318655
 30
0.0
 10
114.979918868703
 20
82.83440861433044
 30
0.0
 10
114.9478197013056
 20
82.72116189867108
 30
0.0
 10
114.8865153128004
 20
82.55548021295104
 30
0.0
 10
114.775280120825
 20
82.3459804090379
 30
0.0
 10
114.5870678298573
 20
82.11781130458836
 30
0.0
 10
114.3587830264022
 20
81.92946162889226
 30
0.0
 10
114.1262502701101
 20
81.80583477526449
 30
0.0
 10
113.9093930839863
 20
81.73203604580314
 30
0.0
 10
113.7163317861111
 20
81.6923049975878
 30
0.0
 10
113.5854399289017
 20
81.6874725275453
 30
0.0
 10
113.5196231213873
 20
81.68504259983713
 30
0.0
  0
LINE
  5
AD
330
1F
100
AcDbEntity
  8
0
  6
Continuous
 62
     7
370
    25
100
AcDbLine
 10
115.0195770507
 20
83.1849967479
 30
0.0
 11
117.9215469939
 21
83.1849967479
 31
0.0
  0
SPLINE
  5
AE
330
1F
100
AcDbEntity
  8
0
  6
Continuous
 62
     7
370
    25
100
AcDbSpline
210
0.0
220
0.0
230
1.0
 70
     8
 71
     3
 72
    10
 73
     6
 74
     0
 42
0.000000001
 43
0.00000001
 40
-0.796694357225795
 40
-0.796694357225795
 40
-0.796694357225795
 40
-0.796694357225795
 40
-0.533073702210409
 40
-0.533073702210409
 40
-0.532116113157305
 40
-0.532116113157305
 40
-0.532116113157305
 40
-0.532116113157305
 10
117.921546910034
 20
83.18499653179917
 30
0.0
 10
118.8002824267504
 20
83.18499653179636
 30
0.0
 10
119.6625703626853
 20
83.45146393485639
 30
0.0
 10
120.5134741630453
 20
83.6832804638196
 30
0.0
 10
120.5165472683853
 20
83.68414344366006
 30
0.0
 10
120.5196231213873
 20
83.68499653179192
 30
0.0
  0
SPLINE
  5
AF
330
1F
100
AcDbEntity
  8
0
  6
Continuous
 62
     7
370
    25
100
AcDbSpline
210
0.0
220
0.0
230
1.0
 70
     8
 71
     3
 72
    10
 73
     6
 74
     0
 42
0.000000001
 43
0.00000001
 40
-0.263620655015386
 40
-0.263620655015386
 40
-0.263620655015386
 40
-0.263620655015386
 40
-0.2626630659468851
 40
-0.2626630659468851
 40
0.0009575890685009
 40
0.0009575890685009
 40
0.0009575890685009
 40
0.0009575890685009
 10
120.5196231213873
 20
83.68499653179192
 30
0.0
 10
120.5226989744387
 20
83.68414344364633
 30
0.0
 10
120.5257729727442
 20
83.68328399837426
 30
0.0
 10
121.3763253382529
 20
83.45008324940474
 30
0.0
 10
122.2389638160226
 20
83.18499653179192
 30
0.0
 10
123.1176993327406
 20
83.18499653179192
 30
0.0
  0
LINE
  5
B0
330
1F
100
AcDbEntity
  8
0
  6
Continuous
 62
     7
370
    25
100
AcDbLine
 10
123.1176992489
 20
83.1849967479
 30
0.0
 11
126.0196691921
 21
83.1849967479
 31
0.0
  0
SPLINE
  5
B1
330
1F
100
AcDbEntity
  8
0
  6
Continuous
 62
     7
370
    25
100
AcDbSpline
210
0.0
220
0.0
230
1.0
 70
     8
 71
     3
 72
    19
 73
    15
 74
     0
 42
0.000000001
 43
0.00000001
 40
0.0
 40
0.0
 40
0.0
 40
0.0
 40
0.0504323727096602
 40
0.1003565609003688
 40
0.1500822900423565
 40
0.199922985600599
 40
0.2501899225630071
 40
0.3750855037480327
 40
0.5000544104076973
 40
0.624788718511343
 40
0.7499189120354135
 40
0.8333029051590075
 40
0.916179120395655
 40
1.0
 40
1.0
 40
1.0
 40
1.0
 10
127.5196231213873
 20
81.6850425998371
 30
0.0
 10
127.4800421526828
 20
81.68593138312941
 30
0.0
 10
127.401279055036
 20
81.68769999384135
 30
0.0
 10
127.2841986127817
 20
81.70193934763171
 30
0.0
 10
127.1690352039256
 20
81.7247007844762
 30
0.0
 10
127.0557884882663
 20
81.75679995187363
 30
0.0
 10
126.8901068025465
 20
81.81810434037877
 30
0.0
 10
126.6806069986336
 20
81.92933953235438
 30
0.0
 10
126.4524378941839
 20
82.11755182332178
 30
0.0
 10
126.2640882184874
 20
82.34583662677673
 30
0.0
 10
126.1404613648598
 20
82.57836938306916
 30
0.0
 10
126.0666626353986
 20
82.79522656919319
 30
0.0
 10
126.0269315871831
 20
82.98828786706838
 30
0.0
 10
126.0220991171406
 20
83.11917972427759
 30
0.0
 10
126.0196691894325
 20
83.18499653179175
 30
0.0
  0
LINE
  5
B2
330
1F
100
AcDbEntity
  8
0
  6
Continuous
 62
     7
370
    25
100
AcDbLine
 10
127.5196233375
 20
81.6850426025
 30
0.0
 11
127.5196233375
 21
78.7830726593
 31
0.0
  0
SPLINE
  5
B3
330
1F
100
AcDbEntity
  8
0
  6
Continuous
 62
     7
370
    25
100
AcDbSpline
210
0.0
220
0.0
230
1.0
 70
     8
 71
     3
 72
    16
 73
    12
 74
     0
 42
0.000000001
 43
0.00000001
 40
0.0
 40
0.0
 40
0.0
 40
0.0
 40
0.0739298478317502
 40
0.1513677900738161
 40
0.2324450724296886
 40
0.3172760505391666
 40
0.4059605604440887
 40
0.4985859784696513
 40
0.6141264806631028
 40
0.7496239522892343
 40
1.0
 40
1.0
 40
1.0
 40
1.0
 10
127.5196231213873
 20
78.78307274314525
 30
0.0
 10
127.5205384266798
 20
78.7176611086559
 30
0.0
 10
127.5224124700254
 20
78.58373394867714
 30
0.0
 10
127.5367872215829
 20
78.37849197316149
 30
0.0
 10
127.5594805670716
 20
78.16436440561357
 30
0.0
 10
127.5914431262908
 20
77.94134931826108
 30
0.0
 10
127.6323859074526
 20
77.70943900288256
 30
0.0
 10
127.685853598184
 20
77.45227130216468
 30
0.0
 10
127.7564562586572
 20
77.15649717909035
 30
0.0
 10
127.8689629611326
 20
76.72736982360966
 30
0.0
 10
127.9603355439559
 20
76.39843051779735
 30
0.0
 10
128.0196231213873
 20
76.18499653179192
 30
0.0
  0
SPLINE
  5
B4
330
1F
100
AcDbEntity
  8
0
  6
Continuous
 62
     7
370
    25
100
AcDbSpline
210
0.0
220
0.0
230
1.0
 70
     8
 71
     3
 72
    14
 73
    10
 74
     0
 42
0.000000001
 43
0.00000001
 40
0.0
 40
0.0
 40
0.0
 40
0.0
 40
0.250381897495202
 40
0.3853960641816825
 40
0.5014219062198584
 40
0.6386745024049088
 40
0.7672919706705007
 40
0.8876008223803089
 40
0.9999999999999999
 40
0.9999999999999999
 40
0.9999999999999999
 40
0.9999999999999999
 10
128.0196231213873
 20
76.18499653179192
 30
0.0
 10
127.9600900376773
 20
75.97162682416541
 30
0.0
 10
127.8684547542164
 20
75.6432011418078
 30
0.0
 10
127.755928700046
 20
75.21406824928127
 30
0.0
 10
127.676270490349
 20
74.87987035221278
 30
0.0
 10
127.60960002454
 20
74.54850748234111
 30
0.0
 10
127.5585777206886
 20
74.21059523523229
 30
0.0
 10
127.5260624286619
 20
73.89227917473251
 30
0.0
 10
127.5217203619767
 20
73.68637371755813
 30
0.0
 10
127.5196231213873
 20
73.58692032043861
 30
0.0
  0
LINE
  5
B5
330
1F
100
AcDbEntity
  8
0
  6
Continuous
 62
     7
370
    25
100
AcDbLine
 10
127.5196233375
 20
73.5869204043
 30
0.0
 11
127.5196233375
 21
70.6849965616
 31
0.0
  0
LINE
  5
B6
330
1F
100
AcDbEntity
  8
0
  6
Continuous
 62
     7
370
    25
100
AcDbLine
 10
113.5196229053
 20
70.6849965616
 30
0.0
 11
127.5196233375
 21
70.6849965616
 31
0.0
  0
LINE
  5
B7
330
1F
100
AcDbEntity
  8
0
  6
Continuous
 62
     7
370
    25
100
AcDbLine
 10
113.5196229053
 20
70.6849965616
 30
0.0
 11
113.5196229053
 21
73.5869204043
 31
0.0
  0
SPLINE
  5
B8
330
1F
100
AcDbEntity
  8
0
  6
Continuous
 62
     7
370
    25
100
AcDbSpline
210
0.0
220
0.0
230
1.0
 70
     8
 71
     3
 72
    13
 73
     9
 74
     0
 42
0.000000001
 43
0.00000001
 40
0.0
 40
0.0
 40
0.0
 40
0.0
 40
0.1856794033212272
 40
0.3634611737568169
 40
0.533542336720674
 40
0.6961479207300177
 40
0.8515354443703902
 40
1.0
 40
1.0
 40
1.0
 40
1.0
 10
112.6751663039296
 20
78.60986766237394
 30
0.0
 10
112.6588379980864
 20
78.6771904595424
 30
0.0
 10
112.626875889737
 20
78.80897256591368
 30
0.0
 10
112.588157036505
 20
79.00106498261977
 30
0.0
 10
112.5576029574173
 20
79.18365206479149
 30
0.0
 10
112.5359862205082
 20
79.35672590357125
 30
0.0
 10
112.5222785260194
 20
79.52068590445863
 30
0.0
 10
112.5204947087628
 20
79.62583392778599
 30
0.0
 10
112.5196231213873
 20
79.67721009278094
 30
0.0
  0
SPLINE
  5
B9
330
1F
100
AcDbEntity
  8
0
  6
Continuous
 62
     7
370
    25
100
AcDbSpline
210
0.0
220
0.0
230
1.0
 70
     8
 71
     3
 72
    17
 73
    13
 74
     0
 42
0.000000001
 43
0.00000001
 40
0.0
 40
0.0
 40
0.0
 40
0.0
 40
0.1130667886658668
 40
0.2142471894553318
 40
0.3035410226158834
 40
0.3809482842621089
 40
0.4464692357998273
 40
0.5001045924259258
 40
0.6375226532033567
 40
0.75004211245356
 40
0.8820380142920121
 40
1.0
 40
1.0
 40
1.0
 40
1.0
 10
113.0196231213873
 20
76.18499653179192
 30
0.0
 10
113.0093934952833
 20
76.27871400305385
 30
0.0
 10
112.9900096543888
 20
76.45629669605898
 30
0.0
 10
112.962115409831
 20
76.70745601709108
 30
0.0
 10
112.9371226021335
 20
76.9284947388121
 30
0.0
 10
112.9149932045995
 20
77.11944174173031
 30
0.0
 10
112.8957933778731
 20
77.28045818957452
 30
0.0
 10
112.8696116125201
 20
77.48978029664514
 30
0.0
 10
112.8366300709291
 20
77.73576324551023
 30
0.0
 10
112.7910357965149
 20
78.04141341648325
 30
0.0
 10
112.741127139836
 20
78.32755046458372
 30
0.0
 10
112.6963145803564
 20
78.5193514938499
 30
0.0
 10
112.6751663039296
 20
78.60986766237394
 30
0.0
  0
SPLINE
  5
BA
330
1F
100
AcDbEntity
  8
0
  6
Continuous
 62
     7
370
    25
100
AcDbSpline
210
0.0
220
0.0
230
1.0
 70
     8
 71
     3
 72
    14
 73
    10
 74
     0
 42
0.000000001
 43
0.00000001
 40
0.0
 40
0.0
 40
0.0
 40
0.0
 40
0.0771019312675692
 40
0.1604220743863116
 40
0.2500134455674957
 40
0.3625277428666271
 40
0.4999872826714505
 40
0.6965319275930101
 40
1.0
 40
1.0
 40
1.0
 40
1.0
 10
112.6751663039296
 20
73.7601254012099
 30
0.0
 10
112.6892955808328
 20
73.8191188620832
 30
0.0
 10
112.7186936500267
 20
73.94186356137847
 30
0.0
 10
112.7572115462377
 20
74.13695503843145
 30
0.0
 10
112.7962740727268
 20
74.36241331528845
 30
0.0
 10
112.836554579129
 20
74.6342518218909
 30
0.0
 10
112.8852132736775
 20
74.99592587841795
 30
0.0
 10
112.9466481132133
 20
75.51881983905791
 30
0.0
 10
112.9920610622225
 20
75.93338708523255
 30
0.0
 10
113.0196231213873
 20
76.18499653179192
 30
0.0
  0
SPLINE
  5
BB
330
1F
100
AcDbEntity
  8
0
  6
Continuous
 62
     7
370
    25
100
AcDbSpline
210
0.0
220
0.0
230
1.0
 70
     8
 71
     3
 72
    13
 73
     9
 74
     0
 42
0.000000001
 43
0.00000001
 40
0.0
 40
0.0
 40
0.0
 40
0.0
 40
0.1484645556296105
 40
0.303852079269983
 40
0.4664576632793263
 40
0.6365388262431836
 40
0.8143205966787732
 40
1.0
 40
1.0
 40
1.0
 40
1.0
 10
112.5196231213873
 20
72.69278297080292
 30
0.0
 10
112.5204947087628
 20
72.74415913579786
 30
0.0
 10
112.5222785260194
 20
72.84930715912523
 30
0.0
 10
112.5359862205082
 20
73.0132671600126
 30
0.0
 10
112.5576029574173
 20
73.18634099879239
 30
0.0
 10
112.588157036505
 20
73.3689280809641
 30
0.0
 10
112.626875889737
 20
73.56102049767017
 30
0.0
 10
112.6588379980864
 20
73.69280260404146
 30
0.0
 10
112.6751663039296
 20
73.7601254012099
 30
0.0
  0
LINE
  5
BC
330
1F
100
AcDbEntity
  8
0
  6
Continuous
 62
     7
370
    25
100
AcDbLine
 10
112.5196227414
 20
70.1183300814
 30
0.0
 11
112.5196227414
 21
72.692782979
 31
0.0
  0
LINE
  5
BD
330
1F
100
AcDbEntity
  8
0
  6
Continuous
 62
     7
370
    25
100
AcDbLine
 10
128.5196235014
 20
70.1183300814
 30
0.0
 11
112.5196227414
 21
70.1183300814
 31
0.0
  0
LINE
  5
BE
330
1F
100
AcDbEntity
  8
0
  6
Continuous
 62
     7
370
    25
100
AcDbLine
 10
128.5196235014
 20
72.692782979
 30
0.0
 11
128.5196235014
 21
70.1183300814
 31
0.0
  0
SPLINE
  5
BF
330
1F
100
AcDbEntity
  8
0
  6
Continuous
 62
     7
370
    25
100
AcDbSpline
210
0.0
220
0.0
230
1.0
 70
     8
 71
     3
 72
    13
 73
     9
 74
     0
 42
0.000000001
 43
0.00000001
 40
0.0
 40
0.0
 40
0.0
 40
0.0
 40
0.1856794033212448
 40
0.3634611737568449
 40
0.5335423367206995
 40
0.6961479207300406
 40
0.8515354443704051
 40
0.9999999999999999
 40
0.9999999999999999
 40
0.9999999999999999
 40
0.9999999999999999
 10
128.364079938845
 20
73.7601254012099
 30
0.0
 10
128.3804082446881
 20
73.69280260404146
 30
0.0
 10
128.4123703530376
 20
73.56102049767016
 30
0.0
 10
128.4510892062695
 20
73.36892808096407
 30
0.0
 10
128.4816432853572
 20
73.18634099879235
 30
0.0
 10
128.5032600222664
 20
73.01326716001257
 30
0.0
 10
128.5169677167551
 20
72.84930715912522
 30
0.0
 10
128.5187515340117
 20
72.74415913579784
 30
0.0
 10
128.5196231213873
 20
72.69278297080292
 30
0.0
  0
SPLINE
  5
C0
330
1F
100
AcDbEntity
  8
0
  6
Continuous
 62
     7
370
    25
100
AcDbSpline
210
0.0
220
0.0
230
1.0
 70
     8
 71
     3
 72
    16
 73
    12
 74
     0
 42
0.000000001
 43
0.00000001
 40
0.0
 40
0.0
 40
0.0
 40
0.0
 40
0.1113707256031287
 40
0.2115306859456111
 40
0.3004797843893181
 40
0.3782180970979205
 40
0.444745959733242
 40
0.5000641419851813
 40
0.7004020768438615
 40
0.8669907153098478
 40
1.0
 40
1.0
 40
1.0
 40
1.0
 10
128.0196231213873
 20
76.18499653179192
 30
0.0
 10
128.029700800401
 20
76.09269283267571
 30
0.0
 10
128.0488417222452
 20
75.91737688062787
 30
0.0
 10
128.076487440291
 20
75.66876423257989
 30
0.0
 10
128.1014362287992
 20
75.44858244350834
 30
0.0
 10
128.1237173619287
 20
75.25681582958796
 30
0.0
 10
128.1432964844122
 20
75.09333042928766
 30
0.0
 10
128.1761842044704
 20
74.83047773509313
 30
0.0
 10
128.2240628615464
 20
74.48941741930018
 30
0.0
 10
128.2885762206961
 20
74.09269116609903
 30
0.0
 10
128.3408655879043
 20
73.86237597331792
 30
0.0
 10
128.364079938845
 20
73.7601254012099
 30
0.0
  0
SPLINE
  5
C1
330
1F
100
AcDbEntity
  8
0
  6
Continuous
 62
     7
370
    25
100
AcDbSpline
210
0.0
220
0.0
230
1.0
 70
     8
 71
     3
 72
    14
 73
    10
 74
     0
 42
0.000000001
 43
0.00000001
 40
0.0
 40
0.0
 40
0.0
 40
0.0
 40
0.0771019312872794
 40
0.1604220744063169
 40
0.2500134455684252
 40
0.3625277428809286
 40
0.4999872826729911
 40
0.6965319256112464
 40
1.0
 40
1.0
 40
1.0
 40
1.0
 10
128.364079938845
 20
78.60986766237394
 30
0.0
 10
128.3499506619379
 20
78.5508742014857
 30
0.0
 10
128.3205525927397
 20
78.4281295021754
 30
0.0
 10
128.2820346965273
 20
78.23303802512181
 30
0.0
 10
128.2429721700424
 20
78.00757974826868
 30
0.0
 10
128.2026916636488
 20
77.7357412416806
 30
0.0
 10
128.154032969291
 20
77.37406718676246
 30
0.0
 10
128.0925981298406
 20
76.85117322616242
 30
0.0
 10
128.0471851807696
 20
76.4366059799924
 30
0.0
 10
128.0196231213873
 20
76.18499653179192
 30
0.0
  0
SPLINE
  5
C2
330
1F
100
AcDbEntity
  8
0
  6
Continuous
 62
     7
370
    25
100
AcDbSpline
210
0.0
220
0.0
230
1.0
 70
     8
 71
     3
 72
    13
 73
     9
 74
     0
 42
0.000000001
 43
0.00000001
 40
0.0
 40
0.0
 40
0.0
 40
0.0
 40
0.1484645556295969
 40
0.303852079269964
 40
0.4664576632793
 40
0.6365388262431574
 40
0.814320596678755
 40
1.0
 40
1.0
 40
1.0
 40
1.0
 10
128.5196231213873
 20
79.67721009278094
 30
0.0
 10
128.5187515340117
 20
79.625833927786
 30
0.0
 10
128.5169677167551
 20
79.52068590445865
 30
0.0
 10
128.5032600222664
 20
79.35672590357127
 30
0.0
 10
128.4816432853572
 20
79.1836520647915
 30
0.0
 10
128.4510892062695
 20
79.00106498261978
 30
0.0
 10
128.4123703530376
 20
78.80897256591369
 30
0.0
 10
128.3804082446881
 20
78.6771904595424
 30
0.0
 10
128.364079938845
 20
78.60986766237394
 30
0.0
  0
LINE
  5
C3
330
1F
100
AcDbEntity
  8
0
  6
Continuous
 62
     7
370
    25
100
AcDbLine
 10
128.5196235014
 20
81.3183296821
 30
0.0
 11
128.5196235014
 21
79.6772100846
 31
0.0
  0
SPLINE
  5
C4
330
1F
100
AcDbEntity
  8
0
  6
Continuous
 62
     7
370
    25
100
AcDbSpline
210
0.0
220
0.0
230
1.0
 70
     8
 71
     3
 72
    13
 73
     9
 74
     0
 42
0.000000001
 43
0.00000001
 40
0.0
 40
0.0
 40
0.0
 40
0.0
 40
0.1257153360577753
 40
0.250986709269415
 40
0.3762164861937409
 40
0.5018074329537138
 40
0.7521854029755236
 40
1.0
 40
1.0
 40
1.0
 40
1.0
 10
128.3012674948318
 20
81.900472598286
 30
0.0
 10
128.3184617720031
 20
81.87938675843532
 30
0.0
 10
128.352789604874
 20
81.83728954323256
 30
0.0
 10
128.3963591531092
 20
81.77037682740068
 30
0.0
 10
128.4339669567539
 20
81.70086157574923
 30
0.0
 10
128.4749902343349
 20
81.60452813842345
 30
0.0
 10
128.5115187890896
 20
81.47869432288219
 30
0.0
 10
128.5169309597845
 20
81.37160100699906
 30
0.0
 10
128.5196231213873
 20
81.31832986512526
 30
0.0
  0
SPLINE
  5
C5
330
1F
100
AcDbEntity
  8
0
  6
Continuous
 62
     7
370
    25
100
AcDbSpline
210
0.0
220
0.0
230
1.0
 70
     8
 71
     3
 72
    16
 73
    12
 74
     0
 42
0.000000001
 43
0.00000001
 40
0.0
 40
0.0
 40
0.0
 40
0.0
 40
0.065953468215878
 40
0.1324870475734065
 40
0.2006767984510681
 40
0.2715233530653123
 40
0.3459202143274948
 40
0.4246400792148715
 40
0.5083359903947017
 40
0.7405135829365557
 40
1.0
 40
1.0
 40
1.0
 40
1.0
 10
127.5196231213873
 20
82.25166319845859
 30
0.0
 10
127.5431351738143
 20
82.25121117309799
 30
0.0
 10
127.5903660851327
 20
82.25030314646838
 30
0.0
 10
127.6606841714268
 20
82.24307022380603
 30
0.0
 10
127.7303432860995
 20
82.23150226236885
 30
0.0
 10
127.7993196165813
 20
82.21511487667196
 30
0.0
 10
127.8676109907241
 20
82.1939418395402
 30
0.0
 10
127.9352380749644
 20
82.16782464255613
 30
0.0
 10
128.0402395446141
 20
82.11890159422487
 30
0.0
 10
128.1740231921514
 20
82.03471916005016
 30
0.0
 10
128.2573106960043
 20
81.94684834151731
 30
0.0
 10
128.3012674948318
 20
81.900472598286
 30
0.0
  0
SPLINE
  5
C6
330
1F
100
AcDbEntity
  8
0
  6
Continuous
 62
     7
370
    25
100
AcDbSpline
210
0.0
220
0.0
230
1.0
 70
     8
 71
     3
 72
    13
 73
     9
 74
     0
 42
0.000000001
 43
0.00000001
 40
0.0
 40
0.0
 40
0.0
 40
0.0
 40
0.1759205118839867
 40
0.3391896075500394
 40
0.4921931780779421
 40
0.6738397335242767
 40
0.8395017852842264
 40
1.0
 40
1.0
 40
1.0
 40
1.0
 10
127.166069730794
 20
82.38834670057153
 30
0.0
 10
127.1791682753406
 20
82.37682152317436
 30
0.0
 10
127.2044233757076
 20
82.35460000757944
 30
0.0
 10
127.2502664422879
 20
82.32419638828591
 30
0.0
 10
127.3041574237173
 20
82.29599267583706
 30
0.0
 10
127.3675053449807
 20
82.2720667475912
 30
0.0
 10
127.4420595408783
 20
82.25494050059848
 30
0.0
 10
127.4940429318298
 20
82.25274404090327
 30
0.0
 10
127.5196231213873
 20
82.25166319845859
 30
0.0
  0
SPLINE
  5
C7
330
1F
100
AcDbEntity
  8
0
  6
Continuous
 62
     7
370
    25
100
AcDbSpline
210
0.0
220
0.0
230
1.0
 70
     8
 71
     3
 72
    14
 73
    10
 74
     0
 42
0.000000001
 43
0.00000001
 40
0.0
 40
0.0
 40
0.0
 40
0.0
 40
0.0960186407856747
 40
0.1924368822044046
 40
0.2917857869559113
 40
0.3963838799166358
 40
0.5082236945494524
 40
0.7392053714339348
 40
1.0
 40
1.0
 40
1.0
 40
1.0
 10
113.5196231213873
 20
82.2516631984586
 30
0.0
 10
113.5349036283292
 20
82.25206128635325
 30
0.0
 10
113.5655282350758
 20
82.25285911886436
 30
0.0
 10
113.6106531561657
 20
82.25886564139076
 30
0.0
 10
113.6545762335256
 20
82.2683433003211
 30
0.0
 10
113.6972725006971
 20
82.28155212806124
 30
0.0
 10
113.7522849798492
 20
82.3037168837029
 30
0.0
 10
113.8159398973072
 20
82.33908798949713
 30
0.0
 10
113.853341834624
 20
82.37127667211624
 30
0.0
 10
113.8731765119805
 20
82.38834670057153
 30
0.0
  0
SPLINE
  5
C8
330
1F
100
AcDbEntity
  8
0
  6
Continuous
 62
     7
370
    25
100
AcDbSpline
210
0.0
220
0.0
230
1.0
 70
     8
 71
     3
 72
    15
 73
    11
 74
     0
 42
0.000000001
 43
0.00000001
 40
0.0
 40
0.0
 40
0.0
 40
0.0
 40
0.1336726496021612
 40
0.2596519444552429
 40
0.3787836139818168
 40
0.4920668899310182
 40
0.6351830136473593
 40
0.7645526196418757
 40
0.8844004131119898
 40
1.0
 40
1.0
 40
1.0
 40
1.0
 10
112.7379787479428
 20
81.900472598286
 30
0.0
 10
112.7598742383794
 20
81.92471763663745
 30
0.0
 10
112.8024050528998
 20
81.97181232182609
 30
0.0
 10
112.8756009110426
 20
82.03481716583465
 30
0.0
 10
112.9533769906122
 20
82.08990940803315
 30
0.0
 10
113.0450154337366
 20
82.14181040470476
 30
0.0
 10
113.1503438149185
 20
82.1881349493598
 30
0.0
 10
113.2708926972257
 20
82.22461278614175
 30
0.0
 10
113.3943121558951
 20
82.24742782747121
 30
0.0
 10
113.4783582844993
 20
82.25026849295722
 30
0.0
 10
113.5196231213873
 20
82.2516631984586
 30
0.0
  0
SPLINE
  5
C9
330
1F
100
AcDbEntity
  8
0
  6
Continuous
 62
     7
370
    25
100
AcDbSpline
210
0.0
220
0.0
230
1.0
 70
     8
 71
     3
 72
    13
 73
     9
 74
     0
 42
0.000000001
 43
0.00000001
 40
0.0
 40
0.0
 40
0.0
 40
0.0
 40
0.123835855545221
 40
0.2479006248871513
 40
0.3726202178325717
 40
0.4984138930967346
 40
0.7490996844582696
 40
1.0
 40
1.0
 40
1.0
 40
1.0
 10
112.5196231213873
 20
81.31832986512526
 30
0.0
 10
112.5202946527037
 20
81.34508152991447
 30
0.0
 10
112.5216389566795
 20
81.39863431064038
 30
0.0
 10
112.5325409403299
 20
81.47695101318963
 30
0.0
 10
112.5499026239423
 20
81.55375064422206
 30
0.0
 10
112.5825902653754
 20
81.65327727989673
 30
0.0
 10
112.6384750662999
 20
81.7724404037512
 30
0.0
 10
112.7048013983228
 20
81.85778303333159
 30
0.0
 10
112.7379787479428
 20
81.900472598286
 30
0.0
  0
LINE
  5
CA
330
1F
100
AcDbEntity
  8
0
  6
Continuous
 62
     7
370
    25
100
AcDbLine
 10
112.5196227414
 20
79.6772100846
 30
0.0
 11
112.5196227414
 21
81.3183296821
 31
0.0
  0
LINE
  5
CB
330
1F
100
AcDbEntity
  8
0
  6
Continuous
 62
     7
370
    25
100
AcDbLine
 10
116.77796576
 20
83.6849963642
 30
0.0
 11
115.0196231512
 21
83.6849963642
 31
0.0
  0
SPLINE
  5
CC
330
1F
100
AcDbEntity
  8
0
  6
Continuous
 62
     7
370
    25
100
AcDbSpline
210
0.0
220
0.0
230
1.0
 70
     8
 71
     3
 72
     8
 73
     4
 74
     0
 42
0.000000001
 43
0.00000001
 40
0.0000000000000001
 40
0.0000000000000001
 40
0.0000000000000001
 40
0.0000000000000001
 40
0.127234597098751
 40
0.127234597098751
 40
0.127234597098751
 40
0.127234597098751
 10
116.7779657346133
 20
83.68499653179192
 30
0.0
 10
117.1455323484542
 20
83.68499653179192
 30
0.0
 10
117.532960915333
 20
83.65273304277898
 30
0.0
 10
117.9215469100464
 20
83.6072249405211
 30
0.0
  0
SPLINE
  5
CD
330
1F
100
AcDbEntity
  8
0
  6
Continuous
 62
     7
370
    25
100
AcDbSpline
210
0.0
220
0.0
230
1.0
 70
    24
 71
     3
 72
    10
 73
     6
 74
     0
 42
0.000000001
 43
0.00000001
 40
0.0
 40
0.0
 40
0.0
 40
0.0
 40
0.5
 40
0.5
 40
1.0
 40
1.0
 40
1.0
 40
1.0
 10
117.921546910034
 20
83.18499653179192
 30
0.0
 10
117.921546910034
 20
83.26879238533822
 30
0.0
 10
117.921546910034
 20
83.35250006606368
 30
0.0
 10
117.921546910034
 20
83.49935208494054
 30
0.0
 10
117.921546910034
 20
83.56234190044913
 30
0.0
 10
117.921546910034
 20
83.60722494052078
 30
0.0
  0
SPLINE
  5
CE
330
1F
100
AcDbEntity
  8
0
  6
Continuous
 62
     7
370
    25
100
AcDbSpline
210
0.0
220
0.0
230
1.0
 70
     8
 71
     3
 72
    14
 73
    10
 74
     0
 42
0.000000001
 43
0.00000001
 40
0.0
 40
0.0
 40
0.0
 40
0.0
 40
0.1488603597576148
 40
0.3150273328471772
 40
0.4987646698883385
 40
0.5951853465608922
 40
0.7494349165377944
 40
0.8793203508289453
 40
1.0
 40
1.0
 40
1.0
 40
1.0
 10
114.6546063365883
 20
83.52670217531426
 30
0.0
 10
114.6710847195026
 20
83.51149141790255
 30
0.0
 10
114.7059572740738
 20
83.4793014893964
 30
0.0
 10
114.7651076498039
 20
83.42467745829211
 30
0.0
 10
114.8196841732546
 20
83.37397179584286
 30
0.0
 10
114.8742403134535
 20
83.32395515625991
 30
0.0
 10
114.9224060778449
 20
83.27928146074876
 30
0.0
 10
114.97349528543
 20
83.23070419826892
 30
0.0
 10
115.004597361791
 20
83.19985461507231
 30
0.0
 10
115.0195770533421
 20
83.18499653179192
 30
0.0
  0
ARC
  5
CF
330
1F
100
AcDbEntity
  8
0
  6
Continuous
 62
     7
370
    25
100
AcDbCircle
 10
115.0196231214
 20
83.1849965318
 30
0.0
 40
0.5000000000000068
100
AcDbArc
 50
90.0
 51
136.8892083855
  0
LINE
  5
D0
330
1F
100
AcDbEntity
  8
0
  6
Continuous
 62
     7
370
    25
100
AcDbLine
 10
128.0196229537
 20
81.684996502
 30
0.0
 11
128.0196229537
 21
79.9266538932
 31
0.0
  0
SPLINE
  5
D1
330
1F
100
AcDbEntity
  8
0
  6
Continuous
 62
     7
370
    25
100
AcDbSpline
210
0.0
220
0.0
230
1.0
 70
     8
 71
     3
 72
    11
 73
     7
 74
     0
 42
0.000000001
 43
0.00000001
 40
0.0
 40
0.0
 40
0.0
 40
0.0
 40
0.2815942436633383
 40
0.5420860673673156
 40
0.7815308548566234
 40
1.0
 40
1.0
 40
1.0
 40
1.0
 10
127.9418515301161
 20
78.78307274313636
 30
0.0
 10
127.9538953871107
 20
78.89103707681926
 30
0.0
 10
127.9770805452629
 20
79.09887499388998
 30
0.0
 10
128.001208229294
 20
79.39736567955865
 30
0.0
 10
128.0166166477372
 20
79.67087590974675
 30
0.0
 10
128.0186520419061
 20
79.84403860075378
 30
0.0
 10
128.0196231213873
 20
79.92665391856586
 30
0.0
  0
SPLINE
  5
D2
330
1F
100
AcDbEntity
  8
0
  6
Continuous
 62
     7
370
    25
100
AcDbSpline
210
0.0
220
0.0
230
1.0
 70
    24
 71
     3
 72
    10
 73
     6
 74
     0
 42
0.000000001
 43
0.00000001
 40
0.0
 40
0.0
 40
0.0
 40
0.0
 40
0.5
 40
0.5
 40
1.0
 40
1.0
 40
1.0
 40
1.0
 10
127.5196231213873
 20
78.78307274314525
 30
0.0
 10
127.6034189749336
 20
78.78307274314525
 30
0.0
 10
127.687126655659
 20
78.78307274314525
 30
0.0
 10
127.8339786745359
 20
78.78307274314525
 30
0.0
 10
127.8969684900445
 20
78.78307274314525
 30
0.0
 10
127.9418515301161
 20
78.78307274314525
 30
0.0
  0
SPLINE
  5
D3
330
1F
100
AcDbEntity
  8
0
  6
Continuous
 62
     7
370
    25
100
AcDbSpline
210
0.0
220
0.0
230
1.0
 70
     8
 71
     3
 72
    14
 73
    10
 74
     0
 42
0.000000001
 43
0.00000001
 40
0.0
 40
0.0
 40
0.0
 40
0.0
 40
0.1488603598374869
 40
0.3150273329269794
 40
0.4987646698885773
 40
0.5951853465829806
 40
0.7494349165379153
 40
0.8793203509512854
 40
1.0
 40
1.0
 40
1.0
 40
1.0
 10
127.8613287649096
 20
82.0500133165909
 30
0.0
 10
127.8461180074893
 20
82.03353493366807
 30
0.0
 10
127.813928078974
 20
81.99866237908873
 30
0.0
 10
127.7593040478662
 20
81.93951200335967
 30
0.0
 10
127.7085983854264
 20
81.88493547991213
 30
0.0
 10
127.658581745854
 20
81.83037933972166
 30
0.0
 10
127.6139080503269
 20
81.7822135753164
 30
0.0
 10
127.5653307878493
 20
81.73112436773387
 30
0.0
 10
127.5344812046526
 20
81.70002229137297
 30
0.0
 10
127.5196231213873
 20
81.6850425998371
 30
0.0
  0
ARC
  5
D4
330
1F
100
AcDbEntity
  8
0
  6
Continuous
 62
     7
370
    25
100
AcDbCircle
 10
127.5196231214
 20
81.6849965318
 30
0.0
 40
0.5000000000000142
100
AcDbArc
 50
0.0
 51
46.8892083855
  0
SPLINE
  5
D5
330
1F
100
AcDbEntity
  8
0
  6
Continuous
 62
     7
370
    25
100
AcDbSpline
210
0.0
220
0.0
230
1.0
 70
     8
 71
     3
 72
    11
 73
     7
 74
     0
 42
0.000000001
 43
0.00000001
 40
0.0
 40
0.0
 40
0.0
 40
0.0
 40
0.2815942436632133
 40
0.5420860673671491
 40
0.7815308548564992
 40
1.0
 40
1.0
 40
1.0
 40
1.0
 10
113.0973947126584
 20
73.5869203204475
 30
0.0
 10
113.0853508556639
 20
73.47895598676466
 30
0.0
 10
113.0621656975117
 20
73.27111806969398
 30
0.0
 10
113.0380380134806
 20
72.97262738402536
 30
0.0
 10
113.0226295950374
 20
72.69911715383722
 30
0.0
 10
113.0205942008684
 20
72.52595446283013
 30
0.0
 10
113.0196231213873
 20
72.44333914501799
 30
0.0
  0
SPLINE
  5
D6
330
1F
100
AcDbEntity
  8
0
  6
Continuous
 62
     7
370
    25
100
AcDbSpline
210
0.0
220
0.0
230
1.0
 70
    24
 71
     3
 72
    10
 73
     6
 74
     0
 42
0.000000001
 43
0.00000001
 40
0.0
 40
0.0
 40
0.0
 40
0.0
 40
0.5
 40
0.5
 40
1.0
 40
1.0
 40
1.0
 40
1.0
 10
113.5196231213873
 20
73.58692032043861
 30
0.0
 10
113.435827267841
 20
73.58692032043861
 30
0.0
 10
113.3521195871155
 20
73.58692032043861
 30
0.0
 10
113.2052675682387
 20
73.58692032043861
 30
0.0
 10
113.1422777527301
 20
73.58692032043861
 30
0.0
 10
113.0973947126584
 20
73.58692032043861
 30
0.0
  0
LINE
  5
D7
330
1F
100
AcDbEntity
  8
0
  6
Continuous
 62
     7
370
    25
100
AcDbLine
 10
113.019623289
 20
70.6849965616
 30
0.0
 11
113.5196229053
 21
70.6849965616
 31
0.0
  0
LINE
  5
D8
330
1F
100
AcDbEntity
  8
0
  6
Continuous
 62
     7
370
    25
100
AcDbLine
 10
113.019623289
 20
70.6849965616
 30
0.0
 11
113.019623289
 21
72.4433391704
 31
0.0
  0
SPLINE
  5
D9
330
1F
100
AcDbEntity
  8
0
  6
Continuous
 62
     7
370
    25
100
AcDbSpline
210
0.0
220
0.0
230
1.0
 70
     8
 71
     3
 72
    14
 73
    10
 74
     0
 42
0.000000001
 43
0.00000001
 40
0.0
 40
0.0
 40
0.0
 40
0.0
 40
0.096021547728022
 40
0.1924412985067401
 40
0.2917902771809186
 40
0.396387075314727
 40
0.508224361229722
 40
0.7392002680930558
 40
1.0
 40
1.0
 40
1.0
 40
1.0
 10
126.5862897880539
 20
83.18499653179192
 30
0.0
 10
126.5866878619776
 20
83.16971551730813
 30
0.0
 10
126.5874856606444
 20
83.13909011770417
 30
0.0
 10
126.5934920346041
 20
83.09396424913523
 30
0.0
 10
126.6029695056341
 20
83.05004078894974
 30
0.0
 10
126.6161780935387
 20
83.00734473444975
 30
0.0
 10
126.6383424721293
 20
82.95233326198016
 30
0.0
 10
126.6737140177183
 20
82.888679691766
 30
0.0
 10
126.7059028337727
 20
82.85127806753941
 30
0.0
 10
126.7229732901669
 20
82.83144314119865
 30
0.0
  0
SPLINE
  5
DA
330
1F
100
AcDbEntity
  8
0
  6
Continuous
 62
     7
370
    25
100
AcDbSpline
210
0.0
220
0.0
230
1.0
 70
     8
 71
     3
 72
    15
 73
    11
 74
     0
 42
0.000000001
 43
0.00000001
 40
0.0
 40
0.0
 40
0.0
 40
0.0
 40
0.1307681764282987
 40
0.2557775964014054
 40
0.375854271439311
 40
0.4919295877812418
 40
0.6226338248371327
 40
0.7437286717850853
 40
0.8761291708518495
 40
1.0
 40
1.0
 40
1.0
 40
1.0
 10
126.2350991878814
 20
83.96664090523639
 30
0.0
 10
126.2587985135519
 20
83.945195046556
 30
0.0
 10
126.3051534962541
 20
83.90324775987003
 30
0.0
 10
126.36760198273
 20
83.83040748763823
 30
0.0
 10
126.4230832347377
 20
83.75198051704585
 30
0.0
 10
126.4741112265275
 20
83.6632062951747
 30
0.0
 10
126.5189295522849
 20
83.56383135998111
 30
0.0
 10
126.5554992702231
 20
83.44694630026464
 30
0.0
 10
126.5810540391533
 20
83.32061340481997
 30
0.0
 10
126.5845836985162
 20
83.2291878275561
 30
0.0
 10
126.5862897880539
 20
83.18499653179192
 30
0.0
  0
SPLINE
  5
DB
330
1F
100
AcDbEntity
  8
0
  6
Continuous
 62
     7
370
    25
100
AcDbSpline
210
0.0
220
0.0
230
1.0
 70
     8
 71
     3
 72
    13
 73
     9
 74
     0
 42
0.000000001
 43
0.00000001
 40
0.0
 40
0.0
 40
0.0
 40
0.0
 40
0.1238371160455669
 40
0.247902303023111
 40
0.3726214666345126
 40
0.4984138700895143
 40
0.7490979627897995
 40
1.0
 40
1.0
 40
1.0
 40
1.0
 10
125.6529564547206
 20
84.18499653179192
 30
0.0
 10
125.6797083951482
 20
84.18432501419964
 30
0.0
 10
125.733261545077
 20
84.1829807422805
 30
0.0
 10
125.811578516377
 20
84.17207893225448
 30
0.0
 10
125.8883778977031
 20
84.15471749483231
 30
0.0
 10
125.9879038858057
 20
84.12203020946522
 30
0.0
 10
126.1070667341051
 20
84.06614508198531
 30
0.0
 10
126.1924093425322
 20
83.99981857067765
 30
0.0
 10
126.2350991878814
 20
83.96664090523639
 30
0.0
  0
LINE
  5
DC
330
1F
100
AcDbEntity
  8
0
  6
Continuous
 62
     7
370
    25
100
AcDbLine
 10
124.0118366742
 20
84.1849969118
 30
0.0
 11
125.6529562717
 21
84.1849969118
 31
0.0
  0
SPLINE
  5
DD
330
1F
100
AcDbEntity
  8
0
  6
Continuous
 62
     7
370
    25
100
AcDbSpline
210
0.0
220
0.0
230
1.0
 70
     8
 71
     3
 72
    13
 73
     9
 74
     0
 42
0.000000001
 43
0.00000001
 40
0.0
 40
0.0
 40
0.0
 40
0.0
 40
0.1856794033212454
 40
0.3634611737568486
 40
0.5335423367207065
 40
0.6961479207300426
 40
0.8515354443704023
 40
1.0
 40
1.0
 40
1.0
 40
1.0
 10
122.9444942519693
 20
84.02945334924962
 30
0.0
 10
123.0118170491377
 20
84.04578165509277
 30
0.0
 10
123.143599155509
 20
84.07774376344221
 30
0.0
 10
123.3356915722152
 20
84.11646261667417
 30
0.0
 10
123.5182786543869
 20
84.14701669576186
 30
0.0
 10
123.6913524931666
 20
84.168633432671
 30
0.0
 10
123.855312494054
 20
84.18234112715976
 30
0.0
 10
123.9604605173813
 20
84.18412494441638
 30
0.0
 10
124.0118366823763
 20
84.18499653179192
 30
0.0
  0
SPLINE
  5
DE
330
1F
100
AcDbEntity
  8
0
  6
Continuous
 62
     7
370
    25
100
AcDbSpline
210
0.0
220
0.0
230
1.0
 70
     8
 71
     3
 72
    17
 73
    13
 74
     0
 42
0.000000001
 43
0.00000001
 40
0.0
 40
0.0
 40
0.0
 40
0.0
 40
0.1130667887614413
 40
0.214247189583317
 40
0.3035410227131065
 40
0.3809482842653933
 40
0.4464692356459874
 40
0.5001045920517729
 40
0.6375226522804812
 40
0.750042112035746
 40
0.8820380142736961
 40
0.9999999999999999
 40
0.9999999999999999
 40
0.9999999999999999
 40
0.9999999999999999
 10
120.5196231213873
 20
83.68499653179192
 30
0.0
 10
120.6133405927279
 20
83.69522615790723
 30
0.0
 10
120.7909232858382
 20
83.71460999881842
 30
0.0
 10
121.0420826069492
 20
83.74250424338966
 30
0.0
 10
121.2631213285926
 20
83.76749705108067
 30
0.0
 10
121.4540683312782
 20
83.78962644858787
 30
0.0
 10
121.6150847787365
 20
83.80882627526749
 30
0.0
 10
121.8244068850546
 20
83.83500804052476
 30
0.0
 10
122.0703898337127
 20
83.86798958211257
 30
0.0
 10
122.376040004985
 20
83.91358385659206
 30
0.0
 10
122.6621770538367
 20
83.96349251330102
 30
0.0
 10
122.8539780834287
 20
84.00830507283112
 30
0.0
 10
122.9444942519693
 20
84.02945334924962
 30
0.0
  0
SPLINE
  5
DF
330
1F
100
AcDbEntity
  8
0
  6
Continuous
 62
     7
370
    25
100
AcDbSpline
210
0.0
220
0.0
230
1.0
 70
     8
 71
     3
 72
    14
 73
    10
 74
     0
 42
0.000000001
 43
0.00000001
 40
0.0
 40
0.0
 40
0.0
 40
0.0
 40
0.0771019312304826
 40
0.1604220744887596
 40
0.2500134459863516
 40
0.3625277438465788
 40
0.4999872830472304
 40
0.6965319249886696
 40
1.0
 40
1.0
 40
1.0
 40
1.0
 10
118.0947519908052
 20
84.02945334924962
 30
0.0
 10
118.1537454516511
 20
84.01532407235877
 30
0.0
 10
118.2764901510266
 20
83.98592600315759
 30
0.0
 10
118.4715816284153
 20
83.94740810692952
 30
0.0
 10
118.6970399060897
 20
83.90834558035733
 30
0.0
 10
118.9688784129241
 20
83.868065073901
 30
0.0
 10
119.330552467012
 20
83.81940637963069
 30
0.0
 10
119.8534464268166
 20
83.75797154032547
 30
0.0
 10
120.2680136726728
 20
83.71255859125259
 30
0.0
 10
120.5196231213873
 20
83.68499653179192
 30
0.0
  0
SPLINE
  5
E0
330
1F
100
AcDbEntity
  8
0
  6
Continuous
 62
     7
370
    25
100
AcDbSpline
210
0.0
220
0.0
230
1.0
 70
     8
 71
     3
 72
    13
 73
     9
 74
     0
 42
0.000000001
 43
0.00000001
 40
0.0
 40
0.0
 40
0.0
 40
0.0
 40
0.1484645556295968
 40
0.3038520792699616
 40
0.4664576632792965
 40
0.6365388262431637
 40
0.8143205966787558
 40
1.0
 40
1.0
 40
1.0
 40
1.0
 10
117.0274095603983
 20
84.18499653179192
 30
0.0
 10
117.0787857253932
 20
84.18412494441638
 30
0.0
 10
117.1839337487206
 20
84.18234112715976
 30
0.0
 10
117.3478937496079
 20
84.168633432671
 30
0.0
 10
117.5209675883877
 20
84.14701669576186
 30
0.0
 10
117.7035546705594
 20
84.11646261667416
 30
0.0
 10
117.8956470872655
 20
84.07774376344221
 30
0.0
 10
118.0274291936368
 20
84.04578165509277
 30
0.0
 10
118.0947519908052
 20
84.02945334924962
 30
0.0
  0
LINE
  5
E1
330
1F
100
AcDbEntity
  8
0
  6
Continuous
 62
     7
370
    25
100
AcDbLine
 10
115.3862899711
 20
84.1849969118
 30
0.0
 11
117.0274095686
 21
84.1849969118
 31
0.0
  0
SPLINE
  5
E2
330
1F
100
AcDbEntity
  8
0
  6
Continuous
 62
     7
370
    25
100
AcDbSpline
210
0.0
220
0.0
230
1.0
 70
     8
 71
     3
 72
    13
 73
     9
 74
     0
 42
0.000000001
 43
0.00000001
 40
0.0
 40
0.0
 40
0.0
 40
0.0
 40
0.1257153360429536
 40
0.2509867092496626
 40
0.3762164861788906
 40
0.5018074329534182
 40
0.7521854029562103
 40
1.0
 40
1.0
 40
1.0
 40
1.0
 10
114.8041470548932
 20
83.96664090523639
 30
0.0
 10
114.8252328947414
 20
83.9838351824056
 30
0.0
 10
114.8673301099409
 20
84.01816301527357
 30
0.0
 10
114.9342428257701
 20
84.06173256350637
 30
0.0
 10
115.003758077424
 20
84.09934036715259
 30
0.0
 10
115.1000915147489
 20
84.14036364473844
 30
0.0
 10
115.2259253302928
 20
84.1768921994965
 30
0.0
 10
115.333018646176
 20
84.18230437018977
 30
0.0
 10
115.3862897880539
 20
84.18499653179192
 30
0.0
  0
SPLINE
  5
E3
330
1F
100
AcDbEntity
  8
0
  6
Continuous
 62
     7
370
    25
100
AcDbSpline
210
0.0
220
0.0
230
1.0
 70
     8
 71
     3
 72
    16
 73
    12
 74
     0
 42
0.000000001
 43
0.00000001
 40
0.0
 40
0.0
 40
0.0
 40
0.0
 40
0.0659534682181705
 40
0.1324870475771656
 40
0.2006767984554997
 40
0.2715233530696834
 40
0.3459202143311513
 40
0.4246400792172604
 40
0.5083359903953556
 40
0.740513582944488
 40
1.0
 40
1.0
 40
1.0
 40
1.0
 10
114.4529564547206
 20
83.18499653179192
 30
0.0
 10
114.4534084800812
 20
83.20850858421979
 30
0.0
 10
114.4543165067107
 20
83.2557394955396
 30
0.0
 10
114.461549429373
 20
83.32605758183544
 30
0.0
 10
114.4731173908101
 20
83.395716696509
 30
0.0
 10
114.489504776507
 20
83.46469302699083
 30
0.0
 10
114.5106778136388
 20
83.53298440113286
 30
0.0
 10
114.5367950106229
 20
83.60061148537154
 30
0.0
 10
114.5857180589561
 20
83.70561295502019
 30
0.0
 10
114.6699004931308
 20
83.83939660255628
 30
0.0
 10
114.7577713116634
 20
83.92268410640982
 30
0.0
 10
114.8041470548932
 20
83.96664090523639
 30
0.0
  0
SPLINE
  5
E4
330
1F
100
AcDbEntity
  8
0
  6
Continuous
 62
     7
370
    25
100
AcDbSpline
210
0.0
220
0.0
230
1.0
 70
     8
 71
     3
 72
    13
 73
     9
 74
     0
 42
0.000000001
 43
0.00000001
 40
0.0
 40
0.0
 40
0.0
 40
0.0
 40
0.1759205118839894
 40
0.33918960755005
 40
0.4921931780779566
 40
0.6738397335242725
 40
0.8395017852842178
 40
1.0
 40
1.0
 40
1.0
 40
1.0
 10
114.3162729526077
 20
82.83144314119865
 30
0.0
 10
114.3277981300049
 20
82.84454168574524
 30
0.0
 10
114.3500196455998
 20
82.8697967861122
 30
0.0
 10
114.3804232648933
 20
82.91563985269254
 30
0.0
 10
114.4086269773422
 20
82.969530834122
 30
0.0
 10
114.432552905588
 20
83.03287875538534
 30
0.0
 10
114.4496791525807
 20
83.10743295128289
 30
0.0
 10
114.4518756122759
 20
83.15941634223438
 30
0.0
 10
114.4529564547206
 20
83.18499653179192
 30
0.0
  0
SPLINE
  5
E5
330
1F
100
AcDbEntity
  8
0
  6
Continuous
 62
     7
370
    25
100
AcDbSpline
210
0.0
220
0.0
230
1.0
 70
    24
 71
     3
 72
    10
 73
     6
 74
     0
 42
0.000000001
 43
0.00000001
 40
0.0
 40
0.0
 40
0.0
 40
0.0
 40
0.5
 40
0.5
 40
1.0
 40
1.0
 40
1.0
 40
1.0
 10
123.1176993327317
 20
83.60722494052078
 30
0.0
 10
123.1176993327317
 20
83.56234190044913
 30
0.0
 10
123.1176993327317
 20
83.49935208494054
 30
0.0
 10
123.1176993327317
 20
83.35250006606368
 30
0.0
 10
123.1176993327317
 20
83.26879238533822
 30
0.0
 10
123.1176993327317
 20
83.18499653179192
 30
0.0
  0
SPLINE
  5
E6
330
1F
100
AcDbEntity
  8
0
  6
Continuous
 62
     7
370
    25
100
AcDbSpline
210
0.0
220
0.0
230
1.0
 70
     8
 71
     3
 72
     8
 73
     4
 74
     0
 42
0.000000001
 43
0.00000001
 40
-0.0000000000002226
 40
-0.0000000000002226
 40
-0.0000000000002226
 40
-0.0000000000002226
 40
0.127234597098529
 40
0.127234597098529
 40
0.127234597098529
 40
0.127234597098529
 10
123.1176993327282
 20
83.6072249405211
 30
0.0
 10
123.5062853274416
 20
83.65273304277898
 30
0.0
 10
123.8937138943203
 20
83.68499653179192
 30
0.0
 10
124.2612805081612
 20
83.68499653179192
 30
0.0
  0
LINE
  5
E7
330
1F
100
AcDbEntity
  8
0
  6
Continuous
 62
     7
370
    25
100
AcDbLine
 10
126.0196230916
 20
83.6849963642
 30
0.0
 11
124.2612804828
 21
83.6849963642
 31
0.0
  0
ARC
  5
E8
330
1F
100
AcDbEntity
  8
0
  6
Continuous
 62
     7
370
    25
100
AcDbCircle
 10
126.0196231214
 20
83.1849965318
 30
0.0
 40
0.5000000000000054
100
AcDbArc
 50
43.1107916145
 51
90.0
  0
SPLINE
  5
E9
330
1F
100
AcDbEntity
  8
0
  6
Continuous
 62
     7
370
    25
100
AcDbSpline
210
0.0
220
0.0
230
1.0
 70
     8
 71
     3
 72
    13
 73
     9
 74
     0
 42
0.000000001
 43
0.00000001
 40
0.0
 40
0.0
 40
0.0
 40
0.0
 40
0.1206933106363776
 40
0.2506349558809258
 40
0.4049363551860728
 40
0.501375099440844
 40
0.7702864432344702
 40
1.0
 40
1.0
 40
1.0
 40
1.0
 10
126.0196691894325
 20
83.18499653179192
 30
0.0
 10
126.0346467389803
 20
83.19985231008374
 30
0.0
 10
126.0657495188303
 20
83.23070221648794
 30
0.0
 10
126.1168343494363
 20
83.27927736795638
 30
0.0
 10
126.1650235699374
 20
83.32396705023811
 30
0.0
 10
126.2301865828341
 20
83.38373075962552
 30
0.0
 10
126.303110970406
 20
83.45152277280042
 30
0.0
 10
126.3589261715495
 20
83.50299104517515
 30
0.0
 10
126.3846399061862
 20
83.5267021753143
 30
0.0
  0
SPLINE
  5
EA
330
1F
100
AcDbEntity
  8
0
  6
Continuous
 62
     7
370
    25
100
AcDbSpline
210
0.0
220
0.0
230
1.0
 70
    24
 71
     3
 72
    10
 73
     6
 74
     0
 42
0.000000001
 43
0.00000001
 40
0.0
 40
0.0
 40
0.0
 40
0.0
 40
0.5
 40
0.5
 40
1.0
 40
1.0
 40
1.0
 40
1.0
 10
113.0973947126584
 20
78.78307274313636
 30
0.0
 10
113.1422777527301
 20
78.78307274313636
 30
0.0
 10
113.2052675682387
 20
78.78307274313636
 30
0.0
 10
113.3521195871155
 20
78.78307274313636
 30
0.0
 10
113.435827267841
 20
78.78307274313636
 30
0.0
 10
113.5196231213873
 20
78.78307274313636
 30
0.0
  0
SPLINE
  5
EB
330
1F
100
AcDbEntity
  8
0
  6
Continuous
 62
     7
370
    25
100
AcDbSpline
210
0.0
220
0.0
230
1.0
 70
     8
 71
     3
 72
    12
 73
     8
 74
     0
 42
0.000000001
 43
0.00000001
 40
0.0
 40
0.0
 40
0.0
 40
0.0
 40
0.1731008601133525
 40
0.359615337634814
 40
0.5595829448172194
 40
0.773035722531595
 40
1.0
 40
1.0
 40
1.0
 40
1.0
 10
113.0196231213873
 20
79.92665391856586
 30
0.0
 10
113.0202369490759
 20
79.86122103432042
 30
0.0
 10
113.0215121700734
 20
79.72528485962471
 30
0.0
 10
113.0311954753806
 20
79.512572986765
 30
0.0
 10
113.0467507585006
 20
79.28382795709717
 30
0.0
 10
113.0686096589616
 20
79.03897703056735
 30
0.0
 10
113.0876054383792
 20
78.87010114632395
 30
0.0
 10
113.0973947126584
 20
78.78307274313636
 30
0.0
  0
LINE
  5
EC
330
1F
100
AcDbEntity
  8
0
  6
Continuous
 62
     7
370
    25
100
AcDbLine
 10
113.019623289
 20
79.9266538932
 30
0.0
 11
113.019623289
 21
81.684996502
 31
0.0
  0
ARC
  5
ED
330
1F
100
AcDbEntity
  8
0
  6
Continuous
 62
     7
370
    25
100
AcDbCircle
 10
113.5196231214
 20
81.6849965318
 30
0.0
 40
0.5
100
AcDbArc
 50
133.1107916145
 51
180.0
  0
SPLINE
  5
EE
330
1F
100
AcDbEntity
  8
0
  6
Continuous
 62
     7
370
    25
100
AcDbSpline
210
0.0
220
0.0
230
1.0
 70
     8
 71
     3
 72
    13
 73
     9
 74
     0
 42
0.000000001
 43
0.00000001
 40
0.0
 40
0.0
 40
0.0
 40
0.0
 40
0.1206933098378984
 40
0.2506349558807637
 40
0.4049363563536673
 40
0.5013750994399903
 40
0.7702864430522399
 40
1.0
 40
1.0
 40
1.0
 40
1.0
 10
113.5196231213873
 20
81.68504259983712
 30
0.0
 10
113.5047673431954
 20
81.70002014928727
 30
0.0
 10
113.4739174367946
 20
81.73112292914048
 30
0.0
 10
113.4253422851775
 20
81.78220775988825
 30
0.0
 10
113.3806526027922
 20
81.83039698047745
 30
0.0
 10
113.3208888934504
 20
81.8955599933671
 30
0.0
 10
113.2530968804028
 20
81.96848438079425
 30
0.0
 10
113.2016286080245
 20
82.02429958193503
 30
0.0
 10
113.1779174778649
 20
82.05001331659086
 30
0.0
  0
SPLINE
  5
EF
330
1F
100
AcDbEntity
  8
0
  6
Continuous
 62
     7
370
    25
100
AcDbSpline
210
0.0
220
0.0
230
1.0
 70
    24
 71
     3
 72
    10
 73
     6
 74
     0
 42
0.000000001
 43
0.00000001
 40
0.0
 40
0.0
 40
0.0
 40
0.0
 40
0.5
 40
0.5
 40
1.0
 40
1.0
 40
1.0
 40
1.0
 10
127.9418515301161
 20
73.5869203204475
 30
0.0
 10
127.8969684900445
 20
73.5869203204475
 30
0.0
 10
127.8339786745359
 20
73.5869203204475
 30
0.0
 10
127.687126655659
 20
73.5869203204475
 30
0.0
 10
127.6034189749335
 20
73.5869203204475
 30
0.0
 10
127.5196231213873
 20
73.5869203204475
 30
0.0
  0
SPLINE
  5
F0
330
1F
100
AcDbEntity
  8
0
  6
Continuous
 62
     7
370
    25
100
AcDbSpline
210
0.0
220
0.0
230
1.0
 70
     8
 71
     3
 72
    12
 73
     8
 74
     0
 42
0.000000001
 43
0.00000001
 40
0.0
 40
0.0
 40
0.0
 40
0.0
 40
0.1731008601132462
 40
0.3596153376346544
 40
0.5595829448170604
 40
0.7730357225314888
 40
1.0
 40
1.0
 40
1.0
 40
1.0
 10
128.0196231213873
 20
72.44333914501799
 30
0.0
 10
128.0190092936986
 20
72.5087720292634
 30
0.0
 10
128.0177340727011
 20
72.64470820395904
 30
0.0
 10
128.008050767394
 20
72.8574200768187
 30
0.0
 10
127.992495484274
 20
73.0861651064865
 30
0.0
 10
127.9706365838129
 20
73.33101603301641
 30
0.0
 10
127.9516408043954
 20
73.49989191725986
 30
0.0
 10
127.9418515301161
 20
73.5869203204475
 30
0.0
  0
LINE
  5
F1
330
1F
100
AcDbEntity
  8
0
  6
Continuous
 62
     7
370
    25
100
AcDbLine
 10
128.0196229537
 20
72.4433391704
 30
0.0
 11
128.0196229537
 21
70.6849965616
 31
0.0
  0
LINE
  5
F2
330
1F
100
AcDbEntity
  8
0
  6
Continuous
 62
     7
370
    25
100
AcDbLine
 10
127.5196233375
 20
70.6849965616
 30
0.0
 11
128.0196229537
 21
70.6849965616
 31
0.0
  0
SPLINE
  5
F3
330
1F
100
AcDbEntity
  8
0
  6
Continuous
 62
     7
370
    25
100
AcDbSpline
210
0.0
220
0.0
230
1.0
 70
     8
 71
     3
 72
    12
 73
     8
 74
     0
 42
0.000000001
 43
0.00000001
 40
-0.267217449764123
 40
-0.267217449764123
 40
-0.267217449764123
 40
-0.267217449764123
 40
-0.160856558527433
 40
-0.107676112909088
 40
-0.001315221672398
 40
-0.001315221672398
 40
0.0
 40
0.0
 40
0.0
 40
0.0
 10
113.0973947126584
 20
73.58692032045639
 30
0.0
 10
113.1354368994909
 20
73.96100079103495
 30
0.0
 10
113.1299410273296
 20
74.48070195651133
 30
0.0
 10
113.0880444478027
 20
75.3329471251417
 30
0.0
 10
113.0469182900465
 20
75.83715856735414
 30
0.0
 10
113.0202709125331
 20
76.17669796394115
 30
0.0
 10
113.0199474108657
 20
76.18084773245103
 30
0.0
 10
113.0196231213873
 20
76.18499653179192
 30
0.0
  0
SPLINE
  5
F4
330
1F
100
AcDbEntity
  8
0
  6
Continuous
 62
     7
370
    25
100
AcDbSpline
210
0.0
220
0.0
230
1.0
 70
     8
 71
     3
 72
    12
 73
     8
 74
     0
 42
0.000000001
 43
0.00000001
 40
0.0
 40
0.0
 40
0.0
 40
0.0
 40
0.106360891224351
 40
0.159541336836527
 40
0.265902228060878
 40
0.265902228060878
 40
0.267217449764311
 40
0.267217449764311
 40
0.267217449764311
 40
0.267217449764311
 10
127.9418515301161
 20
78.78307274312748
 30
0.0
 10
127.9038093432881
 20
78.4089922725923
 30
0.0
 10
127.9093052154412
 20
77.88929110717265
 30
0.0
 10
127.951201794958
 20
77.03704593863912
 30
0.0
 10
127.992327952702
 20
76.53283449648455
 30
0.0
 10
128.0189753302263
 20
76.19329509983835
 30
0.0
 10
128.0192988319013
 20
76.18914533122981
 30
0.0
 10
128.0196231213873
 20
76.18499653179192
 30
0.0
  0
SPLINE
  5
F5
330
1F
100
AcDbEntity
  8
0
  6
Continuous
 62
     7
370
    25
100
AcDbSpline
210
0.0
220
0.0
230
1.0
 70
     8
 71
     3
 72
    12
 73
     8
 74
     0
 42
0.000000001
 43
0.00000001
 40
0.0
 40
0.0
 40
0.0
 40
0.0
 40
0.106360889128132
 40
0.159541333692198
 40
0.26590222282033
 40
0.26590222282033
 40
0.267217449923961
 40
0.267217449923961
 40
0.267217449923961
 40
0.267217449923961
 10
117.9215469100517
 20
83.60722494052077
 30
0.0
 10
118.2956273732143
 20
83.56918275444247
 30
0.0
 10
118.8153285306444
 20
83.5746786256415
 30
0.0
 10
119.6675736799189
 20
83.61657520320871
 30
0.0
 10
120.1717851122153
 20
83.65770135963415
 30
0.0
 10
120.5113245192678
 20
83.6843487379711
 30
0.0
 10
120.5154743049144
 20
83.68467224097468
 30
0.0
 10
120.5196231213873
 20
83.68499653179192
 30
0.0
  0
SPLINE
  5
F6
330
1F
100
AcDbEntity
  8
0
  6
Continuous
 62
     7
370
    25
100
AcDbSpline
210
0.0
220
0.0
230
1.0
 70
     8
 71
     3
 72
     8
 73
     4
 74
     0
 42
0.000000001
 43
0.00000001
 40
0.0
 40
0.0
 40
0.0
 40
0.0
 40
1.0
 40
1.0
 40
1.0
 40
1.0
 10
112.6751663039296
 20
73.7601254012099
 30
0.0
 10
112.8451701837653
 20
73.72508467629164
 30
0.0
 10
113.0119746461178
 20
73.65665872537376
 30
0.0
 10
113.0973947126584
 20
73.58692032045639
 30
0.0
  0
SPLINE
  5
F7
330
1F
100
AcDbEntity
  8
0
  6
Continuous
 62
     7
370
    25
100
AcDbSpline
210
0.0
220
0.0
230
1.0
 70
     8
 71
     3
 72
     9
 73
     5
 74
     0
 42
0.000000001
 43
0.00000001
 40
0.0
 40
0.0
 40
0.0
 40
0.0
 40
0.571428571428571
 40
1.0
 40
1.0
 40
1.0
 40
1.0
 10
128.364079938845
 20
78.60986766237394
 30
0.0
 10
128.2669348646532
 20
78.62989093375582
 30
0.0
 10
128.0972735259355
 20
78.68340925123114
 30
0.0
 10
127.9784601300621
 20
78.75318485530573
 30
0.0
 10
127.9418515301161
 20
78.78307274312748
 30
0.0
  0
SPLINE
  5
F8
330
1F
100
AcDbEntity
  8
0
  6
Continuous
 62
     7
370
    25
100
AcDbSpline
210
0.0
220
0.0
230
1.0
 70
     8
 71
     3
 72
     9
 73
     5
 74
     0
 42
0.000000001
 43
0.00000001
 40
0.0
 40
0.0
 40
0.0
 40
0.0
 40
0.5
 40
1.0
 40
1.0
 40
1.0
 40
1.0
 10
128.3640799388461
 20
73.76012540120536
 30
0.0
 10
128.279077998928
 20
73.74260503874582
 30
0.0
 10
128.1091840806793
 20
73.69148281976337
 30
0.0
 10
127.9845615633868
 20
73.62178952290822
 30
0.0
 10
127.9418515301167
 20
73.58692032044917
 30
0.0
  0
SPLINE
  5
F9
330
1F
100
AcDbEntity
  8
0
  6
Continuous
 62
     7
370
    25
100
AcDbSpline
210
0.0
220
0.0
230
1.0
 70
     8
 71
     3
 72
    12
 73
     8
 74
     0
 42
0.000000001
 43
0.00000001
 40
-0.0013152216724614
 40
-0.0013152216724614
 40
-0.0013152216724614
 40
-0.0013152216724614
 40
0.0
 40
0.0
 40
0.159541336854997
 40
0.212721782473329
 40
0.265902228091661
 40
0.265902228091661
 40
0.265902228091661
 40
0.265902228091661
 10
128.0196231213873
 20
76.18499653179192
 30
0.0
 10
128.0192988319089
 20
76.18084773245174
 30
0.0
 10
128.0189735121784
 20
76.17670018584785
 30
0.0
 10
127.97949376213
 20
75.66906597266507
 30
0.0
 10
127.9244258474545
 20
74.9964360722904
 30
0.0
 10
127.9086135393196
 20
74.13191999550962
 30
0.0
 10
127.9228304366999
 20
73.77396055574563
 30
0.0
 10
127.9418515301161
 20
73.58692032045639
 30
0.0
  0
SPLINE
  5
FA
330
1F
100
AcDbEntity
  8
0
  6
Continuous
 62
     7
370
    25
100
AcDbSpline
210
0.0
220
0.0
230
1.0
 70
     8
 71
     3
 72
    12
 73
     8
 74
     0
 42
0.000000001
 43
0.00000001
 40
-0.265902228061387
 40
-0.265902228061387
 40
-0.265902228061387
 40
-0.265902228061387
 40
-0.2645870063584663
 40
-0.2645870063584663
 40
-0.1582261151339113
 40
-0.1050456695216343
 40
0.0013152217029208
 40
0.0013152217029208
 40
0.0013152217029208
 40
0.0013152217029208
 10
113.0196231213873
 20
76.18499653179192
 30
0.0
 10
113.0199474108731
 20
76.18914533122847
 30
0.0
 10
113.0202709125479
 20
76.19329509983514
 30
0.0
 10
113.0469182900743
 20
76.53283449648366
 30
0.0
 10
113.0880444478168
 20
77.03704593863655
 30
0.0
 10
113.1299410273341
 20
77.88929110717223
 30
0.0
 10
113.1354368994866
 20
78.40899227259159
 30
0.0
 10
113.0973947126584
 20
78.78307274312748
 30
0.0
  0
SPLINE
  5
FB
330
1F
100
AcDbEntity
  8
0
  6
Continuous
 62
     7
370
    25
100
AcDbSpline
210
0.0
220
0.0
230
1.0
 70
     8
 71
     3
 72
     9
 73
     5
 74
     0
 42
0.000000001
 43
0.00000001
 40
0.0
 40
0.0
 40
0.0
 40
0.0
 40
0.5
 40
1.0
 40
1.0
 40
1.0
 40
1.0
 10
112.6751663039289
 20
78.60986766237674
 30
0.0
 10
112.7601682438469
 20
78.62738802483629
 30
0.0
 10
112.9300621620956
 20
78.67851024381869
 30
0.0
 10
113.0546846793879
 20
78.74820354067379
 30
0.0
 10
113.0973947126581
 20
78.7830727431328
 30
0.0
  0
SPLINE
  5
FC
330
1F
100
AcDbEntity
  8
0
  6
Continuous
 62
     7
370
    25
100
AcDbSpline
210
0.0
220
0.0
230
1.0
 70
     8
 71
     3
 72
     9
 73
     5
 74
     0
 42
0.000000001
 43
0.00000001
 40
0.0
 40
0.0
 40
0.0
 40
0.0
 40
0.571428571428571
 40
1.0
 40
1.0
 40
1.0
 40
1.0
 10
118.0947519908052
 20
84.02945334924962
 30
0.0
 10
118.0747287194234
 20
83.93230827505779
 30
0.0
 10
118.0212104019481
 20
83.76264693634013
 30
0.0
 10
117.9514347978735
 20
83.64383354046676
 30
0.0
 10
117.9215469100517
 20
83.60722494052077
 30
0.0
  0
SPLINE
  5
FD
330
1F
100
AcDbEntity
  8
0
  6
Continuous
 62
     7
370
    25
100
AcDbSpline
210
0.0
220
0.0
230
1.0
 70
     8
 71
     3
 72
    12
 73
     8
 74
     0
 42
0.000000001
 43
0.00000001
 40
-0.0013152270871416
 40
-0.0013152270871416
 40
-0.0013152270871416
 40
-0.0013152270871416
 40
0.0
 40
0.0
 40
0.106360889134687
 40
0.159541333702031
 40
0.265902222836718
 40
0.265902222836718
 40
0.265902222836718
 40
0.265902222836718
 10
120.5196231213873
 20
83.68499653179192
 30
0.0
 10
120.5237719378083
 20
83.68467224097873
 30
0.0
 10
120.5279217234027
 20
83.68434873797925
 30
0.0
 10
120.8674611304231
 20
83.65770135964556
 30
0.0
 10
121.3716725627507
 20
83.61657520321556
 30
0.0
 10
122.2239177120767
 20
83.57467862564262
 30
0.0
 10
122.7436188695372
 20
83.5691827544401
 30
0.0
 10
123.1176993327228
 20
83.60722494052077
 30
0.0
  0
SPLINE
  5
FE
330
1F
100
AcDbEntity
  8
0
  6
Continuous
 62
     7
370
    25
100
AcDbSpline
210
0.0
220
0.0
230
1.0
 70
     8
 71
     3
 72
     9
 73
     5
 74
     0
 42
0.000000001
 43
0.00000001
 40
0.0
 40
0.0
 40
0.0
 40
0.0
 40
0.5
 40
1.0
 40
1.0
 40
1.0
 40
1.0
 10
122.944494251974
 20
84.0294533492508
 30
0.0
 10
122.9620146144335
 20
83.9444514093327
 30
0.0
 10
123.013136833416
 20
83.77455749108391
 30
0.0
 10
123.0828301302711
 20
83.6499349737915
 30
0.0
 10
123.1176993327302
 20
83.60722494052136
 30
0.0
  0
SPLINE
  5
FF
330
1F
100
AcDbEntity
  8
0
  6
Continuous
 62
     7
370
    25
100
AcDbSpline
210
0.0
220
0.0
230
1.0
 70
     8
 71
     3
 72
    13
 73
     9
 74
     0
 42
0.000000001
 43
0.00000001
 40
0.0
 40
0.0
 40
0.0
 40
0.0
 40
0.1162222239500744
 40
0.2381780213579675
 40
0.3660917905452749
 40
0.5001580142688472
 40
0.7504239388829979
 40
1.0
 40
1.0
 40
1.0
 40
1.0
 10
126.3846399061862
 20
83.5267021753143
 30
0.0
 10
126.3956240286814
 20
83.51425416469621
 30
0.0
 10
126.4181341517312
 20
83.48874404762832
 30
0.0
 10
126.446245278896
 20
83.44723687461162
 30
0.0
 10
126.4707692754942
 20
83.40264412390663
 30
0.0
 10
126.496142860358
 20
83.34213804060266
 30
0.0
 10
126.5160025382305
 20
83.2667342569408
 30
0.0
 10
126.5184173712895
 20
83.21221737195829
 30
0.0
 10
126.5196231213873
 20
83.18499655056532
 30
0.0
  0
SPLINE
  5
100
330
1F
100
AcDbEntity
  8
0
  6
Continuous
 62
     7
370
    25
100
AcDbSpline
210
0.0
220
0.0
230
1.0
 70
     8
 71
     3
 72
    10
 73
     6
 74
     0
 42
0.000000001
 43
0.00000001
 40
0.0
 40
0.0
 40
0.0
 40
0.0
 40
0.5
 40
0.5
 40
1.0
 40
1.0
 40
1.0
 40
1.0
 10
126.5196231213873
 20
83.18499653179192
 30
0.0
 10
126.5196231213873
 20
82.92319714086359
 30
0.0
 10
126.627396220465
 20
82.66300986686548
 30
0.0
 10
126.9976364732125
 20
82.29276962106927
 30
0.0
 10
127.257823749234
 20
82.18499652687662
 30
0.0
 10
127.5196231401624
 20
82.18499653179192
 30
0.0
  0
SPLINE
  5
101
330
1F
100
AcDbEntity
  8
0
  6
Continuous
 62
     7
370
    25
100
AcDbSpline
210
0.0
220
0.0
230
1.0
 70
     8
 71
     3
 72
    12
 73
     8
 74
     0
 42
0.000000001
 43
0.00000001
 40
0.0
 40
0.0
 40
0.0
 40
0.0
 40
0.1664616503807027
 40
0.3330491366093241
 40
0.5001938540683241
 40
0.7619811741357122
 40
1.0
 40
1.0
 40
1.0
 40
1.0
 10
127.5196231401607
 20
82.18499653179192
 30
0.0
 10
127.5375969639124
 20
82.18445415236049
 30
0.0
 10
127.5735581986378
 20
82.18336898348859
 30
0.0
 10
127.6312751277111
 20
82.17358583512873
 30
0.0
 10
127.7015598392035
 20
82.15290576334912
 30
0.0
 10
127.7809025936466
 20
82.11660449393251
 30
0.0
 10
127.8353836646696
 20
82.07149531360871
 30
0.0
 10
127.8613287649096
 20
82.05001331659092
 30
0.0
  0
SPLINE
  5
102
330
1F
100
AcDbEntity
  8
0
  6
Continuous
 62
     7
370
    25
100
AcDbSpline
210
0.0
220
0.0
230
1.0
 70
     8
 71
     3
 72
    13
 73
     9
 74
     0
 42
0.000000001
 43
0.00000001
 40
0.0
 40
0.0
 40
0.0
 40
0.0
 40
0.1162222239446788
 40
0.2381780213507807
 40
0.3660917905398808
 40
0.5001580142687957
 40
0.7504239388759752
 40
1.0
 40
1.0
 40
1.0
 40
1.0
 10
113.1779174778649
 20
82.05001331659086
 30
0.0
 10
113.1903654884824
 20
82.0609974390855
 30
0.0
 10
113.2158756055495
 20
82.08350756213468
 30
0.0
 10
113.2573827785653
 20
82.11161868929922
 30
0.0
 10
113.3019755292708
 20
82.13614268589805
 30
0.0
 10
113.3624816125752
 20
82.16151627076216
 30
0.0
 10
113.4378853962379
 20
82.18137594863501
 30
0.0
 10
113.4924022812202
 20
82.18379078169414
 30
0.0
 10
113.5196231026139
 20
82.18499653179192
 30
0.0
  0
SPLINE
  5
103
330
1F
100
AcDbEntity
  8
0
  6
Continuous
 62
     7
370
    25
100
AcDbSpline
210
0.0
220
0.0
230
1.0
 70
     8
 71
     3
 72
    10
 73
     6
 74
     0
 42
0.000000001
 43
0.00000001
 40
0.0
 40
0.0
 40
0.0
 40
0.0
 40
0.5
 40
0.5
 40
1.0
 40
1.0
 40
1.0
 40
1.0
 10
113.5196231026122
 20
82.18499653179192
 30
0.0
 10
113.7814224966697
 20
82.18499652687662
 30
0.0
 10
114.0416097757252
 20
82.29276962375678
 30
0.0
 10
114.4118500294224
 20
82.66300987745397
 30
0.0
 10
114.5196231263026
 20
82.92319715650952
 30
0.0
 10
114.5196231213873
 20
83.18499655056704
 30
0.0
  0
SPLINE
  5
104
330
1F
100
AcDbEntity
  8
0
  6
Continuous
 62
     7
370
    25
100
AcDbSpline
210
0.0
220
0.0
230
1.0
 70
     8
 71
     3
 72
    12
 73
     8
 74
     0
 42
0.000000001
 43
0.00000001
 40
0.0
 40
0.0
 40
0.0
 40
0.0
 40
0.1664615763807151
 40
0.3330490665505926
 40
0.500193865880855
 40
0.7619811797519991
 40
1.0
 40
1.0
 40
1.0
 40
1.0
 10
114.5196231213873
 20
83.18499653179192
 30
0.0
 10
114.5201654997191
 20
83.20297034855346
 30
0.0
 10
114.521250666645
 20
83.23893157771477
 30
0.0
 10
114.5310338119576
 20
83.29664851507506
 30
0.0
 10
114.551713885386
 20
83.36693324022873
 30
0.0
 10
114.5880151591859
 20
83.44627600383049
 30
0.0
 10
114.6331243395503
 20
83.50075707500243
 30
0.0
 10
114.6546063365883
 20
83.52670217531426
 30
0.0
  0
LINE
  5
105
330
1F
100
AcDbEntity
  8
0
  6
Continuous
 62
     7
370
    25
100
AcDbLine
 10
127.5196233375
 20
70.1849964796
 30
0.0
 11
113.5196229053
 21
70.1849964796
 31
0.0
  0
SPLINE
  5
106
330
1F
100
AcDbEntity
  8
0
  6
Continuous
 62
     7
370
    25
100
AcDbSpline
210
0.0
220
0.0
230
1.0
 70
    24
 71
     3
 72
    14
 73
    10
 74
     0
 42
0.000000001
 43
0.00000001
 40
0.0
 40
0.0
 40
0.0
 40
0.0
 40
0.25
 40
0.25
 40
0.5
 40
0.5
 40
0.75
 40
0.75
 40
1.0
 40
1.0
 40
1.0
 40
1.0
 10
113.5196231213873
 20
70.18499653179192
 30
0.0
 10
113.5196231213873
 20
70.18499653179192
 30
0.0
 10
113.5196231213873
 20
70.19573590119867
 30
0.0
 10
113.5196231213873
 20
70.24446886132276
 30
0.0
 10
113.5196231213873
 20
70.28262760472975
 30
0.0
 10
113.5196231213873
 20
70.38025867766756
 30
0.0
 10
113.5196231213873
 20
70.43940070181905
 30
0.0
 10
113.5196231213873
 20
70.56249765220294
 30
0.0
 10
113.5196231213873
 20
70.62607096669305
 30
0.0
 10
113.5196231213873
 20
70.68499653179192
 30
0.0
  0
SPLINE
  5
107
330
1F
100
AcDbEntity
  8
0
  6
Continuous
 62
     7
370
    25
100
AcDbSpline
210
0.0
220
0.0
230
1.0
 70
    24
 71
     3
 72
    10
 73
     6
 74
     0
 42
0.000000001
 43
0.00000001
 40
0.0
 40
0.0
 40
0.0
 40
0.0
 40
0.5
 40
0.5
 40
1.0
 40
1.0
 40
1.0
 40
1.0
 10
127.5196231213873
 20
70.18499653179192
 30
0.0
 10
127.5196231213874
 20
70.18499653179192
 30
0.0
 10
127.5196231213874
 20
70.23888307998702
 30
0.0
 10
127.5196231213874
 20
70.42400320241028
 30
0.0
 10
127.5196231213873
 20
70.55409683789235
 30
0.0
 10
127.5196231213873
 20
70.68499653179192
 30
0.0
  0
SPLINE
  5
108
330
1F
100
AcDbEntity
  8
0
  6
Continuous
 62
     7
370
    25
100
AcDbSpline
210
0.0
220
0.0
230
1.0
 70
     8
 71
     3
 72
    14
 73
    10
 74
     0
 42
0.000000001
 43
0.00000001
 40
0.0
 40
0.0
 40
0.0
 40
0.0
 40
0.25
 40
0.25
 40
0.5
 40
0.5
 40
0.75
 40
0.75
 40
1.0
 40
1.0
 40
1.0
 40
1.0
 10
127.5196231213873
 20
70.18499653179192
 30
0.0
 10
127.5785486864862
 20
70.18499653179192
 30
0.0
 10
127.6421220009763
 20
70.19573590119867
 30
0.0
 10
127.7652189513602
 20
70.24446886132274
 30
0.0
 10
127.8243609755116
 20
70.28262760472974
 30
0.0
 10
127.9219920484495
 20
70.38025867766756
 30
0.0
 10
127.9601507918565
 20
70.43940070181905
 30
0.0
 10
128.0088837519806
 20
70.56249765220294
 30
0.0
 10
128.0196231213873
 20
70.62607096669305
 30
0.0
 10
128.0196231213873
 20
70.68499653179192
 30
0.0
  0
SPLINE
  5
109
330
1F
100
AcDbEntity
  8
0
  6
Continuous
 62
     7
370
    25
100
AcDbSpline
210
0.0
220
0.0
230
1.0
 70
     8
 71
     3
 72
    10
 73
     6
 74
     0
 42
0.000000001
 43
0.00000001
 40
0.0
 40
0.0
 40
0.0
 40
0.0
 40
0.5
 40
0.5
 40
1.0
 40
1.0
 40
1.0
 40
1.0
 10
113.5196231213873
 20
70.18499653179192
 30
0.0
 10
113.3887234274877
 20
70.18499653179192
 30
0.0
 10
113.2586297920056
 20
70.23888307998702
 30
0.0
 10
113.0735096695824
 20
70.42400320241029
 30
0.0
 10
113.0196231213873
 20
70.55409683789235
 30
0.0
 10
113.0196231213873
 20
70.68499653179192
 30
0.0
  0
LINE
  5
10A
330
1F
100
AcDbEntity
  8
0
  6
Continuous
 62
     7
370
    25
100
AcDbLine
 10
124.4503687677
 20
73.6169557902
 30
0.0
 11
124.1870279965
 21
72.9141339077
 31
0.0
  0
SPLINE
  5
10B
330
1F
100
AcDbEntity
  8
0
  6
Continuous
 62
     7
370
    25
100
AcDbSpline
210
0.0
220
0.0
230
1.0
 70
     8
 71
     3
 72
    31
 73
    27
 74
     0
 42
0.000000001
 43
0.00000001
 40
0.0
 40
0.0
 40
0.0
 40
0.0
 40
0.041802146707033
 40
0.0834773119907251
 40
0.1252067539465352
 40
0.1667553111646444
 40
0.208343789897431
 40
0.2500683763875439
 40
0.2917172802014936
 40
0.3332298152280506
 40
0.3749213178163661
 40
0.4166401475748497
 40
0.4581957047388333
 40
0.4998271904370101
 40
0.5415736637950209
 40
0.5832410842716478
 40
0.624816154537611
 40
0.6665619264699779
 40
0.7082962697793289
 40
0.7498773808560844
 40
0.7916005699338539
 40
0.8333637303001521
 40
0.8749600854558802
 40
0.9166279211224443
 40
0.9583871623503707
 40
1.0
 40
1.0
 40
1.0
 40
1.0
 10
124.4503688667462
 20
73.61695568030119
 30
0.0
 10
124.4513097124064
 20
73.61924401571274
 30
0.0
 10
124.4531885457413
 20
73.62381373531181
 30
0.0
 10
124.4569323877687
 20
73.63022569313321
 30
0.0
 10
124.4612605213305
 20
73.63622571556397
 30
0.0
 10
124.4662002141689
 20
73.64173307122577
 30
0.0
 10
124.4716889650006
 20
73.64668980228474
 30
0.0
 10
124.4776516280392
 20
73.65107382882353
 30
0.0
 10
124.4840131764451
 20
73.6548473754415
 30
0.0
 10
124.4907199967037
 20
73.65796179662621
 30
0.0
 10
124.4977032915038
 20
73.66040384920052
 30
0.0
 10
124.5048896453733
 20
73.6621699444353
 30
0.0
 10
124.5122091915969
 20
73.66323862114237
 30
0.0
 10
124.5195996285363
 20
73.66358685299659
 30
0.0
 10
124.5269957957454
 20
73.66323333991453
 30
0.0
 10
124.5343226528499
 20
73.66218229997689
 30
0.0
 10
124.5415120546351
 20
73.66042019378202
 30
0.0
 10
124.5484996561444
 20
73.6579668564617
 30
0.0
 10
124.5552193076262
 20
73.65485214441519
 30
0.0
 10
124.5615956949814
 20
73.6510852918224
 30
0.0
 10
124.56755818101
 20
73.64668946529686
 30
0.0
 10
124.573051100854
 20
73.64171887576725
 30
0.0
 10
124.5780068247233
 20
73.63621305014948
 30
0.0
 10
124.5823307224512
 20
73.63020397233602
 30
0.0
 10
124.5860599460135
 20
73.62379549834017
 30
0.0
 10
124.5879393351135
 20
73.61923294899503
 30
0.0
 10
124.588877379535
 20
73.61695568030119
 30
0.0
  0
LINE
  5
10C
330
1F
100
AcDbEntity
  8
0
  6
Continuous
 62
     7
370
    25
100
AcDbLine
 10
124.8522181605
 20
72.9141339077
 30
0.0
 11
124.5888773893
 21
73.6169557902
 31
0.0
  0
SPLINE
  5
10D
330
1F
100
AcDbEntity
  8
0
  6
Continuous
 62
     7
370
    25
100
AcDbSpline
210
0.0
220
0.0
230
1.0
 70
     8
 71
     3
 72
    15
 73
    11
 74
     0
 42
0.000000001
 43
0.00000001
 40
0.0
 40
0.0
 40
0.0
 40
0.0
 40
0.1255482376299943
 40
0.2506612331927046
 40
0.3755698012986847
 40
0.5003109015749712
 40
0.6252467103373207
 40
0.7502075817355112
 40
0.874985997901262
 40
1.0
 40
1.0
 40
1.0
 40
1.0
 10
124.8522182668913
 20
72.91413386343822
 30
0.0
 10
124.8538333123586
 20
72.90861867673522
 30
0.0
 10
124.8570578043636
 20
72.8976074230023
 30
0.0
 10
124.8564003006454
 20
72.88023836373291
 30
0.0
 10
124.8516697395215
 20
72.86369352310011
 30
0.0
 10
124.8429231663884
 20
72.84884235369066
 30
0.0
 10
124.830893461326
 20
72.83651186472619
 30
0.0
 10
124.8163155126033
 20
72.82741945723286
 30
0.0
 10
124.8000620690223
 20
72.82156778418435
 30
0.0
 10
124.7886669456569
 20
72.82083224744218
 30
0.0
 10
124.7829640104509
 20
72.82046413221886
 30
0.0
  0
LINE
  5
10E
330
1F
100
AcDbEntity
  8
0
  6
Continuous
 62
     7
370
    25
100
AcDbLine
 10
124.2562823073
 20
72.8204640443
 30
0.0
 11
124.7829640826
 21
72.8204640443
 31
0.0
  0
SPLINE
  5
10F
330
1F
100
AcDbEntity
  8
0
  6
Continuous
 62
     7
370
    25
100
AcDbSpline
210
0.0
220
0.0
230
1.0
 70
     8
 71
     3
 72
    15
 73
    11
 74
     0
 42
0.000000001
 43
0.00000001
 40
0.0
 40
0.0
 40
0.0
 40
0.0
 40
0.1247517205531464
 40
0.2498857245441838
 40
0.3745674687454417
 40
0.4993106804387823
 40
0.6244677860264319
 40
0.7493917290903895
 40
0.8741574726928457
 40
1.0
 40
1.0
 40
1.0
 40
1.0
 10
124.2562822327282
 20
72.82046413221886
 30
0.0
 10
124.2505911079384
 20
72.82082887470841
 30
0.0
 10
124.2391914187377
 20
72.8215594773876
 30
0.0
 10
124.2229446211725
 20
72.82741143464625
 30
0.0
 10
124.2083766940042
 20
72.83650562545517
 30
0.0
 10
124.1963296150228
 20
72.84881414986924
 30
0.0
 10
124.1875747138466
 20
72.86367788263942
 30
0.0
 10
124.1828608276796
 20
72.88023004145779
 30
0.0
 10
124.1821866867891
 20
72.89759489828573
 30
0.0
 10
124.1854095972492
 20
72.90860510610233
 30
0.0
 10
124.1870279763878
 20
72.91413386368397
 30
0.0
  0
SPLINE
  5
110
330
1F
100
AcDbEntity
  8
0
  6
Continuous
 62
     7
370
    25
100
AcDbSpline
210
0.0
220
0.0
230
1.0
 70
     8
 71
     3
 72
     9
 73
     5
 74
     0
 42
0.000000001
 43
0.00000001
 40
0.0
 40
0.0
 40
0.0
 40
0.0
 40
0.5
 40
1.0
 40
1.0
 40
1.0
 40
1.0
 10
112.5196231213873
 20
72.69278297080291
 30
0.0
 10
112.6505228152868
 20
72.69278297080291
 30
0.0
 10
112.9113392512023
 20
72.63876148510344
 30
0.0
 10
113.0196231213873
 20
72.50864338589875
 30
0.0
 10
113.0196231213873
 20
72.44333914501799
 30
0.0
  0
SPLINE
  5
111
330
1F
100
AcDbEntity
  8
0
  6
Continuous
 62
     7
370
    25
100
AcDbSpline
210
0.0
220
0.0
230
1.0
 70
     8
 71
     3
 72
     9
 73
     5
 74
     0
 42
0.000000001
 43
0.00000001
 40
0.0
 40
0.0
 40
0.0
 40
0.0
 40
0.5
 40
1.0
 40
1.0
 40
1.0
 40
1.0
 10
128.5196231213873
 20
79.67721009278094
 30
0.0
 10
128.3887234274877
 20
79.67721009278094
 30
0.0
 10
128.1279069915722
 20
79.7312315784804
 30
0.0
 10
128.0196231213873
 20
79.8613496776851
 30
0.0
 10
128.0196231213873
 20
79.92665391856586
 30
0.0
  0
SPLINE
  5
112
330
1F
100
AcDbEntity
  8
0
  6
Continuous
 62
     7
370
    25
100
AcDbSpline
210
0.0
220
0.0
230
1.0
 70
     8
 71
     3
 72
     9
 73
     5
 74
     0
 42
0.000000001
 43
0.00000001
 40
0.0
 40
0.0
 40
0.0
 40
0.0
 40
0.5
 40
1.0
 40
1.0
 40
1.0
 40
1.0
 10
117.0274095603983
 20
84.18499653179192
 30
0.0
 10
117.0274095603983
 20
84.05409683789236
 30
0.0
 10
116.9733880746988
 20
83.7932804019769
 30
0.0
 10
116.8432699754941
 20
83.68499653179192
 30
0.0
 10
116.7779657346133
 20
83.68499653179192
 30
0.0
  0
SPLINE
  5
113
330
1F
100
AcDbEntity
  8
0
  6
Continuous
 62
     7
370
    25
100
AcDbSpline
210
0.0
220
0.0
230
1.0
 70
     8
 71
     3
 72
     9
 73
     5
 74
     0
 42
0.000000001
 43
0.00000001
 40
0.0
 40
0.0
 40
0.0
 40
0.0
 40
0.5
 40
1.0
 40
1.0
 40
1.0
 40
1.0
 10
124.2612805081612
 20
83.68499653179192
 30
0.0
 10
124.1959762672804
 20
83.68499653179192
 30
0.0
 10
124.0658581680758
 20
83.7932804019769
 30
0.0
 10
124.0118366823763
 20
84.05409683789235
 30
0.0
 10
124.0118366823763
 20
84.18499653179192
 30
0.0
  0
SPLINE
  5
114
330
1F
100
AcDbEntity
  8
0
  6
Continuous
 62
     7
370
    25
100
AcDbSpline
210
0.0
220
0.0
230
1.0
 70
     8
 71
     3
 72
     9
 73
     5
 74
     0
 42
0.000000001
 43
0.00000001
 40
0.0
 40
0.0
 40
0.0
 40
0.0
 40
0.5
 40
1.0
 40
1.0
 40
1.0
 40
1.0
 10
128.0196231213873
 20
72.44333914501799
 30
0.0
 10
128.0196231213873
 20
72.50864338589875
 30
0.0
 10
128.1279069915722
 20
72.63876148510346
 30
0.0
 10
128.3887234274877
 20
72.69278297080292
 30
0.0
 10
128.5196231213873
 20
72.69278297080292
 30
0.0
  0
SPLINE
  5
115
330
1F
100
AcDbEntity
  8
0
  6
Continuous
 62
     7
370
    25
100
AcDbSpline
210
0.0
220
0.0
230
1.0
 70
     8
 71
     3
 72
     9
 73
     5
 74
     0
 42
0.000000001
 43
0.00000001
 40
0.0
 40
0.0
 40
0.0
 40
0.0
 40
0.5
 40
1.0
 40
1.0
 40
1.0
 40
1.0
 10
113.0196231213873
 20
79.92665391856586
 30
0.0
 10
113.0196231213873
 20
79.8613496776851
 30
0.0
 10
112.9113392512023
 20
79.7312315784804
 30
0.0
 10
112.6505228152869
 20
79.67721009278094
 30
0.0
 10
112.5196231213873
 20
79.67721009278094
 30
0.0
  0
LINE
  5
116
330
1F
100
AcDbEntity
  8
0
  6
Continuous
 62
     7
370
    25
100
AcDbLine
 10
113.0095016753
 20
70.6303540035
 30
0.0
 11
113.019623289
 21
70.6849029637
 31
0.0
  0
SPLINE
  5
117
330
1F
100
AcDbEntity
  8
0
  6
Continuous
 62
     7
370
    25
100
AcDbSpline
210
0.0
220
0.0
230
1.0
 70
     8
 71
     3
 72
    11
 73
     7
 74
     0
 42
0.000000001
 43
0.00000001
 40
0.0
 40
0.0
 40
0.0
 40
0.0
 40
0.2813371813345898
 40
0.4847351098322705
 40
0.7599089647777694
 40
1.0
 40
1.0
 40
1.0
 40
1.0
 10
112.5196231213873
 20
70.11832986512526
 30
0.0
 10
112.5445310388166
 20
70.142705172093
 30
0.0
 10
112.5874465967017
 20
70.1847030589139
 30
0.0
 10
112.6545732156858
 20
70.24309256650672
 30
0.0
 10
112.7185128549484
 20
70.29312424679728
 30
0.0
 10
112.7636442550064
 20
70.32129817219229
 30
0.0
 10
112.7846735251308
 20
70.33442599643074
 30
0.0
  0
LINE
  5
118
330
1F
100
AcDbEntity
  8
0
  6
Continuous
 62
     7
370
    25
100
AcDbLine
 10
113.3358906565
 20
70.220024453
 30
0.0
 11
113.5195297731
 21
70.1849964796
 31
0.0
  0
SPLINE
  5
119
330
1F
100
AcDbEntity
  8
0
  6
Continuous
 62
     7
370
    25
100
AcDbSpline
210
0.0
220
0.0
230
1.0
 70
     8
 71
     3
 72
    12
 73
     8
 74
     0
 42
0.000000001
 43
0.00000001
 40
0.0
 40
0.0
 40
0.0
 40
0.0
 40
0.156133543665343
 40
0.327879147000269
 40
0.5152978781378685
 40
0.7186269797895557
 40
1.0
 40
1.0
 40
1.0
 40
1.0
 10
128.2545716308874
 20
70.33444708523226
 30
0.0
 10
128.2682231093261
 20
70.3261163643564
 30
0.0
 10
128.296891100846
 20
70.30862191959747
 30
0.0
 10
128.3424636845048
 20
70.27593842399021
 30
0.0
 10
128.3924094513068
 20
70.23645922702951
 30
0.0
 10
128.4517959600945
 20
70.18467251380561
 30
0.0
 10
128.4947107698736
 20
70.1426969675187
 30
0.0
 10
128.5196231213873
 20
70.11832986512526
 30
0.0
  0
LINE
  5
11A
330
1F
100
AcDbEntity
  8
0
  6
Continuous
 62
     7
370
    25
100
AcDbLine
 10
128.0196229537
 20
70.6849672249
 30
0.0
 11
128.0379159918
 21
70.6312308437
 31
0.0
  0
SPLINE
  5
11B
330
1F
100
AcDbEntity
  8
0
  6
Continuous
 62
     7
370
    25
100
AcDbSpline
210
0.0
220
0.0
230
1.0
 70
     8
 71
     3
 72
     9
 73
     5
 74
     0
 42
0.000000001
 43
0.00000001
 40
0.0
 40
0.0
 40
0.0
 40
0.0
 40
0.5
 40
1.0
 40
1.0
 40
1.0
 40
1.0
 10
125.6529564547206
 20
84.18499653179192
 30
0.0
 10
125.6529564547206
 20
84.05409683789236
 30
0.0
 10
125.7323666681274
 20
83.79328318643758
 30
0.0
 10
125.9236300125276
 20
83.68499653179192
 30
0.0
 10
126.0196231213873
 20
83.68499653179192
 30
0.0
  0
SPLINE
  5
11C
330
1F
100
AcDbEntity
  8
0
  6
Continuous
 62
     7
370
    25
100
AcDbSpline
210
0.0
220
0.0
230
1.0
 70
     8
 71
     3
 72
     9
 73
     5
 74
     0
 42
0.000000001
 43
0.00000001
 40
0.0
 40
0.0
 40
0.0
 40
0.0
 40
0.5
 40
1.0
 40
1.0
 40
1.0
 40
1.0
 10
112.5196231213873
 20
81.31832986512528
 30
0.0
 10
112.6505228152869
 20
81.31832986512528
 30
0.0
 10
112.9113364667416
 20
81.39774007853208
 30
0.0
 10
113.0196231213873
 20
81.58900342293224
 30
0.0
 10
113.0196231213873
 20
81.68499653179192
 30
0.0
  0
SPLINE
  5
11D
330
1F
100
AcDbEntity
  8
0
  6
Continuous
 62
     7
370
    25
100
AcDbSpline
210
0.0
220
0.0
230
1.0
 70
     8
 71
     3
 72
     9
 73
     5
 74
     0
 42
0.000000001
 43
0.00000001
 40
0.0
 40
0.0
 40
0.0
 40
0.0
 40
0.5
 40
1.0
 40
1.0
 40
1.0
 40
1.0
 10
128.0196231213873
 20
81.68499653179192
 30
0.0
 10
128.0196231213873
 20
81.58900342293224
 30
0.0
 10
128.1279097760329
 20
81.39774007853208
 30
0.0
 10
128.3887234274877
 20
81.31832986512526
 30
0.0
 10
128.5196231213873
 20
81.31832986512526
 30
0.0
  0
SPLINE
  5
11E
330
1F
100
AcDbEntity
  8
0
  6
Continuous
 62
     7
370
    25
100
AcDbSpline
210
0.0
220
0.0
230
1.0
 70
     8
 71
     3
 72
     9
 73
     5
 74
     0
 42
0.000000001
 43
0.00000001
 40
0.0
 40
0.0
 40
0.0
 40
0.0
 40
0.5
 40
1.0
 40
1.0
 40
1.0
 40
1.0
 10
115.0196231213873
 20
83.68499653179192
 30
0.0
 10
115.115616230247
 20
83.68499653179192
 30
0.0
 10
115.3068795746471
 20
83.79328318643758
 30
0.0
 10
115.386289788054
 20
84.05409683789236
 30
0.0
 10
115.386289788054
 20
84.18499653179192
 30
0.0
  0
SPLINE
  5
11F
330
1F
100
AcDbEntity
  8
0
  6
Continuous
 62
     7
370
    25
100
AcDbSpline
210
0.0
220
0.0
230
1.0
 70
     8
 71
     3
 72
     8
 73
     4
 74
     0
 42
0.000000001
 43
0.00000001
 40
0.0
 40
0.0
 40
0.0
 40
0.0
 40
1.0
 40
1.0
 40
1.0
 40
1.0
 10
126.2350991878814
 20
83.96664090523639
 30
0.0
 10
126.1933672847264
 20
83.80974704532703
 30
0.0
 10
126.2313540760573
 20
83.65571986704596
 30
0.0
 10
126.3314852998663
 20
83.57581871851416
 30
0.0
  0
SPLINE
  5
120
330
1F
100
AcDbEntity
  8
0
  6
Continuous
 62
     7
370
    25
100
AcDbSpline
210
0.0
220
0.0
230
1.0
 70
     8
 71
     3
 72
     9
 73
     5
 74
     0
 42
0.000000001
 43
0.00000001
 40
0.0
 40
0.0
 40
0.0
 40
0.0
 40
0.5
 40
1.0
 40
1.0
 40
1.0
 40
1.0
 10
128.3012674948318
 20
81.900472598286
 30
0.0
 10
128.2228205648771
 20
81.87960664670852
 30
0.0
 10
128.0660253437891
 20
81.87527483205797
 30
0.0
 10
127.9503958823754
 20
81.94679309836644
 30
0.0
 10
127.9104453081095
 20
81.9968587102709
 30
0.0
  0
SPLINE
  5
121
330
1F
100
AcDbEntity
  8
0
  6
Continuous
 62
     7
370
    25
100
AcDbSpline
210
0.0
220
0.0
230
1.0
 70
     8
 71
     3
 72
     9
 73
     5
 74
     0
 42
0.000000001
 43
0.00000001
 40
0.0
 40
0.0
 40
0.0
 40
0.0
 40
0.5
 40
1.0
 40
1.0
 40
1.0
 40
1.0
 10
114.8041470548932
 20
83.96664090523639
 30
0.0
 10
114.8250130064707
 20
83.88819397528171
 30
0.0
 10
114.8293448211212
 20
83.73139875419372
 30
0.0
 10
114.7578265548128
 20
83.61576929278007
 30
0.0
 10
114.7077609429083
 20
83.57581871851416
 30
0.0
  0
SPLINE
  5
122
330
1F
100
AcDbEntity
  8
0
  6
Continuous
 62
     7
370
    25
100
AcDbSpline
210
0.0
220
0.0
230
1.0
 70
     8
 71
     3
 72
     9
 73
     5
 74
     0
 42
0.000000001
 43
0.00000001
 40
0.0
 40
0.0
 40
0.0
 40
0.0
 40
0.5
 40
1.0
 40
1.0
 40
1.0
 40
1.0
 10
113.1288009346651
 20
81.9968587102709
 30
0.0
 10
113.0888503603991
 20
81.94679309836644
 30
0.0
 10
112.9732208989855
 20
81.87527483205797
 30
0.0
 10
112.8164256778975
 20
81.87960664670852
 30
0.0
 10
112.7379787479428
 20
81.900472598286
 30
0.0
  0
SPLINE
  5
123
330
1F
100
AcDbEntity
  8
0
  6
Continuous
 62
     7
370
    25
100
AcDbSpline
210
0.0
220
0.0
230
1.0
 70
     8
 71
     3
 72
    10
 73
     6
 74
     0
 42
0.000000001
 43
0.00000001
 40
0.0
 40
0.0
 40
0.0
 40
0.0
 40
0.499999999999999
 40
0.499999999999999
 40
1.0
 40
1.0
 40
1.0
 40
1.0
 10
128.2545716308874
 20
70.33444708523226
 30
0.0
 10
128.2209921082139
 20
70.28850361181419
 30
0.0
 10
128.1791852804619
 20
70.24978637741583
 30
0.0
 10
128.0872664969076
 20
70.19795450091671
 30
0.0
 10
128.0374323853653
 20
70.18499653179192
 30
0.0
 10
127.9895356337055
 20
70.18499653179192
 30
0.0
  0
SPLINE
  5
124
330
1F
100
AcDbEntity
  8
0
  6
Continuous
 62
     7
370
    25
100
AcDbSpline
210
0.0
220
0.0
230
1.0
 70
    24
 71
     3
 72
    11
 73
     7
 74
     0
 42
0.000000001
 43
0.00000001
 40
0.0
 40
0.0
 40
0.0
 40
0.0
 40
0.2767778395911417
 40
0.5553076326901417
 40
0.8530198398008104
 40
1.0
 40
1.0
 40
1.0
 40
1.0
 10
127.9895356466537
 20
70.18499647963786
 30
0.0
 10
127.9200152235267
 20
70.18499647963786
 30
0.0
 10
127.7805343256078
 20
70.18499647963786
 30
0.0
 10
127.6447983213496
 20
70.18499647963787
 30
0.0
 10
127.5579979650094
 20
70.18499647963786
 30
0.0
 10
127.5456127652835
 20
70.18499647963787
 30
0.0
 10
127.5415191968446
 20
70.18499647963786
 30
0.0
  0
SPLINE
  5
125
330
1F
100
AcDbEntity
  8
0
  6
Continuous
 62
     7
370
    25
100
AcDbSpline
210
0.0
220
0.0
230
1.0
 70
     8
 71
     3
 72
    10
 73
     6
 74
     0
 42
0.000000001
 43
0.00000001
 40
0.0
 40
0.0
 40
0.0
 40
0.0
 40
0.5
 40
0.5
 40
1.0
 40
1.0
 40
1.0
 40
1.0
 10
112.7846735251308
 20
70.33442599643074
 30
0.0
 10
112.8182487307357
 20
70.2884889558449
 30
0.0
 10
112.8600500474376
 20
70.24977720102807
 30
0.0
 10
112.9519565785397
 20
70.19795266563916
 30
0.0
 10
113.0017839929177
 20
70.18499653179192
 30
0.0
 10
113.0496743328822
 20
70.18499653179192
 30
0.0
  0
SPLINE
  5
126
330
1F
100
AcDbEntity
  8
0
  6
Continuous
 62
     7
370
    25
100
AcDbSpline
210
0.0
220
0.0
230
1.0
 70
    24
 71
     3
 72
    11
 73
     7
 74
     0
 42
0.000000001
 43
0.00000001
 40
0.0
 40
0.0
 40
0.0
 40
0.0
 40
0.2043000103634868
 40
0.4140672716802192
 40
0.7075943768723066
 40
1.0
 40
1.0
 40
1.0
 40
1.0
 10
113.4973852505451
 20
70.18499647963786
 30
0.0
 10
113.4850014652089
 20
70.18499647963786
 30
0.0
 10
113.459902493368
 20
70.18499647963786
 30
0.0
 10
113.3789980440536
 20
70.18499647963786
 30
0.0
 10
113.2577194853332
 20
70.18499647963786
 30
0.0
 10
113.1189341325443
 20
70.18499647963786
 30
0.0
 10
113.0496742745405
 20
70.18499647963786
 30
0.0
  0
SPLINE
  5
127
330
1F
100
AcDbEntity
  8
0
  6
Continuous
 62
     7
370
    25
100
AcDbSpline
210
0.0
220
0.0
230
1.0
 70
    24
 71
     3
 72
     8
 73
     4
 74
     0
 42
0.000000001
 43
0.00000001
 40
0.0
 40
0.0
 40
0.0
 40
0.0
 40
1.0
 40
1.0
 40
1.0
 40
1.0
 10
127.5196231213873
 20
82.25166319845859
 30
0.0
 10
127.5196231213873
 20
82.20823379598677
 30
0.0
 10
127.5196231213873
 20
82.18499653179192
 30
0.0
 10
127.5196231213873
 20
82.18499653179192
 30
0.0
  0
SPLINE
  5
128
330
1F
100
AcDbEntity
  8
0
  6
Continuous
 62
     7
370
    25
100
AcDbSpline
210
0.0
220
0.0
230
1.0
 70
    24
 71
     3
 72
     8
 73
     4
 74
     0
 42
0.000000001
 43
0.00000001
 40
0.0
 40
0.0
 40
0.0
 40
0.0
 40
1.0
 40
1.0
 40
1.0
 40
1.0
 10
114.4529564547206
 20
83.18499653179192
 30
0.0
 10
114.4963858571924
 20
83.18499653179192
 30
0.0
 10
114.5196231213873
 20
83.18499653179192
 30
0.0
 10
114.5196231213873
 20
83.18499653179192
 30
0.0
  0
SPLINE
  5
129
330
1F
100
AcDbEntity
  8
0
  6
Continuous
 62
     7
370
    25
100
AcDbSpline
210
0.0
220
0.0
230
1.0
 70
    24
 71
     3
 72
     8
 73
     4
 74
     0
 42
0.000000001
 43
0.00000001
 40
0.0
 40
0.0
 40
0.0
 40
0.0
 40
1.0
 40
1.0
 40
1.0
 40
1.0
 10
113.5196231213873
 20
82.18499653179192
 30
0.0
 10
113.5196231213873
 20
82.18499653179192
 30
0.0
 10
113.5196231213873
 20
82.20823379598677
 30
0.0
 10
113.5196231213873
 20
82.2516631984586
 30
0.0
  0
SPLINE
  5
12A
330
1F
100
AcDbEntity
  8
0
  6
Continuous
 62
     7
370
    25
100
AcDbSpline
210
0.0
220
0.0
230
1.0
 70
    24
 71
     3
 72
     8
 73
     4
 74
     0
 42
0.000000001
 43
0.00000001
 40
0.0
 40
0.0
 40
0.0
 40
0.0
 40
1.0
 40
1.0
 40
1.0
 40
1.0
 10
126.5862897880539
 20
83.18499653179192
 30
0.0
 10
126.5428603855821
 20
83.18499653179192
 30
0.0
 10
126.5196231213873
 20
83.18499653179192
 30
0.0
 10
126.5196231213873
 20
83.18499653179192
 30
0.0
  0
SPLINE
  5
12B
330
1F
100
AcDbEntity
  8
0
  6
Continuous
 62
     7
370
    25
100
AcDbSpline
210
0.0
220
0.0
230
1.0
 70
     8
 71
     3
 72
    11
 73
     7
 74
     0
 42
0.000000001
 43
0.00000001
 40
0.0
 40
0.0
 40
0.0
 40
0.0
 40
0.2796925902103931
 40
0.4824920995717302
 40
0.7583389673489331
 40
0.9999999999999999
 40
0.9999999999999999
 40
0.9999999999999999
 40
0.9999999999999999
 10
128.5196231213873
 20
70.11832986512526
 30
0.0
 10
128.4696254597424
 20
70.12911934406957
 30
0.0
 10
128.3833754925102
 20
70.14773205864027
 30
0.0
 10
128.2483910458473
 20
70.16816320928352
 30
0.0
 10
128.1210995031327
 20
70.182108255124
 30
0.0
 10
128.0314154567067
 20
70.18407712651633
 30
0.0
 10
127.9895356337055
 20
70.18499653179192
 30
0.0
  0
SPLINE
  5
12C
330
1F
100
AcDbEntity
  8
0
  6
Continuous
 62
     7
370
    25
100
AcDbSpline
210
0.0
220
0.0
230
1.0
 70
     8
 71
     3
 72
    12
 73
     8
 74
     0
 42
0.000000001
 43
0.00000001
 40
0.0
 40
0.0
 40
0.0
 40
0.0
 40
0.1573492972449686
 40
0.3298380470016292
 40
0.5175259235705421
 40
0.7203120516631307
 40
1.0
 40
1.0
 40
1.0
 40
1.0
 10
113.0496743328821
 20
70.18499653179192
 30
0.0
 10
113.0224672753544
 20
70.18460136834403
 30
0.0
 10
112.9654354177182
 20
70.18377302057138
 30
0.0
 10
112.874658360961
 20
70.17717258146777
 30
0.0
 10
112.7751891402356
 20
70.16587796978291
 30
0.0
 10
112.6558544454987
 20
70.14769782431847
 30
0.0
 10
112.5696154567462
 20
70.12910692300362
 30
0.0
 10
112.5196231213873
 20
70.11832986512526
 30
0.0
  0
SPLINE
  5
12D
330
1F
100
AcDbEntity
  8
0
  6
Continuous
 62
     7
370
    25
100
AcDbSpline
210
0.0
220
0.0
230
1.0
 70
     8
 71
     3
 72
     9
 73
     5
 74
     0
 42
0.000000001
 43
0.00000001
 40
0.0
 40
0.0
 40
0.0
 40
0.0
 40
0.5
 40
1.0
 40
1.0
 40
1.0
 40
1.0
 10
126.7229732901636
 20
82.83144314119512
 30
0.0
 10
126.7449574379128
 20
82.72903037321511
 30
0.0
 10
126.8592278293848
 20
82.52460123978948
 30
0.0
 10
127.0636569628105
 20
82.41033084831747
 30
0.0
 10
127.1660697307905
 20
82.38834670056825
 30
0.0
  0
SPLINE
  5
12E
330
1F
100
AcDbEntity
  8
0
  6
Continuous
 62
     7
370
    25
100
AcDbSpline
210
0.0
220
0.0
230
1.0
 70
     8
 71
     3
 72
     9
 73
     5
 74
     0
 42
0.000000001
 43
0.00000001
 40
0.0
 40
0.0
 40
0.0
 40
0.0
 40
0.5
 40
1.0
 40
1.0
 40
1.0
 40
1.0
 10
113.8731765119806
 20
82.38834670057152
 30
0.0
 10
113.9755892799607
 20
82.41033084832068
 30
0.0
 10
114.1800184133865
 20
82.52460123979267
 30
0.0
 10
114.2942888048585
 20
82.7290303732185
 30
0.0
 10
114.3162729526077
 20
82.83144314119865
 30
0.0
  0
LINE
  5
12F
330
1F
100
AcDbEntity
  8
0
  6
Continuous
 62
     8
370
    25
100
AcDbLine
 10
134.0196234716
 20
85.1849961444
 30
0.0
 11
134.0196234716
 21
67.1849969192
 31
0.0
  0
LINE
  5
130
330
1F
100
AcDbEntity
  8
0
  6
Continuous
 62
     8
370
    25
100
AcDbLine
 10
107.0196227712
 20
76.1849965318
 30
0.0
 11
107.0196227712
 21
85.1849961444
 31
0.0
  0
LINE
  5
131
330
1F
100
AcDbEntity
  8
0
  6
Continuous
 62
     8
370
    25
100
AcDbLine
 10
107.0196227712
 20
67.1849969192
 30
0.0
 11
107.0196227712
 21
76.1849965318
 31
0.0
  0
LINE
  5
132
330
1F
100
AcDbEntity
  8
0
  6
Continuous
 62
     8
370
    25
100
AcDbLine
 10
108.4893168492
 20
68.3849967434
 30
0.0
 11
108.4893168492
 21
83.9849963202
 31
0.0
  0
LINE
  5
133
330
1F
100
AcDbEntity
  8
0
  6
Continuous
 62
     8
370
    25
100
AcDbLine
 10
132.5499293936
 20
83.9849963202
 30
0.0
 11
132.5499293936
 21
68.3849967434
 31
0.0
  0
LINE
  5
134
330
1F
100
AcDbEntity
  8
0
  6
Continuous
 62
     8
370
    25
100
AcDbLine
 10
112.719623333
 20
88.215302804
 30
0.0
 11
128.3196229098
 21
88.215302804
 31
0.0
  0
LINE
  5
135
330
1F
100
AcDbEntity
  8
0
  6
Continuous
 62
     8
370
    25
100
AcDbLine
 10
109.4691129012
 20
83.1849967479
 30
0.0
 11
109.4691129012
 21
69.1849963157
 31
0.0
  0
LINE
  5
136
330
1F
100
AcDbEntity
  8
0
  6
Continuous
 62
     8
370
    25
100
AcDbLine
 10
127.5196233375
 20
87.235506752
 30
0.0
 11
113.5196229053
 21
87.235506752
 31
0.0
  0
LINE
  5
137
330
1F
100
AcDbEntity
  8
0
  6
Continuous
 62
     8
370
    25
100
AcDbLine
 10
131.5701333416
 20
69.1849963157
 30
0.0
 11
131.5701333416
 21
83.1849967479
 31
0.0
  0
SPLINE
  5
138
330
1F
100
AcDbEntity
  8
0
  6
Continuous
 62
     8
370
    25
100
AcDbSpline
210
0.0
220
0.0
230
1.0
 70
     8
 71
     3
 72
    19
 73
    15
 74
     0
 42
0.000000001
 43
0.00000001
 40
0.0
 40
0.0
 40
0.0
 40
0.0
 40
0.0606727911926113
 40
0.1214874002643155
 40
0.1825081921994686
 40
0.2437988823923964
 40
0.3054223490615667
 40
0.3674404582586578
 40
0.4299139036293041
 40
0.4929020625848005
 40
0.6146975824539129
 40
0.7395812568283596
 40
0.8679067285909485
 40
1.0
 40
1.0
 40
1.0
 40
1.0
 10
128.0196231213889
 20
83.18499653179192
 30
0.0
 10
128.0189518197408
 20
83.18437276363797
 30
0.0
 10
128.0176076473298
 20
83.18312376932101
 30
0.0
 10
128.0067479374539
 20
83.17301690851274
 30
0.0
 10
127.9894185062151
 20
83.15686515399882
 30
0.0
 10
127.9649806624806
 20
83.13406586962958
 30
0.0
 10
127.9336070389406
 20
83.10477595519802
 30
0.0
 10
127.8952513066229
 20
83.06895516824417
 30
0.0
 10
127.8499276830067
 20
83.02662591774933
 30
0.0
 10
127.7815164844294
 20
82.96275276875124
 30
0.0
 10
127.6804709714775
 20
82.86849457392525
 30
0.0
 10
127.5349527234545
 20
82.73271727510502
 30
0.0
 10
127.3649005702102
 20
82.57395783993753
 30
0.0
 10
127.2329828826463
 20
82.45081098624445
 30
0.0
 10
127.166069730794
 20
82.38834670057153
 30
0.0
  0
SPLINE
  5
139
330
1F
100
AcDbEntity
  8
0
  6
Continuous
 62
     8
370
    25
100
AcDbSpline
210
0.0
220
0.0
230
1.0
 70
     8
 71
     3
 72
    18
 73
    14
 74
     0
 42
0.000000001
 43
0.00000001
 40
0.0
 40
0.0
 40
0.0
 40
0.0
 40
0.0759716985786636
 40
0.1506710093718998
 40
0.2241554833695644
 40
0.296485571458475
 40
0.3677246633008381
 40
0.4379391034842293
 40
0.5071981812646982
 40
0.6326267587181382
 40
0.756240453292097
 40
0.8785294569467931
 40
1.0
 40
1.0
 40
1.0
 40
1.0
 10
113.8731765119805
 20
82.38834670057153
 30
0.0
 10
113.8342575983279
 20
82.4246752015528
 30
0.0
 10
113.7570715920465
 20
82.49672376719265
 30
0.0
 10
113.6503785692598
 20
82.5963390822339
 30
0.0
 10
113.5516752296939
 20
82.68848339797
 30
0.0
 10
113.4615112891756
 20
82.77263669975181
 30
0.0
 10
113.3797457142585
 20
82.84892978051448
 30
0.0
 10
113.3064102837632
 20
82.91734376137502
 30
0.0
 10
113.2237090671453
 20
82.99450382712568
 30
0.0
 10
113.1408658354425
 20
83.0718762094631
 30
0.0
 10
113.0713404714794
 20
83.13680702642074
 30
0.0
 10
113.0277339805866
 20
83.17746363468879
 30
0.0
 10
113.0223206824564
 20
83.18249119302732
 30
0.0
 10
113.0196231213866
 20
83.18499653179192
 30
0.0
  0
SPLINE
  5
13A
330
1F
100
AcDbEntity
  8
0
  6
Continuous
 62
     8
370
    25
100
AcDbSpline
210
0.0
220
0.0
230
1.0
 70
    24
 71
     3
 72
     9
 73
     5
 74
     0
 42
0.000000001
 43
0.00000001
 40
-0.481733964059299
 40
-0.481733964059299
 40
-0.481733964059299
 40
-0.481733964059299
 40
-0.4129148263141913
 40
0.0000000001423262
 40
0.0000000001423262
 40
0.0000000001423262
 40
0.0000000001423262
 10
127.5195711817408
 20
83.68494088217075
 30
0.0
 10
127.519597766647
 20
83.68496936599878
 30
0.0
 10
127.481024599466
 20
83.64364097259056
 30
0.0
 10
127.1693638765766
 20
83.30971876949475
 30
0.0
 10
126.7229732901636
 20
82.83144314119512
 30
0.0
  0
SPLINE
  5
13B
330
1F
100
AcDbEntity
  8
0
  6
Continuous
 62
     8
370
    25
100
AcDbSpline
210
0.0
220
0.0
230
1.0
 70
    24
 71
     3
 72
     9
 73
     5
 74
     0
 42
0.000000001
 43
0.00000001
 40
-0.0000000000100284
 40
-0.0000000000100284
 40
-0.0000000000100284
 40
-0.0000000000100284
 40
0.412914826326082
 40
0.481733964058292
 40
0.481733964058292
 40
0.481733964058292
 40
0.481733964058292
 10
114.3162729526077
 20
82.83144314119865
 30
0.0
 10
113.8698823663257
 20
83.30971876935786
 30
0.0
 10
113.5582216434607
 20
83.64364097242753
 30
0.0
 10
113.5196484761489
 20
83.68496936597595
 30
0.0
 10
113.5196750610338
 20
83.6849408821707
 30
0.0
  0
SPLINE
  5
13C
330
1F
100
AcDbEntity
  8
0
  6
Continuous
 62
     8
370
    25
100
AcDbSpline
210
0.0
220
0.0
230
1.0
 70
     8
 71
     3
 72
    12
 73
     8
 74
     0
 42
0.000000001
 43
0.00000001
 40
0.0
 40
0.0
 40
0.0
 40
0.0
 40
0.1646973236447365
 40
0.341712621123571
 40
0.5400570339626277
 40
0.8380246350087188
 40
1.0
 40
1.0
 40
1.0
 40
1.0
 10
112.7846734208529
 20
70.33442578975105
 30
0.0
 10
112.8074185953933
 20
70.34915357959508
 30
0.0
 10
112.8546100921224
 20
70.37971067402496
 30
0.0
 10
112.9088585865308
 20
70.43138137838503
 30
0.0
 10
112.9618771736501
 20
70.49782291157564
 30
0.0
 10
113.0006853420865
 20
70.56499669086453
 30
0.0
 10
113.0072055075782
 20
70.61333203446893
 30
0.0
 10
113.0095016752844
 20
70.63035400349641
 30
0.0
  0
SPLINE
  5
13D
330
1F
100
AcDbEntity
  8
0
  6
Continuous
 62
     8
370
    25
100
AcDbSpline
210
0.0
220
0.0
230
1.0
 70
     8
 71
     3
 72
     9
 73
     5
 74
     0
 42
0.000000001
 43
0.00000001
 40
0.0
 40
0.0
 40
0.0
 40
0.0
 40
0.4584340749503982
 40
1.0
 40
1.0
 40
1.0
 40
1.0
 10
128.0379159917598
 20
70.63123084370041
 30
0.0
 10
128.0468879992309
 20
70.58290592984181
 30
0.0
 10
128.066458986558
 20
70.47749292391764
 30
0.0
 10
128.1884858394632
 20
70.38470045139152
 30
0.0
 10
128.2545714249378
 20
70.33444721017027
 30
0.0
  0
SPLINE
  5
13E
330
1F
100
AcDbEntity
  8
0
  6
Continuous
 62
     8
370
    25
100
AcDbSpline
210
0.0
220
0.0
230
1.0
 70
     8
 71
     3
 72
    10
 73
     6
 74
     0
 42
0.000000001
 43
0.00000001
 40
0.0
 40
0.0
 40
0.0
 40
0.0
 40
0.248573228850268
 40
0.6467864389238261
 40
1.0
 40
1.0
 40
1.0
 40
1.0
 10
126.7455559765463
 20
82.57810272041702
 30
0.0
 10
126.7378241012297
 20
82.59684792317879
 30
0.0
 10
126.7177057959505
 20
82.64562285762065
 30
0.0
 10
126.7078445766117
 20
82.73241556134525
 30
0.0
 10
126.7181358021409
 20
82.7997785107125
 30
0.0
 10
126.7229732667571
 20
82.83144294980907
 30
0.0
  0
SPLINE
  5
13F
330
1F
100
AcDbEntity
  8
0
  6
Continuous
 62
     8
370
    25
100
AcDbSpline
210
0.0
220
0.0
230
1.0
 70
     8
 71
     3
 72
    10
 73
     6
 74
     0
 42
0.000000001
 43
0.00000001
 40
0.0
 40
0.0
 40
0.0
 40
0.0
 40
0.248573228850268
 40
0.6467864389238261
 40
1.0
 40
1.0
 40
1.0
 40
1.0
 10
114.1265169327622
 20
82.41092938695097
 30
0.0
 10
114.1077717300004
 20
82.40319751163433
 30
0.0
 10
114.0589967955585
 20
82.3830792063551
 30
0.0
 10
113.9722040918339
 20
82.3732179870163
 30
0.0
 10
113.9048411424667
 20
82.38350921254559
 30
0.0
 10
113.8731767033701
 20
82.38834667716169
 30
0.0
  0
SPLINE
  5
140
330
1F
100
AcDbEntity
  8
0
  6
Continuous
 62
     8
370
    25
100
AcDbSpline
210
0.0
220
0.0
230
1.0
 70
     8
 71
     3
 72
    10
 73
     6
 74
     0
 42
0.000000001
 43
0.00000001
 40
0.0
 40
0.0
 40
0.0
 40
0.0
 40
0.3531919359855523
 40
0.7514407532050961
 40
1.0
 40
1.0
 40
1.0
 40
1.0
 10
127.1660695394044
 20
82.38834667716169
 30
0.0
 10
127.1344078577709
 20
82.38350917778548
 30
0.0
 10
127.0670453971076
 20
82.37321705669065
 30
0.0
 10
126.9802532690349
 20
82.38307848528841
 30
0.0
 10
126.9314770504541
 20
82.40319613041638
 30
0.0
 10
126.9127330353027
 20
82.41092705864453
 30
0.0
  0
SPLINE
  5
141
330
1F
100
AcDbEntity
  8
0
  6
Continuous
 62
     8
370
    25
100
AcDbSpline
210
0.0
220
0.0
230
1.0
 70
     8
 71
     3
 72
    10
 73
     6
 74
     0
 42
0.000000001
 43
0.00000001
 40
0.0
 40
0.0
 40
0.0
 40
0.0
 40
0.3531919359855523
 40
0.7514407532050961
 40
1.0
 40
1.0
 40
1.0
 40
1.0
 10
114.3162729760175
 20
82.83144294980907
 30
0.0
 10
114.3211104753937
 20
82.79978126817556
 30
0.0
 10
114.3314025964885
 20
82.73241880751225
 30
0.0
 10
114.3215411678908
 20
82.64562667943952
 30
0.0
 10
114.3014235227628
 20
82.59685046085875
 30
0.0
 10
114.2936925945347
 20
82.57810644570732
 30
0.0
  0
LINE
  5
142
330
1F
100
AcDbEntity
  8
0
  6
Continuous
 62
     7
370
    18
100
AcDbLine
 10
128.021804485
 20
100.3151928954
 30
0.0
 11
128.3880606214
 21
88.5949965318
 31
0.0
  0
LINE
  5
143
330
1F
100
AcDbEntity
  8
0
  6
Continuous
 62
     7
370
    18
100
AcDbLine
 10
113.0174417577
 20
100.3151928954
 30
0.0
 11
112.6511856214
 21
88.5949965318
 31
0.0
  0
LINE
  5
144
330
1F
100
AcDbEntity
  8
0
  6
Continuous
 62
     7
370
    18
100
AcDbLine
 10
111.9983106214
 20
88.5949965318
 30
0.0
 11
129.0409356214
 21
88.5949965318
 31
0.0
  0
LINE
  5
145
330
1F
100
AcDbEntity
  8
0
  6
CENTERX2
 62
     7
370
    18
100
AcDbLine
 10
120.5196231214
 20
99.1196706866
 30
0.0
 11
120.5196231214
 21
67.550380852
 31
0.0
  0
LINE
  5
146
330
1F
100
AcDbEntity
  8
0
  6
CENTERX2
 62
     7
370
    18
100
AcDbLine
 10
120.5196231214
 20
99.1196706866
 30
0.0
 11
120.5196231214
 21
103.1849965318
 31
0.0
  0
LINE
  5
147
330
1F
100
AcDbEntity
  8
0
  6
CENTERX2
 62
     7
370
    18
100
AcDbLine
 10
94.0196231214
 20
76.1849965318
 30
0.0
 11
147.0196231214
 21
76.1849965318
 31
0.0
  0
LINE
  5
148
330
1F
100
AcDbEntity
  8
0
  6
Continuous
 62
     7
370
    25
100
AcDbLine
 10
193.1271022509
 20
88.586639741
 30
0.0
 11
192.7979449134
 21
99.1196698858
 31
0.0
  0
LINE
  5
149
330
1F
100
AcDbEntity
  8
0
  6
Continuous
 62
     7
370
    25
100
AcDbLine
 10
176.4131123524
 20
99.1196698858
 30
0.0
 11
176.0839550148
 21
88.586639741
 31
0.0
  0
ARC
  5
14A
330
1F
100
AcDbEntity
  8
0
  6
Continuous
 62
     7
370
    25
100
AcDbCircle
 10
177.1055286329
 20
89.6849965318
 30
0.0
 40
1.500000000000012
100
AcDbArc
 50
227.0743223655
 51
258.4630409672
  0
ARC
  5
14B
330
1F
100
AcDbEntity
  8
0
  6
Continuous
 62
     7
370
    25
100
AcDbCircle
 10
192.1055286329
 20
89.6849965318
 30
0.0
 40
1.500000000000012
100
AcDbArc
 50
281.5369590328
 51
312.9256776345
  0
LINE
  5
14C
330
1F
100
AcDbEntity
  8
0
  6
Continuous
 62
     7
370
    25
100
AcDbLine
 10
192.7979449134
 20
99.1196698858
 30
0.0
 11
191.6055288489
 21
101.1849969043
 31
0.0
  0
LINE
  5
14D
330
1F
100
AcDbEntity
  8
0
  6
Continuous
 62
     7
370
    25
100
AcDbLine
 10
177.6055284168
 20
101.1849969043
 30
0.0
 11
176.4131123524
 21
99.1196698858
 31
0.0
  0
ARC
  5
14E
330
1F
100
AcDbEntity
  8
0
  6
Continuous
 62
     7
370
    25
100
AcDbCircle
 10
176.6055286329
 20
87.235506789
 30
0.0
 40
1.0
100
AcDbArc
 50
0.0
 51
78.4630409672
  0
ARC
  5
14F
330
1F
100
AcDbEntity
  8
0
  6
Continuous
 62
     7
370
    25
100
AcDbCircle
 10
192.6055286329
 20
87.235506789
 30
0.0
 40
1.0
100
AcDbArc
 50
101.5369590328
 51
180.0
  0
LINE
  5
150
330
1F
100
AcDbEntity
  8
0
  6
Continuous
 62
     7
370
    25
100
AcDbLine
 10
177.6055284168
 20
87.235506752
 30
0.0
 11
177.6055284168
 21
83.6849963642
 31
0.0
  0
LINE
  5
151
330
1F
100
AcDbEntity
  8
0
  6
Continuous
 62
     7
370
    25
100
AcDbLine
 10
191.6055288489
 20
83.6849963642
 30
0.0
 11
191.6055288489
 21
87.235506752
 31
0.0
  0
CIRCLE
  5
152
330
1F
100
AcDbEntity
  8
0
  6
Continuous
 62
     7
370
    25
100
AcDbCircle
 10
184.6055286329
 20
76.1849965318
 30
0.0
 40
6.75
  0
CIRCLE
  5
153
330
1F
100
AcDbEntity
  8
0
  6
Continuous
 62
     7
370
    25
100
AcDbCircle
 10
184.6055286329
 20
76.1849965318
 30
0.0
 40
8.5
  0
CIRCLE
  5
154
330
1F
100
AcDbEntity
  8
0
  6
Continuous
 62
     7
370
    25
100
AcDbCircle
 10
184.6055286329
 20
76.1849965318
 30
0.0
 40
6.103432381750451
  0
CIRCLE
  5
155
330
1F
100
AcDbEntity
  8
0
  6
Continuous
 62
     7
370
    25
100
AcDbCircle
 10
184.6055286329
 20
76.1849965318
 30
0.0
 40
9.0
  0
CIRCLE
  5
156
330
1F
100
AcDbEntity
  8
0
  6
Continuous
 62
     7
370
    25
100
AcDbCircle
 10
184.6055286329
 20
76.1849965318
 30
0.0
 40
5.81061697881421
  0
CIRCLE
  5
157
330
1F
100
AcDbEntity
  8
0
  6
Continuous
 62
     7
370
    25
100
AcDbCircle
 10
184.6055286329
 20
76.1849965318
 30
0.0
 40
5.722499999999968
  0
CIRCLE
  5
158
330
1F
100
AcDbEntity
  8
0
  6
Continuous
 62
     7
370
    25
100
AcDbCircle
 10
184.6055286329
 20
76.1849965318
 30
0.0
 40
4.0
  0
LINE
  5
159
330
1F
100
AcDbEntity
  8
0
  6
Continuous
 62
     7
370
    25
100
AcDbLine
 10
192.7979449134
 20
99.1196698858
 30
0.0
 11
176.4131123524
 21
99.1196698858
 31
0.0
  0
LINE
  5
15A
330
1F
100
AcDbEntity
  8
0
  6
Continuous
 62
     7
370
    25
100
AcDbLine
 10
184.6055286329
 20
88.586639741
 30
0.0
 11
176.0839550148
 21
88.586639741
 31
0.0
  0
LINE
  5
15B
330
1F
100
AcDbEntity
  8
0
  6
Continuous
 62
     7
370
    25
100
AcDbLine
 10
193.1271022509
 20
88.586639741
 30
0.0
 11
184.6055286329
 21
88.586639741
 31
0.0
  0
LINE
  5
15C
330
1F
100
AcDbEntity
  8
0
  6
Continuous
 62
     7
370
    25
100
AcDbLine
 10
184.6055286329
 20
101.1849969043
 30
0.0
 11
191.6055288489
 21
101.1849969043
 31
0.0
  0
LINE
  5
15D
330
1F
100
AcDbEntity
  8
0
  6
Continuous
 62
     7
370
    25
100
AcDbLine
 10
177.6055284168
 20
101.1849969043
 30
0.0
 11
184.6055286329
 21
101.1849969043
 31
0.0
  0
LINE
  5
15E
330
1F
100
AcDbEntity
  8
0
  6
Continuous
 62
     7
370
    25
100
AcDbLine
 10
177.7405119825
 20
82.0500134839
 30
0.0
 11
177.7612399634
 21
82.0292855031
 31
0.0
  0
LINE
  5
15F
330
1F
100
AcDbEntity
  8
0
  6
Continuous
 62
     7
370
    25
100
AcDbLine
 10
177.8448145229
 20
82.1150137461
 30
0.0
 11
177.7405119825
 21
82.0500134839
 31
0.0
  0
LINE
  5
160
330
1F
100
AcDbEntity
  8
0
  6
Continuous
 62
     7
370
    25
100
AcDbLine
 10
191.4705452833
 20
82.0500134839
 30
0.0
 11
191.3479804385
 21
82.1263949736
 31
0.0
  0
LINE
  5
161
330
1F
100
AcDbEntity
  8
0
  6
Continuous
 62
     7
370
    25
100
AcDbLine
 10
191.4498173024
 20
82.0292855031
 30
0.0
 11
191.4705452833
 21
82.0500134839
 31
0.0
  0
SPLINE
  5
162
330
1F
100
AcDbEntity
  8
0
  6
Continuous
 62
     7
370
    25
100
AcDbSpline
210
0.0
220
0.0
230
1.0
 70
     8
 71
     3
 72
     9
 73
     5
 74
     0
 42
0.000000001
 43
0.00000001
 40
0.0
 40
0.0
 40
0.0
 40
0.0
 40
0.1468917263368845
 40
1.0
 40
1.0
 40
1.0
 40
1.0
 10
191.5781023304478
 20
81.84154158223414
 30
0.0
 10
191.5765054122249
 20
81.85236300184035
 30
0.0
 10
191.565634015566
 20
81.9260323627775
 30
0.0
 10
191.5143209144223
 20
81.9929367757217
 30
0.0
 10
191.4705452832893
 20
82.05001348394896
 30
0.0
  0
SPLINE
  5
163
330
1F
100
AcDbEntity
  8
0
  6
Continuous
 62
     7
370
    25
100
AcDbSpline
210
0.0
220
0.0
230
1.0
 70
     8
 71
     3
 72
    13
 73
     9
 74
     0
 42
0.000000001
 43
0.00000001
 40
0.0
 40
0.0
 40
0.0
 40
0.0
 40
0.1162222239500744
 40
0.2381780213579675
 40
0.3660917905452749
 40
0.5001580142688472
 40
0.7504239388829979
 40
1.0
 40
1.0
 40
1.0
 40
1.0
 10
177.7405118480818
 20
83.5267021753143
 30
0.0
 10
177.7523493064125
 20
83.51425416469621
 30
0.0
 10
177.7766081986217
 20
83.48874404762832
 30
0.0
 10
177.8168943569791
 20
83.44723687461162
 30
0.0
 10
177.8610515479253
 20
83.40264412390663
 30
0.0
 10
177.9224658232194
 20
83.34213804060266
 30
0.0
 10
178.0024966252307
 20
83.2667342569408
 30
0.0
 10
178.0712162450934
 20
83.21221737195829
 30
0.0
 10
178.1055286328808
 20
83.18499655056532
 30
0.0
  0
SPLINE
  5
164
330
1F
100
AcDbEntity
  8
0
  6
Continuous
 62
     7
370
    25
100
AcDbSpline
210
0.0
220
0.0
230
1.0
 70
     8
 71
     3
 72
    13
 73
     9
 74
     0
 42
0.000000001
 43
0.00000001
 40
0.0
 40
0.0
 40
0.0
 40
0.0
 40
0.1206933106363776
 40
0.2506349558809258
 40
0.4049363551860728
 40
0.501375099440844
 40
0.7702864432344702
 40
1.0
 40
1.0
 40
1.0
 40
1.0
 10
177.6055286328808
 20
83.18499653179192
 30
0.0
 10
177.6059163476267
 20
83.19985231008374
 30
0.0
 10
177.6067214864344
 20
83.23070221648794
 30
0.0
 10
177.6136714982678
 20
83.27927736795638
 30
0.0
 10
177.6244618070773
 20
83.32396705023811
 30
0.0
 10
177.6450815924763
 20
83.38373075962552
 30
0.0
 10
177.6775892764904
 20
83.45152277280042
 30
0.0
 10
177.7206664484936
 20
83.50299104517515
 30
0.0
 10
177.7405118480818
 20
83.5267021753143
 30
0.0
  0
SPLINE
  5
165
330
1F
100
AcDbEntity
  8
0
  6
Continuous
 62
     7
370
    25
100
AcDbSpline
210
0.0
220
0.0
230
1.0
 70
    24
 71
     3
 72
    13
 73
     9
 74
     0
 42
0.000000001
 43
0.00000001
 40
0.0
 40
0.0
 40
0.0
 40
0.0
 40
0.1144647671590815
 40
0.291615705726434
 40
0.4684340794035635
 40
0.6458133828963049
 40
0.8225570207736255
 40
1.0
 40
1.0
 40
1.0
 40
1.0
 10
177.605528416814
 20
81.8480920395627
 30
0.0
 10
177.605528416814
 20
81.87609191764172
 30
0.0
 10
177.605528416814
 20
81.94742569491588
 30
0.0
 10
177.605528416814
 20
82.11883041773304
 30
0.0
 10
177.605528416814
 20
82.3455246194769
 30
0.0
 10
177.605528416814
 20
82.60715119806055
 30
0.0
 10
177.605528416814
 20
82.89015360411794
 30
0.0
 10
177.605528416814
 20
83.08658641444053
 30
0.0
 10
177.605528416814
 20
83.18499674785876
 30
0.0
  0
SPLINE
  5
166
330
1F
100
AcDbEntity
  8
0
  6
Continuous
 62
     7
370
    25
100
AcDbSpline
210
0.0
220
0.0
230
1.0
 70
     8
 71
     3
 72
    12
 73
     8
 74
     0
 42
0.000000001
 43
0.00000001
 40
0.0
 40
0.0
 40
0.0
 40
0.0
 40
0.1664615747826677
 40
0.3330490629245378
 40
0.50019385964186
 40
0.761981166969512
 40
1.0
 40
1.0
 40
1.0
 40
1.0
 10
191.1055286328808
 20
83.18499653179192
 30
0.0
 10
191.1285223077808
 20
83.20297034860687
 30
0.0
 10
191.1745270502485
 20
83.23893157782872
 30
0.0
 10
191.2400700130453
 20
83.29664851439681
 30
0.0
 10
191.314436208479
 20
83.36693323738803
 30
0.0
 10
191.3937077643448
 20
83.4462760012912
 30
0.0
 10
191.4457579555591
 20
83.50075707345869
 30
0.0
 10
191.4705454176799
 20
83.52670217531413
 30
0.0
  0
SPLINE
  5
167
330
1F
100
AcDbEntity
  8
0
  6
Continuous
 62
     7
370
    25
100
AcDbSpline
210
0.0
220
0.0
230
1.0
 70
     8
 71
     3
 72
    14
 73
    10
 74
     0
 42
0.000000001
 43
0.00000001
 40
0.0
 40
0.0
 40
0.0
 40
0.0
 40
0.1488603140964728
 40
0.3150272284381161
 40
0.4987644934539461
 40
0.5951852670853452
 40
0.7494348315821825
 40
0.8793203117440467
 40
1.0
 40
1.0
 40
1.0
 40
1.0
 10
191.4705454176799
 20
83.52670217531413
 30
0.0
 10
191.4837887747462
 20
83.51149142265444
 30
0.0
 10
191.5118151704792
 20
83.47930150499963
 30
0.0
 10
191.5458847236018
 20
83.42467749437019
 30
0.0
 10
191.5694386129547
 20
83.37397183735688
 30
0.0
 10
191.5865676848838
 20
83.32395519582829
 30
0.0
 10
191.597392725386
 20
83.27928148492074
 30
0.0
 10
191.6043339603347
 20
83.23070421349627
 30
0.0
 10
191.6051402834994
 20
83.19985461986998
 30
0.0
 10
191.6055286328808
 20
83.18499653179192
 30
0.0
  0
SPLINE
  5
168
330
1F
100
AcDbEntity
  8
0
  6
Continuous
 62
     7
370
    25
100
AcDbSpline
210
0.0
220
0.0
230
1.0
 70
    24
 71
     3
 72
    13
 73
     9
 74
     0
 42
0.000000001
 43
0.00000001
 40
0.0
 40
0.0
 40
0.0
 40
0.0
 40
0.1695817806945505
 40
0.3388103097035301
 40
0.508174029247671
 40
0.6776374365387978
 40
0.8467827107175723
 40
1.0
 40
1.0
 40
1.0
 40
1.0
 10
191.6055288489476
 20
83.18499674785876
 30
0.0
 10
191.6055288489476
 20
83.08668734741725
 30
0.0
 10
191.6055288489476
 20
82.89027333245681
 30
0.0
 10
191.6055288489476
 20
82.6073646707863
 30
0.0
 10
191.6055288489476
 20
82.34582146835959
 30
0.0
 10
191.6055288489476
 20
82.11858558173309
 30
0.0
 10
191.6055288489476
 20
81.93274658689144
 30
0.0
 10
191.6055288489476
 20
81.85133583049081
 30
0.0
 10
191.6055288489476
 20
81.81264171142125
 30
0.0
  0
SPLINE
  5
169
330
1F
100
AcDbEntity
  8
0
  6
Continuous
 62
     7
370
    25
100
AcDbSpline
210
0.0
220
0.0
230
1.0
 70
     8
 71
     3
 72
    14
 73
    10
 74
     0
 42
0.000000001
 43
0.00000001
 40
0.0
 40
0.0
 40
0.0
 40
0.0
 40
0.0771019312235469
 40
0.1604220744820928
 40
0.2500134459871365
 40
0.3625277437571762
 40
0.4999872830486552
 40
0.6965319223496549
 40
1.0
 40
1.0
 40
1.0
 40
1.0
 10
191.1721106966389
 20
84.02945334924962
 30
0.0
 10
191.1933754219395
 20
84.01532407236012
 30
0.0
 10
191.2376198564418
 20
83.98592600316037
 30
0.0
 10
191.3002785976326
 20
83.9474081069331
 30
0.0
 10
191.3656521214432
 20
83.90834558036788
 30
0.0
 10
191.4339974286864
 20
83.868065073919
 30
0.0
 10
191.5076601461839
 20
83.81940637990263
 30
0.0
 10
191.5854230718993
 20
83.75797154069491
 30
0.0
 10
191.5979349281126
 20
83.71255859154132
 30
0.0
 10
191.6055286328808
 20
83.68499653179192
 30
0.0
  0
SPLINE
  5
16A
330
1F
100
AcDbEntity
  8
0
  6
Continuous
 62
     7
370
    25
100
AcDbSpline
210
0.0
220
0.0
230
1.0
 70
     8
 71
     3
 72
    13
 73
     9
 74
     0
 42
0.000000001
 43
0.00000001
 40
0.0
 40
0.0
 40
0.0
 40
0.0
 40
0.1484645556295967
 40
0.3038520792699613
 40
0.4664576632792974
 40
0.6365388262431585
 40
0.814320596678755
 40
0.9999999999999999
 40
0.9999999999999999
 40
0.9999999999999999
 40
0.9999999999999999
 10
190.6721952995475
 20
84.18499653179192
 30
0.0
 10
190.7012701989811
 20
84.18412494441638
 30
0.0
 10
190.7607757732914
 20
84.18234112715976
 30
0.0
 10
190.846612536539
 20
84.168633432671
 30
0.0
 10
190.9317800034166
 20
84.14701669576186
 30
0.0
 10
191.0151048873351
 20
84.11646261667417
 30
0.0
 10
191.0965801301836
 20
84.07774376344221
 30
0.0
 10
191.1465717525191
 20
84.04578165509277
 30
0.0
 10
191.1721106966389
 20
84.02945334924962
 30
0.0
  0
LINE
  5
16B
330
1F
100
AcDbEntity
  8
0
  6
Continuous
 62
     7
370
    25
100
AcDbLine
 10
189.3646135319
 20
84.1849969118
 30
0.0
 11
190.6721950832
 21
84.1849969118
 31
0.0
  0
LINE
  5
16C
330
1F
100
AcDbEntity
  8
0
  6
Continuous
 62
     7
370
    25
100
AcDbLine
 10
178.5388621825
 20
84.1849969118
 30
0.0
 11
179.8464437339
 21
84.1849969118
 31
0.0
  0
SPLINE
  5
16D
330
1F
100
AcDbEntity
  8
0
  6
Continuous
 62
     7
370
    25
100
AcDbSpline
210
0.0
220
0.0
230
1.0
 70
     8
 71
     3
 72
    13
 73
     9
 74
     0
 42
0.000000001
 43
0.00000001
 40
0.0
 40
0.0
 40
0.0
 40
0.0
 40
0.1856794033212454
 40
0.3634611737568486
 40
0.5335423367207065
 40
0.6961479207300426
 40
0.8515354443704023
 40
1.0
 40
1.0
 40
1.0
 40
1.0
 10
178.0389465691227
 20
84.02945334924962
 30
0.0
 10
178.0644855132425
 20
84.04578165509277
 30
0.0
 10
178.114477135578
 20
84.07774376344221
 30
0.0
 10
178.1959523784265
 20
84.11646261667417
 30
0.0
 10
178.279277262345
 20
84.14701669576186
 30
0.0
 10
178.3644447292226
 20
84.168633432671
 30
0.0
 10
178.4502814924702
 20
84.18234112715976
 30
0.0
 10
178.5097870667805
 20
84.18412494441638
 30
0.0
 10
178.5388619662141
 20
84.18499653179192
 30
0.0
  0
SPLINE
  5
16E
330
1F
100
AcDbEntity
  8
0
  6
Continuous
 62
     7
370
    25
100
AcDbSpline
210
0.0
220
0.0
230
1.0
 70
     8
 71
     3
 72
    17
 73
    13
 74
     0
 42
0.000000001
 43
0.00000001
 40
0.0
 40
0.0
 40
0.0
 40
0.0
 40
0.1130667887614413
 40
0.214247189583317
 40
0.3035410227131065
 40
0.3809482842653933
 40
0.4464692356459874
 40
0.5001045920517729
 40
0.6375226522804812
 40
0.750042112035746
 40
0.8820380142736961
 40
0.9999999999999999
 40
0.9999999999999999
 40
0.9999999999999999
 40
0.9999999999999999
 10
177.6055286328808
 20
83.68499653179192
 30
0.0
 10
177.6066061155723
 20
83.69522615790723
 30
0.0
 10
177.6086478082834
 20
83.71460999881842
 30
0.0
 10
177.6238132299962
 20
83.74250424338966
 30
0.0
 10
177.6440744755659
 20
83.76749705108067
 30
0.0
 10
177.6674252271053
 20
83.78962644858787
 30
0.0
 10
177.6912457530747
 20
83.80882627526749
 30
0.0
 10
177.7267631925683
 20
83.83500804052476
 30
0.0
 10
177.7770724853428
 20
83.86798958211257
 30
0.0
 10
177.8540589636779
 20
83.91358385659206
 30
0.0
 10
177.9384995439073
 20
83.96349251330102
 30
0.0
 10
178.0067413760847
 20
84.00830507283112
 30
0.0
 10
178.0389465691227
 20
84.02945334924962
 30
0.0
  0
LINE
  5
16F
330
1F
100
AcDbEntity
  8
0
  6
Continuous
 62
     7
370
    25
100
AcDbLine
 10
178.1055284988
 20
83.6849963642
 30
0.0
 11
179.5065091315
 21
83.6849963642
 31
0.0
  0
ARC
  5
170
330
1F
100
AcDbEntity
  8
0
  6
Continuous
 62
     7
370
    25
100
AcDbCircle
 10
178.1055286329
 20
83.1849965318
 30
0.0
 40
0.5
100
AcDbArc
 50
90.0
 51
136.8892083855
  0
LINE
  5
171
330
1F
100
AcDbEntity
  8
0
  6
Continuous
 62
     7
370
    25
100
AcDbLine
 10
189.7045481342
 20
83.6849963642
 30
0.0
 11
191.105528767
 21
83.6849963642
 31
0.0
  0
ARC
  5
172
330
1F
100
AcDbEntity
  8
0
  6
Continuous
 62
     7
370
    25
100
AcDbCircle
 10
191.1055286329
 20
83.1849965318
 30
0.0
 40
0.5
100
AcDbArc
 50
43.1107916145
 51
90.0
  0
SPLINE
  5
173
330
1F
100
AcDbEntity
  8
0
  6
Continuous
 62
     7
370
    25
100
AcDbSpline
210
0.0
220
0.0
230
1.0
 70
     8
 71
     3
 72
     9
 73
     5
 74
     0
 42
0.000000001
 43
0.00000001
 40
0.0
 40
0.0
 40
0.0
 40
0.0
 40
0.5
 40
1.0
 40
1.0
 40
1.0
 40
1.0
 10
179.8464437535275
 20
84.18499653179192
 30
0.0
 10
179.8464437535275
 20
84.05409683789236
 30
0.0
 10
179.7728229848475
 20
83.79328318643758
 30
0.0
 10
179.5955037984237
 20
83.68499653179192
 30
0.0
 10
179.506509119288
 20
83.68499653179192
 30
0.0
  0
SPLINE
  5
174
330
1F
100
AcDbEntity
  8
0
  6
Continuous
 62
     7
370
    25
100
AcDbSpline
210
0.0
220
0.0
230
1.0
 70
     8
 71
     3
 72
     9
 73
     5
 74
     0
 42
0.000000001
 43
0.00000001
 40
0.0
 40
0.0
 40
0.0
 40
0.0
 40
0.5
 40
1.0
 40
1.0
 40
1.0
 40
1.0
 10
189.7045481464736
 20
83.68499653179192
 30
0.0
 10
189.6155534673379
 20
83.68499653179192
 30
0.0
 10
189.4382342809141
 20
83.79328318643758
 30
0.0
 10
189.3646135122341
 20
84.05409683789235
 30
0.0
 10
189.3646135122341
 20
84.18499653179192
 30
0.0
  0
SPLINE
  5
175
330
1F
100
AcDbEntity
  8
0
  6
Continuous
 62
     7
370
    25
100
AcDbSpline
210
0.0
220
0.0
230
1.0
 70
     8
 71
     3
 72
     9
 73
     5
 74
     0
 42
0.000000001
 43
0.00000001
 40
0.0
 40
0.0
 40
0.0
 40
0.0
 40
0.5
 40
1.0
 40
1.0
 40
1.0
 40
1.0
 10
178.1055286328808
 20
83.68499653179192
 30
0.0
 10
178.2189750342604
 20
83.68499653179192
 30
0.0
 10
178.4450159453872
 20
83.7932804019769
 30
0.0
 10
178.5388619662141
 20
84.05409683789235
 30
0.0
 10
178.5388619662141
 20
84.18499653179192
 30
0.0
  0
SPLINE
  5
176
330
1F
100
AcDbEntity
  8
0
  6
Continuous
 62
     7
370
    25
100
AcDbSpline
210
0.0
220
0.0
230
1.0
 70
     8
 71
     3
 72
     9
 73
     5
 74
     0
 42
0.000000001
 43
0.00000001
 40
0.0
 40
0.0
 40
0.0
 40
0.0
 40
0.5
 40
1.0
 40
1.0
 40
1.0
 40
1.0
 10
190.6721952995475
 20
84.18499653179192
 30
0.0
 10
190.6721952995475
 20
84.05409683789235
 30
0.0
 10
190.7660413203744
 20
83.7932804019769
 30
0.0
 10
190.9920822315012
 20
83.68499653179192
 30
0.0
 10
191.1055286328808
 20
83.68499653179192
 30
0.0
  0
SPLINE
  5
177
330
1F
100
AcDbEntity
  8
0
  6
Continuous
 62
     7
370
    25
100
AcDbSpline
210
0.0
220
0.0
230
1.0
 70
     8
 71
     3
 72
     9
 73
     5
 74
     0
 42
0.000000001
 43
0.00000001
 40
0.0
 40
0.0
 40
0.0
 40
0.0
 40
0.571428571428571
 40
1.0
 40
1.0
 40
1.0
 40
1.0
 10
191.1721106966389
 20
84.02945334924962
 30
0.0
 10
191.164716613653
 20
83.93230827505779
 30
0.0
 10
191.2020317932311
 20
83.76264693634013
 30
0.0
 10
191.3156238407346
 20
83.64383354046676
 30
0.0
 10
191.3733404527512
 20
83.60722494052078
 30
0.0
  0
SPLINE
  5
178
330
1F
100
AcDbEntity
  8
0
  6
Continuous
 62
     7
370
    25
100
AcDbSpline
210
0.0
220
0.0
230
1.0
 70
     8
 71
     3
 72
     9
 73
     5
 74
     0
 42
0.000000001
 43
0.00000001
 40
0.0
 40
0.0
 40
0.0
 40
0.0
 40
0.5
 40
1.0
 40
1.0
 40
1.0
 40
1.0
 10
178.0389465691244
 20
84.0294533492508
 30
0.0
 10
178.0454163917373
 20
83.9444514093327
 30
0.0
 10
178.0147373985313
 20
83.77455749108391
 30
0.0
 10
177.9050528603643
 20
83.6499349737915
 30
0.0
 10
177.8377168130113
 20
83.60722494052136
 30
0.0
  0
SPLINE
  5
179
330
1F
100
AcDbEntity
  8
0
  6
Continuous
 62
     7
370
    25
100
AcDbSpline
210
0.0
220
0.0
230
1.0
 70
     8
 71
     3
 72
    12
 73
     8
 74
     0
 42
0.000000001
 43
0.00000001
 40
0.0
 40
0.0
 40
0.0
 40
0.0
 40
0.106360889119859
 40
0.159541333679788
 40
0.265902222799647
 40
0.265902222799647
 40
0.267217449924086
 40
0.267217449924086
 40
0.267217449924086
 40
0.267217449924086
 10
191.3733404527512
 20
83.60722494052078
 30
0.0
 10
191.4333172368222
 20
83.56918275444544
 30
0.0
 10
191.507607879906
 20
83.57467862563765
 30
0.0
 10
191.5858394647517
 20
83.61657520319865
 30
0.0
 10
191.6052155824745
 20
83.65770135961297
 30
0.0
 10
191.6055267252131
 20
83.68434873796107
 30
0.0
 10
191.6055286328808
 20
83.68467224096969
 30
0.0
 10
191.6055286328808
 20
83.68499653179192
 30
0.0
  0
SPLINE
  5
17A
330
1F
100
AcDbEntity
  8
0
  6
Continuous
 62
     7
370
    25
100
AcDbSpline
210
0.0
220
0.0
230
1.0
 70
    24
 71
     3
 72
    14
 73
    10
 74
     0
 42
0.000000001
 43
0.00000001
 40
0.0
 40
0.0
 40
0.0
 40
0.0
 40
0.2503841006840345
 40
0.3856977520239709
 40
0.5014304172375459
 40
0.6388330237075766
 40
0.767498519821732
 40
0.8877539750359934
 40
1.0
 40
1.0
 40
1.0
 40
1.0
 10
191.6055286328808
 20
83.68499653179192
 30
0.0
 10
191.6055286328808
 20
83.62570986017985
 30
0.0
 10
191.6055286328808
 20
83.53438323080007
 30
0.0
 10
191.6055286328808
 20
83.42186913745056
 30
0.0
 10
191.6055286328808
 20
83.34208257147104
 30
0.0
 10
191.6055286328808
 20
83.27528318348521
 30
0.0
 10
191.6055286328808
 20
83.22409397028834
 30
0.0
 10
191.6055286328808
 20
83.19146444697921
 30
0.0
 10
191.6055286328808
 20
83.18710241438353
 30
0.0
 10
191.6055286328808
 20
83.18499653179192
 30
0.0
  0
LINE
  5
17B
330
1F
100
AcDbEntity
  8
0
  6
Continuous
 62
     7
370
    25
100
AcDbLine
 10
177.6055284168
 20
83.6849963642
 30
0.0
 11
177.6129431415
 21
83.660537505
 31
0.0
  0
SPLINE
  5
17C
330
1F
100
AcDbEntity
  8
0
  6
Continuous
 62
     7
370
    25
100
AcDbSpline
210
0.0
220
0.0
230
1.0
 70
    24
 71
     3
 72
    10
 73
     6
 74
     0
 42
0.000000001
 43
0.00000001
 40
-0.263620655015386
 40
-0.263620655015386
 40
-0.263620655015386
 40
-0.263620655015386
 40
-0.2626630659468851
 40
-0.2626630659468851
 40
0.0009575890685009
 40
0.0009575890685009
 40
0.0009575890685009
 40
0.0009575890685009
 10
177.6055286328808
 20
83.68499653179192
 30
0.0
 10
177.6055286328808
 20
83.68414344364633
 30
0.0
 10
177.6055286328808
 20
83.68328399837426
 30
0.0
 10
177.6055286328806
 20
83.45008324940474
 30
0.0
 10
177.6055286328808
 20
83.18499653179192
 30
0.0
 10
177.6055286328808
 20
83.18499653179192
 30
0.0
  0
LINE
  5
17D
330
1F
100
AcDbEntity
  8
0
  6
Continuous
 62
     8
370
    25
100
AcDbLine
 10
184.6055286329
 20
88.215302804
 30
0.0
 11
192.4055284213
 21
88.215302804
 31
0.0
  0
LINE
  5
17E
330
1F
100
AcDbEntity
  8
0
  6
Continuous
 62
     8
370
    25
100
AcDbLine
 10
176.8055288445
 20
88.215302804
 30
0.0
 11
184.6055286329
 21
88.215302804
 31
0.0
  0
LINE
  5
17F
330
1F
100
AcDbEntity
  8
0
  6
Continuous
 62
     8
370
    25
100
AcDbLine
 10
184.6055286329
 20
87.235506752
 30
0.0
 11
177.6055284168
 21
87.235506752
 31
0.0
  0
LINE
  5
180
330
1F
100
AcDbEntity
  8
0
  6
Continuous
 62
     8
370
    25
100
AcDbLine
 10
191.6055288489
 20
87.235506752
 30
0.0
 11
184.6055286329
 21
87.235506752
 31
0.0
  0
SPLINE
  5
181
330
1F
100
AcDbEntity
  8
0
  6
Continuous
 62
     8
370
    25
100
AcDbSpline
210
0.0
220
0.0
230
1.0
 70
    24
 71
     3
 72
    10
 73
     6
 74
     0
 42
0.000000001
 43
0.00000001
 40
0.0
 40
0.0
 40
0.0
 40
0.0
 40
0.414928205129049
 40
0.8298562538090092
 40
1.0
 40
1.0
 40
1.0
 40
1.0
 10
178.1055284987704
 20
83.18499674785876
 30
0.0
 10
178.1055284987704
 20
83.05559873247604
 30
0.0
 10
178.1055284987704
 20
82.79680275050026
 30
0.0
 10
178.1055284987704
 20
82.51150680103764
 30
0.0
 10
178.1055284987704
 20
82.41660047931897
 30
0.0
 10
178.1055284987704
 20
82.38900093127036
 30
0.0
  0
SPLINE
  5
182
330
1F
100
AcDbEntity
  8
0
  6
Continuous
 62
     8
370
    25
100
AcDbSpline
210
0.0
220
0.0
230
1.0
 70
    24
 71
     3
 72
    10
 73
     6
 74
     0
 42
0.000000001
 43
0.00000001
 40
0.0
 40
0.0
 40
0.0
 40
0.0
 40
0.1548036829657409
 40
0.5774017618123293
 40
0.9999999999999999
 40
0.9999999999999999
 40
0.9999999999999999
 40
0.9999999999999999
 10
191.1055287669913
 20
82.39848272640252
 30
0.0
 10
191.1055287669913
 20
82.42327459425445
 30
0.0
 10
191.1055287669913
 20
82.51574570283586
 30
0.0
 10
191.1055287669913
 20
82.79712176589882
 30
0.0
 10
191.1055287669913
 20
83.0557050709556
 30
0.0
 10
191.1055287669913
 20
83.18499674785876
 30
0.0
  0
LINE
  5
183
330
1F
100
AcDbEntity
  8
0
  6
Continuous
 62
     8
370
    25
100
AcDbLine
 10
190.2623828824
 20
83.1849967479
 30
0.0
 11
191.105528767
 21
83.1849967479
 31
0.0
  0
LINE
  5
184
330
1F
100
AcDbEntity
  8
0
  6
Continuous
 62
     8
370
    25
100
AcDbLine
 10
178.1055284988
 20
83.1849967479
 30
0.0
 11
178.9486743833
 21
83.1849967479
 31
0.0
  0
SPLINE
  5
185
330
1F
100
AcDbEntity
  8
0
  6
Continuous
 62
     8
370
    25
100
AcDbSpline
210
0.0
220
0.0
230
1.0
 70
     8
 71
     3
 72
     9
 73
     5
 74
     0
 42
0.000000001
 43
0.00000001
 40
0.0
 40
0.0
 40
0.0
 40
0.0
 40
0.2445636372772303
 40
1.0
 40
1.0
 40
1.0
 40
1.0
 10
188.8912148166016
 20
84.07691785830998
 30
0.0
 10
188.9297894853238
 20
84.09572935921997
 30
0.0
 10
189.0875180387245
 20
84.17264799323856
 30
0.0
 10
189.2453679608401
 20
84.1796826649562
 30
0.0
 10
189.3646135318593
 20
84.18499691177153
 30
0.0
  0
SPLINE
  5
186
330
1F
100
AcDbEntity
  8
0
  6
Continuous
 62
     8
370
    25
100
AcDbSpline
210
0.0
220
0.0
230
1.0
 70
     8
 71
     3
 72
     9
 73
     5
 74
     0
 42
0.000000001
 43
0.00000001
 40
0.0
 40
0.0
 40
0.0
 40
0.0
 40
0.7519363683777341
 40
1.0
 40
1.0
 40
1.0
 40
1.0
 10
179.8464437339023
 20
84.18499691177153
 30
0.0
 10
179.9656892245301
 20
84.17962111867843
 30
0.0
 10
180.1242737745565
 20
84.17247185270433
 30
0.0
 10
180.2827362499316
 20
84.0951130991458
 30
0.0
 10
180.3220450270489
 20
84.0759232058003
 30
0.0
  0
LINE
  5
187
330
1F
100
AcDbEntity
  8
0
  6
Continuous
 62
     8
370
    25
100
AcDbLine
 10
179.6453735183
 20
83.680424036
 30
0.0
 11
179.5065091315
 21
83.6849963642
 31
0.0
  0
LINE
  5
188
330
1F
100
AcDbEntity
  8
0
  6
Continuous
 62
     8
370
    25
100
AcDbLine
 10
189.7045481342
 20
83.6849963642
 30
0.0
 11
189.5590531963
 21
83.6783485836
 31
0.0
  0
SPLINE
  5
189
330
1F
100
AcDbEntity
  8
0
  6
Continuous
 62
     8
370
    25
100
AcDbSpline
210
0.0
220
0.0
230
1.0
 70
     8
 71
     3
 72
    11
 73
     7
 74
     0
 42
0.000000001
 43
0.00000001
 40
0.0
 40
0.0
 40
0.0
 40
0.0
 40
0.138306374567875
 40
0.4174703047224942
 40
0.7013665291882653
 40
1.0
 40
1.0
 40
1.0
 40
1.0
 10
177.6129431414918
 20
83.66053750503802
 30
0.0
 10
177.6147161506028
 20
83.65215772658732
 30
0.0
 10
177.6200678826264
 20
83.6268638189547
 30
0.0
 10
177.6611731967376
 20
83.59466384397366
 30
0.0
 10
177.7342219685159
 20
83.5647456461295
 30
0.0
 10
177.8026416223498
 20
83.5928283140596
 30
0.0
 10
177.8377169135526
 20
83.60722487557673
 30
0.0
  0
INSERT
  5
195
330
1F
100
AcDbEntity
  8
0
  6
Continuous
 62
     7
370
    18
100
AcDbBlockReference
  2
SW_CENTERMARKSYMBOL_0
 10
184.6055286329
 20
76.1849965318
 30
0.0
  0
ARC
  5
196
330
1F
100
AcDbEntity
  8
0
  6
Continuous
 62
     7
370
    18
100
AcDbCircle
 10
184.6055286329
 20
76.1849965318
 30
0.0
 40
6.562891499999999
100
AcDbArc
 50
75.0
 51
345.0
  0
ARC
  5
197
330
1F
100
AcDbEntity
  8
0
  6
Continuous
 62
     7
370
    18
100
AcDbCircle
 10
184.6055286329
 20
76.1849965318
 30
0.0
 40
6.562891499999999
100
AcDbArc
 50
75.0
 51
345.0
  0
LINE
  5
198
330
1F
100
AcDbEntity
  8
0
  6
Continuous
 62
     7
370
    18
100
AcDbLine
 10
192.1077099965
 20
100.3151928954
 30
0.0
 11
192.4739661329
 21
88.5949965318
 31
0.0
  0
LINE
  5
199
330
1F
100
AcDbEntity
  8
0
  6
Continuous
 62
     7
370
    18
100
AcDbLine
 10
177.1033472692
 20
100.3151928954
 30
0.0
 11
176.7370911329
 21
88.5949965318
 31
0.0
  0
LINE
  5
19A
330
1F
100
AcDbEntity
  8
0
  6
Continuous
 62
     7
370
    18
100
AcDbLine
 10
176.0842161329
 20
88.5949965318
 30
0.0
 11
193.1268411329
 21
88.5949965318
 31
0.0
  0
LINE
  5
19B
330
1F
100
AcDbEntity
  8
0
  6
Continuous
 62
     7
370
    25
100
AcDbLine
 10
107.0196227712
 20
144.0745937743
 30
0.0
 11
96.0196237621
 21
144.0745937743
 31
0.0
  0
LINE
  5
19C
330
1F
100
AcDbEntity
  8
0
  6
Continuous
 62
     7
370
    25
100
AcDbLine
 10
96.0196237621
 20
126.0745945492
 30
0.0
 11
107.0196227712
 21
126.0745945492
 31
0.0
  0
LINE
  5
19D
330
1F
100
AcDbEntity
  8
0
  6
Continuous
 62
     7
370
    25
100
AcDbLine
 10
134.0196234716
 20
126.0745945492
 30
0.0
 11
145.0196224806
 21
126.0745945492
 31
0.0
  0
LINE
  5
19E
330
1F
100
AcDbEntity
  8
0
  6
Continuous
 62
     7
370
    25
100
AcDbLine
 10
145.0196224806
 20
144.0745937743
 30
0.0
 11
134.0196234716
 21
144.0745937743
 31
0.0
  0
LINE
  5
19F
330
1F
100
AcDbEntity
  8
0
  6
Continuous
 62
     7
370
    25
100
AcDbLine
 10
145.0196224806
 20
126.0745945492
 30
0.0
 11
145.5196234939
 21
126.5745936998
 31
0.0
  0
LINE
  5
1A0
330
1F
100
AcDbEntity
  8
0
  6
Continuous
 62
     7
370
    25
100
AcDbLine
 10
145.5196234939
 20
143.5745946237
 30
0.0
 11
145.0196224806
 21
144.0745937743
 31
0.0
  0
LINE
  5
1A1
330
1F
100
AcDbEntity
  8
0
  6
Continuous
 62
     7
370
    25
100
AcDbLine
 10
96.0196237621
 20
144.0745937743
 30
0.0
 11
95.5196227489
 21
143.5745946237
 31
0.0
  0
LINE
  5
1A2
330
1F
100
AcDbEntity
  8
0
  6
Continuous
 62
     7
370
    25
100
AcDbLine
 10
95.5196227489
 20
126.5745936998
 30
0.0
 11
96.0196237621
 21
126.0745945492
 31
0.0
  0
ARC
  5
1A3
330
1F
100
AcDbEntity
  8
0
  6
Continuous
 62
     7
370
    25
100
AcDbCircle
 10
134.0196231214
 20
142.5745941617
 30
0.0
 40
1.500000000000018
100
AcDbArc
 50
90.0
 51
168.4630409672
  0
ARC
  5
1A4
330
1F
100
AcDbEntity
  8
0
  6
Continuous
 62
     7
370
    25
100
AcDbCircle
 10
134.0196231214
 20
127.5745941617
 30
0.0
 40
1.500000000000015
100
AcDbArc
 50
191.5369590328
 51
270.0
  0
ARC
  5
1A5
330
1F
100
AcDbEntity
  8
0
  6
Continuous
 62
     7
370
    25
100
AcDbCircle
 10
107.0196231214
 20
142.5745941617
 30
0.0
 40
1.500000000000004
100
AcDbArc
 50
11.5369590328
 51
90.0
  0
ARC
  5
1A6
330
1F
100
AcDbEntity
  8
0
  6
Continuous
 62
     7
370
    25
100
AcDbCircle
 10
107.0196231214
 20
127.5745941617
 30
0.0
 40
1.500000000000014
100
AcDbArc
 50
270.0
 51
348.4630409672
  0
ARC
  5
1A7
330
1F
100
AcDbEntity
  8
0
  6
Continuous
 62
     7
370
    25
100
AcDbCircle
 10
131.5701333786
 20
143.0745941617
 30
0.0
 40
1.0
100
AcDbArc
 50
270.0
 51
348.4630409672
  0
ARC
  5
1A8
330
1F
100
AcDbEntity
  8
0
  6
Continuous
 62
     7
370
    25
100
AcDbCircle
 10
131.5701333786
 20
127.0745941617
 30
0.0
 40
1.000000000000014
100
AcDbArc
 50
11.5369590328
 51
90.0
  0
ARC
  5
1A9
330
1F
100
AcDbEntity
  8
0
  6
Continuous
 62
     7
370
    25
100
AcDbCircle
 10
109.4691128642
 20
143.0745941617
 30
0.0
 40
1.000000000000004
100
AcDbArc
 50
191.5369590328
 51
270.0
  0
ARC
  5
1AA
330
1F
100
AcDbEntity
  8
0
  6
Continuous
 62
     7
370
    25
100
AcDbCircle
 10
109.4691128642
 20
127.0745941617
 30
0.0
 40
1.000000000000014
100
AcDbArc
 50
90.0
 51
168.4630409672
  0
SPLINE
  5
1AB
330
1F
100
AcDbEntity
  8
0
  6
Continuous
 62
     7
370
    25
100
AcDbSpline
210
0.0
220
0.0
230
1.0
 70
     8
 71
     3
 72
     9
 73
     5
 74
     0
 42
0.000000001
 43
0.00000001
 40
0.0
 40
0.0
 40
0.0
 40
0.0
 40
0.3118869528766096
 40
1.0
 40
1.0
 40
1.0
 40
1.0
 10
114.877930803365
 20
142.0671894320217
 30
0.0
 10
114.8798814252153
 20
142.0690704637254
 30
0.0
 10
114.886135684434
 20
142.0751015967569
 30
0.0
 10
114.8498907812051
 20
142.074572178532
 30
0.0
 10
114.8249501904016
 20
142.074207878944
 30
0.0
  0
SPLINE
  5
1AC
330
1F
100
AcDbEntity
  8
0
  6
Continuous
 62
     7
370
    25
100
AcDbSpline
210
0.0
220
0.0
230
1.0
 70
     8
 71
     3
 72
     9
 73
     5
 74
     0
 42
0.000000001
 43
0.00000001
 40
0.0
 40
0.0
 40
0.0
 40
0.0
 40
0.7386329696608467
 40
1.0
 40
1.0
 40
1.0
 40
1.0
 10
126.5201111865704
 20
128.5745940276352
 30
0.0
 10
126.5193099243568
 20
128.5382640279847
 30
0.0
 10
126.5182251336062
 20
128.4890785716853
 30
0.0
 10
126.5009321122999
 20
128.4365756956781
 30
0.0
 10
126.4964122866755
 20
128.4228531748918
 30
0.0
  0
SPLINE
  5
1AD
330
1F
100
AcDbEntity
  8
0
  6
Continuous
 62
     7
370
    25
100
AcDbSpline
210
0.0
220
0.0
230
1.0
 70
     8
 71
     3
 72
    16
 73
    12
 74
     0
 42
0.000000001
 43
0.00000001
 40
0.0
 40
0.0
 40
0.0
 40
0.0
 40
0.001558688101615
 40
0.0410302892138949
 40
0.1371775496461782
 40
0.2564358294803687
 40
0.3953632821085705
 40
0.5485297445143557
 40
0.7092896286264974
 40
0.8703572720428943
 40
1.0
 40
1.0
 40
1.0
 40
1.0
 10
126.3139303383892
 20
128.1686766178278
 30
0.0
 10
126.3133564615981
 20
128.1682661474881
 30
0.0
 10
126.2982499558845
 20
128.1574610885832
 30
0.0
 10
126.2587186850662
 20
128.1358299296288
 30
0.0
 10
126.2096840951611
 20
128.1081459625492
 30
0.0
 10
126.1981827063198
 20
128.0918621961155
 30
0.0
 10
126.2445530470642
 20
128.0818792217554
 30
0.0
 10
126.3586135287351
 20
128.0771852741567
 30
0.0
 10
126.5369361934263
 20
128.0751657933135
 30
0.0
 10
126.749280540326
 20
128.0746159418674
 30
0.0
 10
126.9105453412639
 20
128.074610713
 30
0.0
 10
126.9824616221254
 20
128.0746083811787
 30
0.0
  0
LINE
  5
1AE
330
1F
100
AcDbEntity
  8
0
  6
Continuous
 62
     7
370
    25
100
AcDbLine
 10
113.019623289
 20
142.0745943778
 30
0.0
 11
109.4691129012
 21
142.0745943778
 31
0.0
  0
LINE
  5
1AF
330
1F
100
AcDbEntity
  8
0
  6
Continuous
 62
     7
370
    25
100
AcDbLine
 10
131.5701333416
 20
142.0745943778
 30
0.0
 11
129.7696232406
 21
142.0745943778
 31
0.0
  0
LINE
  5
1B0
330
1F
100
AcDbEntity
  8
0
  6
Continuous
 62
     7
370
    25
100
AcDbLine
 10
128.2696229947
 20
142.0745943778
 30
0.0
 11
128.0196229537
 21
142.0745943778
 31
0.0
  0
LINE
  5
1B1
330
1F
100
AcDbEntity
  8
0
  6
Continuous
 62
     7
370
    25
100
AcDbLine
 10
128.0196229537
 20
128.0745939457
 30
0.0
 11
131.5701333416
 21
128.0745939457
 31
0.0
  0
LINE
  5
1B2
330
1F
100
AcDbEntity
  8
0
  6
Continuous
 62
     7
370
    25
100
AcDbLine
 10
109.4691129012
 20
128.0745939457
 30
0.0
 11
113.019623289
 21
128.0745939457
 31
0.0
  0
ARC
  5
1B3
330
1F
100
AcDbEntity
  8
0
  6
Continuous
 62
     7
370
    25
100
AcDbCircle
 10
129.3113655519
 20
141.8745941617
 30
0.0
 40
0.5000000000000107
100
AcDbArc
 50
23.5781784782
 51
90.0
  0
ARC
  5
1B4
330
1F
100
AcDbEntity
  8
0
  6
Continuous
 62
     7
370
    25
100
AcDbCircle
 10
128.7278806909
 20
141.8745941617
 30
0.0
 40
0.5
100
AcDbArc
 50
90.0
 51
156.4218215218
  0
CIRCLE
  5
1B5
330
1F
100
AcDbEntity
  8
0
  6
Continuous
 62
     7
370
    25
100
AcDbCircle
 10
120.5196231214
 20
135.0745941617
 30
0.0
 40
7.0
  0
CIRCLE
  5
1B6
330
1F
100
AcDbEntity
  8
0
  6
Continuous
 62
     7
370
    25
100
AcDbCircle
 10
120.5196231214
 20
135.0745941617
 30
0.0
 40
8.192416432660906
  0
CIRCLE
  5
1B7
330
1F
100
AcDbEntity
  8
0
  6
Continuous
 62
     7
370
    25
100
AcDbCircle
 10
120.5196231214
 20
135.0745941617
 30
0.0
 40
5.5
  0
CIRCLE
  5
1B8
330
1F
100
AcDbEntity
  8
0
  6
Continuous
 62
     7
370
    25
100
AcDbCircle
 10
120.5196231214
 20
135.0745941617
 30
0.0
 40
5.0
  0
CIRCLE
  5
1B9
330
1F
100
AcDbEntity
  8
0
  6
Continuous
 62
     7
370
    25
100
AcDbCircle
 10
120.5196231214
 20
135.0745941617
 30
0.0
 40
8.521573644712603
  0
LINE
  5
1BA
330
1F
100
AcDbEntity
  8
0
  6
Continuous
 62
     7
370
    25
100
AcDbLine
 10
96.0196237621
 20
144.0745937743
 30
0.0
 11
96.0196237621
 21
126.0745945492
 31
0.0
  0
LINE
  5
1BB
330
1F
100
AcDbEntity
  8
0
  6
Continuous
 62
     7
370
    25
100
AcDbLine
 10
145.0196224806
 20
126.0745945492
 30
0.0
 11
145.0196224806
 21
144.0745937743
 31
0.0
  0
LINE
  5
1BC
330
1F
100
AcDbEntity
  8
0
  6
Continuous
 62
     7
370
    25
100
AcDbLine
 10
145.5196234939
 20
143.5745946237
 30
0.0
 11
145.5196234939
 21
126.5745936998
 31
0.0
  0
LINE
  5
1BD
330
1F
100
AcDbEntity
  8
0
  6
Continuous
 62
     7
370
    25
100
AcDbLine
 10
95.5196227489
 20
126.5745936998
 30
0.0
 11
95.5196227489
 21
143.5745946237
 31
0.0
  0
LINE
  5
1BE
330
1F
100
AcDbEntity
  8
0
  6
Continuous
 62
     7
370
    25
100
AcDbLine
 10
114.5196230692
 20
141.5745942959
 30
0.0
 11
114.5196230692
 21
141.1258104362
 31
0.0
  0
SPLINE
  5
1BF
330
1F
100
AcDbEntity
  8
0
  6
Continuous
 62
     7
370
    25
100
AcDbSpline
210
0.0
220
0.0
230
1.0
 70
     8
 71
     3
 72
    13
 73
     9
 74
     0
 42
0.000000001
 43
0.00000001
 40
0.0
 40
0.0
 40
0.0
 40
0.0
 40
0.1162222328492899
 40
0.2381780342383815
 40
0.3660918025215373
 40
0.500158020507199
 40
0.7504239415057028
 40
1.0
 40
1.0
 40
1.0
 40
1.0
 10
114.6546063365883
 20
141.9396109465446
 30
0.0
 10
114.6436222132669
 20
141.9277734873316
 30
0.0
 10
114.62111208903
 20
141.90351459386
 30
0.0
 10
114.5930009613095
 20
141.8632284342668
 30
0.0
 10
114.5684769654083
 20
141.8190712435052
 30
0.0
 10
114.5431033817883
 20
141.7576569686828
 30
0.0
 10
114.5232437045983
 20
141.6776261674026
 30
0.0
 10
114.5208288715046
 20
141.6089065489144
 30
0.0
 10
114.5196231213873
 20
141.5745941617457
 30
0.0
  0
LWPOLYLINE
  5
1C0
330
1F
100
AcDbEntity
  8
0
  6
Continuous
 62
     7
370
    25
100
AcDbPolyline
 90
        5
 70
   128
 43
0.0
 10
115.0196231512
 20
141.5745942959
 10
114.9180386757
 20
141.6761783057
 10
114.8206921836
 20
141.7735252635
 10
114.7316428443
 20
141.8625741371
 10
114.6546061692
 20
141.9396108122
  0
LWPOLYLINE
  5
1C1
330
1F
100
AcDbEntity
  8
0
  6
Continuous
 62
     7
370
    25
100
AcDbPolyline
 90
        5
 70
   128
 43
0.0
 10
126.3846400735
 20
141.9396108122
 10
126.3076033985
 20
141.8625741371
 10
126.2185540592
 20
141.7735252635
 10
126.1212075671
 20
141.6761783057
 10
126.0196230916
 20
141.5745942959
  0
SPLINE
  5
1C2
330
1F
100
AcDbEntity
  8
0
  6
Continuous
 62
     7
370
    25
100
AcDbSpline
210
0.0
220
0.0
230
1.0
 70
     8
 71
     3
 72
    12
 73
     8
 74
     0
 42
0.000000001
 43
0.00000001
 40
0.0
 40
0.0
 40
0.0
 40
0.0
 40
0.1664615747826677
 40
0.3330490629245378
 40
0.50019385964186
 40
0.761981166969512
 40
1.0
 40
1.0
 40
1.0
 40
1.0
 10
126.5196231213873
 20
141.5745941617457
 30
0.0
 10
126.519080743049
 20
141.5975878366457
 30
0.0
 10
126.5179955761115
 20
141.6435925791133
 30
0.0
 10
126.508212430915
 20
141.7091355419102
 30
0.0
 10
126.487532358334
 20
141.7835017373439
 30
0.0
 10
126.4512310852397
 20
141.8627732932096
 30
0.0
 10
126.4061219043568
 20
141.914823484424
 30
0.0
 10
126.3846399061864
 20
141.9396109465447
 30
0.0
  0
LINE
  5
1C3
330
1F
100
AcDbEntity
  8
0
  6
Continuous
 62
     7
370
    25
100
AcDbLine
 10
126.5196231735
 20
141.1258104362
 30
0.0
 11
126.5196231735
 21
141.5745942959
 31
0.0
  0
LINE
  5
1C4
330
1F
100
AcDbEntity
  8
0
  6
Continuous
 62
     7
370
    25
100
AcDbLine
 10
126.5196231735
 20
128.5745940276
 30
0.0
 11
126.5196231735
 21
129.0233778872
 31
0.0
  0
SPLINE
  5
1C5
330
1F
100
AcDbEntity
  8
0
  6
Continuous
 62
     7
370
    25
100
AcDbSpline
210
0.0
220
0.0
230
1.0
 70
     8
 71
     3
 72
    13
 73
     9
 74
     0
 42
0.000000001
 43
0.00000001
 40
0.0
 40
0.0
 40
0.0
 40
0.0
 40
0.1162222239500744
 40
0.2381780213579675
 40
0.3660917905452749
 40
0.5001580142688472
 40
0.7504239388829979
 40
1.0
 40
1.0
 40
1.0
 40
1.0
 10
126.3846399061862
 20
128.2095773769467
 30
0.0
 10
126.3956240286814
 20
128.2214148352774
 30
0.0
 10
126.4181341517312
 20
128.2456737274865
 30
0.0
 10
126.446245278896
 20
128.285959885844
 30
0.0
 10
126.4707692754942
 20
128.3301170767902
 30
0.0
 10
126.496142860358
 20
128.3915313520842
 30
0.0
 10
126.5160025382305
 20
128.4715621540956
 30
0.0
 10
126.5184173712895
 20
128.5402817739583
 30
0.0
 10
126.5196231213873
 20
128.5745941617457
 30
0.0
  0
LWPOLYLINE
  5
1C6
330
1F
100
AcDbEntity
  8
0
  6
Continuous
 62
     7
370
    25
100
AcDbPolyline
 90
        5
 70
   128
 43
0.0
 10
126.0196230916
 20
128.5745940276
 10
126.1212075671
 20
128.4730100178
 10
126.2185540592
 20
128.37566306
 10
126.3076033985
 20
128.2866141864
 10
126.3846400735
 20
128.2095775113
  0
LWPOLYLINE
  5
1C7
330
1F
100
AcDbEntity
  8
0
  6
Continuous
 62
     7
370
    25
100
AcDbPolyline
 90
        5
 70
   128
 43
0.0
 10
114.6546061692
 20
128.2095775113
 10
114.7316428443
 20
128.2866141864
 10
114.8206921836
 20
128.37566306
 10
114.9180386757
 20
128.4730100178
 10
115.0196231512
 20
128.5745940276
  0
SPLINE
  5
1C8
330
1F
100
AcDbEntity
  8
0
  6
Continuous
 62
     7
370
    25
100
AcDbSpline
210
0.0
220
0.0
230
1.0
 70
     8
 71
     3
 72
    12
 73
     8
 74
     0
 42
0.000000001
 43
0.00000001
 40
0.0
 40
0.0
 40
0.0
 40
0.0
 40
0.1664615763807151
 40
0.3330490665505926
 40
0.500193865880855
 40
0.7619811797519991
 40
1.0
 40
1.0
 40
1.0
 40
1.0
 10
114.5196231213873
 20
128.5745941617457
 30
0.0
 10
114.5201654997191
 20
128.5516004864431
 30
0.0
 10
114.521250666645
 20
128.5055957431107
 30
0.0
 10
114.5310338119576
 20
128.4400527795123
 30
0.0
 10
114.551713885386
 20
128.3656865835715
 30
0.0
 10
114.5880151591859
 20
128.286415028668
 30
0.0
 10
114.6331243395503
 20
128.2343648378547
 30
0.0
 10
114.6546063365883
 20
128.2095773769467
 30
0.0
  0
LINE
  5
1C9
330
1F
100
AcDbEntity
  8
0
  6
Continuous
 62
     7
370
    25
100
AcDbLine
 10
114.5196230692
 20
129.0233778872
 30
0.0
 11
114.5196230692
 21
128.5745940276
 31
0.0
  0
SPLINE
  5
1CA
330
1F
100
AcDbEntity
  8
0
  6
Continuous
 62
     7
370
    25
100
AcDbSpline
210
0.0
220
0.0
230
1.0
 70
     8
 71
     3
 72
    13
 73
     9
 74
     0
 42
0.000000001
 43
0.00000001
 40
0.0
 40
0.0
 40
0.0
 40
0.0
 40
0.1206933490086504
 40
0.2506350407931719
 40
0.4049364355086124
 40
0.5013752757898843
 40
0.7702865166460683
 40
0.9999999999999999
 40
0.9999999999999999
 40
0.9999999999999999
 40
0.9999999999999999
 10
115.0195770533421
 20
142.0745941617457
 30
0.0
 10
115.0045994990064
 20
142.0742064467523
 30
0.0
 10
114.9734967085649
 20
142.0734013074138
 30
0.0
 10
114.9224118674639
 20
142.0664512919402
 30
0.0
 10
114.8742226294196
 20
142.0556609766097
 30
0.0
 10
114.8090596194024
 20
142.0350411854621
 30
0.0
 10
114.736135243481
 20
142.002533498323
 30
0.0
 10
114.6803200627142
 20
141.9594563403472
 30
0.0
 10
114.6546063365883
 20
141.9396109465446
 30
0.0
  0
LINE
  5
1CB
330
1F
100
AcDbEntity
  8
0
  6
Continuous
 62
     7
370
    25
100
AcDbLine
 10
115.0195770507
 20
142.0745943778
 30
0.0
 11
115.6598683057
 21
142.0745943778
 31
0.0
  0
SPLINE
  5
1CC
330
1F
100
AcDbEntity
  8
0
  6
Continuous
 62
     7
370
    25
100
AcDbSpline
210
0.0
220
0.0
230
1.0
 70
     8
 71
     3
 72
    14
 73
    10
 74
     0
 42
0.000000001
 43
0.00000001
 40
0.0
 40
0.0
 40
0.0
 40
0.0
 40
0.1488603140964728
 40
0.3150272284381161
 40
0.4987644934539461
 40
0.5951852670853452
 40
0.7494348315821825
 40
0.8793203117440467
 40
1.0
 40
1.0
 40
1.0
 40
1.0
 10
126.3846399061864
 20
141.9396109465448
 30
0.0
 10
126.3681615284444
 20
141.9528543036111
 30
0.0
 10
126.3332889856804
 20
141.9808806993441
 30
0.0
 10
126.2741386322762
 20
142.0149502524667
 30
0.0
 10
126.2195621140718
 20
142.0385041418196
 30
0.0
 10
126.1650059726248
 20
142.0556332137487
 30
0.0
 10
126.1168401907739
 20
142.0664582542509
 30
0.0
 10
126.0657509728074
 20
142.0733994891996
 30
0.0
 10
126.0346488858562
 20
142.0742058123643
 30
0.0
 10
126.0196691894319
 20
142.0745941617457
 30
0.0
  0
LINE
  5
1CD
330
1F
100
AcDbEntity
  8
0
  6
Continuous
 62
     7
370
    25
100
AcDbLine
 10
125.3793779371
 20
142.0745943778
 30
0.0
 11
126.0196691921
 21
142.0745943778
 31
0.0
  0
SPLINE
  5
1CE
330
1F
100
AcDbEntity
  8
0
  6
Continuous
 62
     7
370
    25
100
AcDbSpline
210
0.0
220
0.0
230
1.0
 70
     8
 71
     3
 72
    14
 73
    10
 74
     0
 42
0.000000001
 43
0.00000001
 40
0.0
 40
0.0
 40
0.0
 40
0.0
 40
0.1488603597576148
 40
0.3150273328471772
 40
0.4987646698883385
 40
0.5951853465608922
 40
0.7494349165377944
 40
0.8793203508289453
 40
1.0
 40
1.0
 40
1.0
 40
1.0
 10
114.6546063365883
 20
128.2095773769467
 30
0.0
 10
114.6710847195026
 20
128.1963340160454
 30
0.0
 10
114.7059572740738
 20
128.1683076115047
 30
0.0
 10
114.7651076498039
 20
128.1342380502925
 30
0.0
 10
114.8196841732546
 20
128.1106841648945
 30
0.0
 10
114.8742403134535
 20
128.0935550988238
 30
0.0
 10
114.9224060778449
 20
128.0827300648215
 30
0.0
 10
114.97349528543
 20
128.075788833504
 30
0.0
 10
115.004597361791
 20
128.0749825108749
 30
0.0
 10
115.0195770533421
 20
128.0745941617457
 30
0.0
  0
LINE
  5
1CF
330
1F
100
AcDbEntity
  8
0
  6
Continuous
 62
     7
370
    25
100
AcDbLine
 10
115.0195770507
 20
128.0745939457
 30
0.0
 11
115.6598683057
 21
128.0745939457
 31
0.0
  0
SPLINE
  5
1D0
330
1F
100
AcDbEntity
  8
0
  6
Continuous
 62
     7
370
    25
100
AcDbSpline
210
0.0
220
0.0
230
1.0
 70
     8
 71
     3
 72
    13
 73
     9
 74
     0
 42
0.000000001
 43
0.00000001
 40
0.0
 40
0.0
 40
0.0
 40
0.0
 40
0.1206933106363776
 40
0.2506349558809258
 40
0.4049363551860728
 40
0.501375099440844
 40
0.7702864432344702
 40
1.0
 40
1.0
 40
1.0
 40
1.0
 10
126.0196691894325
 20
128.0745941617457
 30
0.0
 10
126.0346467389803
 20
128.0749818764916
 30
0.0
 10
126.0657495188303
 20
128.0757870152993
 30
0.0
 10
126.1168343494363
 20
128.0827370271327
 30
0.0
 10
126.1650235699374
 20
128.0935273359422
 30
0.0
 10
126.2301865828341
 20
128.1141471213412
 30
0.0
 10
126.303110970406
 20
128.1466548053552
 30
0.0
 10
126.3589261715495
 20
128.1897319773584
 30
0.0
 10
126.3846399061862
 20
128.2095773769467
 30
0.0
  0
LINE
  5
1D1
330
1F
100
AcDbEntity
  8
0
  6
Continuous
 62
     7
370
    25
100
AcDbLine
 10
125.3793779371
 20
128.0745939457
 30
0.0
 11
126.0196691921
 21
128.0745939457
 31
0.0
  0
SPLINE
  5
1D2
330
1F
100
AcDbEntity
  8
0
  6
Continuous
 62
     7
370
    25
100
AcDbSpline
210
0.0
220
0.0
230
1.0
 70
    24
 71
     3
 72
    10
 73
     6
 74
     0
 42
0.000000001
 43
0.00000001
 40
0.0
 40
0.0
 40
0.0
 40
0.0
 40
0.5
 40
0.5
 40
1.0
 40
1.0
 40
1.0
 40
1.0
 10
114.5196231213873
 20
141.5745941617457
 30
0.0
 10
114.5196231263026
 20
141.5745941617457
 30
0.0
 10
114.4118500294224
 20
141.5745941617457
 30
0.0
 10
114.0416097757252
 20
141.5745941617457
 30
0.0
 10
113.7814224966697
 20
141.5745941617457
 30
0.0
 10
113.5196231026122
 20
141.5745941617457
 30
0.0
  0
SPLINE
  5
1D3
330
1F
100
AcDbEntity
  8
0
  6
Continuous
 62
     7
370
    25
100
AcDbSpline
210
0.0
220
0.0
230
1.0
 70
     8
 71
     3
 72
    12
 73
     8
 74
     0
 42
0.000000001
 43
0.00000001
 40
0.0
 40
0.0
 40
0.0
 40
0.0
 40
0.1664616487437876
 40
0.3330491329443992
 40
0.500193847829015
 40
0.7619811613088653
 40
1.0
 40
1.0
 40
1.0
 40
1.0
 10
113.5196231026139
 20
141.5745941617457
 30
0.0
 10
113.5016492788128
 20
141.597587846741
 30
0.0
 10
113.4656880440308
 20
141.6435925986383
 30
0.0
 10
113.4079711157486
 20
141.7091355626464
 30
0.0
 10
113.337686406422
 20
141.7835017483611
 30
0.0
 10
113.258343651674
 20
141.8627732929895
 30
0.0
 10
113.203862579654
 20
141.9148234843504
 30
0.0
 10
113.1779174778649
 20
141.9396109465446
 30
0.0
  0
SPLINE
  5
1D4
330
1F
100
AcDbEntity
  8
0
  6
Continuous
 62
     7
370
    25
100
AcDbSpline
210
0.0
220
0.0
230
1.0
 70
     8
 71
     3
 72
    14
 73
    10
 74
     0
 42
0.000000001
 43
0.00000001
 40
0.0
 40
0.0
 40
0.0
 40
0.0
 40
0.1488603139315083
 40
0.3150272282737267
 40
0.4987644934547347
 40
0.5951852632716568
 40
0.749434831581739
 40
0.879320313901446
 40
1.0
 40
1.0
 40
1.0
 40
1.0
 10
113.1779174778649
 20
141.9396109465446
 30
0.0
 10
113.193128230507
 20
141.9528543035965
 30
0.0
 10
113.2253181481436
 20
141.9808806993154
 30
0.0
 10
113.2799421587603
 20
142.0149502524427
 30
0.0
 10
113.3306478153845
 20
142.0385041416173
 30
0.0
 10
113.3806644568766
 20
142.0556332136144
 30
0.0
 10
113.4253381680564
 20
142.0664582542497
 30
0.0
 10
113.4739154399593
 20
142.0733994892257
 30
0.0
 10
113.5047650335784
 20
142.0742058123775
 30
0.0
 10
113.5196231213873
 20
142.0745941617457
 30
0.0
  0
SPLINE
  5
1D5
330
1F
100
AcDbEntity
  8
0
  6
Continuous
 62
     7
370
    25
100
AcDbSpline
210
0.0
220
0.0
230
1.0
 70
    24
 71
     3
 72
    13
 73
     9
 74
     0
 42
0.000000001
 43
0.00000001
 40
0.0
 40
0.0
 40
0.0
 40
0.0
 40
0.1847371487918729
 40
0.3690894761192522
 40
0.5535890758358414
 40
0.7381972723018706
 40
0.9224589043912812
 40
0.9999999999999999
 40
0.9999999999999999
 40
0.9999999999999999
 40
0.9999999999999999
 10
113.5196229053204
 20
142.0745943778125
 30
0.0
 10
113.6179390162703
 20
142.0745943778125
 30
0.0
 10
113.8143664382688
 20
142.0745943778125
 30
0.0
 10
114.0971746810168
 20
142.0745943778125
 30
0.0
 10
114.3590996794963
 20
142.0745943778125
 30
0.0
 10
114.5849086716199
 20
142.0745943778125
 30
0.0
 10
114.7440402749215
 20
142.0745943778125
 30
0.0
 10
114.8064523287389
 20
142.0745943778125
 30
0.0
 10
114.8249376175468
 20
142.0745943778125
 30
0.0
  0
SPLINE
  5
1D6
330
1F
100
AcDbEntity
  8
0
  6
Continuous
 62
     7
370
    25
100
AcDbSpline
210
0.0
220
0.0
230
1.0
 70
    24
 71
     3
 72
    10
 73
     6
 74
     0
 42
0.000000001
 43
0.00000001
 40
0.0
 40
0.0
 40
0.0
 40
0.0
 40
0.5
 40
0.5
 40
1.0
 40
1.0
 40
1.0
 40
1.0
 10
126.5196231213873
 20
128.5745941617457
 30
0.0
 10
126.5196231213873
 20
128.5745941617457
 30
0.0
 10
126.627396220465
 20
128.5745941617457
 30
0.0
 10
126.9976364732125
 20
128.5745941617457
 30
0.0
 10
127.257823749234
 20
128.5745941617457
 30
0.0
 10
127.5196231401624
 20
128.5745941617457
 30
0.0
  0
SPLINE
  5
1D7
330
1F
100
AcDbEntity
  8
0
  6
Continuous
 62
     7
370
    25
100
AcDbSpline
210
0.0
220
0.0
230
1.0
 70
     8
 71
     3
 72
    12
 73
     8
 74
     0
 42
0.000000001
 43
0.00000001
 40
0.0
 40
0.0
 40
0.0
 40
0.0
 40
0.1664616503807027
 40
0.3330491366093241
 40
0.5001938540683241
 40
0.7619811741357122
 40
1.0
 40
1.0
 40
1.0
 40
1.0
 10
127.5196231401607
 20
128.5745941617457
 30
0.0
 10
127.5375969639124
 20
128.5516004763423
 30
0.0
 10
127.5735581986378
 20
128.5055957235747
 30
0.0
 10
127.6312751277111
 20
128.4400527587643
 30
0.0
 10
127.7015598392035
 20
128.3656865725447
 30
0.0
 10
127.7809025936466
 20
128.2864150288852
 30
0.0
 10
127.8353836646696
 20
128.2343648379241
 30
0.0
 10
127.8613287649096
 20
128.2095773769467
 30
0.0
  0
SPLINE
  5
1D8
330
1F
100
AcDbEntity
  8
0
  6
Continuous
 62
     7
370
    25
100
AcDbSpline
210
0.0
220
0.0
230
1.0
 70
     8
 71
     3
 72
    14
 73
    10
 74
     0
 42
0.000000001
 43
0.00000001
 40
0.0
 40
0.0
 40
0.0
 40
0.0
 40
0.1488603598374869
 40
0.3150273329269794
 40
0.4987646698885773
 40
0.5951853465829806
 40
0.7494349165379153
 40
0.8793203509512854
 40
1.0
 40
1.0
 40
1.0
 40
1.0
 10
127.8613287649096
 20
128.2095773769467
 30
0.0
 10
127.8461180074893
 20
128.1963340160384
 30
0.0
 10
127.813928078974
 20
128.1683076114907
 30
0.0
 10
127.7593040478662
 20
128.1342380502818
 30
0.0
 10
127.7085983854264
 20
128.1106841648902
 30
0.0
 10
127.658581745854
 20
128.0935550988235
 30
0.0
 10
127.6139080503269
 20
128.0827300648175
 30
0.0
 10
127.5653307878493
 20
128.0757888335026
 30
0.0
 10
127.5344812046526
 20
128.0749825108742
 30
0.0
 10
127.5196231213873
 20
128.0745941617457
 30
0.0
  0
SPLINE
  5
1D9
330
1F
100
AcDbEntity
  8
0
  6
Continuous
 62
     7
370
    25
100
AcDbSpline
210
0.0
220
0.0
230
1.0
 70
    24
 71
     3
 72
    19
 73
    15
 74
     0
 42
0.000000001
 43
0.00000001
 40
0.0
 40
0.0
 40
0.0
 40
0.0
 40
0.0504323727096602
 40
0.1003565609003688
 40
0.1500822900423565
 40
0.199922985600599
 40
0.2501899225630071
 40
0.3750855037480327
 40
0.5000544104076973
 40
0.624788718511343
 40
0.7499189120354135
 40
0.8333029051590075
 40
0.916179120395655
 40
1.0
 40
1.0
 40
1.0
 40
1.0
 10
127.5196231213873
 20
128.0745941617457
 30
0.0
 10
127.4800421526828
 20
128.0745941617457
 30
0.0
 10
127.401279055036
 20
128.0745941617457
 30
0.0
 10
127.2841986127817
 20
128.0745941617457
 30
0.0
 10
127.1690352039256
 20
128.0745941617457
 30
0.0
 10
127.0557884882663
 20
128.0745941617457
 30
0.0
 10
126.8901068025465
 20
128.0745941617457
 30
0.0
 10
126.6806069986336
 20
128.0745941617457
 30
0.0
 10
126.4524378941839
 20
128.0745941617457
 30
0.0
 10
126.2640882184874
 20
128.0745941617457
 30
0.0
 10
126.1404613648598
 20
128.0745941617457
 30
0.0
 10
126.0666626353986
 20
128.0745941617457
 30
0.0
 10
126.0269315871831
 20
128.0745941617457
 30
0.0
 10
126.0220991171406
 20
128.0745941617457
 30
0.0
 10
126.0196691894325
 20
128.0745941617457
 30
0.0
  0
SPLINE
  5
1DA
330
1F
100
AcDbEntity
  8
0
  6
Continuous
 62
     7
370
    25
100
AcDbSpline
210
0.0
220
0.0
230
1.0
 70
     8
 71
     3
 72
    13
 73
     9
 74
     0
 42
0.000000001
 43
0.00000001
 40
0.0
 40
0.0
 40
0.0
 40
0.0
 40
0.1162222239446788
 40
0.2381780213507807
 40
0.3660917905398808
 40
0.5001580142687957
 40
0.7504239388759752
 40
1.0
 40
1.0
 40
1.0
 40
1.0
 10
113.1779174778649
 20
128.2095773769467
 30
0.0
 10
113.1903654884824
 20
128.2214148352769
 30
0.0
 10
113.2158756055495
 20
128.2456737274853
 30
0.0
 10
113.2573827785653
 20
128.2859598858423
 30
0.0
 10
113.3019755292708
 20
128.3301170767891
 30
0.0
 10
113.3624816125752
 20
128.3915313520826
 30
0.0
 10
113.4378853962379
 20
128.4715621540944
 30
0.0
 10
113.4924022812202
 20
128.5402817739573
 30
0.0
 10
113.5196231026139
 20
128.5745941617457
 30
0.0
  0
SPLINE
  5
1DB
330
1F
100
AcDbEntity
  8
0
  6
Continuous
 62
     7
370
    25
100
AcDbSpline
210
0.0
220
0.0
230
1.0
 70
    24
 71
     3
 72
    10
 73
     6
 74
     0
 42
0.000000001
 43
0.00000001
 40
0.0
 40
0.0
 40
0.0
 40
0.0
 40
0.5
 40
0.5
 40
1.0
 40
1.0
 40
1.0
 40
1.0
 10
113.5196231026122
 20
128.5745941617457
 30
0.0
 10
113.7814224966697
 20
128.5745941617457
 30
0.0
 10
114.0416097757252
 20
128.5745941617457
 30
0.0
 10
114.4118500294224
 20
128.5745941617457
 30
0.0
 10
114.5196231263026
 20
128.5745941617457
 30
0.0
 10
114.5196231213873
 20
128.5745941617457
 30
0.0
  0
SPLINE
  5
1DC
330
1F
100
AcDbEntity
  8
0
  6
Continuous
 62
     7
370
    25
100
AcDbSpline
210
0.0
220
0.0
230
1.0
 70
     8
 71
     3
 72
    13
 73
     9
 74
     0
 42
0.000000001
 43
0.00000001
 40
0.0
 40
0.0
 40
0.0
 40
0.0
 40
0.1206933098378984
 40
0.2506349558807637
 40
0.4049363563536673
 40
0.5013750994399903
 40
0.7702864430522399
 40
1.0
 40
1.0
 40
1.0
 40
1.0
 10
113.5196231213873
 20
128.0745941617457
 30
0.0
 10
113.5047673431954
 20
128.0749818764866
 30
0.0
 10
113.4739174367946
 20
128.0757870152895
 30
0.0
 10
113.4253422851775
 20
128.0827370271289
 30
0.0
 10
113.3806526027922
 20
128.0935273359843
 30
0.0
 10
113.3208888934504
 20
128.114147121396
 30
0.0
 10
113.2530968804028
 20
128.1466548053397
 30
0.0
 10
113.2016286080245
 20
128.1897319773428
 30
0.0
 10
113.1779174778649
 20
128.2095773769467
 30
0.0
  0
SPLINE
  5
1DD
330
1F
100
AcDbEntity
  8
0
  6
Continuous
 62
     7
370
    25
100
AcDbSpline
210
0.0
220
0.0
230
1.0
 70
    24
 71
     3
 72
    15
 73
    11
 74
     0
 42
0.000000001
 43
0.00000001
 40
0.0
 40
0.0
 40
0.0
 40
0.0
 40
0.0773540380250167
 40
0.2090383635081344
 40
0.3408278868236665
 40
0.4726949816562334
 40
0.6043145228135464
 40
0.7363516072578885
 40
0.8679155168002607
 40
1.0
 40
1.0
 40
1.0
 40
1.0
 10
115.0077310932343
 20
128.0745939456788
 30
0.0
 10
115.0039436654499
 20
128.0745939456788
 30
0.0
 10
114.9937086767384
 20
128.0745939456788
 30
0.0
 10
114.9124954180982
 20
128.0745939456788
 30
0.0
 10
114.7757183090052
 20
128.0745939456788
 30
0.0
 10
114.5869592154208
 20
128.0745939456788
 30
0.0
 10
114.3587807541514
 20
128.0745939456788
 30
0.0
 10
114.0975520282969
 20
128.0745939456788
 30
0.0
 10
113.8144450906851
 20
128.0745939456788
 30
0.0
 10
113.6180262434233
 20
128.0745939456788
 30
0.0
 10
113.5196229053204
 20
128.0745939456788
 30
0.0
  0
SPLINE
  5
1DE
330
1F
100
AcDbEntity
  8
0
  6
Continuous
 62
     7
370
    25
100
AcDbSpline
210
0.0
220
0.0
230
1.0
 70
     8
 71
     3
 72
    13
 73
     9
 74
     0
 42
0.000000001
 43
0.00000001
 40
0.0
 40
0.0
 40
0.0
 40
0.0
 40
0.1162222328345675
 40
0.2381780342187649
 40
0.3660918025068102
 40
0.5001580205070525
 40
0.7504239414864089
 40
0.9999999999999999
 40
0.9999999999999999
 40
0.9999999999999999
 40
0.9999999999999999
 10
127.8613287649096
 20
141.9396109465446
 30
0.0
 10
127.848880753302
 20
141.9277734873331
 30
0.0
 10
127.823370634779
 20
141.9035145938633
 30
0.0
 10
127.781863460068
 20
141.8632284342715
 30
0.0
 10
127.7372707094984
 20
141.8190712435084
 30
0.0
 10
127.6767646278686
 20
141.7576569686873
 30
0.0
 10
127.6013608464902
 20
141.6776261674058
 30
0.0
 10
127.5468439615756
 20
141.6089065489172
 30
0.0
 10
127.5196231401607
 20
141.5745941617457
 30
0.0
  0
SPLINE
  5
1DF
330
1F
100
AcDbEntity
  8
0
  6
Continuous
 62
     7
370
    25
100
AcDbSpline
210
0.0
220
0.0
230
1.0
 70
    24
 71
     3
 72
    10
 73
     6
 74
     0
 42
0.000000001
 43
0.00000001
 40
0.0
 40
0.0
 40
0.0
 40
0.0
 40
0.5
 40
0.5
 40
1.0
 40
1.0
 40
1.0
 40
1.0
 10
127.5196231401624
 20
141.5745941617457
 30
0.0
 10
127.257823749234
 20
141.5745941617457
 30
0.0
 10
126.9976364732125
 20
141.5745941617457
 30
0.0
 10
126.627396220465
 20
141.5745941617457
 30
0.0
 10
126.5196231213873
 20
141.5745941617457
 30
0.0
 10
126.5196231213873
 20
141.5745941617457
 30
0.0
  0
SPLINE
  5
1E0
330
1F
100
AcDbEntity
  8
0
  6
Continuous
 62
     7
370
    25
100
AcDbSpline
210
0.0
220
0.0
230
1.0
 70
     8
 71
     3
 72
    13
 73
     9
 74
     0
 42
0.000000001
 43
0.00000001
 40
0.0
 40
0.0
 40
0.0
 40
0.0
 40
0.1206933478353882
 40
0.25063504079335
 40
0.4049364375708385
 40
0.5013752757893005
 40
0.7702865166940487
 40
1.0
 40
1.0
 40
1.0
 40
1.0
 10
127.5196231213873
 20
142.0745941617457
 30
0.0
 10
127.5344789042448
 20
142.0742064467594
 30
0.0
 10
127.5653288210736
 20
142.073401307428
 30
0.0
 10
127.613903981859
 20
142.0664512919398
 30
0.0
 10
127.6585936797864
 20
142.055660976537
 30
0.0
 10
127.7183573874038
 20
142.0350411853502
 30
0.0
 10
127.7861493887503
 20
142.002533498318
 30
0.0
 10
127.8376176425325
 20
141.9594563403427
 30
0.0
 10
127.8613287649096
 20
141.9396109465446
 30
0.0
  0
SPLINE
  5
1E1
330
1F
100
AcDbEntity
  8
0
  6
Continuous
 62
     7
370
    25
100
AcDbSpline
210
0.0
220
0.0
230
1.0
 70
    24
 71
     3
 72
    15
 73
    11
 74
     0
 42
0.000000001
 43
0.00000001
 40
0.0
 40
0.0
 40
0.0
 40
0.0
 40
0.0773540380250167
 40
0.2090383635081344
 40
0.3408278868236665
 40
0.4726949816562334
 40
0.6043145228135464
 40
0.7363516072578885
 40
0.8679155168002607
 40
1.0
 40
1.0
 40
1.0
 40
1.0
 10
126.0315151495402
 20
142.0745943778125
 30
0.0
 10
126.0353025773247
 20
142.0745943778125
 30
0.0
 10
126.0455375660361
 20
142.0745943778125
 30
0.0
 10
126.1267508246764
 20
142.0745943778125
 30
0.0
 10
126.2635279337694
 20
142.0745943778125
 30
0.0
 10
126.4522870273537
 20
142.0745943778125
 30
0.0
 10
126.6804654886231
 20
142.0745943778125
 30
0.0
 10
126.9416942144776
 20
142.0745943778125
 30
0.0
 10
127.2248011520895
 20
142.0745943778125
 30
0.0
 10
127.4212199993513
 20
142.0745943778125
 30
0.0
 10
127.5196233374541
 20
142.0745943778125
 30
0.0
  0
SPLINE
  5
1E2
330
1F
100
AcDbEntity
  8
0
  6
Continuous
 62
     7
370
    25
100
AcDbSpline
210
0.0
220
0.0
230
1.0
 70
     8
 71
     3
 72
    13
 73
     9
 74
     0
 42
0.000000001
 43
0.00000001
 40
0.0
 40
0.0
 40
0.0
 40
0.0
 40
0.1856794033212272
 40
0.3634611737568169
 40
0.533542336720674
 40
0.6961479207300177
 40
0.8515354443703902
 40
1.0
 40
1.0
 40
1.0
 40
1.0
 10
112.6751663039296
 20
128.5080120979875
 30
0.0
 10
112.6588379980864
 20
128.5335510421074
 30
0.0
 10
112.626875889737
 20
128.5835426644428
 30
0.0
 10
112.588157036505
 20
128.6650179072913
 30
0.0
 10
112.5576029574173
 20
128.7483427912099
 30
0.0
 10
112.5359862205082
 20
128.8335102580874
 30
0.0
 10
112.5222785260194
 20
128.9193470213351
 30
0.0
 10
112.5204947087628
 20
128.9788525956454
 30
0.0
 10
112.5196231213873
 20
129.007927495079
 30
0.0
  0
SPLINE
  5
1E3
330
1F
100
AcDbEntity
  8
0
  6
Continuous
 62
     7
370
    25
100
AcDbSpline
210
0.0
220
0.0
230
1.0
 70
     8
 71
     3
 72
    17
 73
    13
 74
     0
 42
0.000000001
 43
0.00000001
 40
0.0
 40
0.0
 40
0.0
 40
0.0
 40
0.1130667886658668
 40
0.2142471894553318
 40
0.3035410226158834
 40
0.3809482842621089
 40
0.4464692357998273
 40
0.5001045924259258
 40
0.6375226532033567
 40
0.75004211245356
 40
0.8820380142920121
 40
1.0
 40
1.0
 40
1.0
 40
1.0
 10
113.0196231213873
 20
128.0745941617457
 30
0.0
 10
113.0093934952833
 20
128.0756716444354
 30
0.0
 10
112.9900096543888
 20
128.0777133371437
 30
0.0
 10
112.962115409831
 20
128.0928787588414
 30
0.0
 10
112.9371226021335
 20
128.1131400044094
 30
0.0
 10
112.9149932045995
 20
128.136490755974
 30
0.0
 10
112.8957933778731
 20
128.1603112820049
 30
0.0
 10
112.8696116125201
 20
128.1958287216465
 30
0.0
 10
112.8366300709291
 20
128.2461380145224
 30
0.0
 10
112.7910357965149
 20
128.3231244928593
 30
0.0
 10
112.741127139836
 20
128.4075650728926
 30
0.0
 10
112.6963145803564
 20
128.475806904955
 30
0.0
 10
112.6751663039296
 20
128.5080120979875
 30
0.0
  0
SPLINE
  5
1E4
330
1F
100
AcDbEntity
  8
0
  6
Continuous
 62
     7
370
    25
100
AcDbSpline
210
0.0
220
0.0
230
1.0
 70
     8
 71
     3
 72
    14
 73
    10
 74
     0
 42
0.000000001
 43
0.00000001
 40
0.0
 40
0.0
 40
0.0
 40
0.0
 40
0.0771019312872794
 40
0.1604220744063169
 40
0.2500134455684252
 40
0.3625277428809286
 40
0.4999872826729911
 40
0.6965319256112464
 40
1.0
 40
1.0
 40
1.0
 40
1.0
 10
128.364079938845
 20
128.5080120979875
 30
0.0
 10
128.3499506619379
 20
128.48674737267
 30
0.0
 10
128.3205525927397
 20
128.4425029381899
 30
0.0
 10
128.2820346965273
 20
128.3798441971062
 30
0.0
 10
128.2429721700424
 20
128.3144706734927
 30
0.0
 10
128.2026916636488
 20
128.2461253662464
 30
0.0
 10
128.154032969291
 20
128.1724626480597
 30
0.0
 10
128.0925981298406
 20
128.0946997224781
 30
0.0
 10
128.0471851807696
 20
128.0821878663655
 30
0.0
 10
128.0196231213873
 20
128.0745941617457
 30
0.0
  0
SPLINE
  5
1E5
330
1F
100
AcDbEntity
  8
0
  6
Continuous
 62
     7
370
    25
100
AcDbSpline
210
0.0
220
0.0
230
1.0
 70
     8
 71
     3
 72
    13
 73
     9
 74
     0
 42
0.000000001
 43
0.00000001
 40
0.0
 40
0.0
 40
0.0
 40
0.0
 40
0.1484645556295969
 40
0.303852079269964
 40
0.4664576632793
 40
0.6365388262431574
 40
0.814320596678755
 40
1.0
 40
1.0
 40
1.0
 40
1.0
 10
128.5196231213873
 20
129.007927495079
 30
0.0
 10
128.5187515340117
 20
128.9788525956454
 30
0.0
 10
128.5169677167551
 20
128.9193470213351
 30
0.0
 10
128.5032600222664
 20
128.8335102580874
 30
0.0
 10
128.4816432853572
 20
128.7483427912099
 30
0.0
 10
128.4510892062695
 20
128.6650179072913
 30
0.0
 10
128.4123703530376
 20
128.5835426644428
 30
0.0
 10
128.3804082446881
 20
128.5335510421074
 30
0.0
 10
128.364079938845
 20
128.5080120979875
 30
0.0
  0
LINE
  5
1E6
330
1F
100
AcDbEntity
  8
0
  6
Continuous
 62
     7
370
    25
100
AcDbLine
 10
128.5196235014
 20
130.3155092628
 30
0.0
 11
128.5196235014
 21
129.0079277114
 31
0.0
  0
SPLINE
  5
1E7
330
1F
100
AcDbEntity
  8
0
  6
Continuous
 62
     7
370
    25
100
AcDbSpline
210
0.0
220
0.0
230
1.0
 70
     8
 71
     3
 72
    13
 73
     9
 74
     0
 42
0.000000001
 43
0.00000001
 40
0.0
 40
0.0
 40
0.0
 40
0.0
 40
0.1257153360577753
 40
0.250986709269415
 40
0.3762164861937409
 40
0.5018074329537138
 40
0.7521854029755236
 40
1.0
 40
1.0
 40
1.0
 40
1.0
 10
128.3012674948318
 20
131.0331422774183
 30
0.0
 10
128.3184617720031
 20
131.0036000595895
 30
0.0
 10
128.352789604874
 20
130.9446199520714
 30
0.0
 10
128.3963591531092
 20
130.8547020645718
 30
0.0
 10
128.4339669567539
 20
130.7641595295628
 30
0.0
 10
128.4749902343349
 20
130.6430491674218
 30
0.0
 10
128.5115187890896
 20
130.4919253584822
 30
0.0
 10
128.5169309597845
 20
130.3741125785944
 30
0.0
 10
128.5196231213873
 20
130.3155092823924
 30
0.0
  0
SPLINE
  5
1E8
330
1F
100
AcDbEntity
  8
0
  6
Continuous
 62
     7
370
    25
100
AcDbSpline
210
0.0
220
0.0
230
1.0
 70
     8
 71
     3
 72
    13
 73
     9
 74
     0
 42
0.000000001
 43
0.00000001
 40
0.0
 40
0.0
 40
0.0
 40
0.0
 40
0.123837116045566
 40
0.2479023030231072
 40
0.3726214666345097
 40
0.4984138700895106
 40
0.7490979627897992
 40
1.0
 40
1.0
 40
1.0
 40
1.0
 10
128.5196231213873
 20
139.8336790410989
 30
0.0
 10
128.518951603795
 20
139.8045383843046
 30
0.0
 10
128.5176073318759
 20
139.7462034023411
 30
0.0
 10
128.5067055218499
 20
139.6571180695513
 30
0.0
 10
128.4893440844277
 20
139.5669547278881
 30
0.0
 10
128.4566567990606
 20
139.445874907626
 30
0.0
 10
128.4007716715807
 20
139.2937938553412
 30
0.0
 10
128.334445160273
 20
139.1753124763023
 30
0.0
 10
128.3012674948318
 20
139.1160460460731
 30
0.0
  0
LINE
  5
1E9
330
1F
100
AcDbEntity
  8
0
  6
Continuous
 62
     7
370
    25
100
AcDbLine
 10
128.5196235014
 20
141.1412606121
 30
0.0
 11
128.5196235014
 21
139.8336790607
 31
0.0
  0
SPLINE
  5
1EA
330
1F
100
AcDbEntity
  8
0
  6
Continuous
 62
     7
370
    25
100
AcDbSpline
210
0.0
220
0.0
230
1.0
 70
     8
 71
     3
 72
    13
 73
     9
 74
     0
 42
0.000000001
 43
0.00000001
 40
0.0
 40
0.0
 40
0.0
 40
0.0
 40
0.1856794033212442
 40
0.3634611737568403
 40
0.5335423367206995
 40
0.6961479207300372
 40
0.8515354443704025
 40
0.9999999999999999
 40
0.9999999999999999
 40
0.9999999999999999
 40
0.9999999999999999
 10
128.364079938845
 20
141.6411762255038
 30
0.0
 10
128.3804082446881
 20
141.615637281384
 30
0.0
 10
128.4123703530376
 20
141.5656456590485
 30
0.0
 10
128.4510892062695
 20
141.4841704162
 30
0.0
 10
128.4816432853572
 20
141.4008455322815
 30
0.0
 10
128.5032600222664
 20
141.3156780654039
 30
0.0
 10
128.5169677167551
 20
141.2298413021563
 30
0.0
 10
128.5187515340117
 20
141.1703357278459
 30
0.0
 10
128.5196231213873
 20
141.1412608284123
 30
0.0
  0
SPLINE
  5
1EB
330
1F
100
AcDbEntity
  8
0
  6
Continuous
 62
     7
370
    25
100
AcDbSpline
210
0.0
220
0.0
230
1.0
 70
     8
 71
     3
 72
    16
 73
    12
 74
     0
 42
0.000000001
 43
0.00000001
 40
0.0
 40
0.0
 40
0.0
 40
0.0
 40
0.1113707238457123
 40
0.2115306831336734
 40
0.3004797812258395
 40
0.3782180942859685
 40
0.4447459579759641
 40
0.500064141985791
 40
0.7004020768506897
 40
0.8669907153164842
 40
1.0
 40
1.0
 40
1.0
 40
1.0
 10
128.0196231213873
 20
142.0745941617457
 30
0.0
 10
128.0297008002147
 20
142.073548518307
 30
0.0
 10
128.0488417217528
 20
142.0715624876587
 30
0.0
 10
128.0764874394672
 20
142.0567549304691
 30
0.0
 10
128.1014362278649
 20
142.0368001215377
 30
0.0
 10
128.1237173611049
 20
142.0135536395588
 30
0.0
 10
128.1432964839264
 20
141.9894968921986
 30
0.0
 10
128.1761842042951
 20
141.9450175805221
 30
0.0
 10
128.2240628615418
 20
141.8708941871613
 30
0.0
 10
128.2885762207002
 20
141.7588802545714
 30
0.0
 10
128.340865587906
 20
141.6773654716079
 30
0.0
 10
128.364079938845
 20
141.6411762255038
 30
0.0
  0
SPLINE
  5
1EC
330
1F
100
AcDbEntity
  8
0
  6
Continuous
 62
     7
370
    25
100
AcDbSpline
210
0.0
220
0.0
230
1.0
 70
     8
 71
     3
 72
    14
 73
    10
 74
     0
 42
0.000000001
 43
0.00000001
 40
0.0
 40
0.0
 40
0.0
 40
0.0
 40
0.0771019312877576
 40
0.1604220744066402
 40
0.250013445567957
 40
0.3625277428349449
 40
0.4999872826724504
 40
0.6965319246666456
 40
1.0
 40
1.0
 40
1.0
 40
1.0
 10
112.6751663039296
 20
141.6411762255038
 30
0.0
 10
112.6892955808368
 20
141.6624409508215
 30
0.0
 10
112.7186936500352
 20
141.7066853853015
 30
0.0
 10
112.7572115462477
 20
141.7693441263851
 30
0.0
 10
112.7962740727284
 20
141.8347176499879
 30
0.0
 10
112.8365545791179
 20
141.9030629572363
 30
0.0
 10
112.8852132733859
 20
141.9767256752696
 30
0.0
 10
112.9466481128035
 20
142.0544886009374
 30
0.0
 10
112.9920610619023
 20
142.0670004570825
 30
0.0
 10
113.0196231213873
 20
142.0745941617457
 30
0.0
  0
SPLINE
  5
1ED
330
1F
100
AcDbEntity
  8
0
  6
Continuous
 62
     7
370
    25
100
AcDbSpline
210
0.0
220
0.0
230
1.0
 70
     8
 71
     3
 72
    13
 73
     9
 74
     0
 42
0.000000001
 43
0.00000001
 40
0.0
 40
0.0
 40
0.0
 40
0.0
 40
0.1484645556296106
 40
0.3038520792699841
 40
0.4664576632793244
 40
0.6365388262431811
 40
0.8143205966787692
 40
1.0
 40
1.0
 40
1.0
 40
1.0
 10
112.5196231213873
 20
141.1412608284123
 30
0.0
 10
112.5204947087628
 20
141.1703357278459
 30
0.0
 10
112.5222785260194
 20
141.2298413021563
 30
0.0
 10
112.5359862205082
 20
141.3156780654039
 30
0.0
 10
112.5576029574173
 20
141.4008455322815
 30
0.0
 10
112.588157036505
 20
141.4841704162
 30
0.0
 10
112.626875889737
 20
141.5656456590485
 30
0.0
 10
112.6588379980864
 20
141.615637281384
 30
0.0
 10
112.6751663039296
 20
141.6411762255038
 30
0.0
  0
LINE
  5
1EE
330
1F
100
AcDbEntity
  8
0
  6
Continuous
 62
     7
370
    25
100
AcDbLine
 10
112.5196227414
 20
139.8336790607
 30
0.0
 11
112.5196227414
 21
141.1412606121
 31
0.0
  0
SPLINE
  5
1EF
330
1F
100
AcDbEntity
  8
0
  6
Continuous
 62
     7
370
    25
100
AcDbSpline
210
0.0
220
0.0
230
1.0
 70
     8
 71
     3
 72
    13
 73
     9
 74
     0
 42
0.000000001
 43
0.00000001
 40
0.0
 40
0.0
 40
0.0
 40
0.0
 40
0.1257153360569889
 40
0.2509867092683644
 40
0.3762164861929509
 40
0.5018074329536976
 40
0.7521854029745006
 40
1.0
 40
1.0
 40
1.0
 40
1.0
 10
112.7379787479428
 20
139.1160460460731
 30
0.0
 10
112.7207844707716
 20
139.1455882639016
 30
0.0
 10
112.6864566379008
 20
139.2045683714195
 30
0.0
 10
112.6428870896658
 20
139.294486258919
 30
0.0
 10
112.605279286021
 20
139.3850287939281
 30
0.0
 10
112.5642560084398
 20
139.5061391560691
 30
0.0
 10
112.5277274536848
 20
139.6572629650089
 30
0.0
 10
112.52231528299
 20
139.7750757448967
 30
0.0
 10
112.5196231213873
 20
139.8336790410989
 30
0.0
  0
SPLINE
  5
1F0
330
1F
100
AcDbEntity
  8
0
  6
Continuous
 62
     7
370
    25
100
AcDbSpline
210
0.0
220
0.0
230
1.0
 70
     8
 71
     3
 72
    13
 73
     9
 74
     0
 42
0.000000001
 43
0.00000001
 40
0.0
 40
0.0
 40
0.0
 40
0.0
 40
0.123835855545221
 40
0.2479006248871513
 40
0.3726202178325717
 40
0.4984138930967346
 40
0.7490996844582696
 40
1.0
 40
1.0
 40
1.0
 40
1.0
 10
112.5196231213873
 20
130.3155092823924
 30
0.0
 10
112.5202946527037
 20
130.3446496361396
 30
0.0
 10
112.5216389566795
 20
130.4029842103353
 30
0.0
 10
112.5325409403299
 20
130.4920691990976
 30
0.0
 10
112.5499026239423
 20
130.5822327955626
 30
0.0
 10
112.5825902653754
 20
130.7033133775221
 30
0.0
 10
112.6384750662999
 20
130.8553948096061
 30
0.0
 10
112.7048013983228
 20
130.9738762303102
 30
0.0
 10
112.7379787479428
 20
131.0331422774183
 30
0.0
  0
LINE
  5
1F1
330
1F
100
AcDbEntity
  8
0
  6
Continuous
 62
     7
370
    25
100
AcDbLine
 10
112.5196227414
 20
129.0079277114
 30
0.0
 11
112.5196227414
 21
130.3155092628
 31
0.0
  0
SPLINE
  5
1F2
330
1F
100
AcDbEntity
  8
0
  6
Continuous
 62
     7
370
    25
100
AcDbSpline
210
0.0
220
0.0
230
1.0
 70
     8
 71
     3
 72
     9
 73
     5
 74
     0
 42
0.000000001
 43
0.00000001
 40
0.0
 40
0.0
 40
0.0
 40
0.0
 40
0.5
 40
1.0
 40
1.0
 40
1.0
 40
1.0
 10
112.7379787479428
 20
139.1160460460731
 30
0.0
 10
112.8164256778975
 20
139.1455549577857
 30
0.0
 10
112.9732208989855
 20
139.2309629808477
 30
0.0
 10
113.0888503603991
 20
139.3467774946833
 30
0.0
 10
113.1288009346651
 20
139.4047211806678
 30
0.0
  0
SPLINE
  5
1F3
330
1F
100
AcDbEntity
  8
0
  6
Continuous
 62
     7
370
    25
100
AcDbSpline
210
0.0
220
0.0
230
1.0
 70
     8
 71
     3
 72
     8
 73
     4
 74
     0
 42
0.000000001
 43
0.00000001
 40
0.0
 40
0.0
 40
0.0
 40
0.0
 40
1.0
 40
1.0
 40
1.0
 40
1.0
 10
128.3012674948318
 20
139.1160460460731
 30
0.0
 10
128.1443736349224
 20
139.1750638694984
 30
0.0
 10
127.9903464566413
 20
139.2888338086988
 30
0.0
 10
127.9104453081095
 20
139.4047211806679
 30
0.0
  0
SPLINE
  5
1F4
330
1F
100
AcDbEntity
  8
0
  6
Continuous
 62
     7
370
    25
100
AcDbSpline
210
0.0
220
0.0
230
1.0
 70
     8
 71
     3
 72
     9
 73
     5
 74
     0
 42
0.000000001
 43
0.00000001
 40
0.0
 40
0.0
 40
0.0
 40
0.0
 40
0.5
 40
1.0
 40
1.0
 40
1.0
 40
1.0
 10
113.1288009346651
 20
130.7444671428235
 30
0.0
 10
113.0888503603991
 20
130.802410828808
 30
0.0
 10
112.9732208989855
 20
130.9182253426436
 30
0.0
 10
112.8164256778975
 20
131.0036333657056
 30
0.0
 10
112.7379787479428
 20
131.0331422774183
 30
0.0
  0
SPLINE
  5
1F5
330
1F
100
AcDbEntity
  8
0
  6
Continuous
 62
     7
370
    25
100
AcDbSpline
210
0.0
220
0.0
230
1.0
 70
     8
 71
     3
 72
     9
 73
     5
 74
     0
 42
0.000000001
 43
0.00000001
 40
0.0
 40
0.0
 40
0.0
 40
0.0
 40
0.5
 40
1.0
 40
1.0
 40
1.0
 40
1.0
 10
128.3012674948318
 20
131.0331422774183
 30
0.0
 10
128.2228205648771
 20
131.0036333657056
 30
0.0
 10
128.0660253437891
 20
130.9182253426436
 30
0.0
 10
127.9503958823754
 20
130.802410828808
 30
0.0
 10
127.9104453081095
 20
130.7444671428235
 30
0.0
  0
LINE
  5
1F6
330
1F
100
AcDbEntity
  8
0
  6
Continuous
 62
     7
370
    25
100
AcDbLine
 10
128.0196229537
 20
140.1736136631
 30
0.0
 11
128.0196229537
 21
141.5745942959
 31
0.0
  0
SPLINE
  5
1F7
330
1F
100
AcDbEntity
  8
0
  6
Continuous
 62
     7
370
    25
100
AcDbSpline
210
0.0
220
0.0
230
1.0
 70
     8
 71
     3
 72
    11
 73
     7
 74
     0
 42
0.000000001
 43
0.00000001
 40
0.0
 40
0.0
 40
0.0
 40
0.0
 40
0.1998756938242405
 40
0.5008842154834765
 40
0.7872132636300052
 40
1.0
 40
1.0
 40
1.0
 40
1.0
 10
127.9104453081095
 20
139.4047211806679
 30
0.0
 10
127.9238762771221
 20
139.4558340695156
 30
0.0
 10
127.9575339983204
 20
139.5839218762008
 30
0.0
 10
127.9933448662739
 20
139.7864649531876
 30
0.0
 10
128.0159888879182
 20
139.9922116272938
 30
0.0
 10
128.0185368537363
 20
140.1193928394209
 30
0.0
 10
128.0196231213873
 20
140.1736136753385
 30
0.0
  0
ARC
  5
1F8
330
1F
100
AcDbEntity
  8
0
  6
Continuous
 62
     7
370
    25
100
AcDbCircle
 10
127.5196231214
 20
141.5745941617
 30
0.0
 40
0.5000000000000142
100
AcDbArc
 50
0.0
 51
46.8892083855
  0
LINE
  5
1F9
330
1F
100
AcDbEntity
  8
0
  6
Continuous
 62
     7
370
    25
100
AcDbLine
 10
113.019623289
 20
129.9755746604
 30
0.0
 11
113.019623289
 21
128.5745940276
 31
0.0
  0
SPLINE
  5
1FA
330
1F
100
AcDbEntity
  8
0
  6
Continuous
 62
     7
370
    25
100
AcDbSpline
210
0.0
220
0.0
230
1.0
 70
     8
 71
     3
 72
    11
 73
     7
 74
     0
 42
0.000000001
 43
0.00000001
 40
0.0
 40
0.0
 40
0.0
 40
0.0
 40
0.1998734112540359
 40
0.500884202933325
 40
0.7872151654670749
 40
1.0
 40
1.0
 40
1.0
 40
1.0
 10
113.1288009346651
 20
130.7444671428235
 30
0.0
 10
113.1153701159129
 20
130.6933548344901
 30
0.0
 10
113.0817123877378
 20
130.5652670230147
 30
0.0
 10
113.0459013422901
 20
130.3627234771342
 30
0.0
 10
113.0232573122156
 20
130.1569762292668
 30
0.0
 10
113.0207093694671
 20
130.0297950037868
 30
0.0
 10
113.0196231213873
 20
129.9755746481529
 30
0.0
  0
ARC
  5
1FB
330
1F
100
AcDbEntity
  8
0
  6
Continuous
 62
     7
370
    25
100
AcDbCircle
 10
113.5196231214
 20
128.5745941617
 30
0.0
 40
0.5
100
AcDbArc
 50
180.0
 51
226.8892083855
  0
SPLINE
  5
1FC
330
1F
100
AcDbEntity
  8
0
  6
Continuous
 62
     7
370
    25
100
AcDbSpline
210
0.0
220
0.0
230
1.0
 70
     8
 71
     3
 72
    12
 73
     8
 74
     0
 42
0.000000001
 43
0.00000001
 40
0.0
 40
0.0
 40
0.0
 40
0.0
 40
0.1336874390793356
 40
0.3000652536961946
 40
0.4991448923272561
 40
0.8001431782005175
 40
1.0
 40
1.0
 40
1.0
 40
1.0
 10
113.0196231213873
 20
140.1736136753385
 30
0.0
 10
113.0200564472208
 20
140.1395905865846
 30
0.0
 10
113.0210290593606
 20
140.0632247976312
 30
0.0
 10
113.0297700495148
 20
139.9353134747848
 30
0.0
 10
113.049657933348
 20
139.7640648185993
 30
0.0
 10
113.0817512003404
 20
139.5839114837596
 30
0.0
 10
113.1153814252017
 20
139.4558297788905
 30
0.0
 10
113.128800934665
 20
139.4047211806678
 30
0.0
  0
LINE
  5
1FD
330
1F
100
AcDbEntity
  8
0
  6
Continuous
 62
     7
370
    25
100
AcDbLine
 10
113.019623289
 20
141.5745942959
 30
0.0
 11
113.019623289
 21
140.1736136631
 31
0.0
  0
ARC
  5
1FE
330
1F
100
AcDbEntity
  8
0
  6
Continuous
 62
     7
370
    25
100
AcDbCircle
 10
113.5196231214
 20
141.5745941617
 30
0.0
 40
0.5
100
AcDbArc
 50
133.1107916145
 51
180.0
  0
SPLINE
  5
1FF
330
1F
100
AcDbEntity
  8
0
  6
Continuous
 62
     7
370
    25
100
AcDbSpline
210
0.0
220
0.0
230
1.0
 70
     8
 71
     3
 72
    12
 73
     8
 74
     0
 42
0.000000001
 43
0.00000001
 40
0.0
 40
0.0
 40
0.0
 40
0.0
 40
0.1336874390379308
 40
0.3000652536547861
 40
0.4991448923272269
 40
0.8001431782741747
 40
1.0
 40
1.0
 40
1.0
 40
1.0
 10
128.0196231213873
 20
129.9755746481529
 30
0.0
 10
128.019189795554
 20
130.0095977368962
 30
0.0
 10
128.0182171834147
 20
130.0859635258392
 30
0.0
 10
128.0094761932622
 20
130.2138748486857
 30
0.0
 10
127.9895883094263
 20
130.3851235049002
 30
0.0
 10
127.9574950424295
 20
130.5652768397502
 30
0.0
 10
127.923864817568
 20
130.6933585446196
 30
0.0
 10
127.9104453081095
 20
130.7444671428235
 30
0.0
  0
LINE
  5
200
330
1F
100
AcDbEntity
  8
0
  6
Continuous
 62
     7
370
    25
100
AcDbLine
 10
128.0196229537
 20
128.5745940276
 30
0.0
 11
128.0196229537
 21
129.9755746604
 31
0.0
  0
ARC
  5
201
330
1F
100
AcDbEntity
  8
0
  6
Continuous
 62
     7
370
    25
100
AcDbCircle
 10
127.5196231214
 20
128.5745941617
 30
0.0
 40
0.5000000000000142
100
AcDbArc
 50
313.1107916145
 51
0.0
  0
SPLINE
  5
202
330
1F
100
AcDbEntity
  8
0
  6
Continuous
 62
     7
370
    25
100
AcDbSpline
210
0.0
220
0.0
230
1.0
 70
     8
 71
     3
 72
     9
 73
     5
 74
     0
 42
0.000000001
 43
0.00000001
 40
0.0
 40
0.0
 40
0.0
 40
0.0
 40
0.5
 40
1.0
 40
1.0
 40
1.0
 40
1.0
 10
113.0196231213873
 20
140.1736136753385
 30
0.0
 10
113.0196231213873
 20
140.0846189962028
 30
0.0
 10
112.9113364667416
 20
139.9072998097789
 30
0.0
 10
112.6505228152869
 20
139.8336790410989
 30
0.0
 10
112.5196231213873
 20
139.8336790410989
 30
0.0
  0
SPLINE
  5
203
330
1F
100
AcDbEntity
  8
0
  6
Continuous
 62
     7
370
    25
100
AcDbSpline
210
0.0
220
0.0
230
1.0
 70
     8
 71
     3
 72
     9
 73
     5
 74
     0
 42
0.000000001
 43
0.00000001
 40
0.0
 40
0.0
 40
0.0
 40
0.0
 40
0.5
 40
1.0
 40
1.0
 40
1.0
 40
1.0
 10
128.5196231213873
 20
139.8336790410989
 30
0.0
 10
128.3887234274877
 20
139.8336790410989
 30
0.0
 10
128.1279097760329
 20
139.9072998097789
 30
0.0
 10
128.0196231213873
 20
140.0846189962028
 30
0.0
 10
128.0196231213873
 20
140.1736136753385
 30
0.0
  0
SPLINE
  5
204
330
1F
100
AcDbEntity
  8
0
  6
Continuous
 62
     7
370
    25
100
AcDbSpline
210
0.0
220
0.0
230
1.0
 70
     8
 71
     3
 72
     9
 73
     5
 74
     0
 42
0.000000001
 43
0.00000001
 40
0.0
 40
0.0
 40
0.0
 40
0.0
 40
0.5
 40
1.0
 40
1.0
 40
1.0
 40
1.0
 10
112.5196231213873
 20
130.3155092823924
 30
0.0
 10
112.6505228152869
 20
130.3155092823924
 30
0.0
 10
112.9113364667416
 20
130.2418885137124
 30
0.0
 10
113.0196231213873
 20
130.0645693272885
 30
0.0
 10
113.0196231213873
 20
129.9755746481529
 30
0.0
  0
SPLINE
  5
205
330
1F
100
AcDbEntity
  8
0
  6
Continuous
 62
     7
370
    25
100
AcDbSpline
210
0.0
220
0.0
230
1.0
 70
     8
 71
     3
 72
     9
 73
     5
 74
     0
 42
0.000000001
 43
0.00000001
 40
0.0
 40
0.0
 40
0.0
 40
0.0
 40
0.5
 40
1.0
 40
1.0
 40
1.0
 40
1.0
 10
128.0196231213873
 20
129.9755746481529
 30
0.0
 10
128.0196231213873
 20
130.0645693272885
 30
0.0
 10
128.1279097760329
 20
130.2418885137124
 30
0.0
 10
128.3887234274877
 20
130.3155092823924
 30
0.0
 10
128.5196231213873
 20
130.3155092823924
 30
0.0
  0
SPLINE
  5
206
330
1F
100
AcDbEntity
  8
0
  6
Continuous
 62
     7
370
    25
100
AcDbSpline
210
0.0
220
0.0
230
1.0
 70
     8
 71
     3
 72
     9
 73
     5
 74
     0
 42
0.000000001
 43
0.00000001
 40
0.0
 40
0.0
 40
0.0
 40
0.0
 40
0.5
 40
1.0
 40
1.0
 40
1.0
 40
1.0
 10
128.0196231213873
 20
141.5745941617457
 30
0.0
 10
128.0196231213873
 20
141.461147760366
 30
0.0
 10
128.1279069915722
 20
141.2351068492393
 30
0.0
 10
128.3887234274877
 20
141.1412608284123
 30
0.0
 10
128.5196231213873
 20
141.1412608284123
 30
0.0
  0
SPLINE
  5
207
330
1F
100
AcDbEntity
  8
0
  6
Continuous
 62
     7
370
    25
100
AcDbSpline
210
0.0
220
0.0
230
1.0
 70
     8
 71
     3
 72
     9
 73
     5
 74
     0
 42
0.000000001
 43
0.00000001
 40
0.0
 40
0.0
 40
0.0
 40
0.0
 40
0.5
 40
1.0
 40
1.0
 40
1.0
 40
1.0
 10
113.0196231213873
 20
128.5745941617457
 30
0.0
 10
113.0196231213873
 20
128.6880405631253
 30
0.0
 10
112.9113392512023
 20
128.914081474252
 30
0.0
 10
112.6505228152869
 20
129.007927495079
 30
0.0
 10
112.5196231213873
 20
129.007927495079
 30
0.0
  0
SPLINE
  5
208
330
1F
100
AcDbEntity
  8
0
  6
Continuous
 62
     7
370
    25
100
AcDbSpline
210
0.0
220
0.0
230
1.0
 70
     8
 71
     3
 72
     9
 73
     5
 74
     0
 42
0.000000001
 43
0.00000001
 40
0.0
 40
0.0
 40
0.0
 40
0.0
 40
0.5
 40
1.0
 40
1.0
 40
1.0
 40
1.0
 10
112.5196231213873
 20
141.1412608284123
 30
0.0
 10
112.6505228152869
 20
141.1412608284123
 30
0.0
 10
112.9113392512023
 20
141.2351068492393
 30
0.0
 10
113.0196231213873
 20
141.461147760366
 30
0.0
 10
113.0196231213873
 20
141.5745941617457
 30
0.0
  0
SPLINE
  5
209
330
1F
100
AcDbEntity
  8
0
  6
Continuous
 62
     7
370
    25
100
AcDbSpline
210
0.0
220
0.0
230
1.0
 70
     8
 71
     3
 72
     9
 73
     5
 74
     0
 42
0.000000001
 43
0.00000001
 40
0.0
 40
0.0
 40
0.0
 40
0.0
 40
0.5
 40
1.0
 40
1.0
 40
1.0
 40
1.0
 10
128.5196231213873
 20
129.007927495079
 30
0.0
 10
128.3887234274877
 20
129.007927495079
 30
0.0
 10
128.1279069915722
 20
128.914081474252
 30
0.0
 10
128.0196231213873
 20
128.6880405631253
 30
0.0
 10
128.0196231213873
 20
128.5745941617457
 30
0.0
  0
SPLINE
  5
20A
330
1F
100
AcDbEntity
  8
0
  6
Continuous
 62
     7
370
    25
100
AcDbSpline
210
0.0
220
0.0
230
1.0
 70
    11
 71
     3
 72
    62
 73
    58
 74
     0
 42
0.000000001
 43
0.00000001
 40
0.0
 40
0.0
 40
0.0
 40
0.0
 40
0.0000024013082914
 40
0.0000024013082914
 40
0.0000024013082914
 40
0.0000048026551412
 40
0.0000048026551412
 40
0.0000048026551412
 40
0.0000072061362032
 40
0.0000072061362032
 40
0.0000072061362032
 40
0.0000096130654138
 40
0.0000096130654138
 40
0.0000096130654138
 40
0.0000120232471942
 40
0.0000120232471942
 40
0.0000120232471942
 40
0.0000144350683866
 40
0.0000144350683866
 40
0.0000144350683866
 40
0.0000168461991568
 40
0.0000168461991568
 40
0.0000168461991568
 40
0.0000192546050379
 40
0.0000192546050379
 40
0.0000192546050379
 40
0.0000216594407582
 40
0.0000216594407582
 40
0.0000216594407582
 40
0.0000240614307699
 40
0.0000240614307699
 40
0.0000240614307699
 40
0.0000264625538067
 40
0.0000264625538067
 40
0.0000264625538067
 40
0.0000288651665672
 40
0.0000288651665672
 40
0.0000288651665672
 40
0.0000312709649252
 40
0.0000312709649252
 40
0.0000312709649252
 40
0.0000336802470484
 40
0.0000336802470484
 40
0.0000336802470484
 40
0.0000360917914832
 40
0.0000360917914832
 40
0.0000360917914832
 40
0.0000385033900986
 40
0.0000385033900986
 40
0.0000385033900986
 40
0.0000409128058757
 40
0.0000409128058757
 40
0.0000409128058757
 40
0.0000433187512944
 40
0.0000433187512944
 40
0.0000433187512944
 40
0.0000448099175606
 40
0.0000448099175606
 40
0.0000448099175606
 40
0.0000448099175606
 10
120.5196149084717
 20
135.0674219119309
 30
0.0
 10
120.5204153440409
 20
135.0674209926119
 30
0.0
 10
120.5212269700467
 20
135.0675582814336
 30
0.0
 10
120.5219825934597
 20
135.0678223477197
 30
0.0
 10
120.5227382418021
 20
135.0680864227178
 30
0.0
 10
120.5234587024536
 20
135.0684845431724
 30
0.0
 10
120.5240845019233
 20
135.0689836571426
 30
0.0
 10
120.5247108589004
 20
135.0694832157596
 30
0.0
 10
120.5252596375573
 20
135.0700976857119
 30
0.0
 10
120.5256856663546
 20
135.070776199831
 30
0.0
 10
120.5261122998046
 20
135.0714556769492
 30
0.0
 10
120.5264275896215
 20
135.0722180812909
 30
0.0
 10
120.5266056215248
 20
135.0730003921113
 30
0.0
 10
120.5267838893718
 20
135.0737837397203
 30
0.0
 10
120.5268294482155
 20
135.074608634231
 30
0.0
 10
120.5267385513974
 20
135.0754068514579
 30
0.0
 10
120.5266475950609
 20
135.0762055913502
 30
0.0
 10
120.526417483948
 20
135.0769996592989
 30
0.0
 10
120.5260671862697
 20
135.0777232266511
 30
0.0
 10
120.5257169936902
 20
135.0784465769139
 30
0.0
 10
120.5252369970616
 20
135.0791194451718
 30
0.0
 10
120.5246668863577
 20
135.0796858761307
 30
0.0
 10
120.524097417684
 20
135.0802516692034
 30
0.0
 10
120.5234222878685
 20
135.0807268907114
 30
0.0
 10
120.5226974634814
 20
135.0810719214143
 30
0.0
 10
120.5219736989682
 20
135.0814164475963
 30
0.0
 10
120.5211803883331
 20
135.0816406737566
 30
0.0
 10
120.5203833489967
 20
135.0817258908035
 30
0.0
 10
120.5195872309303
 20
135.0818110093508
 30
0.0
 10
120.5187654268619
 20
135.0817597922421
 30
0.0
 10
120.517986032356
 20
135.0815765075791
 30
0.0
 10
120.517206901534
 20
135.0813932849248
 30
0.0
 10
120.5164486797105
 20
135.0810730485214
 30
0.0
 10
120.5157740196611
 20
135.0806424107676
 30
0.0
 10
120.5150989357719
 20
135.0802115024755
 30
0.0
 10
120.5144889246709
 20
135.0796582058221
 30
0.0
 10
120.5139942380597
 20
135.0790283603591
 30
0.0
 10
120.5134989006573
 20
135.0783976862948
 30
0.0
 10
120.5131055457455
 20
135.0776729095439
 30
0.0
 10
120.5128465121487
 20
135.0769139557849
 30
0.0
 10
120.5125871096193
 20
135.0761539210743
 30
0.0
 10
120.5124552617025
 20
135.0753386756781
 30
0.0
 10
120.5124618069994
 20
135.0745356191503
 30
0.0
 10
120.5124683582661
 20
135.0737318301613
 30
0.0
 10
120.5126137434286
 20
135.0729180809501
 30
0.0
 10
120.5128859887559
 20
135.0721617728592
 30
0.0
 10
120.5131582352015
 20
135.0714054616618
 30
0.0
 10
120.5135648763712
 20
135.0706857092624
 30
0.0
 10
120.5140723206606
 20
135.070062311508
 30
0.0
 10
120.5145793047429
 20
135.0694394791202
 30
0.0
 10
120.5152009337078
 20
135.0688956241653
 30
0.0
 10
120.5158857094265
 20
135.068476058504
 30
0.0
 10
120.5165695096212
 20
135.0680570905513
 30
0.0
 10
120.5173351765123
 20
135.0677504907157
 30
0.0
 10
120.5181191881521
 20
135.0675818404164
 30
0.0
 10
120.518609390154
 20
135.0674763920911
 30
0.0
 10
120.5191134934196
 20
135.0674224878179
 30
0.0
 10
120.5196149084717
 20
135.0674219119309
 30
0.0
  0
SPLINE
  5
20B
330
1F
100
AcDbEntity
  8
0
  6
Continuous
 62
     7
370
    25
100
AcDbSpline
210
0.0
220
0.0
230
1.0
 70
     8
 71
     3
 72
    14
 73
    10
 74
     0
 42
0.000000001
 43
0.00000001
 40
0.0
 40
0.0
 40
0.0
 40
0.0
 40
0.2499999999999999
 40
0.2499999999999999
 40
0.4999999999999999
 40
0.4999999999999999
 40
0.7499999999999999
 40
0.7499999999999999
 40
1.0
 40
1.0
 40
1.0
 40
1.0
 10
123.6819007815557
 20
131.2016108155383
 30
0.0
 10
123.1753607567098
 20
131.2581011513485
 30
0.0
 10
122.6667022261126
 20
131.3331518225729
 30
0.0
 10
121.6168583715051
 20
131.4787681900028
 30
0.0
 10
121.0803324053214
 20
131.5461535329638
 30
0.0
 10
119.9595294628092
 20
131.5461997290427
 30
0.0
 10
119.422755431569
 20
131.4788167002774
 30
0.0
 10
118.3726554267191
 20
131.33316974574
 30
0.0
 10
117.8639329057718
 20
131.2581064396871
 30
0.0
 10
117.3573454612189
 20
131.2016108155383
 30
0.0
  0
SPLINE
  5
20C
330
1F
100
AcDbEntity
  8
0
  6
Continuous
 62
     7
370
    25
100
AcDbSpline
210
0.0
220
0.0
230
1.0
 70
     8
 71
     3
 72
    14
 73
    10
 74
     0
 42
0.000000001
 43
0.00000001
 40
0.0
 40
0.0
 40
0.0
 40
0.0
 40
0.25
 40
0.25
 40
0.5
 40
0.5
 40
0.7500000000000001
 40
0.7500000000000001
 40
1.0
 40
1.0
 40
1.0
 40
1.0
 10
117.357345461218
 20
138.9475775079532
 30
0.0
 10
117.8638854860639
 20
138.891087172143
 30
0.0
 10
118.3725440166612
 20
138.8160365009185
 30
0.0
 10
119.4223878712688
 20
138.6704201334886
 30
0.0
 10
119.9589138374526
 20
138.6030347905276
 30
0.0
 10
121.0797167799649
 20
138.6029885944486
 30
0.0
 10
121.6164908112052
 20
138.6703716232139
 30
0.0
 10
122.6665908160553
 20
138.8160185777514
 30
0.0
 10
123.1753133370026
 20
138.8910818838042
 30
0.0
 10
123.6819007815557
 20
138.9475775079531
 30
0.0
  0
SPLINE
  5
20D
330
1F
100
AcDbEntity
  8
0
  6
Continuous
 62
     7
370
    25
100
AcDbSpline
210
0.0
220
0.0
230
1.0
 70
     8
 71
     3
 72
     8
 73
     4
 74
     0
 42
0.000000001
 43
0.00000001
 40
0.0
 40
0.0
 40
0.0
 40
0.0
 40
1.0
 40
1.0
 40
1.0
 40
1.0
 10
112.6751663039296
 20
141.6411762255038
 30
0.0
 10
112.8451701837653
 20
141.6282365802783
 30
0.0
 10
113.0119746461178
 20
141.7077338869107
 30
0.0
 10
113.0973947126584
 20
141.8424059816161
 30
0.0
  0
SPLINE
  5
20E
330
1F
100
AcDbEntity
  8
0
  6
Continuous
 62
     7
370
    25
100
AcDbSpline
210
0.0
220
0.0
230
1.0
 70
     8
 71
     3
 72
     9
 73
     5
 74
     0
 42
0.000000001
 43
0.00000001
 40
0.0
 40
0.0
 40
0.0
 40
0.0
 40
0.571428571428571
 40
1.0
 40
1.0
 40
1.0
 40
1.0
 10
128.364079938845
 20
128.5080120979875
 30
0.0
 10
128.2669348646532
 20
128.5154061809735
 30
0.0
 10
128.0972735259355
 20
128.4780910013954
 30
0.0
 10
127.9784601300621
 20
128.3644989538918
 30
0.0
 10
127.9418515301161
 20
128.3067823418752
 30
0.0
  0
SPLINE
  5
20F
330
1F
100
AcDbEntity
  8
0
  6
Continuous
 62
     7
370
    25
100
AcDbSpline
210
0.0
220
0.0
230
1.0
 70
     8
 71
     3
 72
     9
 73
     5
 74
     0
 42
0.000000001
 43
0.00000001
 40
0.0
 40
0.0
 40
0.0
 40
0.0
 40
0.5
 40
1.0
 40
1.0
 40
1.0
 40
1.0
 10
128.3640799388461
 20
141.6411762255021
 30
0.0
 10
128.279077998928
 20
141.6347064028892
 30
0.0
 10
128.1091840806793
 20
141.6653853960951
 30
0.0
 10
127.9845615633869
 20
141.7750699342621
 30
0.0
 10
127.9418515301167
 20
141.8424059816151
 30
0.0
  0
SPLINE
  5
210
330
1F
100
AcDbEntity
  8
0
  6
Continuous
 62
     7
370
    25
100
AcDbSpline
210
0.0
220
0.0
230
1.0
 70
     8
 71
     3
 72
     9
 73
     5
 74
     0
 42
0.000000001
 43
0.00000001
 40
0.0
 40
0.0
 40
0.0
 40
0.0
 40
0.5
 40
1.0
 40
1.0
 40
1.0
 40
1.0
 10
112.6751663039289
 20
128.5080120979886
 30
0.0
 10
112.7601682438469
 20
128.5144819206015
 30
0.0
 10
112.9300621620956
 20
128.4838029273955
 30
0.0
 10
113.0546846793879
 20
128.3741183892288
 30
0.0
 10
113.0973947126581
 20
128.3067823418758
 30
0.0
  0
SPLINE
  5
211
330
1F
100
AcDbEntity
  8
0
  6
Continuous
 62
     7
370
    25
100
AcDbSpline
210
0.0
220
0.0
230
1.0
 70
     8
 71
     3
 72
    11
 73
     7
 74
     0
 42
0.000000001
 43
0.00000001
 40
0.0
 40
0.0
 40
0.0
 40
0.0
 40
0.2876478479512965
 40
0.5611005784409707
 40
0.8299950982559509
 40
1.0
 40
1.0
 40
1.0
 40
1.0
 10
113.0973947776025
 20
141.8424058810738
 30
0.0
 10
113.1117852064591
 20
141.8774620373634
 30
0.0
 10
113.1398559117085
 20
141.9458443656586
 30
0.0
 10
113.1100235716972
 20
142.0191610280498
 30
0.0
 10
113.0757913730474
 20
142.0616345694599
 30
0.0
 10
113.0480653625079
 20
142.0671076633423
 30
0.0
 10
113.0373258685236
 20
142.0692276314763
 30
0.0
  0
SPLINE
  5
212
330
1F
100
AcDbEntity
  8
0
  6
Continuous
 62
     7
370
    25
100
AcDbSpline
210
0.0
220
0.0
230
1.0
 70
    24
 71
     3
 72
    14
 73
    10
 74
     0
 42
0.000000001
 43
0.00000001
 40
0.0
 40
0.0
 40
0.0
 40
0.0
 40
0.250384366109634
 40
0.3856975923178703
 40
0.5014306604032173
 40
0.6388329400918317
 40
0.7674982872365089
 40
0.8877537710032762
 40
1.0
 40
1.0
 40
1.0
 40
1.0
 10
113.0196231213873
 20
142.0745941617457
 30
0.0
 10
113.0789100662727
 20
142.0745941617457
 30
0.0
 10
113.1702369819804
 20
142.0745941617457
 30
0.0
 10
113.2827513118822
 20
142.0745941617457
 30
0.0
 10
113.3625377212551
 20
142.0745941617457
 30
0.0
 10
113.4293369351115
 20
142.0745941617457
 30
0.0
 10
113.4805258987822
 20
142.0745941617457
 30
0.0
 10
113.513155250641
 20
142.0745941617457
 30
0.0
 10
113.5175172521043
 20
142.0745941617457
 30
0.0
 10
113.5196231213873
 20
142.0745941617457
 30
0.0
  0
SPLINE
  5
213
330
1F
100
AcDbEntity
  8
0
  6
Continuous
 62
     7
370
    25
100
AcDbSpline
210
0.0
220
0.0
230
1.0
 70
     8
 71
     3
 72
    12
 73
     8
 74
     0
 42
0.000000001
 43
0.00000001
 40
0.0
 40
0.0
 40
0.0
 40
0.0
 40
0.106360891224351
 40
0.159541336836527
 40
0.265902228060878
 40
0.265902228060878
 40
0.267217449764311
 40
0.267217449764311
 40
0.267217449764311
 40
0.267217449764311
 10
127.9418515301161
 20
128.3067823418752
 30
0.0
 10
127.9038093432881
 20
128.2468055566175
 30
0.0
 10
127.9093052154412
 20
128.1725149125809
 30
0.0
 10
127.951201794958
 20
128.0942833273577
 30
0.0
 10
127.992327952702
 20
128.0749072108452
 30
0.0
 10
128.0189753302263
 20
128.0745960693977
 30
0.0
 10
128.0192988319013
 20
128.0745941617457
 30
0.0
 10
128.0196231213873
 20
128.0745941617457
 30
0.0
  0
SPLINE
  5
214
330
1F
100
AcDbEntity
  8
0
  6
Continuous
 62
     7
370
    25
100
AcDbSpline
210
0.0
220
0.0
230
1.0
 70
    24
 71
     3
 72
    16
 73
    12
 74
     0
 42
0.000000001
 43
0.00000001
 40
0.0
 40
0.0
 40
0.0
 40
0.0
 40
0.0739298478317502
 40
0.1513677900738161
 40
0.2324450724296886
 40
0.3172760505391666
 40
0.4059605604440887
 40
0.4985859784696513
 40
0.6141264806631028
 40
0.7496239522892343
 40
1.0
 40
1.0
 40
1.0
 40
1.0
 10
127.5196231213873
 20
128.0745941617457
 30
0.0
 10
127.5205384266798
 20
128.0745941617457
 30
0.0
 10
127.5224124700254
 20
128.0745941617457
 30
0.0
 10
127.5367872215829
 20
128.0745941617457
 30
0.0
 10
127.5594805670716
 20
128.0745941617457
 30
0.0
 10
127.5914431262908
 20
128.0745941617457
 30
0.0
 10
127.6323859074526
 20
128.0745941617457
 30
0.0
 10
127.685853598184
 20
128.0745941617457
 30
0.0
 10
127.7564562586572
 20
128.0745941617457
 30
0.0
 10
127.8689629611326
 20
128.0745941617457
 30
0.0
 10
127.9603355439559
 20
128.0745941617457
 30
0.0
 10
128.0196231213873
 20
128.0745941617457
 30
0.0
  0
SPLINE
  5
215
330
1F
100
AcDbEntity
  8
0
  6
Continuous
 62
     7
370
    25
100
AcDbSpline
210
0.0
220
0.0
230
1.0
 70
     8
 71
     3
 72
    12
 73
     8
 74
     0
 42
0.000000001
 43
0.00000001
 40
-0.265902228061387
 40
-0.265902228061387
 40
-0.265902228061387
 40
-0.265902228061387
 40
-0.2645870063584663
 40
-0.2645870063584663
 40
-0.1582261151339113
 40
-0.1050456695216343
 40
0.0013152217029208
 40
0.0013152217029208
 40
0.0013152217029208
 40
0.0013152217029208
 10
113.0196231213873
 20
128.0745941617457
 30
0.0
 10
113.0199474108731
 20
128.0745941617457
 30
0.0
 10
113.0202709125479
 20
128.0745960693977
 30
0.0
 10
113.0469182900743
 20
128.074907210845
 30
0.0
 10
113.0880444478168
 20
128.0942833273574
 30
0.0
 10
113.1299410273341
 20
128.1725149125807
 30
0.0
 10
113.1354368994866
 20
128.2468055566174
 30
0.0
 10
113.0973947126584
 20
128.3067823418752
 30
0.0
  0
SPLINE
  5
216
330
1F
100
AcDbEntity
  8
0
  6
Continuous
 62
     7
370
    25
100
AcDbSpline
210
0.0
220
0.0
230
1.0
 70
    24
 71
     3
 72
    14
 73
    10
 74
     0
 42
0.000000001
 43
0.00000001
 40
0.0
 40
0.0
 40
0.0
 40
0.0
 40
0.2503818975769405
 40
0.3853960642454612
 40
0.5014219062737861
 40
0.6386745024418747
 40
0.7672919706928744
 40
0.8876008223903926
 40
1.0
 40
1.0
 40
1.0
 40
1.0
 10
113.0196231213873
 20
128.0745941617457
 30
0.0
 10
113.0791562051171
 20
128.0745941617457
 30
0.0
 10
113.1707914885937
 20
128.0745941617457
 30
0.0
 10
113.2833175427713
 20
128.0745941617457
 30
0.0
 10
113.3629757524546
 20
128.0745941617457
 30
0.0
 10
113.4296462182519
 20
128.0745941617457
 30
0.0
 10
113.4806685220936
 20
128.0745941617457
 30
0.0
 10
113.513183814114
 20
128.0745941617457
 30
0.0
 10
113.5175258807983
 20
128.0745941617457
 30
0.0
 10
113.5196231213873
 20
128.0745941617457
 30
0.0
  0
LINE
  5
217
330
1F
100
AcDbEntity
  8
0
  6
Continuous
 62
     7
370
    25
100
AcDbLine
 10
128.0196229537
 20
142.0745943778
 30
0.0
 11
127.9952525703
 21
142.0671484538
 31
0.0
  0
SPLINE
  5
218
330
1F
100
AcDbEntity
  8
0
  6
Continuous
 62
     7
370
    25
100
AcDbSpline
210
0.0
220
0.0
230
1.0
 70
    24
 71
     3
 72
    16
 73
    12
 74
     0
 42
0.000000001
 43
0.00000001
 40
0.0
 40
0.0
 40
0.0
 40
0.0
 40
0.0740424421768231
 40
0.1515492076760871
 40
0.2326508292781398
 40
0.3174612427217847
 40
0.4060800799075449
 40
0.4985946693164888
 40
0.6144270548830109
 40
0.7496263894763571
 40
1.0
 40
1.0
 40
1.0
 40
1.0
 10
127.5196231213873
 20
142.0745941617457
 30
0.0
 10
127.520534919154
 20
142.0745941617457
 30
0.0
 10
127.5224011761958
 20
142.0745941617457
 30
0.0
 10
127.536726834341
 20
142.0745941617457
 30
0.0
 10
127.559346242602
 20
142.0745941617457
 30
0.0
 10
127.5912051202065
 20
142.0745941617457
 30
0.0
 10
127.6320164088377
 20
142.0745941617457
 30
0.0
 10
127.6853963000133
 20
142.0745941617457
 30
0.0
 10
127.7558899308742
 20
142.0745941617457
 30
0.0
 10
127.8684080281677
 20
142.0745941617457
 30
0.0
 10
127.9600893940335
 20
142.0745941617457
 30
0.0
 10
128.0196231213873
 20
142.0745941617457
 30
0.0
  0
LINE
  5
219
330
1F
100
AcDbEntity
  8
0
  6
Continuous
 62
     7
370
    25
100
AcDbLine
 10
128.7278802676
 20
142.3745943339
 30
0.0
 11
129.3113659678
 21
142.3745943339
 31
0.0
  0
LINE
  5
21A
330
1F
100
AcDbEntity
  8
0
  6
Continuous
 62
     7
370
    25
100
AcDbLine
 10
128.2696229947
 20
142.0745943778
 30
0.0
 11
129.7696232406
 21
142.0745943778
 31
0.0
  0
LINE
  5
21B
330
1F
100
AcDbEntity
  8
0
  6
Continuous
 62
     8
370
    25
100
AcDbLine
 10
107.0196227712
 20
126.0745945492
 30
0.0
 11
107.0196227712
 21
144.0745937743
 31
0.0
  0
LINE
  5
21C
330
1F
100
AcDbEntity
  8
0
  6
Continuous
 62
     8
370
    25
100
AcDbLine
 10
134.0196234716
 20
144.0745937743
 30
0.0
 11
134.0196234716
 21
126.0745945492
 31
0.0
  0
LINE
  5
21D
330
1F
100
AcDbEntity
  8
0
  6
Continuous
 62
     8
370
    25
100
AcDbLine
 10
132.5499293936
 20
142.8745939501
 30
0.0
 11
132.5499293936
 21
127.2745943733
 31
0.0
  0
LINE
  5
21E
330
1F
100
AcDbEntity
  8
0
  6
Continuous
 62
     8
370
    25
100
AcDbLine
 10
108.4893168492
 20
127.2745943733
 30
0.0
 11
108.4893168492
 21
142.8745939501
 31
0.0
  0
LINE
  5
21F
330
1F
100
AcDbEntity
  8
0
  6
Continuous
 62
     8
370
    25
100
AcDbLine
 10
131.5701333416
 20
128.0745939457
 30
0.0
 11
131.5701333416
 21
142.0745943778
 31
0.0
  0
LINE
  5
220
330
1F
100
AcDbEntity
  8
0
  6
Continuous
 62
     8
370
    25
100
AcDbLine
 10
109.4691129012
 20
142.0745943778
 30
0.0
 11
109.4691129012
 21
128.0745939457
 31
0.0
  0
LINE
  5
221
330
1F
100
AcDbEntity
  8
0
  6
Continuous
 62
     8
370
    25
100
AcDbLine
 10
113.5196229053
 20
139.9343489774
 30
0.0
 11
113.5196229053
 21
141.5745942959
 31
0.0
  0
LINE
  5
222
330
1F
100
AcDbEntity
  8
0
  6
Continuous
 62
     8
370
    25
100
AcDbLine
 10
127.5196233375
 20
130.214839346
 30
0.0
 11
127.5196233375
 21
128.5745940276
 31
0.0
  0
LINE
  5
223
330
1F
100
AcDbEntity
  8
0
  6
Continuous
 62
     8
370
    25
100
AcDbLine
 10
113.5196229053
 20
128.5745940276
 30
0.0
 11
113.5196229053
 21
130.214839346
 31
0.0
  0
LINE
  5
224
330
1F
100
AcDbEntity
  8
0
  6
Continuous
 62
     8
370
    25
100
AcDbLine
 10
127.5196233375
 20
141.5745942959
 30
0.0
 11
127.5196233375
 21
139.9343489774
 31
0.0
  0
SPLINE
  5
225
330
1F
100
AcDbEntity
  8
0
  6
Continuous
 62
     8
370
    25
100
AcDbSpline
210
0.0
220
0.0
230
1.0
 70
     8
 71
     3
 72
     9
 73
     5
 74
     0
 42
0.000000001
 43
0.00000001
 40
0.0
 40
0.0
 40
0.0
 40
0.0
 40
0.1684031380055818
 40
1.0
 40
1.0
 40
1.0
 40
1.0
 10
128.1243664754098
 20
131.2667607434956
 30
0.0
 10
128.1367176822088
 20
131.2548489978129
 30
0.0
 10
128.2100607739429
 20
131.1841154840328
 30
0.0
 10
128.2598570479579
 20
131.1016883483339
 30
0.0
 10
128.3012674731677
 20
131.0331422009436
 30
0.0
  0
SPLINE
  5
226
330
1F
100
AcDbEntity
  8
0
  6
Continuous
 62
     8
370
    25
100
AcDbSpline
210
0.0
220
0.0
230
1.0
 70
     8
 71
     3
 72
     9
 73
     5
 74
     0
 42
0.000000001
 43
0.00000001
 40
0.0
 40
0.0
 40
0.0
 40
0.0
 40
0.5849961259362884
 40
1.0
 40
1.0
 40
1.0
 40
1.0
 10
128.3012674731677
 20
139.1160461225477
 30
0.0
 10
128.2724666517594
 20
139.0701087377974
 30
0.0
 10
128.2232341523779
 20
138.9915827737548
 30
0.0
 10
128.1593766252563
 20
138.9189811144842
 30
0.0
 10
128.1328755041127
 20
138.8888511446235
 30
0.0
  0
SPLINE
  5
227
330
1F
100
AcDbEntity
  8
0
  6
Continuous
 62
     8
370
    25
100
AcDbSpline
210
0.0
220
0.0
230
1.0
 70
     8
 71
     3
 72
     9
 73
     5
 74
     0
 42
0.000000001
 43
0.00000001
 40
0.0
 40
0.0
 40
0.0
 40
0.0
 40
0.1769845032547938
 40
1.0
 40
1.0
 40
1.0
 40
1.0
 10
112.9171326366728
 20
138.8801945012925
 30
0.0
 10
112.904004645684
 20
138.8928377802048
 30
0.0
 10
112.8298287108007
 20
138.9642749889987
 30
0.0
 10
112.7794451889065
 20
139.0475277829656
 30
0.0
 10
112.7379787696069
 20
139.1160461225477
 30
0.0
  0
SPLINE
  5
228
330
1F
100
AcDbEntity
  8
0
  6
Continuous
 62
     8
370
    25
100
AcDbSpline
210
0.0
220
0.0
230
1.0
 70
     8
 71
     3
 72
     9
 73
     5
 74
     0
 42
0.000000001
 43
0.00000001
 40
0.0
 40
0.0
 40
0.0
 40
0.0
 40
0.5722054531870929
 40
1.0
 40
1.0
 40
1.0
 40
1.0
 10
112.7379787696069
 20
131.0331422009436
 30
0.0
 10
112.7668160543556
 20
131.0790648025594
 30
0.0
 10
112.8172127861382
 20
131.1593202446563
 30
0.0
 10
112.8825615903449
 20
131.2335190179107
 30
0.0
 10
112.9105174524253
 20
131.2652608484892
 30
0.0
  0
LINE
  5
229
330
1F
100
AcDbEntity
  8
0
  6
Continuous
 62
     8
370
    25
100
AcDbLine
 10
113.1563391147
 20
139.3348007568
 30
0.0
 11
113.1288008375
 21
139.4047211961
 31
0.0
  0
LINE
  5
22A
330
1F
100
AcDbEntity
  8
0
  6
Continuous
 62
     8
370
    25
100
AcDbLine
 10
127.9104454053
 20
139.4047211961
 30
0.0
 11
127.8797015158
 21
139.3266554096
 31
0.0
  0
LINE
  5
22B
330
1F
100
AcDbEntity
  8
0
  6
Continuous
 62
     8
370
    25
100
AcDbLine
 10
113.1288008375
 20
130.7444671274
 30
0.0
 11
113.1592113135
 21
130.8216863417
 31
0.0
  0
LINE
  5
22C
330
1F
100
AcDbEntity
  8
0
  6
Continuous
 62
     8
370
    25
100
AcDbLine
 10
127.8810943087
 20
130.8189901628
 30
0.0
 11
127.9104454053
 21
130.7444671274
 31
0.0
  0
SPLINE
  5
22D
330
1F
100
AcDbEntity
  8
0
  6
Continuous
 62
     8
370
    25
100
AcDbSpline
210
0.0
220
0.0
230
1.0
 70
     8
 71
     3
 72
    11
 73
     7
 74
     0
 42
0.000000001
 43
0.00000001
 40
0.0
 40
0.0
 40
0.0
 40
0.0
 40
0.137696887866455
 40
0.4171858930680554
 40
0.7017749847908697
 40
1.0
 40
1.0
 40
1.0
 40
1.0
 10
127.995252570278
 20
142.0671484538285
 30
0.0
 10
127.9870182475918
 20
142.0653887582514
 30
0.0
 10
127.9620703833599
 20
142.0600573365887
 30
0.0
 10
127.9293092064803
 20
142.0188673219619
 30
0.0
 10
127.9021255060161
 20
141.9462823025003
 30
0.0
 10
127.9284045313462
 20
141.8775672565239
 30
0.0
 10
127.9418514651721
 20
141.8424058810738
 30
0.0
  0
LINE
  5
22E
330
1F
100
AcDbEntity
  8
0
  6
Continuous
 62
     8
370
    25
100
AcDbLine
 10
126.2142648531
 20
128.0745939457
 30
0.0
 11
126.2142648531
 21
128.1110263535
 31
0.0
  0
INSERT
  5
23A
330
1F
100
AcDbEntity
  8
0
  6
Continuous
 62
     7
370
    18
100
AcDbBlockReference
  2
SW_CENTERMARKSYMBOL_1
 10
120.5196231214
 20
135.0745941617
 30
0.0
  0
ARC
  5
23B
330
1F
100
AcDbEntity
  8
0
  6
Continuous
 62
     7
370
    18
100
AcDbCircle
 10
120.5196231214
 20
135.0745941617
 30
0.0
 40
7.475000000000012
100
AcDbArc
 50
75.0
 51
345.0
  0
ENDSEC
  0
SECTION
  2
OBJECTS
  0
DICTIONARY
  5
C
330
0
100
AcDbDictionary
281
     1
  3
ACAD_GROUP
350
D
  3
ACAD_LAYOUT
350
1A
  3
ACAD_MLINESTYLE
350
17
  3
ACAD_PLOTSETTINGS
350
19
  3
ACAD_PLOTSTYLENAME
350
E
  3
ACAD_SCALELIST
350
47
  0
DICTIONARY
  5
D
102
{ACAD_REACTORS
330
C
102
}
330
C
100
AcDbDictionary
281
     1
  0
DICTIONARY
  5
1A
102
{ACAD_REACTORS
330
C
102
}
330
C
100
AcDbDictionary
281
     1
  3
Layout1
350
1E
  3
Layout2
350
26
  3
Model
350
22
  0
DICTIONARY
  5
17
102
{ACAD_REACTORS
330
C
102
}
330
C
100
AcDbDictionary
281
     1
  3
Standard
350
18
  0
DICTIONARY
  5
19
102
{ACAD_REACTORS
330
C
102
}
330
C
100
AcDbDictionary
281
     1
  0
ACDBDICTIONARYWDFLT
  5
E
102
{ACAD_REACTORS
330
C
102
}
330
C
100
AcDbDictionary
281
     1
  3
Normal
350
F
100
AcDbDictionaryWithDefault
340
F
  0
DICTIONARY
  5
47
102
{ACAD_REACTORS
330
C
102
}
330
C
100
AcDbDictionary
281
     1
  3
A0
350
48
  3
A1
350
49
  3
A2
350
4A
  3
A3
350
4B
  3
A4
350
4C
  3
A5
350
4D
  3
A6
350
4E
  3
A7
350
4F
  3
A8
350
50
  3
A9
350
51
  3
B0
350
52
  3
B1
350
53
  3
B2
350
54
  3
B3
350
55
  3
B4
350
56
  3
B5
350
57
  3
B6
350
58
  3
B7
350
59
  3
B8
350
5A
  3
B9
350
5B
  3
C0
350
5C
  3
C1
350
5D
  3
C2
350
5E
  3
C3
350
5F
  3
C4
350
60
  3
C5
350
61
  3
C6
350
62
  3
C7
350
63
  3
C8
350
64
  3
C9
350
65
  3
D0
350
66
  3
D1
350
67
  3
D2
350
68
  0
LAYOUT
  5
1E
102
{ACAD_REACTORS
330
1A
102
}
330
1A
100
AcDbPlotSettings
  1

  2
none_device
  4

  6

 40
0.0
 41
0.0
 42
0.0
 43
0.0
 44
0.0
 45
0.0
 46
0.0
 47
0.0
 48
0.0
 49
0.0
140
0.0
141
0.0
142
1.0
143
1.0
 70
   688
 72
     1
 73
     0
 74
     5
  7

 75
    16
147
1.0
148
0.0
149
0.0
100
AcDbLayout
  1
Layout1
 70
     1
 71
     1
 10
0.0
 20
0.0
 11
420.0
 21
297.0
 12
0.0
 22
0.0
 32
0.0
 14
1.0000000000E+20
 24
1.0000000000E+20
 34
1.0000000000E+20
 15
-1.0000000000E+20
 25
-1.0000000000E+20
 35
-1.0000000000E+20
146
0.0
 13
0.0
 23
0.0
 33
0.0
 16
1.0
 26
0.0
 36
0.0
 17
0.0
 27
1.0
 37
0.0
 76
     0
330
1B
  0
LAYOUT
  5
26
102
{ACAD_REACTORS
330
1A
102
}
330
1A
100
AcDbPlotSettings
  1

  2
none_device
  4

  6

 40
0.0
 41
0.0
 42
0.0
 43
0.0
 44
0.0
 45
0.0
 46
0.0
 47
0.0
 48
0.0
 49
0.0
140
0.0
141
0.0
142
1.0
143
1.0
 70
   688
 72
     1
 73
     0
 74
     5
  7

 75
    16
147
1.0
148
0.0
149
0.0
100
AcDbLayout
  1
Layout2
 70
     1
 71
     2
 10
0.0
 20
0.0
 11
0.0
 21
0.0
 12
0.0
 22
0.0
 32
0.0
 14
0.0
 24
0.0
 34
0.0
 15
0.0
 25
0.0
 35
0.0
146
0.0
 13
0.0
 23
0.0
 33
0.0
 16
1.0
 26
0.0
 36
0.0
 17
0.0
 27
1.0
 37
0.0
 76
     0
330
23
  0
LAYOUT
  5
22
102
{ACAD_REACTORS
330
1A
102
}
330
1A
100
AcDbPlotSettings
  1

  2
none_device
  4
Letter_(8.50_x_11.00_Inches)
  6

 40
6.35
 41
6.35
 42
6.35000508
 43
6.35000508
 44
215.9
 45
279.4
 46
0.0
 47
0.0
 48
0.0
 49
0.0
140
0.0
141
0.0
142
1.0
143
1.0
 70
  1712
 72
     1
 73
     0
 74
     0
  7

 75
     0
147
1.0
148
0.0
149
0.0
100
AcDbLayout
  1
Model
 70
     1
 71
     0
 10
0.0
 20
0.0
 11
431.8
 21
279.4
 12
0.0
 22
0.0
 32
0.0
 14
0.0
 24
0.0
 34
0.0
 15
431.8
 25
279.4
 35
0.0
146
0.0
 13
0.0
 23
0.0
 33
0.0
 16
1.0
 26
0.0
 36
0.0
 17
0.0
 27
1.0
 37
0.0
 76
     0
330
1F
331
29
  0
MLINESTYLE
  5
18
102
{ACAD_REACTORS
330
17
102
}
330
17
100
AcDbMlineStyle
  2
Standard
 70
     0
  3

 62
   256
 51
90.0
 52
90.0
 71
     2
 49
0.5
 62
   256
  6
BYLAYER
 49
-0.5
 62
   256
  6
BYLAYER
  0
ACDBPLACEHOLDER
  5
F
102
{ACAD_REACTORS
330
E
102
}
330
E
  0
SCALE
  5
48
102
{ACAD_REACTORS
330
47
102
}
330
47
100
AcDbScale
 70
     0
300
1:1
140
1.0
141
1.0
290
     1
  0
SCALE
  5
49
102
{ACAD_REACTORS
330
47
102
}
330
47
100
AcDbScale
 70
     0
300
1:2
140
1.0
141
2.0
290
     0
  0
SCALE
  5
4A
102
{ACAD_REACTORS
330
47
102
}
330
47
100
AcDbScale
 70
     0
300
1:4
140
1.0
141
4.0
290
     0
  0
SCALE
  5
4B
102
{ACAD_REACTORS
330
47
102
}
330
47
100
AcDbScale
 70
     0
300
1:5
140
1.0
141
5.0
290
     0
  0
SCALE
  5
4C
102
{ACAD_REACTORS
330
47
102
}
330
47
100
AcDbScale
 70
     0
300
1:8
140
1.0
141
8.0
290
     0
  0
SCALE
  5
4D
102
{ACAD_REACTORS
330
47
102
}
330
47
100
AcDbScale
 70
     0
300
1:10
140
1.0
141
10.0
290
     0
  0
SCALE
  5
4E
102
{ACAD_REACTORS
330
47
102
}
330
47
100
AcDbScale
 70
     0
300
1:16
140
1.0
141
16.0
290
     0
  0
SCALE
  5
4F
102
{ACAD_REACTORS
330
47
102
}
330
47
100
AcDbScale
 70
     0
300
1:20
140
1.0
141
20.0
290
     0
  0
SCALE
  5
50
102
{ACAD_REACTORS
330
47
102
}
330
47
100
AcDbScale
 70
     0
300
1:30
140
1.0
141
30.0
290
     0
  0
SCALE
  5
51
102
{ACAD_REACTORS
330
47
102
}
330
47
100
AcDbScale
 70
     0
300
1:40
140
1.0
141
40.0
290
     0
  0
SCALE
  5
52
102
{ACAD_REACTORS
330
47
102
}
330
47
100
AcDbScale
 70
     0
300
1:50
140
1.0
141
50.0
290
     0
  0
SCALE
  5
53
102
{ACAD_REACTORS
330
47
102
}
330
47
100
AcDbScale
 70
     0
300
1:100
140
1.0
141
100.0
290
     0
  0
SCALE
  5
54
102
{ACAD_REACTORS
330
47
102
}
330
47
100
AcDbScale
 70
     0
300
2:1
140
2.0
141
1.0
290
     0
  0
SCALE
  5
55
102
{ACAD_REACTORS
330
47
102
}
330
47
100
AcDbScale
 70
     0
300
4:1
140
4.0
141
1.0
290
     0
  0
SCALE
  5
56
102
{ACAD_REACTORS
330
47
102
}
330
47
100
AcDbScale
 70
     0
300
8:1
140
8.0
141
1.0
290
     0
  0
SCALE
  5
57
102
{ACAD_REACTORS
330
47
102
}
330
47
100
AcDbScale
 70
     0
300
10:1
140
10.0
141
1.0
290
     0
  0
SCALE
  5
58
102
{ACAD_REACTORS
330
47
102
}
330
47
100
AcDbScale
 70
     0
300
100:1
140
100.0
141
1.0
290
     0
  0
SCALE
  5
59
102
{ACAD_REACTORS
330
47
102
}
330
47
100
AcDbScale
 70
     0
300
1/128" = 1'-0"
140
0.0078125
141
12.0
290
     0
  0
SCALE
  5
5A
102
{ACAD_REACTORS
330
47
102
}
330
47
100
AcDbScale
 70
     0
300
1/64" = 1'-0"
140
0.015625
141
12.0
290
     0
  0
SCALE
  5
5B
102
{ACAD_REACTORS
330
47
102
}
330
47
100
AcDbScale
 70
     0
300
1/32" = 1'-0"
140
0.03125
141
12.0
290
     0
  0
SCALE
  5
5C
102
{ACAD_REACTORS
330
47
102
}
330
47
100
AcDbScale
 70
     0
300
1/16" = 1'-0"
140
0.0625
141
12.0
290
     0
  0
SCALE
  5
5D
102
{ACAD_REACTORS
330
47
102
}
330
47
100
AcDbScale
 70
     0
300
3/32" = 1'-0"
140
0.09375
141
12.0
290
     0
  0
SCALE
  5
5E
102
{ACAD_REACTORS
330
47
102
}
330
47
100
AcDbScale
 70
     0
300
1/8" = 1'-0"
140
0.125
141
12.0
290
     0
  0
SCALE
  5
5F
102
{ACAD_REACTORS
330
47
102
}
330
47
100
AcDbScale
 70
     0
300
3/16" = 1'-0"
140
0.1875
141
12.0
290
     0
  0
SCALE
  5
60
102
{ACAD_REACTORS
330
47
102
}
330
47
100
AcDbScale
 70
     0
300
1/4" = 1'-0"
140
0.25
141
12.0
290
     0
  0
SCALE
  5
61
102
{ACAD_REACTORS
330
47
102
}
330
47
100
AcDbScale
 70
     0
300
3/8" = 1'-0"
140
0.375
141
12.0
290
     0
  0
SCALE
  5
62
102
{ACAD_REACTORS
330
47
102
}
330
47
100
AcDbScale
 70
     0
300
1/2" = 1'-0"
140
0.5
141
12.0
290
     0
  0
SCALE
  5
63
102
{ACAD_REACTORS
330
47
102
}
330
47
100
AcDbScale
 70
     0
300
3/4" = 1'-0"
140
0.75
141
12.0
290
     0
  0
SCALE
  5
64
102
{ACAD_REACTORS
330
47
102
}
330
47
100
AcDbScale
 70
     0
300
1" = 1'-0"
140
1.0
141
12.0
290
     0
  0
SCALE
  5
65
102
{ACAD_REACTORS
330
47
102
}
330
47
100
AcDbScale
 70
     0
300
1-1/2" = 1'-0"
140
1.5
141
12.0
290
     0
  0
SCALE
  5
66
102
{ACAD_REACTORS
330
47
102
}
330
47
100
AcDbScale
 70
     0
300
3" = 1'-0"
140
3.0
141
12.0
290
     0
  0
SCALE
  5
67
102
{ACAD_REACTORS
330
47
102
}
330
47
100
AcDbScale
 70
     0
300
6" = 1'-0"
140
6.0
141
12.0
290
     0
  0
SCALE
  5
68
102
{ACAD_REACTORS
330
47
102
}
330
47
100
AcDbScale
 70
     0
300
1'-0" = 1'-0"
140
12.0
141
12.0
290
     0
  0
ENDSEC
  0
EOF
