  0
SECTION
  2
HEADER
  9
$ACADVER
  1
AC1015
  9
$ACADMAINTVER
 70
     6
  9
$DWGCODEPAGE
  3
DOS932
  9
$INSBASE
 10
0.0
 20
0.0
 30
0.0
  9
$EXTMIN
 10
0.0
 20
0.0
 30
0.0
  9
$EXTMAX
 10
431.8
 20
279.4
 30
0.0
  9
$LIMMIN
 10
0.0
 20
0.0
  9
$LIMMAX
 10
431.8
 20
279.4
  9
$ORTHOMODE
 70
     0
  9
$REGENMODE
 70
     1
  9
$FILLMODE
 70
     1
  9
$QTEXTMODE
 70
     0
  9
$MIRRTEXT
 70
     1
  9
$LTSCALE
 40
1.0
  9
$ATTMODE
 70
     1
  9
$TEXTSIZE
 40
3.5
  9
$TRACEWID
 40
1.0
  9
$TEXTSTYLE
  7
Standard
  9
$CLAYER
  8
0
  9
$CELTYPE
  6
ByLayer
  9
$CECOLOR
 62
   256
  9
$CELTSCALE
 40
1.0
  9
$DISPSILH
 70
     0
  9
$DIMSCALE
 40
1.0
  9
$DIMASZ
 40
3.302
  9
$DIMEXO
 40
1.0
  9
$DIMDLI
 40
3.75
  9
$DIMRND
 40
0.0
  9
$DIMDLE
 40
0.0
  9
$DIMEXE
 40
1.0
  9
$DIMTP
 40
0.0
  9
$DIMTM
 40
0.0
  9
$DIMTXT
 40
3.5
  9
$DIMCEN
 40
2.5
  9
$DIMTSZ
 40
0.0
  9
$DIMTOL
 70
     0
  9
$DIMLIM
 70
     0
  9
$DIMTIH
 70
     1
  9
$DIMTOH
 70
     1
  9
$DIMSE1
 70
     0
  9
$DIMSE2
 70
     0
  9
$DIMTAD
 70
     1
  9
$DIMZIN
 70
     1
  9
$DIMBLK
  1

  9
$DIMASO
 70
     1
  9
$DIMSHO
 70
     1
  9
$DIMPOST
  1

  9
$DIMAPOST
  1

  9
$DIMALT
 70
     0
  9
$DIMALTD
 70
     3
  9
$DIMALTF
 40
0.0393700787
  9
$DIMLFAC
 40
1.0
  9
$DIMTOFL
 70
     1
  9
$DIMTVP
 40
0.0
  9
$DIMTIX
 70
     0
  9
$DIMSOXD
 70
     0
  9
$DIMSAH
 70
     0
  9
$DIMBLK1
  1

  9
$DIMBLK2
  1

  9
$DIMSTYLE
  2
ISO-25
  9
$DIMCLRD
 70
     0
  9
$DIMCLRE
 70
     0
  9
$DIMCLRT
 70
     0
  9
$DIMTFAC
 40
1.0
  9
$DIMGAP
 40
1.524
  9
$DIMJUST
 70
     0
  9
$DIMSD1
 70
     0
  9
$DIMSD2
 70
     0
  9
$DIMTOLJ
 70
     0
  9
$DIMTZIN
 70
     1
  9
$DIMALTZ
 70
     0
  9
$DIMALTTZ
 70
     0
  9
$DIMUPT
 70
     0
  9
$DIMDEC
 70
     2
  9
$DIMTDEC
 70
     2
  9
$DIMALTU
 70
     2
  9
$DIMALTTD
 70
     3
  9
$DIMTXSTY
  7
Standard
  9
$DIMAUNIT
 70
     0
  9
$DIMADEC
 70
     2
  9
$DIMALTRND
 40
0.0
  9
$DIMAZIN
 70
     0
  9
$DIMDSEP
 70
    44
  9
$DIMATFIT
 70
     3
  9
$DIMFRAC
 70
     0
  9
$DIMLDRBLK
  1

  9
$DIMLUNIT
 70
     2
  9
$DIMLWD
 70
    -2
  9
$DIMLWE
 70
    -2
  9
$DIMTMOVE
 70
     0
  9
$LUNITS
 70
     2
  9
$LUPREC
 70
     2
  9
$SKETCHINC
 40
1.0
  9
$FILLETRAD
 40
10.0
  9
$AUNITS
 70
     0
  9
$AUPREC
 70
     2
  9
$MENU
  1
.
  9
$ELEVATION
 40
0.0
  9
$PELEVATION
 40
0.0
  9
$THICKNESS
 40
0.0
  9
$LIMCHECK
 70
     0
  9
$CHAMFERA
 40
0.0
  9
$CHAMFERB
 40
0.0
  9
$CHAMFERC
 40
0.0
  9
$CHAMFERD
 40
0.0
  9
$SKPOLY
 70
     0
  9
$TDCREATE
 40
2459229.397911701
  9
$TDUCREATE
 40
2459229.022911701
  9
$TDUPDATE
 40
2459229.397912789
  9
$TDUUPDATE
 40
2459229.022912789
  9
$TDINDWG
 40
0.0000000116
  9
$TDUSRTIMER
 40
0.0000000116
  9
$USRTIMER
 70
     1
  9
$ANGBASE
 50
0.0
  9
$ANGDIR
 70
     0
  9
$PDMODE
 70
     0
  9
$PDSIZE
 40
-1.0
  9
$PLINEWID
 40
0.0
  9
$SPLFRAME
 70
     0
  9
$SPLINETYPE
 70
     6
  9
$SPLINESEGS
 70
     8
  9
$HANDSEED
  5
285
  9
$SURFTAB1
 70
     6
  9
$SURFTAB2
 70
     6
  9
$SURFTYPE
 70
     6
  9
$SURFU
 70
     6
  9
$SURFV
 70
     6
  9
$UCSBASE
  2

  9
$UCSNAME
  2

  9
$UCSORG
 10
0.0
 20
0.0
 30
0.0
  9
$UCSXDIR
 10
1.0
 20
0.0
 30
0.0
  9
$UCSYDIR
 10
0.0
 20
1.0
 30
0.0
  9
$UCSORTHOREF
  2

  9
$UCSORTHOVIEW
 70
     0
  9
$UCSORGTOP
 10
0.0
 20
0.0
 30
0.0
  9
$UCSORGBOTTOM
 10
0.0
 20
0.0
 30
0.0
  9
$UCSORGLEFT
 10
0.0
 20
0.0
 30
0.0
  9
$UCSORGRIGHT
 10
0.0
 20
0.0
 30
0.0
  9
$UCSORGFRONT
 10
0.0
 20
0.0
 30
0.0
  9
$UCSORGBACK
 10
0.0
 20
0.0
 30
0.0
  9
$PUCSBASE
  2

  9
$PUCSNAME
  2

  9
$PUCSORG
 10
0.0
 20
0.0
 30
0.0
  9
$PUCSXDIR
 10
1.0
 20
0.0
 30
0.0
  9
$PUCSYDIR
 10
0.0
 20
1.0
 30
0.0
  9
$PUCSORTHOREF
  2

  9
$PUCSORTHOVIEW
 70
     0
  9
$PUCSORGTOP
 10
0.0
 20
0.0
 30
0.0
  9
$PUCSORGBOTTOM
 10
0.0
 20
0.0
 30
0.0
  9
$PUCSORGLEFT
 10
0.0
 20
0.0
 30
0.0
  9
$PUCSORGRIGHT
 10
0.0
 20
0.0
 30
0.0
  9
$PUCSORGFRONT
 10
0.0
 20
0.0
 30
0.0
  9
$PUCSORGBACK
 10
0.0
 20
0.0
 30
0.0
  9
$USERI1
 70
     0
  9
$USERI2
 70
     0
  9
$USERI3
 70
     0
  9
$USERI4
 70
     0
  9
$USERI5
 70
     0
  9
$USERR1
 40
0.0
  9
$USERR2
 40
0.0
  9
$USERR3
 40
0.0
  9
$USERR4
 40
0.0
  9
$USERR5
 40
0.0
  9
$WORLDVIEW
 70
     1
  9
$SHADEDGE
 70
     3
  9
$SHADEDIF
 70
    70
  9
$TILEMODE
 70
     1
  9
$MAXACTVP
 70
    64
  9
$PINSBASE
 10
0.0
 20
0.0
 30
0.0
  9
$PLIMCHECK
 70
     0
  9
$PEXTMIN
 10
1.0000000000E+20
 20
1.0000000000E+20
 30
1.0000000000E+20
  9
$PEXTMAX
 10
-1.0000000000E+20
 20
-1.0000000000E+20
 30
-1.0000000000E+20
  9
$PLIMMIN
 10
0.0
 20
0.0
  9
$PLIMMAX
 10
420.0
 20
297.0
  9
$UNITMODE
 70
     0
  9
$VISRETAIN
 70
     1
  9
$PLINEGEN
 70
     0
  9
$PSLTSCALE
 70
     1
  9
$TREEDEPTH
 70
  3020
  9
$CMLSTYLE
  2
Standard
  9
$CMLJUST
 70
     0
  9
$CMLSCALE
 40
20.0
  9
$PROXYGRAPHICS
 70
     1
  9
$MEASUREMENT
 70
     1
  9
$CELWEIGHT
370
    -1
  9
$ENDCAPS
280
     0
  9
$JOINSTYLE
280
     0
  9
$LWDISPLAY
290
     1
  9
$INSUNITS
 70
     4
  9
$HYPERLINKBASE
  1

  9
$STYLESHEET
  1

  9
$XEDIT
290
     1
  9
$CEPSNTYPE
380
     0
  9
$PSTYLEMODE
290
     1
  9
$FINGERPRINTGUID
  2
{FB0AE935-995F-4B30-931F-F3343FABF9FB}
  9
$VERSIONGUID
  2
{FAEB1C32-E019-11D5-929B-00C0DF256EC4}
  9
$EXTNAMES
290
     1
  9
$PSVPSCALE
 40
0.0
  9
$OLESTARTUP
290
     0
  0
ENDSEC
  0
SECTION
  2
CLASSES
  0
CLASS
  1
ACDBDICTIONARYWDFLT
  2
AcDbDictionaryWithDefault
  3
ObjectDBX Classes
 90
        0
280
     0
281
     0
  0
CLASS
  1
VISUALSTYLE
  2
AcDbVisualStyle
  3
ObjectDBX Classes
 90
     4095
280
     0
281
     0
  0
CLASS
  1
MATERIAL
  2
AcDbMaterial
  3
ObjectDBX Classes
 90
     1153
280
     0
281
     0
  0
CLASS
  1
SCALE
  2
AcDbScale
  3
ObjectDBX Classes
 90
     1153
280
     0
281
     0
  0
CLASS
  1
TABLESTYLE
  2
AcDbTableStyle
  3
ObjectDBX Classes
 90
     4095
280
     0
281
     0
  0
CLASS
  1
MLEADERSTYLE
  2
AcDbMLeaderStyle
  3
ACDB_MLEADERSTYLE_CLASS
 90
     4095
280
     0
281
     0
  0
CLASS
  1
SUN
  2
AcDbSun
  3
SCENEOE
 90
     1153
280
     0
281
     0
  0
CLASS
  1
ACDBPLACEHOLDER
  2
AcDbPlaceHolder
  3
ObjectDBX Classes
 90
        0
280
     0
281
     0
  0
CLASS
  1
LAYOUT
  2
AcDbLayout
  3
ObjectDBX Classes
 90
        0
280
     0
281
     0
  0
ENDSEC
  0
SECTION
  2
TABLES
  0
TABLE
  2
VPORT
  5
8
330
0
100
AcDbSymbolTable
 70
     1
  0
VPORT
  5
29
330
8
100
AcDbSymbolTableRecord
100
AcDbViewportTableRecord
  2
*Active
 70
     0
 10
0.0
 20
0.0
 11
1.0
 21
1.0
 12
215.9
 22
139.7
 13
0.0
 23
0.0
 14
10.0
 24
10.0
 15
10.0
 25
10.0
 16
0.0
 26
0.0
 36
1.0
 17
0.0
 27
0.0
 37
0.0
 40
279.4
 41
1.5454545455
 42
50.0
 43
0.0
 44
0.0
 50
0.0
 51
0.0
 71
     0
 72
  2000
 73
     1
 74
     3
 75
     0
 76
     0
 77
     0
 78
     0
281
     0
 65
     1
110
0.0
120
0.0
130
0.0
111
1.0
121
0.0
131
0.0
112
0.0
122
1.0
132
0.0
 79
     0
146
0.0
  0
ENDTAB
  0
TABLE
  2
LTYPE
  5
5
330
0
100
AcDbSymbolTable
 70
     6
  0
LTYPE
  5
14
330
5
100
AcDbSymbolTableRecord
100
AcDbLinetypeTableRecord
  2
ByBlock
 70
     0
  3

 72
    65
 73
     0
 40
0.0
  0
LTYPE
  5
15
330
5
100
AcDbSymbolTableRecord
100
AcDbLinetypeTableRecord
  2
ByLayer
 70
     0
  3

 72
    65
 73
     0
 40
0.0
  0
LTYPE
  5
16
330
5
100
AcDbSymbolTableRecord
100
AcDbLinetypeTableRecord
  2
Continuous
 70
     0
  3
Solid line
 72
    65
 73
     0
 40
0.0
  0
LTYPE
  5
6E
330
5
100
AcDbSymbolTableRecord
100
AcDbLinetypeTableRecord
  2
HIDDEN
 70
     0
  3
Hidden __ __ __ __ __ __ __ __ __ __ __ __ __ __
 72
    65
 73
     2
 40
1.905
 49
1.27
 74
     0
 49
-0.635
 74
     0
  0
LTYPE
  5
6F
330
5
100
AcDbSymbolTableRecord
100
AcDbLinetypeTableRecord
  2
PHANTOM
 70
     0
  3
Phantom ______  __  __  ______  __  __  ______
 72
    65
 73
     6
 40
12.7
 49
6.35
 74
     0
 49
-1.27
 74
     0
 49
1.27
 74
     0
 49
-1.27
 74
     0
 49
1.27
 74
     0
 49
-1.27
 74
     0
  0
LTYPE
  5
70
330
5
100
AcDbSymbolTableRecord
100
AcDbLinetypeTableRecord
  2
CENTER
 70
     0
  3
Center ____ _ ____ _ ____ _ ____ _ ____ _ ____
 72
    65
 73
     4
 40
10.16
 49
6.35
 74
     0
 49
-1.27
 74
     0
 49
1.27
 74
     0
 49
-1.27
 74
     0
  0
LTYPE
  5
71
330
5
100
AcDbSymbolTableRecord
100
AcDbLinetypeTableRecord
  2
CENTERX2
 70
     0
  3
Center (2x) ________  __  ________  __  _____
 72
    65
 73
     4
 40
20.32
 49
12.7
 74
     0
 49
-2.54
 74
     0
 49
2.54
 74
     0
 49
-2.54
 74
     0
  0
LTYPE
  5
72
330
5
100
AcDbSymbolTableRecord
100
AcDbLinetypeTableRecord
  2
DOT2
 70
     0
  3
Dot (.5x) ........................................
 72
    65
 73
     2
 40
0.635
 49
0.0
 74
     0
 49
-0.635
 74
     0
  0
ENDTAB
  0
TABLE
  2
LAYER
  5
2
330
0
100
AcDbSymbolTable
 70
     1
  0
LAYER
  5
10
330
2
100
AcDbSymbolTableRecord
100
AcDbLayerTableRecord
  2
0
 70
     0
 62
     7
  6
Continuous
370
    -3
390
F
  0
ENDTAB
  0
TABLE
  2
STYLE
  5
3
330
0
100
AcDbSymbolTable
 70
     2
  0
STYLE
  5
11
330
3
100
AcDbSymbolTableRecord
100
AcDbTextStyleTableRecord
  2
Standard
 70
     0
 40
0.0
 41
1.0
 50
0.0
 71
     0
 42
3.5
  3
txt
  4
bigfont
  0
STYLE
  5
73
330
3
100
AcDbSymbolTableRecord
100
AcDbTextStyleTableRecord
  2
SLDTEXTSTYLE0
 70
     0
 40
0.0
 41
0.7
 50
0.0
 71
     0
 42
3.5
  3
TXT
  4
bigfont
  0
ENDTAB
  0
TABLE
  2
VIEW
  5
6
330
0
100
AcDbSymbolTable
 70
     0
  0
ENDTAB
  0
TABLE
  2
UCS
  5
7
330
0
100
AcDbSymbolTable
 70
     0
  0
ENDTAB
  0
TABLE
  2
APPID
  5
9
330
0
100
AcDbSymbolTable
 70
     1
  0
APPID
  5
12
330
9
100
AcDbSymbolTableRecord
100
AcDbRegAppTableRecord
  2
ACAD
 70
     0
  0
ENDTAB
  0
TABLE
  2
DIMSTYLE
  5
A
330
0
100
AcDbSymbolTable
 70
     1
100
AcDbDimStyleTable
  0
DIMSTYLE
105
27
330
A
100
AcDbSymbolTableRecord
100
AcDbDimStyleTableRecord
  2
ISO-25
 70
     0
 41
2.5
 42
0.625
 43
3.75
 44
1.25
 73
     0
 74
     0
 77
     1
 78
     8
140
2.5
141
2.5
143
0.0393700787
147
0.625
171
     3
172
     1
178
     0
271
     2
272
     2
274
     3
278
    44
283
     0
284
     8
340
11
  0
ENDTAB
  0
TABLE
  2
BLOCK_RECORD
  5
1
330
0
100
AcDbSymbolTable
 70
     3
  0
BLOCK_RECORD
  5
1F
330
1
100
AcDbSymbolTableRecord
100
AcDbBlockTableRecord
  2
*Model_Space
340
22
  0
BLOCK_RECORD
  5
1B
330
1
100
AcDbSymbolTableRecord
100
AcDbBlockTableRecord
  2
*Paper_Space
340
1E
  0
BLOCK_RECORD
  5
23
330
1
100
AcDbSymbolTableRecord
100
AcDbBlockTableRecord
  2
*Paper_Space0
340
26
  0
BLOCK_RECORD
  5
17F
330
1
100
AcDbSymbolTableRecord
100
AcDbBlockTableRecord
  2
SW_CENTERMARKSYMBOL_0
340
0
102
{BLKREFS
331
18A
102
}
  0
BLOCK_RECORD
  5
278
330
1
100
AcDbSymbolTableRecord
100
AcDbBlockTableRecord
  2
SW_CENTERMARKSYMBOL_1
340
0
102
{BLKREFS
331
283
102
}
  0
ENDTAB
  0
ENDSEC
  0
SECTION
  2
BLOCKS
  0
BLOCK
  5
20
330
1F
100
AcDbEntity
  8
0
100
AcDbBlockBegin
  2
*Model_Space
 70
     0
 10
0.0
 20
0.0
 30
0.0
  3
*Model_Space
  1

  0
ENDBLK
  5
21
330
1F
100
AcDbEntity
  8
0
100
AcDbBlockEnd
  0
BLOCK
  5
1C
330
1B
100
AcDbEntity
 67
     1
  8
0
100
AcDbBlockBegin
  2
*Paper_Space
 70
     0
 10
0.0
 20
0.0
 30
0.0
  3
*Paper_Space
  1

  0
ENDBLK
  5
1D
330
1B
100
AcDbEntity
 67
     1
  8
0
100
AcDbBlockEnd
  0
BLOCK
  5
24
330
23
100
AcDbEntity
  8
0
100
AcDbBlockBegin
  2
*Paper_Space0
 70
     0
 10
0.0
 20
0.0
 30
0.0
  3
*Paper_Space0
  1

  0
ENDBLK
  5
25
330
23
100
AcDbEntity
  8
0
100
AcDbBlockEnd
  0
BLOCK
  5
180
330
17F
100
AcDbEntity
  8
0
100
AcDbBlockBegin
  2
SW_CENTERMARKSYMBOL_0
 70
     0
 10
0.0
 20
0.0
 30
0.0
  3
SW_CENTERMARKSYMBOL_0
  1

  0
LINE
  5
182
330
17F
100
AcDbEntity
  8
0
  6
Continuous
 62
     0
370
    18
100
AcDbLine
 10
0.0
 20
0.0
 30
0.0
 11
0.0
 21
2.5
 31
0.0
  0
LINE
  5
183
330
17F
100
AcDbEntity
  8
0
  6
Continuous
 62
     0
370
    18
100
AcDbLine
 10
0.0
 20
0.0
 30
0.0
 11
-2.5
 21
0.0
 31
0.0
  0
LINE
  5
184
330
17F
100
AcDbEntity
  8
0
  6
Continuous
 62
     0
370
    18
100
AcDbLine
 10
0.0
 20
0.0
 30
0.0
 11
0.0
 21
-2.5
 31
0.0
  0
LINE
  5
185
330
17F
100
AcDbEntity
  8
0
  6
Continuous
 62
     0
370
    18
100
AcDbLine
 10
0.0
 20
0.0
 30
0.0
 11
2.5
 21
0.0
 31
0.0
  0
LINE
  5
186
330
17F
100
AcDbEntity
  8
0
  6
Continuous
 62
     0
370
    18
100
AcDbLine
 10
0.0
 20
5.0
 30
0.0
 11
0.0
 21
27.0549585753
 31
0.0
  0
LINE
  5
187
330
17F
100
AcDbEntity
  8
0
  6
Continuous
 62
     0
370
    18
100
AcDbLine
 10
-5.0
 20
0.0
 30
0.0
 11
-11.5
 21
0.0
 31
0.0
  0
LINE
  5
188
330
17F
100
AcDbEntity
  8
0
  6
Continuous
 62
     0
370
    18
100
AcDbLine
 10
0.0
 20
-5.0
 30
0.0
 11
0.0
 21
-11.5
 31
0.0
  0
LINE
  5
189
330
17F
100
AcDbEntity
  8
0
  6
Continuous
 62
     0
370
    18
100
AcDbLine
 10
5.0
 20
0.0
 30
0.0
 11
11.5
 21
0.0
 31
0.0
  0
ENDBLK
  5
181
330
17F
100
AcDbEntity
  8
0
100
AcDbBlockEnd
  0
BLOCK
  5
279
330
278
100
AcDbEntity
  8
0
100
AcDbBlockBegin
  2
SW_CENTERMARKSYMBOL_1
 70
     0
 10
0.0
 20
0.0
 30
0.0
  3
SW_CENTERMARKSYMBOL_1
  1

  0
LINE
  5
27B
330
278
100
AcDbEntity
  8
0
  6
Continuous
 62
     0
370
    18
100
AcDbLine
 10
0.0
 20
0.0
 30
0.0
 11
0.0
 21
2.5
 31
0.0
  0
LINE
  5
27C
330
278
100
AcDbEntity
  8
0
  6
Continuous
 62
     0
370
    18
100
AcDbLine
 10
0.0
 20
0.0
 30
0.0
 11
-2.5
 21
0.0
 31
0.0
  0
LINE
  5
27D
330
278
100
AcDbEntity
  8
0
  6
Continuous
 62
     0
370
    18
100
AcDbLine
 10
0.0
 20
0.0
 30
0.0
 11
0.0
 21
-2.5
 31
0.0
  0
LINE
  5
27E
330
278
100
AcDbEntity
  8
0
  6
Continuous
 62
     0
370
    18
100
AcDbLine
 10
0.0
 20
0.0
 30
0.0
 11
2.5
 21
0.0
 31
0.0
  0
LINE
  5
27F
330
278
100
AcDbEntity
  8
0
  6
Continuous
 62
     0
370
    18
100
AcDbLine
 10
0.0
 20
5.0
 30
0.0
 11
0.0
 21
7.965117859
 31
0.0
  0
LINE
  5
280
330
278
100
AcDbEntity
  8
0
  6
Continuous
 62
     0
370
    18
100
AcDbLine
 10
-5.0
 20
0.0
 30
0.0
 11
-26.0391579556
 21
0.0
 31
0.0
  0
LINE
  5
281
330
278
100
AcDbEntity
  8
0
  6
Continuous
 62
     0
370
    18
100
AcDbLine
 10
0.0
 20
-5.0
 30
0.0
 11
0.0
 21
-8.0363180763
 31
0.0
  0
LINE
  5
282
330
278
100
AcDbEntity
  8
0
  6
Continuous
 62
     0
370
    18
100
AcDbLine
 10
5.0
 20
0.0
 30
0.0
 11
26.2674227197
 21
0.0
 31
0.0
  0
ENDBLK
  5
27A
330
278
100
AcDbEntity
  8
0
100
AcDbBlockEnd
  0
ENDSEC
  0
SECTION
  2
ENTITIES
  0
MTEXT
  5
74
330
1F
100
AcDbEntity
  8
0
  6
Continuous
 62
     7
370
     0
100
AcDbMText
 10
147.2920362301
 20
117.5974195562
 30
0.0
 40
5.2916666667
 41
0.0
 71
     1
 72
     1
  1
5R-TK1222
  7
SLDTEXTSTYLE0
 73
     1
 44
1.0
  0
LINE
  5
75
330
1F
100
AcDbEntity
  8
0
  6
Continuous
 62
     7
370
    25
100
AcDbLine
 10
136.6553506392
 20
70.9796558788
 30
0.0
 11
147.6553496483
 21
70.9796558788
 31
0.0
  0
LINE
  5
76
330
1F
100
AcDbEntity
  8
0
  6
Continuous
 62
     7
370
    25
100
AcDbLine
 10
147.6553496483
 20
88.9796551039
 30
0.0
 11
136.6553506392
 21
88.9796551039
 31
0.0
  0
LINE
  5
77
330
1F
100
AcDbEntity
  8
0
  6
Continuous
 62
     7
370
    25
100
AcDbLine
 10
109.6553499388
 20
88.9796551039
 30
0.0
 11
98.6553509298
 21
88.9796551039
 31
0.0
  0
LINE
  5
78
330
1F
100
AcDbEntity
  8
0
  6
Continuous
 62
     7
370
    25
100
AcDbLine
 10
98.6553509298
 20
70.9796558788
 30
0.0
 11
109.6553499388
 21
70.9796558788
 31
0.0
  0
LINE
  5
79
330
1F
100
AcDbEntity
  8
0
  6
Continuous
 62
     7
370
    25
100
AcDbLine
 10
147.6553496483
 20
70.9796558788
 30
0.0
 11
148.1553506615
 21
71.4796550294
 31
0.0
  0
LINE
  5
7A
330
1F
100
AcDbEntity
  8
0
  6
Continuous
 62
     7
370
    25
100
AcDbLine
 10
148.1553506615
 20
88.4796559533
 30
0.0
 11
147.6553496483
 21
88.9796551039
 31
0.0
  0
LINE
  5
7B
330
1F
100
AcDbEntity
  8
0
  6
Continuous
 62
     7
370
    25
100
AcDbLine
 10
98.6553509298
 20
88.9796551039
 30
0.0
 11
98.1553499165
 21
88.4796559533
 31
0.0
  0
LINE
  5
7C
330
1F
100
AcDbEntity
  8
0
  6
Continuous
 62
     7
370
    25
100
AcDbLine
 10
98.1553499165
 20
71.4796550294
 30
0.0
 11
98.6553509298
 21
70.9796558788
 31
0.0
  0
ARC
  5
7D
330
1F
100
AcDbEntity
  8
0
  6
Continuous
 62
     7
370
    25
100
AcDbCircle
 10
136.655350289
 20
87.4796554913
 30
0.0
 40
1.500000000000015
100
AcDbArc
 50
90.0
 51
168.4630409672
  0
ARC
  5
7E
330
1F
100
AcDbEntity
  8
0
  6
Continuous
 62
     7
370
    25
100
AcDbCircle
 10
136.655350289
 20
72.4796554913
 30
0.0
 40
1.500000000000015
100
AcDbArc
 50
191.5369590328
 51
270.0
  0
ARC
  5
7F
330
1F
100
AcDbEntity
  8
0
  6
Continuous
 62
     7
370
    25
100
AcDbCircle
 10
109.655350289
 20
87.4796554913
 30
0.0
 40
1.500000000000001
100
AcDbArc
 50
11.5369590328
 51
90.0
  0
ARC
  5
80
330
1F
100
AcDbEntity
  8
0
  6
Continuous
 62
     7
370
    25
100
AcDbCircle
 10
109.655350289
 20
72.4796554913
 30
0.0
 40
1.500000000000004
100
AcDbArc
 50
270.0
 51
348.4630409672
  0
ARC
  5
81
330
1F
100
AcDbEntity
  8
0
  6
Continuous
 62
     7
370
    25
100
AcDbCircle
 10
112.1048400318
 20
87.9796554913
 30
0.0
 40
1.000000000000006
100
AcDbArc
 50
191.5369590328
 51
270.0
  0
ARC
  5
82
330
1F
100
AcDbEntity
  8
0
  6
Continuous
 62
     7
370
    25
100
AcDbCircle
 10
112.1048400318
 20
71.9796554913
 30
0.0
 40
1.000000000000004
100
AcDbArc
 50
90.0
 51
168.4630409672
  0
ARC
  5
83
330
1F
100
AcDbEntity
  8
0
  6
Continuous
 62
     7
370
    25
100
AcDbCircle
 10
134.2058605462
 20
87.9796554913
 30
0.0
 40
1.0
100
AcDbArc
 50
270.0
 51
348.4630409672
  0
ARC
  5
84
330
1F
100
AcDbEntity
  8
0
  6
Continuous
 62
     7
370
    25
100
AcDbCircle
 10
134.2058605462
 20
71.9796554913
 30
0.0
 40
1.0
100
AcDbArc
 50
11.5369590328
 51
90.0
  0
LINE
  5
85
330
1F
100
AcDbEntity
  8
0
  6
Continuous
 62
     7
370
    25
100
AcDbLine
 10
115.6553504567
 20
86.9796557074
 30
0.0
 11
112.1048400688
 21
86.9796557074
 31
0.0
  0
LINE
  5
86
330
1F
100
AcDbEntity
  8
0
  6
Continuous
 62
     7
370
    25
100
AcDbLine
 10
134.2058605092
 20
86.9796557074
 30
0.0
 11
130.6553501214
 21
86.9796557074
 31
0.0
  0
LINE
  5
87
330
1F
100
AcDbEntity
  8
0
  6
Continuous
 62
     7
370
    25
100
AcDbLine
 10
112.1048400688
 20
72.9796552753
 30
0.0
 11
134.2058605092
 21
72.9796552753
 31
0.0
  0
LINE
  5
88
330
1F
100
AcDbEntity
  8
0
  6
Continuous
 62
     7
370
    25
100
AcDbLine
 10
116.155350073
 20
89.9796552678
 30
0.0
 11
116.155350073
 21
87.4796553237
 31
0.0
  0
LINE
  5
89
330
1F
100
AcDbEntity
  8
0
  6
Continuous
 62
     7
370
    25
100
AcDbLine
 10
130.1553505051
 20
87.4796553237
 30
0.0
 11
130.1553505051
 21
89.9796552678
 31
0.0
  0
LINE
  5
8A
330
1F
100
AcDbEntity
  8
0
  6
Continuous
 62
     7
370
    25
100
AcDbLine
 10
129.9835377882
 20
89.9796552678
 30
0.0
 11
129.6113123695
 21
101.8908686658
 31
0.0
  0
LINE
  5
8B
330
1F
100
AcDbEntity
  8
0
  6
Continuous
 62
     7
370
    25
100
AcDbLine
 10
116.6993882085
 20
101.8908686658
 30
0.0
 11
116.3271627898
 21
89.9796552678
 31
0.0
  0
LINE
  5
8C
330
1F
100
AcDbEntity
  8
0
  6
Continuous
 62
     7
370
    25
100
AcDbLine
 10
129.6113123695
 20
101.8908686658
 30
0.0
 11
128.4053502182
 21
103.9796556999
 31
0.0
  0
LINE
  5
8D
330
1F
100
AcDbEntity
  8
0
  6
Continuous
 62
     7
370
    25
100
AcDbLine
 10
117.9053503598
 20
103.9796556999
 30
0.0
 11
116.6993882085
 21
101.8908686658
 31
0.0
  0
SPLINE
  5
8E
330
1F
100
AcDbEntity
  8
0
  6
Continuous
 62
     7
370
    25
100
AcDbSpline
210
0.0
220
0.0
230
1.0
 70
     8
 71
     3
 72
    11
 73
     7
 74
     0
 42
0.000000001
 43
0.00000001
 40
0.0
 40
0.0
 40
0.0
 40
0.0
 40
0.2501293618956914
 40
0.5
 40
0.7498706381043087
 40
1.0
 40
1.0
 40
1.0
 40
1.0
 10
130.6552947076861
 20
86.97960355333214
 30
0.0
 10
130.5898427700648
 20
86.98734207749646
 30
0.0
 10
130.4590065956845
 20
87.00281112140571
 30
0.0
 10
130.2931922438908
 20
87.11749744620305
 30
0.0
 10
130.1785059190935
 20
87.28331179799666
 30
0.0
 10
130.1630368751843
 20
87.414147972377
 30
0.0
 10
130.15529835102
 20
87.47959990999823
 30
0.0
  0
SPLINE
  5
8F
330
1F
100
AcDbEntity
  8
0
  6
Continuous
 62
     7
370
    25
100
AcDbSpline
210
0.0
220
0.0
230
1.0
 70
     8
 71
     3
 72
    11
 73
     7
 74
     0
 42
0.000000001
 43
0.00000001
 40
0.0
 40
0.0
 40
0.0
 40
0.0
 40
0.2501293618956914
 40
0.5
 40
0.7498706381043087
 40
1.0
 40
1.0
 40
1.0
 40
1.0
 10
116.1554022270146
 20
87.47959990999823
 30
0.0
 10
116.1476637028503
 20
87.414147972377
 30
0.0
 10
116.1321946589411
 20
87.28331179799667
 30
0.0
 10
116.0175083341437
 20
87.11749744620305
 30
0.0
 10
115.8516939823501
 20
87.00281112140571
 30
0.0
 10
115.7208578079698
 20
86.98734207749646
 30
0.0
 10
115.6554058703486
 20
86.97960355333214
 30
0.0
  0
LINE
  5
90
330
1F
100
AcDbEntity
  8
0
  6
Continuous
 62
     7
370
    25
100
AcDbLine
 10
147.6553496483
 20
70.9796558788
 30
0.0
 11
147.6553496483
 21
88.9796551039
 31
0.0
  0
LINE
  5
91
330
1F
100
AcDbEntity
  8
0
  6
Continuous
 62
     7
370
    25
100
AcDbLine
 10
98.6553509298
 20
79.9796554913
 30
0.0
 11
98.6553509298
 21
70.9796558788
 31
0.0
  0
LINE
  5
92
330
1F
100
AcDbEntity
  8
0
  6
Continuous
 62
     7
370
    25
100
AcDbLine
 10
98.6553509298
 20
88.9796551039
 30
0.0
 11
98.6553509298
 21
79.9796554913
 31
0.0
  0
LINE
  5
93
330
1F
100
AcDbEntity
  8
0
  6
Continuous
 62
     7
370
    25
100
AcDbLine
 10
148.1553506615
 20
88.4796559533
 30
0.0
 11
148.1553506615
 21
71.4796550294
 31
0.0
  0
LINE
  5
94
330
1F
100
AcDbEntity
  8
0
  6
Continuous
 62
     7
370
    25
100
AcDbLine
 10
98.1553499165
 20
79.9796554913
 30
0.0
 11
98.1553499165
 21
88.4796559533
 31
0.0
  0
LINE
  5
95
330
1F
100
AcDbEntity
  8
0
  6
Continuous
 62
     7
370
    25
100
AcDbLine
 10
98.1553499165
 20
71.4796550294
 30
0.0
 11
98.1553499165
 21
79.9796554913
 31
0.0
  0
SPLINE
  5
96
330
1F
100
AcDbEntity
  8
0
  6
Continuous
 62
     7
370
    25
100
AcDbSpline
210
0.0
220
0.0
230
1.0
 70
     8
 71
     3
 72
    13
 73
     9
 74
     0
 42
0.000000001
 43
0.00000001
 40
0.0
 40
0.0
 40
0.0
 40
0.0
 40
0.1856794033212272
 40
0.3634611737568169
 40
0.533542336720674
 40
0.6961479207300177
 40
0.8515354443703902
 40
1.0
 40
1.0
 40
1.0
 40
1.0
 10
115.3108934715596
 20
82.40452662191151
 30
0.0
 10
115.2945651657165
 20
82.47184941907996
 30
0.0
 10
115.262603057367
 20
82.60363152545125
 30
0.0
 10
115.2238842041351
 20
82.79572394215734
 30
0.0
 10
115.1933301250474
 20
82.97831102432905
 30
0.0
 10
115.1717133881382
 20
83.15138486310882
 30
0.0
 10
115.1580056936495
 20
83.31534486399619
 30
0.0
 10
115.1562218763929
 20
83.42049288732356
 30
0.0
 10
115.1553502890173
 20
83.4718690523185
 30
0.0
  0
SPLINE
  5
97
330
1F
100
AcDbEntity
  8
0
  6
Continuous
 62
     7
370
    25
100
AcDbSpline
210
0.0
220
0.0
230
1.0
 70
     8
 71
     3
 72
    17
 73
    13
 74
     0
 42
0.000000001
 43
0.00000001
 40
0.0
 40
0.0
 40
0.0
 40
0.0
 40
0.1130667886658668
 40
0.2142471894553318
 40
0.3035410226158834
 40
0.3809482842621089
 40
0.4464692357998273
 40
0.5001045924259258
 40
0.6375226532033567
 40
0.75004211245356
 40
0.8820380142920121
 40
1.0
 40
1.0
 40
1.0
 40
1.0
 10
115.6553502890173
 20
79.9796554913295
 30
0.0
 10
115.6451206629134
 20
80.0733729625914
 30
0.0
 10
115.6257368220189
 20
80.25095565559654
 30
0.0
 10
115.597842577461
 20
80.50211497662863
 30
0.0
 10
115.5728497697635
 20
80.72315369834968
 30
0.0
 10
115.5507203722295
 20
80.91410070126788
 30
0.0
 10
115.5315205455032
 20
81.07511714911209
 30
0.0
 10
115.5053387801501
 20
81.2844392561827
 30
0.0
 10
115.4723572385591
 20
81.53042220504778
 30
0.0
 10
115.4267629641449
 20
81.83607237602082
 30
0.0
 10
115.376854307466
 20
82.1222094241213
 30
0.0
 10
115.3320417479864
 20
82.31401045338745
 30
0.0
 10
115.3108934715596
 20
82.40452662191151
 30
0.0
  0
SPLINE
  5
98
330
1F
100
AcDbEntity
  8
0
  6
Continuous
 62
     7
370
    25
100
AcDbSpline
210
0.0
220
0.0
230
1.0
 70
     8
 71
     3
 72
    14
 73
    10
 74
     0
 42
0.000000001
 43
0.00000001
 40
0.0
 40
0.0
 40
0.0
 40
0.0
 40
0.0771019312675692
 40
0.1604220743863116
 40
0.2500134455674957
 40
0.3625277428666271
 40
0.4999872826714505
 40
0.6965319275930101
 40
1.0
 40
1.0
 40
1.0
 40
1.0
 10
115.3108934715596
 20
77.55478436074748
 30
0.0
 10
115.3250227484628
 20
77.61377782162077
 30
0.0
 10
115.3544208176568
 20
77.73652252091604
 30
0.0
 10
115.3929387138677
 20
77.93161399796902
 30
0.0
 10
115.4320012403568
 20
78.15707227482602
 30
0.0
 10
115.472281746759
 20
78.42891078142847
 30
0.0
 10
115.5209404413075
 20
78.79058483795552
 30
0.0
 10
115.5823752808433
 20
79.31347879859547
 30
0.0
 10
115.6277882298526
 20
79.72804604477011
 30
0.0
 10
115.6553502890173
 20
79.9796554913295
 30
0.0
  0
SPLINE
  5
99
330
1F
100
AcDbEntity
  8
0
  6
Continuous
 62
     7
370
    25
100
AcDbSpline
210
0.0
220
0.0
230
1.0
 70
     8
 71
     3
 72
    13
 73
     9
 74
     0
 42
0.000000001
 43
0.00000001
 40
0.0
 40
0.0
 40
0.0
 40
0.0
 40
0.1484645556296105
 40
0.303852079269983
 40
0.4664576632793263
 40
0.6365388262431836
 40
0.8143205966787732
 40
1.0
 40
1.0
 40
1.0
 40
1.0
 10
115.1553502890173
 20
76.4874419303405
 30
0.0
 10
115.1562218763929
 20
76.53881809533543
 30
0.0
 10
115.1580056936495
 20
76.64396611866279
 30
0.0
 10
115.1717133881382
 20
76.80792611955017
 30
0.0
 10
115.1933301250474
 20
76.98099995832995
 30
0.0
 10
115.2238842041351
 20
77.16358704050167
 30
0.0
 10
115.262603057367
 20
77.35567945720774
 30
0.0
 10
115.2945651657165
 20
77.48746156357902
 30
0.0
 10
115.3108934715596
 20
77.55478436074748
 30
0.0
  0
LINE
  5
9A
330
1F
100
AcDbEntity
  8
0
  6
Continuous
 62
     7
370
    25
100
AcDbLine
 10
115.155349909
 20
73.912989041
 30
0.0
 11
115.155349909
 21
76.4874419385
 31
0.0
  0
LINE
  5
9B
330
1F
100
AcDbEntity
  8
0
  6
Continuous
 62
     7
370
    25
100
AcDbLine
 10
131.155350669
 20
73.912989041
 30
0.0
 11
115.155349909
 21
73.912989041
 31
0.0
  0
LINE
  5
9C
330
1F
100
AcDbEntity
  8
0
  6
Continuous
 62
     7
370
    25
100
AcDbLine
 10
131.155350669
 20
76.4874419385
 30
0.0
 11
131.155350669
 21
73.912989041
 31
0.0
  0
SPLINE
  5
9D
330
1F
100
AcDbEntity
  8
0
  6
Continuous
 62
     7
370
    25
100
AcDbSpline
210
0.0
220
0.0
230
1.0
 70
     8
 71
     3
 72
    13
 73
     9
 74
     0
 42
0.000000001
 43
0.00000001
 40
0.0
 40
0.0
 40
0.0
 40
0.0
 40
0.1856794033212448
 40
0.3634611737568449
 40
0.5335423367206995
 40
0.6961479207300406
 40
0.8515354443704051
 40
0.9999999999999999
 40
0.9999999999999999
 40
0.9999999999999999
 40
0.9999999999999999
 10
130.999807106475
 20
77.55478436074748
 30
0.0
 10
131.0161354123182
 20
77.48746156357902
 30
0.0
 10
131.0480975206676
 20
77.35567945720773
 30
0.0
 10
131.0868163738996
 20
77.16358704050164
 30
0.0
 10
131.1173704529872
 20
76.9809999583299
 30
0.0
 10
131.1389871898964
 20
76.80792611955015
 30
0.0
 10
131.1526948843851
 20
76.64396611866279
 30
0.0
 10
131.1544787016418
 20
76.53881809533542
 30
0.0
 10
131.1553502890173
 20
76.4874419303405
 30
0.0
  0
SPLINE
  5
9E
330
1F
100
AcDbEntity
  8
0
  6
Continuous
 62
     7
370
    25
100
AcDbSpline
210
0.0
220
0.0
230
1.0
 70
     8
 71
     3
 72
    16
 73
    12
 74
     0
 42
0.000000001
 43
0.00000001
 40
0.0
 40
0.0
 40
0.0
 40
0.0
 40
0.1113707256031287
 40
0.2115306859456111
 40
0.3004797843893181
 40
0.3782180970979205
 40
0.444745959733242
 40
0.5000641419851813
 40
0.7004020768438615
 40
0.8669907153098478
 40
1.0
 40
1.0
 40
1.0
 40
1.0
 10
130.6553502890173
 20
79.9796554913295
 30
0.0
 10
130.665427968031
 20
79.88735179221328
 30
0.0
 10
130.6845688898752
 20
79.71203584016544
 30
0.0
 10
130.7122146079211
 20
79.46342319211745
 30
0.0
 10
130.7371633964292
 20
79.24324140304591
 30
0.0
 10
130.7594445295587
 20
79.05147478912552
 30
0.0
 10
130.7790236520422
 20
78.88798938882523
 30
0.0
 10
130.8119113721005
 20
78.6251366946307
 30
0.0
 10
130.8597900291764
 20
78.28407637883775
 30
0.0
 10
130.9243033883261
 20
77.88735012563659
 30
0.0
 10
130.9765927555343
 20
77.65703493285548
 30
0.0
 10
130.999807106475
 20
77.55478436074748
 30
0.0
  0
SPLINE
  5
9F
330
1F
100
AcDbEntity
  8
0
  6
Continuous
 62
     7
370
    25
100
AcDbSpline
210
0.0
220
0.0
230
1.0
 70
     8
 71
     3
 72
    14
 73
    10
 74
     0
 42
0.000000001
 43
0.00000001
 40
0.0
 40
0.0
 40
0.0
 40
0.0
 40
0.0771019312872794
 40
0.1604220744063169
 40
0.2500134455684252
 40
0.3625277428809286
 40
0.4999872826729911
 40
0.6965319256112464
 40
1.0
 40
1.0
 40
1.0
 40
1.0
 10
130.999807106475
 20
82.40452662191151
 30
0.0
 10
130.9856778295679
 20
82.34553316102327
 30
0.0
 10
130.9562797603697
 20
82.22278846171297
 30
0.0
 10
130.9177618641573
 20
82.02769698465939
 30
0.0
 10
130.8786993376724
 20
81.80223870780624
 30
0.0
 10
130.8384188312789
 20
81.53040020121817
 30
0.0
 10
130.7897601369211
 20
81.16872614630003
 30
0.0
 10
130.7283252974706
 20
80.64583218569999
 30
0.0
 10
130.6829123483997
 20
80.23126493952996
 30
0.0
 10
130.6553502890173
 20
79.9796554913295
 30
0.0
  0
SPLINE
  5
A0
330
1F
100
AcDbEntity
  8
0
  6
Continuous
 62
     7
370
    25
100
AcDbSpline
210
0.0
220
0.0
230
1.0
 70
     8
 71
     3
 72
    13
 73
     9
 74
     0
 42
0.000000001
 43
0.00000001
 40
0.0
 40
0.0
 40
0.0
 40
0.0
 40
0.1484645556295969
 40
0.303852079269964
 40
0.4664576632793
 40
0.6365388262431574
 40
0.814320596678755
 40
1.0
 40
1.0
 40
1.0
 40
1.0
 10
131.1553502890173
 20
83.4718690523185
 30
0.0
 10
131.1544787016418
 20
83.42049288732358
 30
0.0
 10
131.1526948843851
 20
83.3153448639962
 30
0.0
 10
131.1389871898964
 20
83.15138486310885
 30
0.0
 10
131.1173704529872
 20
82.97831102432906
 30
0.0
 10
131.0868163738996
 20
82.79572394215735
 30
0.0
 10
131.0480975206676
 20
82.60363152545126
 30
0.0
 10
131.0161354123182
 20
82.47184941907996
 30
0.0
 10
130.999807106475
 20
82.40452662191151
 30
0.0
  0
LINE
  5
A1
330
1F
100
AcDbEntity
  8
0
  6
Continuous
 62
     7
370
    25
100
AcDbLine
 10
131.155350669
 20
85.1129886416
 30
0.0
 11
131.155350669
 21
83.4718690441
 31
0.0
  0
SPLINE
  5
A2
330
1F
100
AcDbEntity
  8
0
  6
Continuous
 62
     7
370
    25
100
AcDbSpline
210
0.0
220
0.0
230
1.0
 70
     8
 71
     3
 72
    13
 73
     9
 74
     0
 42
0.000000001
 43
0.00000001
 40
0.0
 40
0.0
 40
0.0
 40
0.0
 40
0.1257153360577753
 40
0.250986709269415
 40
0.3762164861937409
 40
0.5018074329537138
 40
0.7521854029755236
 40
1.0
 40
1.0
 40
1.0
 40
1.0
 10
130.9369946624618
 20
85.69513155782357
 30
0.0
 10
130.9541889396331
 20
85.67404571797287
 30
0.0
 10
130.9885167725041
 20
85.63194850277013
 30
0.0
 10
131.0320863207392
 20
85.56503578693825
 30
0.0
 10
131.0696941243839
 20
85.49552053528679
 30
0.0
 10
131.1107174019649
 20
85.39918709796102
 30
0.0
 10
131.1472459567197
 20
85.27335328241976
 30
0.0
 10
131.1526581274146
 20
85.16625996653663
 30
0.0
 10
131.1553502890173
 20
85.11298882466282
 30
0.0
  0
SPLINE
  5
A3
330
1F
100
AcDbEntity
  8
0
  6
Continuous
 62
     7
370
    25
100
AcDbSpline
210
0.0
220
0.0
230
1.0
 70
     8
 71
     3
 72
    16
 73
    12
 74
     0
 42
0.000000001
 43
0.00000001
 40
0.0
 40
0.0
 40
0.0
 40
0.0
 40
0.065953468215878
 40
0.1324870475734065
 40
0.2006767984510681
 40
0.2715233530653123
 40
0.3459202143274948
 40
0.4246400792148715
 40
0.5083359903947017
 40
0.7405135829365557
 40
1.0
 40
1.0
 40
1.0
 40
1.0
 10
130.1553502890173
 20
86.04632215799616
 30
0.0
 10
130.1788623414443
 20
86.04587013263556
 30
0.0
 10
130.2260932527628
 20
86.04496210600594
 30
0.0
 10
130.2964113390569
 20
86.0377291833436
 30
0.0
 10
130.3660704537295
 20
86.02616122190642
 30
0.0
 10
130.4350467842113
 20
86.00977383620953
 30
0.0
 10
130.5033381583542
 20
85.98860079907777
 30
0.0
 10
130.5709652425944
 20
85.96248360209368
 30
0.0
 10
130.6759667122441
 20
85.91356055376244
 30
0.0
 10
130.8097503597814
 20
85.82937811958773
 30
0.0
 10
130.8930378636343
 20
85.74150730105487
 30
0.0
 10
130.9369946624618
 20
85.69513155782357
 30
0.0
  0
SPLINE
  5
A4
330
1F
100
AcDbEntity
  8
0
  6
Continuous
 62
     7
370
    25
100
AcDbSpline
210
0.0
220
0.0
230
1.0
 70
     8
 71
     3
 72
    13
 73
     9
 74
     0
 42
0.000000001
 43
0.00000001
 40
0.0
 40
0.0
 40
0.0
 40
0.0
 40
0.1759205118839867
 40
0.3391896075500394
 40
0.4921931780779421
 40
0.6738397335242767
 40
0.8395017852842264
 40
1.0
 40
1.0
 40
1.0
 40
1.0
 10
129.801796898424
 20
86.1830056601091
 30
0.0
 10
129.8148954429706
 20
86.17148048271191
 30
0.0
 10
129.8401505433376
 20
86.149258967117
 30
0.0
 10
129.8859936099179
 20
86.11885534782347
 30
0.0
 10
129.9398845913474
 20
86.09065163537461
 30
0.0
 10
130.0032325126107
 20
86.06672570712877
 30
0.0
 10
130.0777867085083
 20
86.04959946013605
 30
0.0
 10
130.1297700994598
 20
86.04740300044084
 30
0.0
 10
130.1553502890173
 20
86.04632215799616
 30
0.0
  0
SPLINE
  5
A5
330
1F
100
AcDbEntity
  8
0
  6
Continuous
 62
     7
370
    25
100
AcDbSpline
210
0.0
220
0.0
230
1.0
 70
     8
 71
     3
 72
    14
 73
    10
 74
     0
 42
0.000000001
 43
0.00000001
 40
0.0
 40
0.0
 40
0.0
 40
0.0
 40
0.0960186407856747
 40
0.1924368822044046
 40
0.2917857869559113
 40
0.3963838799166358
 40
0.5082236945494524
 40
0.7392053714339348
 40
1.0
 40
1.0
 40
1.0
 40
1.0
 10
116.1553502890173
 20
86.04632215799617
 30
0.0
 10
116.1706307959592
 20
86.04672024589081
 30
0.0
 10
116.2012554027058
 20
86.04751807840192
 30
0.0
 10
116.2463803237957
 20
86.05352460092833
 30
0.0
 10
116.2903034011556
 20
86.06300225985868
 30
0.0
 10
116.3329996683271
 20
86.07621108759881
 30
0.0
 10
116.3880121474792
 20
86.09837584324046
 30
0.0
 10
116.4516670649373
 20
86.1337469490347
 30
0.0
 10
116.4890690022541
 20
86.16593563165381
 30
0.0
 10
116.5089036796106
 20
86.1830056601091
 30
0.0
  0
SPLINE
  5
A6
330
1F
100
AcDbEntity
  8
0
  6
Continuous
 62
     7
370
    25
100
AcDbSpline
210
0.0
220
0.0
230
1.0
 70
     8
 71
     3
 72
    15
 73
    11
 74
     0
 42
0.000000001
 43
0.00000001
 40
0.0
 40
0.0
 40
0.0
 40
0.0
 40
0.1336726496021612
 40
0.2596519444552429
 40
0.3787836139818168
 40
0.4920668899310182
 40
0.6351830136473593
 40
0.7645526196418757
 40
0.8844004131119898
 40
1.0
 40
1.0
 40
1.0
 40
1.0
 10
115.3737059155728
 20
85.69513155782357
 30
0.0
 10
115.3956014060095
 20
85.71937659617502
 30
0.0
 10
115.4381322205298
 20
85.76647128136366
 30
0.0
 10
115.5113280786726
 20
85.82947612537221
 30
0.0
 10
115.5891041582423
 20
85.88456836757072
 30
0.0
 10
115.6807426013667
 20
85.93646936424231
 30
0.0
 10
115.7860709825486
 20
85.98279390889738
 30
0.0
 10
115.9066198648558
 20
86.01927174567932
 30
0.0
 10
116.0300393235251
 20
86.04208678700878
 30
0.0
 10
116.1140854521293
 20
86.04492745249479
 30
0.0
 10
116.1553502890173
 20
86.04632215799617
 30
0.0
  0
SPLINE
  5
A7
330
1F
100
AcDbEntity
  8
0
  6
Continuous
 62
     7
370
    25
100
AcDbSpline
210
0.0
220
0.0
230
1.0
 70
     8
 71
     3
 72
    13
 73
     9
 74
     0
 42
0.000000001
 43
0.00000001
 40
0.0
 40
0.0
 40
0.0
 40
0.0
 40
0.123835855545221
 40
0.2479006248871513
 40
0.3726202178325717
 40
0.4984138930967346
 40
0.7490996844582696
 40
1.0
 40
1.0
 40
1.0
 40
1.0
 10
115.1553502890173
 20
85.11298882466282
 30
0.0
 10
115.1560218203337
 20
85.13974048945204
 30
0.0
 10
115.1573661243095
 20
85.19329327017793
 30
0.0
 10
115.1682681079599
 20
85.2716099727272
 30
0.0
 10
115.1856297915723
 20
85.34840960375962
 30
0.0
 10
115.2183174330055
 20
85.4479362394343
 30
0.0
 10
115.2742022339299
 20
85.56709936328876
 30
0.0
 10
115.3405285659528
 20
85.65244199286916
 30
0.0
 10
115.3737059155728
 20
85.69513155782357
 30
0.0
  0
LINE
  5
A8
330
1F
100
AcDbEntity
  8
0
  6
Continuous
 62
     7
370
    25
100
AcDbLine
 10
115.155349909
 20
83.4718690441
 30
0.0
 11
115.155349909
 21
85.1129886416
 31
0.0
  0
LINE
  5
A9
330
1F
100
AcDbEntity
  8
0
  6
Continuous
 62
     7
370
    25
100
AcDbLine
 10
124.6550423835
 20
76.334745316
 30
0.0
 11
125.3442603207
 21
75.0208661614
 31
0.0
  0
ARC
  5
AA
330
1F
100
AcDbEntity
  8
0
  6
Continuous
 62
     7
370
    25
100
AcDbCircle
 10
125.4111120685
 20
75.0559342748
 30
0.0
 40
0.0754912582857842
100
AcDbArc
 50
207.6800279694
 51
311.070386533
  0
ARC
  5
AB
330
1F
100
AcDbEntity
  8
0
  6
Continuous
 62
     7
370
    25
100
AcDbCircle
 10
127.155350289
 20
73.0543890753
 30
0.0
 40
2.57941931565543
100
AcDbArc
 50
48.929613467
 51
131.070386533
  0
ARC
  5
AC
330
1F
100
AcDbEntity
  8
0
  6
Continuous
 62
     7
370
    25
100
AcDbCircle
 10
128.8995885095
 20
75.0559342748
 30
0.0
 40
0.0754912582857464
100
AcDbArc
 50
228.929613467
 51
332.3199720306
  0
LINE
  5
AD
330
1F
100
AcDbEntity
  8
0
  6
Continuous
 62
     7
370
    25
100
AcDbLine
 10
128.9664404045
 20
75.0208661614
 30
0.0
 11
129.6556582252
 21
76.334745316
 31
0.0
  0
LINE
  5
AE
330
1F
100
AcDbEntity
  8
0
  6
Continuous
 62
     7
370
    25
100
AcDbLine
 10
129.6556582252
 20
76.334745316
 30
0.0
 11
129.6158432539
 21
76.3119926398
 31
0.0
  0
ARC
  5
AF
330
1F
100
AcDbEntity
  8
0
  6
Continuous
 62
     7
370
    25
100
AcDbCircle
 10
129.3185445148
 20
76.8322361559
 30
0.0
 40
0.5991992501208521
100
AcDbArc
 50
199.6800689411
 51
299.7462530425
  0
LINE
  5
B0
330
1F
100
AcDbEntity
  8
0
  6
Continuous
 62
     7
370
    25
100
AcDbLine
 10
128.7543456579
 20
76.6304451229
 30
0.0
 11
127.6678395967
 21
79.6682688653
 31
0.0
  0
SPLINE
  5
B1
330
1F
100
AcDbEntity
  8
0
  6
Continuous
 62
     7
370
    25
100
AcDbSpline
210
0.0
220
0.0
230
1.0
 70
     8
 71
     3
 72
    16
 73
    12
 74
     0
 42
0.000000001
 43
0.00000001
 40
0.0
 40
0.0
 40
0.0
 40
0.0
 40
0.1113160552874951
 40
0.2221777142163596
 40
0.333357231917414
 40
0.4444842326561919
 40
0.5552113451997907
 40
0.6662702792617305
 40
0.7776772343596836
 40
0.888683744007764
 40
1.0
 40
1.0
 40
1.0
 40
1.0
 10
127.6678395585764
 20
79.6682688740624
 30
0.0
 10
127.6439756154384
 20
79.70879107611513
 30
0.0
 10
127.5963451426833
 20
79.78967006705524
 30
0.0
 10
127.4886127106174
 20
79.8827234768685
 30
0.0
 10
127.3634990994843
 20
79.94778458774798
 30
0.0
 10
127.226098251554
 20
79.98094148349561
 30
0.0
 10
127.0850047991379
 20
79.98100475640464
 30
0.0
 10
126.9475066948817
 20
79.94794855775343
 30
0.0
 10
126.8222633014895
 20
79.88285094122212
 30
0.0
 10
126.7143658157117
 20
79.78973943429267
 30
0.0
 10
126.6667180795991
 20
79.70879665139469
 30
0.0
 10
126.6428610194582
 20
79.66826887406228
 30
0.0
  0
LINE
  5
B2
330
1F
100
AcDbEntity
  8
0
  6
Continuous
 62
     7
370
    25
100
AcDbLine
 10
126.6428611285
 20
79.6682688653
 30
0.0
 11
125.5566328342
 21
76.6312227772
 31
0.0
  0
ARC
  5
B3
330
1F
100
AcDbEntity
  8
0
  6
Continuous
 62
     7
370
    25
100
AcDbCircle
 10
124.9924341542
 20
76.8330136862
 30
0.0
 40
0.5991992501208331
100
AcDbArc
 50
241.1755227373
 51
340.3199310589
  0
LINE
  5
B4
330
1F
100
AcDbEntity
  8
0
  6
Continuous
 62
     7
370
    25
100
AcDbLine
 10
124.7035434513
 20
76.3080547751
 30
0.0
 11
124.6550423835
 21
76.334745316
 31
0.0
  0
SPLINE
  5
B5
330
1F
100
AcDbEntity
  8
0
  6
Continuous
 62
     7
370
    25
100
AcDbSpline
210
0.0
220
0.0
230
1.0
 70
     8
 71
     3
 72
    16
 73
    12
 74
     0
 42
0.000000001
 43
0.00000001
 40
0.0
 40
0.0
 40
0.0
 40
0.0
 40
0.0739298478380645
 40
0.1513677900875573
 40
0.2324450724520033
 40
0.3172760505712285
 40
0.4059605604870915
 40
0.4985859785248051
 40
0.6141264807254729
 40
0.7496239523722917
 40
1.0
 40
1.0
 40
1.0
 40
1.0
 10
116.1553502890173
 20
77.38157927997618
 30
0.0
 10
116.1544349837246
 20
77.4469909144711
 30
0.0
 10
116.1525609403785
 20
77.58091807446202
 30
0.0
 10
116.1381861888183
 20
77.78616004999728
 30
0.0
 10
116.1154928433251
 20
78.00028761756764
 30
0.0
 10
116.0835302840996
 20
78.22330270494538
 30
0.0
 10
116.0425875029298
 20
78.45521302035198
 30
0.0
 10
115.9891198121897
 20
78.71238072109544
 30
0.0
 10
115.9185171517041
 20
79.00815484420323
 30
0.0
 10
115.8060104492366
 20
79.43728219963549
 30
0.0
 10
115.7146378664287
 20
79.7662215053948
 30
0.0
 10
115.6553502890173
 20
79.97965549132948
 30
0.0
  0
SPLINE
  5
B6
330
1F
100
AcDbEntity
  8
0
  6
Continuous
 62
     7
370
    25
100
AcDbSpline
210
0.0
220
0.0
230
1.0
 70
     8
 71
     3
 72
    14
 73
    10
 74
     0
 42
0.000000001
 43
0.00000001
 40
0.0
 40
0.0
 40
0.0
 40
0.0
 40
0.2503818975769405
 40
0.3853960642454612
 40
0.5014219062737861
 40
0.6386745024418747
 40
0.7672919706928744
 40
0.8876008223903926
 40
1.0
 40
1.0
 40
1.0
 40
1.0
 10
115.6553502890173
 20
79.97965549132948
 30
0.0
 10
115.7148833727471
 20
80.19302519902557
 30
0.0
 10
115.8065186562237
 20
80.5214508814374
 30
0.0
 10
115.9190447104013
 20
80.95058377401142
 30
0.0
 10
115.9987029200846
 20
81.28478167104245
 30
0.0
 10
116.065373385882
 20
81.61614454087908
 30
0.0
 10
116.1163956897236
 20
81.95405678795014
 30
0.0
 10
116.148910981744
 20
82.27237284841763
 30
0.0
 10
116.1532530484283
 20
82.47827830557222
 30
0.0
 10
116.1553502890173
 20
82.57773170268281
 30
0.0
  0
LINE
  5
B7
330
1F
100
AcDbEntity
  8
0
  6
Continuous
 62
     7
370
    25
100
AcDbLine
 10
116.155350073
 20
82.5777316188
 30
0.0
 11
116.155350073
 21
85.479701562
 31
0.0
  0
SPLINE
  5
B8
330
1F
100
AcDbEntity
  8
0
  6
Continuous
 62
     7
370
    25
100
AcDbSpline
210
0.0
220
0.0
230
1.0
 70
     8
 71
     3
 72
    19
 73
    15
 74
     0
 42
0.000000001
 43
0.00000001
 40
0.0
 40
0.0
 40
0.0
 40
0.0
 40
0.0504323727095946
 40
0.1003565609002702
 40
0.1500822900422585
 40
0.199922985600534
 40
0.250189922563005
 40
0.3750855037481943
 40
0.5000544104077007
 40
0.6247887185113573
 40
0.7499189120354086
 40
0.8333029051587477
 40
0.9161791203953933
 40
1.0
 40
1.0
 40
1.0
 40
1.0
 10
117.6553042209721
 20
86.9796554913295
 30
0.0
 10
117.6544154376798
 20
86.94007452262503
 30
0.0
 10
117.6526468269679
 20
86.8613114249783
 30
0.0
 10
117.6384074731775
 20
86.74423098272412
 30
0.0
 10
117.615646036333
 20
86.62906757386801
 30
0.0
 10
117.5835468689356
 20
86.51582085820866
 30
0.0
 10
117.5222424804305
 20
86.35013917248861
 30
0.0
 10
117.411007288455
 20
86.14063936857546
 30
0.0
 10
117.2227949974873
 20
85.91247026412591
 30
0.0
 10
116.9945101940322
 20
85.72412058842983
 30
0.0
 10
116.7619774377401
 20
85.60049373480206
 30
0.0
 10
116.5451202516163
 20
85.52669500534071
 30
0.0
 10
116.3520589537411
 20
85.48696395712537
 30
0.0
 10
116.2211670965317
 20
85.48213148708287
 30
0.0
 10
116.1553502890173
 20
85.4797015593747
 30
0.0
  0
LINE
  5
B9
330
1F
100
AcDbEntity
  8
0
  6
Continuous
 62
     7
370
    25
100
AcDbLine
 10
117.6553042184
 20
86.9796557074
 30
0.0
 11
120.5572741615
 21
86.9796557074
 31
0.0
  0
SPLINE
  5
BA
330
1F
100
AcDbEntity
  8
0
  6
Continuous
 62
     7
370
    25
100
AcDbSpline
210
0.0
220
0.0
230
1.0
 70
     8
 71
     3
 72
    10
 73
     6
 74
     0
 42
0.000000001
 43
0.00000001
 40
-0.796694357225795
 40
-0.796694357225795
 40
-0.796694357225795
 40
-0.796694357225795
 40
-0.533073702210409
 40
-0.533073702210409
 40
-0.532116113157305
 40
-0.532116113157305
 40
-0.532116113157305
 40
-0.532116113157305
 10
120.557274077664
 20
86.97965549133674
 30
0.0
 10
121.4360095943804
 20
86.97965549133392
 30
0.0
 10
122.2982975303153
 20
87.24612289439396
 30
0.0
 10
123.1492013306753
 20
87.47793942335716
 30
0.0
 10
123.1522744360153
 20
87.47880240319762
 30
0.0
 10
123.1553502890173
 20
87.4796554913295
 30
0.0
  0
SPLINE
  5
BB
330
1F
100
AcDbEntity
  8
0
  6
Continuous
 62
     7
370
    25
100
AcDbSpline
210
0.0
220
0.0
230
1.0
 70
     8
 71
     3
 72
    10
 73
     6
 74
     0
 42
0.000000001
 43
0.00000001
 40
-0.263620655015386
 40
-0.263620655015386
 40
-0.263620655015386
 40
-0.263620655015386
 40
-0.2626630659468851
 40
-0.2626630659468851
 40
0.0009575890685009
 40
0.0009575890685009
 40
0.0009575890685009
 40
0.0009575890685009
 10
123.1553502890173
 20
87.4796554913295
 30
0.0
 10
123.1584261420688
 20
87.47880240318389
 30
0.0
 10
123.1615001403742
 20
87.47794295791184
 30
0.0
 10
124.0120525058829
 20
87.24474220894231
 30
0.0
 10
124.8746909836527
 20
86.9796554913295
 30
0.0
 10
125.7534265003706
 20
86.9796554913295
 30
0.0
  0
LINE
  5
BC
330
1F
100
AcDbEntity
  8
0
  6
Continuous
 62
     7
370
    25
100
AcDbLine
 10
125.7534264165
 20
86.9796557074
 30
0.0
 11
128.6553963597
 21
86.9796557074
 31
0.0
  0
SPLINE
  5
BD
330
1F
100
AcDbEntity
  8
0
  6
Continuous
 62
     7
370
    25
100
AcDbSpline
210
0.0
220
0.0
230
1.0
 70
     8
 71
     3
 72
    19
 73
    15
 74
     0
 42
0.000000001
 43
0.00000001
 40
0.0
 40
0.0
 40
0.0
 40
0.0
 40
0.0504323727096602
 40
0.1003565609003688
 40
0.1500822900423565
 40
0.199922985600599
 40
0.2501899225630071
 40
0.3750855037480327
 40
0.5000544104076973
 40
0.624788718511343
 40
0.7499189120354135
 40
0.8333029051590075
 40
0.916179120395655
 40
1.0
 40
1.0
 40
1.0
 40
1.0
 10
130.1553502890173
 20
85.47970155937467
 30
0.0
 10
130.1157693203128
 20
85.48059034266699
 30
0.0
 10
130.037006222666
 20
85.4823589533789
 30
0.0
 10
129.9199257804117
 20
85.49659830716926
 30
0.0
 10
129.8047623715556
 20
85.51935974401377
 30
0.0
 10
129.6915156558964
 20
85.55145891141119
 30
0.0
 10
129.5258339701766
 20
85.61276329991634
 30
0.0
 10
129.3163341662636
 20
85.72399849189193
 30
0.0
 10
129.0881650618139
 20
85.91221078285933
 30
0.0
 10
128.8998153861174
 20
86.1404955863143
 30
0.0
 10
128.7761885324898
 20
86.37302834260673
 30
0.0
 10
128.7023898030286
 20
86.58988552873076
 30
0.0
 10
128.6626587548132
 20
86.78294682660595
 30
0.0
 10
128.6578262847707
 20
86.91383868381516
 30
0.0
 10
128.6553963570625
 20
86.97965549132932
 30
0.0
  0
LINE
  5
BE
330
1F
100
AcDbEntity
  8
0
  6
Continuous
 62
     7
370
    25
100
AcDbLine
 10
130.1553505051
 20
85.479701562
 30
0.0
 11
130.1553505051
 21
82.5777316188
 31
0.0
  0
SPLINE
  5
BF
330
1F
100
AcDbEntity
  8
0
  6
Continuous
 62
     7
370
    25
100
AcDbSpline
210
0.0
220
0.0
230
1.0
 70
     8
 71
     3
 72
    16
 73
    12
 74
     0
 42
0.000000001
 43
0.00000001
 40
0.0
 40
0.0
 40
0.0
 40
0.0
 40
0.0739298478317502
 40
0.1513677900738161
 40
0.2324450724296886
 40
0.3172760505391666
 40
0.4059605604440887
 40
0.4985859784696513
 40
0.6141264806631028
 40
0.7496239522892343
 40
1.0
 40
1.0
 40
1.0
 40
1.0
 10
130.1553502890173
 20
82.57773170268281
 30
0.0
 10
130.1562655943098
 20
82.51232006819346
 30
0.0
 10
130.1581396376555
 20
82.3783929082147
 30
0.0
 10
130.1725143892129
 20
82.17315093269906
 30
0.0
 10
130.1952077347017
 20
81.95902336515114
 30
0.0
 10
130.2271702939209
 20
81.73600827779865
 30
0.0
 10
130.2681130750827
 20
81.50409796242013
 30
0.0
 10
130.321580765814
 20
81.24693026170223
 30
0.0
 10
130.3921834262873
 20
80.95115613862792
 30
0.0
 10
130.5046901287626
 20
80.52202878314723
 30
0.0
 10
130.5960627115859
 20
80.19308947733492
 30
0.0
 10
130.6553502890173
 20
79.97965549132948
 30
0.0
  0
SPLINE
  5
C0
330
1F
100
AcDbEntity
  8
0
  6
Continuous
 62
     7
370
    25
100
AcDbSpline
210
0.0
220
0.0
230
1.0
 70
     8
 71
     3
 72
    14
 73
    10
 74
     0
 42
0.000000001
 43
0.00000001
 40
0.0
 40
0.0
 40
0.0
 40
0.0
 40
0.250381897495202
 40
0.3853960641816825
 40
0.5014219062198584
 40
0.6386745024049088
 40
0.7672919706705007
 40
0.8876008223803089
 40
0.9999999999999999
 40
0.9999999999999999
 40
0.9999999999999999
 40
0.9999999999999999
 10
130.6553502890173
 20
79.97965549132948
 30
0.0
 10
130.5958172053073
 20
79.76628578370298
 30
0.0
 10
130.5041819218465
 20
79.43786010134536
 30
0.0
 10
130.391655867676
 20
79.00872720881884
 30
0.0
 10
130.311997657979
 20
78.67452931175035
 30
0.0
 10
130.24532719217
 20
78.34316644187868
 30
0.0
 10
130.1943048883186
 20
78.00525419476986
 30
0.0
 10
130.161789596292
 20
77.68693813427008
 30
0.0
 10
130.1574475296067
 20
77.48103267709568
 30
0.0
 10
130.1553502890173
 20
77.38157927997618
 30
0.0
  0
LINE
  5
C1
330
1F
100
AcDbEntity
  8
0
  6
Continuous
 62
     7
370
    25
100
AcDbLine
 10
130.1553505051
 20
77.3815793639
 30
0.0
 11
130.1553505051
 21
74.4796555211
 31
0.0
  0
LINE
  5
C2
330
1F
100
AcDbEntity
  8
0
  6
Continuous
 62
     7
370
    25
100
AcDbLine
 10
116.155350073
 20
74.4796555211
 30
0.0
 11
130.1553505051
 21
74.4796555211
 31
0.0
  0
LINE
  5
C3
330
1F
100
AcDbEntity
  8
0
  6
Continuous
 62
     7
370
    25
100
AcDbLine
 10
116.155350073
 20
74.4796555211
 30
0.0
 11
116.155350073
 21
77.3815793639
 31
0.0
  0
LINE
  5
C4
330
1F
100
AcDbEntity
  8
0
  6
Continuous
 62
     7
370
    25
100
AcDbLine
 10
119.4136929276
 20
87.4796553237
 30
0.0
 11
117.6553503188
 21
87.4796553237
 31
0.0
  0
SPLINE
  5
C5
330
1F
100
AcDbEntity
  8
0
  6
Continuous
 62
     7
370
    25
100
AcDbSpline
210
0.0
220
0.0
230
1.0
 70
     8
 71
     3
 72
     8
 73
     4
 74
     0
 42
0.000000001
 43
0.00000001
 40
0.0000000000000001
 40
0.0000000000000001
 40
0.0000000000000001
 40
0.0000000000000001
 40
0.127234597098751
 40
0.127234597098751
 40
0.127234597098751
 40
0.127234597098751
 10
119.4136929022434
 20
87.4796554913295
 30
0.0
 10
119.7812595160842
 20
87.4796554913295
 30
0.0
 10
120.168688082963
 20
87.44739200231655
 30
0.0
 10
120.5572740776764
 20
87.40188390005868
 30
0.0
  0
SPLINE
  5
C6
330
1F
100
AcDbEntity
  8
0
  6
Continuous
 62
     7
370
    25
100
AcDbSpline
210
0.0
220
0.0
230
1.0
 70
    24
 71
     3
 72
    10
 73
     6
 74
     0
 42
0.000000001
 43
0.00000001
 40
0.0
 40
0.0
 40
0.0
 40
0.0
 40
0.5
 40
0.5
 40
1.0
 40
1.0
 40
1.0
 40
1.0
 10
120.557274077664
 20
86.9796554913295
 30
0.0
 10
120.557274077664
 20
87.06345134487579
 30
0.0
 10
120.557274077664
 20
87.14715902560124
 30
0.0
 10
120.557274077664
 20
87.29401104447811
 30
0.0
 10
120.557274077664
 20
87.3570008599867
 30
0.0
 10
120.557274077664
 20
87.40188390005835
 30
0.0
  0
SPLINE
  5
C7
330
1F
100
AcDbEntity
  8
0
  6
Continuous
 62
     7
370
    25
100
AcDbSpline
210
0.0
220
0.0
230
1.0
 70
     8
 71
     3
 72
    14
 73
    10
 74
     0
 42
0.000000001
 43
0.00000001
 40
0.0
 40
0.0
 40
0.0
 40
0.0
 40
0.1488603597576148
 40
0.3150273328471772
 40
0.4987646698883385
 40
0.5951853465608922
 40
0.7494349165377944
 40
0.8793203508289453
 40
1.0
 40
1.0
 40
1.0
 40
1.0
 10
117.2903335042183
 20
87.32136113485183
 30
0.0
 10
117.3068118871327
 20
87.30615037744012
 30
0.0
 10
117.3416844417038
 20
87.27396044893398
 30
0.0
 10
117.400834817434
 20
87.21933641782968
 30
0.0
 10
117.4554113408846
 20
87.16863075538043
 30
0.0
 10
117.5099674810835
 20
87.11861411579748
 30
0.0
 10
117.5581332454749
 20
87.07394042028633
 30
0.0
 10
117.6092224530601
 20
87.02536315780648
 30
0.0
 10
117.6403245294211
 20
86.99451357460988
 30
0.0
 10
117.6553042209721
 20
86.9796554913295
 30
0.0
  0
ARC
  5
C8
330
1F
100
AcDbEntity
  8
0
  6
Continuous
 62
     7
370
    25
100
AcDbCircle
 10
117.655350289
 20
86.9796554913
 30
0.0
 40
0.5000000000000068
100
AcDbArc
 50
90.0
 51
136.8892083855
  0
LINE
  5
C9
330
1F
100
AcDbEntity
  8
0
  6
Continuous
 62
     7
370
    25
100
AcDbLine
 10
130.6553501214
 20
85.4796554615
 30
0.0
 11
130.6553501214
 21
83.7213128527
 31
0.0
  0
SPLINE
  5
CA
330
1F
100
AcDbEntity
  8
0
  6
Continuous
 62
     7
370
    25
100
AcDbSpline
210
0.0
220
0.0
230
1.0
 70
     8
 71
     3
 72
    11
 73
     7
 74
     0
 42
0.000000001
 43
0.00000001
 40
0.0
 40
0.0
 40
0.0
 40
0.0
 40
0.2815942436633383
 40
0.5420860673673156
 40
0.7815308548566234
 40
1.0
 40
1.0
 40
1.0
 40
1.0
 10
130.5775786977461
 20
82.57773170267392
 30
0.0
 10
130.5896225547407
 20
82.68569603635682
 30
0.0
 10
130.6128077128929
 20
82.89353395342755
 30
0.0
 10
130.636935396924
 20
83.1920246390962
 30
0.0
 10
130.6523438153672
 20
83.46553486928431
 30
0.0
 10
130.6543792095361
 20
83.63869756029133
 30
0.0
 10
130.6553502890173
 20
83.72131287810343
 30
0.0
  0
SPLINE
  5
CB
330
1F
100
AcDbEntity
  8
0
  6
Continuous
 62
     7
370
    25
100
AcDbSpline
210
0.0
220
0.0
230
1.0
 70
    24
 71
     3
 72
    10
 73
     6
 74
     0
 42
0.000000001
 43
0.00000001
 40
0.0
 40
0.0
 40
0.0
 40
0.0
 40
0.5
 40
0.5
 40
1.0
 40
1.0
 40
1.0
 40
1.0
 10
130.1553502890173
 20
82.57773170268281
 30
0.0
 10
130.2391461425636
 20
82.57773170268281
 30
0.0
 10
130.3228538232891
 20
82.57773170268281
 30
0.0
 10
130.4697058421659
 20
82.57773170268281
 30
0.0
 10
130.5326956576745
 20
82.57773170268281
 30
0.0
 10
130.5775786977461
 20
82.57773170268281
 30
0.0
  0
SPLINE
  5
CC
330
1F
100
AcDbEntity
  8
0
  6
Continuous
 62
     7
370
    25
100
AcDbSpline
210
0.0
220
0.0
230
1.0
 70
     8
 71
     3
 72
    14
 73
    10
 74
     0
 42
0.000000001
 43
0.00000001
 40
0.0
 40
0.0
 40
0.0
 40
0.0
 40
0.1488603598374869
 40
0.3150273329269794
 40
0.4987646698885773
 40
0.5951853465829806
 40
0.7494349165379153
 40
0.8793203509512854
 40
1.0
 40
1.0
 40
1.0
 40
1.0
 10
130.4970559325396
 20
85.84467227612848
 30
0.0
 10
130.4818451751193
 20
85.82819389320564
 30
0.0
 10
130.449655246604
 20
85.7933213386263
 30
0.0
 10
130.3950312154962
 20
85.73417096289724
 30
0.0
 10
130.3443255530564
 20
85.6795944394497
 30
0.0
 10
130.294308913484
 20
85.62503829925923
 30
0.0
 10
130.2496352179569
 20
85.57687253485396
 30
0.0
 10
130.2010579554793
 20
85.52578332727144
 30
0.0
 10
130.1702083722827
 20
85.49468125091055
 30
0.0
 10
130.1553502890173
 20
85.47970155937467
 30
0.0
  0
ARC
  5
CD
330
1F
100
AcDbEntity
  8
0
  6
Continuous
 62
     7
370
    25
100
AcDbCircle
 10
130.155350289
 20
85.4796554913
 30
0.0
 40
0.5
100
AcDbArc
 50
0.0
 51
46.8892083855
  0
SPLINE
  5
CE
330
1F
100
AcDbEntity
  8
0
  6
Continuous
 62
     7
370
    25
100
AcDbSpline
210
0.0
220
0.0
230
1.0
 70
     8
 71
     3
 72
    11
 73
     7
 74
     0
 42
0.000000001
 43
0.00000001
 40
0.0
 40
0.0
 40
0.0
 40
0.0
 40
0.2815942436632133
 40
0.5420860673671491
 40
0.7815308548564992
 40
1.0
 40
1.0
 40
1.0
 40
1.0
 10
115.7331218802885
 20
77.38157927998508
 30
0.0
 10
115.7210780232939
 20
77.27361494630222
 30
0.0
 10
115.6978928651417
 20
77.06577702923155
 30
0.0
 10
115.6737651811106
 20
76.76728634356293
 30
0.0
 10
115.6583567626675
 20
76.49377611337479
 30
0.0
 10
115.6563213684985
 20
76.32061342236769
 30
0.0
 10
115.6553502890173
 20
76.23799810455556
 30
0.0
  0
SPLINE
  5
CF
330
1F
100
AcDbEntity
  8
0
  6
Continuous
 62
     7
370
    25
100
AcDbSpline
210
0.0
220
0.0
230
1.0
 70
    24
 71
     3
 72
    10
 73
     6
 74
     0
 42
0.000000001
 43
0.00000001
 40
0.0
 40
0.0
 40
0.0
 40
0.0
 40
0.5
 40
0.5
 40
1.0
 40
1.0
 40
1.0
 40
1.0
 10
116.1553502890173
 20
77.38157927997618
 30
0.0
 10
116.071554435471
 20
77.38157927997618
 30
0.0
 10
115.9878467547456
 20
77.38157927997618
 30
0.0
 10
115.8409947358687
 20
77.38157927997618
 30
0.0
 10
115.7780049203601
 20
77.38157927997618
 30
0.0
 10
115.7331218802885
 20
77.38157927997618
 30
0.0
  0
LINE
  5
D0
330
1F
100
AcDbEntity
  8
0
  6
Continuous
 62
     7
370
    25
100
AcDbLine
 10
115.6553504567
 20
74.4796555211
 30
0.0
 11
116.155350073
 21
74.4796555211
 31
0.0
  0
LINE
  5
D1
330
1F
100
AcDbEntity
  8
0
  6
Continuous
 62
     7
370
    25
100
AcDbLine
 10
115.6553504567
 20
74.4796555211
 30
0.0
 11
115.6553504567
 21
76.2379981299
 31
0.0
  0
LINE
  5
D2
330
1F
100
AcDbEntity
  8
0
  6
Continuous
 62
     7
370
    25
100
AcDbLine
 10
130.1553505051
 20
89.9796552678
 30
0.0
 11
116.155350073
 21
89.9796552678
 31
0.0
  0
SPLINE
  5
D3
330
1F
100
AcDbEntity
  8
0
  6
Continuous
 62
     7
370
    25
100
AcDbSpline
210
0.0
220
0.0
230
1.0
 70
     8
 71
     3
 72
    14
 73
    10
 74
     0
 42
0.000000001
 43
0.00000001
 40
0.0
 40
0.0
 40
0.0
 40
0.0
 40
0.096021547728022
 40
0.1924412985067401
 40
0.2917902771809186
 40
0.396387075314727
 40
0.508224361229722
 40
0.7392002680930558
 40
1.0
 40
1.0
 40
1.0
 40
1.0
 10
129.222016955684
 20
86.9796554913295
 30
0.0
 10
129.2224150296076
 20
86.9643744768457
 30
0.0
 10
129.2232128282745
 20
86.93374907724173
 30
0.0
 10
129.2292192022341
 20
86.8886232086728
 30
0.0
 10
129.2386966732641
 20
86.84469974848732
 30
0.0
 10
129.2519052611687
 20
86.80200369398732
 30
0.0
 10
129.2740696397593
 20
86.74699222151773
 30
0.0
 10
129.3094411853483
 20
86.68333865130357
 30
0.0
 10
129.3416300014027
 20
86.64593702707697
 30
0.0
 10
129.3587004577969
 20
86.62610210073622
 30
0.0
  0
SPLINE
  5
D4
330
1F
100
AcDbEntity
  8
0
  6
Continuous
 62
     7
370
    25
100
AcDbSpline
210
0.0
220
0.0
230
1.0
 70
     8
 71
     3
 72
    15
 73
    11
 74
     0
 42
0.000000001
 43
0.00000001
 40
0.0
 40
0.0
 40
0.0
 40
0.0
 40
0.1307681764282987
 40
0.2557775964014054
 40
0.375854271439311
 40
0.4919295877812418
 40
0.6226338248371327
 40
0.7437286717850853
 40
0.8761291708518495
 40
1.0
 40
1.0
 40
1.0
 40
1.0
 10
128.8708263555114
 20
87.76129986477396
 30
0.0
 10
128.8945256811819
 20
87.73985400609357
 30
0.0
 10
128.9408806638842
 20
87.6979067194076
 30
0.0
 10
129.00332915036
 20
87.6250664471758
 30
0.0
 10
129.0588104023678
 20
87.54663947658342
 30
0.0
 10
129.1098383941575
 20
87.45786525471227
 30
0.0
 10
129.154656719915
 20
87.35849031951867
 30
0.0
 10
129.1912264378532
 20
87.24160525980221
 30
0.0
 10
129.2167812067833
 20
87.11527236435754
 30
0.0
 10
129.2203108661462
 20
87.02384678709367
 30
0.0
 10
129.222016955684
 20
86.9796554913295
 30
0.0
  0
SPLINE
  5
D5
330
1F
100
AcDbEntity
  8
0
  6
Continuous
 62
     7
370
    25
100
AcDbSpline
210
0.0
220
0.0
230
1.0
 70
     8
 71
     3
 72
    13
 73
     9
 74
     0
 42
0.000000001
 43
0.00000001
 40
0.0
 40
0.0
 40
0.0
 40
0.0
 40
0.1238371160455669
 40
0.247902303023111
 40
0.3726214666345126
 40
0.4984138700895143
 40
0.7490979627897995
 40
1.0
 40
1.0
 40
1.0
 40
1.0
 10
128.2886836223506
 20
87.9796554913295
 30
0.0
 10
128.3154355627782
 20
87.97898397373721
 30
0.0
 10
128.368988712707
 20
87.97763970181808
 30
0.0
 10
128.447305684007
 20
87.96673789179205
 30
0.0
 10
128.5241050653331
 20
87.94937645436988
 30
0.0
 10
128.6236310534357
 20
87.9166891690028
 30
0.0
 10
128.7427939017352
 20
87.86080404152288
 30
0.0
 10
128.8281365101622
 20
87.79447753021522
 30
0.0
 10
128.8708263555114
 20
87.76129986477396
 30
0.0
  0
LINE
  5
D6
330
1F
100
AcDbEntity
  8
0
  6
Continuous
 62
     7
370
    25
100
AcDbLine
 10
126.6475638418
 20
87.9796558713
 30
0.0
 11
128.2886834393
 21
87.9796558713
 31
0.0
  0
SPLINE
  5
D7
330
1F
100
AcDbEntity
  8
0
  6
Continuous
 62
     7
370
    25
100
AcDbSpline
210
0.0
220
0.0
230
1.0
 70
     8
 71
     3
 72
    13
 73
     9
 74
     0
 42
0.000000001
 43
0.00000001
 40
0.0
 40
0.0
 40
0.0
 40
0.0
 40
0.1856794033212454
 40
0.3634611737568486
 40
0.5335423367207065
 40
0.6961479207300426
 40
0.8515354443704023
 40
1.0
 40
1.0
 40
1.0
 40
1.0
 10
125.5802214195993
 20
87.82411230878719
 30
0.0
 10
125.6475442167678
 20
87.84044061463034
 30
0.0
 10
125.7793263231391
 20
87.87240272297977
 30
0.0
 10
125.9714187398452
 20
87.91112157621174
 30
0.0
 10
126.1540058220169
 20
87.94167565529942
 30
0.0
 10
126.3270796607966
 20
87.96329239220857
 30
0.0
 10
126.491039661684
 20
87.97700008669733
 30
0.0
 10
126.5961876850114
 20
87.97878390395394
 30
0.0
 10
126.6475638500063
 20
87.9796554913295
 30
0.0
  0
SPLINE
  5
D8
330
1F
100
AcDbEntity
  8
0
  6
Continuous
 62
     7
370
    25
100
AcDbSpline
210
0.0
220
0.0
230
1.0
 70
     8
 71
     3
 72
    17
 73
    13
 74
     0
 42
0.000000001
 43
0.00000001
 40
0.0
 40
0.0
 40
0.0
 40
0.0
 40
0.1130667887614413
 40
0.214247189583317
 40
0.3035410227131065
 40
0.3809482842653933
 40
0.4464692356459874
 40
0.5001045920517729
 40
0.6375226522804812
 40
0.750042112035746
 40
0.8820380142736961
 40
0.9999999999999999
 40
0.9999999999999999
 40
0.9999999999999999
 40
0.9999999999999999
 10
123.1553502890173
 20
87.4796554913295
 30
0.0
 10
123.249067760358
 20
87.4898851174448
 30
0.0
 10
123.4266504534683
 20
87.50926895835597
 30
0.0
 10
123.6778097745792
 20
87.53716320292723
 30
0.0
 10
123.8988484962226
 20
87.56215601061822
 30
0.0
 10
124.0897954989082
 20
87.58428540812544
 30
0.0
 10
124.2508119463666
 20
87.60348523480506
 30
0.0
 10
124.4601340526846
 20
87.62966700006233
 30
0.0
 10
124.7061170013427
 20
87.66264854165014
 30
0.0
 10
125.011767172615
 20
87.70824281612963
 30
0.0
 10
125.2979042214667
 20
87.75815147283858
 30
0.0
 10
125.4897052510587
 20
87.80296403236869
 30
0.0
 10
125.5802214195993
 20
87.82411230878719
 30
0.0
  0
SPLINE
  5
D9
330
1F
100
AcDbEntity
  8
0
  6
Continuous
 62
     7
370
    25
100
AcDbSpline
210
0.0
220
0.0
230
1.0
 70
     8
 71
     3
 72
    14
 73
    10
 74
     0
 42
0.000000001
 43
0.00000001
 40
0.0
 40
0.0
 40
0.0
 40
0.0
 40
0.0771019312304826
 40
0.1604220744887596
 40
0.2500134459863516
 40
0.3625277438465788
 40
0.4999872830472304
 40
0.6965319249886696
 40
1.0
 40
1.0
 40
1.0
 40
1.0
 10
120.7304791584353
 20
87.82411230878719
 30
0.0
 10
120.7894726192811
 20
87.80998303189632
 30
0.0
 10
120.9122173186566
 20
87.78058496269516
 30
0.0
 10
121.1073087960453
 20
87.74206706646709
 30
0.0
 10
121.3327670737197
 20
87.7030045398949
 30
0.0
 10
121.6046055805541
 20
87.66272403343855
 30
0.0
 10
121.966279634642
 20
87.61406533916825
 30
0.0
 10
122.4891735944466
 20
87.55263049986303
 30
0.0
 10
122.9037408403028
 20
87.50721755079014
 30
0.0
 10
123.1553502890173
 20
87.4796554913295
 30
0.0
  0
SPLINE
  5
DA
330
1F
100
AcDbEntity
  8
0
  6
Continuous
 62
     7
370
    25
100
AcDbSpline
210
0.0
220
0.0
230
1.0
 70
     8
 71
     3
 72
    13
 73
     9
 74
     0
 42
0.000000001
 43
0.00000001
 40
0.0
 40
0.0
 40
0.0
 40
0.0
 40
0.1484645556295968
 40
0.3038520792699616
 40
0.4664576632792965
 40
0.6365388262431637
 40
0.8143205966787558
 40
1.0
 40
1.0
 40
1.0
 40
1.0
 10
119.6631367280283
 20
87.9796554913295
 30
0.0
 10
119.7145128930232
 20
87.97878390395394
 30
0.0
 10
119.8196609163506
 20
87.97700008669733
 30
0.0
 10
119.983620917238
 20
87.96329239220857
 30
0.0
 10
120.1566947560177
 20
87.94167565529942
 30
0.0
 10
120.3392818381894
 20
87.91112157621173
 30
0.0
 10
120.5313742548955
 20
87.87240272297977
 30
0.0
 10
120.6631563612668
 20
87.84044061463034
 30
0.0
 10
120.7304791584353
 20
87.82411230878719
 30
0.0
  0
LINE
  5
DB
330
1F
100
AcDbEntity
  8
0
  6
Continuous
 62
     7
370
    25
100
AcDbLine
 10
118.0220171387
 20
87.9796558713
 30
0.0
 11
119.6631367362
 21
87.9796558713
 31
0.0
  0
SPLINE
  5
DC
330
1F
100
AcDbEntity
  8
0
  6
Continuous
 62
     7
370
    25
100
AcDbSpline
210
0.0
220
0.0
230
1.0
 70
     8
 71
     3
 72
    13
 73
     9
 74
     0
 42
0.000000001
 43
0.00000001
 40
0.0
 40
0.0
 40
0.0
 40
0.0
 40
0.1257153360429536
 40
0.2509867092496626
 40
0.3762164861788906
 40
0.5018074329534182
 40
0.7521854029562103
 40
1.0
 40
1.0
 40
1.0
 40
1.0
 10
117.4398742225232
 20
87.76129986477396
 30
0.0
 10
117.4609600623715
 20
87.77849414194317
 30
0.0
 10
117.5030572775709
 20
87.81282197481113
 30
0.0
 10
117.5699699934001
 20
87.85639152304394
 30
0.0
 10
117.639485245054
 20
87.89399932669016
 30
0.0
 10
117.7358186823789
 20
87.935022604276
 30
0.0
 10
117.8616524979228
 20
87.97155115903408
 30
0.0
 10
117.968745813806
 20
87.97696332972734
 30
0.0
 10
118.022016955684
 20
87.9796554913295
 30
0.0
  0
SPLINE
  5
DD
330
1F
100
AcDbEntity
  8
0
  6
Continuous
 62
     7
370
    25
100
AcDbSpline
210
0.0
220
0.0
230
1.0
 70
     8
 71
     3
 72
    16
 73
    12
 74
     0
 42
0.000000001
 43
0.00000001
 40
0.0
 40
0.0
 40
0.0
 40
0.0
 40
0.0659534682181705
 40
0.1324870475771656
 40
0.2006767984554997
 40
0.2715233530696834
 40
0.3459202143311513
 40
0.4246400792172604
 40
0.5083359903953556
 40
0.740513582944488
 40
1.0
 40
1.0
 40
1.0
 40
1.0
 10
117.0886836223506
 20
86.9796554913295
 30
0.0
 10
117.0891356477112
 20
87.00316754375736
 30
0.0
 10
117.0900436743407
 20
87.05039845507717
 30
0.0
 10
117.097276597003
 20
87.120716541373
 30
0.0
 10
117.1088445584401
 20
87.19037565604657
 30
0.0
 10
117.125231944137
 20
87.2593519865284
 30
0.0
 10
117.1464049812688
 20
87.32764336067044
 30
0.0
 10
117.1725221782529
 20
87.3952704449091
 30
0.0
 10
117.2214452265861
 20
87.50027191455776
 30
0.0
 10
117.3056276607608
 20
87.63405556209385
 30
0.0
 10
117.3934984792934
 20
87.71734306594739
 30
0.0
 10
117.4398742225232
 20
87.76129986477396
 30
0.0
  0
SPLINE
  5
DE
330
1F
100
AcDbEntity
  8
0
  6
Continuous
 62
     7
370
    25
100
AcDbSpline
210
0.0
220
0.0
230
1.0
 70
     8
 71
     3
 72
    13
 73
     9
 74
     0
 42
0.000000001
 43
0.00000001
 40
0.0
 40
0.0
 40
0.0
 40
0.0
 40
0.1759205118839894
 40
0.33918960755005
 40
0.4921931780779566
 40
0.6738397335242725
 40
0.8395017852842178
 40
1.0
 40
1.0
 40
1.0
 40
1.0
 10
116.9520001202377
 20
86.62610210073622
 30
0.0
 10
116.9635252976349
 20
86.63920064528281
 30
0.0
 10
116.9857468132298
 20
86.66445574564976
 30
0.0
 10
117.0161504325233
 20
86.7102988122301
 30
0.0
 10
117.0443541449722
 20
86.76418979365955
 30
0.0
 10
117.068280073218
 20
86.82753771492291
 30
0.0
 10
117.0854063202108
 20
86.90209191082046
 30
0.0
 10
117.087602779906
 20
86.95407530177195
 30
0.0
 10
117.0886836223506
 20
86.9796554913295
 30
0.0
  0
SPLINE
  5
DF
330
1F
100
AcDbEntity
  8
0
  6
Continuous
 62
     7
370
    25
100
AcDbSpline
210
0.0
220
0.0
230
1.0
 70
    24
 71
     3
 72
    10
 73
     6
 74
     0
 42
0.000000001
 43
0.00000001
 40
0.0
 40
0.0
 40
0.0
 40
0.0
 40
0.5
 40
0.5
 40
1.0
 40
1.0
 40
1.0
 40
1.0
 10
125.7534265003617
 20
87.40188390005835
 30
0.0
 10
125.7534265003617
 20
87.3570008599867
 30
0.0
 10
125.7534265003617
 20
87.29401104447811
 30
0.0
 10
125.7534265003617
 20
87.14715902560124
 30
0.0
 10
125.7534265003617
 20
87.06345134487579
 30
0.0
 10
125.7534265003617
 20
86.9796554913295
 30
0.0
  0
SPLINE
  5
E0
330
1F
100
AcDbEntity
  8
0
  6
Continuous
 62
     7
370
    25
100
AcDbSpline
210
0.0
220
0.0
230
1.0
 70
     8
 71
     3
 72
     8
 73
     4
 74
     0
 42
0.000000001
 43
0.00000001
 40
-0.0000000000002226
 40
-0.0000000000002226
 40
-0.0000000000002226
 40
-0.0000000000002226
 40
0.127234597098529
 40
0.127234597098529
 40
0.127234597098529
 40
0.127234597098529
 10
125.7534265003582
 20
87.40188390005868
 30
0.0
 10
126.1420124950716
 20
87.44739200231655
 30
0.0
 10
126.5294410619504
 20
87.4796554913295
 30
0.0
 10
126.8970076757913
 20
87.4796554913295
 30
0.0
  0
LINE
  5
E1
330
1F
100
AcDbEntity
  8
0
  6
Continuous
 62
     7
370
    25
100
AcDbLine
 10
128.6553502592
 20
87.4796553237
 30
0.0
 11
126.8970076504
 21
87.4796553237
 31
0.0
  0
ARC
  5
E2
330
1F
100
AcDbEntity
  8
0
  6
Continuous
 62
     7
370
    25
100
AcDbCircle
 10
128.655350289
 20
86.9796554913
 30
0.0
 40
0.5
100
AcDbArc
 50
43.1107916145
 51
90.0
  0
SPLINE
  5
E3
330
1F
100
AcDbEntity
  8
0
  6
Continuous
 62
     7
370
    25
100
AcDbSpline
210
0.0
220
0.0
230
1.0
 70
     8
 71
     3
 72
    13
 73
     9
 74
     0
 42
0.000000001
 43
0.00000001
 40
0.0
 40
0.0
 40
0.0
 40
0.0
 40
0.1206933106363776
 40
0.2506349558809258
 40
0.4049363551860728
 40
0.501375099440844
 40
0.7702864432344702
 40
1.0
 40
1.0
 40
1.0
 40
1.0
 10
128.6553963570626
 20
86.9796554913295
 30
0.0
 10
128.6703739066103
 20
86.99451126962131
 30
0.0
 10
128.7014766864604
 20
87.02536117602551
 30
0.0
 10
128.7525615170663
 20
87.07393632749395
 30
0.0
 10
128.8007507375674
 20
87.11862600977567
 30
0.0
 10
128.8659137504641
 20
87.17838971916308
 30
0.0
 10
128.9388381380361
 20
87.24618173233799
 30
0.0
 10
128.9946533391795
 20
87.29765000471272
 30
0.0
 10
129.0203670738163
 20
87.32136113485187
 30
0.0
  0
SPLINE
  5
E4
330
1F
100
AcDbEntity
  8
0
  6
Continuous
 62
     7
370
    25
100
AcDbSpline
210
0.0
220
0.0
230
1.0
 70
    24
 71
     3
 72
    10
 73
     6
 74
     0
 42
0.000000001
 43
0.00000001
 40
0.0
 40
0.0
 40
0.0
 40
0.0
 40
0.5
 40
0.5
 40
1.0
 40
1.0
 40
1.0
 40
1.0
 10
115.7331218802885
 20
82.57773170267392
 30
0.0
 10
115.7780049203601
 20
82.57773170267392
 30
0.0
 10
115.8409947358687
 20
82.57773170267392
 30
0.0
 10
115.9878467547456
 20
82.57773170267392
 30
0.0
 10
116.071554435471
 20
82.57773170267392
 30
0.0
 10
116.1553502890173
 20
82.57773170267392
 30
0.0
  0
SPLINE
  5
E5
330
1F
100
AcDbEntity
  8
0
  6
Continuous
 62
     7
370
    25
100
AcDbSpline
210
0.0
220
0.0
230
1.0
 70
     8
 71
     3
 72
    12
 73
     8
 74
     0
 42
0.000000001
 43
0.00000001
 40
0.0
 40
0.0
 40
0.0
 40
0.0
 40
0.1731008601133525
 40
0.359615337634814
 40
0.5595829448172194
 40
0.773035722531595
 40
1.0
 40
1.0
 40
1.0
 40
1.0
 10
115.6553502890173
 20
83.72131287810343
 30
0.0
 10
115.6559641167059
 20
83.65587999385798
 30
0.0
 10
115.6572393377035
 20
83.51994381916228
 30
0.0
 10
115.6669226430106
 20
83.30723194630257
 30
0.0
 10
115.6824779261306
 20
83.07848691663474
 30
0.0
 10
115.7043368265917
 20
82.83363599010492
 30
0.0
 10
115.7233326060092
 20
82.66476010586152
 30
0.0
 10
115.7331218802885
 20
82.57773170267392
 30
0.0
  0
LINE
  5
E6
330
1F
100
AcDbEntity
  8
0
  6
Continuous
 62
     7
370
    25
100
AcDbLine
 10
115.6553504567
 20
83.7213128527
 30
0.0
 11
115.6553504567
 21
85.4796554615
 31
0.0
  0
ARC
  5
E7
330
1F
100
AcDbEntity
  8
0
  6
Continuous
 62
     7
370
    25
100
AcDbCircle
 10
116.155350289
 20
85.4796554913
 30
0.0
 40
0.5
100
AcDbArc
 50
133.1107916145
 51
180.0
  0
SPLINE
  5
E8
330
1F
100
AcDbEntity
  8
0
  6
Continuous
 62
     7
370
    25
100
AcDbSpline
210
0.0
220
0.0
230
1.0
 70
     8
 71
     3
 72
    13
 73
     9
 74
     0
 42
0.000000001
 43
0.00000001
 40
0.0
 40
0.0
 40
0.0
 40
0.0
 40
0.1206933098378984
 40
0.2506349558807637
 40
0.4049363563536673
 40
0.5013750994399903
 40
0.7702864430522399
 40
1.0
 40
1.0
 40
1.0
 40
1.0
 10
116.1553502890173
 20
85.47970155937469
 30
0.0
 10
116.1404945108254
 20
85.49467910882484
 30
0.0
 10
116.1096446044246
 20
85.52578188867804
 30
0.0
 10
116.0610694528075
 20
85.57686671942581
 30
0.0
 10
116.0163797704222
 20
85.62505594001502
 30
0.0
 10
115.9566160610804
 20
85.69021895290467
 30
0.0
 10
115.8888240480329
 20
85.76314334033182
 30
0.0
 10
115.8373557756545
 20
85.8189585414726
 30
0.0
 10
115.8136446454949
 20
85.84467227612843
 30
0.0
  0
SPLINE
  5
E9
330
1F
100
AcDbEntity
  8
0
  6
Continuous
 62
     7
370
    25
100
AcDbSpline
210
0.0
220
0.0
230
1.0
 70
    24
 71
     3
 72
    10
 73
     6
 74
     0
 42
0.000000001
 43
0.00000001
 40
0.0
 40
0.0
 40
0.0
 40
0.0
 40
0.5
 40
0.5
 40
1.0
 40
1.0
 40
1.0
 40
1.0
 10
130.5775786977461
 20
77.38157927998508
 30
0.0
 10
130.5326956576745
 20
77.38157927998508
 30
0.0
 10
130.4697058421659
 20
77.38157927998508
 30
0.0
 10
130.3228538232891
 20
77.38157927998508
 30
0.0
 10
130.2391461425636
 20
77.38157927998508
 30
0.0
 10
130.1553502890173
 20
77.38157927998508
 30
0.0
  0
SPLINE
  5
EA
330
1F
100
AcDbEntity
  8
0
  6
Continuous
 62
     7
370
    25
100
AcDbSpline
210
0.0
220
0.0
230
1.0
 70
     8
 71
     3
 72
    12
 73
     8
 74
     0
 42
0.000000001
 43
0.00000001
 40
0.0
 40
0.0
 40
0.0
 40
0.0
 40
0.1731008601132462
 40
0.3596153376346544
 40
0.5595829448170604
 40
0.7730357225314888
 40
1.0
 40
1.0
 40
1.0
 40
1.0
 10
130.6553502890173
 20
76.23799810455556
 30
0.0
 10
130.6547364613287
 20
76.30343098880097
 30
0.0
 10
130.6534612403312
 20
76.43936716349661
 30
0.0
 10
130.643777935024
 20
76.65207903635627
 30
0.0
 10
130.628222651904
 20
76.88082406602408
 30
0.0
 10
130.606363751443
 20
77.12567499255397
 30
0.0
 10
130.5873679720254
 20
77.29455087679743
 30
0.0
 10
130.5775786977461
 20
77.38157927998508
 30
0.0
  0
LINE
  5
EB
330
1F
100
AcDbEntity
  8
0
  6
Continuous
 62
     7
370
    25
100
AcDbLine
 10
130.6553501214
 20
76.2379981299
 30
0.0
 11
130.6553501214
 21
74.4796555211
 31
0.0
  0
LINE
  5
EC
330
1F
100
AcDbEntity
  8
0
  6
Continuous
 62
     7
370
    25
100
AcDbLine
 10
130.1553505051
 20
74.4796555211
 30
0.0
 11
130.6553501214
 21
74.4796555211
 31
0.0
  0
SPLINE
  5
ED
330
1F
100
AcDbEntity
  8
0
  6
Continuous
 62
     7
370
    25
100
AcDbSpline
210
0.0
220
0.0
230
1.0
 70
     8
 71
     3
 72
    12
 73
     8
 74
     0
 42
0.000000001
 43
0.00000001
 40
-0.267217449764123
 40
-0.267217449764123
 40
-0.267217449764123
 40
-0.267217449764123
 40
-0.160856558527433
 40
-0.107676112909088
 40
-0.001315221672398
 40
-0.001315221672398
 40
0.0
 40
0.0
 40
0.0
 40
0.0
 10
115.7331218802885
 20
77.38157927999396
 30
0.0
 10
115.7711640671209
 20
77.7556597505725
 30
0.0
 10
115.7656681949596
 20
78.2753609160489
 30
0.0
 10
115.7237716154327
 20
79.12760608467927
 30
0.0
 10
115.6826454576765
 20
79.63181752689171
 30
0.0
 10
115.6559980801632
 20
79.97135692347872
 30
0.0
 10
115.6556745784957
 20
79.9755066919886
 30
0.0
 10
115.6553502890173
 20
79.97965549132948
 30
0.0
  0
SPLINE
  5
EE
330
1F
100
AcDbEntity
  8
0
  6
Continuous
 62
     7
370
    25
100
AcDbSpline
210
0.0
220
0.0
230
1.0
 70
     8
 71
     3
 72
    12
 73
     8
 74
     0
 42
0.000000001
 43
0.00000001
 40
0.0
 40
0.0
 40
0.0
 40
0.0
 40
0.106360891224351
 40
0.159541336836527
 40
0.265902228060878
 40
0.265902228060878
 40
0.267217449764311
 40
0.267217449764311
 40
0.267217449764311
 40
0.267217449764311
 10
130.5775786977461
 20
82.57773170266503
 30
0.0
 10
130.5395365109181
 20
82.20365123212987
 30
0.0
 10
130.5450323830712
 20
81.68395006671022
 30
0.0
 10
130.586928962588
 20
80.8317048981767
 30
0.0
 10
130.628055120332
 20
80.32749345602213
 30
0.0
 10
130.6547024978563
 20
79.98795405937592
 30
0.0
 10
130.6550259995313
 20
79.98380429076738
 30
0.0
 10
130.6553502890173
 20
79.97965549132948
 30
0.0
  0
SPLINE
  5
EF
330
1F
100
AcDbEntity
  8
0
  6
Continuous
 62
     7
370
    25
100
AcDbSpline
210
0.0
220
0.0
230
1.0
 70
     8
 71
     3
 72
    12
 73
     8
 74
     0
 42
0.000000001
 43
0.00000001
 40
0.0
 40
0.0
 40
0.0
 40
0.0
 40
0.106360889128132
 40
0.159541333692198
 40
0.26590222282033
 40
0.26590222282033
 40
0.267217449923961
 40
0.267217449923961
 40
0.267217449923961
 40
0.267217449923961
 10
120.5572740776818
 20
87.40188390005834
 30
0.0
 10
120.9313545408444
 20
87.36384171398004
 30
0.0
 10
121.4510556982745
 20
87.36933758517907
 30
0.0
 10
122.3033008475489
 20
87.41123416274628
 30
0.0
 10
122.8075122798454
 20
87.4523603191717
 30
0.0
 10
123.1470516868978
 20
87.47900769750868
 30
0.0
 10
123.1512014725444
 20
87.47933120051223
 30
0.0
 10
123.1553502890173
 20
87.4796554913295
 30
0.0
  0
SPLINE
  5
F0
330
1F
100
AcDbEntity
  8
0
  6
Continuous
 62
     7
370
    25
100
AcDbSpline
210
0.0
220
0.0
230
1.0
 70
     8
 71
     3
 72
     8
 73
     4
 74
     0
 42
0.000000001
 43
0.00000001
 40
0.0
 40
0.0
 40
0.0
 40
0.0
 40
1.0
 40
1.0
 40
1.0
 40
1.0
 10
115.3108934715596
 20
77.55478436074748
 30
0.0
 10
115.4808973513953
 20
77.51974363582922
 30
0.0
 10
115.6477018137478
 20
77.45131768491133
 30
0.0
 10
115.7331218802885
 20
77.38157927999396
 30
0.0
  0
SPLINE
  5
F1
330
1F
100
AcDbEntity
  8
0
  6
Continuous
 62
     7
370
    25
100
AcDbSpline
210
0.0
220
0.0
230
1.0
 70
     8
 71
     3
 72
     9
 73
     5
 74
     0
 42
0.000000001
 43
0.00000001
 40
0.0
 40
0.0
 40
0.0
 40
0.0
 40
0.571428571428571
 40
1.0
 40
1.0
 40
1.0
 40
1.0
 10
130.999807106475
 20
82.40452662191151
 30
0.0
 10
130.9026620322832
 20
82.42454989329339
 30
0.0
 10
130.7330006935655
 20
82.47806821076871
 30
0.0
 10
130.6141872976922
 20
82.5478438148433
 30
0.0
 10
130.5775786977461
 20
82.57773170266503
 30
0.0
  0
SPLINE
  5
F2
330
1F
100
AcDbEntity
  8
0
  6
Continuous
 62
     7
370
    25
100
AcDbSpline
210
0.0
220
0.0
230
1.0
 70
     8
 71
     3
 72
     9
 73
     5
 74
     0
 42
0.000000001
 43
0.00000001
 40
0.0
 40
0.0
 40
0.0
 40
0.0
 40
0.5
 40
1.0
 40
1.0
 40
1.0
 40
1.0
 10
130.9998071064761
 20
77.55478436074293
 30
0.0
 10
130.914805166558
 20
77.53726399828338
 30
0.0
 10
130.7449112483093
 20
77.48614177930094
 30
0.0
 10
130.6202887310169
 20
77.41644848244577
 30
0.0
 10
130.5775786977467
 20
77.38157927998674
 30
0.0
  0
SPLINE
  5
F3
330
1F
100
AcDbEntity
  8
0
  6
Continuous
 62
     7
370
    25
100
AcDbSpline
210
0.0
220
0.0
230
1.0
 70
     8
 71
     3
 72
    12
 73
     8
 74
     0
 42
0.000000001
 43
0.00000001
 40
-0.0013152216724614
 40
-0.0013152216724614
 40
-0.0013152216724614
 40
-0.0013152216724614
 40
0.0
 40
0.0
 40
0.159541336854997
 40
0.212721782473329
 40
0.265902228091661
 40
0.265902228091661
 40
0.265902228091661
 40
0.265902228091661
 10
130.6553502890173
 20
79.97965549132948
 30
0.0
 10
130.655025999539
 20
79.9755066919893
 30
0.0
 10
130.6547006798084
 20
79.97135914538542
 30
0.0
 10
130.61522092976
 20
79.46372493220264
 30
0.0
 10
130.5601530150845
 20
78.79109503182796
 30
0.0
 10
130.5443407069496
 20
77.92657895504719
 30
0.0
 10
130.5585576043299
 20
77.5686195152832
 30
0.0
 10
130.5775786977461
 20
77.38157927999396
 30
0.0
  0
SPLINE
  5
F4
330
1F
100
AcDbEntity
  8
0
  6
Continuous
 62
     7
370
    25
100
AcDbSpline
210
0.0
220
0.0
230
1.0
 70
     8
 71
     3
 72
    12
 73
     8
 74
     0
 42
0.000000001
 43
0.00000001
 40
-0.265902228061387
 40
-0.265902228061387
 40
-0.265902228061387
 40
-0.265902228061387
 40
-0.2645870063584663
 40
-0.2645870063584663
 40
-0.1582261151339113
 40
-0.1050456695216343
 40
0.0013152217029208
 40
0.0013152217029208
 40
0.0013152217029208
 40
0.0013152217029208
 10
115.6553502890173
 20
79.97965549132948
 30
0.0
 10
115.6556745785032
 20
79.98380429076605
 30
0.0
 10
115.6559980801779
 20
79.9879540593727
 30
0.0
 10
115.6826454577044
 20
80.32749345602122
 30
0.0
 10
115.7237716154468
 20
80.83170489817412
 30
0.0
 10
115.7656681949641
 20
81.6839500667098
 30
0.0
 10
115.7711640671166
 20
82.20365123212915
 30
0.0
 10
115.7331218802885
 20
82.57773170266503
 30
0.0
  0
SPLINE
  5
F5
330
1F
100
AcDbEntity
  8
0
  6
Continuous
 62
     7
370
    25
100
AcDbSpline
210
0.0
220
0.0
230
1.0
 70
     8
 71
     3
 72
     9
 73
     5
 74
     0
 42
0.000000001
 43
0.00000001
 40
0.0
 40
0.0
 40
0.0
 40
0.0
 40
0.5
 40
1.0
 40
1.0
 40
1.0
 40
1.0
 10
115.3108934715589
 20
82.4045266219143
 30
0.0
 10
115.3958954114769
 20
82.42204698437386
 30
0.0
 10
115.5657893297256
 20
82.47316920335626
 30
0.0
 10
115.690411847018
 20
82.54286250021136
 30
0.0
 10
115.7331218802881
 20
82.57773170267036
 30
0.0
  0
SPLINE
  5
F6
330
1F
100
AcDbEntity
  8
0
  6
Continuous
 62
     7
370
    25
100
AcDbSpline
210
0.0
220
0.0
230
1.0
 70
     8
 71
     3
 72
     9
 73
     5
 74
     0
 42
0.000000001
 43
0.00000001
 40
0.0
 40
0.0
 40
0.0
 40
0.0
 40
0.571428571428571
 40
1.0
 40
1.0
 40
1.0
 40
1.0
 10
120.7304791584353
 20
87.82411230878719
 30
0.0
 10
120.7104558870534
 20
87.72696723459536
 30
0.0
 10
120.6569375695781
 20
87.55730589587769
 30
0.0
 10
120.5871619655035
 20
87.43849250000432
 30
0.0
 10
120.5572740776818
 20
87.40188390005834
 30
0.0
  0
SPLINE
  5
F7
330
1F
100
AcDbEntity
  8
0
  6
Continuous
 62
     7
370
    25
100
AcDbSpline
210
0.0
220
0.0
230
1.0
 70
     8
 71
     3
 72
    12
 73
     8
 74
     0
 42
0.000000001
 43
0.00000001
 40
-0.0013152270871416
 40
-0.0013152270871416
 40
-0.0013152270871416
 40
-0.0013152270871416
 40
0.0
 40
0.0
 40
0.106360889134687
 40
0.159541333702031
 40
0.265902222836718
 40
0.265902222836718
 40
0.265902222836718
 40
0.265902222836718
 10
123.1553502890173
 20
87.4796554913295
 30
0.0
 10
123.1594991054384
 20
87.47933120051628
 30
0.0
 10
123.1636488910328
 20
87.47900769751682
 30
0.0
 10
123.5031882980531
 20
87.45236031918313
 30
0.0
 10
124.0073997303807
 20
87.41123416275312
 30
0.0
 10
124.8596448797067
 20
87.36933758518019
 30
0.0
 10
125.3793460371672
 20
87.36384171397768
 30
0.0
 10
125.7534265003528
 20
87.40188390005834
 30
0.0
  0
SPLINE
  5
F8
330
1F
100
AcDbEntity
  8
0
  6
Continuous
 62
     7
370
    25
100
AcDbSpline
210
0.0
220
0.0
230
1.0
 70
     8
 71
     3
 72
     9
 73
     5
 74
     0
 42
0.000000001
 43
0.00000001
 40
0.0
 40
0.0
 40
0.0
 40
0.0
 40
0.5
 40
1.0
 40
1.0
 40
1.0
 40
1.0
 10
125.580221419604
 20
87.82411230878837
 30
0.0
 10
125.5977417820636
 20
87.73911036887026
 30
0.0
 10
125.648864001046
 20
87.56921645062148
 30
0.0
 10
125.7185572979012
 20
87.44459393332907
 30
0.0
 10
125.7534265003602
 20
87.40188390005893
 30
0.0
  0
SPLINE
  5
F9
330
1F
100
AcDbEntity
  8
0
  6
Continuous
 62
     7
370
    25
100
AcDbSpline
210
0.0
220
0.0
230
1.0
 70
     8
 71
     3
 72
    13
 73
     9
 74
     0
 42
0.000000001
 43
0.00000001
 40
0.0
 40
0.0
 40
0.0
 40
0.0
 40
0.1162222239500744
 40
0.2381780213579675
 40
0.3660917905452749
 40
0.5001580142688472
 40
0.7504239388829979
 40
1.0
 40
1.0
 40
1.0
 40
1.0
 10
129.0203670738163
 20
87.32136113485187
 30
0.0
 10
129.0313511963114
 20
87.30891312423378
 30
0.0
 10
129.0538613193612
 20
87.28340300716589
 30
0.0
 10
129.081972446526
 20
87.24189583414918
 30
0.0
 10
129.1064964431242
 20
87.19730308344418
 30
0.0
 10
129.131870027988
 20
87.13679700014022
 30
0.0
 10
129.1517297058605
 20
87.06139321647836
 30
0.0
 10
129.1541445389196
 20
87.00687633149586
 30
0.0
 10
129.1553502890173
 20
86.97965551010287
 30
0.0
  0
SPLINE
  5
FA
330
1F
100
AcDbEntity
  8
0
  6
Continuous
 62
     7
370
    25
100
AcDbSpline
210
0.0
220
0.0
230
1.0
 70
     8
 71
     3
 72
    10
 73
     6
 74
     0
 42
0.000000001
 43
0.00000001
 40
0.0
 40
0.0
 40
0.0
 40
0.0
 40
0.5
 40
0.5
 40
1.0
 40
1.0
 40
1.0
 40
1.0
 10
129.1553502890173
 20
86.9796554913295
 30
0.0
 10
129.1553502890173
 20
86.71785610040115
 30
0.0
 10
129.263123388095
 20
86.45766882640305
 30
0.0
 10
129.6333636408425
 20
86.08742858060684
 30
0.0
 10
129.8935509168641
 20
85.97965548641419
 30
0.0
 10
130.1553503077924
 20
85.9796554913295
 30
0.0
  0
SPLINE
  5
FB
330
1F
100
AcDbEntity
  8
0
  6
Continuous
 62
     7
370
    25
100
AcDbSpline
210
0.0
220
0.0
230
1.0
 70
     8
 71
     3
 72
    12
 73
     8
 74
     0
 42
0.000000001
 43
0.00000001
 40
0.0
 40
0.0
 40
0.0
 40
0.0
 40
0.1664616503807027
 40
0.3330491366093241
 40
0.5001938540683241
 40
0.7619811741357122
 40
1.0
 40
1.0
 40
1.0
 40
1.0
 10
130.1553503077907
 20
85.9796554913295
 30
0.0
 10
130.1733241315425
 20
85.97911311189806
 30
0.0
 10
130.2092853662677
 20
85.97802794302615
 30
0.0
 10
130.2670022953412
 20
85.9682447946663
 30
0.0
 10
130.3372870068335
 20
85.94756472288668
 30
0.0
 10
130.4166297612766
 20
85.91126345347008
 30
0.0
 10
130.4711108322997
 20
85.86615427314626
 30
0.0
 10
130.4970559325396
 20
85.84467227612849
 30
0.0
  0
SPLINE
  5
FC
330
1F
100
AcDbEntity
  8
0
  6
Continuous
 62
     7
370
    25
100
AcDbSpline
210
0.0
220
0.0
230
1.0
 70
     8
 71
     3
 72
    13
 73
     9
 74
     0
 42
0.000000001
 43
0.00000001
 40
0.0
 40
0.0
 40
0.0
 40
0.0
 40
0.1162222239446788
 40
0.2381780213507807
 40
0.3660917905398808
 40
0.5001580142687957
 40
0.7504239388759752
 40
1.0
 40
1.0
 40
1.0
 40
1.0
 10
115.8136446454949
 20
85.84467227612843
 30
0.0
 10
115.8260926561124
 20
85.85565639862307
 30
0.0
 10
115.8516027731795
 20
85.87816652167226
 30
0.0
 10
115.8931099461954
 20
85.90627764883679
 30
0.0
 10
115.9377026969008
 20
85.93080164543562
 30
0.0
 10
115.9982087802052
 20
85.95617523029973
 30
0.0
 10
116.0736125638679
 20
85.97603490817256
 30
0.0
 10
116.1281294488503
 20
85.97844974123171
 30
0.0
 10
116.1553502702439
 20
85.9796554913295
 30
0.0
  0
SPLINE
  5
FD
330
1F
100
AcDbEntity
  8
0
  6
Continuous
 62
     7
370
    25
100
AcDbSpline
210
0.0
220
0.0
230
1.0
 70
     8
 71
     3
 72
    10
 73
     6
 74
     0
 42
0.000000001
 43
0.00000001
 40
0.0
 40
0.0
 40
0.0
 40
0.0
 40
0.5
 40
0.5
 40
1.0
 40
1.0
 40
1.0
 40
1.0
 10
116.1553502702422
 20
85.9796554913295
 30
0.0
 10
116.4171496642997
 20
85.97965548641419
 30
0.0
 10
116.6773369433552
 20
86.08742858329435
 30
0.0
 10
117.0475771970525
 20
86.45766883699154
 30
0.0
 10
117.1553502939326
 20
86.71785611604709
 30
0.0
 10
117.1553502890173
 20
86.9796555101046
 30
0.0
  0
SPLINE
  5
FE
330
1F
100
AcDbEntity
  8
0
  6
Continuous
 62
     7
370
    25
100
AcDbSpline
210
0.0
220
0.0
230
1.0
 70
     8
 71
     3
 72
    12
 73
     8
 74
     0
 42
0.000000001
 43
0.00000001
 40
0.0
 40
0.0
 40
0.0
 40
0.0
 40
0.1664615763807151
 40
0.3330490665505926
 40
0.500193865880855
 40
0.7619811797519991
 40
1.0
 40
1.0
 40
1.0
 40
1.0
 10
117.1553502890173
 20
86.9796554913295
 30
0.0
 10
117.1558926673491
 20
86.99762930809104
 30
0.0
 10
117.1569778342751
 20
87.03359053725234
 30
0.0
 10
117.1667609795876
 20
87.09130747461263
 30
0.0
 10
117.1874410530161
 20
87.1615921997663
 30
0.0
 10
117.2237423268159
 20
87.24093496336806
 30
0.0
 10
117.2688515071803
 20
87.29541603454
 30
0.0
 10
117.2903335042183
 20
87.32136113485183
 30
0.0
  0
SPLINE
  5
FF
330
1F
100
AcDbEntity
  8
0
  6
Continuous
 62
     7
370
    25
100
AcDbSpline
210
0.0
220
0.0
230
1.0
 70
     8
 71
     3
 72
    14
 73
    10
 74
     0
 42
0.000000001
 43
0.00000001
 40
0.0
 40
0.0
 40
0.0
 40
0.0
 40
0.25
 40
0.25
 40
0.5
 40
0.5
 40
0.75
 40
0.75
 40
1.0
 40
1.0
 40
1.0
 40
1.0
 10
130.1553502890173
 20
73.9796554913295
 30
0.0
 10
130.2142758541162
 20
73.9796554913295
 30
0.0
 10
130.2778491686063
 20
73.99039486073625
 30
0.0
 10
130.4009461189902
 20
74.0391278208603
 30
0.0
 10
130.4600881431417
 20
74.07728656426731
 30
0.0
 10
130.5577192160795
 20
74.17491763720513
 30
0.0
 10
130.5958779594865
 20
74.23405966135661
 30
0.0
 10
130.6446109196106
 20
74.35715661174049
 30
0.0
 10
130.6553502890173
 20
74.4207299262306
 30
0.0
 10
130.6553502890173
 20
74.4796554913295
 30
0.0
  0
SPLINE
  5
100
330
1F
100
AcDbEntity
  8
0
  6
Continuous
 62
     7
370
    25
100
AcDbSpline
210
0.0
220
0.0
230
1.0
 70
    24
 71
     3
 72
    10
 73
     6
 74
     0
 42
0.000000001
 43
0.00000001
 40
0.0
 40
0.0
 40
0.0
 40
0.0
 40
0.5
 40
0.5
 40
1.0
 40
1.0
 40
1.0
 40
1.0
 10
130.1553502890173
 20
73.9796554913295
 30
0.0
 10
130.1553502890174
 20
73.9796554913295
 30
0.0
 10
130.1553502890175
 20
74.03354203952459
 30
0.0
 10
130.1553502890174
 20
74.21866216194785
 30
0.0
 10
130.1553502890174
 20
74.34875579742992
 30
0.0
 10
130.1553502890173
 20
74.4796554913295
 30
0.0
  0
LINE
  5
101
330
1F
100
AcDbEntity
  8
0
  6
Continuous
 62
     7
370
    25
100
AcDbLine
 10
130.1553505051
 20
73.9796554392
 30
0.0
 11
116.155350073
 21
73.9796554392
 31
0.0
  0
SPLINE
  5
102
330
1F
100
AcDbEntity
  8
0
  6
Continuous
 62
     7
370
    25
100
AcDbSpline
210
0.0
220
0.0
230
1.0
 70
    24
 71
     3
 72
    14
 73
    10
 74
     0
 42
0.000000001
 43
0.00000001
 40
0.0
 40
0.0
 40
0.0
 40
0.0
 40
0.25
 40
0.25
 40
0.5
 40
0.5
 40
0.75
 40
0.75
 40
1.0
 40
1.0
 40
1.0
 40
1.0
 10
116.1553502890173
 20
73.9796554913295
 30
0.0
 10
116.1553502890173
 20
73.9796554913295
 30
0.0
 10
116.1553502890173
 20
73.99039486073625
 30
0.0
 10
116.1553502890173
 20
74.03912782086032
 30
0.0
 10
116.1553502890173
 20
74.07728656426733
 30
0.0
 10
116.1553502890173
 20
74.17491763720513
 30
0.0
 10
116.1553502890173
 20
74.23405966135661
 30
0.0
 10
116.1553502890173
 20
74.35715661174049
 30
0.0
 10
116.1553502890173
 20
74.4207299262306
 30
0.0
 10
116.1553502890173
 20
74.4796554913295
 30
0.0
  0
SPLINE
  5
103
330
1F
100
AcDbEntity
  8
0
  6
Continuous
 62
     7
370
    25
100
AcDbSpline
210
0.0
220
0.0
230
1.0
 70
     8
 71
     3
 72
    10
 73
     6
 74
     0
 42
0.000000001
 43
0.00000001
 40
0.0
 40
0.0
 40
0.0
 40
0.0
 40
0.5
 40
0.5
 40
1.0
 40
1.0
 40
1.0
 40
1.0
 10
116.1553502890173
 20
73.9796554913295
 30
0.0
 10
116.0244505951177
 20
73.9796554913295
 30
0.0
 10
115.8943569596357
 20
74.03354203952459
 30
0.0
 10
115.7092368372124
 20
74.21866216194786
 30
0.0
 10
115.6553502890173
 20
74.34875579742992
 30
0.0
 10
115.6553502890173
 20
74.4796554913295
 30
0.0
  0
LINE
  5
104
330
1F
100
AcDbEntity
  8
0
  6
Continuous
 62
     7
370
    25
100
AcDbLine
 10
127.0860959354
 20
77.4116147497
 30
0.0
 11
126.8227551642
 21
76.7087928673
 31
0.0
  0
SPLINE
  5
105
330
1F
100
AcDbEntity
  8
0
  6
Continuous
 62
     7
370
    25
100
AcDbSpline
210
0.0
220
0.0
230
1.0
 70
     8
 71
     3
 72
    31
 73
    27
 74
     0
 42
0.000000001
 43
0.00000001
 40
0.0
 40
0.0
 40
0.0
 40
0.0
 40
0.041802146707033
 40
0.0834773119907251
 40
0.1252067539465352
 40
0.1667553111646444
 40
0.208343789897431
 40
0.2500683763875439
 40
0.2917172802014936
 40
0.3332298152280506
 40
0.3749213178163661
 40
0.4166401475748497
 40
0.4581957047388333
 40
0.4998271904370101
 40
0.5415736637950209
 40
0.5832410842716478
 40
0.624816154537611
 40
0.6665619264699779
 40
0.7082962697793289
 40
0.7498773808560844
 40
0.7916005699338539
 40
0.8333637303001521
 40
0.8749600854558802
 40
0.9166279211224443
 40
0.9583871623503707
 40
1.0
 40
1.0
 40
1.0
 40
1.0
 10
127.0860960343763
 20
77.41161463983876
 30
0.0
 10
127.0870368800364
 20
77.41390297525031
 30
0.0
 10
127.0889157133713
 20
77.41847269484937
 30
0.0
 10
127.0926595553987
 20
77.42488465267078
 30
0.0
 10
127.0969876889605
 20
77.43088467510154
 30
0.0
 10
127.101927381799
 20
77.43639203076334
 30
0.0
 10
127.1074161326306
 20
77.44134876182231
 30
0.0
 10
127.1133787956692
 20
77.44573278836108
 30
0.0
 10
127.1197403440751
 20
77.44950633497908
 30
0.0
 10
127.1264471643337
 20
77.45262075616378
 30
0.0
 10
127.1334304591338
 20
77.45506280873808
 30
0.0
 10
127.1406168130033
 20
77.45682890397288
 30
0.0
 10
127.1479363592269
 20
77.45789758067993
 30
0.0
 10
127.1553267961663
 20
77.45824581253416
 30
0.0
 10
127.1627229633754
 20
77.45789229945208
 30
0.0
 10
127.1700498204799
 20
77.45684125951446
 30
0.0
 10
127.1772392222651
 20
77.45507915331959
 30
0.0
 10
127.1842268237744
 20
77.45262581599927
 30
0.0
 10
127.1909464752562
 20
77.44951110395274
 30
0.0
 10
127.1973228626115
 20
77.44574425135997
 30
0.0
 10
127.20328534864
 20
77.44134842483443
 30
0.0
 10
127.2087782684841
 20
77.43637783530482
 30
0.0
 10
127.2137339923534
 20
77.43087200968704
 30
0.0
 10
127.2180578900813
 20
77.42486293187359
 30
0.0
 10
127.2217871136436
 20
77.41845445787773
 30
0.0
 10
127.2236665027435
 20
77.41389190853259
 30
0.0
 10
127.224604547165
 20
77.41161463983876
 30
0.0
  0
LINE
  5
106
330
1F
100
AcDbEntity
  8
0
  6
Continuous
 62
     7
370
    25
100
AcDbLine
 10
126.892009475
 20
76.6151230039
 30
0.0
 11
127.4186912502
 21
76.6151230039
 31
0.0
  0
SPLINE
  5
107
330
1F
100
AcDbEntity
  8
0
  6
Continuous
 62
     7
370
    25
100
AcDbSpline
210
0.0
220
0.0
230
1.0
 70
     8
 71
     3
 72
    15
 73
    11
 74
     0
 42
0.000000001
 43
0.00000001
 40
0.0
 40
0.0
 40
0.0
 40
0.0
 40
0.1255482376299943
 40
0.2506612331927046
 40
0.3755698012986847
 40
0.5003109015749712
 40
0.6252467103373207
 40
0.7502075817355112
 40
0.874985997901262
 40
1.0
 40
1.0
 40
1.0
 40
1.0
 10
127.4879454345214
 20
76.7087928229758
 30
0.0
 10
127.4895604799886
 20
76.70327763627279
 30
0.0
 10
127.4927849719936
 20
76.69226638253987
 30
0.0
 10
127.4921274682754
 20
76.67489732327049
 30
0.0
 10
127.4873969071515
 20
76.65835248263768
 30
0.0
 10
127.4786503340184
 20
76.64350131322823
 30
0.0
 10
127.466620628956
 20
76.63117082426375
 30
0.0
 10
127.4520426802333
 20
76.62207841677044
 30
0.0
 10
127.4357892366524
 20
76.61622674372191
 30
0.0
 10
127.424394113287
 20
76.61549120697974
 30
0.0
 10
127.4186911780809
 20
76.61512309175643
 30
0.0
  0
LINE
  5
108
330
1F
100
AcDbEntity
  8
0
  6
Continuous
 62
     7
370
    25
100
AcDbLine
 10
127.4879453282
 20
76.7087928673
 30
0.0
 11
127.224604557
 21
77.4116147497
 31
0.0
  0
SPLINE
  5
109
330
1F
100
AcDbEntity
  8
0
  6
Continuous
 62
     7
370
    25
100
AcDbSpline
210
0.0
220
0.0
230
1.0
 70
     8
 71
     3
 72
    15
 73
    11
 74
     0
 42
0.000000001
 43
0.00000001
 40
0.0
 40
0.0
 40
0.0
 40
0.0
 40
0.1247517205531464
 40
0.2498857245441838
 40
0.3745674687454417
 40
0.4993106804387823
 40
0.6244677860264319
 40
0.7493917290903895
 40
0.8741574726928457
 40
1.0
 40
1.0
 40
1.0
 40
1.0
 10
126.8920094003582
 20
76.61512309175643
 30
0.0
 10
126.8863182755685
 20
76.61548783424597
 30
0.0
 10
126.8749185863677
 20
76.61621843692517
 30
0.0
 10
126.8586717888026
 20
76.62207039418381
 30
0.0
 10
126.8441038616342
 20
76.63116458499273
 30
0.0
 10
126.8320567826528
 20
76.64347310940681
 30
0.0
 10
126.8233018814767
 20
76.658336842177
 30
0.0
 10
126.8185879953096
 20
76.67488900099535
 30
0.0
 10
126.8179138544191
 20
76.6922538578233
 30
0.0
 10
126.8211367648793
 20
76.70326406563989
 30
0.0
 10
126.8227551440178
 20
76.70879282322154
 30
0.0
  0
LINE
  5
10A
330
1F
100
AcDbEntity
  8
0
  6
Continuous
 62
     7
370
    25
100
AcDbLine
 10
129.6113123695
 20
101.8908686658
 30
0.0
 11
116.6993882085
 21
101.8908686658
 31
0.0
  0
SPLINE
  5
10B
330
1F
100
AcDbEntity
  8
0
  6
Continuous
 62
     7
370
    25
100
AcDbSpline
210
0.0
220
0.0
230
1.0
 70
     8
 71
     3
 72
     9
 73
     5
 74
     0
 42
0.000000001
 43
0.00000001
 40
0.0
 40
0.0
 40
0.0
 40
0.0
 40
0.5
 40
1.0
 40
1.0
 40
1.0
 40
1.0
 10
115.1553502890173
 20
76.48744193034048
 30
0.0
 10
115.2862499829169
 20
76.48744193034048
 30
0.0
 10
115.5470664188323
 20
76.433420444641
 30
0.0
 10
115.6553502890173
 20
76.30330234543632
 30
0.0
 10
115.6553502890173
 20
76.23799810455556
 30
0.0
  0
SPLINE
  5
10C
330
1F
100
AcDbEntity
  8
0
  6
Continuous
 62
     7
370
    25
100
AcDbSpline
210
0.0
220
0.0
230
1.0
 70
     8
 71
     3
 72
     9
 73
     5
 74
     0
 42
0.000000001
 43
0.00000001
 40
0.0
 40
0.0
 40
0.0
 40
0.0
 40
0.5
 40
1.0
 40
1.0
 40
1.0
 40
1.0
 10
131.1553502890173
 20
83.4718690523185
 30
0.0
 10
131.0244505951177
 20
83.4718690523185
 30
0.0
 10
130.7636341592023
 20
83.52589053801798
 30
0.0
 10
130.6553502890173
 20
83.65600863722267
 30
0.0
 10
130.6553502890173
 20
83.72131287810343
 30
0.0
  0
SPLINE
  5
10D
330
1F
100
AcDbEntity
  8
0
  6
Continuous
 62
     7
370
    25
100
AcDbSpline
210
0.0
220
0.0
230
1.0
 70
     8
 71
     3
 72
     9
 73
     5
 74
     0
 42
0.000000001
 43
0.00000001
 40
0.0
 40
0.0
 40
0.0
 40
0.0
 40
0.5
 40
1.0
 40
1.0
 40
1.0
 40
1.0
 10
119.6631367280283
 20
87.9796554913295
 30
0.0
 10
119.6631367280283
 20
87.84875579742993
 30
0.0
 10
119.6091152423288
 20
87.58793936151446
 30
0.0
 10
119.4789971431241
 20
87.4796554913295
 30
0.0
 10
119.4136929022434
 20
87.4796554913295
 30
0.0
  0
SPLINE
  5
10E
330
1F
100
AcDbEntity
  8
0
  6
Continuous
 62
     7
370
    25
100
AcDbSpline
210
0.0
220
0.0
230
1.0
 70
     8
 71
     3
 72
     9
 73
     5
 74
     0
 42
0.000000001
 43
0.00000001
 40
0.0
 40
0.0
 40
0.0
 40
0.0
 40
0.5
 40
1.0
 40
1.0
 40
1.0
 40
1.0
 10
126.8970076757913
 20
87.4796554913295
 30
0.0
 10
126.8317034349105
 20
87.4796554913295
 30
0.0
 10
126.7015853357058
 20
87.58793936151446
 30
0.0
 10
126.6475638500063
 20
87.84875579742992
 30
0.0
 10
126.6475638500063
 20
87.9796554913295
 30
0.0
  0
SPLINE
  5
10F
330
1F
100
AcDbEntity
  8
0
  6
Continuous
 62
     7
370
    25
100
AcDbSpline
210
0.0
220
0.0
230
1.0
 70
     8
 71
     3
 72
     9
 73
     5
 74
     0
 42
0.000000001
 43
0.00000001
 40
0.0
 40
0.0
 40
0.0
 40
0.0
 40
0.5
 40
1.0
 40
1.0
 40
1.0
 40
1.0
 10
130.6553502890173
 20
76.23799810455556
 30
0.0
 10
130.6553502890173
 20
76.30330234543632
 30
0.0
 10
130.7636341592023
 20
76.43342044464102
 30
0.0
 10
131.0244505951177
 20
76.4874419303405
 30
0.0
 10
131.1553502890173
 20
76.4874419303405
 30
0.0
  0
SPLINE
  5
110
330
1F
100
AcDbEntity
  8
0
  6
Continuous
 62
     7
370
    25
100
AcDbSpline
210
0.0
220
0.0
230
1.0
 70
     8
 71
     3
 72
     9
 73
     5
 74
     0
 42
0.000000001
 43
0.00000001
 40
0.0
 40
0.0
 40
0.0
 40
0.0
 40
0.5
 40
1.0
 40
1.0
 40
1.0
 40
1.0
 10
115.6553502890173
 20
83.72131287810343
 30
0.0
 10
115.6553502890173
 20
83.65600863722267
 30
0.0
 10
115.5470664188323
 20
83.52589053801798
 30
0.0
 10
115.2862499829169
 20
83.4718690523185
 30
0.0
 10
115.1553502890173
 20
83.4718690523185
 30
0.0
  0
LINE
  5
111
330
1F
100
AcDbEntity
  8
0
  6
Continuous
 62
     7
370
    25
100
AcDbLine
 10
115.6452288429
 20
74.4250115661
 30
0.0
 11
115.6553504567
 21
74.4795619232
 31
0.0
  0
SPLINE
  5
112
330
1F
100
AcDbEntity
  8
0
  6
Continuous
 62
     7
370
    25
100
AcDbSpline
210
0.0
220
0.0
230
1.0
 70
     8
 71
     3
 72
    11
 73
     7
 74
     0
 42
0.000000001
 43
0.00000001
 40
0.0
 40
0.0
 40
0.0
 40
0.0
 40
0.2813371813345898
 40
0.4847351098322705
 40
0.7599089647777694
 40
1.0
 40
1.0
 40
1.0
 40
1.0
 10
115.1553502890173
 20
73.91298882466282
 30
0.0
 10
115.1802582064466
 20
73.93736413163057
 30
0.0
 10
115.2231737643317
 20
73.97936201845147
 30
0.0
 10
115.2903003833158
 20
74.03775152604429
 30
0.0
 10
115.3542400225785
 20
74.08778320633485
 30
0.0
 10
115.3993714226364
 20
74.11595713172986
 30
0.0
 10
115.4204006927608
 20
74.1290849559683
 30
0.0
  0
LINE
  5
113
330
1F
100
AcDbEntity
  8
0
  6
Continuous
 62
     7
370
    25
100
AcDbLine
 10
115.9716178241
 20
74.0146834125
 30
0.0
 11
116.1552569407
 21
73.9796554392
 31
0.0
  0
SPLINE
  5
114
330
1F
100
AcDbEntity
  8
0
  6
Continuous
 62
     7
370
    25
100
AcDbSpline
210
0.0
220
0.0
230
1.0
 70
     8
 71
     3
 72
    12
 73
     8
 74
     0
 42
0.000000001
 43
0.00000001
 40
0.0
 40
0.0
 40
0.0
 40
0.0
 40
0.156133543665343
 40
0.327879147000269
 40
0.5152978781378685
 40
0.7186269797895557
 40
1.0
 40
1.0
 40
1.0
 40
1.0
 10
130.8902987985174
 20
74.12910604476983
 30
0.0
 10
130.9039502769561
 20
74.12077532389397
 30
0.0
 10
130.932618268476
 20
74.10328087913504
 30
0.0
 10
130.9781908521348
 20
74.07059738352778
 30
0.0
 10
131.0281366189368
 20
74.03111818656707
 30
0.0
 10
131.0875231277245
 20
73.97933147334318
 30
0.0
 10
131.1304379375036
 20
73.93735592705627
 30
0.0
 10
131.1553502890173
 20
73.91298882466282
 30
0.0
  0
LINE
  5
115
330
1F
100
AcDbEntity
  8
0
  6
Continuous
 62
     7
370
    25
100
AcDbLine
 10
130.6553501214
 20
74.4796261845
 30
0.0
 11
130.6736436251
 21
74.4258879406
 31
0.0
  0
SPLINE
  5
116
330
1F
100
AcDbEntity
  8
0
  6
Continuous
 62
     7
370
    25
100
AcDbSpline
210
0.0
220
0.0
230
1.0
 70
     8
 71
     3
 72
     9
 73
     5
 74
     0
 42
0.000000001
 43
0.00000001
 40
0.0
 40
0.0
 40
0.0
 40
0.0
 40
0.5
 40
1.0
 40
1.0
 40
1.0
 40
1.0
 10
128.2886836223506
 20
87.9796554913295
 30
0.0
 10
128.2886836223506
 20
87.84875579742993
 30
0.0
 10
128.3680938357575
 20
87.58794214597515
 30
0.0
 10
128.5593571801576
 20
87.4796554913295
 30
0.0
 10
128.6553502890173
 20
87.4796554913295
 30
0.0
  0
SPLINE
  5
117
330
1F
100
AcDbEntity
  8
0
  6
Continuous
 62
     7
370
    25
100
AcDbSpline
210
0.0
220
0.0
230
1.0
 70
     8
 71
     3
 72
     9
 73
     5
 74
     0
 42
0.000000001
 43
0.00000001
 40
0.0
 40
0.0
 40
0.0
 40
0.0
 40
0.5
 40
1.0
 40
1.0
 40
1.0
 40
1.0
 10
115.1553502890173
 20
85.11298882466284
 30
0.0
 10
115.2862499829169
 20
85.11298882466284
 30
0.0
 10
115.5470636343716
 20
85.19239903806965
 30
0.0
 10
115.6553502890173
 20
85.38366238246981
 30
0.0
 10
115.6553502890173
 20
85.4796554913295
 30
0.0
  0
SPLINE
  5
118
330
1F
100
AcDbEntity
  8
0
  6
Continuous
 62
     7
370
    25
100
AcDbSpline
210
0.0
220
0.0
230
1.0
 70
     8
 71
     3
 72
     9
 73
     5
 74
     0
 42
0.000000001
 43
0.00000001
 40
0.0
 40
0.0
 40
0.0
 40
0.0
 40
0.5
 40
1.0
 40
1.0
 40
1.0
 40
1.0
 10
130.6553502890173
 20
85.4796554913295
 30
0.0
 10
130.6553502890173
 20
85.38366238246981
 30
0.0
 10
130.763636943663
 20
85.19239903806965
 30
0.0
 10
131.0244505951177
 20
85.11298882466282
 30
0.0
 10
131.1553502890173
 20
85.11298882466282
 30
0.0
  0
SPLINE
  5
119
330
1F
100
AcDbEntity
  8
0
  6
Continuous
 62
     7
370
    25
100
AcDbSpline
210
0.0
220
0.0
230
1.0
 70
     8
 71
     3
 72
     9
 73
     5
 74
     0
 42
0.000000001
 43
0.00000001
 40
0.0
 40
0.0
 40
0.0
 40
0.0
 40
0.5
 40
1.0
 40
1.0
 40
1.0
 40
1.0
 10
117.6553502890173
 20
87.4796554913295
 30
0.0
 10
117.751343397877
 20
87.4796554913295
 30
0.0
 10
117.9426067422772
 20
87.58794214597515
 30
0.0
 10
118.022016955684
 20
87.84875579742993
 30
0.0
 10
118.022016955684
 20
87.9796554913295
 30
0.0
  0
LINE
  5
11A
330
1F
100
AcDbEntity
  8
0
  6
Continuous
 62
     7
370
    25
100
AcDbLine
 10
117.9053503598
 20
103.9796556999
 30
0.0
 11
128.4053502182
 21
103.9796556999
 31
0.0
  0
SPLINE
  5
11B
330
1F
100
AcDbEntity
  8
0
  6
Continuous
 62
     7
370
    25
100
AcDbSpline
210
0.0
220
0.0
230
1.0
 70
     8
 71
     3
 72
     8
 73
     4
 74
     0
 42
0.000000001
 43
0.00000001
 40
0.0
 40
0.0
 40
0.0
 40
0.0
 40
1.0
 40
1.0
 40
1.0
 40
1.0
 10
128.8708263555114
 20
87.76129986477396
 30
0.0
 10
128.8290944523564
 20
87.60440600486459
 30
0.0
 10
128.8670812436874
 20
87.45037882658353
 30
0.0
 10
128.9672124674963
 20
87.37047767805173
 30
0.0
  0
SPLINE
  5
11C
330
1F
100
AcDbEntity
  8
0
  6
Continuous
 62
     7
370
    25
100
AcDbSpline
210
0.0
220
0.0
230
1.0
 70
     8
 71
     3
 72
     9
 73
     5
 74
     0
 42
0.000000001
 43
0.00000001
 40
0.0
 40
0.0
 40
0.0
 40
0.0
 40
0.5
 40
1.0
 40
1.0
 40
1.0
 40
1.0
 10
130.9369946624618
 20
85.69513155782357
 30
0.0
 10
130.8585477325071
 20
85.6742656062461
 30
0.0
 10
130.7017525114191
 20
85.66993379159553
 30
0.0
 10
130.5861230500055
 20
85.74145205790401
 30
0.0
 10
130.5461724757396
 20
85.79151766980847
 30
0.0
  0
SPLINE
  5
11D
330
1F
100
AcDbEntity
  8
0
  6
Continuous
 62
     7
370
    25
100
AcDbSpline
210
0.0
220
0.0
230
1.0
 70
     8
 71
     3
 72
     9
 73
     5
 74
     0
 42
0.000000001
 43
0.00000001
 40
0.0
 40
0.0
 40
0.0
 40
0.0
 40
0.5
 40
1.0
 40
1.0
 40
1.0
 40
1.0
 10
117.4398742225232
 20
87.76129986477396
 30
0.0
 10
117.4607401741007
 20
87.68285293481927
 30
0.0
 10
117.4650719887513
 20
87.52605771373129
 30
0.0
 10
117.3935537224428
 20
87.41042825231764
 30
0.0
 10
117.3434881105383
 20
87.37047767805173
 30
0.0
  0
SPLINE
  5
11E
330
1F
100
AcDbEntity
  8
0
  6
Continuous
 62
     7
370
    25
100
AcDbSpline
210
0.0
220
0.0
230
1.0
 70
     8
 71
     3
 72
     9
 73
     5
 74
     0
 42
0.000000001
 43
0.00000001
 40
0.0
 40
0.0
 40
0.0
 40
0.0
 40
0.5
 40
1.0
 40
1.0
 40
1.0
 40
1.0
 10
115.7645281022951
 20
85.79151766980847
 30
0.0
 10
115.7245775280292
 20
85.74145205790401
 30
0.0
 10
115.6089480666155
 20
85.66993379159553
 30
0.0
 10
115.4521528455275
 20
85.6742656062461
 30
0.0
 10
115.3737059155728
 20
85.69513155782357
 30
0.0
  0
SPLINE
  5
11F
330
1F
100
AcDbEntity
  8
0
  6
Continuous
 62
     7
370
    25
100
AcDbSpline
210
0.0
220
0.0
230
1.0
 70
     8
 71
     3
 72
    10
 73
     6
 74
     0
 42
0.000000001
 43
0.00000001
 40
0.0
 40
0.0
 40
0.0
 40
0.0
 40
0.499999999999999
 40
0.499999999999999
 40
1.0
 40
1.0
 40
1.0
 40
1.0
 10
130.8902987985174
 20
74.12910604476983
 30
0.0
 10
130.8567192758439
 20
74.08316257135176
 30
0.0
 10
130.8149124480919
 20
74.0444453369534
 30
0.0
 10
130.7229936645376
 20
73.99261346045427
 30
0.0
 10
130.6731595529953
 20
73.9796554913295
 30
0.0
 10
130.6252628013355
 20
73.9796554913295
 30
0.0
  0
SPLINE
  5
120
330
1F
100
AcDbEntity
  8
0
  6
Continuous
 62
     7
370
    25
100
AcDbSpline
210
0.0
220
0.0
230
1.0
 70
    24
 71
     3
 72
    11
 73
     7
 74
     0
 42
0.000000001
 43
0.00000001
 40
0.0
 40
0.0
 40
0.0
 40
0.0
 40
0.2763333661148888
 40
0.5544158723011737
 40
0.8516499877415958
 40
1.0
 40
1.0
 40
1.0
 40
1.0
 10
130.6252628142837
 20
73.97965543917542
 30
0.0
 10
130.5557438337575
 20
73.97965543917542
 30
0.0
 10
130.4162658301714
 20
73.97965543917542
 30
0.0
 10
130.2805075112547
 20
73.97965543917543
 30
0.0
 10
130.1935892358266
 20
73.97965543917542
 30
0.0
 10
130.1811911134549
 20
73.97965543917542
 30
0.0
 10
130.1770633595887
 20
73.97965543917542
 30
0.0
  0
SPLINE
  5
121
330
1F
100
AcDbEntity
  8
0
  6
Continuous
 62
     7
370
    25
100
AcDbSpline
210
0.0
220
0.0
230
1.0
 70
     8
 71
     3
 72
    10
 73
     6
 74
     0
 42
0.000000001
 43
0.00000001
 40
0.0
 40
0.0
 40
0.0
 40
0.0
 40
0.5
 40
0.5
 40
1.0
 40
1.0
 40
1.0
 40
1.0
 10
115.4204006927608
 20
74.1290849559683
 30
0.0
 10
115.4539758983658
 20
74.08314791538247
 30
0.0
 10
115.4957772150676
 20
74.04443616056564
 30
0.0
 10
115.5876837461697
 20
73.99261162517674
 30
0.0
 10
115.6375111605477
 20
73.9796554913295
 30
0.0
 10
115.6854015005122
 20
73.9796554913295
 30
0.0
  0
SPLINE
  5
122
330
1F
100
AcDbEntity
  8
0
  6
Continuous
 62
     7
370
    25
100
AcDbSpline
210
0.0
220
0.0
230
1.0
 70
    24
 71
     3
 72
    11
 73
     7
 74
     0
 42
0.000000001
 43
0.00000001
 40
0.0
 40
0.0
 40
0.0
 40
0.0
 40
0.2050043564949874
 40
0.4145859338090199
 40
0.7078532115740302
 40
1.0
 40
1.0
 40
1.0
 40
1.0
 10
116.1332972857061
 20
73.97965543917542
 30
0.0
 10
116.1208634221586
 20
73.97965543917542
 30
0.0
 10
116.0957180788213
 20
73.97965543917542
 30
0.0
 10
116.0147302528199
 20
73.97965543917542
 30
0.0
 10
115.8934452289131
 20
73.97965543917542
 30
0.0
 10
115.754660826097
 20
73.97965543917542
 30
0.0
 10
115.6854014421705
 20
73.97965543917542
 30
0.0
  0
SPLINE
  5
123
330
1F
100
AcDbEntity
  8
0
  6
Continuous
 62
     7
370
    25
100
AcDbSpline
210
0.0
220
0.0
230
1.0
 70
    24
 71
     3
 72
     8
 73
     4
 74
     0
 42
0.000000001
 43
0.00000001
 40
0.0
 40
0.0
 40
0.0
 40
0.0
 40
1.0
 40
1.0
 40
1.0
 40
1.0
 10
130.1553502890173
 20
86.04632215799616
 30
0.0
 10
130.1553502890173
 20
86.00289275552433
 30
0.0
 10
130.1553502890173
 20
85.9796554913295
 30
0.0
 10
130.1553502890173
 20
85.9796554913295
 30
0.0
  0
SPLINE
  5
124
330
1F
100
AcDbEntity
  8
0
  6
Continuous
 62
     7
370
    25
100
AcDbSpline
210
0.0
220
0.0
230
1.0
 70
    24
 71
     3
 72
     8
 73
     4
 74
     0
 42
0.000000001
 43
0.00000001
 40
0.0
 40
0.0
 40
0.0
 40
0.0
 40
1.0
 40
1.0
 40
1.0
 40
1.0
 10
117.0886836223506
 20
86.9796554913295
 30
0.0
 10
117.1321130248225
 20
86.9796554913295
 30
0.0
 10
117.1553502890173
 20
86.9796554913295
 30
0.0
 10
117.1553502890173
 20
86.9796554913295
 30
0.0
  0
SPLINE
  5
125
330
1F
100
AcDbEntity
  8
0
  6
Continuous
 62
     7
370
    25
100
AcDbSpline
210
0.0
220
0.0
230
1.0
 70
    24
 71
     3
 72
     8
 73
     4
 74
     0
 42
0.000000001
 43
0.00000001
 40
0.0
 40
0.0
 40
0.0
 40
0.0
 40
1.0
 40
1.0
 40
1.0
 40
1.0
 10
116.1553502890173
 20
85.9796554913295
 30
0.0
 10
116.1553502890173
 20
85.9796554913295
 30
0.0
 10
116.1553502890173
 20
86.00289275552433
 30
0.0
 10
116.1553502890173
 20
86.04632215799617
 30
0.0
  0
SPLINE
  5
126
330
1F
100
AcDbEntity
  8
0
  6
Continuous
 62
     7
370
    25
100
AcDbSpline
210
0.0
220
0.0
230
1.0
 70
    24
 71
     3
 72
     8
 73
     4
 74
     0
 42
0.000000001
 43
0.00000001
 40
0.0
 40
0.0
 40
0.0
 40
0.0
 40
1.0
 40
1.0
 40
1.0
 40
1.0
 10
129.222016955684
 20
86.9796554913295
 30
0.0
 10
129.1785875532122
 20
86.9796554913295
 30
0.0
 10
129.1553502890173
 20
86.9796554913295
 30
0.0
 10
129.1553502890173
 20
86.9796554913295
 30
0.0
  0
SPLINE
  5
127
330
1F
100
AcDbEntity
  8
0
  6
Continuous
 62
     7
370
    25
100
AcDbSpline
210
0.0
220
0.0
230
1.0
 70
     8
 71
     3
 72
    11
 73
     7
 74
     0
 42
0.000000001
 43
0.00000001
 40
0.0
 40
0.0
 40
0.0
 40
0.0
 40
0.2796925902103931
 40
0.4824920995717302
 40
0.7583389673489331
 40
0.9999999999999999
 40
0.9999999999999999
 40
0.9999999999999999
 40
0.9999999999999999
 10
131.1553502890173
 20
73.91298882466282
 30
0.0
 10
131.1053526273724
 20
73.92377830360714
 30
0.0
 10
131.0191026601403
 20
73.94239101817784
 30
0.0
 10
130.8841182134773
 20
73.96282216882109
 30
0.0
 10
130.7568266707627
 20
73.97676721466158
 30
0.0
 10
130.6671426243367
 20
73.97873608605389
 30
0.0
 10
130.6252628013355
 20
73.9796554913295
 30
0.0
  0
SPLINE
  5
128
330
1F
100
AcDbEntity
  8
0
  6
Continuous
 62
     7
370
    25
100
AcDbSpline
210
0.0
220
0.0
230
1.0
 70
     8
 71
     3
 72
    12
 73
     8
 74
     0
 42
0.000000001
 43
0.00000001
 40
0.0
 40
0.0
 40
0.0
 40
0.0
 40
0.1573492972449686
 40
0.3298380470016292
 40
0.5175259235705421
 40
0.7203120516631307
 40
1.0
 40
1.0
 40
1.0
 40
1.0
 10
115.6854015005122
 20
73.9796554913295
 30
0.0
 10
115.6581944429844
 20
73.9792603278816
 30
0.0
 10
115.6011625853482
 20
73.97843198010895
 30
0.0
 10
115.510385528591
 20
73.97183154100534
 30
0.0
 10
115.4109163078657
 20
73.96053692932047
 30
0.0
 10
115.2915816131287
 20
73.94235678385604
 30
0.0
 10
115.2053426243762
 20
73.92376588254118
 30
0.0
 10
115.1553502890173
 20
73.91298882466282
 30
0.0
  0
SPLINE
  5
129
330
1F
100
AcDbEntity
  8
0
  6
Continuous
 62
     7
370
    25
100
AcDbSpline
210
0.0
220
0.0
230
1.0
 70
     8
 71
     3
 72
     9
 73
     5
 74
     0
 42
0.000000001
 43
0.00000001
 40
0.0
 40
0.0
 40
0.0
 40
0.0
 40
0.5
 40
1.0
 40
1.0
 40
1.0
 40
1.0
 10
129.3587004577936
 20
86.6261021007327
 30
0.0
 10
129.3806846055429
 20
86.52368933275267
 30
0.0
 10
129.4949549970148
 20
86.31926019932705
 30
0.0
 10
129.6993841304405
 20
86.20498980785504
 30
0.0
 10
129.8017968984205
 20
86.1830056601058
 30
0.0
  0
SPLINE
  5
12A
330
1F
100
AcDbEntity
  8
0
  6
Continuous
 62
     7
370
    25
100
AcDbSpline
210
0.0
220
0.0
230
1.0
 70
     8
 71
     3
 72
     9
 73
     5
 74
     0
 42
0.000000001
 43
0.00000001
 40
0.0
 40
0.0
 40
0.0
 40
0.0
 40
0.5
 40
1.0
 40
1.0
 40
1.0
 40
1.0
 10
116.5089036796106
 20
86.18300566010909
 30
0.0
 10
116.6113164475907
 20
86.20498980785825
 30
0.0
 10
116.8157455810166
 20
86.31926019933024
 30
0.0
 10
116.9300159724886
 20
86.52368933275608
 30
0.0
 10
116.9520001202377
 20
86.6261021007362
 30
0.0
  0
LINE
  5
12B
330
1F
100
AcDbEntity
  8
0
  6
Continuous
 62
     8
370
    25
100
AcDbLine
 10
136.6553506392
 20
88.9796551039
 30
0.0
 11
136.6553506392
 21
70.9796558788
 31
0.0
  0
LINE
  5
12C
330
1F
100
AcDbEntity
  8
0
  6
Continuous
 62
     8
370
    25
100
AcDbLine
 10
109.6553499388
 20
79.9796554913
 30
0.0
 11
109.6553499388
 21
88.9796551039
 31
0.0
  0
LINE
  5
12D
330
1F
100
AcDbEntity
  8
0
  6
Continuous
 62
     8
370
    25
100
AcDbLine
 10
109.6553499388
 20
70.9796558788
 30
0.0
 11
109.6553499388
 21
79.9796554913
 31
0.0
  0
LINE
  5
12E
330
1F
100
AcDbEntity
  8
0
  6
Continuous
 62
     8
370
    25
100
AcDbLine
 10
135.1856565612
 20
87.7796552797
 30
0.0
 11
135.1856565612
 21
72.1796557029
 31
0.0
  0
LINE
  5
12F
330
1F
100
AcDbEntity
  8
0
  6
Continuous
 62
     8
370
    25
100
AcDbLine
 10
111.1250440168
 20
72.1796557029
 30
0.0
 11
111.1250440168
 21
87.7796552797
 31
0.0
  0
LINE
  5
130
330
1F
100
AcDbEntity
  8
0
  6
Continuous
 62
     8
370
    25
100
AcDbLine
 10
112.1048400688
 20
86.9796557074
 30
0.0
 11
112.1048400688
 21
72.9796552753
 31
0.0
  0
LINE
  5
131
330
1F
100
AcDbEntity
  8
0
  6
Continuous
 62
     8
370
    25
100
AcDbLine
 10
134.2058605092
 20
72.9796552753
 30
0.0
 11
134.2058605092
 21
86.9796557074
 31
0.0
  0
SPLINE
  5
132
330
1F
100
AcDbEntity
  8
0
  6
Continuous
 62
     8
370
    25
100
AcDbSpline
210
0.0
220
0.0
230
1.0
 70
     8
 71
     3
 72
    19
 73
    15
 74
     0
 42
0.000000001
 43
0.00000001
 40
0.0
 40
0.0
 40
0.0
 40
0.0
 40
0.0606727911926113
 40
0.1214874002643155
 40
0.1825081921994686
 40
0.2437988823923964
 40
0.3054223490615667
 40
0.3674404582586578
 40
0.4299139036293041
 40
0.4929020625848005
 40
0.6146975824539129
 40
0.7395812568283596
 40
0.8679067285909485
 40
1.0
 40
1.0
 40
1.0
 40
1.0
 10
130.6553502890189
 20
86.9796554913295
 30
0.0
 10
130.6546789873708
 20
86.97903172317554
 30
0.0
 10
130.6533348149598
 20
86.97778272885859
 30
0.0
 10
130.6424751050839
 20
86.9676758680503
 30
0.0
 10
130.6251456738451
 20
86.9515241135364
 30
0.0
 10
130.6007078301106
 20
86.92872482916715
 30
0.0
 10
130.5693342065706
 20
86.8994349147356
 30
0.0
 10
130.5309784742529
 20
86.86361412778173
 30
0.0
 10
130.4856548506367
 20
86.8212848772869
 30
0.0
 10
130.4172436520595
 20
86.75741172828882
 30
0.0
 10
130.3161981391075
 20
86.6631535334628
 30
0.0
 10
130.1706798910845
 20
86.52737623464259
 30
0.0
 10
130.0006277378402
 20
86.3686167994751
 30
0.0
 10
129.8687100502763
 20
86.24546994578202
 30
0.0
 10
129.801796898424
 20
86.1830056601091
 30
0.0
  0
SPLINE
  5
133
330
1F
100
AcDbEntity
  8
0
  6
Continuous
 62
     8
370
    25
100
AcDbSpline
210
0.0
220
0.0
230
1.0
 70
     8
 71
     3
 72
    18
 73
    14
 74
     0
 42
0.000000001
 43
0.00000001
 40
0.0
 40
0.0
 40
0.0
 40
0.0
 40
0.0759716985786636
 40
0.1506710093718998
 40
0.2241554833695644
 40
0.296485571458475
 40
0.3677246633008381
 40
0.4379391034842293
 40
0.5071981812646982
 40
0.6326267587181382
 40
0.756240453292097
 40
0.8785294569467931
 40
1.0
 40
1.0
 40
1.0
 40
1.0
 10
116.5089036796106
 20
86.1830056601091
 30
0.0
 10
116.4699847659579
 20
86.21933416109037
 30
0.0
 10
116.3927987596765
 20
86.29138272673022
 30
0.0
 10
116.2861057368898
 20
86.39099804177145
 30
0.0
 10
116.187402397324
 20
86.48314235750756
 30
0.0
 10
116.0972384568056
 20
86.56729565928937
 30
0.0
 10
116.0154728818885
 20
86.64358874005205
 30
0.0
 10
115.9421374513933
 20
86.7120027209126
 30
0.0
 10
115.8594362347753
 20
86.78916278666325
 30
0.0
 10
115.7765930030725
 20
86.86653516900067
 30
0.0
 10
115.7070676391095
 20
86.9314659859583
 30
0.0
 10
115.6634611482166
 20
86.97212259422636
 30
0.0
 10
115.6580478500864
 20
86.97715015256487
 30
0.0
 10
115.6553502890166
 20
86.9796554913295
 30
0.0
  0
SPLINE
  5
134
330
1F
100
AcDbEntity
  8
0
  6
Continuous
 62
     8
370
    25
100
AcDbSpline
210
0.0
220
0.0
230
1.0
 70
    24
 71
     3
 72
     9
 73
     5
 74
     0
 42
0.000000001
 43
0.00000001
 40
-0.481733964059299
 40
-0.481733964059299
 40
-0.481733964059299
 40
-0.481733964059299
 40
-0.4129148263141913
 40
0.0000000001423262
 40
0.0000000001423262
 40
0.0000000001423262
 40
0.0000000001423262
 10
130.1552983493709
 20
87.47959984170832
 30
0.0
 10
130.155324934277
 20
87.47962832553635
 30
0.0
 10
130.116751767096
 20
87.43829993212812
 30
0.0
 10
129.8050910442066
 20
87.10437772903232
 30
0.0
 10
129.3587004577936
 20
86.6261021007327
 30
0.0
  0
SPLINE
  5
135
330
1F
100
AcDbEntity
  8
0
  6
Continuous
 62
     8
370
    25
100
AcDbSpline
210
0.0
220
0.0
230
1.0
 70
    24
 71
     3
 72
     9
 73
     5
 74
     0
 42
0.000000001
 43
0.00000001
 40
-0.0000000000100284
 40
-0.0000000000100284
 40
-0.0000000000100284
 40
-0.0000000000100284
 40
0.412914826326082
 40
0.481733964058292
 40
0.481733964058292
 40
0.481733964058292
 40
0.481733964058292
 10
116.9520001202377
 20
86.6261021007362
 30
0.0
 10
116.5056095339558
 20
87.10437772889543
 30
0.0
 10
116.1939488110907
 20
87.4382999319651
 30
0.0
 10
116.1553756437789
 20
87.4796283255135
 30
0.0
 10
116.1554022286638
 20
87.47959984170826
 30
0.0
  0
SPLINE
  5
136
330
1F
100
AcDbEntity
  8
0
  6
Continuous
 62
     8
370
    25
100
AcDbSpline
210
0.0
220
0.0
230
1.0
 70
     8
 71
     3
 72
    12
 73
     8
 74
     0
 42
0.000000001
 43
0.00000001
 40
0.0
 40
0.0
 40
0.0
 40
0.0
 40
0.164698102701295
 40
0.3417142375035626
 40
0.5400595885577174
 40
0.8380285990597042
 40
1.0
 40
1.0
 40
1.0
 40
1.0
 10
115.420400588483
 20
74.12908474928861
 30
0.0
 10
115.4431457632218
 20
74.14381253928852
 30
0.0
 10
115.4903372603629
 20
74.1743696340418
 30
0.0
 10
115.5445857513702
 20
74.22604033573162
 30
0.0
 10
115.5976043556744
 20
74.29248188241456
 30
0.0
 10
115.6364121636251
 20
74.35965511493181
 30
0.0
 10
115.6429326171993
 20
74.40799005956424
 30
0.0
 10
115.6452288429144
 20
74.4250115660501
 30
0.0
  0
SPLINE
  5
137
330
1F
100
AcDbEntity
  8
0
  6
Continuous
 62
     8
370
    25
100
AcDbSpline
210
0.0
220
0.0
230
1.0
 70
     8
 71
     3
 72
     9
 73
     5
 74
     0
 42
0.000000001
 43
0.00000001
 40
0.0
 40
0.0
 40
0.0
 40
0.0
 40
0.4584304870387452
 40
1.0
 40
1.0
 40
1.0
 40
1.0
 10
130.6736436250511
 20
74.42588794059282
 30
0.0
 10
130.682615655115
 20
74.37756365248067
 30
0.0
 10
130.7021868448973
 20
74.27215118651598
 30
0.0
 10
130.8242129657364
 20
74.179359382056
 30
0.0
 10
130.8902985925678
 20
74.12910616970782
 30
0.0
  0
SPLINE
  5
138
330
1F
100
AcDbEntity
  8
0
  6
Continuous
 62
     8
370
    25
100
AcDbSpline
210
0.0
220
0.0
230
1.0
 70
     8
 71
     3
 72
    10
 73
     6
 74
     0
 42
0.000000001
 43
0.00000001
 40
0.0
 40
0.0
 40
0.0
 40
0.0
 40
0.248573228850268
 40
0.6467864389238261
 40
1.0
 40
1.0
 40
1.0
 40
1.0
 10
129.3812831441764
 20
86.37276167995458
 30
0.0
 10
129.3735512688597
 20
86.39150688271636
 30
0.0
 10
129.3534329635805
 20
86.44028181715822
 30
0.0
 10
129.3435717442417
 20
86.52707452088282
 30
0.0
 10
129.353862969771
 20
86.59443747025007
 30
0.0
 10
129.3587004343871
 20
86.62610190934663
 30
0.0
  0
SPLINE
  5
139
330
1F
100
AcDbEntity
  8
0
  6
Continuous
 62
     8
370
    25
100
AcDbSpline
210
0.0
220
0.0
230
1.0
 70
     8
 71
     3
 72
    10
 73
     6
 74
     0
 42
0.000000001
 43
0.00000001
 40
0.0
 40
0.0
 40
0.0
 40
0.0
 40
0.248573228850268
 40
0.6467864389238261
 40
1.0
 40
1.0
 40
1.0
 40
1.0
 10
116.7622441003922
 20
86.20558834648853
 30
0.0
 10
116.7434988976305
 20
86.1978564711719
 30
0.0
 10
116.6947239631886
 20
86.17773816589268
 30
0.0
 10
116.607931259464
 20
86.16787694655386
 30
0.0
 10
116.5405683100967
 20
86.17816817208315
 30
0.0
 10
116.5089038710002
 20
86.18300563669925
 30
0.0
  0
SPLINE
  5
13A
330
1F
100
AcDbEntity
  8
0
  6
Continuous
 62
     8
370
    25
100
AcDbSpline
210
0.0
220
0.0
230
1.0
 70
     8
 71
     3
 72
    10
 73
     6
 74
     0
 42
0.000000001
 43
0.00000001
 40
0.0
 40
0.0
 40
0.0
 40
0.0
 40
0.3531919359855523
 40
0.7514407532050961
 40
1.0
 40
1.0
 40
1.0
 40
1.0
 10
129.8017967070345
 20
86.18300563669925
 30
0.0
 10
129.7701350254009
 20
86.17816813732306
 30
0.0
 10
129.7027725647376
 20
86.16787601622822
 30
0.0
 10
129.6159804366649
 20
86.17773744482596
 30
0.0
 10
129.5672042180841
 20
86.19785508995393
 30
0.0
 10
129.5484602029327
 20
86.20558601818209
 30
0.0
  0
SPLINE
  5
13B
330
1F
100
AcDbEntity
  8
0
  6
Continuous
 62
     8
370
    25
100
AcDbSpline
210
0.0
220
0.0
230
1.0
 70
     8
 71
     3
 72
    10
 73
     6
 74
     0
 42
0.000000001
 43
0.00000001
 40
0.0
 40
0.0
 40
0.0
 40
0.0
 40
0.3531919359855523
 40
0.7514407532050961
 40
1.0
 40
1.0
 40
1.0
 40
1.0
 10
116.9520001436475
 20
86.62610190934663
 30
0.0
 10
116.9568376430237
 20
86.59444022771314
 30
0.0
 10
116.9671297641186
 20
86.5270777670498
 30
0.0
 10
116.9572683355208
 20
86.44028563897709
 30
0.0
 10
116.9371506903929
 20
86.3915094203963
 30
0.0
 10
116.9294197621647
 20
86.37276540524488
 30
0.0
  0
LINE
  5
13C
330
1F
100
AcDbEntity
  8
0
  6
Continuous
 62
     7
370
    18
100
AcDbLine
 10
128.9048885928
 20
103.1144297688
 30
0.0
 11
129.252850289
 21
91.9796554913
 31
0.0
  0
LINE
  5
13D
330
1F
100
AcDbEntity
  8
0
  6
Continuous
 62
     7
370
    18
100
AcDbLine
 10
117.4058119852
 20
103.1144297688
 30
0.0
 11
117.057850289
 21
91.9796554913
 31
0.0
  0
LINE
  5
13E
330
1F
100
AcDbEntity
  8
0
  6
Continuous
 62
     7
370
    18
100
AcDbLine
 10
116.389662789
 20
91.9796554913
 30
0.0
 11
129.921037789
 21
91.9796554913
 31
0.0
  0
LINE
  5
13F
330
1F
100
AcDbEntity
  8
0
  6
CENTERX2
 62
     7
370
    18
100
AcDbLine
 10
123.155350289
 20
101.8908678376
 30
0.0
 11
123.155350289
 21
71.0431384719
 31
0.0
  0
LINE
  5
140
330
1F
100
AcDbEntity
  8
0
  6
CENTERX2
 62
     7
370
    18
100
AcDbLine
 10
123.155350289
 20
101.8908678376
 30
0.0
 11
123.155350289
 21
105.9796554913
 31
0.0
  0
LINE
  5
141
330
1F
100
AcDbEntity
  8
0
  6
CENTERX2
 62
     7
370
    18
100
AcDbLine
 10
96.655350289
 20
79.9796554913
 30
0.0
 11
149.655350289
 21
79.9796554913
 31
0.0
  0
LINE
  5
142
330
1F
100
AcDbEntity
  8
0
  6
Continuous
 62
     7
370
    25
100
AcDbLine
 10
178.865065044
 20
89.9796552678
 30
0.0
 11
178.865065044
 21
87.4796553237
 31
0.0
  0
LINE
  5
143
330
1F
100
AcDbEntity
  8
0
  6
Continuous
 62
     7
370
    25
100
AcDbLine
 10
192.8650654762
 20
87.4796553237
 30
0.0
 11
192.8650654762
 21
89.9796552678
 31
0.0
  0
LINE
  5
144
330
1F
100
AcDbEntity
  8
0
  6
Continuous
 62
     7
370
    25
100
AcDbLine
 10
192.6932527593
 20
89.9796552678
 30
0.0
 11
192.3210273406
 21
101.8908686658
 31
0.0
  0
LINE
  5
145
330
1F
100
AcDbEntity
  8
0
  6
Continuous
 62
     7
370
    25
100
AcDbLine
 10
179.4091031796
 20
101.8908686658
 30
0.0
 11
179.0368777609
 21
89.9796552678
 31
0.0
  0
LINE
  5
146
330
1F
100
AcDbEntity
  8
0
  6
Continuous
 62
     7
370
    25
100
AcDbLine
 10
192.3210273406
 20
101.8908686658
 30
0.0
 11
191.1150651893
 21
103.9796556999
 31
0.0
  0
LINE
  5
147
330
1F
100
AcDbEntity
  8
0
  6
Continuous
 62
     7
370
    25
100
AcDbLine
 10
180.6150653309
 20
103.9796556999
 30
0.0
 11
179.4091031796
 21
101.8908686658
 31
0.0
  0
CIRCLE
  5
148
330
1F
100
AcDbEntity
  8
0
  6
Continuous
 62
     7
370
    25
100
AcDbCircle
 10
185.8650652601
 20
79.9796554913
 30
0.0
 40
9.000000000000028
  0
CIRCLE
  5
149
330
1F
100
AcDbEntity
  8
0
  6
Continuous
 62
     7
370
    25
100
AcDbCircle
 10
185.8650652601
 20
79.9796554913
 30
0.0
 40
8.5
  0
CIRCLE
  5
14A
330
1F
100
AcDbEntity
  8
0
  6
Continuous
 62
     7
370
    25
100
AcDbCircle
 10
185.8650652601
 20
79.9796554913
 30
0.0
 40
6.10343238175048
  0
CIRCLE
  5
14B
330
1F
100
AcDbEntity
  8
0
  6
Continuous
 62
     7
370
    25
100
AcDbCircle
 10
185.8650652601
 20
79.9796554913
 30
0.0
 40
6.75
  0
CIRCLE
  5
14C
330
1F
100
AcDbEntity
  8
0
  6
Continuous
 62
     7
370
    25
100
AcDbCircle
 10
185.8650652601
 20
79.9796554913
 30
0.0
 40
7.700000000000017
  0
CIRCLE
  5
14D
330
1F
100
AcDbEntity
  8
0
  6
Continuous
 62
     7
370
    25
100
AcDbCircle
 10
185.8650652601
 20
79.9796554913
 30
0.0
 40
7.599999999999994
  0
CIRCLE
  5
14E
330
1F
100
AcDbEntity
  8
0
  6
Continuous
 62
     7
370
    25
100
AcDbCircle
 10
185.8650652601
 20
79.9796554913
 30
0.0
 40
7.650000000000006
  0
CIRCLE
  5
14F
330
1F
100
AcDbEntity
  8
0
  6
Continuous
 62
     7
370
    25
100
AcDbCircle
 10
185.8650652601
 20
79.9796554913
 30
0.0
 40
5.81061697881421
  0
CIRCLE
  5
150
330
1F
100
AcDbEntity
  8
0
  6
Continuous
 62
     7
370
    25
100
AcDbCircle
 10
185.8650652601
 20
79.9796554913
 30
0.0
 40
5.722499999999997
  0
CIRCLE
  5
151
330
1F
100
AcDbEntity
  8
0
  6
Continuous
 62
     7
370
    25
100
AcDbCircle
 10
185.8650652601
 20
79.9796554913
 30
0.0
 40
3.999999999999972
  0
LINE
  5
152
330
1F
100
AcDbEntity
  8
0
  6
Continuous
 62
     7
370
    25
100
AcDbLine
 10
179.0000486097
 20
85.8446724435
 30
0.0
 11
179.0207765906
 21
85.8239444626
 31
0.0
  0
LINE
  5
153
330
1F
100
AcDbEntity
  8
0
  6
Continuous
 62
     7
370
    25
100
AcDbLine
 10
179.0866248219
 20
85.8986262885
 30
0.0
 11
179.0000486097
 21
85.8446724435
 31
0.0
  0
LINE
  5
154
330
1F
100
AcDbEntity
  8
0
  6
Continuous
 62
     7
370
    25
100
AcDbLine
 10
192.7300819105
 20
85.8446724435
 30
0.0
 11
192.5896743222
 21
85.932173459
 31
0.0
  0
LINE
  5
155
330
1F
100
AcDbEntity
  8
0
  6
Continuous
 62
     7
370
    25
100
AcDbLine
 10
192.7093539296
 20
85.8239444626
 30
0.0
 11
192.7300819105
 21
85.8446724435
 31
0.0
  0
SPLINE
  5
156
330
1F
100
AcDbEntity
  8
0
  6
Continuous
 62
     7
370
    25
100
AcDbSpline
210
0.0
220
0.0
230
1.0
 70
     8
 71
     3
 72
     9
 73
     5
 74
     0
 42
0.000000001
 43
0.00000001
 40
0.0
 40
0.0
 40
0.0
 40
0.0
 40
0.1293397191738303
 40
1.0
 40
1.0
 40
1.0
 40
1.0
 10
192.836861768994
 20
85.6406359655333
 30
0.0
 10
192.8354540069111
 20
85.64996721565683
 30
0.0
 10
192.8245697859469
 20
85.72211249464083
 30
0.0
 10
192.7740593451196
 20
85.78762944077044
 30
0.0
 10
192.7300819105241
 20
85.84467244348652
 30
0.0
  0
SPLINE
  5
157
330
1F
100
AcDbEntity
  8
0
  6
Continuous
 62
     7
370
    25
100
AcDbSpline
210
0.0
220
0.0
230
1.0
 70
     8
 71
     3
 72
    13
 73
     9
 74
     0
 42
0.000000001
 43
0.00000001
 40
0.0
 40
0.0
 40
0.0
 40
0.0
 40
0.1162222239500744
 40
0.2381780213579675
 40
0.3660917905452749
 40
0.5001580142688472
 40
0.7504239388829979
 40
1.0
 40
1.0
 40
1.0
 40
1.0
 10
179.0000484753166
 20
87.32136113485187
 30
0.0
 10
179.0118859336473
 20
87.30891312423378
 30
0.0
 10
179.0361448258564
 20
87.28340300716589
 30
0.0
 10
179.0764309842139
 20
87.24189583414918
 30
0.0
 10
179.1205881751601
 20
87.19730308344418
 30
0.0
 10
179.1820024504541
 20
87.13679700014022
 30
0.0
 10
179.2620332524655
 20
87.06139321647836
 30
0.0
 10
179.3307528723282
 20
87.00687633149586
 30
0.0
 10
179.3650652601156
 20
86.97965551010287
 30
0.0
  0
SPLINE
  5
158
330
1F
100
AcDbEntity
  8
0
  6
Continuous
 62
     7
370
    25
100
AcDbSpline
210
0.0
220
0.0
230
1.0
 70
     8
 71
     3
 72
    13
 73
     9
 74
     0
 42
0.000000001
 43
0.00000001
 40
0.0
 40
0.0
 40
0.0
 40
0.0
 40
0.1206933106363776
 40
0.2506349558809258
 40
0.4049363551860728
 40
0.501375099440844
 40
0.7702864432344702
 40
1.0
 40
1.0
 40
1.0
 40
1.0
 10
178.8650652601156
 20
86.9796554913295
 30
0.0
 10
178.8654529748615
 20
86.99451126962131
 30
0.0
 10
178.8662581136692
 20
87.02536117602551
 30
0.0
 10
178.8732081255026
 20
87.07393632749395
 30
0.0
 10
178.8839984343121
 20
87.11862600977567
 30
0.0
 10
178.9046182197111
 20
87.17838971916308
 30
0.0
 10
178.9371259037252
 20
87.24618173233799
 30
0.0
 10
178.9802030757284
 20
87.29765000471272
 30
0.0
 10
179.0000484753166
 20
87.32136113485187
 30
0.0
  0
SPLINE
  5
159
330
1F
100
AcDbEntity
  8
0
  6
Continuous
 62
     7
370
    25
100
AcDbSpline
210
0.0
220
0.0
230
1.0
 70
    24
 71
     3
 72
    13
 73
     9
 74
     0
 42
0.000000001
 43
0.00000001
 40
0.0
 40
0.0
 40
0.0
 40
0.0
 40
0.1143056473664401
 40
0.2914884177791734
 40
0.4683385635438623
 40
0.6457497399163535
 40
0.8225251364521292
 40
1.0
 40
1.0
 40
1.0
 40
1.0
 10
178.8650650440487
 20
85.64289162880902
 30
0.0
 10
178.8650650440487
 20
85.67084909595083
 30
0.0
 10
178.8650650440487
 20
85.74214284258568
 30
0.0
 10
178.8650650440487
 20
85.91349175192384
 30
0.0
 10
178.8650650440487
 20
86.14018294113606
 30
0.0
 10
178.8650650440487
 20
86.40181032722265
 30
0.0
 10
178.8650650440487
 20
86.6848125211173
 30
0.0
 10
178.8650650440487
 20
86.88124535978004
 30
0.0
 10
178.8650650440487
 20
86.97965570739632
 30
0.0
  0
SPLINE
  5
15A
330
1F
100
AcDbEntity
  8
0
  6
Continuous
 62
     7
370
    25
100
AcDbSpline
210
0.0
220
0.0
230
1.0
 70
     8
 71
     3
 72
    12
 73
     8
 74
     0
 42
0.000000001
 43
0.00000001
 40
0.0
 40
0.0
 40
0.0
 40
0.0
 40
0.1664615747826677
 40
0.3330490629245378
 40
0.50019385964186
 40
0.761981166969512
 40
1.0
 40
1.0
 40
1.0
 40
1.0
 10
192.3650652601156
 20
86.9796554913295
 30
0.0
 10
192.3880589350156
 20
86.99762930814444
 30
0.0
 10
192.4340636774832
 20
87.03359053736628
 30
0.0
 10
192.4996066402801
 20
87.09130747393436
 30
0.0
 10
192.5739728357138
 20
87.1615921969256
 30
0.0
 10
192.6532443915795
 20
87.24093496082875
 30
0.0
 10
192.7052945827939
 20
87.29541603299626
 30
0.0
 10
192.7300820449146
 20
87.3213611348517
 30
0.0
  0
SPLINE
  5
15B
330
1F
100
AcDbEntity
  8
0
  6
Continuous
 62
     7
370
    25
100
AcDbSpline
210
0.0
220
0.0
230
1.0
 70
     8
 71
     3
 72
    14
 73
    10
 74
     0
 42
0.000000001
 43
0.00000001
 40
0.0
 40
0.0
 40
0.0
 40
0.0
 40
0.1488603140964728
 40
0.3150272284381161
 40
0.4987644934539461
 40
0.5951852670853452
 40
0.7494348315821825
 40
0.8793203117440467
 40
1.0
 40
1.0
 40
1.0
 40
1.0
 10
192.7300820449147
 20
87.3213611348517
 30
0.0
 10
192.743325401981
 20
87.30615038219202
 30
0.0
 10
192.771351797714
 20
87.2739604645372
 30
0.0
 10
192.8054213508366
 20
87.21933645390776
 30
0.0
 10
192.8289752401895
 20
87.16863079689445
 30
0.0
 10
192.8461043121186
 20
87.11861415536586
 30
0.0
 10
192.8569293526208
 20
87.0739404444583
 30
0.0
 10
192.8638705875695
 20
87.02536317303384
 30
0.0
 10
192.8646769107342
 20
86.99451357940754
 30
0.0
 10
192.8650652601156
 20
86.9796554913295
 30
0.0
  0
SPLINE
  5
15C
330
1F
100
AcDbEntity
  8
0
  6
Continuous
 62
     7
370
    25
100
AcDbSpline
210
0.0
220
0.0
230
1.0
 70
    24
 71
     3
 72
    13
 73
     9
 74
     0
 42
0.000000001
 43
0.00000001
 40
0.0
 40
0.0
 40
0.0
 40
0.0
 40
0.1695869508671805
 40
0.338820639278929
 40
0.5081895223474987
 40
0.6776580962023128
 40
0.846808527245601
 40
1.0
 40
1.0
 40
1.0
 40
1.0
 10
192.8650654761824
 20
86.97965570739632
 30
0.0
 10
192.8650654761824
 20
86.88134630502763
 30
0.0
 10
192.8650654761824
 20
86.68493228621685
 30
0.0
 10
192.8650654761824
 20
86.4020236533855
 30
0.0
 10
192.8650654761824
 20
86.14048034131137
 30
0.0
 10
192.8650654761824
 20
85.91324486447249
 30
0.0
 10
192.8650654761824
 20
85.72741591034514
 30
0.0
 10
192.8650654761824
 20
85.64601243514915
 30
0.0
 10
192.8650654761824
 20
85.60732581666832
 30
0.0
  0
LINE
  5
15D
330
1F
100
AcDbEntity
  8
0
  6
Continuous
 62
     7
370
    25
100
AcDbLine
 10
185.8650652601
 20
89.9796552678
 30
0.0
 11
178.865065044
 21
89.9796552678
 31
0.0
  0
LINE
  5
15E
330
1F
100
AcDbEntity
  8
0
  6
Continuous
 62
     7
370
    25
100
AcDbLine
 10
192.8650654762
 20
89.9796552678
 30
0.0
 11
185.8650652601
 21
89.9796552678
 31
0.0
  0
SPLINE
  5
15F
330
1F
100
AcDbEntity
  8
0
  6
Continuous
 62
     7
370
    25
100
AcDbSpline
210
0.0
220
0.0
230
1.0
 70
     8
 71
     3
 72
    14
 73
    10
 74
     0
 42
0.000000001
 43
0.00000001
 40
0.0
 40
0.0
 40
0.0
 40
0.0
 40
0.0771019312235469
 40
0.1604220744820928
 40
0.2500134459871365
 40
0.3625277437571762
 40
0.4999872830486552
 40
0.6965319223496549
 40
1.0
 40
1.0
 40
1.0
 40
1.0
 10
192.4316473238737
 20
87.82411230878719
 30
0.0
 10
192.4529120491743
 20
87.80998303189769
 30
0.0
 10
192.4971564836766
 20
87.78058496269794
 30
0.0
 10
192.5598152248674
 20
87.74206706647067
 30
0.0
 10
192.625188748678
 20
87.70300453990544
 30
0.0
 10
192.6935340559211
 20
87.66272403345657
 30
0.0
 10
192.7671967734187
 20
87.6140653394402
 30
0.0
 10
192.8449596991341
 20
87.55263050023247
 30
0.0
 10
192.8574715553474
 20
87.5072175510789
 30
0.0
 10
192.8650652601156
 20
87.4796554913295
 30
0.0
  0
SPLINE
  5
160
330
1F
100
AcDbEntity
  8
0
  6
Continuous
 62
     7
370
    25
100
AcDbSpline
210
0.0
220
0.0
230
1.0
 70
     8
 71
     3
 72
    13
 73
     9
 74
     0
 42
0.000000001
 43
0.00000001
 40
0.0
 40
0.0
 40
0.0
 40
0.0
 40
0.1484645556295967
 40
0.3038520792699613
 40
0.4664576632792974
 40
0.6365388262431585
 40
0.814320596678755
 40
0.9999999999999999
 40
0.9999999999999999
 40
0.9999999999999999
 40
0.9999999999999999
 10
191.9317319267822
 20
87.9796554913295
 30
0.0
 10
191.9608068262158
 20
87.97878390395394
 30
0.0
 10
192.0203124005262
 20
87.97700008669733
 30
0.0
 10
192.1061491637738
 20
87.96329239220857
 30
0.0
 10
192.1913166306514
 20
87.94167565529942
 30
0.0
 10
192.2746415145699
 20
87.91112157621174
 30
0.0
 10
192.3561167574184
 20
87.87240272297977
 30
0.0
 10
192.4061083797538
 20
87.84044061463034
 30
0.0
 10
192.4316473238737
 20
87.82411230878719
 30
0.0
  0
LINE
  5
161
330
1F
100
AcDbEntity
  8
0
  6
Continuous
 62
     7
370
    25
100
AcDbLine
 10
190.6241501591
 20
87.9796558713
 30
0.0
 11
191.9317317105
 21
87.9796558713
 31
0.0
  0
LINE
  5
162
330
1F
100
AcDbEntity
  8
0
  6
Continuous
 62
     7
370
    25
100
AcDbLine
 10
179.7983988098
 20
87.9796558713
 30
0.0
 11
181.1059803611
 21
87.9796558713
 31
0.0
  0
SPLINE
  5
163
330
1F
100
AcDbEntity
  8
0
  6
Continuous
 62
     7
370
    25
100
AcDbSpline
210
0.0
220
0.0
230
1.0
 70
     8
 71
     3
 72
    13
 73
     9
 74
     0
 42
0.000000001
 43
0.00000001
 40
0.0
 40
0.0
 40
0.0
 40
0.0
 40
0.1856794033212454
 40
0.3634611737568486
 40
0.5335423367207065
 40
0.6961479207300426
 40
0.8515354443704023
 40
1.0
 40
1.0
 40
1.0
 40
1.0
 10
179.2984831963574
 20
87.82411230878719
 30
0.0
 10
179.3240221404773
 20
87.84044061463034
 30
0.0
 10
179.3740137628127
 20
87.87240272297977
 30
0.0
 10
179.4554890056612
 20
87.91112157621174
 30
0.0
 10
179.5388138895798
 20
87.94167565529942
 30
0.0
 10
179.6239813564573
 20
87.96329239220857
 30
0.0
 10
179.7098181197049
 20
87.97700008669733
 30
0.0
 10
179.7693236940153
 20
87.97878390395394
 30
0.0
 10
179.7983985934489
 20
87.9796554913295
 30
0.0
  0
SPLINE
  5
164
330
1F
100
AcDbEntity
  8
0
  6
Continuous
 62
     7
370
    25
100
AcDbSpline
210
0.0
220
0.0
230
1.0
 70
     8
 71
     3
 72
    17
 73
    13
 74
     0
 42
0.000000001
 43
0.00000001
 40
0.0
 40
0.0
 40
0.0
 40
0.0
 40
0.1130667887614413
 40
0.214247189583317
 40
0.3035410227131065
 40
0.3809482842653933
 40
0.4464692356459874
 40
0.5001045920517729
 40
0.6375226522804812
 40
0.750042112035746
 40
0.8820380142736961
 40
0.9999999999999999
 40
0.9999999999999999
 40
0.9999999999999999
 40
0.9999999999999999
 10
178.8650652601156
 20
87.4796554913295
 30
0.0
 10
178.8661427428071
 20
87.4898851174448
 30
0.0
 10
178.8681844355182
 20
87.50926895835597
 30
0.0
 10
178.8833498572309
 20
87.53716320292723
 30
0.0
 10
178.9036111028007
 20
87.56215601061822
 30
0.0
 10
178.9269618543401
 20
87.58428540812544
 30
0.0
 10
178.9507823803094
 20
87.60348523480506
 30
0.0
 10
178.9862998198031
 20
87.62966700006233
 30
0.0
 10
179.0366091125776
 20
87.66264854165014
 30
0.0
 10
179.1135955909126
 20
87.70824281612963
 30
0.0
 10
179.1980361711421
 20
87.75815147283858
 30
0.0
 10
179.2662780033195
 20
87.80296403236869
 30
0.0
 10
179.2984831963574
 20
87.82411230878719
 30
0.0
  0
LINE
  5
165
330
1F
100
AcDbEntity
  8
0
  6
Continuous
 62
     7
370
    25
100
AcDbLine
 10
192.3210273406
 20
101.8908686658
 30
0.0
 11
179.4091031796
 21
101.8908686658
 31
0.0
  0
LINE
  5
166
330
1F
100
AcDbEntity
  8
0
  6
Continuous
 62
     7
370
    25
100
AcDbLine
 10
185.8650652601
 20
103.9796556999
 30
0.0
 11
191.1150651893
 21
103.9796556999
 31
0.0
  0
LINE
  5
167
330
1F
100
AcDbEntity
  8
0
  6
Continuous
 62
     7
370
    25
100
AcDbLine
 10
180.6150653309
 20
103.9796556999
 30
0.0
 11
185.8650652601
 21
103.9796556999
 31
0.0
  0
LINE
  5
168
330
1F
100
AcDbEntity
  8
0
  6
Continuous
 62
     7
370
    25
100
AcDbLine
 10
179.365065126
 20
87.4796553237
 30
0.0
 11
180.7660457588
 21
87.4796553237
 31
0.0
  0
ARC
  5
169
330
1F
100
AcDbEntity
  8
0
  6
Continuous
 62
     7
370
    25
100
AcDbCircle
 10
179.3650652601
 20
86.9796554913
 30
0.0
 40
0.5
100
AcDbArc
 50
90.0
 51
136.8892083855
  0
LINE
  5
16A
330
1F
100
AcDbEntity
  8
0
  6
Continuous
 62
     7
370
    25
100
AcDbLine
 10
190.9640847615
 20
87.4796553237
 30
0.0
 11
192.3650653942
 21
87.4796553237
 31
0.0
  0
ARC
  5
16B
330
1F
100
AcDbEntity
  8
0
  6
Continuous
 62
     7
370
    25
100
AcDbCircle
 10
192.3650652601
 20
86.9796554913
 30
0.0
 40
0.5
100
AcDbArc
 50
43.1107916145
 51
90.0
  0
SPLINE
  5
16C
330
1F
100
AcDbEntity
  8
0
  6
Continuous
 62
     7
370
    25
100
AcDbSpline
210
0.0
220
0.0
230
1.0
 70
     8
 71
     3
 72
     9
 73
     5
 74
     0
 42
0.000000001
 43
0.00000001
 40
0.0
 40
0.0
 40
0.0
 40
0.0
 40
0.5
 40
1.0
 40
1.0
 40
1.0
 40
1.0
 10
190.9640847737084
 20
87.4796554913295
 30
0.0
 10
190.8750900945727
 20
87.4796554913295
 30
0.0
 10
190.6977709081488
 20
87.58794214597515
 30
0.0
 10
190.6241501394688
 20
87.84875579742992
 30
0.0
 10
190.6241501394688
 20
87.9796554913295
 30
0.0
  0
SPLINE
  5
16D
330
1F
100
AcDbEntity
  8
0
  6
Continuous
 62
     7
370
    25
100
AcDbSpline
210
0.0
220
0.0
230
1.0
 70
     8
 71
     3
 72
     9
 73
     5
 74
     0
 42
0.000000001
 43
0.00000001
 40
0.0
 40
0.0
 40
0.0
 40
0.0
 40
0.5
 40
1.0
 40
1.0
 40
1.0
 40
1.0
 10
181.1059803807623
 20
87.9796554913295
 30
0.0
 10
181.1059803807623
 20
87.84875579742993
 30
0.0
 10
181.0323596120823
 20
87.58794214597515
 30
0.0
 10
180.8550404256584
 20
87.4796554913295
 30
0.0
 10
180.7660457465228
 20
87.4796554913295
 30
0.0
  0
SPLINE
  5
16E
330
1F
100
AcDbEntity
  8
0
  6
Continuous
 62
     7
370
    25
100
AcDbSpline
210
0.0
220
0.0
230
1.0
 70
     8
 71
     3
 72
     9
 73
     5
 74
     0
 42
0.000000001
 43
0.00000001
 40
0.0
 40
0.0
 40
0.0
 40
0.0
 40
0.5
 40
1.0
 40
1.0
 40
1.0
 40
1.0
 10
179.3650652601156
 20
87.4796554913295
 30
0.0
 10
179.4785116614952
 20
87.4796554913295
 30
0.0
 10
179.7045525726219
 20
87.58793936151446
 30
0.0
 10
179.7983985934489
 20
87.84875579742992
 30
0.0
 10
179.7983985934489
 20
87.9796554913295
 30
0.0
  0
SPLINE
  5
16F
330
1F
100
AcDbEntity
  8
0
  6
Continuous
 62
     7
370
    25
100
AcDbSpline
210
0.0
220
0.0
230
1.0
 70
     8
 71
     3
 72
     9
 73
     5
 74
     0
 42
0.000000001
 43
0.00000001
 40
0.0
 40
0.0
 40
0.0
 40
0.0
 40
0.5
 40
1.0
 40
1.0
 40
1.0
 40
1.0
 10
191.9317319267822
 20
87.9796554913295
 30
0.0
 10
191.9317319267822
 20
87.84875579742992
 30
0.0
 10
192.0255779476092
 20
87.58793936151446
 30
0.0
 10
192.2516188587359
 20
87.4796554913295
 30
0.0
 10
192.3650652601156
 20
87.4796554913295
 30
0.0
  0
SPLINE
  5
170
330
1F
100
AcDbEntity
  8
0
  6
Continuous
 62
     7
370
    25
100
AcDbSpline
210
0.0
220
0.0
230
1.0
 70
     8
 71
     3
 72
     9
 73
     5
 74
     0
 42
0.000000001
 43
0.00000001
 40
0.0
 40
0.0
 40
0.0
 40
0.0
 40
0.571428571428571
 40
1.0
 40
1.0
 40
1.0
 40
1.0
 10
192.4316473238737
 20
87.82411230878719
 30
0.0
 10
192.4242532408877
 20
87.72696723459536
 30
0.0
 10
192.4615684204659
 20
87.55730589587769
 30
0.0
 10
192.5751604679694
 20
87.43849250000432
 30
0.0
 10
192.632877079986
 20
87.40188390005835
 30
0.0
  0
SPLINE
  5
171
330
1F
100
AcDbEntity
  8
0
  6
Continuous
 62
     7
370
    25
100
AcDbSpline
210
0.0
220
0.0
230
1.0
 70
     8
 71
     3
 72
     9
 73
     5
 74
     0
 42
0.000000001
 43
0.00000001
 40
0.0
 40
0.0
 40
0.0
 40
0.0
 40
0.5
 40
1.0
 40
1.0
 40
1.0
 40
1.0
 10
179.2984831963592
 20
87.82411230878837
 30
0.0
 10
179.3049530189721
 20
87.73911036887026
 30
0.0
 10
179.2742740257661
 20
87.56921645062148
 30
0.0
 10
179.1645894875991
 20
87.44459393332907
 30
0.0
 10
179.0972534402461
 20
87.40188390005893
 30
0.0
  0
SPLINE
  5
172
330
1F
100
AcDbEntity
  8
0
  6
Continuous
 62
     7
370
    25
100
AcDbSpline
210
0.0
220
0.0
230
1.0
 70
     8
 71
     3
 72
    12
 73
     8
 74
     0
 42
0.000000001
 43
0.00000001
 40
0.0
 40
0.0
 40
0.0
 40
0.0
 40
0.106360889119859
 40
0.159541333679788
 40
0.265902222799647
 40
0.265902222799647
 40
0.267217449924086
 40
0.267217449924086
 40
0.267217449924086
 40
0.267217449924086
 10
192.632877079986
 20
87.40188390005835
 30
0.0
 10
192.692853864057
 20
87.36384171398299
 30
0.0
 10
192.7671445071408
 20
87.3693375851752
 30
0.0
 10
192.8453760919864
 20
87.41123416273622
 30
0.0
 10
192.8647522097093
 20
87.45236031915053
 30
0.0
 10
192.8650633524478
 20
87.47900769749864
 30
0.0
 10
192.8650652601156
 20
87.47933120050726
 30
0.0
 10
192.8650652601156
 20
87.4796554913295
 30
0.0
  0
SPLINE
  5
173
330
1F
100
AcDbEntity
  8
0
  6
Continuous
 62
     7
370
    25
100
AcDbSpline
210
0.0
220
0.0
230
1.0
 70
    24
 71
     3
 72
    14
 73
    10
 74
     0
 42
0.000000001
 43
0.00000001
 40
0.0
 40
0.0
 40
0.0
 40
0.0
 40
0.2503841006840345
 40
0.3856977520239709
 40
0.5014304172375459
 40
0.6388330237075766
 40
0.767498519821732
 40
0.8877539750359934
 40
1.0
 40
1.0
 40
1.0
 40
1.0
 10
192.8650652601156
 20
87.4796554913295
 30
0.0
 10
192.8650652601156
 20
87.42036881971741
 30
0.0
 10
192.8650652601156
 20
87.32904219033765
 30
0.0
 10
192.8650652601156
 20
87.21652809698813
 30
0.0
 10
192.8650652601156
 20
87.1367415310086
 30
0.0
 10
192.8650652601156
 20
87.06994214302279
 30
0.0
 10
192.8650652601156
 20
87.01875292982591
 30
0.0
 10
192.8650652601156
 20
86.98612340651678
 30
0.0
 10
192.8650652601156
 20
86.98176137392109
 30
0.0
 10
192.8650652601156
 20
86.9796554913295
 30
0.0
  0
LINE
  5
174
330
1F
100
AcDbEntity
  8
0
  6
Continuous
 62
     7
370
    25
100
AcDbLine
 10
178.865065044
 20
87.4796553237
 30
0.0
 11
178.8724797687
 21
87.4551964646
 31
0.0
  0
SPLINE
  5
175
330
1F
100
AcDbEntity
  8
0
  6
Continuous
 62
     7
370
    25
100
AcDbSpline
210
0.0
220
0.0
230
1.0
 70
    24
 71
     3
 72
    10
 73
     6
 74
     0
 42
0.000000001
 43
0.00000001
 40
-0.263620655015386
 40
-0.263620655015386
 40
-0.263620655015386
 40
-0.263620655015386
 40
-0.2626630659468851
 40
-0.2626630659468851
 40
0.0009575890685009
 40
0.0009575890685009
 40
0.0009575890685009
 40
0.0009575890685009
 10
178.8650652601156
 20
87.4796554913295
 30
0.0
 10
178.8650652601156
 20
87.47880240318389
 30
0.0
 10
178.8650652601156
 20
87.47794295791184
 30
0.0
 10
178.8650652601154
 20
87.24474220894231
 30
0.0
 10
178.8650652601156
 20
86.9796554913295
 30
0.0
 10
178.8650652601156
 20
86.9796554913295
 30
0.0
  0
SPLINE
  5
176
330
1F
100
AcDbEntity
  8
0
  6
Continuous
 62
     8
370
    25
100
AcDbSpline
210
0.0
220
0.0
230
1.0
 70
    24
 71
     3
 72
    10
 73
     6
 74
     0
 42
0.000000001
 43
0.00000001
 40
0.0
 40
0.0
 40
0.0
 40
0.0
 40
0.4099194673184462
 40
0.8198387800763532
 40
1.0
 40
1.0
 40
1.0
 40
1.0
 10
179.3650651260051
 20
86.97965570739632
 30
0.0
 10
179.3650651260051
 20
86.85019005965779
 30
0.0
 10
179.3650651260051
 20
86.59125881299585
 30
0.0
 10
179.3650651260051
 20
86.30330182644275
 30
0.0
 10
179.3650651260051
 20
86.20675382212305
 30
0.0
 10
179.3650651260051
 20
86.17727614022021
 30
0.0
  0
SPLINE
  5
177
330
1F
100
AcDbEntity
  8
0
  6
Continuous
 62
     8
370
    25
100
AcDbSpline
210
0.0
220
0.0
230
1.0
 70
    24
 71
     3
 72
    10
 73
     6
 74
     0
 42
0.000000001
 43
0.00000001
 40
0.0
 40
0.0
 40
0.0
 40
0.0
 40
0.1482618091359975
 40
0.5741308242808024
 40
1.0
 40
1.0
 40
1.0
 40
1.0
 10
192.365065394226
 20
86.19708164609199
 30
0.0
 10
192.365065394226
 20
86.2206999675594
 30
0.0
 10
192.365065394226
 20
86.3121598414893
 30
0.0
 10
192.365065394226
 20
86.59192006071586
 30
0.0
 10
192.365065394226
 20
86.85041047559217
 30
0.0
 10
192.365065394226
 20
86.97965570739633
 30
0.0
  0
LINE
  5
178
330
1F
100
AcDbEntity
  8
0
  6
Continuous
 62
     8
370
    25
100
AcDbLine
 10
191.5219195097
 20
86.9796557074
 30
0.0
 11
192.3650653942
 21
86.9796557074
 31
0.0
  0
LINE
  5
179
330
1F
100
AcDbEntity
  8
0
  6
Continuous
 62
     8
370
    25
100
AcDbLine
 10
179.365065126
 20
86.9796557074
 30
0.0
 11
180.2082110106
 21
86.9796557074
 31
0.0
  0
SPLINE
  5
17A
330
1F
100
AcDbEntity
  8
0
  6
Continuous
 62
     8
370
    25
100
AcDbSpline
210
0.0
220
0.0
230
1.0
 70
     8
 71
     3
 72
     9
 73
     5
 74
     0
 42
0.000000001
 43
0.00000001
 40
0.0
 40
0.0
 40
0.0
 40
0.0
 40
0.2319650109135954
 40
1.0
 40
1.0
 40
1.0
 40
1.0
 10
190.1585140174958
 20
87.87508138469582
 30
0.0
 10
190.1945014369906
 20
87.89256429651357
 30
0.0
 10
190.3496430221505
 20
87.96793304177773
 30
0.0
 10
190.5049041672285
 20
87.97456347024988
 30
0.0
 10
190.624150159094
 20
87.97965587130909
 30
0.0
  0
SPLINE
  5
17B
330
1F
100
AcDbEntity
  8
0
  6
Continuous
 62
     8
370
    25
100
AcDbSpline
210
0.0
220
0.0
230
1.0
 70
     8
 71
     3
 72
     9
 73
     5
 74
     0
 42
0.000000001
 43
0.00000001
 40
0.0
 40
0.0
 40
0.0
 40
0.0
 40
0.7534037294432361
 40
1.0
 40
1.0
 40
1.0
 40
1.0
 10
181.1059803611371
 20
87.9796558713091
 30
0.0
 10
181.2252258164602
 20
87.97430586845189
 30
0.0
 10
181.3835014536292
 20
87.96720475831914
 30
0.0
 10
181.541655677793
 20
87.89003107232512
 30
0.0
 10
181.5806559196445
 20
87.87100032917385
 30
0.0
  0
LINE
  5
17C
330
1F
100
AcDbEntity
  8
0
  6
Continuous
 62
     8
370
    25
100
AcDbLine
 10
180.8911149299
 20
87.4755374809
 30
0.0
 11
180.7660457588
 21
87.4796553237
 31
0.0
  0
LINE
  5
17D
330
1F
100
AcDbEntity
  8
0
  6
Continuous
 62
     8
370
    25
100
AcDbLine
 10
190.9640847615
 20
87.4796553237
 30
0.0
 11
190.812376505
 21
87.4727234898
 31
0.0
  0
SPLINE
  5
17E
330
1F
100
AcDbEntity
  8
0
  6
Continuous
 62
     8
370
    25
100
AcDbSpline
210
0.0
220
0.0
230
1.0
 70
     8
 71
     3
 72
    11
 73
     7
 74
     0
 42
0.000000001
 43
0.00000001
 40
0.0
 40
0.0
 40
0.0
 40
0.0
 40
0.138306374567875
 40
0.4174703047224942
 40
0.7013665291882653
 40
1.0
 40
1.0
 40
1.0
 40
1.0
 10
178.8724797687265
 20
87.45519646457558
 30
0.0
 10
178.8742527778375
 20
87.44681668612489
 30
0.0
 10
178.8796045098611
 20
87.42152277849227
 30
0.0
 10
178.9207098239724
 20
87.38932280351123
 30
0.0
 10
178.9937585957506
 20
87.35940460566707
 30
0.0
 10
179.0621782495846
 20
87.38748727359717
 30
0.0
 10
179.0972535407874
 20
87.40188383511429
 30
0.0
  0
INSERT
  5
18A
330
1F
100
AcDbEntity
  8
0
  6
Continuous
 62
     7
370
    18
100
AcDbBlockReference
  2
SW_CENTERMARKSYMBOL_0
 10
185.8650652601
 20
79.9796554913
 30
0.0
  0
LINE
  5
18B
330
1F
100
AcDbEntity
  8
0
  6
Continuous
 62
     7
370
    18
100
AcDbLine
 10
191.6146035639
 20
103.1144297688
 30
0.0
 11
191.9625652601
 21
91.9796554913
 31
0.0
  0
LINE
  5
18C
330
1F
100
AcDbEntity
  8
0
  6
Continuous
 62
     7
370
    18
100
AcDbLine
 10
180.1155269563
 20
103.1144297688
 30
0.0
 11
179.7675652601
 21
91.9796554913
 31
0.0
  0
LINE
  5
18D
330
1F
100
AcDbEntity
  8
0
  6
Continuous
 62
     7
370
    18
100
AcDbLine
 10
179.0993777601
 20
91.9796554913
 30
0.0
 11
192.6307527601
 21
91.9796554913
 31
0.0
  0
ARC
  5
18E
330
1F
100
AcDbEntity
  8
0
  6
Continuous
 62
     7
370
    18
100
AcDbCircle
 10
185.8650652601
 20
79.9796554913
 30
0.0
 40
6.562684818208143
100
AcDbArc
 50
75.0
 51
345.0
  0
ARC
  5
18F
330
1F
100
AcDbEntity
  8
0
  6
Continuous
 62
     7
370
    18
100
AcDbCircle
 10
185.8650652601
 20
79.9796554913
 30
0.0
 40
6.562684818208143
100
AcDbArc
 50
75.0
 51
345.0
  0
LINE
  5
190
330
1F
100
AcDbEntity
  8
0
  6
Continuous
 62
     7
370
    25
100
AcDbLine
 10
109.6553499388
 20
144.0751220981
 30
0.0
 11
98.6553509298
 21
144.0751220981
 31
0.0
  0
LINE
  5
191
330
1F
100
AcDbEntity
  8
0
  6
Continuous
 62
     7
370
    25
100
AcDbLine
 10
98.6553509298
 20
126.075122873
 30
0.0
 11
109.6553499388
 21
126.075122873
 31
0.0
  0
LINE
  5
192
330
1F
100
AcDbEntity
  8
0
  6
Continuous
 62
     7
370
    25
100
AcDbLine
 10
136.6553506392
 20
126.075122873
 30
0.0
 11
147.6553496483
 21
126.075122873
 31
0.0
  0
LINE
  5
193
330
1F
100
AcDbEntity
  8
0
  6
Continuous
 62
     7
370
    25
100
AcDbLine
 10
147.6553496483
 20
144.0751220981
 30
0.0
 11
136.6553506392
 21
144.0751220981
 31
0.0
  0
LINE
  5
194
330
1F
100
AcDbEntity
  8
0
  6
Continuous
 62
     7
370
    25
100
AcDbLine
 10
98.6553509298
 20
144.0751220981
 30
0.0
 11
98.1553499165
 21
143.5751229475
 31
0.0
  0
LINE
  5
195
330
1F
100
AcDbEntity
  8
0
  6
Continuous
 62
     7
370
    25
100
AcDbLine
 10
98.1553499165
 20
126.5751220236
 30
0.0
 11
98.6553509298
 21
126.075122873
 31
0.0
  0
LINE
  5
196
330
1F
100
AcDbEntity
  8
0
  6
Continuous
 62
     7
370
    25
100
AcDbLine
 10
147.6553496483
 20
126.075122873
 30
0.0
 11
148.1553506615
 21
126.5751220236
 31
0.0
  0
LINE
  5
197
330
1F
100
AcDbEntity
  8
0
  6
Continuous
 62
     7
370
    25
100
AcDbLine
 10
148.1553506615
 20
143.5751229475
 30
0.0
 11
147.6553496483
 21
144.0751220981
 31
0.0
  0
ARC
  5
198
330
1F
100
AcDbEntity
  8
0
  6
Continuous
 62
     7
370
    25
100
AcDbCircle
 10
136.655350289
 20
142.5751224855
 30
0.0
 40
1.500000000000018
100
AcDbArc
 50
90.0
 51
168.4630409672
  0
ARC
  5
199
330
1F
100
AcDbEntity
  8
0
  6
Continuous
 62
     7
370
    25
100
AcDbCircle
 10
136.655350289
 20
127.5751224855
 30
0.0
 40
1.500000000000015
100
AcDbArc
 50
191.5369590328
 51
270.0
  0
ARC
  5
19A
330
1F
100
AcDbEntity
  8
0
  6
Continuous
 62
     7
370
    25
100
AcDbCircle
 10
109.655350289
 20
142.5751224855
 30
0.0
 40
1.500000000000004
100
AcDbArc
 50
11.5369590328
 51
90.0
  0
ARC
  5
19B
330
1F
100
AcDbEntity
  8
0
  6
Continuous
 62
     7
370
    25
100
AcDbCircle
 10
109.655350289
 20
127.5751224855
 30
0.0
 40
1.500000000000001
100
AcDbArc
 50
270.0
 51
348.4630409672
  0
ARC
  5
19C
330
1F
100
AcDbEntity
  8
0
  6
Continuous
 62
     7
370
    25
100
AcDbCircle
 10
112.1048400318
 20
143.0751224855
 30
0.0
 40
1.000000000000004
100
AcDbArc
 50
191.5369590328
 51
270.0
  0
ARC
  5
19D
330
1F
100
AcDbEntity
  8
0
  6
Continuous
 62
     7
370
    25
100
AcDbCircle
 10
112.1048400318
 20
127.0751224855
 30
0.0
 40
1.000000000000006
100
AcDbArc
 50
90.0
 51
168.4630409672
  0
ARC
  5
19E
330
1F
100
AcDbEntity
  8
0
  6
Continuous
 62
     7
370
    25
100
AcDbCircle
 10
134.2058605462
 20
143.0751224855
 30
0.0
 40
1.0
100
AcDbArc
 50
270.0
 51
348.4630409672
  0
ARC
  5
19F
330
1F
100
AcDbEntity
  8
0
  6
Continuous
 62
     7
370
    25
100
AcDbCircle
 10
134.2058605462
 20
127.0751224855
 30
0.0
 40
1.0
100
AcDbArc
 50
11.5369590328
 51
90.0
  0
SPLINE
  5
1A0
330
1F
100
AcDbEntity
  8
0
  6
Continuous
 62
     7
370
    25
100
AcDbSpline
210
0.0
220
0.0
230
1.0
 70
     8
 71
     3
 72
     9
 73
     5
 74
     0
 42
0.000000001
 43
0.00000001
 40
0.0
 40
0.0
 40
0.0
 40
0.0
 40
0.3118869528766096
 40
1.0
 40
1.0
 40
1.0
 40
1.0
 10
117.5136579709951
 20
142.0677177558252
 30
0.0
 10
117.5156085928453
 20
142.0695987875289
 30
0.0
 10
117.521862852064
 20
142.0756299205604
 30
0.0
 10
117.4856179488351
 20
142.0751005023355
 30
0.0
 10
117.4606773580316
 20
142.0747362027475
 30
0.0
  0
SPLINE
  5
1A1
330
1F
100
AcDbEntity
  8
0
  6
Continuous
 62
     7
370
    25
100
AcDbSpline
210
0.0
220
0.0
230
1.0
 70
     8
 71
     3
 72
     9
 73
     5
 74
     0
 42
0.000000001
 43
0.00000001
 40
0.0
 40
0.0
 40
0.0
 40
0.0
 40
0.7386329696608467
 40
1.0
 40
1.0
 40
1.0
 40
1.0
 10
129.1558383542005
 20
128.5751223514387
 30
0.0
 10
129.1550370919869
 20
128.5387923517882
 30
0.0
 10
129.1539523012362
 20
128.4896068954888
 30
0.0
 10
129.1366592799299
 20
128.4371040194816
 30
0.0
 10
129.1321394543055
 20
128.4233814986953
 30
0.0
  0
SPLINE
  5
1A2
330
1F
100
AcDbEntity
  8
0
  6
Continuous
 62
     7
370
    25
100
AcDbSpline
210
0.0
220
0.0
230
1.0
 70
     8
 71
     3
 72
    16
 73
    12
 74
     0
 42
0.000000001
 43
0.00000001
 40
0.0
 40
0.0
 40
0.0
 40
0.0
 40
0.001558688101615
 40
0.0410302892138949
 40
0.1371775496461782
 40
0.2564358294803687
 40
0.3953632821085705
 40
0.5485297445143557
 40
0.7092896286264974
 40
0.8703572720428943
 40
1.0
 40
1.0
 40
1.0
 40
1.0
 10
128.9496575060192
 20
128.1692049416313
 30
0.0
 10
128.9490836292281
 20
128.1687944712916
 30
0.0
 10
128.9339771235145
 20
128.1579894123867
 30
0.0
 10
128.8944458526962
 20
128.1363582534323
 30
0.0
 10
128.8454112627911
 20
128.1086742863527
 30
0.0
 10
128.8339098739499
 20
128.0923905199191
 30
0.0
 10
128.8802802146942
 20
128.0824075455589
 30
0.0
 10
128.9943406963652
 20
128.0777135979602
 30
0.0
 10
129.1726633610564
 20
128.075694117117
 30
0.0
 10
129.385007707956
 20
128.0751442656708
 30
0.0
 10
129.5462725088939
 20
128.0751390368035
 30
0.0
 10
129.6181887897555
 20
128.0751367049822
 30
0.0
  0
LINE
  5
1A3
330
1F
100
AcDbEntity
  8
0
  6
Continuous
 62
     7
370
    25
100
AcDbLine
 10
115.6553504567
 20
142.0751227016
 30
0.0
 11
112.1048400688
 21
142.0751227016
 31
0.0
  0
LINE
  5
1A4
330
1F
100
AcDbEntity
  8
0
  6
Continuous
 62
     7
370
    25
100
AcDbLine
 10
134.2058605092
 20
142.0751227016
 30
0.0
 11
130.6553501214
 21
142.0751227016
 31
0.0
  0
LINE
  5
1A5
330
1F
100
AcDbEntity
  8
0
  6
Continuous
 62
     7
370
    25
100
AcDbLine
 10
130.6553501214
 20
128.0751222695
 30
0.0
 11
134.2058605092
 21
128.0751222695
 31
0.0
  0
LINE
  5
1A6
330
1F
100
AcDbEntity
  8
0
  6
Continuous
 62
     7
370
    25
100
AcDbLine
 10
112.1048400688
 20
128.0751222695
 30
0.0
 11
115.6553504567
 21
128.0751222695
 31
0.0
  0
CIRCLE
  5
1A7
330
1F
100
AcDbEntity
  8
0
  6
Continuous
 62
     7
370
    25
100
AcDbCircle
 10
123.155350289
 20
135.0751224855
 30
0.0
 40
5.250000000000014
  0
CIRCLE
  5
1A8
330
1F
100
AcDbEntity
  8
0
  6
Continuous
 62
     7
370
    25
100
AcDbCircle
 10
123.155350289
 20
135.0751224855
 30
0.0
 40
6.455962114180096
  0
CIRCLE
  5
1A9
330
1F
100
AcDbEntity
  8
0
  6
Continuous
 62
     7
370
    25
100
AcDbCircle
 10
123.155350289
 20
135.0751224855
 30
0.0
 40
4.5
  0
CIRCLE
  5
1AA
330
1F
100
AcDbEntity
  8
0
  6
Continuous
 62
     7
370
    25
100
AcDbCircle
 10
123.155350289
 20
135.0751224855
 30
0.0
 40
4.84999999999998
  0
CIRCLE
  5
1AB
330
1F
100
AcDbEntity
  8
0
  6
Continuous
 62
     7
370
    25
100
AcDbCircle
 10
123.155350289
 20
135.0751224855
 30
0.0
 40
4.950000000000003
  0
CIRCLE
  5
1AC
330
1F
100
AcDbEntity
  8
0
  6
Continuous
 62
     7
370
    25
100
AcDbCircle
 10
123.155350289
 20
135.0751224855
 30
0.0
 40
4.0
  0
CIRCLE
  5
1AD
330
1F
100
AcDbEntity
  8
0
  6
Continuous
 62
     7
370
    25
100
AcDbCircle
 10
123.155350289
 20
135.0751224855
 30
0.0
 40
4.90000000000002
  0
CIRCLE
  5
1AE
330
1F
100
AcDbEntity
  8
0
  6
Continuous
 62
     7
370
    25
100
AcDbCircle
 10
123.155350289
 20
135.0751224855
 30
0.0
 40
6.828187499999999
  0
CIRCLE
  5
1AF
330
1F
100
AcDbEntity
  8
0
  6
Continuous
 62
     7
370
    25
100
AcDbCircle
 10
123.155350289
 20
135.0751224855
 30
0.0
 40
7.000000000000014
  0
LINE
  5
1B0
330
1F
100
AcDbEntity
  8
0
  6
Continuous
 62
     7
370
    25
100
AcDbLine
 10
98.6553509298
 20
144.0751220981
 30
0.0
 11
98.6553509298
 21
126.075122873
 31
0.0
  0
LINE
  5
1B1
330
1F
100
AcDbEntity
  8
0
  6
Continuous
 62
     7
370
    25
100
AcDbLine
 10
147.6553496483
 20
126.075122873
 30
0.0
 11
147.6553496483
 21
144.0751220981
 31
0.0
  0
LINE
  5
1B2
330
1F
100
AcDbEntity
  8
0
  6
Continuous
 62
     7
370
    25
100
AcDbLine
 10
98.1553499165
 20
126.5751220236
 30
0.0
 11
98.1553499165
 21
143.5751229475
 31
0.0
  0
LINE
  5
1B3
330
1F
100
AcDbEntity
  8
0
  6
Continuous
 62
     7
370
    25
100
AcDbLine
 10
148.1553506615
 20
143.5751229475
 30
0.0
 11
148.1553506615
 21
126.5751220236
 31
0.0
  0
SPLINE
  5
1B4
330
1F
100
AcDbEntity
  8
0
  6
Continuous
 62
     7
370
    25
100
AcDbSpline
210
0.0
220
0.0
230
1.0
 70
     8
 71
     3
 72
     9
 73
     5
 74
     0
 42
0.000000001
 43
0.00000001
 40
0.0
 40
0.0
 40
0.0
 40
0.0
 40
0.571428571428571
 40
1.0
 40
1.0
 40
1.0
 40
1.0
 10
125.5802214195993
 20
141.6417045493073
 30
0.0
 10
125.6002446909812
 20
141.6343104663213
 30
0.0
 10
125.6537630084565
 20
141.6716256458995
 30
0.0
 10
125.7235386125311
 20
141.785217693403
 30
0.0
 10
125.7534265003528
 20
141.8429343054196
 30
0.0
  0
SPLINE
  5
1B5
330
1F
100
AcDbEntity
  8
0
  6
Continuous
 62
     7
370
    25
100
AcDbSpline
210
0.0
220
0.0
230
1.0
 70
     8
 71
     3
 72
    11
 73
     7
 74
     0
 42
0.000000001
 43
0.00000001
 40
0.0
 40
0.0
 40
0.0
 40
0.0
 40
0.2815942436633045
 40
0.54208606736727
 40
0.7815308548565899
 40
0.9999999999999999
 40
0.9999999999999999
 40
0.9999999999999999
 40
0.9999999999999999
 10
125.7534265003617
 20
141.8429343054196
 30
0.0
 10
125.8613908340446
 20
141.8221891689757
 30
0.0
 10
126.0692287511153
 20
141.7822535179995
 30
0.0
 10
126.367719436784
 20
141.7147165669626
 30
0.0
 10
126.6412296669721
 20
141.6468405651013
 30
0.0
 10
126.8143923579791
 20
141.5982871507306
 30
0.0
 10
126.8970076757912
 20
141.5751224855492
 30
0.0
  0
SPLINE
  5
1B6
330
1F
100
AcDbEntity
  8
0
  6
Continuous
 62
     7
370
    25
100
AcDbSpline
210
0.0
220
0.0
230
1.0
 70
    24
 71
     3
 72
     9
 73
     5
 74
     0
 42
0.000000001
 43
0.00000001
 40
0.0
 40
0.0
 40
0.0
 40
0.0
 40
0.5
 40
1.0
 40
1.0
 40
1.0
 40
1.0
 10
126.6475638500063
 20
141.1417891522158
 30
0.0
 10
126.6475638500063
 20
141.1417891522158
 30
0.0
 10
126.7015853357058
 20
141.2356351730428
 30
0.0
 10
126.8317034349105
 20
141.4616760841695
 30
0.0
 10
126.8970076757912
 20
141.5751224855492
 30
0.0
  0
SPLINE
  5
1B7
330
1F
100
AcDbEntity
  8
0
  6
Continuous
 62
     7
370
    25
100
AcDbSpline
210
0.0
220
0.0
230
1.0
 70
     8
 71
     3
 72
     9
 73
     5
 74
     0
 42
0.000000001
 43
0.00000001
 40
0.0
 40
0.0
 40
0.0
 40
0.0
 40
0.571428571428571
 40
1.0
 40
1.0
 40
1.0
 40
1.0
 10
120.7304791584353
 20
128.5085404217911
 30
0.0
 10
120.7104558870534
 20
128.515934504777
 30
0.0
 10
120.6569375695781
 20
128.4786193251989
 30
0.0
 10
120.5871619655035
 20
128.3650272776953
 30
0.0
 10
120.5572740776818
 20
128.3073106656788
 30
0.0
  0
SPLINE
  5
1B8
330
1F
100
AcDbEntity
  8
0
  6
Continuous
 62
     7
370
    25
100
AcDbSpline
210
0.0
220
0.0
230
1.0
 70
     8
 71
     3
 72
     8
 73
     4
 74
     0
 42
0.000000001
 43
0.00000001
 40
0.0000000000000001
 40
0.0000000000000001
 40
0.0000000000000001
 40
0.0000000000000001
 40
0.127234597098751
 40
0.127234597098751
 40
0.127234597098751
 40
0.127234597098751
 10
119.4136929022434
 20
128.5751224855492
 30
0.0
 10
119.7812595160842
 20
128.4693295366407
 30
0.0
 10
120.168688082963
 20
128.3790581098733
 30
0.0
 10
120.5572740776764
 20
128.3073106656793
 30
0.0
  0
SPLINE
  5
1B9
330
1F
100
AcDbEntity
  8
0
  6
Continuous
 62
     7
370
    25
100
AcDbSpline
210
0.0
220
0.0
230
1.0
 70
    24
 71
     3
 72
     9
 73
     5
 74
     0
 42
0.000000001
 43
0.00000001
 40
0.0
 40
0.0
 40
0.0
 40
0.0
 40
0.5
 40
1.0
 40
1.0
 40
1.0
 40
1.0
 10
119.6631367280283
 20
129.0084558188825
 30
0.0
 10
119.6631367280283
 20
129.0084558188825
 30
0.0
 10
119.6091152423288
 20
128.9146097980556
 30
0.0
 10
119.4789971431241
 20
128.6885688869288
 30
0.0
 10
119.4136929022434
 20
128.5751224855492
 30
0.0
  0
SPLINE
  5
1BA
330
1F
100
AcDbEntity
  8
0
  6
Continuous
 62
     7
370
    25
100
AcDbSpline
210
0.0
220
0.0
230
1.0
 70
    24
 71
     3
 72
     9
 73
     5
 74
     0
 42
0.000000001
 43
0.00000001
 40
0.0
 40
0.0
 40
0.0
 40
0.0
 40
0.5
 40
1.0
 40
1.0
 40
1.0
 40
1.0
 10
126.8970076757913
 20
128.5751224855492
 30
0.0
 10
126.8317034349105
 20
128.6885688869288
 30
0.0
 10
126.7015853357058
 20
128.9146097980556
 30
0.0
 10
126.6475638500063
 20
129.0084558188825
 30
0.0
 10
126.6475638500063
 20
129.0084558188825
 30
0.0
  0
SPLINE
  5
1BB
330
1F
100
AcDbEntity
  8
0
  6
Continuous
 62
     7
370
    25
100
AcDbSpline
210
0.0
220
0.0
230
1.0
 70
     8
 71
     3
 72
     8
 73
     4
 74
     0
 42
0.000000001
 43
0.00000001
 40
-0.0000000000002226
 40
-0.0000000000002226
 40
-0.0000000000002226
 40
-0.0000000000002226
 40
0.127234597098529
 40
0.127234597098529
 40
0.127234597098529
 40
0.127234597098529
 10
125.7534265003582
 20
128.3073106656793
 30
0.0
 10
126.1420124950716
 20
128.3790581098733
 30
0.0
 10
126.5294410619504
 20
128.4693295366407
 30
0.0
 10
126.8970076757913
 20
128.5751224855492
 30
0.0
  0
SPLINE
  5
1BC
330
1F
100
AcDbEntity
  8
0
  6
Continuous
 62
     7
370
    25
100
AcDbSpline
210
0.0
220
0.0
230
1.0
 70
     8
 71
     3
 72
     9
 73
     5
 74
     0
 42
0.000000001
 43
0.00000001
 40
0.0
 40
0.0
 40
0.0
 40
0.0
 40
0.5
 40
1.0
 40
1.0
 40
1.0
 40
1.0
 10
125.580221419604
 20
128.5085404217928
 30
0.0
 10
125.5977417820636
 20
128.5150102444057
 30
0.0
 10
125.648864001046
 20
128.4843312511997
 30
0.0
 10
125.7185572979012
 20
128.3746467130327
 30
0.0
 10
125.7534265003602
 20
128.3073106656797
 30
0.0
  0
SPLINE
  5
1BD
330
1F
100
AcDbEntity
  8
0
  6
Continuous
 62
     7
370
    25
100
AcDbSpline
210
0.0
220
0.0
230
1.0
 70
     8
 71
     3
 72
    12
 73
     8
 74
     0
 42
0.000000001
 43
0.00000001
 40
0.0
 40
0.0
 40
0.0
 40
0.0
 40
0.1731008601133688
 40
0.3596153376348382
 40
0.5595829448172438
 40
0.7730357225316113
 40
1.0
 40
1.0
 40
1.0
 40
1.0
 10
119.4136929022434
 20
141.5751224855492
 30
0.0
 10
119.4791257864888
 20
141.5935655163489
 30
0.0
 10
119.6150619611845
 20
141.6318807317886
 30
0.0
 10
119.8277738340443
 20
141.6864682715115
 30
0.0
 10
120.0565188637121
 20
141.7407896987888
 30
0.0
 10
120.3013697902419
 20
141.7941119155258
 30
0.0
 10
120.4702456744853
 20
141.8263306968013
 30
0.0
 10
120.5572740776729
 20
141.8429343054196
 30
0.0
  0
SPLINE
  5
1BE
330
1F
100
AcDbEntity
  8
0
  6
Continuous
 62
     7
370
    25
100
AcDbSpline
210
0.0
220
0.0
230
1.0
 70
     8
 71
     3
 72
     9
 73
     5
 74
     0
 42
0.000000001
 43
0.00000001
 40
0.0
 40
0.0
 40
0.0
 40
0.0
 40
0.5
 40
1.0
 40
1.0
 40
1.0
 40
1.0
 10
120.7304791584325
 20
141.6417045493063
 30
0.0
 10
120.712958795973
 20
141.6352347266934
 30
0.0
 10
120.6618365769905
 20
141.6659137198993
 30
0.0
 10
120.5921432801354
 20
141.7755982580661
 30
0.0
 10
120.5572740776764
 20
141.842934305419
 30
0.0
  0
SPLINE
  5
1BF
330
1F
100
AcDbEntity
  8
0
  6
Continuous
 62
     7
370
    25
100
AcDbSpline
210
0.0
220
0.0
230
1.0
 70
    24
 71
     3
 72
     9
 73
     5
 74
     0
 42
0.000000001
 43
0.00000001
 40
0.0
 40
0.0
 40
0.0
 40
0.0
 40
0.5
 40
1.0
 40
1.0
 40
1.0
 40
1.0
 10
119.4136929022434
 20
141.5751224855492
 30
0.0
 10
119.4789971431241
 20
141.4616760841695
 30
0.0
 10
119.6091152423288
 20
141.2356351730428
 30
0.0
 10
119.6631367280283
 20
141.1417891522158
 30
0.0
 10
119.6631367280283
 20
141.1417891522158
 30
0.0
  0
SPLINE
  5
1C0
330
1F
100
AcDbEntity
  8
0
  6
Continuous
 62
     7
370
    25
100
AcDbSpline
210
0.0
220
0.0
230
1.0
 70
     8
 71
     3
 72
    11
 73
     7
 74
     0
 42
0.000000001
 43
0.00000001
 40
0.0
 40
0.0
 40
0.0
 40
0.0
 40
0.1998734113242355
 40
0.50088420293333
 40
0.7872151654228284
 40
1.0
 40
1.0
 40
1.0
 40
1.0
 10
117.3434881105383
 20
139.4052495044714
 30
0.0
 10
117.3617997006847
 20
139.4563618128226
 30
0.0
 10
117.407688676983
 20
139.5844496242977
 30
0.0
 10
117.4871548875827
 20
139.7869931701673
 30
0.0
 10
117.5730707321543
 20
139.9927404180171
 30
0.0
 10
117.6307571911635
 20
140.1199216434969
 30
0.0
 10
117.6553502890173
 20
140.174141999142
 30
0.0
  0
SPLINE
  5
1C1
330
1F
100
AcDbEntity
  8
0
  6
Continuous
 62
     7
370
    25
100
AcDbSpline
210
0.0
220
0.0
230
1.0
 70
    24
 71
     3
 72
     9
 73
     5
 74
     0
 42
0.000000001
 43
0.00000001
 40
0.0
 40
0.0
 40
0.0
 40
0.0
 40
0.5
 40
1.0
 40
1.0
 40
1.0
 40
1.0
 10
118.022016955684
 20
139.8342073649025
 30
0.0
 10
118.022016955684
 20
139.8342073649025
 30
0.0
 10
117.9426067422772
 20
139.9078281335824
 30
0.0
 10
117.751343397877
 20
140.0851473200063
 30
0.0
 10
117.6553502890173
 20
140.174141999142
 30
0.0
  0
SPLINE
  5
1C2
330
1F
100
AcDbEntity
  8
0
  6
Continuous
 62
     7
370
    25
100
AcDbSpline
210
0.0
220
0.0
230
1.0
 70
     8
 71
     3
 72
     8
 73
     4
 74
     0
 42
0.000000001
 43
0.00000001
 40
0.0
 40
0.0
 40
0.0
 40
0.0
 40
1.0
 40
1.0
 40
1.0
 40
1.0
 10
117.4398742225232
 20
139.1165743698766
 30
0.0
 10
117.4816061256782
 20
139.175592193302
 30
0.0
 10
117.4436193343473
 20
139.2893621325023
 30
0.0
 10
117.3434881105383
 20
139.4052495044714
 30
0.0
  0
SPLINE
  5
1C3
330
1F
100
AcDbEntity
  8
0
  6
Continuous
 62
     7
370
    25
100
AcDbSpline
210
0.0
220
0.0
230
1.0
 70
    24
 71
     3
 72
     9
 73
     5
 74
     0
 42
0.000000001
 43
0.00000001
 40
0.0
 40
0.0
 40
0.0
 40
0.0
 40
0.5
 40
1.0
 40
1.0
 40
1.0
 40
1.0
 10
128.6553502890173
 20
140.174141999142
 30
0.0
 10
128.5593571801576
 20
140.0851473200063
 30
0.0
 10
128.3680938357575
 20
139.9078281335824
 30
0.0
 10
128.2886836223506
 20
139.8342073649025
 30
0.0
 10
128.2886836223506
 20
139.8342073649025
 30
0.0
  0
SPLINE
  5
1C4
330
1F
100
AcDbEntity
  8
0
  6
Continuous
 62
     7
370
    25
100
AcDbSpline
210
0.0
220
0.0
230
1.0
 70
     8
 71
     3
 72
    12
 73
     8
 74
     0
 42
0.000000001
 43
0.00000001
 40
0.0
 40
0.0
 40
0.0
 40
0.0
 40
0.133687439079169
 40
0.3000652536960207
 40
0.4991448923272338
 40
0.8001431782006811
 40
1.0
 40
1.0
 40
1.0
 40
1.0
 10
128.6553502890173
 20
140.174141999142
 30
0.0
 10
128.6708876180471
 20
140.1401189103881
 30
0.0
 10
128.7057615943098
 20
140.0637531214348
 30
0.0
 10
128.7613069690501
 20
139.9358417985884
 30
0.0
 10
128.8324056675983
 20
139.7645931424028
 30
0.0
 10
128.9030028567589
 20
139.584439807563
 30
0.0
 10
128.9488986238307
 20
139.4563581026939
 30
0.0
 10
128.9672124674963
 20
139.4052495044714
 30
0.0
  0
SPLINE
  5
1C5
330
1F
100
AcDbEntity
  8
0
  6
Continuous
 62
     7
370
    25
100
AcDbSpline
210
0.0
220
0.0
230
1.0
 70
     8
 71
     3
 72
     9
 73
     5
 74
     0
 42
0.000000001
 43
0.00000001
 40
0.0
 40
0.0
 40
0.0
 40
0.0
 40
0.5
 40
1.0
 40
1.0
 40
1.0
 40
1.0
 10
128.8708263555114
 20
139.1165743698766
 30
0.0
 10
128.8499604039339
 20
139.1460832815893
 30
0.0
 10
128.8456285892833
 20
139.2314913046513
 30
0.0
 10
128.9171468555918
 20
139.3473058184868
 30
0.0
 10
128.9672124674963
 20
139.4052495044714
 30
0.0
  0
SPLINE
  5
1C6
330
1F
100
AcDbEntity
  8
0
  6
Continuous
 62
     7
370
    25
100
AcDbSpline
210
0.0
220
0.0
230
1.0
 70
    24
 71
     3
 72
     9
 73
     5
 74
     0
 42
0.000000001
 43
0.00000001
 40
0.0
 40
0.0
 40
0.0
 40
0.0
 40
0.5
 40
1.0
 40
1.0
 40
1.0
 40
1.0
 10
117.6553502890173
 20
129.9761029719564
 30
0.0
 10
117.751343397877
 20
130.065097651092
 30
0.0
 10
117.9426067422772
 20
130.2424168375159
 30
0.0
 10
118.022016955684
 20
130.3160376061959
 30
0.0
 10
118.022016955684
 20
130.3160376061959
 30
0.0
  0
SPLINE
  5
1C7
330
1F
100
AcDbEntity
  8
0
  6
Continuous
 62
     7
370
    25
100
AcDbSpline
210
0.0
220
0.0
230
1.0
 70
     8
 71
     3
 72
    12
 73
     8
 74
     0
 42
0.000000001
 43
0.00000001
 40
0.0
 40
0.0
 40
0.0
 40
0.0
 40
0.1336874391244513
 40
0.300065253741295
 40
0.4991448923272317
 40
0.8001431781198298
 40
0.9999999999999999
 40
0.9999999999999999
 40
0.9999999999999999
 40
0.9999999999999999
 10
117.6553502890173
 20
129.9761029719564
 30
0.0
 10
117.6398129599822
 20
130.0101260607217
 30
0.0
 10
117.604938983714
 20
130.0864918496865
 30
0.0
 10
117.5493936089737
 20
130.2144031725327
 30
0.0
 10
117.4782949104407
 20
130.3856518286865
 30
0.0
 10
117.4076977212848
 20
130.5658051635151
 30
0.0
 10
117.3618019542118
 20
130.6938868683839
 30
0.0
 10
117.3434881105383
 20
130.744995466627
 30
0.0
  0
SPLINE
  5
1C8
330
1F
100
AcDbEntity
  8
0
  6
Continuous
 62
     7
370
    25
100
AcDbSpline
210
0.0
220
0.0
230
1.0
 70
     8
 71
     3
 72
     9
 73
     5
 74
     0
 42
0.000000001
 43
0.00000001
 40
0.0
 40
0.0
 40
0.0
 40
0.0
 40
0.5
 40
1.0
 40
1.0
 40
1.0
 40
1.0
 10
117.4398742225232
 20
131.0336706012218
 30
0.0
 10
117.4607401741007
 20
131.0041616895091
 30
0.0
 10
117.4650719887513
 20
130.9187536664471
 30
0.0
 10
117.3935537224428
 20
130.8029391526115
 30
0.0
 10
117.3434881105383
 20
130.744995466627
 30
0.0
  0
SPLINE
  5
1C9
330
1F
100
AcDbEntity
  8
0
  6
Continuous
 62
     7
370
    25
100
AcDbSpline
210
0.0
220
0.0
230
1.0
 70
     8
 71
     3
 72
     8
 73
     4
 74
     0
 42
0.000000001
 43
0.00000001
 40
0.0
 40
0.0
 40
0.0
 40
0.0
 40
1.0
 40
1.0
 40
1.0
 40
1.0
 10
128.8708263555114
 20
131.0336706012218
 30
0.0
 10
128.8290944523564
 20
130.9746527777964
 30
0.0
 10
128.8670812436874
 20
130.860882838596
 30
0.0
 10
128.9672124674963
 20
130.744995466627
 30
0.0
  0
SPLINE
  5
1CA
330
1F
100
AcDbEntity
  8
0
  6
Continuous
 62
     7
370
    25
100
AcDbSpline
210
0.0
220
0.0
230
1.0
 70
     8
 71
     3
 72
    11
 73
     7
 74
     0
 42
0.000000001
 43
0.00000001
 40
0.0
 40
0.0
 40
0.0
 40
0.0
 40
0.1998756938799861
 40
0.5008842154834532
 40
0.7872132635947938
 40
1.0
 40
1.0
 40
1.0
 40
1.0
 10
128.9672124674963
 20
130.744995466627
 30
0.0
 10
128.9489006552896
 20
130.693882577765
 30
0.0
 10
128.9030116454097
 20
130.5657947710801
 30
0.0
 10
128.8235456466921
 20
130.363251694102
 30
0.0
 10
128.7376300996259
 20
130.1575050200098
 30
0.0
 10
128.6799436172566
 20
130.0303238078828
 30
0.0
 10
128.6553502890173
 20
129.9761029719564
 30
0.0
  0
SPLINE
  5
1CB
330
1F
100
AcDbEntity
  8
0
  6
Continuous
 62
     7
370
    25
100
AcDbSpline
210
0.0
220
0.0
230
1.0
 70
    24
 71
     3
 72
     9
 73
     5
 74
     0
 42
0.000000001
 43
0.00000001
 40
0.0
 40
0.0
 40
0.0
 40
0.0
 40
0.5
 40
1.0
 40
1.0
 40
1.0
 40
1.0
 10
128.2886836223506
 20
130.3160376061959
 30
0.0
 10
128.2886836223506
 20
130.3160376061959
 30
0.0
 10
128.3680938357575
 20
130.2424168375159
 30
0.0
 10
128.5593571801576
 20
130.065097651092
 30
0.0
 10
128.6553502890173
 20
129.9761029719564
 30
0.0
  0
SPLINE
  5
1CC
330
1F
100
AcDbEntity
  8
0
  6
Continuous
 62
     7
370
    25
100
AcDbSpline
210
0.0
220
0.0
230
1.0
 70
     8
 71
     3
 72
    15
 73
    11
 74
     0
 42
0.000000001
 43
0.00000001
 40
0.0
 40
0.0
 40
0.0
 40
0.0
 40
0.1256227982397242
 40
0.250712529493989
 40
0.3754456171266946
 40
0.5000000000000002
 40
0.6245543828733057
 40
0.7492874705060107
 40
0.8743772017602763
 40
1.0
 40
1.0
 40
1.0
 40
1.0
 10
117.6553502890173
 20
140.174141999142
 30
0.0
 10
117.7203386727628
 20
140.2427581877258
 30
0.0
 10
117.8500396689583
 20
140.3796993993941
 30
0.0
 10
118.0538037471353
 20
140.5753966059194
 30
0.0
 10
118.2636664315844
 20
140.7632659567295
 30
0.0
 10
118.4803302538671
 20
140.9426467125076
 30
0.0
 10
118.7035747648272
 20
141.113768177426
 30
0.0
 10
118.9335742334967
 20
141.2763642527468
 30
0.0
 10
119.1698415386736
 20
141.4312673085642
 30
0.0
 10
119.3322939784945
 20
141.5271028377979
 30
0.0
 10
119.4136929022434
 20
141.5751224855492
 30
0.0
  0
SPLINE
  5
1CD
330
1F
100
AcDbEntity
  8
0
  6
Continuous
 62
     7
370
    25
100
AcDbSpline
210
0.0
220
0.0
230
1.0
 70
     8
 71
     3
 72
    15
 73
    11
 74
     0
 42
0.000000001
 43
0.00000001
 40
0.0
 40
0.0
 40
0.0
 40
0.0
 40
0.1256227982397242
 40
0.250712529493989
 40
0.3754456171266946
 40
0.5000000000000002
 40
0.6245543828733057
 40
0.7492874705060107
 40
0.8743772017602763
 40
1.0
 40
1.0
 40
1.0
 40
1.0
 10
128.6553502890173
 20
129.9761029719564
 30
0.0
 10
128.5903619052718
 20
129.9074867833725
 30
0.0
 10
128.4606609090763
 20
129.7705455717043
 30
0.0
 10
128.2568968308993
 20
129.574848365179
 30
0.0
 10
128.0470341464502
 20
129.3869790143688
 30
0.0
 10
127.8303703241675
 20
129.2075982585908
 30
0.0
 10
127.6071258132075
 20
129.0364767936723
 30
0.0
 10
127.3771263445379
 20
128.8738807183516
 30
0.0
 10
127.140859039361
 20
128.7189776625341
 30
0.0
 10
126.9784065995401
 20
128.6231421333004
 30
0.0
 10
126.8970076757912
 20
128.5751224855492
 30
0.0
  0
SPLINE
  5
1CE
330
1F
100
AcDbEntity
  8
0
  6
Continuous
 62
     7
370
    25
100
AcDbSpline
210
0.0
220
0.0
230
1.0
 70
     8
 71
     3
 72
    15
 73
    11
 74
     0
 42
0.000000001
 43
0.00000001
 40
0.0
 40
0.0
 40
0.0
 40
0.0
 40
0.1256227982397244
 40
0.2507125294939896
 40
0.3754456171266953
 40
0.500000000000001
 40
0.6245543828733067
 40
0.7492874705060116
 40
0.8743772017602766
 40
1.0
 40
1.0
 40
1.0
 40
1.0
 10
126.8970076757912
 20
141.5751224855492
 30
0.0
 10
126.9784065995401
 20
141.5271028377979
 30
0.0
 10
127.140859039361
 20
141.4312673085642
 30
0.0
 10
127.3771263445379
 20
141.2763642527468
 30
0.0
 10
127.6071258132075
 20
141.113768177426
 30
0.0
 10
127.8303703241675
 20
140.9426467125076
 30
0.0
 10
128.0470341464502
 20
140.7632659567295
 30
0.0
 10
128.2568968308993
 20
140.5753966059194
 30
0.0
 10
128.4606609090763
 20
140.3796993993941
 30
0.0
 10
128.5903619052718
 20
140.2427581877258
 30
0.0
 10
128.6553502890173
 20
140.174141999142
 30
0.0
  0
SPLINE
  5
1CF
330
1F
100
AcDbEntity
  8
0
  6
Continuous
 62
     7
370
    25
100
AcDbSpline
210
0.0
220
0.0
230
1.0
 70
     8
 71
     3
 72
    15
 73
    11
 74
     0
 42
0.000000001
 43
0.00000001
 40
0.0
 40
0.0
 40
0.0
 40
0.0
 40
0.1256227982397243
 40
0.2507125294939895
 40
0.375445617126695
 40
0.5000000000000004
 40
0.624554382873306
 40
0.7492874705060116
 40
0.8743772017602763
 40
1.0
 40
1.0
 40
1.0
 40
1.0
 10
119.4136929022434
 20
128.5751224855492
 30
0.0
 10
119.3322939784945
 20
128.6231421333004
 30
0.0
 10
119.1698415386736
 20
128.7189776625341
 30
0.0
 10
118.9335742334967
 20
128.8738807183516
 30
0.0
 10
118.7035747648272
 20
129.0364767936723
 30
0.0
 10
118.4803302538671
 20
129.2075982585908
 30
0.0
 10
118.2636664315844
 20
129.3869790143688
 30
0.0
 10
118.0538037471353
 20
129.574848365179
 30
0.0
 10
117.8500396689583
 20
129.7705455717043
 30
0.0
 10
117.7203386727628
 20
129.9074867833725
 30
0.0
 10
117.6553502890173
 20
129.9761029719564
 30
0.0
  0
SPLINE
  5
1D0
330
1F
100
AcDbEntity
  8
0
  6
Continuous
 62
     7
370
    25
100
AcDbSpline
210
0.0
220
0.0
230
1.0
 70
     8
 71
     3
 72
    11
 73
     7
 74
     0
 42
0.000000001
 43
0.00000001
 40
0.0
 40
0.0
 40
0.0
 40
0.0
 40
0.2797027302494835
 40
0.5456024262037126
 40
0.8070698137647283
 40
1.0
 40
1.0
 40
1.0
 40
1.0
 10
125.7534264164868
 20
141.8429342048773
 30
0.0
 10
125.5276655051887
 20
141.8779778113751
 30
0.0
 10
125.0872847450998
 20
141.9463356594057
 30
0.0
 10
124.4311932825969
 20
142.0198280200812
 30
0.0
 10
123.8446924125423
 20
142.06340183296
 30
0.0
 10
123.4742649169899
 20
142.0689725614587
 30
0.0
 10
123.316987128056
 20
142.0713378066728
 30
0.0
  0
SPLINE
  5
1D1
330
1F
100
AcDbEntity
  8
0
  6
Continuous
 62
     7
370
    25
100
AcDbSpline
210
0.0
220
0.0
230
1.0
 70
     8
 71
     3
 72
    11
 73
     7
 74
     0
 42
0.000000001
 43
0.00000001
 40
0.0
 40
0.0
 40
0.0
 40
0.0
 40
0.2797027302494835
 40
0.5456024262037126
 40
0.8070698137647283
 40
1.0
 40
1.0
 40
1.0
 40
1.0
 10
120.5572741615478
 20
128.307310766221
 30
0.0
 10
120.7830350728459
 20
128.2722671597232
 30
0.0
 10
121.2234158329348
 20
128.2039093116927
 30
0.0
 10
121.8795072954378
 20
128.1304169510171
 30
0.0
 10
122.4660081654923
 20
128.0868431381383
 30
0.0
 10
122.8364356610447
 20
128.0812724096396
 30
0.0
 10
122.9937134499786
 20
128.0789071644256
 30
0.0
  0
SPLINE
  5
1D2
330
1F
100
AcDbEntity
  8
0
  6
Continuous
 62
     7
370
    25
100
AcDbSpline
210
0.0
220
0.0
230
1.0
 70
     8
 71
     3
 72
    10
 73
     6
 74
     0
 42
0.000000001
 43
0.00000001
 40
0.0
 40
0.0
 40
0.0
 40
0.0
 40
0.047135691577777
 40
0.0785594859629615
 40
0.109983280348146
 40
0.109983280348146
 40
0.109983280348146
 40
0.109983280348146
 10
117.3434881105383
 20
139.4052495044714
 30
0.0
 10
117.3022933407013
 20
139.2887331000666
 30
0.0
 10
117.2396329319541
 20
139.0995668851002
 30
0.0
 10
117.1732362855351
 20
138.8795540279316
 30
0.0
 10
117.1553502890173
 20
138.8167798723231
 30
0.0
 10
117.1553502890173
 20
138.8167798723231
 30
0.0
  0
SPLINE
  5
1D3
330
1F
100
AcDbEntity
  8
0
  6
Continuous
 62
     7
370
    25
100
AcDbSpline
210
0.0
220
0.0
230
1.0
 70
     8
 71
     3
 72
     8
 73
     4
 74
     0
 42
0.000000001
 43
0.00000001
 40
0.0
 40
0.0
 40
0.0
 40
0.0
 40
1.0
 40
1.0
 40
1.0
 40
1.0
 10
117.0886836223506
 20
138.5673360465382
 30
0.0
 10
117.1321130248225
 20
138.6427815207991
 30
0.0
 10
117.1553502890173
 20
138.7297274020221
 30
0.0
 10
117.1553502890173
 20
138.8167798723231
 30
0.0
  0
SPLINE
  5
1D4
330
1F
100
AcDbEntity
  8
0
  6
Continuous
 62
     7
370
    25
100
AcDbSpline
210
0.0
220
0.0
230
1.0
 70
     8
 71
     3
 72
    10
 73
     6
 74
     0
 42
0.000000001
 43
0.00000001
 40
0.0
 40
0.0
 40
0.0
 40
0.0
 40
0.0235668908901634
 40
0.0471337817803267
 40
0.109978824154096
 40
0.109978824154096
 40
0.109978824154096
 40
0.109978824154096
 10
129.1553502890173
 20
138.8167798723231
 30
0.0
 10
129.1553502890173
 20
138.8167798723231
 30
0.0
 10
129.1455599592136
 20
138.8510079127321
 30
0.0
 10
129.0901225685547
 20
139.0386122972215
 30
0.0
 10
129.022136601827
 20
139.2499005931273
 30
0.0
 10
128.9672124674963
 20
139.4052495044714
 30
0.0
  0
SPLINE
  5
1D5
330
1F
100
AcDbEntity
  8
0
  6
Continuous
 62
     7
370
    25
100
AcDbSpline
210
0.0
220
0.0
230
1.0
 70
     8
 71
     3
 72
     8
 73
     4
 74
     0
 42
0.000000001
 43
0.00000001
 40
0.0
 40
0.0
 40
0.0
 40
0.0
 40
1.0
 40
1.0
 40
1.0
 40
1.0
 10
129.222016955684
 20
138.5673360465382
 30
0.0
 10
129.1785875532122
 20
138.6427815207991
 30
0.0
 10
129.1553502890173
 20
138.7297274020221
 30
0.0
 10
129.1553502890173
 20
138.8167798723231
 30
0.0
  0
SPLINE
  5
1D6
330
1F
100
AcDbEntity
  8
0
  6
Continuous
 62
     7
370
    25
100
AcDbSpline
210
0.0
220
0.0
230
1.0
 70
     8
 71
     3
 72
    10
 73
     6
 74
     0
 42
0.000000001
 43
0.00000001
 40
0.0
 40
0.0
 40
0.0
 40
0.0
 40
0.0235668908901634
 40
0.0471337817803268
 40
0.109978824154096
 40
0.109978824154096
 40
0.109978824154096
 40
0.109978824154096
 10
117.1553502890173
 20
131.3334650987752
 30
0.0
 10
117.1553502890173
 20
131.3334650987752
 30
0.0
 10
117.165140618821
 20
131.2992370583662
 30
0.0
 10
117.2205780094799
 20
131.1116326738768
 30
0.0
 10
117.2885639762077
 20
130.900344377971
 30
0.0
 10
117.3434881105383
 20
130.744995466627
 30
0.0
  0
SPLINE
  5
1D7
330
1F
100
AcDbEntity
  8
0
  6
Continuous
 62
     7
370
    25
100
AcDbSpline
210
0.0
220
0.0
230
1.0
 70
     8
 71
     3
 72
     8
 73
     4
 74
     0
 42
0.000000001
 43
0.00000001
 40
0.0
 40
0.0
 40
0.0
 40
0.0
 40
1.0
 40
1.0
 40
1.0
 40
1.0
 10
117.0886836223506
 20
131.5829089245602
 30
0.0
 10
117.1321130248225
 20
131.5074634502993
 30
0.0
 10
117.1553502890173
 20
131.4205175690763
 30
0.0
 10
117.1553502890173
 20
131.3334650987752
 30
0.0
  0
SPLINE
  5
1D8
330
1F
100
AcDbEntity
  8
0
  6
Continuous
 62
     7
370
    25
100
AcDbSpline
210
0.0
220
0.0
230
1.0
 70
     8
 71
     3
 72
    10
 73
     6
 74
     0
 42
0.000000001
 43
0.00000001
 40
0.0
 40
0.0
 40
0.0
 40
0.0
 40
0.0471356915777762
 40
0.0785594859629606
 40
0.109983280348145
 40
0.109983280348145
 40
0.109983280348145
 40
0.109983280348145
 10
128.9672124674963
 20
130.744995466627
 30
0.0
 10
129.0084072373333
 20
130.8615118710318
 30
0.0
 10
129.0710676460805
 20
131.0506780859981
 30
0.0
 10
129.1374642924996
 20
131.2706909431667
 30
0.0
 10
129.1553502890173
 20
131.3334650987752
 30
0.0
 10
129.1553502890173
 20
131.3334650987752
 30
0.0
  0
SPLINE
  5
1D9
330
1F
100
AcDbEntity
  8
0
  6
Continuous
 62
     7
370
    25
100
AcDbSpline
210
0.0
220
0.0
230
1.0
 70
     8
 71
     3
 72
     8
 73
     4
 74
     0
 42
0.000000001
 43
0.00000001
 40
0.0
 40
0.0
 40
0.0
 40
0.0
 40
1.0
 40
1.0
 40
1.0
 40
1.0
 10
129.222016955684
 20
131.5829089245602
 30
0.0
 10
129.1785875532122
 20
131.5074634502993
 30
0.0
 10
129.1553502890173
 20
131.4205175690763
 30
0.0
 10
129.1553502890173
 20
131.3334650987752
 30
0.0
  0
SPLINE
  5
1DA
330
1F
100
AcDbEntity
  8
0
  6
Continuous
 62
     7
370
    25
100
AcDbSpline
210
0.0
220
0.0
230
1.0
 70
     8
 71
     3
 72
    22
 73
    18
 74
     0
 42
0.000000001
 43
0.00000001
 40
0.0
 40
0.0
 40
0.0
 40
0.0
 40
0.038005392991836
 40
0.0753742647686151
 40
0.1121354056302434
 40
0.1483190565711081
 40
0.1839569287292916
 40
0.2190822114657171
 40
0.2537295672330642
 40
0.3781984086525479
 40
0.500020438091616
 40
0.6218365155722344
 40
0.7463113107007004
 40
0.8072426289301083
 40
0.8697188752907671
 40
0.9339169686632323
 40
1.0
 40
1.0
 40
1.0
 40
1.0
 10
129.8017968984265
 20
138.3183379707658
 30
0.0
 10
129.8407158131486
 20
138.2471616349284
 30
0.0
 10
129.9179018215502
 20
138.1060010374359
 30
0.0
 10
130.024594828765
 20
137.8880290506494
 30
0.0
 10
130.1232982260921
 20
137.6681617258076
 30
0.0
 10
130.2134619558153
 20
137.4461176778015
 30
0.0
 10
130.2952282998756
 20
137.2223448575175
 30
0.0
 10
130.3685609211381
 20
136.9970696464967
 30
0.0
 10
130.489800338033
 20
136.5741300853115
 30
0.0
 10
130.6172071572431
 20
135.9369236473843
 30
0.0
 10
130.6742148662829
 20
135.0751478704645
 30
0.0
 10
130.6172135111878
 20
134.2132889547883
 30
0.0
 10
130.4778703184352
 20
133.5166420541205
 30
0.0
 10
130.3161997529391
 20
132.9802698261975
 30
0.0
 10
130.1706794432216
 20
132.5888879895414
 30
0.0
 10
130.0006278549542
 20
132.2021079438075
 30
0.0
 10
129.8687100896891
 20
131.9564918585985
 30
0.0
 10
129.801796898424
 20
131.8319070003398
 30
0.0
  0
SPLINE
  5
1DB
330
1F
100
AcDbEntity
  8
0
  6
Continuous
 62
     7
370
    25
100
AcDbSpline
210
0.0
220
0.0
230
1.0
 70
     8
 71
     3
 72
     9
 73
     5
 74
     0
 42
0.000000001
 43
0.00000001
 40
0.0
 40
0.0
 40
0.0
 40
0.0
 40
0.5
 40
1.0
 40
1.0
 40
1.0
 40
1.0
 10
129.3587004577936
 20
131.8319070003335
 30
0.0
 10
129.3806846055429
 20
131.8739564316069
 30
0.0
 10
129.4949549970148
 20
131.9210929336705
 30
0.0
 10
129.6993841304405
 20
131.8739564316069
 30
0.0
 10
129.8017968984205
 20
131.8319070003335
 30
0.0
  0
SPLINE
  5
1DC
330
1F
100
AcDbEntity
  8
0
  6
Continuous
 62
     7
370
    25
100
AcDbSpline
210
0.0
220
0.0
230
1.0
 70
     8
 71
     3
 72
     9
 73
     5
 74
     0
 42
0.000000001
 43
0.00000001
 40
0.0
 40
0.0
 40
0.0
 40
0.0
 40
0.5
 40
1.0
 40
1.0
 40
1.0
 40
1.0
 10
129.8017968974478
 20
138.3183379725014
 30
0.0
 10
129.6993841294952
 20
138.2762885412229
 30
0.0
 10
129.4949549961242
 20
138.2291520391555
 30
0.0
 10
129.3806846046526
 20
138.2762885412229
 30
0.0
 10
129.3587004568857
 20
138.3183379725014
 30
0.0
  0
SPLINE
  5
1DD
330
1F
100
AcDbEntity
  8
0
  6
Continuous
 62
     7
370
    25
100
AcDbSpline
210
0.0
220
0.0
230
1.0
 70
     8
 71
     3
 72
    22
 73
    18
 74
     0
 42
0.000000001
 43
0.00000001
 40
0.0
 40
0.0
 40
0.0
 40
0.0
 40
0.0380053929891042
 40
0.0753742647640666
 40
0.1121354056247924
 40
0.1483190565656652
 40
0.1839569287247627
 40
0.2190822114630004
 40
0.2537295672330463
 40
0.3781984086454866
 40
0.5000204380916337
 40
0.6218365155675609
 40
0.7463113107006846
 40
0.8072426289280421
 40
0.8697188752880084
 40
0.9339169686611593
 40
1.0
 40
1.0
 40
1.0
 40
1.0
 10
116.5089036796106
 20
131.8319070003398
 30
0.0
 10
116.4699847648913
 20
131.903083336172
 30
0.0
 10
116.3927987564944
 20
132.0442439336559
 30
0.0
 10
116.2861057492853
 20
132.2622159204317
 30
0.0
 10
116.1874023519611
 20
132.4820832452677
 30
0.0
 10
116.0972386222378
 20
132.7041272932734
 30
0.0
 10
116.0154722781746
 20
132.9279001135624
 30
0.0
 10
115.9421396569068
 20
133.153175324594
 30
0.0
 10
115.820900240005
 20
133.5761148857712
 30
0.0
 10
115.6934934207926
 20
134.2133213237036
 30
0.0
 10
115.636485711753
 20
135.0750971006122
 30
0.0
 10
115.6934870668452
 20
135.9369560163042
 30
0.0
 10
115.8328302595971
 20
136.6336029169672
 30
0.0
 10
115.9945008250891
 20
137.1699751448955
 30
0.0
 10
116.1400211348049
 20
137.5613569815473
 30
0.0
 10
116.3100727230744
 20
137.9481370272852
 30
0.0
 10
116.4419904883423
 20
138.1937531124992
 30
0.0
 10
116.5089036796095
 20
138.3183379707617
 30
0.0
  0
SPLINE
  5
1DE
330
1F
100
AcDbEntity
  8
0
  6
Continuous
 62
     7
370
    25
100
AcDbSpline
210
0.0
220
0.0
230
1.0
 70
     8
 71
     3
 72
     9
 73
     5
 74
     0
 42
0.000000001
 43
0.00000001
 40
0.0
 40
0.0
 40
0.0
 40
0.0
 40
0.5
 40
1.0
 40
1.0
 40
1.0
 40
1.0
 10
116.952000120241
 20
138.3183379707648
 30
0.0
 10
116.9300159724918
 20
138.2762885394914
 30
0.0
 10
116.8157455810198
 20
138.2291520374278
 30
0.0
 10
116.6113164475941
 20
138.2762885394914
 30
0.0
 10
116.5089036796141
 20
138.3183379707648
 30
0.0
  0
SPLINE
  5
1DF
330
1F
100
AcDbEntity
  8
0
  6
Continuous
 62
     7
370
    25
100
AcDbSpline
210
0.0
220
0.0
230
1.0
 70
     8
 71
     3
 72
     9
 73
     5
 74
     0
 42
0.000000001
 43
0.00000001
 40
0.0
 40
0.0
 40
0.0
 40
0.0
 40
0.5
 40
1.0
 40
1.0
 40
1.0
 40
1.0
 10
116.5089036796106
 20
131.8319070003398
 30
0.0
 10
116.6113164475907
 20
131.8739564316132
 30
0.0
 10
116.8157455810166
 20
131.9210929336767
 30
0.0
 10
116.9300159724886
 20
131.8739564316132
 30
0.0
 10
116.9520001202377
 20
131.8319070003398
 30
0.0
  0
LINE
  5
1E0
330
1F
100
AcDbEntity
  8
0
  6
Continuous
 62
     7
370
    25
100
AcDbLine
 10
117.6553503188
 20
140.1741419869
 30
0.0
 11
117.6553503188
 21
141.5751226197
 31
0.0
  0
LINE
  5
1E1
330
1F
100
AcDbEntity
  8
0
  6
Continuous
 62
     7
370
    25
100
AcDbLine
 10
117.1553502369
 20
141.5751226197
 30
0.0
 11
117.1553502369
 21
138.8167798469
 31
0.0
  0
SPLINE
  5
1E2
330
1F
100
AcDbEntity
  8
0
  6
Continuous
 62
     7
370
    25
100
AcDbSpline
210
0.0
220
0.0
230
1.0
 70
     8
 71
     3
 72
    13
 73
     9
 74
     0
 42
0.000000001
 43
0.00000001
 40
0.0
 40
0.0
 40
0.0
 40
0.0
 40
0.1162222328492899
 40
0.2381780342383815
 40
0.3660918025215373
 40
0.500158020507199
 40
0.7504239415057028
 40
1.0
 40
1.0
 40
1.0
 40
1.0
 10
117.2903335042183
 20
141.9401392703481
 30
0.0
 10
117.2793493808969
 20
141.9283018111351
 30
0.0
 10
117.2568392566601
 20
141.9040429176635
 30
0.0
 10
117.2287281289395
 20
141.8637567580703
 30
0.0
 10
117.2042041330383
 20
141.8195995673088
 30
0.0
 10
117.1788305494183
 20
141.7581852924863
 30
0.0
 10
117.1589708722284
 20
141.6781544912061
 30
0.0
 10
117.1565560391347
 20
141.6094348727179
 30
0.0
 10
117.1553502890173
 20
141.5751224855492
 30
0.0
  0
LWPOLYLINE
  5
1E3
330
1F
100
AcDbEntity
  8
0
  6
Continuous
 62
     7
370
    25
100
AcDbPolyline
 90
        5
 70
   128
 43
0.0
 10
117.6553503188
 20
141.5751226197
 10
117.5537658433
 20
141.6767066295
 10
117.4564193512
 20
141.7740535873
 10
117.3673700119
 20
141.8631024609
 10
117.2903333369
 20
141.940139136
  0
LINE
  5
1E4
330
1F
100
AcDbEntity
  8
0
  6
Continuous
 62
     7
370
    25
100
AcDbLine
 10
119.4136929276
 20
141.5751226197
 30
0.0
 11
117.6553503188
 21
141.5751226197
 31
0.0
  0
LINE
  5
1E5
330
1F
100
AcDbEntity
  8
0
  6
Continuous
 62
     7
370
    25
100
AcDbLine
 10
128.6553502592
 20
140.1741419869
 30
0.0
 11
128.6553502592
 21
141.5751226197
 31
0.0
  0
LWPOLYLINE
  5
1E6
330
1F
100
AcDbEntity
  8
0
  6
Continuous
 62
     7
370
    25
100
AcDbPolyline
 90
        5
 70
   128
 43
0.0
 10
129.0203672412
 20
141.940139136
 10
128.9433305661
 20
141.8631024609
 10
128.8542812268
 20
141.7740535873
 10
128.7569347347
 20
141.6767066295
 10
128.6553502592
 20
141.5751226197
  0
SPLINE
  5
1E7
330
1F
100
AcDbEntity
  8
0
  6
Continuous
 62
     7
370
    25
100
AcDbSpline
210
0.0
220
0.0
230
1.0
 70
     8
 71
     3
 72
    12
 73
     8
 74
     0
 42
0.000000001
 43
0.00000001
 40
0.0
 40
0.0
 40
0.0
 40
0.0
 40
0.1664615747826677
 40
0.3330490629245378
 40
0.50019385964186
 40
0.761981166969512
 40
1.0
 40
1.0
 40
1.0
 40
1.0
 10
129.1553502890173
 20
141.5751224855492
 30
0.0
 10
129.154807910679
 20
141.5981161604492
 30
0.0
 10
129.1537227437415
 20
141.6441209029168
 30
0.0
 10
129.143939598545
 20
141.7096638657137
 30
0.0
 10
129.123259525964
 20
141.7840300611474
 30
0.0
 10
129.0869582528697
 20
141.8633016170131
 30
0.0
 10
129.0418490719868
 20
141.9153518082275
 30
0.0
 10
129.0203670738164
 20
141.9401392703483
 30
0.0
  0
LINE
  5
1E8
330
1F
100
AcDbEntity
  8
0
  6
Continuous
 62
     7
370
    25
100
AcDbLine
 10
129.1553503412
 20
138.8167798469
 30
0.0
 11
129.1553503412
 21
141.5751226197
 31
0.0
  0
LINE
  5
1E9
330
1F
100
AcDbEntity
  8
0
  6
Continuous
 62
     7
370
    25
100
AcDbLine
 10
128.6553502592
 20
141.5751226197
 30
0.0
 11
126.8970076504
 21
141.5751226197
 31
0.0
  0
LINE
  5
1EA
330
1F
100
AcDbEntity
  8
0
  6
Continuous
 62
     7
370
    25
100
AcDbLine
 10
128.6553502592
 20
128.5751223514
 30
0.0
 11
128.6553502592
 21
129.9761029842
 31
0.0
  0
LINE
  5
1EB
330
1F
100
AcDbEntity
  8
0
  6
Continuous
 62
     7
370
    25
100
AcDbLine
 10
129.1553503412
 20
128.5751223514
 30
0.0
 11
129.1553503412
 21
131.3334651242
 31
0.0
  0
SPLINE
  5
1EC
330
1F
100
AcDbEntity
  8
0
  6
Continuous
 62
     7
370
    25
100
AcDbSpline
210
0.0
220
0.0
230
1.0
 70
     8
 71
     3
 72
    13
 73
     9
 74
     0
 42
0.000000001
 43
0.00000001
 40
0.0
 40
0.0
 40
0.0
 40
0.0
 40
0.1162222239500744
 40
0.2381780213579675
 40
0.3660917905452749
 40
0.5001580142688472
 40
0.7504239388829979
 40
1.0
 40
1.0
 40
1.0
 40
1.0
 10
129.0203670738163
 20
128.2101057007502
 30
0.0
 10
129.0313511963114
 20
128.2219431590809
 30
0.0
 10
129.0538613193612
 20
128.24620205129
 30
0.0
 10
129.081972446526
 20
128.2864882096475
 30
0.0
 10
129.1064964431242
 20
128.3306454005937
 30
0.0
 10
129.131870027988
 20
128.3920596758877
 30
0.0
 10
129.1517297058605
 20
128.4720904778991
 30
0.0
 10
129.1541445389196
 20
128.5408100977618
 30
0.0
 10
129.1553502890173
 20
128.5751224855492
 30
0.0
  0
LWPOLYLINE
  5
1ED
330
1F
100
AcDbEntity
  8
0
  6
Continuous
 62
     7
370
    25
100
AcDbPolyline
 90
        5
 70
   128
 43
0.0
 10
128.6553502592
 20
128.5751223514
 10
128.7569347347
 20
128.4735383416
 10
128.8542812268
 20
128.3761913838
 10
128.9433305661
 20
128.2871425102
 10
129.0203672412
 20
128.2101058351
  0
LINE
  5
1EE
330
1F
100
AcDbEntity
  8
0
  6
Continuous
 62
     7
370
    25
100
AcDbLine
 10
128.6553502592
 20
128.5751223514
 30
0.0
 11
126.8970076504
 21
128.5751223514
 31
0.0
  0
LINE
  5
1EF
330
1F
100
AcDbEntity
  8
0
  6
Continuous
 62
     7
370
    25
100
AcDbLine
 10
117.6553503188
 20
128.5751223514
 30
0.0
 11
117.6553503188
 21
129.9761029842
 31
0.0
  0
LWPOLYLINE
  5
1F0
330
1F
100
AcDbEntity
  8
0
  6
Continuous
 62
     7
370
    25
100
AcDbPolyline
 90
        5
 70
   128
 43
0.0
 10
117.2903333369
 20
128.2101058351
 10
117.3673700119
 20
128.2871425102
 10
117.4564193512
 20
128.3761913838
 10
117.5537658433
 20
128.4735383416
 10
117.6553503188
 20
128.5751223514
  0
SPLINE
  5
1F1
330
1F
100
AcDbEntity
  8
0
  6
Continuous
 62
     7
370
    25
100
AcDbSpline
210
0.0
220
0.0
230
1.0
 70
     8
 71
     3
 72
    12
 73
     8
 74
     0
 42
0.000000001
 43
0.00000001
 40
0.0
 40
0.0
 40
0.0
 40
0.0
 40
0.1664615763807151
 40
0.3330490665505926
 40
0.500193865880855
 40
0.7619811797519991
 40
1.0
 40
1.0
 40
1.0
 40
1.0
 10
117.1553502890173
 20
128.5751224855492
 30
0.0
 10
117.1558926673491
 20
128.5521288102466
 30
0.0
 10
117.1569778342751
 20
128.5061240669142
 30
0.0
 10
117.1667609795876
 20
128.4405811033158
 30
0.0
 10
117.1874410530161
 20
128.366214907375
 30
0.0
 10
117.2237423268159
 20
128.2869433524716
 30
0.0
 10
117.2688515071803
 20
128.2348931616582
 30
0.0
 10
117.2903335042183
 20
128.2101057007502
 30
0.0
  0
LINE
  5
1F2
330
1F
100
AcDbEntity
  8
0
  6
Continuous
 62
     7
370
    25
100
AcDbLine
 10
117.1553502369
 20
131.3334651242
 30
0.0
 11
117.1553502369
 21
128.5751223514
 31
0.0
  0
LINE
  5
1F3
330
1F
100
AcDbEntity
  8
0
  6
Continuous
 62
     7
370
    25
100
AcDbLine
 10
119.4136929276
 20
128.5751223514
 30
0.0
 11
117.6553503188
 21
128.5751223514
 31
0.0
  0
SPLINE
  5
1F4
330
1F
100
AcDbEntity
  8
0
  6
Continuous
 62
     7
370
    25
100
AcDbSpline
210
0.0
220
0.0
230
1.0
 70
    24
 71
     3
 72
    10
 73
     6
 74
     0
 42
0.000000001
 43
0.00000001
 40
0.0
 40
0.0
 40
0.0
 40
0.0
 40
0.5
 40
0.5
 40
1.0
 40
1.0
 40
1.0
 40
1.0
 10
120.5572740776729
 20
141.8429343054196
 30
0.0
 10
120.5572740776729
 20
141.9136962852214
 30
0.0
 10
120.5572740776729
 20
141.972869052192
 30
0.0
 10
120.5572740776729
 20
142.0536246392309
 30
0.0
 10
120.5572740776729
 20
142.0751224855492
 30
0.0
 10
120.5572740776729
 20
142.0751224855492
 30
0.0
  0
SPLINE
  5
1F5
330
1F
100
AcDbEntity
  8
0
  6
Continuous
 62
     7
370
    25
100
AcDbSpline
210
0.0
220
0.0
230
1.0
 70
     8
 71
     3
 72
    13
 73
     9
 74
     0
 42
0.000000001
 43
0.00000001
 40
0.0
 40
0.0
 40
0.0
 40
0.0
 40
0.1206933490086504
 40
0.2506350407931719
 40
0.4049364355086124
 40
0.5013752757898843
 40
0.7702865166460683
 40
0.9999999999999999
 40
0.9999999999999999
 40
0.9999999999999999
 40
0.9999999999999999
 10
117.6553042209721
 20
142.0751224855492
 30
0.0
 10
117.6403266666364
 20
142.0747347705558
 30
0.0
 10
117.6092238761949
 20
142.0739296312173
 30
0.0
 10
117.558139035094
 20
142.0669796157437
 30
0.0
 10
117.5099497970496
 20
142.0561893004132
 30
0.0
 10
117.4447867870324
 20
142.0355695092656
 30
0.0
 10
117.371862411111
 20
142.0030618221265
 30
0.0
 10
117.3160472303443
 20
141.9599846641507
 30
0.0
 10
117.2903335042183
 20
141.9401392703481
 30
0.0
  0
LINE
  5
1F6
330
1F
100
AcDbEntity
  8
0
  6
Continuous
 62
     7
370
    25
100
AcDbLine
 10
117.6553042184
 20
142.0751227016
 30
0.0
 11
120.5572741615
 21
142.0751227016
 31
0.0
  0
SPLINE
  5
1F7
330
1F
100
AcDbEntity
  8
0
  6
Continuous
 62
     7
370
    25
100
AcDbSpline
210
0.0
220
0.0
230
1.0
 70
    24
 71
     3
 72
    10
 73
     6
 74
     0
 42
0.000000001
 43
0.00000001
 40
0.0
 40
0.0
 40
0.0
 40
0.0
 40
0.5
 40
0.5
 40
1.0
 40
1.0
 40
1.0
 40
1.0
 10
125.7534265003706
 20
142.0751224855492
 30
0.0
 10
125.7534265003706
 20
142.0751224855492
 30
0.0
 10
125.7534265003706
 20
142.0536246392309
 30
0.0
 10
125.7534265003706
 20
141.972869052192
 30
0.0
 10
125.7534265003706
 20
141.9136962852214
 30
0.0
 10
125.7534265003706
 20
141.8429343054196
 30
0.0
  0
SPLINE
  5
1F8
330
1F
100
AcDbEntity
  8
0
  6
Continuous
 62
     7
370
    25
100
AcDbSpline
210
0.0
220
0.0
230
1.0
 70
     8
 71
     3
 72
    14
 73
    10
 74
     0
 42
0.000000001
 43
0.00000001
 40
0.0
 40
0.0
 40
0.0
 40
0.0
 40
0.1488603140964728
 40
0.3150272284381161
 40
0.4987644934539461
 40
0.5951852670853452
 40
0.7494348315821825
 40
0.8793203117440467
 40
1.0
 40
1.0
 40
1.0
 40
1.0
 10
129.0203670738164
 20
141.9401392703483
 30
0.0
 10
129.0038886960745
 20
141.9533826274146
 30
0.0
 10
128.9690161533104
 20
141.9814090231476
 30
0.0
 10
128.9098657999063
 20
142.0154785762702
 30
0.0
 10
128.8552892817018
 20
142.0390324656231
 30
0.0
 10
128.8007331402549
 20
142.0561615375522
 30
0.0
 10
128.7525673584039
 20
142.0669865780544
 30
0.0
 10
128.7014781404374
 20
142.0739278130031
 30
0.0
 10
128.6703760534862
 20
142.0747341361678
 30
0.0
 10
128.6553963570619
 20
142.0751224855492
 30
0.0
  0
LINE
  5
1F9
330
1F
100
AcDbEntity
  8
0
  6
Continuous
 62
     7
370
    25
100
AcDbLine
 10
125.7534264165
 20
142.0751227016
 30
0.0
 11
128.6553963597
 21
142.0751227016
 31
0.0
  0
SPLINE
  5
1FA
330
1F
100
AcDbEntity
  8
0
  6
Continuous
 62
     7
370
    25
100
AcDbSpline
210
0.0
220
0.0
230
1.0
 70
    24
 71
     3
 72
    10
 73
     6
 74
     0
 42
0.000000001
 43
0.00000001
 40
0.0
 40
0.0
 40
0.0
 40
0.0
 40
0.5
 40
0.5
 40
1.0
 40
1.0
 40
1.0
 40
1.0
 10
120.557274077664
 20
128.0751224855492
 30
0.0
 10
120.557274077664
 20
128.0751224855492
 30
0.0
 10
120.557274077664
 20
128.0966203318675
 30
0.0
 10
120.557274077664
 20
128.1773759189063
 30
0.0
 10
120.557274077664
 20
128.2365486858769
 30
0.0
 10
120.557274077664
 20
128.3073106656788
 30
0.0
  0
SPLINE
  5
1FB
330
1F
100
AcDbEntity
  8
0
  6
Continuous
 62
     7
370
    25
100
AcDbSpline
210
0.0
220
0.0
230
1.0
 70
     8
 71
     3
 72
    14
 73
    10
 74
     0
 42
0.000000001
 43
0.00000001
 40
0.0
 40
0.0
 40
0.0
 40
0.0
 40
0.1488603597576148
 40
0.3150273328471772
 40
0.4987646698883385
 40
0.5951853465608922
 40
0.7494349165377944
 40
0.8793203508289453
 40
1.0
 40
1.0
 40
1.0
 40
1.0
 10
117.2903335042183
 20
128.2101057007502
 30
0.0
 10
117.3068118871327
 20
128.196862339849
 30
0.0
 10
117.3416844417038
 20
128.1688359353082
 30
0.0
 10
117.400834817434
 20
128.134766374096
 30
0.0
 10
117.4554113408846
 20
128.111212488698
 30
0.0
 10
117.5099674810835
 20
128.0940834226273
 30
0.0
 10
117.5581332454749
 20
128.083258388625
 30
0.0
 10
117.6092224530601
 20
128.0763171573076
 30
0.0
 10
117.6403245294211
 20
128.0755108346785
 30
0.0
 10
117.6553042209721
 20
128.0751224855492
 30
0.0
  0
LINE
  5
1FC
330
1F
100
AcDbEntity
  8
0
  6
Continuous
 62
     7
370
    25
100
AcDbLine
 10
117.6553042184
 20
128.0751222695
 30
0.0
 11
120.5572741615
 21
128.0751222695
 31
0.0
  0
SPLINE
  5
1FD
330
1F
100
AcDbEntity
  8
0
  6
Continuous
 62
     7
370
    25
100
AcDbSpline
210
0.0
220
0.0
230
1.0
 70
    24
 71
     3
 72
    10
 73
     6
 74
     0
 42
0.000000001
 43
0.00000001
 40
0.0
 40
0.0
 40
0.0
 40
0.0
 40
0.5
 40
0.5
 40
1.0
 40
1.0
 40
1.0
 40
1.0
 10
125.7534265003617
 20
128.3073106656788
 30
0.0
 10
125.7534265003617
 20
128.2365486858769
 30
0.0
 10
125.7534265003617
 20
128.1773759189063
 30
0.0
 10
125.7534265003617
 20
128.0966203318675
 30
0.0
 10
125.7534265003617
 20
128.0751224855492
 30
0.0
 10
125.7534265003617
 20
128.0751224855492
 30
0.0
  0
SPLINE
  5
1FE
330
1F
100
AcDbEntity
  8
0
  6
Continuous
 62
     7
370
    25
100
AcDbSpline
210
0.0
220
0.0
230
1.0
 70
     8
 71
     3
 72
    13
 73
     9
 74
     0
 42
0.000000001
 43
0.00000001
 40
0.0
 40
0.0
 40
0.0
 40
0.0
 40
0.1206933106363776
 40
0.2506349558809258
 40
0.4049363551860728
 40
0.501375099440844
 40
0.7702864432344702
 40
1.0
 40
1.0
 40
1.0
 40
1.0
 10
128.6553963570626
 20
128.0751224855492
 30
0.0
 10
128.6703739066103
 20
128.0755102002951
 30
0.0
 10
128.7014766864604
 20
128.0763153391028
 30
0.0
 10
128.7525615170663
 20
128.0832653509362
 30
0.0
 10
128.8007507375674
 20
128.0940556597457
 30
0.0
 10
128.8659137504641
 20
128.1146754451447
 30
0.0
 10
128.9388381380361
 20
128.1471831291588
 30
0.0
 10
128.9946533391795
 20
128.190260301162
 30
0.0
 10
129.0203670738163
 20
128.2101057007502
 30
0.0
  0
LINE
  5
1FF
330
1F
100
AcDbEntity
  8
0
  6
Continuous
 62
     7
370
    25
100
AcDbLine
 10
125.7534264165
 20
128.0751222695
 30
0.0
 11
128.6553963597
 21
128.0751222695
 31
0.0
  0
SPLINE
  5
200
330
1F
100
AcDbEntity
  8
0
  6
Continuous
 62
     7
370
    25
100
AcDbSpline
210
0.0
220
0.0
230
1.0
 70
    24
 71
     3
 72
    14
 73
    10
 74
     0
 42
0.000000001
 43
0.00000001
 40
0.0
 40
0.0
 40
0.0
 40
0.0
 40
0.2503841006840345
 40
0.3856977520239709
 40
0.5014304172375459
 40
0.6388330237075766
 40
0.767498519821732
 40
0.8877539750359934
 40
1.0
 40
1.0
 40
1.0
 40
1.0
 10
123.1553502890173
 20
142.0751224855492
 30
0.0
 10
123.3687836675809
 20
142.0751224855492
 30
0.0
 10
123.697561629496
 20
142.0751224855492
 30
0.0
 10
124.1266910917926
 20
142.0751224855492
 30
0.0
 10
124.4609900103982
 20
142.0751224855492
 30
0.0
 10
124.792231501846
 20
142.0751224855492
 30
0.0
 10
125.1302380538496
 20
142.0751224855492
 30
0.0
 10
125.4483943177147
 20
142.0751224855492
 30
0.0
 10
125.6541113509395
 20
142.0751224855492
 30
0.0
 10
125.7534265003706
 20
142.0751224855492
 30
0.0
  0
SPLINE
  5
201
330
1F
100
AcDbEntity
  8
0
  6
Continuous
 62
     7
370
    25
100
AcDbSpline
210
0.0
220
0.0
230
1.0
 70
    24
 71
     3
 72
    16
 73
    12
 74
     0
 42
0.000000001
 43
0.00000001
 40
0.0
 40
0.0
 40
0.0
 40
0.0
 40
0.0740422904960615
 40
0.1515489802102759
 40
0.232650602936458
 40
0.3174610949583576
 40
0.406080088379551
 40
0.4985949116393214
 40
0.6144269189413111
 40
0.7496266544111689
 40
1.0
 40
1.0
 40
1.0
 40
1.0
 10
120.557274077664
 20
142.0751224855492
 30
0.0
 10
120.6227869735654
 20
142.0751224855492
 30
0.0
 10
120.7568780787696
 20
142.0751224855492
 30
0.0
 10
120.9623107905293
 20
142.0751224855492
 30
0.0
 10
121.1765166664472
 20
142.0751224855492
 30
0.0
 10
121.3994975502984
 20
142.0751224855492
 30
0.0
 10
121.6312609464826
 20
142.0751224855492
 30
0.0
 10
121.888558546618
 20
142.0751224855492
 30
0.0
 10
122.1842616396204
 20
142.0751224855492
 30
0.0
 10
122.6133921561084
 20
142.0751224855492
 30
0.0
 10
122.9419803175548
 20
142.0751224855492
 30
0.0
 10
123.1553502890173
 20
142.0751224855492
 30
0.0
  0
SPLINE
  5
202
330
1F
100
AcDbEntity
  8
0
  6
Continuous
 62
     7
370
    25
100
AcDbSpline
210
0.0
220
0.0
230
1.0
 70
    24
 71
     3
 72
    10
 73
     6
 74
     0
 42
0.000000001
 43
0.00000001
 40
-0.796694357225795
 40
-0.796694357225795
 40
-0.796694357225795
 40
-0.796694357225795
 40
-0.533073702210409
 40
-0.533073702210409
 40
-0.532116113157305
 40
-0.532116113157305
 40
-0.532116113157305
 40
-0.532116113157305
 10
120.557274077664
 20
128.0751224855492
 30
0.0
 10
121.4360095943804
 20
128.0751224855492
 30
0.0
 10
122.2982975303153
 20
128.0751224855495
 30
0.0
 10
123.1492013306753
 20
128.0751224855492
 30
0.0
 10
123.1522744360153
 20
128.0751224855492
 30
0.0
 10
123.1553502890173
 20
128.0751224855492
 30
0.0
  0
SPLINE
  5
203
330
1F
100
AcDbEntity
  8
0
  6
Continuous
 62
     7
370
    25
100
AcDbSpline
210
0.0
220
0.0
230
1.0
 70
    24
 71
     3
 72
    10
 73
     6
 74
     0
 42
0.000000001
 43
0.00000001
 40
-0.263620655015386
 40
-0.263620655015386
 40
-0.263620655015386
 40
-0.263620655015386
 40
-0.2626630659468851
 40
-0.2626630659468851
 40
0.0009575890685009
 40
0.0009575890685009
 40
0.0009575890685009
 40
0.0009575890685009
 10
123.1553502890173
 20
128.0751224855492
 30
0.0
 10
123.1584261420688
 20
128.0751224855492
 30
0.0
 10
123.1615001403742
 20
128.0751224855492
 30
0.0
 10
124.0120525058829
 20
128.075122485549
 30
0.0
 10
124.8746909836527
 20
128.0751224855492
 30
0.0
 10
125.7534265003706
 20
128.0751224855492
 30
0.0
  0
SPLINE
  5
204
330
1F
100
AcDbEntity
  8
0
  6
Continuous
 62
     7
370
    25
100
AcDbSpline
210
0.0
220
0.0
230
1.0
 70
    24
 71
     3
 72
    10
 73
     6
 74
     0
 42
0.000000001
 43
0.00000001
 40
0.0
 40
0.0
 40
0.0
 40
0.0
 40
0.5
 40
0.5
 40
1.0
 40
1.0
 40
1.0
 40
1.0
 10
117.1553502890173
 20
141.5751224855492
 30
0.0
 10
117.1553502939326
 20
141.5751224855492
 30
0.0
 10
117.0475771970525
 20
141.5751224855492
 30
0.0
 10
116.6773369433552
 20
141.5751224855492
 30
0.0
 10
116.4171496642997
 20
141.5751224855492
 30
0.0
 10
116.1553502702422
 20
141.5751224855492
 30
0.0
  0
SPLINE
  5
205
330
1F
100
AcDbEntity
  8
0
  6
Continuous
 62
     7
370
    25
100
AcDbSpline
210
0.0
220
0.0
230
1.0
 70
     8
 71
     3
 72
    12
 73
     8
 74
     0
 42
0.000000001
 43
0.00000001
 40
0.0
 40
0.0
 40
0.0
 40
0.0
 40
0.1664616487437876
 40
0.3330491329443992
 40
0.500193847829015
 40
0.7619811613088653
 40
1.0
 40
1.0
 40
1.0
 40
1.0
 10
116.1553502702439
 20
141.5751224855492
 30
0.0
 10
116.1373764464428
 20
141.5981161705445
 30
0.0
 10
116.1014152116608
 20
141.6441209224418
 30
0.0
 10
116.0436982833787
 20
141.7096638864499
 30
0.0
 10
115.9734135740521
 20
141.7840300721646
 30
0.0
 10
115.894070819304
 20
141.8633016167931
 30
0.0
 10
115.839589747284
 20
141.9153518081539
 30
0.0
 10
115.8136446454949
 20
141.9401392703481
 30
0.0
  0
SPLINE
  5
206
330
1F
100
AcDbEntity
  8
0
  6
Continuous
 62
     7
370
    25
100
AcDbSpline
210
0.0
220
0.0
230
1.0
 70
     8
 71
     3
 72
    14
 73
    10
 74
     0
 42
0.000000001
 43
0.00000001
 40
0.0
 40
0.0
 40
0.0
 40
0.0
 40
0.1488603139315083
 40
0.3150272282737267
 40
0.4987644934547347
 40
0.5951852632716568
 40
0.749434831581739
 40
0.879320313901446
 40
1.0
 40
1.0
 40
1.0
 40
1.0
 10
115.8136446454949
 20
141.9401392703481
 30
0.0
 10
115.8288553981371
 20
141.9533826274
 30
0.0
 10
115.8610453157736
 20
141.9814090231189
 30
0.0
 10
115.9156693263903
 20
142.0154785762462
 30
0.0
 10
115.9663749830146
 20
142.0390324654208
 30
0.0
 10
116.0163916245066
 20
142.0561615374179
 30
0.0
 10
116.0610653356865
 20
142.0669865780532
 30
0.0
 10
116.1096426075893
 20
142.0739278130293
 30
0.0
 10
116.1404922012084
 20
142.074734136181
 30
0.0
 10
116.1553502890173
 20
142.0751224855492
 30
0.0
  0
SPLINE
  5
207
330
1F
100
AcDbEntity
  8
0
  6
Continuous
 62
     7
370
    25
100
AcDbSpline
210
0.0
220
0.0
230
1.0
 70
    24
 71
     3
 72
    13
 73
     9
 74
     0
 42
0.000000001
 43
0.00000001
 40
0.0
 40
0.0
 40
0.0
 40
0.0
 40
0.1847371487918729
 40
0.3690894761192522
 40
0.5535890758358414
 40
0.7381972723018706
 40
0.9224589043912812
 40
0.9999999999999999
 40
0.9999999999999999
 40
0.9999999999999999
 40
0.9999999999999999
 10
116.1553500729505
 20
142.075122701616
 30
0.0
 10
116.2536661839003
 20
142.075122701616
 30
0.0
 10
116.4500936058989
 20
142.075122701616
 30
0.0
 10
116.7329018486468
 20
142.075122701616
 30
0.0
 10
116.9948268471264
 20
142.075122701616
 30
0.0
 10
117.2206358392499
 20
142.075122701616
 30
0.0
 10
117.3797674425516
 20
142.075122701616
 30
0.0
 10
117.442179496369
 20
142.075122701616
 30
0.0
 10
117.4606647851769
 20
142.075122701616
 30
0.0
  0
SPLINE
  5
208
330
1F
100
AcDbEntity
  8
0
  6
Continuous
 62
     7
370
    25
100
AcDbSpline
210
0.0
220
0.0
230
1.0
 70
    24
 71
     3
 72
    10
 73
     6
 74
     0
 42
0.000000001
 43
0.00000001
 40
0.0
 40
0.0
 40
0.0
 40
0.0
 40
0.5
 40
0.5
 40
1.0
 40
1.0
 40
1.0
 40
1.0
 10
129.1553502890173
 20
128.5751224855492
 30
0.0
 10
129.1553502890173
 20
128.5751224855492
 30
0.0
 10
129.263123388095
 20
128.5751224855492
 30
0.0
 10
129.6333636408425
 20
128.5751224855492
 30
0.0
 10
129.8935509168641
 20
128.5751224855492
 30
0.0
 10
130.1553503077924
 20
128.5751224855492
 30
0.0
  0
SPLINE
  5
209
330
1F
100
AcDbEntity
  8
0
  6
Continuous
 62
     7
370
    25
100
AcDbSpline
210
0.0
220
0.0
230
1.0
 70
     8
 71
     3
 72
    12
 73
     8
 74
     0
 42
0.000000001
 43
0.00000001
 40
0.0
 40
0.0
 40
0.0
 40
0.0
 40
0.1664616503807027
 40
0.3330491366093241
 40
0.5001938540683241
 40
0.7619811741357122
 40
1.0
 40
1.0
 40
1.0
 40
1.0
 10
130.1553503077907
 20
128.5751224855492
 30
0.0
 10
130.1733241315425
 20
128.5521288001458
 30
0.0
 10
130.2092853662677
 20
128.5061240473782
 30
0.0
 10
130.2670022953412
 20
128.4405810825678
 30
0.0
 10
130.3372870068335
 20
128.3662148963482
 30
0.0
 10
130.4166297612766
 20
128.2869433526887
 30
0.0
 10
130.4711108322997
 20
128.2348931617277
 30
0.0
 10
130.4970559325396
 20
128.2101057007502
 30
0.0
  0
SPLINE
  5
20A
330
1F
100
AcDbEntity
  8
0
  6
Continuous
 62
     7
370
    25
100
AcDbSpline
210
0.0
220
0.0
230
1.0
 70
     8
 71
     3
 72
    14
 73
    10
 74
     0
 42
0.000000001
 43
0.00000001
 40
0.0
 40
0.0
 40
0.0
 40
0.0
 40
0.1488603598374869
 40
0.3150273329269794
 40
0.4987646698885773
 40
0.5951853465829806
 40
0.7494349165379153
 40
0.8793203509512854
 40
1.0
 40
1.0
 40
1.0
 40
1.0
 10
130.4970559325396
 20
128.2101057007502
 30
0.0
 10
130.4818451751193
 20
128.1968623398419
 30
0.0
 10
130.449655246604
 20
128.1688359352942
 30
0.0
 10
130.3950312154962
 20
128.1347663740853
 30
0.0
 10
130.3443255530564
 20
128.1112124886937
 30
0.0
 10
130.294308913484
 20
128.094083422627
 30
0.0
 10
130.2496352179569
 20
128.083258388621
 30
0.0
 10
130.2010579554793
 20
128.0763171573061
 30
0.0
 10
130.1702083722827
 20
128.0755108346777
 30
0.0
 10
130.1553502890173
 20
128.0751224855492
 30
0.0
  0
SPLINE
  5
20B
330
1F
100
AcDbEntity
  8
0
  6
Continuous
 62
     7
370
    25
100
AcDbSpline
210
0.0
220
0.0
230
1.0
 70
    24
 71
     3
 72
    19
 73
    15
 74
     0
 42
0.000000001
 43
0.00000001
 40
0.0
 40
0.0
 40
0.0
 40
0.0
 40
0.0504323727096602
 40
0.1003565609003688
 40
0.1500822900423565
 40
0.199922985600599
 40
0.2501899225630071
 40
0.3750855037480327
 40
0.5000544104076973
 40
0.624788718511343
 40
0.7499189120354135
 40
0.8333029051590075
 40
0.916179120395655
 40
1.0
 40
1.0
 40
1.0
 40
1.0
 10
130.1553502890173
 20
128.0751224855492
 30
0.0
 10
130.1157693203128
 20
128.0751224855492
 30
0.0
 10
130.037006222666
 20
128.0751224855492
 30
0.0
 10
129.9199257804117
 20
128.0751224855492
 30
0.0
 10
129.8047623715556
 20
128.0751224855492
 30
0.0
 10
129.6915156558964
 20
128.0751224855492
 30
0.0
 10
129.5258339701766
 20
128.0751224855492
 30
0.0
 10
129.3163341662636
 20
128.0751224855492
 30
0.0
 10
129.0881650618139
 20
128.0751224855492
 30
0.0
 10
128.8998153861174
 20
128.0751224855492
 30
0.0
 10
128.7761885324898
 20
128.0751224855492
 30
0.0
 10
128.7023898030286
 20
128.0751224855492
 30
0.0
 10
128.6626587548132
 20
128.0751224855492
 30
0.0
 10
128.6578262847707
 20
128.0751224855492
 30
0.0
 10
128.6553963570625
 20
128.0751224855492
 30
0.0
  0
SPLINE
  5
20C
330
1F
100
AcDbEntity
  8
0
  6
Continuous
 62
     7
370
    25
100
AcDbSpline
210
0.0
220
0.0
230
1.0
 70
     8
 71
     3
 72
    13
 73
     9
 74
     0
 42
0.000000001
 43
0.00000001
 40
0.0
 40
0.0
 40
0.0
 40
0.0
 40
0.1162222239446788
 40
0.2381780213507807
 40
0.3660917905398808
 40
0.5001580142687957
 40
0.7504239388759752
 40
1.0
 40
1.0
 40
1.0
 40
1.0
 10
115.8136446454949
 20
128.2101057007502
 30
0.0
 10
115.8260926561124
 20
128.2219431590804
 30
0.0
 10
115.8516027731795
 20
128.2462020512888
 30
0.0
 10
115.8931099461954
 20
128.2864882096458
 30
0.0
 10
115.9377026969008
 20
128.3306454005926
 30
0.0
 10
115.9982087802052
 20
128.3920596758861
 30
0.0
 10
116.0736125638679
 20
128.4720904778979
 30
0.0
 10
116.1281294488503
 20
128.5408100977608
 30
0.0
 10
116.1553502702439
 20
128.5751224855492
 30
0.0
  0
SPLINE
  5
20D
330
1F
100
AcDbEntity
  8
0
  6
Continuous
 62
     7
370
    25
100
AcDbSpline
210
0.0
220
0.0
230
1.0
 70
    24
 71
     3
 72
    10
 73
     6
 74
     0
 42
0.000000001
 43
0.00000001
 40
0.0
 40
0.0
 40
0.0
 40
0.0
 40
0.5
 40
0.5
 40
1.0
 40
1.0
 40
1.0
 40
1.0
 10
116.1553502702422
 20
128.5751224855492
 30
0.0
 10
116.4171496642997
 20
128.5751224855492
 30
0.0
 10
116.6773369433552
 20
128.5751224855492
 30
0.0
 10
117.0475771970525
 20
128.5751224855492
 30
0.0
 10
117.1553502939326
 20
128.5751224855492
 30
0.0
 10
117.1553502890173
 20
128.5751224855492
 30
0.0
  0
SPLINE
  5
20E
330
1F
100
AcDbEntity
  8
0
  6
Continuous
 62
     7
370
    25
100
AcDbSpline
210
0.0
220
0.0
230
1.0
 70
     8
 71
     3
 72
    13
 73
     9
 74
     0
 42
0.000000001
 43
0.00000001
 40
0.0
 40
0.0
 40
0.0
 40
0.0
 40
0.1206933098378984
 40
0.2506349558807637
 40
0.4049363563536673
 40
0.5013750994399903
 40
0.7702864430522399
 40
1.0
 40
1.0
 40
1.0
 40
1.0
 10
116.1553502890173
 20
128.0751224855492
 30
0.0
 10
116.1404945108254
 20
128.0755102002902
 30
0.0
 10
116.1096446044246
 20
128.076315339093
 30
0.0
 10
116.0610694528075
 20
128.0832653509324
 30
0.0
 10
116.0163797704222
 20
128.0940556597878
 30
0.0
 10
115.9566160610804
 20
128.1146754451995
 30
0.0
 10
115.8888240480329
 20
128.1471831291432
 30
0.0
 10
115.8373557756545
 20
128.1902603011463
 30
0.0
 10
115.8136446454949
 20
128.2101057007502
 30
0.0
  0
SPLINE
  5
20F
330
1F
100
AcDbEntity
  8
0
  6
Continuous
 62
     7
370
    25
100
AcDbSpline
210
0.0
220
0.0
230
1.0
 70
    24
 71
     3
 72
    15
 73
    11
 74
     0
 42
0.000000001
 43
0.00000001
 40
0.0
 40
0.0
 40
0.0
 40
0.0
 40
0.0765312579161505
 40
0.2083330144054422
 40
0.3402400625385206
 40
0.4722247513639229
 40
0.6039616657552449
 40
0.7361164957826067
 40
0.8677977289488578
 40
1.0
 40
1.0
 40
1.0
 40
1.0
 10
117.6432650114301
 20
128.0751222694823
 30
0.0
 10
117.6395088790733
 20
128.0751222694823
 30
0.0
 10
117.6292839540205
 20
128.0751222694823
 30
0.0
 10
117.5482028947515
 20
128.0751222694823
 30
0.0
 10
117.4114507583398
 20
128.0751222694823
 30
0.0
 10
117.2226849706014
 20
128.0751222694823
 30
0.0
 10
116.9945083011931
 20
128.0751222694823
 30
0.0
 10
116.7332790950339
 20
128.0751222694823
 30
0.0
 10
116.450172283617
 20
128.0751222694823
 30
0.0
 10
116.2537534194983
 20
128.0751222694823
 30
0.0
 10
116.1553500729505
 20
128.0751222694823
 30
0.0
  0
SPLINE
  5
210
330
1F
100
AcDbEntity
  8
0
  6
Continuous
 62
     7
370
    25
100
AcDbSpline
210
0.0
220
0.0
230
1.0
 70
     8
 71
     3
 72
    13
 73
     9
 74
     0
 42
0.000000001
 43
0.00000001
 40
0.0
 40
0.0
 40
0.0
 40
0.0
 40
0.1162222328345675
 40
0.2381780342187649
 40
0.3660918025068102
 40
0.5001580205070525
 40
0.7504239414864089
 40
0.9999999999999999
 40
0.9999999999999999
 40
0.9999999999999999
 40
0.9999999999999999
 10
130.4970559325396
 20
141.9401392703481
 30
0.0
 10
130.4846079209321
 20
141.9283018111366
 30
0.0
 10
130.459097802409
 20
141.9040429176668
 30
0.0
 10
130.417590627698
 20
141.8637567580751
 30
0.0
 10
130.3729978771284
 20
141.8195995673119
 30
0.0
 10
130.3124917954986
 20
141.7581852924908
 30
0.0
 10
130.2370880141203
 20
141.6781544912093
 30
0.0
 10
130.1825711292056
 20
141.6094348727207
 30
0.0
 10
130.1553503077907
 20
141.5751224855492
 30
0.0
  0
SPLINE
  5
211
330
1F
100
AcDbEntity
  8
0
  6
Continuous
 62
     7
370
    25
100
AcDbSpline
210
0.0
220
0.0
230
1.0
 70
    24
 71
     3
 72
    10
 73
     6
 74
     0
 42
0.000000001
 43
0.00000001
 40
0.0
 40
0.0
 40
0.0
 40
0.0
 40
0.5
 40
0.5
 40
1.0
 40
1.0
 40
1.0
 40
1.0
 10
130.1553503077924
 20
141.5751224855492
 30
0.0
 10
129.8935509168641
 20
141.5751224855492
 30
0.0
 10
129.6333636408425
 20
141.5751224855492
 30
0.0
 10
129.263123388095
 20
141.5751224855492
 30
0.0
 10
129.1553502890173
 20
141.5751224855492
 30
0.0
 10
129.1553502890173
 20
141.5751224855492
 30
0.0
  0
SPLINE
  5
212
330
1F
100
AcDbEntity
  8
0
  6
Continuous
 62
     7
370
    25
100
AcDbSpline
210
0.0
220
0.0
230
1.0
 70
     8
 71
     3
 72
    13
 73
     9
 74
     0
 42
0.000000001
 43
0.00000001
 40
0.0
 40
0.0
 40
0.0
 40
0.0
 40
0.1206933478353882
 40
0.25063504079335
 40
0.4049364375708385
 40
0.5013752757893005
 40
0.7702865166940487
 40
1.0
 40
1.0
 40
1.0
 40
1.0
 10
130.1553502890173
 20
142.0751224855492
 30
0.0
 10
130.1702060718748
 20
142.0747347705629
 30
0.0
 10
130.2010559887036
 20
142.0739296312315
 30
0.0
 10
130.2496311494891
 20
142.0669796157433
 30
0.0
 10
130.2943208474165
 20
142.0561893003405
 30
0.0
 10
130.3540845550339
 20
142.0355695091537
 30
0.0
 10
130.4218765563803
 20
142.0030618221215
 30
0.0
 10
130.4733448101626
 20
141.9599846641462
 30
0.0
 10
130.4970559325396
 20
141.9401392703481
 30
0.0
  0
SPLINE
  5
213
330
1F
100
AcDbEntity
  8
0
  6
Continuous
 62
     7
370
    25
100
AcDbSpline
210
0.0
220
0.0
230
1.0
 70
    24
 71
     3
 72
    15
 73
    11
 74
     0
 42
0.000000001
 43
0.00000001
 40
0.0
 40
0.0
 40
0.0
 40
0.0
 40
0.0765312579161505
 40
0.2083330144054422
 40
0.3402400625385206
 40
0.4722247513639229
 40
0.6039616657552449
 40
0.7361164957826067
 40
0.8677977289488578
 40
1.0
 40
1.0
 40
1.0
 40
1.0
 10
128.6674355666045
 20
142.075122701616
 30
0.0
 10
128.6711916989613
 20
142.075122701616
 30
0.0
 10
128.6814166240141
 20
142.075122701616
 30
0.0
 10
128.7624976832831
 20
142.075122701616
 30
0.0
 10
128.8992498196948
 20
142.075122701616
 30
0.0
 10
129.0880156074332
 20
142.075122701616
 30
0.0
 10
129.3161922768415
 20
142.075122701616
 30
0.0
 10
129.5774214830008
 20
142.075122701616
 30
0.0
 10
129.8605282944176
 20
142.075122701616
 30
0.0
 10
130.0569471585363
 20
142.075122701616
 30
0.0
 10
130.1553505050842
 20
142.075122701616
 30
0.0
  0
SPLINE
  5
214
330
1F
100
AcDbEntity
  8
0
  6
Continuous
 62
     7
370
    25
100
AcDbSpline
210
0.0
220
0.0
230
1.0
 70
     8
 71
     3
 72
    10
 73
     6
 74
     0
 42
0.000000001
 43
0.00000001
 40
0.0
 40
0.0
 40
0.0
 40
0.0
 40
0.0070005206316469
 40
0.0210015618949408
 40
0.0490036444215285
 40
0.0490036444215285
 40
0.0490036444215285
 40
0.0490036444215285
 10
117.1553502890173
 20
138.8167798723231
 30
0.0
 10
117.1553502890173
 20
138.8167798723231
 30
0.0
 10
117.1454834881132
 20
138.808200273284
 30
0.0
 10
117.0591643827275
 20
138.7328643631721
 30
0.0
 10
116.9411172523007
 20
138.6252235143595
 30
0.0
 10
116.8624570702038
 20
138.5499962197021
 30
0.0
  0
SPLINE
  5
215
330
1F
100
AcDbEntity
  8
0
  6
Continuous
 62
     7
370
    25
100
AcDbSpline
210
0.0
220
0.0
230
1.0
 70
     8
 71
     3
 72
    10
 73
     6
 74
     0
 42
0.000000001
 43
0.00000001
 40
0.0
 40
0.0
 40
0.0
 40
0.0
 40
0.0280000153919106
 40
0.0420000230878659
 40
0.0490000269358435
 40
0.0490000269358435
 40
0.0490000269358435
 40
0.0490000269358435
 10
116.8624570702039
 20
138.5499962197021
 30
0.0
 10
116.7838091029986
 20
138.6252118325502
 30
0.0
 10
116.6314070219057
 20
138.7328649345112
 30
0.0
 10
116.3439897584403
 20
138.8081991668528
 30
0.0
 10
116.2020169813372
 20
138.8167798723231
 30
0.0
 10
116.1553502890173
 20
138.8167798723231
 30
0.0
  0
LINE
  5
216
330
1F
100
AcDbEntity
  8
0
  6
Continuous
 62
     7
370
    25
100
AcDbLine
 10
116.155350073
 20
138.8167798469
 30
0.0
 11
116.155350073
 21
141.5751226197
 31
0.0
  0
SPLINE
  5
217
330
1F
100
AcDbEntity
  8
0
  6
Continuous
 62
     7
370
    25
100
AcDbSpline
210
0.0
220
0.0
230
1.0
 70
     8
 71
     3
 72
    10
 73
     6
 74
     0
 42
0.000000001
 43
0.00000001
 40
0.0
 40
0.0
 40
0.0
 40
0.0
 40
0.0140010412632937
 40
0.0210015618949405
 40
0.0490036444215279
 40
0.0490036444215279
 40
0.0490036444215279
 40
0.0490036444215279
 10
129.1553502890173
 20
131.3334650987752
 30
0.0
 10
129.1553502890173
 20
131.3334650987752
 30
0.0
 10
129.1761080045484
 20
131.3514365629985
 30
0.0
 10
129.271554580591
 20
131.4356000708724
 30
0.0
 10
129.3695833257339
 20
131.5250214567389
 30
0.0
 10
129.4482435078308
 20
131.6002487513963
 30
0.0
  0
SPLINE
  5
218
330
1F
100
AcDbEntity
  8
0
  6
Continuous
 62
     7
370
    25
100
AcDbSpline
210
0.0
220
0.0
230
1.0
 70
     8
 71
     3
 72
    10
 73
     6
 74
     0
 42
0.000000001
 43
0.00000001
 40
0.366355545301569
 40
0.366355545301569
 40
0.366355545301569
 40
0.366355545301569
 40
0.38735710719651
 40
0.401358148459804
 40
0.415359189723098
 40
0.415359189723098
 40
0.415359189723098
 40
0.415359189723098
 10
129.4482435078308
 20
131.6002487513963
 30
0.0
 10
129.5072386444034
 20
131.5438282804032
 30
0.0
 10
129.6278671397017
 20
131.4544024047527
 30
0.0
 10
129.8767788797659
 20
131.3580676727814
 30
0.0
 10
130.0620100139287
 20
131.3334650987752
 30
0.0
 10
130.1553502890173
 20
131.3334650987752
 30
0.0
  0
LINE
  5
219
330
1F
100
AcDbEntity
  8
0
  6
Continuous
 62
     7
370
    25
100
AcDbLine
 10
130.1553505051
 20
131.3334651242
 30
0.0
 11
130.1553505051
 21
128.5751223514
 31
0.0
  0
SPLINE
  5
21A
330
1F
100
AcDbEntity
  8
0
  6
Continuous
 62
     7
370
    25
100
AcDbSpline
210
0.0
220
0.0
230
1.0
 70
     8
 71
     3
 72
    10
 73
     6
 74
     0
 42
0.000000001
 43
0.00000001
 40
0.366309709657398
 40
0.366309709657398
 40
0.366309709657398
 40
0.366309709657398
 40
0.380309717353353
 40
0.387309721201331
 40
0.415309736593242
 40
0.415309736593242
 40
0.415309736593242
 40
0.415309736593242
 10
116.1553502890173
 20
131.3334650987752
 30
0.0
 10
116.248683673657
 20
131.3334650987752
 30
0.0
 10
116.3876117564754
 20
131.3514368173337
 30
0.0
 10
116.6557943067491
 20
131.4356003164869
 30
0.0
 10
116.7838091029986
 20
131.5250331385482
 30
0.0
 10
116.8624570702039
 20
131.6002487513963
 30
0.0
  0
SPLINE
  5
21B
330
1F
100
AcDbEntity
  8
0
  6
Continuous
 62
     7
370
    25
100
AcDbSpline
210
0.0
220
0.0
230
1.0
 70
     8
 71
     3
 72
    10
 73
     6
 74
     0
 42
0.000000001
 43
0.00000001
 40
0.366355545301555
 40
0.366355545301555
 40
0.366355545301555
 40
0.366355545301555
 40
0.387357107196496
 40
0.40135814845979
 40
0.415359189723084
 40
0.415359189723084
 40
0.415359189723084
 40
0.415359189723084
 10
116.8624570702039
 20
131.6002487513963
 30
0.0
 10
116.9214522067765
 20
131.5438282804032
 30
0.0
 10
117.0181133520321
 20
131.4544024047527
 30
0.0
 10
117.1268752891006
 20
131.3580676727814
 30
0.0
 10
117.1553502890173
 20
131.3334650987752
 30
0.0
 10
117.1553502890173
 20
131.3334650987752
 30
0.0
  0
LINE
  5
21C
330
1F
100
AcDbEntity
  8
0
  6
Continuous
 62
     7
370
    25
100
AcDbLine
 10
116.155350073
 20
128.5751223514
 30
0.0
 11
116.155350073
 21
131.3334651242
 31
0.0
  0
SPLINE
  5
21D
330
1F
100
AcDbEntity
  8
0
  6
Continuous
 62
     7
370
    25
100
AcDbSpline
210
0.0
220
0.0
230
1.0
 70
     8
 71
     3
 72
    10
 73
     6
 74
     0
 42
0.000000001
 43
0.00000001
 40
0.0
 40
0.0
 40
0.0
 40
0.0
 40
0.0140010412632939
 40
0.0210015618949408
 40
0.0490036444215286
 40
0.0490036444215286
 40
0.0490036444215286
 40
0.0490036444215286
 10
130.1553502890173
 20
138.8167798723231
 30
0.0
 10
130.0620100139287
 20
138.8167798723231
 30
0.0
 10
129.9230735218855
 20
138.7988084080999
 30
0.0
 10
129.6549058328641
 20
138.7146449002259
 30
0.0
 10
129.5269036899276
 20
138.6252235143595
 30
0.0
 10
129.4482435078308
 20
138.5499962197021
 30
0.0
  0
SPLINE
  5
21E
330
1F
100
AcDbEntity
  8
0
  6
Continuous
 62
     7
370
    25
100
AcDbSpline
210
0.0
220
0.0
230
1.0
 70
     8
 71
     3
 72
    10
 73
     6
 74
     0
 42
0.000000001
 43
0.00000001
 40
0.366355545301555
 40
0.366355545301555
 40
0.366355545301555
 40
0.366355545301555
 40
0.387357107196496
 40
0.401358148459789
 40
0.415359189723083
 40
0.415359189723083
 40
0.415359189723083
 40
0.415359189723083
 10
129.4482435078308
 20
138.5499962197021
 30
0.0
 10
129.3892483712581
 20
138.6064166906951
 30
0.0
 10
129.2925872260025
 20
138.6958425663456
 30
0.0
 10
129.1838252889341
 20
138.7921772983169
 30
0.0
 10
129.1553502890173
 20
138.8167798723231
 30
0.0
 10
129.1553502890173
 20
138.8167798723231
 30
0.0
  0
LINE
  5
21F
330
1F
100
AcDbEntity
  8
0
  6
Continuous
 62
     7
370
    25
100
AcDbLine
 10
130.1553505051
 20
141.5751226197
 30
0.0
 11
130.1553505051
 21
138.8167798469
 31
0.0
  0
SPLINE
  5
220
330
1F
100
AcDbEntity
  8
0
  6
Continuous
 62
     7
370
    25
100
AcDbSpline
210
0.0
220
0.0
230
1.0
 70
     8
 71
     3
 72
    13
 73
     9
 74
     0
 42
0.000000001
 43
0.00000001
 40
0.0
 40
0.0
 40
0.0
 40
0.0
 40
0.1856794033212272
 40
0.3634611737568169
 40
0.533542336720674
 40
0.6961479207300177
 40
0.8515354443703902
 40
1.0
 40
1.0
 40
1.0
 40
1.0
 10
115.3108934715596
 20
128.5085404217911
 30
0.0
 10
115.2945651657165
 20
128.5340793659109
 30
0.0
 10
115.262603057367
 20
128.5840709882463
 30
0.0
 10
115.2238842041351
 20
128.6655462310948
 30
0.0
 10
115.1933301250474
 20
128.7488711150134
 30
0.0
 10
115.1717133881382
 20
128.8340385818909
 30
0.0
 10
115.1580056936495
 20
128.9198753451386
 30
0.0
 10
115.1562218763929
 20
128.9793809194489
 30
0.0
 10
115.1553502890173
 20
129.0084558188825
 30
0.0
  0
SPLINE
  5
221
330
1F
100
AcDbEntity
  8
0
  6
Continuous
 62
     7
370
    25
100
AcDbSpline
210
0.0
220
0.0
230
1.0
 70
     8
 71
     3
 72
    17
 73
    13
 74
     0
 42
0.000000001
 43
0.00000001
 40
0.0
 40
0.0
 40
0.0
 40
0.0
 40
0.1130667886658668
 40
0.2142471894553318
 40
0.3035410226158834
 40
0.3809482842621089
 40
0.4464692357998273
 40
0.5001045924259258
 40
0.6375226532033567
 40
0.75004211245356
 40
0.8820380142920121
 40
1.0
 40
1.0
 40
1.0
 40
1.0
 10
115.6553502890173
 20
128.0751224855492
 30
0.0
 10
115.6451206629134
 20
128.0761999682389
 30
0.0
 10
115.6257368220189
 20
128.0782416609472
 30
0.0
 10
115.597842577461
 20
128.0934070826449
 30
0.0
 10
115.5728497697635
 20
128.113668328213
 30
0.0
 10
115.5507203722295
 20
128.1370190797774
 30
0.0
 10
115.5315205455032
 20
128.1608396058083
 30
0.0
 10
115.5053387801501
 20
128.19635704545
 30
0.0
 10
115.4723572385591
 20
128.2466663383259
 30
0.0
 10
115.4267629641449
 20
128.3236528166628
 30
0.0
 10
115.376854307466
 20
128.4080933966961
 30
0.0
 10
115.3320417479864
 20
128.4763352287585
 30
0.0
 10
115.3108934715596
 20
128.5085404217911
 30
0.0
  0
SPLINE
  5
222
330
1F
100
AcDbEntity
  8
0
  6
Continuous
 62
     7
370
    25
100
AcDbSpline
210
0.0
220
0.0
230
1.0
 70
     8
 71
     3
 72
    14
 73
    10
 74
     0
 42
0.000000001
 43
0.00000001
 40
0.0
 40
0.0
 40
0.0
 40
0.0
 40
0.0771019312872794
 40
0.1604220744063169
 40
0.2500134455684252
 40
0.3625277428809286
 40
0.4999872826729911
 40
0.6965319256112464
 40
1.0
 40
1.0
 40
1.0
 40
1.0
 10
130.999807106475
 20
128.5085404217911
 30
0.0
 10
130.9856778295679
 20
128.4872756964735
 30
0.0
 10
130.9562797603697
 20
128.4430312619934
 30
0.0
 10
130.9177618641573
 20
128.3803725209097
 30
0.0
 10
130.8786993376724
 20
128.3149989972962
 30
0.0
 10
130.8384188312789
 20
128.2466536900499
 30
0.0
 10
130.7897601369211
 20
128.1729909718632
 30
0.0
 10
130.7283252974706
 20
128.0952280462816
 30
0.0
 10
130.6829123483997
 20
128.082716190169
 30
0.0
 10
130.6553502890173
 20
128.0751224855492
 30
0.0
  0
SPLINE
  5
223
330
1F
100
AcDbEntity
  8
0
  6
Continuous
 62
     7
370
    25
100
AcDbSpline
210
0.0
220
0.0
230
1.0
 70
     8
 71
     3
 72
    13
 73
     9
 74
     0
 42
0.000000001
 43
0.00000001
 40
0.0
 40
0.0
 40
0.0
 40
0.0
 40
0.1484645556295969
 40
0.303852079269964
 40
0.4664576632793
 40
0.6365388262431574
 40
0.814320596678755
 40
1.0
 40
1.0
 40
1.0
 40
1.0
 10
131.1553502890173
 20
129.0084558188825
 30
0.0
 10
131.1544787016418
 20
128.9793809194489
 30
0.0
 10
131.1526948843851
 20
128.9198753451386
 30
0.0
 10
131.1389871898964
 20
128.8340385818909
 30
0.0
 10
131.1173704529872
 20
128.7488711150134
 30
0.0
 10
131.0868163738996
 20
128.6655462310948
 30
0.0
 10
131.0480975206676
 20
128.5840709882463
 30
0.0
 10
131.0161354123182
 20
128.5340793659109
 30
0.0
 10
130.999807106475
 20
128.5085404217911
 30
0.0
  0
LINE
  5
224
330
1F
100
AcDbEntity
  8
0
  6
Continuous
 62
     7
370
    25
100
AcDbLine
 10
131.155350669
 20
130.3160375866
 30
0.0
 11
131.155350669
 21
129.0084560352
 31
0.0
  0
SPLINE
  5
225
330
1F
100
AcDbEntity
  8
0
  6
Continuous
 62
     7
370
    25
100
AcDbSpline
210
0.0
220
0.0
230
1.0
 70
     8
 71
     3
 72
    13
 73
     9
 74
     0
 42
0.000000001
 43
0.00000001
 40
0.0
 40
0.0
 40
0.0
 40
0.0
 40
0.1257153360577753
 40
0.250986709269415
 40
0.3762164861937409
 40
0.5018074329537138
 40
0.7521854029755236
 40
1.0
 40
1.0
 40
1.0
 40
1.0
 10
130.9369946624618
 20
131.0336706012218
 30
0.0
 10
130.9541889396331
 20
131.004128383393
 30
0.0
 10
130.9885167725041
 20
130.9451482758749
 30
0.0
 10
131.0320863207392
 20
130.8552303883753
 30
0.0
 10
131.0696941243839
 20
130.7646878533664
 30
0.0
 10
131.1107174019649
 20
130.6435774912253
 30
0.0
 10
131.1472459567197
 20
130.4924536822857
 30
0.0
 10
131.1526581274146
 20
130.3746409023979
 30
0.0
 10
131.1553502890173
 20
130.3160376061959
 30
0.0
  0
SPLINE
  5
226
330
1F
100
AcDbEntity
  8
0
  6
Continuous
 62
     7
370
    25
100
AcDbSpline
210
0.0
220
0.0
230
1.0
 70
     8
 71
     3
 72
    16
 73
    12
 74
     0
 42
0.000000001
 43
0.00000001
 40
0.0
 40
0.0
 40
0.0
 40
0.0
 40
0.065953468215878
 40
0.1324870475734065
 40
0.2006767984510681
 40
0.2715233530653123
 40
0.3459202143274948
 40
0.4246400792148715
 40
0.5083359903947017
 40
0.7405135829365557
 40
1.0
 40
1.0
 40
1.0
 40
1.0
 10
130.1553502890173
 20
131.5829089245601
 30
0.0
 10
130.1788623414443
 20
131.5821230826434
 30
0.0
 10
130.2260932527628
 20
131.58054448673
 30
0.0
 10
130.2964113390569
 20
131.568007216417
 30
0.0
 10
130.3660704537295
 20
131.548081730318
 30
0.0
 10
130.4350467842113
 20
131.5201081674729
 30
0.0
 10
130.5033381583542
 20
131.4844034865555
 30
0.0
 10
130.5709652425944
 20
131.4410012919063
 30
0.0
 10
130.6759667122441
 20
131.3612167981575
 30
0.0
 10
130.8097503597814
 20
131.2278025116092
 30
0.0
 10
130.8930378636343
 20
131.1007338578953
 30
0.0
 10
130.9369946624618
 20
131.0336706012218
 30
0.0
  0
SPLINE
  5
227
330
1F
100
AcDbEntity
  8
0
  6
Continuous
 62
     7
370
    25
100
AcDbSpline
210
0.0
220
0.0
230
1.0
 70
     8
 71
     3
 72
    13
 73
     9
 74
     0
 42
0.000000001
 43
0.00000001
 40
0.0
 40
0.0
 40
0.0
 40
0.0
 40
0.1759205118839867
 40
0.3391896075500394
 40
0.4921931780779421
 40
0.6738397335242767
 40
0.8395017852842264
 40
1.0
 40
1.0
 40
1.0
 40
1.0
 10
129.801796898424
 20
131.8319070003398
 30
0.0
 10
129.8148954429706
 20
131.8100304193955
 30
0.0
 10
129.8401505433376
 20
131.7678505233415
 30
0.0
 10
129.8859936099179
 20
131.7119019982165
 30
0.0
 10
129.9398845913474
 20
131.6609213669604
 30
0.0
 10
130.0032325126107
 20
131.6185055444278
 30
0.0
 10
130.0777867085083
 20
131.5885919425825
 30
0.0
 10
130.1297700994598
 20
131.5847831634402
 30
0.0
 10
130.1553502890173
 20
131.5829089245601
 30
0.0
  0
SPLINE
  5
228
330
1F
100
AcDbEntity
  8
0
  6
Continuous
 62
     7
370
    25
100
AcDbSpline
210
0.0
220
0.0
230
1.0
 70
     8
 71
     3
 72
    14
 73
    10
 74
     0
 42
0.000000001
 43
0.00000001
 40
0.0
 40
0.0
 40
0.0
 40
0.0
 40
0.0960215477330772
 40
0.1924412985150813
 40
0.2917902771908843
 40
0.3963870753248954
 40
0.508224361238917
 40
0.7392002681070544
 40
1.0
 40
1.0
 40
1.0
 40
1.0
 10
130.1553502890173
 20
138.5673360465382
 30
0.0
 10
130.1400692745329
 20
138.5666448980001
 30
0.0
 10
130.1094438749282
 20
138.5652597347189
 30
0.0
 10
130.0643180063584
 20
138.5548058396287
 30
0.0
 10
130.0203945461728
 20
138.5382225429561
 30
0.0
 10
129.9776984916736
 20
138.5149397281995
 30
0.0
 10
129.9226870192055
 20
138.4754446545834
 30
0.0
 10
129.8590334489934
 20
138.4114876737081
 30
0.0
 10
129.8216318247666
 20
138.3506183489187
 30
0.0
 10
129.8017968984265
 20
138.3183379707658
 30
0.0
  0
SPLINE
  5
229
330
1F
100
AcDbEntity
  8
0
  6
Continuous
 62
     7
370
    25
100
AcDbSpline
210
0.0
220
0.0
230
1.0
 70
     8
 71
     3
 72
    15
 73
    11
 74
     0
 42
0.000000001
 43
0.00000001
 40
0.0
 40
0.0
 40
0.0
 40
0.0
 40
0.1336726496006024
 40
0.2596519444531545
 40
0.3787836139802159
 40
0.4920668899308765
 40
0.6351830136462188
 40
0.7645526196403578
 40
0.8844004131108331
 40
1.0
 40
1.0
 40
1.0
 40
1.0
 10
130.9369946624618
 20
139.1165743698766
 30
0.0
 10
130.9150991720254
 20
139.0818961030824
 30
0.0
 10
130.8725683575053
 20
139.0145354318436
 30
0.0
 10
130.7993724993627
 20
138.9200008405406
 30
0.0
 10
130.7215964197928
 20
138.8347875358187
 30
0.0
 10
130.6299579766686
 20
138.7520004033833
 30
0.0
 10
130.5246295954872
 20
138.6757775373138
 30
0.0
 10
130.4040807131803
 20
138.6140698834491
 30
0.0
 10
130.2806612545104
 20
138.5747111256291
 30
0.0
 10
130.1966151259057
 20
138.5697646563133
 30
0.0
 10
130.1553502890173
 20
138.5673360465382
 30
0.0
  0
SPLINE
  5
22A
330
1F
100
AcDbEntity
  8
0
  6
Continuous
 62
     7
370
    25
100
AcDbSpline
210
0.0
220
0.0
230
1.0
 70
     8
 71
     3
 72
    13
 73
     9
 74
     0
 42
0.000000001
 43
0.00000001
 40
0.0
 40
0.0
 40
0.0
 40
0.0
 40
0.123837116045566
 40
0.2479023030231072
 40
0.3726214666345097
 40
0.4984138700895106
 40
0.7490979627897992
 40
1.0
 40
1.0
 40
1.0
 40
1.0
 10
131.1553502890173
 20
139.8342073649024
 30
0.0
 10
131.154678771425
 20
139.8050667081081
 30
0.0
 10
131.1533344995059
 20
139.7467317261446
 30
0.0
 10
131.1424326894799
 20
139.6576463933548
 30
0.0
 10
131.1250712520577
 20
139.5674830516916
 30
0.0
 10
131.0923839666906
 20
139.4464032314295
 30
0.0
 10
131.0364988392107
 20
139.2943221791447
 30
0.0
 10
130.970172327903
 20
139.1758408001058
 30
0.0
 10
130.9369946624618
 20
139.1165743698766
 30
0.0
  0
LINE
  5
22B
330
1F
100
AcDbEntity
  8
0
  6
Continuous
 62
     7
370
    25
100
AcDbLine
 10
131.155350669
 20
141.1417889359
 30
0.0
 11
131.155350669
 21
139.8342073845
 31
0.0
  0
SPLINE
  5
22C
330
1F
100
AcDbEntity
  8
0
  6
Continuous
 62
     7
370
    25
100
AcDbSpline
210
0.0
220
0.0
230
1.0
 70
     8
 71
     3
 72
    13
 73
     9
 74
     0
 42
0.000000001
 43
0.00000001
 40
0.0
 40
0.0
 40
0.0
 40
0.0
 40
0.1856794033212442
 40
0.3634611737568403
 40
0.5335423367206995
 40
0.6961479207300372
 40
0.8515354443704025
 40
0.9999999999999999
 40
0.9999999999999999
 40
0.9999999999999999
 40
0.9999999999999999
 10
130.999807106475
 20
141.6417045493073
 30
0.0
 10
131.0161354123182
 20
141.6161656051875
 30
0.0
 10
131.0480975206676
 20
141.566173982852
 30
0.0
 10
131.0868163738996
 20
141.4846987400035
 30
0.0
 10
131.1173704529872
 20
141.401373856085
 30
0.0
 10
131.1389871898964
 20
141.3162063892074
 30
0.0
 10
131.1526948843851
 20
141.2303696259598
 30
0.0
 10
131.1544787016418
 20
141.1708640516494
 30
0.0
 10
131.1553502890173
 20
141.1417891522158
 30
0.0
  0
SPLINE
  5
22D
330
1F
100
AcDbEntity
  8
0
  6
Continuous
 62
     7
370
    25
100
AcDbSpline
210
0.0
220
0.0
230
1.0
 70
     8
 71
     3
 72
    16
 73
    12
 74
     0
 42
0.000000001
 43
0.00000001
 40
0.0
 40
0.0
 40
0.0
 40
0.0
 40
0.1113707238457123
 40
0.2115306831336734
 40
0.3004797812258395
 40
0.3782180942859685
 40
0.4447459579759641
 40
0.500064141985791
 40
0.7004020768506897
 40
0.8669907153164842
 40
1.0
 40
1.0
 40
1.0
 40
1.0
 10
130.6553502890173
 20
142.0751224855492
 30
0.0
 10
130.6654279678447
 20
142.0740768421105
 30
0.0
 10
130.6845688893828
 20
142.0720908114622
 30
0.0
 10
130.7122146070973
 20
142.0572832542726
 30
0.0
 10
130.7371633954949
 20
142.0373284453412
 30
0.0
 10
130.7594445287349
 20
142.0140819633623
 30
0.0
 10
130.7790236515564
 20
141.9900252160021
 30
0.0
 10
130.8119113719251
 20
141.9455459043257
 30
0.0
 10
130.8597900291718
 20
141.8714225109649
 30
0.0
 10
130.9243033883303
 20
141.7594085783749
 30
0.0
 10
130.976592755536
 20
141.6778937954114
 30
0.0
 10
130.999807106475
 20
141.6417045493073
 30
0.0
  0
SPLINE
  5
22E
330
1F
100
AcDbEntity
  8
0
  6
Continuous
 62
     7
370
    25
100
AcDbSpline
210
0.0
220
0.0
230
1.0
 70
     8
 71
     3
 72
    14
 73
    10
 74
     0
 42
0.000000001
 43
0.00000001
 40
0.0
 40
0.0
 40
0.0
 40
0.0
 40
0.0771019312877576
 40
0.1604220744066402
 40
0.250013445567957
 40
0.3625277428349449
 40
0.4999872826724504
 40
0.6965319246666456
 40
1.0
 40
1.0
 40
1.0
 40
1.0
 10
115.3108934715596
 20
141.6417045493073
 30
0.0
 10
115.3250227484669
 20
141.662969274625
 30
0.0
 10
115.3544208176652
 20
141.707213709105
 30
0.0
 10
115.3929387138778
 20
141.7698724501886
 30
0.0
 10
115.4320012403584
 20
141.8352459737914
 30
0.0
 10
115.4722817467479
 20
141.9035912810398
 30
0.0
 10
115.5209404410159
 20
141.9772539990731
 30
0.0
 10
115.5823752804336
 20
142.0550169247409
 30
0.0
 10
115.6277882295323
 20
142.067528780886
 30
0.0
 10
115.6553502890173
 20
142.0751224855492
 30
0.0
  0
SPLINE
  5
22F
330
1F
100
AcDbEntity
  8
0
  6
Continuous
 62
     7
370
    25
100
AcDbSpline
210
0.0
220
0.0
230
1.0
 70
     8
 71
     3
 72
    13
 73
     9
 74
     0
 42
0.000000001
 43
0.00000001
 40
0.0
 40
0.0
 40
0.0
 40
0.0
 40
0.1484645556296106
 40
0.3038520792699841
 40
0.4664576632793244
 40
0.6365388262431811
 40
0.8143205966787692
 40
1.0
 40
1.0
 40
1.0
 40
1.0
 10
115.1553502890173
 20
141.1417891522158
 30
0.0
 10
115.1562218763929
 20
141.1708640516494
 30
0.0
 10
115.1580056936495
 20
141.2303696259598
 30
0.0
 10
115.1717133881382
 20
141.3162063892074
 30
0.0
 10
115.1933301250474
 20
141.401373856085
 30
0.0
 10
115.2238842041351
 20
141.4846987400036
 30
0.0
 10
115.262603057367
 20
141.566173982852
 30
0.0
 10
115.2945651657165
 20
141.6161656051875
 30
0.0
 10
115.3108934715596
 20
141.6417045493073
 30
0.0
  0
LINE
  5
230
330
1F
100
AcDbEntity
  8
0
  6
Continuous
 62
     7
370
    25
100
AcDbLine
 10
115.155349909
 20
139.8342073845
 30
0.0
 11
115.155349909
 21
141.1417889359
 31
0.0
  0
SPLINE
  5
231
330
1F
100
AcDbEntity
  8
0
  6
Continuous
 62
     7
370
    25
100
AcDbSpline
210
0.0
220
0.0
230
1.0
 70
     8
 71
     3
 72
    13
 73
     9
 74
     0
 42
0.000000001
 43
0.00000001
 40
0.0
 40
0.0
 40
0.0
 40
0.0
 40
0.1257153360569889
 40
0.2509867092683644
 40
0.3762164861929509
 40
0.5018074329536976
 40
0.7521854029745006
 40
1.0
 40
1.0
 40
1.0
 40
1.0
 10
115.3737059155728
 20
139.1165743698766
 30
0.0
 10
115.3565116384016
 20
139.1461165877051
 30
0.0
 10
115.3221838055308
 20
139.205096695223
 30
0.0
 10
115.2786142572958
 20
139.2950145827225
 30
0.0
 10
115.241006453651
 20
139.3855571177316
 30
0.0
 10
115.1999831760698
 20
139.5066674798726
 30
0.0
 10
115.1634546213148
 20
139.6577912888124
 30
0.0
 10
115.15804245062
 20
139.7756040687002
 30
0.0
 10
115.1553502890173
 20
139.8342073649024
 30
0.0
  0
SPLINE
  5
232
330
1F
100
AcDbEntity
  8
0
  6
Continuous
 62
     7
370
    25
100
AcDbSpline
210
0.0
220
0.0
230
1.0
 70
     8
 71
     3
 72
    16
 73
    12
 74
     0
 42
0.000000001
 43
0.00000001
 40
0.0
 40
0.0
 40
0.0
 40
0.0
 40
0.0659534682171166
 40
0.1324870475754467
 40
0.2006767984534837
 40
0.2715233530677
 40
0.3459202143294877
 40
0.4246400792161534
 40
0.5083359903950035
 40
0.7405135829405138
 40
1.0
 40
1.0
 40
1.0
 40
1.0
 10
116.1553502890173
 20
138.5673360465382
 30
0.0
 10
116.1318382365898
 20
138.5681218884549
 30
0.0
 10
116.0846073252707
 20
138.5697004843683
 30
0.0
 10
116.0142892389756
 20
138.5822377546813
 30
0.0
 10
115.9446301243025
 20
138.6021632407802
 30
0.0
 10
115.8756537938207
 20
138.6301368036254
 30
0.0
 10
115.8073624196783
 20
138.6658414845427
 30
0.0
 10
115.7397353354389
 20
138.7092436791919
 30
0.0
 10
115.6347338657897
 20
138.7890281729423
 30
0.0
 10
115.5009502182531
 20
138.9224424594904
 30
0.0
 10
115.4176627143999
 20
139.0495111132041
 30
0.0
 10
115.3737059155728
 20
139.1165743698766
 30
0.0
  0
SPLINE
  5
233
330
1F
100
AcDbEntity
  8
0
  6
Continuous
 62
     7
370
    25
100
AcDbSpline
210
0.0
220
0.0
230
1.0
 70
     8
 71
     3
 72
    13
 73
     9
 74
     0
 42
0.000000001
 43
0.00000001
 40
0.0
 40
0.0
 40
0.0
 40
0.0
 40
0.1786053289436242
 40
0.3418136440148246
 40
0.4920615784510198
 40
0.6741596503290138
 40
0.83992025420101
 40
1.0
 40
1.0
 40
1.0
 40
1.0
 10
116.5089036796095
 20
138.3183379707617
 30
0.0
 10
116.4956279494509
 20
138.3405685660056
 30
0.0
 10
116.4702209488349
 20
138.3831133255257
 30
0.0
 10
116.4246173985981
 20
138.4392230626943
 30
0.0
 10
116.3708345234475
 20
138.4899040185834
 30
0.0
 10
116.3074438443753
 20
138.531809953458
 30
0.0
 10
116.2328303573166
 20
138.5616702303511
 30
0.0
 10
116.1808750404188
 20
138.5654695206969
 30
0.0
 10
116.1553502890173
 20
138.5673360465382
 30
0.0
  0
SPLINE
  5
234
330
1F
100
AcDbEntity
  8
0
  6
Continuous
 62
     7
370
    25
100
AcDbSpline
210
0.0
220
0.0
230
1.0
 70
     8
 71
     3
 72
    14
 73
    10
 74
     0
 42
0.000000001
 43
0.00000001
 40
0.0
 40
0.0
 40
0.0
 40
0.0
 40
0.0960186407856747
 40
0.1924368822044046
 40
0.2917857869559113
 40
0.3963838799166358
 40
0.5082236945494524
 40
0.7392053714339348
 40
1.0
 40
1.0
 40
1.0
 40
1.0
 10
116.1553502890173
 20
131.5829089245602
 30
0.0
 10
116.1706307959592
 20
131.5836000973584
 30
0.0
 10
116.2012554027058
 20
131.5849853194076
 30
0.0
 10
116.2463803237957
 20
131.5954394737292
 30
0.0
 10
116.2903034011556
 20
131.6120231022916
 30
0.0
 10
116.3329996683271
 20
131.6353063471553
 30
0.0
 10
116.3880121474792
 20
131.6748021144282
 30
0.0
 10
116.4516670649373
 20
131.738758341486
 30
0.0
 10
116.4890690022541
 20
131.7996274253667
 30
0.0
 10
116.5089036796106
 20
131.8319070003398
 30
0.0
  0
SPLINE
  5
235
330
1F
100
AcDbEntity
  8
0
  6
Continuous
 62
     7
370
    25
100
AcDbSpline
210
0.0
220
0.0
230
1.0
 70
     8
 71
     3
 72
    15
 73
    11
 74
     0
 42
0.000000001
 43
0.00000001
 40
0.0
 40
0.0
 40
0.0
 40
0.0
 40
0.1336726496021612
 40
0.2596519444552429
 40
0.3787836139818168
 40
0.4920668899310182
 40
0.6351830136473593
 40
0.7645526196418757
 40
0.8844004131119898
 40
1.0
 40
1.0
 40
1.0
 40
1.0
 10
115.3737059155728
 20
131.0336706012218
 30
0.0
 10
115.3956014060095
 20
131.0683488680164
 30
0.0
 10
115.4381322205298
 20
131.1357095392557
 30
0.0
 10
115.5113280786726
 20
131.2302441305592
 30
0.0
 10
115.5891041582423
 20
131.3154574352807
 30
0.0
 10
115.6807426013667
 20
131.3982445677156
 30
0.0
 10
115.7860709825486
 20
131.4744674337845
 30
0.0
 10
115.9066198648558
 20
131.5361750876492
 30
0.0
 10
116.0300393235251
 20
131.5755338454693
 30
0.0
 10
116.1140854521293
 20
131.5804803147851
 30
0.0
 10
116.1553502890173
 20
131.5829089245602
 30
0.0
  0
SPLINE
  5
236
330
1F
100
AcDbEntity
  8
0
  6
Continuous
 62
     7
370
    25
100
AcDbSpline
210
0.0
220
0.0
230
1.0
 70
     8
 71
     3
 72
    13
 73
     9
 74
     0
 42
0.000000001
 43
0.00000001
 40
0.0
 40
0.0
 40
0.0
 40
0.0
 40
0.123835855545221
 40
0.2479006248871513
 40
0.3726202178325717
 40
0.4984138930967346
 40
0.7490996844582696
 40
1.0
 40
1.0
 40
1.0
 40
1.0
 10
115.1553502890173
 20
130.3160376061959
 30
0.0
 10
115.1560218203337
 20
130.3451779599432
 30
0.0
 10
115.1573661243095
 20
130.4035125341388
 30
0.0
 10
115.1682681079599
 20
130.4925975229011
 30
0.0
 10
115.1856297915723
 20
130.5827611193661
 30
0.0
 10
115.2183174330055
 20
130.7038417013256
 30
0.0
 10
115.2742022339299
 20
130.8559231334096
 30
0.0
 10
115.3405285659528
 20
130.9744045541137
 30
0.0
 10
115.3737059155728
 20
131.0336706012218
 30
0.0
  0
LINE
  5
237
330
1F
100
AcDbEntity
  8
0
  6
Continuous
 62
     7
370
    25
100
AcDbLine
 10
115.155349909
 20
129.0084560352
 30
0.0
 11
115.155349909
 21
130.3160375866
 31
0.0
  0
SPLINE
  5
238
330
1F
100
AcDbEntity
  8
0
  6
Continuous
 62
     7
370
    25
100
AcDbSpline
210
0.0
220
0.0
230
1.0
 70
     8
 71
     3
 72
     8
 73
     4
 74
     0
 42
0.000000001
 43
0.00000001
 40
0.0
 40
0.0
 40
0.0
 40
0.0
 40
1.0
 40
1.0
 40
1.0
 40
1.0
 10
129.3587004577969
 20
138.3183379707586
 30
0.0
 10
129.3296932682
 20
138.3738204865835
 30
0.0
 10
129.3635669134163
 20
138.46145553289
 30
0.0
 10
129.4482435078308
 20
138.5499962197021
 30
0.0
  0
SPLINE
  5
239
330
1F
100
AcDbEntity
  8
0
  6
Continuous
 62
     7
370
    25
100
AcDbSpline
210
0.0
220
0.0
230
1.0
 70
     8
 71
     3
 72
     8
 73
     4
 74
     0
 42
0.000000001
 43
0.00000001
 40
0.0
 40
0.0
 40
0.0
 40
0.0
 40
1.0
 40
1.0
 40
1.0
 40
1.0
 10
129.4482435078308
 20
131.6002487513963
 30
0.0
 10
129.3635669134163
 20
131.6887894382083
 30
0.0
 10
129.3296932682
 20
131.7764244845148
 30
0.0
 10
129.3587004577969
 20
131.8319070003398
 30
0.0
  0
SPLINE
  5
23A
330
1F
100
AcDbEntity
  8
0
  6
Continuous
 62
     7
370
    25
100
AcDbSpline
210
0.0
220
0.0
230
1.0
 70
     8
 71
     3
 72
     8
 73
     4
 74
     0
 42
0.000000001
 43
0.00000001
 40
0.0
 40
0.0
 40
0.0
 40
0.0
 40
1.0
 40
1.0
 40
1.0
 40
1.0
 10
116.8624570702038
 20
138.5499962197021
 30
0.0
 10
116.9471336646183
 20
138.46145553289
 30
0.0
 10
116.9810073098346
 20
138.3738204865835
 30
0.0
 10
116.9520001202377
 20
138.3183379707586
 30
0.0
  0
SPLINE
  5
23B
330
1F
100
AcDbEntity
  8
0
  6
Continuous
 62
     7
370
    25
100
AcDbSpline
210
0.0
220
0.0
230
1.0
 70
     8
 71
     3
 72
     8
 73
     4
 74
     0
 42
0.000000001
 43
0.00000001
 40
0.0
 40
0.0
 40
0.0
 40
0.0
 40
1.0
 40
1.0
 40
1.0
 40
1.0
 10
116.9520001202377
 20
131.8319070003398
 30
0.0
 10
116.9810073098346
 20
131.7764244845148
 30
0.0
 10
116.9471336646183
 20
131.6887894382083
 30
0.0
 10
116.8624570702039
 20
131.6002487513963
 30
0.0
  0
SPLINE
  5
23C
330
1F
100
AcDbEntity
  8
0
  6
Continuous
 62
     7
370
    25
100
AcDbSpline
210
0.0
220
0.0
230
1.0
 70
     8
 71
     3
 72
     8
 73
     4
 74
     0
 42
0.000000001
 43
0.00000001
 40
0.0
 40
0.0
 40
0.0
 40
0.0
 40
1.0
 40
1.0
 40
1.0
 40
1.0
 10
129.4482435078308
 20
138.5499962197021
 30
0.0
 10
129.5329201022452
 20
138.46145553289
 30
0.0
 10
129.6666674127673
 20
138.3738204865835
 30
0.0
 10
129.801796898424
 20
138.3183379707586
 30
0.0
  0
SPLINE
  5
23D
330
1F
100
AcDbEntity
  8
0
  6
Continuous
 62
     7
370
    25
100
AcDbSpline
210
0.0
220
0.0
230
1.0
 70
     8
 71
     3
 72
     8
 73
     4
 74
     0
 42
0.000000001
 43
0.00000001
 40
0.0
 40
0.0
 40
0.0
 40
0.0
 40
1.0
 40
1.0
 40
1.0
 40
1.0
 10
129.801796898424
 20
131.8319070003398
 30
0.0
 10
129.6666674127673
 20
131.7764244845148
 30
0.0
 10
129.5329201022452
 20
131.6887894382083
 30
0.0
 10
129.4482435078308
 20
131.6002487513963
 30
0.0
  0
SPLINE
  5
23E
330
1F
100
AcDbEntity
  8
0
  6
Continuous
 62
     7
370
    25
100
AcDbSpline
210
0.0
220
0.0
230
1.0
 70
     8
 71
     3
 72
     8
 73
     4
 74
     0
 42
0.000000001
 43
0.00000001
 40
0.0
 40
0.0
 40
0.0
 40
0.0
 40
1.0
 40
1.0
 40
1.0
 40
1.0
 10
116.5089036796106
 20
138.3183379707586
 30
0.0
 10
116.6440331652673
 20
138.3738204865835
 30
0.0
 10
116.7777804757894
 20
138.46145553289
 30
0.0
 10
116.8624570702039
 20
138.5499962197021
 30
0.0
  0
SPLINE
  5
23F
330
1F
100
AcDbEntity
  8
0
  6
Continuous
 62
     7
370
    25
100
AcDbSpline
210
0.0
220
0.0
230
1.0
 70
     8
 71
     3
 72
     8
 73
     4
 74
     0
 42
0.000000001
 43
0.00000001
 40
0.0
 40
0.0
 40
0.0
 40
0.0
 40
1.0
 40
1.0
 40
1.0
 40
1.0
 10
116.8624570702039
 20
131.6002487513963
 30
0.0
 10
116.7777804757894
 20
131.6887894382083
 30
0.0
 10
116.6440331652673
 20
131.7764244845148
 30
0.0
 10
116.5089036796106
 20
131.8319070003398
 30
0.0
  0
SPLINE
  5
240
330
1F
100
AcDbEntity
  8
0
  6
Continuous
 62
     7
370
    25
100
AcDbSpline
210
0.0
220
0.0
230
1.0
 70
    24
 71
     3
 72
     8
 73
     4
 74
     0
 42
0.000000001
 43
0.00000001
 40
0.0
 40
0.0
 40
0.0
 40
0.0
 40
1.0
 40
1.0
 40
1.0
 40
1.0
 10
116.1553502890173
 20
138.5673360465382
 30
0.0
 10
116.1553502890173
 20
138.6427815207991
 30
0.0
 10
116.1553502890173
 20
138.7297274020221
 30
0.0
 10
116.1553502890173
 20
138.8167798723231
 30
0.0
  0
SPLINE
  5
241
330
1F
100
AcDbEntity
  8
0
  6
Continuous
 62
     7
370
    25
100
AcDbSpline
210
0.0
220
0.0
230
1.0
 70
    24
 71
     3
 72
     8
 73
     4
 74
     0
 42
0.000000001
 43
0.00000001
 40
0.0
 40
0.0
 40
0.0
 40
0.0
 40
1.0
 40
1.0
 40
1.0
 40
1.0
 10
116.1553502890173
 20
131.3334650987752
 30
0.0
 10
116.1553502890173
 20
131.4205175690763
 30
0.0
 10
116.1553502890173
 20
131.5074634502993
 30
0.0
 10
116.1553502890173
 20
131.5829089245602
 30
0.0
  0
SPLINE
  5
242
330
1F
100
AcDbEntity
  8
0
  6
Continuous
 62
     7
370
    25
100
AcDbSpline
210
0.0
220
0.0
230
1.0
 70
    24
 71
     3
 72
     8
 73
     4
 74
     0
 42
0.000000001
 43
0.00000001
 40
0.0
 40
0.0
 40
0.0
 40
0.0
 40
1.0
 40
1.0
 40
1.0
 40
1.0
 10
130.1553502890173
 20
138.5673360465382
 30
0.0
 10
130.1553502890173
 20
138.6427815207991
 30
0.0
 10
130.1553502890173
 20
138.7297274020221
 30
0.0
 10
130.1553502890173
 20
138.8167798723231
 30
0.0
  0
SPLINE
  5
243
330
1F
100
AcDbEntity
  8
0
  6
Continuous
 62
     7
370
    25
100
AcDbSpline
210
0.0
220
0.0
230
1.0
 70
    24
 71
     3
 72
     8
 73
     4
 74
     0
 42
0.000000001
 43
0.00000001
 40
0.0
 40
0.0
 40
0.0
 40
0.0
 40
1.0
 40
1.0
 40
1.0
 40
1.0
 10
130.1553502890173
 20
131.5829089245601
 30
0.0
 10
130.1553502890173
 20
131.5074634502993
 30
0.0
 10
130.1553502890173
 20
131.4205175690763
 30
0.0
 10
130.1553502890173
 20
131.3334650987752
 30
0.0
  0
SPLINE
  5
244
330
1F
100
AcDbEntity
  8
0
  6
Continuous
 62
     7
370
    25
100
AcDbSpline
210
0.0
220
0.0
230
1.0
 70
     8
 71
     3
 72
     9
 73
     5
 74
     0
 42
0.000000001
 43
0.00000001
 40
0.0
 40
0.0
 40
0.0
 40
0.0
 40
0.5
 40
1.0
 40
1.0
 40
1.0
 40
1.0
 10
115.3737059155728
 20
139.1165743698766
 30
0.0
 10
115.4521528455275
 20
139.1460832815893
 30
0.0
 10
115.6089480666155
 20
139.2314913046512
 30
0.0
 10
115.7245775280292
 20
139.3473058184868
 30
0.0
 10
115.7645281022951
 20
139.4052495044714
 30
0.0
  0
SPLINE
  5
245
330
1F
100
AcDbEntity
  8
0
  6
Continuous
 62
     7
370
    25
100
AcDbSpline
210
0.0
220
0.0
230
1.0
 70
     8
 71
     3
 72
    10
 73
     6
 74
     0
 42
0.000000001
 43
0.00000001
 40
0.0
 40
0.0
 40
0.0
 40
0.0
 40
0.0235668908901633
 40
0.0471337817803266
 40
0.109978824154095
 40
0.109978824154095
 40
0.109978824154095
 40
0.109978824154095
 10
116.1553502890173
 20
138.8167798723231
 30
0.0
 10
116.1160721375337
 20
138.8167798723231
 30
0.0
 10
116.0378550525131
 20
138.8510079127321
 30
0.0
 10
115.8864771657659
 20
139.0386122972215
 30
0.0
 10
115.8083556043289
 20
139.2499005931273
 30
0.0
 10
115.7645281022951
 20
139.4052495044714
 30
0.0
  0
SPLINE
  5
246
330
1F
100
AcDbEntity
  8
0
  6
Continuous
 62
     7
370
    25
100
AcDbSpline
210
0.0
220
0.0
230
1.0
 70
     8
 71
     3
 72
    10
 73
     6
 74
     0
 42
0.000000001
 43
0.00000001
 40
0.0
 40
0.0
 40
0.0
 40
0.0
 40
0.0628475887703685
 40
0.0864154345592567
 40
0.109983280348145
 40
0.109983280348145
 40
0.109983280348145
 40
0.109983280348145
 10
130.5461724757396
 20
139.4052495044714
 30
0.0
 10
130.5023431978743
 20
139.2498942985983
 30
0.0
 10
130.424292415551
 20
139.038731470586
 30
0.0
 10
130.2728445723742
 20
138.8509985585488
 30
0.0
 10
130.1946300319988
 20
138.8167798723231
 30
0.0
 10
130.1553502890173
 20
138.8167798723231
 30
0.0
  0
SPLINE
  5
247
330
1F
100
AcDbEntity
  8
0
  6
Continuous
 62
     7
370
    25
100
AcDbSpline
210
0.0
220
0.0
230
1.0
 70
     8
 71
     3
 72
     8
 73
     4
 74
     0
 42
0.000000001
 43
0.00000001
 40
0.0
 40
0.0
 40
0.0
 40
0.0
 40
1.0
 40
1.0
 40
1.0
 40
1.0
 10
130.9369946624618
 20
139.1165743698766
 30
0.0
 10
130.7801008025524
 20
139.175592193302
 30
0.0
 10
130.6260736242713
 20
139.2893621325023
 30
0.0
 10
130.5461724757396
 20
139.4052495044714
 30
0.0
  0
SPLINE
  5
248
330
1F
100
AcDbEntity
  8
0
  6
Continuous
 62
     7
370
    25
100
AcDbSpline
210
0.0
220
0.0
230
1.0
 70
     8
 71
     3
 72
    10
 73
     6
 74
     0
 42
0.000000001
 43
0.00000001
 40
0.0
 40
0.0
 40
0.0
 40
0.0
 40
0.0628475887703684
 40
0.0864154345592567
 40
0.109983280348145
 40
0.109983280348145
 40
0.109983280348145
 40
0.109983280348145
 10
115.7645281022951
 20
130.744995466627
 30
0.0
 10
115.8083573801603
 20
130.9003506725
 30
0.0
 10
115.8864081624836
 20
131.1115135005123
 30
0.0
 10
116.0378560056604
 20
131.2992464125496
 30
0.0
 10
116.1160705460358
 20
131.3334650987752
 30
0.0
 10
116.1553502890173
 20
131.3334650987752
 30
0.0
  0
SPLINE
  5
249
330
1F
100
AcDbEntity
  8
0
  6
Continuous
 62
     7
370
    25
100
AcDbSpline
210
0.0
220
0.0
230
1.0
 70
     8
 71
     3
 72
     9
 73
     5
 74
     0
 42
0.000000001
 43
0.00000001
 40
0.0
 40
0.0
 40
0.0
 40
0.0
 40
0.5
 40
1.0
 40
1.0
 40
1.0
 40
1.0
 10
115.7645281022951
 20
130.744995466627
 30
0.0
 10
115.7245775280292
 20
130.8029391526115
 30
0.0
 10
115.6089480666155
 20
130.9187536664471
 30
0.0
 10
115.4521528455275
 20
131.0041616895091
 30
0.0
 10
115.3737059155728
 20
131.0336706012218
 30
0.0
  0
SPLINE
  5
24A
330
1F
100
AcDbEntity
  8
0
  6
Continuous
 62
     7
370
    25
100
AcDbSpline
210
0.0
220
0.0
230
1.0
 70
     8
 71
     3
 72
     9
 73
     5
 74
     0
 42
0.000000001
 43
0.00000001
 40
0.0
 40
0.0
 40
0.0
 40
0.0
 40
0.5
 40
1.0
 40
1.0
 40
1.0
 40
1.0
 10
130.9369946624618
 20
131.0336706012218
 30
0.0
 10
130.8585477325071
 20
131.0041616895091
 30
0.0
 10
130.7017525114191
 20
130.9187536664471
 30
0.0
 10
130.5861230500055
 20
130.8029391526115
 30
0.0
 10
130.5461724757396
 20
130.744995466627
 30
0.0
  0
SPLINE
  5
24B
330
1F
100
AcDbEntity
  8
0
  6
Continuous
 62
     7
370
    25
100
AcDbSpline
210
0.0
220
0.0
230
1.0
 70
     8
 71
     3
 72
    10
 73
     6
 74
     0
 42
0.000000001
 43
0.00000001
 40
0.0
 40
0.0
 40
0.0
 40
0.0
 40
0.0235668908901634
 40
0.0471337817803268
 40
0.109978824154096
 40
0.109978824154096
 40
0.109978824154096
 40
0.109978824154096
 10
130.1553502890173
 20
131.3334650987752
 30
0.0
 10
130.1946284405009
 20
131.3334650987752
 30
0.0
 10
130.2728455255215
 20
131.2992370583662
 30
0.0
 10
130.4242234122688
 20
131.1116326738768
 30
0.0
 10
130.5023449737057
 20
130.9003443779711
 30
0.0
 10
130.5461724757396
 20
130.744995466627
 30
0.0
  0
LINE
  5
24C
330
1F
100
AcDbEntity
  8
0
  6
Continuous
 62
     7
370
    25
100
AcDbLine
 10
130.6553501214
 20
140.1741419869
 30
0.0
 11
130.6553501214
 21
141.5751226197
 31
0.0
  0
SPLINE
  5
24D
330
1F
100
AcDbEntity
  8
0
  6
Continuous
 62
     7
370
    25
100
AcDbSpline
210
0.0
220
0.0
230
1.0
 70
     8
 71
     3
 72
    11
 73
     7
 74
     0
 42
0.000000001
 43
0.00000001
 40
0.0
 40
0.0
 40
0.0
 40
0.0
 40
0.1998756938242405
 40
0.5008842154834765
 40
0.7872132636300052
 40
1.0
 40
1.0
 40
1.0
 40
1.0
 10
130.5461724757396
 20
139.4052495044714
 30
0.0
 10
130.5596034447521
 20
139.4563623933192
 30
0.0
 10
130.5932611659504
 20
139.5844502000043
 30
0.0
 10
130.629072033904
 20
139.7869932769911
 30
0.0
 10
130.6517160555483
 20
139.9927399510973
 30
0.0
 10
130.6542640213663
 20
140.1199211632244
 30
0.0
 10
130.6553502890173
 20
140.174141999142
 30
0.0
  0
ARC
  5
24E
330
1F
100
AcDbEntity
  8
0
  6
Continuous
 62
     7
370
    25
100
AcDbCircle
 10
130.155350289
 20
141.5751224855
 30
0.0
 40
0.5
100
AcDbArc
 50
0.0
 51
46.8892083855
  0
LINE
  5
24F
330
1F
100
AcDbEntity
  8
0
  6
Continuous
 62
     7
370
    25
100
AcDbLine
 10
115.6553504567
 20
129.9761029842
 30
0.0
 11
115.6553504567
 21
128.5751223514
 31
0.0
  0
SPLINE
  5
250
330
1F
100
AcDbEntity
  8
0
  6
Continuous
 62
     7
370
    25
100
AcDbSpline
210
0.0
220
0.0
230
1.0
 70
     8
 71
     3
 72
    11
 73
     7
 74
     0
 42
0.000000001
 43
0.00000001
 40
0.0
 40
0.0
 40
0.0
 40
0.0
 40
0.1998734112540359
 40
0.500884202933325
 40
0.7872151654670749
 40
1.0
 40
1.0
 40
1.0
 40
1.0
 10
115.7645281022951
 20
130.744995466627
 30
0.0
 10
115.7510972835429
 20
130.6938831582936
 30
0.0
 10
115.7174395553679
 20
130.5657953468182
 30
0.0
 10
115.6816285099201
 20
130.3632518009377
 30
0.0
 10
115.6589844798456
 20
130.1575045530703
 30
0.0
 10
115.6564365370971
 20
130.0303233275903
 30
0.0
 10
115.6553502890173
 20
129.9761029719564
 30
0.0
  0
ARC
  5
251
330
1F
100
AcDbEntity
  8
0
  6
Continuous
 62
     7
370
    25
100
AcDbCircle
 10
116.155350289
 20
128.5751224855
 30
0.0
 40
0.5
100
AcDbArc
 50
180.0
 51
226.8892083855
  0
SPLINE
  5
252
330
1F
100
AcDbEntity
  8
0
  6
Continuous
 62
     7
370
    25
100
AcDbSpline
210
0.0
220
0.0
230
1.0
 70
     8
 71
     3
 72
    12
 73
     8
 74
     0
 42
0.000000001
 43
0.00000001
 40
0.0
 40
0.0
 40
0.0
 40
0.0
 40
0.1336874390793356
 40
0.3000652536961946
 40
0.4991448923272561
 40
0.8001431782005175
 40
1.0
 40
1.0
 40
1.0
 40
1.0
 10
115.6553502890173
 20
140.174141999142
 30
0.0
 10
115.6557836148509
 20
140.1401189103881
 30
0.0
 10
115.6567562269906
 20
140.0637531214346
 30
0.0
 10
115.6654972171448
 20
139.9358417985883
 30
0.0
 10
115.685385100978
 20
139.7645931424028
 30
0.0
 10
115.7174783679705
 20
139.5844398075631
 30
0.0
 10
115.7511085928317
 20
139.456358102694
 30
0.0
 10
115.7645281022951
 20
139.4052495044714
 30
0.0
  0
LINE
  5
253
330
1F
100
AcDbEntity
  8
0
  6
Continuous
 62
     7
370
    25
100
AcDbLine
 10
115.6553504567
 20
141.5751226197
 30
0.0
 11
115.6553504567
 21
140.1741419869
 31
0.0
  0
ARC
  5
254
330
1F
100
AcDbEntity
  8
0
  6
Continuous
 62
     7
370
    25
100
AcDbCircle
 10
116.155350289
 20
141.5751224855
 30
0.0
 40
0.5
100
AcDbArc
 50
133.1107916145
 51
180.0
  0
SPLINE
  5
255
330
1F
100
AcDbEntity
  8
0
  6
Continuous
 62
     7
370
    25
100
AcDbSpline
210
0.0
220
0.0
230
1.0
 70
     8
 71
     3
 72
    12
 73
     8
 74
     0
 42
0.000000001
 43
0.00000001
 40
0.0
 40
0.0
 40
0.0
 40
0.0
 40
0.1336874390379308
 40
0.3000652536547861
 40
0.4991448923272269
 40
0.8001431782741747
 40
1.0
 40
1.0
 40
1.0
 40
1.0
 10
130.6553502890173
 20
129.9761029719564
 30
0.0
 10
130.654916963184
 20
130.0101260606997
 30
0.0
 10
130.6539443510447
 20
130.0864918496428
 30
0.0
 10
130.6452033608922
 20
130.2144031724892
 30
0.0
 10
130.6253154770563
 20
130.3856518287037
 30
0.0
 10
130.5932222100595
 20
130.5658051635537
 30
0.0
 10
130.559591985198
 20
130.6938868684231
 30
0.0
 10
130.5461724757396
 20
130.744995466627
 30
0.0
  0
LINE
  5
256
330
1F
100
AcDbEntity
  8
0
  6
Continuous
 62
     7
370
    25
100
AcDbLine
 10
130.6553501214
 20
128.5751223514
 30
0.0
 11
130.6553501214
 21
129.9761029842
 31
0.0
  0
ARC
  5
257
330
1F
100
AcDbEntity
  8
0
  6
Continuous
 62
     7
370
    25
100
AcDbCircle
 10
130.155350289
 20
128.5751224855
 30
0.0
 40
0.5
100
AcDbArc
 50
313.1107916145
 51
0.0
  0
SPLINE
  5
258
330
1F
100
AcDbEntity
  8
0
  6
Continuous
 62
     7
370
    25
100
AcDbSpline
210
0.0
220
0.0
230
1.0
 70
     8
 71
     3
 72
     9
 73
     5
 74
     0
 42
0.000000001
 43
0.00000001
 40
0.0
 40
0.0
 40
0.0
 40
0.0
 40
0.5
 40
1.0
 40
1.0
 40
1.0
 40
1.0
 10
115.6553502890173
 20
140.174141999142
 30
0.0
 10
115.6553502890173
 20
140.0851473200063
 30
0.0
 10
115.5470636343716
 20
139.9078281335824
 30
0.0
 10
115.2862499829169
 20
139.8342073649025
 30
0.0
 10
115.1553502890173
 20
139.8342073649025
 30
0.0
  0
SPLINE
  5
259
330
1F
100
AcDbEntity
  8
0
  6
Continuous
 62
     7
370
    25
100
AcDbSpline
210
0.0
220
0.0
230
1.0
 70
     8
 71
     3
 72
     9
 73
     5
 74
     0
 42
0.000000001
 43
0.00000001
 40
0.0
 40
0.0
 40
0.0
 40
0.0
 40
0.5
 40
1.0
 40
1.0
 40
1.0
 40
1.0
 10
131.1553502890173
 20
139.8342073649025
 30
0.0
 10
131.0244505951177
 20
139.8342073649025
 30
0.0
 10
130.763636943663
 20
139.9078281335824
 30
0.0
 10
130.6553502890173
 20
140.0851473200063
 30
0.0
 10
130.6553502890173
 20
140.174141999142
 30
0.0
  0
SPLINE
  5
25A
330
1F
100
AcDbEntity
  8
0
  6
Continuous
 62
     7
370
    25
100
AcDbSpline
210
0.0
220
0.0
230
1.0
 70
     8
 71
     3
 72
     9
 73
     5
 74
     0
 42
0.000000001
 43
0.00000001
 40
0.0
 40
0.0
 40
0.0
 40
0.0
 40
0.5
 40
1.0
 40
1.0
 40
1.0
 40
1.0
 10
115.1553502890173
 20
130.3160376061959
 30
0.0
 10
115.2862499829169
 20
130.3160376061959
 30
0.0
 10
115.5470636343716
 20
130.2424168375159
 30
0.0
 10
115.6553502890173
 20
130.065097651092
 30
0.0
 10
115.6553502890173
 20
129.9761029719564
 30
0.0
  0
SPLINE
  5
25B
330
1F
100
AcDbEntity
  8
0
  6
Continuous
 62
     7
370
    25
100
AcDbSpline
210
0.0
220
0.0
230
1.0
 70
     8
 71
     3
 72
     9
 73
     5
 74
     0
 42
0.000000001
 43
0.00000001
 40
0.0
 40
0.0
 40
0.0
 40
0.0
 40
0.5
 40
1.0
 40
1.0
 40
1.0
 40
1.0
 10
130.6553502890173
 20
129.9761029719564
 30
0.0
 10
130.6553502890173
 20
130.065097651092
 30
0.0
 10
130.763636943663
 20
130.2424168375159
 30
0.0
 10
131.0244505951177
 20
130.3160376061959
 30
0.0
 10
131.1553502890173
 20
130.3160376061959
 30
0.0
  0
SPLINE
  5
25C
330
1F
100
AcDbEntity
  8
0
  6
Continuous
 62
     7
370
    25
100
AcDbSpline
210
0.0
220
0.0
230
1.0
 70
     8
 71
     3
 72
     9
 73
     5
 74
     0
 42
0.000000001
 43
0.00000001
 40
0.0
 40
0.0
 40
0.0
 40
0.0
 40
0.5
 40
1.0
 40
1.0
 40
1.0
 40
1.0
 10
130.6553502890173
 20
141.5751224855492
 30
0.0
 10
130.6553502890173
 20
141.4616760841695
 30
0.0
 10
130.7636341592023
 20
141.2356351730428
 30
0.0
 10
131.0244505951177
 20
141.1417891522158
 30
0.0
 10
131.1553502890173
 20
141.1417891522158
 30
0.0
  0
SPLINE
  5
25D
330
1F
100
AcDbEntity
  8
0
  6
Continuous
 62
     7
370
    25
100
AcDbSpline
210
0.0
220
0.0
230
1.0
 70
     8
 71
     3
 72
     9
 73
     5
 74
     0
 42
0.000000001
 43
0.00000001
 40
0.0
 40
0.0
 40
0.0
 40
0.0
 40
0.5
 40
1.0
 40
1.0
 40
1.0
 40
1.0
 10
115.6553502890173
 20
128.5751224855492
 30
0.0
 10
115.6553502890173
 20
128.6885688869288
 30
0.0
 10
115.5470664188323
 20
128.9146097980556
 30
0.0
 10
115.2862499829169
 20
129.0084558188825
 30
0.0
 10
115.1553502890173
 20
129.0084558188825
 30
0.0
  0
SPLINE
  5
25E
330
1F
100
AcDbEntity
  8
0
  6
Continuous
 62
     7
370
    25
100
AcDbSpline
210
0.0
220
0.0
230
1.0
 70
     8
 71
     3
 72
     9
 73
     5
 74
     0
 42
0.000000001
 43
0.00000001
 40
0.0
 40
0.0
 40
0.0
 40
0.0
 40
0.5
 40
1.0
 40
1.0
 40
1.0
 40
1.0
 10
115.1553502890173
 20
141.1417891522158
 30
0.0
 10
115.2862499829169
 20
141.1417891522158
 30
0.0
 10
115.5470664188323
 20
141.2356351730428
 30
0.0
 10
115.6553502890173
 20
141.4616760841695
 30
0.0
 10
115.6553502890173
 20
141.5751224855492
 30
0.0
  0
SPLINE
  5
25F
330
1F
100
AcDbEntity
  8
0
  6
Continuous
 62
     7
370
    25
100
AcDbSpline
210
0.0
220
0.0
230
1.0
 70
     8
 71
     3
 72
     9
 73
     5
 74
     0
 42
0.000000001
 43
0.00000001
 40
0.0
 40
0.0
 40
0.0
 40
0.0
 40
0.5
 40
1.0
 40
1.0
 40
1.0
 40
1.0
 10
131.1553502890173
 20
129.0084558188825
 30
0.0
 10
131.0244505951177
 20
129.0084558188825
 30
0.0
 10
130.7636341592023
 20
128.9146097980556
 30
0.0
 10
130.6553502890173
 20
128.6885688869288
 30
0.0
 10
130.6553502890173
 20
128.5751224855492
 30
0.0
  0
SPLINE
  5
260
330
1F
100
AcDbEntity
  8
0
  6
Continuous
 62
     7
370
    25
100
AcDbSpline
210
0.0
220
0.0
230
1.0
 70
     8
 71
     3
 72
    10
 73
     6
 74
     0
 42
0.000000001
 43
0.00000001
 40
0.0
 40
0.0
 40
0.0
 40
0.0
 40
0.5
 40
0.5
 40
1.0
 40
1.0
 40
1.0
 40
1.0
 10
124.1553502890173
 20
131.2021391393418
 30
0.0
 10
123.8283336000095
 20
131.2170646450647
 30
0.0
 10
123.497826775075
 20
131.2266931271803
 30
0.0
 10
122.8275725073321
 20
131.2269559857664
 30
0.0
 10
122.4869621309412
 20
131.2172743743643
 30
0.0
 10
122.1553502890173
 20
131.2021391393418
 30
0.0
  0
SPLINE
  5
261
330
1F
100
AcDbEntity
  8
0
  6
Continuous
 62
     7
370
    25
100
AcDbSpline
210
0.0
220
0.0
230
1.0
 70
     8
 71
     3
 72
    10
 73
     6
 74
     0
 42
0.000000001
 43
0.00000001
 40
0.0
 40
0.0
 40
0.0
 40
0.0
 40
0.5
 40
0.5
 40
1.0
 40
1.0
 40
1.0
 40
1.0
 10
122.1553502890173
 20
138.9481058317566
 30
0.0
 10
122.4823669780252
 20
138.9331803260336
 30
0.0
 10
122.8128738029596
 20
138.923551843918
 30
0.0
 10
123.4831280707025
 20
138.923288985332
 30
0.0
 10
123.8237384470934
 20
138.932970596734
 30
0.0
 10
124.1553502890173
 20
138.9481058317566
 30
0.0
  0
SPLINE
  5
262
330
1F
100
AcDbEntity
  8
0
  6
Continuous
 62
     7
370
    25
100
AcDbSpline
210
0.0
220
0.0
230
1.0
 70
     8
 71
     3
 72
     8
 73
     4
 74
     0
 42
0.000000001
 43
0.00000001
 40
0.0
 40
0.0
 40
0.0
 40
0.0
 40
1.0
 40
1.0
 40
1.0
 40
1.0
 10
115.3108934715596
 20
141.6417045493073
 30
0.0
 10
115.4808973513953
 20
141.6287649040818
 30
0.0
 10
115.6477018137478
 20
141.7082622107143
 30
0.0
 10
115.7331218802885
 20
141.8429343054196
 30
0.0
  0
SPLINE
  5
263
330
1F
100
AcDbEntity
  8
0
  6
Continuous
 62
     7
370
    25
100
AcDbSpline
210
0.0
220
0.0
230
1.0
 70
     8
 71
     3
 72
     9
 73
     5
 74
     0
 42
0.000000001
 43
0.00000001
 40
0.0
 40
0.0
 40
0.0
 40
0.0
 40
0.571428571428571
 40
1.0
 40
1.0
 40
1.0
 40
1.0
 10
130.999807106475
 20
128.5085404217911
 30
0.0
 10
130.9026620322832
 20
128.515934504777
 30
0.0
 10
130.7330006935655
 20
128.4786193251989
 30
0.0
 10
130.6141872976922
 20
128.3650272776953
 30
0.0
 10
130.5775786977461
 20
128.3073106656788
 30
0.0
  0
SPLINE
  5
264
330
1F
100
AcDbEntity
  8
0
  6
Continuous
 62
     7
370
    25
100
AcDbSpline
210
0.0
220
0.0
230
1.0
 70
     8
 71
     3
 72
     9
 73
     5
 74
     0
 42
0.000000001
 43
0.00000001
 40
0.0
 40
0.0
 40
0.0
 40
0.0
 40
0.5
 40
1.0
 40
1.0
 40
1.0
 40
1.0
 10
130.9998071064762
 20
141.6417045493056
 30
0.0
 10
130.9148051665581
 20
141.6352347266927
 30
0.0
 10
130.7449112483093
 20
141.6659137198986
 30
0.0
 10
130.6202887310169
 20
141.7755982580656
 30
0.0
 10
130.5775786977468
 20
141.8429343054187
 30
0.0
  0
SPLINE
  5
265
330
1F
100
AcDbEntity
  8
0
  6
Continuous
 62
     7
370
    25
100
AcDbSpline
210
0.0
220
0.0
230
1.0
 70
     8
 71
     3
 72
     9
 73
     5
 74
     0
 42
0.000000001
 43
0.00000001
 40
0.0
 40
0.0
 40
0.0
 40
0.0
 40
0.5
 40
1.0
 40
1.0
 40
1.0
 40
1.0
 10
115.3108934715589
 20
128.5085404217921
 30
0.0
 10
115.3958954114769
 20
128.515010244405
 30
0.0
 10
115.5657893297256
 20
128.4843312511991
 30
0.0
 10
115.690411847018
 20
128.3746467130323
 30
0.0
 10
115.7331218802881
 20
128.3073106656793
 30
0.0
  0
SPLINE
  5
266
330
1F
100
AcDbEntity
  8
0
  6
Continuous
 62
     7
370
    25
100
AcDbSpline
210
0.0
220
0.0
230
1.0
 70
     8
 71
     3
 72
    11
 73
     7
 74
     0
 42
0.000000001
 43
0.00000001
 40
0.0
 40
0.0
 40
0.0
 40
0.0
 40
0.2876478479512965
 40
0.5611005784409707
 40
0.8299950982559509
 40
1.0
 40
1.0
 40
1.0
 40
1.0
 10
115.7331219452325
 20
141.8429342048773
 30
0.0
 10
115.7475123740891
 20
141.877990361167
 30
0.0
 10
115.7755830793385
 20
141.9463726894622
 30
0.0
 10
115.7457507393272
 20
142.0196893518533
 30
0.0
 10
115.7115185406774
 20
142.0621628932634
 30
0.0
 10
115.6837925301379
 20
142.0676359871458
 30
0.0
 10
115.6730530361537
 20
142.0697559552798
 30
0.0
  0
SPLINE
  5
267
330
1F
100
AcDbEntity
  8
0
  6
Continuous
 62
     7
370
    25
100
AcDbSpline
210
0.0
220
0.0
230
1.0
 70
    24
 71
     3
 72
    14
 73
    10
 74
     0
 42
0.000000001
 43
0.00000001
 40
0.0
 40
0.0
 40
0.0
 40
0.0
 40
0.250384366109634
 40
0.3856975923178703
 40
0.5014306604032173
 40
0.6388329400918317
 40
0.7674982872365089
 40
0.8877537710032762
 40
1.0
 40
1.0
 40
1.0
 40
1.0
 10
115.6553502890173
 20
142.0751224855492
 30
0.0
 10
115.7146372339027
 20
142.0751224855492
 30
0.0
 10
115.8059641496104
 20
142.0751224855492
 30
0.0
 10
115.9184784795122
 20
142.0751224855492
 30
0.0
 10
115.9982648888851
 20
142.0751224855492
 30
0.0
 10
116.0650641027415
 20
142.0751224855492
 30
0.0
 10
116.1162530664122
 20
142.0751224855492
 30
0.0
 10
116.148882418271
 20
142.0751224855492
 30
0.0
 10
116.1532444197344
 20
142.0751224855492
 30
0.0
 10
116.1553502890173
 20
142.0751224855492
 30
0.0
  0
SPLINE
  5
268
330
1F
100
AcDbEntity
  8
0
  6
Continuous
 62
     7
370
    25
100
AcDbSpline
210
0.0
220
0.0
230
1.0
 70
     8
 71
     3
 72
    12
 73
     8
 74
     0
 42
0.000000001
 43
0.00000001
 40
0.0
 40
0.0
 40
0.0
 40
0.0
 40
0.106360891224351
 40
0.159541336836527
 40
0.265902228060878
 40
0.265902228060878
 40
0.267217449764311
 40
0.267217449764311
 40
0.267217449764311
 40
0.267217449764311
 10
130.5775786977461
 20
128.3073106656788
 30
0.0
 10
130.5395365109181
 20
128.247333880421
 30
0.0
 10
130.5450323830712
 20
128.1730432363844
 30
0.0
 10
130.586928962588
 20
128.0948116511612
 30
0.0
 10
130.628055120332
 20
128.0754355346487
 30
0.0
 10
130.6547024978563
 20
128.0751243932012
 30
0.0
 10
130.6550259995313
 20
128.0751224855492
 30
0.0
 10
130.6553502890173
 20
128.0751224855492
 30
0.0
  0
SPLINE
  5
269
330
1F
100
AcDbEntity
  8
0
  6
Continuous
 62
     7
370
    25
100
AcDbSpline
210
0.0
220
0.0
230
1.0
 70
    24
 71
     3
 72
    16
 73
    12
 74
     0
 42
0.000000001
 43
0.00000001
 40
0.0
 40
0.0
 40
0.0
 40
0.0
 40
0.0739298478317502
 40
0.1513677900738161
 40
0.2324450724296886
 40
0.3172760505391666
 40
0.4059605604440887
 40
0.4985859784696513
 40
0.6141264806631028
 40
0.7496239522892343
 40
1.0
 40
1.0
 40
1.0
 40
1.0
 10
130.1553502890173
 20
128.0751224855492
 30
0.0
 10
130.1562655943098
 20
128.0751224855492
 30
0.0
 10
130.1581396376555
 20
128.0751224855492
 30
0.0
 10
130.1725143892129
 20
128.0751224855492
 30
0.0
 10
130.1952077347017
 20
128.0751224855492
 30
0.0
 10
130.2271702939209
 20
128.0751224855492
 30
0.0
 10
130.2681130750827
 20
128.0751224855492
 30
0.0
 10
130.321580765814
 20
128.0751224855492
 30
0.0
 10
130.3921834262873
 20
128.0751224855492
 30
0.0
 10
130.5046901287626
 20
128.0751224855492
 30
0.0
 10
130.5960627115859
 20
128.0751224855492
 30
0.0
 10
130.6553502890173
 20
128.0751224855492
 30
0.0
  0
SPLINE
  5
26A
330
1F
100
AcDbEntity
  8
0
  6
Continuous
 62
     7
370
    25
100
AcDbSpline
210
0.0
220
0.0
230
1.0
 70
     8
 71
     3
 72
    12
 73
     8
 74
     0
 42
0.000000001
 43
0.00000001
 40
-0.265902228061387
 40
-0.265902228061387
 40
-0.265902228061387
 40
-0.265902228061387
 40
-0.2645870063584663
 40
-0.2645870063584663
 40
-0.1582261151339113
 40
-0.1050456695216343
 40
0.0013152217029208
 40
0.0013152217029208
 40
0.0013152217029208
 40
0.0013152217029208
 10
115.6553502890173
 20
128.0751224855492
 30
0.0
 10
115.6556745785032
 20
128.0751224855492
 30
0.0
 10
115.6559980801779
 20
128.0751243932012
 30
0.0
 10
115.6826454577044
 20
128.0754355346485
 30
0.0
 10
115.7237716154468
 20
128.0948116511609
 30
0.0
 10
115.7656681949641
 20
128.1730432363842
 30
0.0
 10
115.7711640671166
 20
128.2473338804209
 30
0.0
 10
115.7331218802885
 20
128.3073106656788
 30
0.0
  0
SPLINE
  5
26B
330
1F
100
AcDbEntity
  8
0
  6
Continuous
 62
     7
370
    25
100
AcDbSpline
210
0.0
220
0.0
230
1.0
 70
    24
 71
     3
 72
    14
 73
    10
 74
     0
 42
0.000000001
 43
0.00000001
 40
0.0
 40
0.0
 40
0.0
 40
0.0
 40
0.2503818975769405
 40
0.3853960642454612
 40
0.5014219062737861
 40
0.6386745024418747
 40
0.7672919706928744
 40
0.8876008223903926
 40
1.0
 40
1.0
 40
1.0
 40
1.0
 10
115.6553502890173
 20
128.0751224855492
 30
0.0
 10
115.7148833727471
 20
128.0751224855492
 30
0.0
 10
115.8065186562237
 20
128.0751224855492
 30
0.0
 10
115.9190447104013
 20
128.0751224855492
 30
0.0
 10
115.9987029200846
 20
128.0751224855492
 30
0.0
 10
116.065373385882
 20
128.0751224855492
 30
0.0
 10
116.1163956897236
 20
128.0751224855492
 30
0.0
 10
116.148910981744
 20
128.0751224855492
 30
0.0
 10
116.1532530484283
 20
128.0751224855492
 30
0.0
 10
116.1553502890173
 20
128.0751224855492
 30
0.0
  0
LINE
  5
26C
330
1F
100
AcDbEntity
  8
0
  6
Continuous
 62
     7
370
    25
100
AcDbLine
 10
130.6553501214
 20
142.0751227016
 30
0.0
 11
130.6309797379
 21
142.0676767776
 31
0.0
  0
SPLINE
  5
26D
330
1F
100
AcDbEntity
  8
0
  6
Continuous
 62
     7
370
    25
100
AcDbSpline
210
0.0
220
0.0
230
1.0
 70
    24
 71
     3
 72
    16
 73
    12
 74
     0
 42
0.000000001
 43
0.00000001
 40
0.0
 40
0.0
 40
0.0
 40
0.0
 40
0.0740424421768231
 40
0.1515492076760871
 40
0.2326508292781398
 40
0.3174612427217847
 40
0.4060800799075449
 40
0.4985946693164888
 40
0.6144270548830109
 40
0.7496263894763571
 40
1.0
 40
1.0
 40
1.0
 40
1.0
 10
130.1553502890173
 20
142.0751224855492
 30
0.0
 10
130.156262086784
 20
142.0751224855492
 30
0.0
 10
130.1581283438258
 20
142.0751224855492
 30
0.0
 10
130.1724540019711
 20
142.0751224855492
 30
0.0
 10
130.195073410232
 20
142.0751224855492
 30
0.0
 10
130.2269322878365
 20
142.0751224855492
 30
0.0
 10
130.2677435764678
 20
142.0751224855492
 30
0.0
 10
130.3211234676434
 20
142.0751224855492
 30
0.0
 10
130.3916170985042
 20
142.0751224855492
 30
0.0
 10
130.5041351957977
 20
142.0751224855492
 30
0.0
 10
130.5958165616636
 20
142.0751224855492
 30
0.0
 10
130.6553502890173
 20
142.0751224855492
 30
0.0
  0
LINE
  5
26E
330
1F
100
AcDbEntity
  8
0
  6
Continuous
 62
     8
370
    25
100
AcDbLine
 10
109.6553499388
 20
126.075122873
 30
0.0
 11
109.6553499388
 21
144.0751220981
 31
0.0
  0
LINE
  5
26F
330
1F
100
AcDbEntity
  8
0
  6
Continuous
 62
     8
370
    25
100
AcDbLine
 10
136.6553506392
 20
144.0751220981
 30
0.0
 11
136.6553506392
 21
126.075122873
 31
0.0
  0
LINE
  5
270
330
1F
100
AcDbEntity
  8
0
  6
Continuous
 62
     8
370
    25
100
AcDbLine
 10
135.1856565612
 20
142.875122274
 30
0.0
 11
135.1856565612
 21
127.2751226971
 31
0.0
  0
LINE
  5
271
330
1F
100
AcDbEntity
  8
0
  6
Continuous
 62
     8
370
    25
100
AcDbLine
 10
111.1250440168
 20
127.2751226971
 30
0.0
 11
111.1250440168
 21
142.875122274
 31
0.0
  0
SPLINE
  5
272
330
1F
100
AcDbEntity
  8
0
  6
Continuous
 62
     8
370
    25
100
AcDbSpline
210
0.0
220
0.0
230
1.0
 70
     8
 71
     3
 72
    11
 73
     7
 74
     0
 42
0.000000001
 43
0.00000001
 40
0.0
 40
0.0
 40
0.0
 40
0.0
 40
0.1795109175032455
 40
0.445325761849908
 40
0.7156466112346307
 40
1.0
 40
1.0
 40
1.0
 40
1.0
 10
122.9537215273021
 20
142.070401361824
 30
0.0
 10
122.8097777356401
 20
142.0681791437067
 30
0.0
 10
122.4526859243062
 20
142.0626663259357
 30
0.0
 10
121.8795088795593
 20
142.0197482327629
 30
0.0
 10
121.22341540991
 20
141.9463569658646
 30
0.0
 10
120.7830349294793
 20
141.8779850323099
 30
0.0
 10
120.5572741615478
 20
141.8429342048773
 30
0.0
  0
SPLINE
  5
273
330
1F
100
AcDbEntity
  8
0
  6
Continuous
 62
     8
370
    25
100
AcDbSpline
210
0.0
220
0.0
230
1.0
 70
     8
 71
     3
 72
    11
 73
     7
 74
     0
 42
0.000000001
 43
0.00000001
 40
0.0
 40
0.0
 40
0.0
 40
0.0
 40
0.2198454743204365
 40
0.4725930833182415
 40
0.7296251859164736
 40
1.0
 40
1.0
 40
1.0
 40
1.0
 10
123.2326275072418
 20
128.0769318292448
 30
0.0
 10
123.4180325954593
 20
128.0795813321613
 30
0.0
 10
123.8165905488328
 20
128.0852768633357
 30
0.0
 10
124.4311962503599
 20
128.1302674838103
 30
0.0
 10
125.0872839525863
 20
128.2039492255158
 30
0.0
 10
125.5276652365994
 20
128.2722806868474
 30
0.0
 10
125.7534264164868
 20
128.307310766221
 30
0.0
  0
LINE
  5
274
330
1F
100
AcDbEntity
  8
0
  6
Continuous
 62
     8
370
    25
100
AcDbLine
 10
112.1048400688
 20
142.0751227016
 30
0.0
 11
112.1048400688
 21
128.0751222695
 31
0.0
  0
LINE
  5
275
330
1F
100
AcDbEntity
  8
0
  6
Continuous
 62
     8
370
    25
100
AcDbLine
 10
134.2058605092
 20
128.0751222695
 30
0.0
 11
134.2058605092
 21
142.0751227016
 31
0.0
  0
SPLINE
  5
276
330
1F
100
AcDbEntity
  8
0
  6
Continuous
 62
     8
370
    25
100
AcDbSpline
210
0.0
220
0.0
230
1.0
 70
     8
 71
     3
 72
    11
 73
     7
 74
     0
 42
0.000000001
 43
0.00000001
 40
0.0
 40
0.0
 40
0.0
 40
0.0
 40
0.137696887866455
 40
0.4171858930680554
 40
0.7017749847908697
 40
1.0
 40
1.0
 40
1.0
 40
1.0
 10
130.630979737908
 20
142.067676777632
 30
0.0
 10
130.6227454152218
 20
142.0659170820549
 30
0.0
 10
130.5977975509899
 20
142.0605856603922
 30
0.0
 10
130.5650363741103
 20
142.0193956457654
 30
0.0
 10
130.5378526736461
 20
141.9468106263038
 30
0.0
 10
130.5641316989762
 20
141.8780955803274
 30
0.0
 10
130.5775786328021
 20
141.8429342048773
 30
0.0
  0
LINE
  5
277
330
1F
100
AcDbEntity
  8
0
  6
Continuous
 62
     8
370
    25
100
AcDbLine
 10
128.8499920207
 20
128.0751222695
 30
0.0
 11
128.8499920207
 21
128.1115546773
 31
0.0
  0
INSERT
  5
283
330
1F
100
AcDbEntity
  8
0
  6
Continuous
 62
     7
370
    18
100
AcDbBlockReference
  2
SW_CENTERMARKSYMBOL_1
 10
123.155350289
 20
135.0751224855
 30
0.0
  0
ARC
  5
284
330
1F
100
AcDbEntity
  8
0
  6
Continuous
 62
     7
370
    18
100
AcDbCircle
 10
123.155350289
 20
135.0751224855
 30
0.0
 40
5.722500000000011
100
AcDbArc
 50
75.0
 51
345.0
  0
ENDSEC
  0
SECTION
  2
OBJECTS
  0
DICTIONARY
  5
C
330
0
100
AcDbDictionary
281
     1
  3
ACAD_GROUP
350
D
  3
ACAD_LAYOUT
350
1A
  3
ACAD_MLINESTYLE
350
17
  3
ACAD_PLOTSETTINGS
350
19
  3
ACAD_PLOTSTYLENAME
350
E
  3
ACAD_SCALELIST
350
47
  0
DICTIONARY
  5
D
102
{ACAD_REACTORS
330
C
102
}
330
C
100
AcDbDictionary
281
     1
  0
DICTIONARY
  5
1A
102
{ACAD_REACTORS
330
C
102
}
330
C
100
AcDbDictionary
281
     1
  3
Layout1
350
1E
  3
Layout2
350
26
  3
Model
350
22
  0
DICTIONARY
  5
17
102
{ACAD_REACTORS
330
C
102
}
330
C
100
AcDbDictionary
281
     1
  3
Standard
350
18
  0
DICTIONARY
  5
19
102
{ACAD_REACTORS
330
C
102
}
330
C
100
AcDbDictionary
281
     1
  0
ACDBDICTIONARYWDFLT
  5
E
102
{ACAD_REACTORS
330
C
102
}
330
C
100
AcDbDictionary
281
     1
  3
Normal
350
F
100
AcDbDictionaryWithDefault
340
F
  0
DICTIONARY
  5
47
102
{ACAD_REACTORS
330
C
102
}
330
C
100
AcDbDictionary
281
     1
  3
A0
350
48
  3
A1
350
49
  3
A2
350
4A
  3
A3
350
4B
  3
A4
350
4C
  3
A5
350
4D
  3
A6
350
4E
  3
A7
350
4F
  3
A8
350
50
  3
A9
350
51
  3
B0
350
52
  3
B1
350
53
  3
B2
350
54
  3
B3
350
55
  3
B4
350
56
  3
B5
350
57
  3
B6
350
58
  3
B7
350
59
  3
B8
350
5A
  3
B9
350
5B
  3
C0
350
5C
  3
C1
350
5D
  3
C2
350
5E
  3
C3
350
5F
  3
C4
350
60
  3
C5
350
61
  3
C6
350
62
  3
C7
350
63
  3
C8
350
64
  3
C9
350
65
  3
D0
350
66
  3
D1
350
67
  3
D2
350
68
  0
LAYOUT
  5
1E
102
{ACAD_REACTORS
330
1A
102
}
330
1A
100
AcDbPlotSettings
  1

  2
none_device
  4

  6

 40
0.0
 41
0.0
 42
0.0
 43
0.0
 44
0.0
 45
0.0
 46
0.0
 47
0.0
 48
0.0
 49
0.0
140
0.0
141
0.0
142
1.0
143
1.0
 70
   688
 72
     1
 73
     0
 74
     5
  7

 75
    16
147
1.0
148
0.0
149
0.0
100
AcDbLayout
  1
Layout1
 70
     1
 71
     1
 10
0.0
 20
0.0
 11
420.0
 21
297.0
 12
0.0
 22
0.0
 32
0.0
 14
1.0000000000E+20
 24
1.0000000000E+20
 34
1.0000000000E+20
 15
-1.0000000000E+20
 25
-1.0000000000E+20
 35
-1.0000000000E+20
146
0.0
 13
0.0
 23
0.0
 33
0.0
 16
1.0
 26
0.0
 36
0.0
 17
0.0
 27
1.0
 37
0.0
 76
     0
330
1B
  0
LAYOUT
  5
26
102
{ACAD_REACTORS
330
1A
102
}
330
1A
100
AcDbPlotSettings
  1

  2
none_device
  4

  6

 40
0.0
 41
0.0
 42
0.0
 43
0.0
 44
0.0
 45
0.0
 46
0.0
 47
0.0
 48
0.0
 49
0.0
140
0.0
141
0.0
142
1.0
143
1.0
 70
   688
 72
     1
 73
     0
 74
     5
  7

 75
    16
147
1.0
148
0.0
149
0.0
100
AcDbLayout
  1
Layout2
 70
     1
 71
     2
 10
0.0
 20
0.0
 11
0.0
 21
0.0
 12
0.0
 22
0.0
 32
0.0
 14
0.0
 24
0.0
 34
0.0
 15
0.0
 25
0.0
 35
0.0
146
0.0
 13
0.0
 23
0.0
 33
0.0
 16
1.0
 26
0.0
 36
0.0
 17
0.0
 27
1.0
 37
0.0
 76
     0
330
23
  0
LAYOUT
  5
22
102
{ACAD_REACTORS
330
1A
102
}
330
1A
100
AcDbPlotSettings
  1

  2
none_device
  4
Letter_(8.50_x_11.00_Inches)
  6

 40
6.35
 41
6.35
 42
6.35000508
 43
6.35000508
 44
215.9
 45
279.4
 46
0.0
 47
0.0
 48
0.0
 49
0.0
140
0.0
141
0.0
142
1.0
143
1.0
 70
  1712
 72
     1
 73
     0
 74
     0
  7

 75
     0
147
1.0
148
0.0
149
0.0
100
AcDbLayout
  1
Model
 70
     1
 71
     0
 10
0.0
 20
0.0
 11
431.8
 21
279.4
 12
0.0
 22
0.0
 32
0.0
 14
0.0
 24
0.0
 34
0.0
 15
431.8
 25
279.4
 35
0.0
146
0.0
 13
0.0
 23
0.0
 33
0.0
 16
1.0
 26
0.0
 36
0.0
 17
0.0
 27
1.0
 37
0.0
 76
     0
330
1F
331
29
  0
MLINESTYLE
  5
18
102
{ACAD_REACTORS
330
17
102
}
330
17
100
AcDbMlineStyle
  2
Standard
 70
     0
  3

 62
   256
 51
90.0
 52
90.0
 71
     2
 49
0.5
 62
   256
  6
BYLAYER
 49
-0.5
 62
   256
  6
BYLAYER
  0
ACDBPLACEHOLDER
  5
F
102
{ACAD_REACTORS
330
E
102
}
330
E
  0
SCALE
  5
48
102
{ACAD_REACTORS
330
47
102
}
330
47
100
AcDbScale
 70
     0
300
1:1
140
1.0
141
1.0
290
     1
  0
SCALE
  5
49
102
{ACAD_REACTORS
330
47
102
}
330
47
100
AcDbScale
 70
     0
300
1:2
140
1.0
141
2.0
290
     0
  0
SCALE
  5
4A
102
{ACAD_REACTORS
330
47
102
}
330
47
100
AcDbScale
 70
     0
300
1:4
140
1.0
141
4.0
290
     0
  0
SCALE
  5
4B
102
{ACAD_REACTORS
330
47
102
}
330
47
100
AcDbScale
 70
     0
300
1:5
140
1.0
141
5.0
290
     0
  0
SCALE
  5
4C
102
{ACAD_REACTORS
330
47
102
}
330
47
100
AcDbScale
 70
     0
300
1:8
140
1.0
141
8.0
290
     0
  0
SCALE
  5
4D
102
{ACAD_REACTORS
330
47
102
}
330
47
100
AcDbScale
 70
     0
300
1:10
140
1.0
141
10.0
290
     0
  0
SCALE
  5
4E
102
{ACAD_REACTORS
330
47
102
}
330
47
100
AcDbScale
 70
     0
300
1:16
140
1.0
141
16.0
290
     0
  0
SCALE
  5
4F
102
{ACAD_REACTORS
330
47
102
}
330
47
100
AcDbScale
 70
     0
300
1:20
140
1.0
141
20.0
290
     0
  0
SCALE
  5
50
102
{ACAD_REACTORS
330
47
102
}
330
47
100
AcDbScale
 70
     0
300
1:30
140
1.0
141
30.0
290
     0
  0
SCALE
  5
51
102
{ACAD_REACTORS
330
47
102
}
330
47
100
AcDbScale
 70
     0
300
1:40
140
1.0
141
40.0
290
     0
  0
SCALE
  5
52
102
{ACAD_REACTORS
330
47
102
}
330
47
100
AcDbScale
 70
     0
300
1:50
140
1.0
141
50.0
290
     0
  0
SCALE
  5
53
102
{ACAD_REACTORS
330
47
102
}
330
47
100
AcDbScale
 70
     0
300
1:100
140
1.0
141
100.0
290
     0
  0
SCALE
  5
54
102
{ACAD_REACTORS
330
47
102
}
330
47
100
AcDbScale
 70
     0
300
2:1
140
2.0
141
1.0
290
     0
  0
SCALE
  5
55
102
{ACAD_REACTORS
330
47
102
}
330
47
100
AcDbScale
 70
     0
300
4:1
140
4.0
141
1.0
290
     0
  0
SCALE
  5
56
102
{ACAD_REACTORS
330
47
102
}
330
47
100
AcDbScale
 70
     0
300
8:1
140
8.0
141
1.0
290
     0
  0
SCALE
  5
57
102
{ACAD_REACTORS
330
47
102
}
330
47
100
AcDbScale
 70
     0
300
10:1
140
10.0
141
1.0
290
     0
  0
SCALE
  5
58
102
{ACAD_REACTORS
330
47
102
}
330
47
100
AcDbScale
 70
     0
300
100:1
140
100.0
141
1.0
290
     0
  0
SCALE
  5
59
102
{ACAD_REACTORS
330
47
102
}
330
47
100
AcDbScale
 70
     0
300
1/128" = 1'-0"
140
0.0078125
141
12.0
290
     0
  0
SCALE
  5
5A
102
{ACAD_REACTORS
330
47
102
}
330
47
100
AcDbScale
 70
     0
300
1/64" = 1'-0"
140
0.015625
141
12.0
290
     0
  0
SCALE
  5
5B
102
{ACAD_REACTORS
330
47
102
}
330
47
100
AcDbScale
 70
     0
300
1/32" = 1'-0"
140
0.03125
141
12.0
290
     0
  0
SCALE
  5
5C
102
{ACAD_REACTORS
330
47
102
}
330
47
100
AcDbScale
 70
     0
300
1/16" = 1'-0"
140
0.0625
141
12.0
290
     0
  0
SCALE
  5
5D
102
{ACAD_REACTORS
330
47
102
}
330
47
100
AcDbScale
 70
     0
300
3/32" = 1'-0"
140
0.09375
141
12.0
290
     0
  0
SCALE
  5
5E
102
{ACAD_REACTORS
330
47
102
}
330
47
100
AcDbScale
 70
     0
300
1/8" = 1'-0"
140
0.125
141
12.0
290
     0
  0
SCALE
  5
5F
102
{ACAD_REACTORS
330
47
102
}
330
47
100
AcDbScale
 70
     0
300
3/16" = 1'-0"
140
0.1875
141
12.0
290
     0
  0
SCALE
  5
60
102
{ACAD_REACTORS
330
47
102
}
330
47
100
AcDbScale
 70
     0
300
1/4" = 1'-0"
140
0.25
141
12.0
290
     0
  0
SCALE
  5
61
102
{ACAD_REACTORS
330
47
102
}
330
47
100
AcDbScale
 70
     0
300
3/8" = 1'-0"
140
0.375
141
12.0
290
     0
  0
SCALE
  5
62
102
{ACAD_REACTORS
330
47
102
}
330
47
100
AcDbScale
 70
     0
300
1/2" = 1'-0"
140
0.5
141
12.0
290
     0
  0
SCALE
  5
63
102
{ACAD_REACTORS
330
47
102
}
330
47
100
AcDbScale
 70
     0
300
3/4" = 1'-0"
140
0.75
141
12.0
290
     0
  0
SCALE
  5
64
102
{ACAD_REACTORS
330
47
102
}
330
47
100
AcDbScale
 70
     0
300
1" = 1'-0"
140
1.0
141
12.0
290
     0
  0
SCALE
  5
65
102
{ACAD_REACTORS
330
47
102
}
330
47
100
AcDbScale
 70
     0
300
1-1/2" = 1'-0"
140
1.5
141
12.0
290
     0
  0
SCALE
  5
66
102
{ACAD_REACTORS
330
47
102
}
330
47
100
AcDbScale
 70
     0
300
3" = 1'-0"
140
3.0
141
12.0
290
     0
  0
SCALE
  5
67
102
{ACAD_REACTORS
330
47
102
}
330
47
100
AcDbScale
 70
     0
300
6" = 1'-0"
140
6.0
141
12.0
290
     0
  0
SCALE
  5
68
102
{ACAD_REACTORS
330
47
102
}
330
47
100
AcDbScale
 70
     0
300
1'-0" = 1'-0"
140
12.0
141
12.0
290
     0
  0
ENDSEC
  0
EOF
