  0
SECTION
  2
HEADER
  9
$ACADVER
  1
AC1015
  9
$ACADMAINTVER
 70
     6
  9
$DWGCODEPAGE
  3
DOS932
  9
$INSBASE
 10
0.0
 20
0.0
 30
0.0
  9
$EXTMIN
 10
0.0
 20
0.0
 30
0.0
  9
$EXTMAX
 10
431.8
 20
279.4
 30
0.0
  9
$LIMMIN
 10
0.0
 20
0.0
  9
$LIMMAX
 10
431.8
 20
279.4
  9
$ORTHOMODE
 70
     0
  9
$REGENMODE
 70
     1
  9
$FILLMODE
 70
     1
  9
$QTEXTMODE
 70
     0
  9
$MIRRTEXT
 70
     1
  9
$LTSCALE
 40
1.0
  9
$ATTMODE
 70
     1
  9
$TEXTSIZE
 40
3.5
  9
$TRACEWID
 40
1.0
  9
$TEXTSTYLE
  7
Standard
  9
$CLAYER
  8
0
  9
$CELTYPE
  6
ByLayer
  9
$CECOLOR
 62
   256
  9
$CELTSCALE
 40
1.0
  9
$DISPSILH
 70
     0
  9
$DIMSCALE
 40
1.0
  9
$DIMASZ
 40
3.302
  9
$DIMEXO
 40
1.0
  9
$DIMDLI
 40
3.75
  9
$DIMRND
 40
0.0
  9
$DIMDLE
 40
0.0
  9
$DIMEXE
 40
1.0
  9
$DIMTP
 40
0.0
  9
$DIMTM
 40
0.0
  9
$DIMTXT
 40
3.5
  9
$DIMCEN
 40
2.5
  9
$DIMTSZ
 40
0.0
  9
$DIMTOL
 70
     0
  9
$DIMLIM
 70
     0
  9
$DIMTIH
 70
     1
  9
$DIMTOH
 70
     1
  9
$DIMSE1
 70
     0
  9
$DIMSE2
 70
     0
  9
$DIMTAD
 70
     1
  9
$DIMZIN
 70
     1
  9
$DIMBLK
  1

  9
$DIMASO
 70
     1
  9
$DIMSHO
 70
     1
  9
$DIMPOST
  1

  9
$DIMAPOST
  1

  9
$DIMALT
 70
     0
  9
$DIMALTD
 70
     3
  9
$DIMALTF
 40
0.0393700787
  9
$DIMLFAC
 40
1.0
  9
$DIMTOFL
 70
     1
  9
$DIMTVP
 40
0.0
  9
$DIMTIX
 70
     0
  9
$DIMSOXD
 70
     0
  9
$DIMSAH
 70
     0
  9
$DIMBLK1
  1

  9
$DIMBLK2
  1

  9
$DIMSTYLE
  2
ISO-25
  9
$DIMCLRD
 70
     0
  9
$DIMCLRE
 70
     0
  9
$DIMCLRT
 70
     0
  9
$DIMTFAC
 40
1.0
  9
$DIMGAP
 40
1.524
  9
$DIMJUST
 70
     0
  9
$DIMSD1
 70
     0
  9
$DIMSD2
 70
     0
  9
$DIMTOLJ
 70
     0
  9
$DIMTZIN
 70
     1
  9
$DIMALTZ
 70
     0
  9
$DIMALTTZ
 70
     0
  9
$DIMUPT
 70
     0
  9
$DIMDEC
 70
     2
  9
$DIMTDEC
 70
     2
  9
$DIMALTU
 70
     2
  9
$DIMALTTD
 70
     3
  9
$DIMTXSTY
  7
Standard
  9
$DIMAUNIT
 70
     0
  9
$DIMADEC
 70
     2
  9
$DIMALTRND
 40
0.0
  9
$DIMAZIN
 70
     0
  9
$DIMDSEP
 70
    44
  9
$DIMATFIT
 70
     3
  9
$DIMFRAC
 70
     0
  9
$DIMLDRBLK
  1

  9
$DIMLUNIT
 70
     2
  9
$DIMLWD
 70
    -2
  9
$DIMLWE
 70
    -2
  9
$DIMTMOVE
 70
     0
  9
$LUNITS
 70
     2
  9
$LUPREC
 70
     2
  9
$SKETCHINC
 40
1.0
  9
$FILLETRAD
 40
10.0
  9
$AUNITS
 70
     0
  9
$AUPREC
 70
     2
  9
$MENU
  1
.
  9
$ELEVATION
 40
0.0
  9
$PELEVATION
 40
0.0
  9
$THICKNESS
 40
0.0
  9
$LIMCHECK
 70
     0
  9
$CHAMFERA
 40
0.0
  9
$CHAMFERB
 40
0.0
  9
$CHAMFERC
 40
0.0
  9
$CHAMFERD
 40
0.0
  9
$SKPOLY
 70
     0
  9
$TDCREATE
 40
2459229.39633287
  9
$TDUCREATE
 40
2459229.02133287
  9
$TDUPDATE
 40
2459229.39633397
  9
$TDUUPDATE
 40
2459229.02133397
  9
$TDINDWG
 40
0.0000000116
  9
$TDUSRTIMER
 40
0.0000000116
  9
$USRTIMER
 70
     1
  9
$ANGBASE
 50
0.0
  9
$ANGDIR
 70
     0
  9
$PDMODE
 70
     0
  9
$PDSIZE
 40
-1.0
  9
$PLINEWID
 40
0.0
  9
$SPLFRAME
 70
     0
  9
$SPLINETYPE
 70
     6
  9
$SPLINESEGS
 70
     8
  9
$HANDSEED
  5
28F
  9
$SURFTAB1
 70
     6
  9
$SURFTAB2
 70
     6
  9
$SURFTYPE
 70
     6
  9
$SURFU
 70
     6
  9
$SURFV
 70
     6
  9
$UCSBASE
  2

  9
$UCSNAME
  2

  9
$UCSORG
 10
0.0
 20
0.0
 30
0.0
  9
$UCSXDIR
 10
1.0
 20
0.0
 30
0.0
  9
$UCSYDIR
 10
0.0
 20
1.0
 30
0.0
  9
$UCSORTHOREF
  2

  9
$UCSORTHOVIEW
 70
     0
  9
$UCSORGTOP
 10
0.0
 20
0.0
 30
0.0
  9
$UCSORGBOTTOM
 10
0.0
 20
0.0
 30
0.0
  9
$UCSORGLEFT
 10
0.0
 20
0.0
 30
0.0
  9
$UCSORGRIGHT
 10
0.0
 20
0.0
 30
0.0
  9
$UCSORGFRONT
 10
0.0
 20
0.0
 30
0.0
  9
$UCSORGBACK
 10
0.0
 20
0.0
 30
0.0
  9
$PUCSBASE
  2

  9
$PUCSNAME
  2

  9
$PUCSORG
 10
0.0
 20
0.0
 30
0.0
  9
$PUCSXDIR
 10
1.0
 20
0.0
 30
0.0
  9
$PUCSYDIR
 10
0.0
 20
1.0
 30
0.0
  9
$PUCSORTHOREF
  2

  9
$PUCSORTHOVIEW
 70
     0
  9
$PUCSORGTOP
 10
0.0
 20
0.0
 30
0.0
  9
$PUCSORGBOTTOM
 10
0.0
 20
0.0
 30
0.0
  9
$PUCSORGLEFT
 10
0.0
 20
0.0
 30
0.0
  9
$PUCSORGRIGHT
 10
0.0
 20
0.0
 30
0.0
  9
$PUCSORGFRONT
 10
0.0
 20
0.0
 30
0.0
  9
$PUCSORGBACK
 10
0.0
 20
0.0
 30
0.0
  9
$USERI1
 70
     0
  9
$USERI2
 70
     0
  9
$USERI3
 70
     0
  9
$USERI4
 70
     0
  9
$USERI5
 70
     0
  9
$USERR1
 40
0.0
  9
$USERR2
 40
0.0
  9
$USERR3
 40
0.0
  9
$USERR4
 40
0.0
  9
$USERR5
 40
0.0
  9
$WORLDVIEW
 70
     1
  9
$SHADEDGE
 70
     3
  9
$SHADEDIF
 70
    70
  9
$TILEMODE
 70
     1
  9
$MAXACTVP
 70
    64
  9
$PINSBASE
 10
0.0
 20
0.0
 30
0.0
  9
$PLIMCHECK
 70
     0
  9
$PEXTMIN
 10
1.0000000000E+20
 20
1.0000000000E+20
 30
1.0000000000E+20
  9
$PEXTMAX
 10
-1.0000000000E+20
 20
-1.0000000000E+20
 30
-1.0000000000E+20
  9
$PLIMMIN
 10
0.0
 20
0.0
  9
$PLIMMAX
 10
420.0
 20
297.0
  9
$UNITMODE
 70
     0
  9
$VISRETAIN
 70
     1
  9
$PLINEGEN
 70
     0
  9
$PSLTSCALE
 70
     1
  9
$TREEDEPTH
 70
  3020
  9
$CMLSTYLE
  2
Standard
  9
$CMLJUST
 70
     0
  9
$CMLSCALE
 40
20.0
  9
$PROXYGRAPHICS
 70
     1
  9
$MEASUREMENT
 70
     1
  9
$CELWEIGHT
370
    -1
  9
$ENDCAPS
280
     0
  9
$JOINSTYLE
280
     0
  9
$LWDISPLAY
290
     1
  9
$INSUNITS
 70
     4
  9
$HYPERLINKBASE
  1

  9
$STYLESHEET
  1

  9
$XEDIT
290
     1
  9
$CEPSNTYPE
380
     0
  9
$PSTYLEMODE
290
     1
  9
$FINGERPRINTGUID
  2
{28B801D8-B9F0-4282-A1DC-2F88DE1B843E}
  9
$VERSIONGUID
  2
{FAEB1C32-E019-11D5-929B-00C0DF256EC4}
  9
$EXTNAMES
290
     1
  9
$PSVPSCALE
 40
0.0
  9
$OLESTARTUP
290
     0
  0
ENDSEC
  0
SECTION
  2
CLASSES
  0
CLASS
  1
ACDBDICTIONARYWDFLT
  2
AcDbDictionaryWithDefault
  3
ObjectDBX Classes
 90
        0
280
     0
281
     0
  0
CLASS
  1
VISUALSTYLE
  2
AcDbVisualStyle
  3
ObjectDBX Classes
 90
     4095
280
     0
281
     0
  0
CLASS
  1
MATERIAL
  2
AcDbMaterial
  3
ObjectDBX Classes
 90
     1153
280
     0
281
     0
  0
CLASS
  1
SCALE
  2
AcDbScale
  3
ObjectDBX Classes
 90
     1153
280
     0
281
     0
  0
CLASS
  1
TABLESTYLE
  2
AcDbTableStyle
  3
ObjectDBX Classes
 90
     4095
280
     0
281
     0
  0
CLASS
  1
MLEADERSTYLE
  2
AcDbMLeaderStyle
  3
ACDB_MLEADERSTYLE_CLASS
 90
     4095
280
     0
281
     0
  0
CLASS
  1
SUN
  2
AcDbSun
  3
SCENEOE
 90
     1153
280
     0
281
     0
  0
CLASS
  1
ACDBPLACEHOLDER
  2
AcDbPlaceHolder
  3
ObjectDBX Classes
 90
        0
280
     0
281
     0
  0
CLASS
  1
LAYOUT
  2
AcDbLayout
  3
ObjectDBX Classes
 90
        0
280
     0
281
     0
  0
ENDSEC
  0
SECTION
  2
TABLES
  0
TABLE
  2
VPORT
  5
8
330
0
100
AcDbSymbolTable
 70
     1
  0
VPORT
  5
29
330
8
100
AcDbSymbolTableRecord
100
AcDbViewportTableRecord
  2
*Active
 70
     0
 10
0.0
 20
0.0
 11
1.0
 21
1.0
 12
215.9
 22
139.7
 13
0.0
 23
0.0
 14
10.0
 24
10.0
 15
10.0
 25
10.0
 16
0.0
 26
0.0
 36
1.0
 17
0.0
 27
0.0
 37
0.0
 40
279.4
 41
1.5454545455
 42
50.0
 43
0.0
 44
0.0
 50
0.0
 51
0.0
 71
     0
 72
  2000
 73
     1
 74
     3
 75
     0
 76
     0
 77
     0
 78
     0
281
     0
 65
     1
110
0.0
120
0.0
130
0.0
111
1.0
121
0.0
131
0.0
112
0.0
122
1.0
132
0.0
 79
     0
146
0.0
  0
ENDTAB
  0
TABLE
  2
LTYPE
  5
5
330
0
100
AcDbSymbolTable
 70
     6
  0
LTYPE
  5
14
330
5
100
AcDbSymbolTableRecord
100
AcDbLinetypeTableRecord
  2
ByBlock
 70
     0
  3

 72
    65
 73
     0
 40
0.0
  0
LTYPE
  5
15
330
5
100
AcDbSymbolTableRecord
100
AcDbLinetypeTableRecord
  2
ByLayer
 70
     0
  3

 72
    65
 73
     0
 40
0.0
  0
LTYPE
  5
16
330
5
100
AcDbSymbolTableRecord
100
AcDbLinetypeTableRecord
  2
Continuous
 70
     0
  3
Solid line
 72
    65
 73
     0
 40
0.0
  0
LTYPE
  5
6E
330
5
100
AcDbSymbolTableRecord
100
AcDbLinetypeTableRecord
  2
HIDDEN
 70
     0
  3
Hidden __ __ __ __ __ __ __ __ __ __ __ __ __ __
 72
    65
 73
     2
 40
1.905
 49
1.27
 74
     0
 49
-0.635
 74
     0
  0
LTYPE
  5
6F
330
5
100
AcDbSymbolTableRecord
100
AcDbLinetypeTableRecord
  2
PHANTOM
 70
     0
  3
Phantom ______  __  __  ______  __  __  ______
 72
    65
 73
     6
 40
12.7
 49
6.35
 74
     0
 49
-1.27
 74
     0
 49
1.27
 74
     0
 49
-1.27
 74
     0
 49
1.27
 74
     0
 49
-1.27
 74
     0
  0
LTYPE
  5
70
330
5
100
AcDbSymbolTableRecord
100
AcDbLinetypeTableRecord
  2
CENTER
 70
     0
  3
Center ____ _ ____ _ ____ _ ____ _ ____ _ ____
 72
    65
 73
     4
 40
10.16
 49
6.35
 74
     0
 49
-1.27
 74
     0
 49
1.27
 74
     0
 49
-1.27
 74
     0
  0
LTYPE
  5
71
330
5
100
AcDbSymbolTableRecord
100
AcDbLinetypeTableRecord
  2
CENTERX2
 70
     0
  3
Center (2x) ________  __  ________  __  _____
 72
    65
 73
     4
 40
20.32
 49
12.7
 74
     0
 49
-2.54
 74
     0
 49
2.54
 74
     0
 49
-2.54
 74
     0
  0
LTYPE
  5
72
330
5
100
AcDbSymbolTableRecord
100
AcDbLinetypeTableRecord
  2
DOT2
 70
     0
  3
Dot (.5x) ........................................
 72
    65
 73
     2
 40
0.635
 49
0.0
 74
     0
 49
-0.635
 74
     0
  0
ENDTAB
  0
TABLE
  2
LAYER
  5
2
330
0
100
AcDbSymbolTable
 70
     1
  0
LAYER
  5
10
330
2
100
AcDbSymbolTableRecord
100
AcDbLayerTableRecord
  2
0
 70
     0
 62
     7
  6
Continuous
370
    -3
390
F
  0
ENDTAB
  0
TABLE
  2
STYLE
  5
3
330
0
100
AcDbSymbolTable
 70
     2
  0
STYLE
  5
11
330
3
100
AcDbSymbolTableRecord
100
AcDbTextStyleTableRecord
  2
Standard
 70
     0
 40
0.0
 41
1.0
 50
0.0
 71
     0
 42
3.5
  3
txt
  4
bigfont
  0
STYLE
  5
73
330
3
100
AcDbSymbolTableRecord
100
AcDbTextStyleTableRecord
  2
SLDTEXTSTYLE0
 70
     0
 40
0.0
 41
0.7
 50
0.0
 71
     0
 42
3.5
  3
TXT
  4
bigfont
  0
ENDTAB
  0
TABLE
  2
VIEW
  5
6
330
0
100
AcDbSymbolTable
 70
     0
  0
ENDTAB
  0
TABLE
  2
UCS
  5
7
330
0
100
AcDbSymbolTable
 70
     0
  0
ENDTAB
  0
TABLE
  2
APPID
  5
9
330
0
100
AcDbSymbolTable
 70
     1
  0
APPID
  5
12
330
9
100
AcDbSymbolTableRecord
100
AcDbRegAppTableRecord
  2
ACAD
 70
     0
  0
ENDTAB
  0
TABLE
  2
DIMSTYLE
  5
A
330
0
100
AcDbSymbolTable
 70
     1
100
AcDbDimStyleTable
  0
DIMSTYLE
105
27
330
A
100
AcDbSymbolTableRecord
100
AcDbDimStyleTableRecord
  2
ISO-25
 70
     0
 41
2.5
 42
0.625
 43
3.75
 44
1.25
 73
     0
 74
     0
 77
     1
 78
     8
140
2.5
141
2.5
143
0.0393700787
147
0.625
171
     3
172
     1
178
     0
271
     2
272
     2
274
     3
278
    44
283
     0
284
     8
340
11
  0
ENDTAB
  0
TABLE
  2
BLOCK_RECORD
  5
1
330
0
100
AcDbSymbolTable
 70
     3
  0
BLOCK_RECORD
  5
1F
330
1
100
AcDbSymbolTableRecord
100
AcDbBlockTableRecord
  2
*Model_Space
340
22
  0
BLOCK_RECORD
  5
1B
330
1
100
AcDbSymbolTableRecord
100
AcDbBlockTableRecord
  2
*Paper_Space
340
1E
  0
BLOCK_RECORD
  5
23
330
1
100
AcDbSymbolTableRecord
100
AcDbBlockTableRecord
  2
*Paper_Space0
340
26
  0
BLOCK_RECORD
  5
189
330
1
100
AcDbSymbolTableRecord
100
AcDbBlockTableRecord
  2
SW_CENTERMARKSYMBOL_0
340
0
102
{BLKREFS
331
194
102
}
  0
BLOCK_RECORD
  5
282
330
1
100
AcDbSymbolTableRecord
100
AcDbBlockTableRecord
  2
SW_CENTERMARKSYMBOL_1
340
0
102
{BLKREFS
331
28D
102
}
  0
ENDTAB
  0
ENDSEC
  0
SECTION
  2
BLOCKS
  0
BLOCK
  5
20
330
1F
100
AcDbEntity
  8
0
100
AcDbBlockBegin
  2
*Model_Space
 70
     0
 10
0.0
 20
0.0
 30
0.0
  3
*Model_Space
  1

  0
ENDBLK
  5
21
330
1F
100
AcDbEntity
  8
0
100
AcDbBlockEnd
  0
BLOCK
  5
1C
330
1B
100
AcDbEntity
 67
     1
  8
0
100
AcDbBlockBegin
  2
*Paper_Space
 70
     0
 10
0.0
 20
0.0
 30
0.0
  3
*Paper_Space
  1

  0
ENDBLK
  5
1D
330
1B
100
AcDbEntity
 67
     1
  8
0
100
AcDbBlockEnd
  0
BLOCK
  5
24
330
23
100
AcDbEntity
  8
0
100
AcDbBlockBegin
  2
*Paper_Space0
 70
     0
 10
0.0
 20
0.0
 30
0.0
  3
*Paper_Space0
  1

  0
ENDBLK
  5
25
330
23
100
AcDbEntity
  8
0
100
AcDbBlockEnd
  0
BLOCK
  5
18A
330
189
100
AcDbEntity
  8
0
100
AcDbBlockBegin
  2
SW_CENTERMARKSYMBOL_0
 70
     0
 10
0.0
 20
0.0
 30
0.0
  3
SW_CENTERMARKSYMBOL_0
  1

  0
LINE
  5
18C
330
189
100
AcDbEntity
  8
0
  6
Continuous
 62
     0
370
    18
100
AcDbLine
 10
0.0
 20
0.0
 30
0.0
 11
0.0
 21
2.5
 31
0.0
  0
LINE
  5
18D
330
189
100
AcDbEntity
  8
0
  6
Continuous
 62
     0
370
    18
100
AcDbLine
 10
0.0
 20
0.0
 30
0.0
 11
-2.5
 21
0.0
 31
0.0
  0
LINE
  5
18E
330
189
100
AcDbEntity
  8
0
  6
Continuous
 62
     0
370
    18
100
AcDbLine
 10
0.0
 20
0.0
 30
0.0
 11
0.0
 21
-2.5
 31
0.0
  0
LINE
  5
18F
330
189
100
AcDbEntity
  8
0
  6
Continuous
 62
     0
370
    18
100
AcDbLine
 10
0.0
 20
0.0
 30
0.0
 11
2.5
 21
0.0
 31
0.0
  0
LINE
  5
190
330
189
100
AcDbEntity
  8
0
  6
Continuous
 62
     0
370
    18
100
AcDbLine
 10
0.0
 20
5.0
 30
0.0
 11
0.0
 21
27.3385815022
 31
0.0
  0
LINE
  5
191
330
189
100
AcDbEntity
  8
0
  6
Continuous
 62
     0
370
    18
100
AcDbLine
 10
-5.0
 20
0.0
 30
0.0
 11
-11.5
 21
0.0
 31
0.0
  0
LINE
  5
192
330
189
100
AcDbEntity
  8
0
  6
Continuous
 62
     0
370
    18
100
AcDbLine
 10
0.0
 20
-5.0
 30
0.0
 11
0.0
 21
-11.5
 31
0.0
  0
LINE
  5
193
330
189
100
AcDbEntity
  8
0
  6
Continuous
 62
     0
370
    18
100
AcDbLine
 10
5.0
 20
0.0
 30
0.0
 11
11.5
 21
0.0
 31
0.0
  0
ENDBLK
  5
18B
330
189
100
AcDbEntity
  8
0
100
AcDbBlockEnd
  0
BLOCK
  5
283
330
282
100
AcDbEntity
  8
0
100
AcDbBlockBegin
  2
SW_CENTERMARKSYMBOL_1
 70
     0
 10
0.0
 20
0.0
 30
0.0
  3
SW_CENTERMARKSYMBOL_1
  1

  0
LINE
  5
285
330
282
100
AcDbEntity
  8
0
  6
Continuous
 62
     0
370
    18
100
AcDbLine
 10
0.0
 20
0.0
 30
0.0
 11
0.0
 21
2.5
 31
0.0
  0
LINE
  5
286
330
282
100
AcDbEntity
  8
0
  6
Continuous
 62
     0
370
    18
100
AcDbLine
 10
0.0
 20
0.0
 30
0.0
 11
-2.5
 21
0.0
 31
0.0
  0
LINE
  5
287
330
282
100
AcDbEntity
  8
0
  6
Continuous
 62
     0
370
    18
100
AcDbLine
 10
0.0
 20
0.0
 30
0.0
 11
0.0
 21
-2.5
 31
0.0
  0
LINE
  5
288
330
282
100
AcDbEntity
  8
0
  6
Continuous
 62
     0
370
    18
100
AcDbLine
 10
0.0
 20
0.0
 30
0.0
 11
2.5
 21
0.0
 31
0.0
  0
LINE
  5
289
330
282
100
AcDbEntity
  8
0
  6
Continuous
 62
     0
370
    18
100
AcDbLine
 10
0.0
 20
5.0
 30
0.0
 11
0.0
 21
7.5680625
 31
0.0
  0
LINE
  5
28A
330
282
100
AcDbEntity
  8
0
  6
Continuous
 62
     0
370
    18
100
AcDbLine
 10
-5.0
 20
0.0
 30
0.0
 11
-26.1715877928
 21
0.0
 31
0.0
  0
LINE
  5
28B
330
282
100
AcDbEntity
  8
0
  6
Continuous
 62
     0
370
    18
100
AcDbLine
 10
0.0
 20
-5.0
 30
0.0
 11
0.0
 21
-7.5680625
 31
0.0
  0
LINE
  5
28C
330
282
100
AcDbEntity
  8
0
  6
Continuous
 62
     0
370
    18
100
AcDbLine
 10
5.0
 20
0.0
 30
0.0
 11
26.2349780507
 21
0.0
 31
0.0
  0
ENDBLK
  5
284
330
282
100
AcDbEntity
  8
0
100
AcDbBlockEnd
  0
ENDSEC
  0
SECTION
  2
ENTITIES
  0
MTEXT
  5
74
330
1F
100
AcDbEntity
  8
0
  6
Continuous
 62
     7
370
     0
100
AcDbMText
 10
147.2920362301
 20
119.6633800455
 30
0.0
 40
5.2916666667
 41
0.0
 71
     1
 72
     1
  1
5R-TK1221
  7
SLDTEXTSTYLE0
 73
     1
 44
1.0
  0
LINE
  5
75
330
1F
100
AcDbEntity
  8
0
  6
Continuous
 62
     7
370
    25
100
AcDbLine
 10
136.9848165351
 20
72.1269853585
 30
0.0
 11
147.9848155442
 21
72.1269853585
 31
0.0
  0
LINE
  5
76
330
1F
100
AcDbEntity
  8
0
  6
Continuous
 62
     7
370
    25
100
AcDbLine
 10
147.9848155442
 20
90.1269845837
 30
0.0
 11
136.9848165351
 21
90.1269845837
 31
0.0
  0
LINE
  5
77
330
1F
100
AcDbEntity
  8
0
  6
Continuous
 62
     7
370
    25
100
AcDbLine
 10
98.9848168257
 20
90.1269845837
 30
0.0
 11
98.4848158124
 21
89.626985433
 31
0.0
  0
LINE
  5
78
330
1F
100
AcDbEntity
  8
0
  6
Continuous
 62
     7
370
    25
100
AcDbLine
 10
98.4848158124
 20
72.6269845092
 30
0.0
 11
98.9848168257
 21
72.1269853585
 31
0.0
  0
LINE
  5
79
330
1F
100
AcDbEntity
  8
0
  6
Continuous
 62
     7
370
    25
100
AcDbLine
 10
109.9848158348
 20
90.1269845837
 30
0.0
 11
98.9848168257
 21
90.1269845837
 31
0.0
  0
LINE
  5
7A
330
1F
100
AcDbEntity
  8
0
  6
Continuous
 62
     7
370
    25
100
AcDbLine
 10
98.9848168257
 20
72.1269853585
 30
0.0
 11
109.9848158348
 21
72.1269853585
 31
0.0
  0
LINE
  5
7B
330
1F
100
AcDbEntity
  8
0
  6
Continuous
 62
     7
370
    25
100
AcDbLine
 10
147.9848155442
 20
72.1269853585
 30
0.0
 11
148.4848165575
 21
72.6269845092
 31
0.0
  0
LINE
  5
7C
330
1F
100
AcDbEntity
  8
0
  6
Continuous
 62
     7
370
    25
100
AcDbLine
 10
148.4848165575
 20
89.626985433
 30
0.0
 11
147.9848155442
 21
90.1269845837
 31
0.0
  0
ARC
  5
7D
330
1F
100
AcDbEntity
  8
0
  6
Continuous
 62
     7
370
    25
100
AcDbCircle
 10
136.984816185
 20
88.6269849711
 30
0.0
 40
1.500000000000015
100
AcDbArc
 50
90.0
 51
168.4630409672
  0
ARC
  5
7E
330
1F
100
AcDbEntity
  8
0
  6
Continuous
 62
     7
370
    25
100
AcDbCircle
 10
136.984816185
 20
73.6269849711
 30
0.0
 40
1.500000000000018
100
AcDbArc
 50
191.5369590328
 51
270.0
  0
ARC
  5
7F
330
1F
100
AcDbEntity
  8
0
  6
Continuous
 62
     7
370
    25
100
AcDbCircle
 10
109.984816185
 20
88.6269849711
 30
0.0
 40
1.5
100
AcDbArc
 50
11.5369590328
 51
90.0
  0
ARC
  5
80
330
1F
100
AcDbEntity
  8
0
  6
Continuous
 62
     7
370
    25
100
AcDbCircle
 10
109.984816185
 20
73.6269849711
 30
0.0
 40
1.5
100
AcDbArc
 50
270.0
 51
348.4630409672
  0
ARC
  5
81
330
1F
100
AcDbEntity
  8
0
  6
Continuous
 62
     7
370
    25
100
AcDbCircle
 10
112.4343059278
 20
89.1269849711
 30
0.0
 40
1.00000000000002
100
AcDbArc
 50
191.5369590328
 51
270.0
  0
ARC
  5
82
330
1F
100
AcDbEntity
  8
0
  6
Continuous
 62
     7
370
    25
100
AcDbCircle
 10
112.4343059278
 20
73.1269849711
 30
0.0
 40
1.000000000000017
100
AcDbArc
 50
90.0
 51
168.4630409672
  0
ARC
  5
83
330
1F
100
AcDbEntity
  8
0
  6
Continuous
 62
     7
370
    25
100
AcDbCircle
 10
134.5353264422
 20
89.1269849711
 30
0.0
 40
1.0
100
AcDbArc
 50
270.0
 51
348.4630409672
  0
ARC
  5
84
330
1F
100
AcDbEntity
  8
0
  6
Continuous
 62
     7
370
    25
100
AcDbCircle
 10
134.5353264422
 20
73.1269849711
 30
0.0
 40
1.0
100
AcDbArc
 50
11.5369590328
 51
90.0
  0
LINE
  5
85
330
1F
100
AcDbEntity
  8
0
  6
Continuous
 62
     7
370
    25
100
AcDbLine
 10
115.9848163526
 20
88.1269851872
 30
0.0
 11
112.4343059647
 21
88.1269851872
 31
0.0
  0
LINE
  5
86
330
1F
100
AcDbEntity
  8
0
  6
Continuous
 62
     7
370
    25
100
AcDbLine
 10
134.5353264052
 20
88.1269851872
 30
0.0
 11
130.9848160173
 21
88.1269851872
 31
0.0
  0
LINE
  5
87
330
1F
100
AcDbEntity
  8
0
  6
Continuous
 62
     7
370
    25
100
AcDbLine
 10
112.4343059647
 20
74.126984755
 30
0.0
 11
134.5353264052
 21
74.126984755
 31
0.0
  0
LINE
  5
88
330
1F
100
AcDbEntity
  8
0
  6
Continuous
 62
     7
370
    25
100
AcDbLine
 10
116.4848159689
 20
91.195047664
 30
0.0
 11
116.4848159689
 21
88.6269848035
 31
0.0
  0
LINE
  5
89
330
1F
100
AcDbEntity
  8
0
  6
Continuous
 62
     7
370
    25
100
AcDbLine
 10
130.484816401
 20
88.6269848035
 30
0.0
 11
130.484816401
 21
91.195047664
 31
0.0
  0
LINE
  5
8A
330
1F
100
AcDbEntity
  8
0
  6
Continuous
 62
     7
370
    25
100
AcDbLine
 10
130.484816401
 20
91.195047664
 30
0.0
 11
128.5528785239
 21
93.1269850754
 31
0.0
  0
LINE
  5
8B
330
1F
100
AcDbEntity
  8
0
  6
Continuous
 62
     7
370
    25
100
AcDbLine
 10
118.416753846
 20
93.1269850754
 30
0.0
 11
116.4848159689
 21
91.195047664
 31
0.0
  0
LINE
  5
8C
330
1F
100
AcDbEntity
  8
0
  6
Continuous
 62
     7
370
    25
100
AcDbLine
 10
128.5528785239
 20
95.6269845539
 30
0.0
 11
128.2670956727
 21
104.7720376574
 31
0.0
  0
LINE
  5
8D
330
1F
100
AcDbEntity
  8
0
  6
Continuous
 62
     7
370
    25
100
AcDbLine
 10
118.7025366973
 20
104.7720376574
 30
0.0
 11
118.416753846
 21
95.6269845539
 31
0.0
  0
LINE
  5
8E
330
1F
100
AcDbEntity
  8
0
  6
Continuous
 62
     7
370
    25
100
AcDbLine
 10
118.416753846
 20
95.6269845539
 30
0.0
 11
118.416753846
 21
93.1269850754
 31
0.0
  0
LINE
  5
8F
330
1F
100
AcDbEntity
  8
0
  6
Continuous
 62
     7
370
    25
100
AcDbLine
 10
128.5528785239
 20
93.1269850754
 30
0.0
 11
128.5528785239
 21
95.6269845539
 31
0.0
  0
LINE
  5
90
330
1F
100
AcDbEntity
  8
0
  6
Continuous
 62
     7
370
    25
100
AcDbLine
 10
128.2670956727
 20
104.7720376574
 30
0.0
 11
127.484816375
 21
106.1269853436
 31
0.0
  0
LINE
  5
91
330
1F
100
AcDbEntity
  8
0
  6
Continuous
 62
     7
370
    25
100
AcDbLine
 10
119.484815995
 20
106.1269853436
 30
0.0
 11
118.7025366973
 21
104.7720376574
 31
0.0
  0
SPLINE
  5
92
330
1F
100
AcDbEntity
  8
0
  6
Continuous
 62
     7
370
    25
100
AcDbSpline
210
0.0
220
0.0
230
1.0
 70
     8
 71
     3
 72
    11
 73
     7
 74
     0
 42
0.000000001
 43
0.00000001
 40
0.0
 40
0.0
 40
0.0
 40
0.0
 40
0.2501293618956914
 40
0.5
 40
0.7498706381043087
 40
1.0
 40
1.0
 40
1.0
 40
1.0
 10
130.9847606036399
 20
88.12693303310095
 30
0.0
 10
130.9193086660186
 20
88.13467155726528
 30
0.0
 10
130.7884724916383
 20
88.15014060117453
 30
0.0
 10
130.6226581398447
 20
88.26482692597186
 30
0.0
 10
130.5079718150473
 20
88.43064127776547
 30
0.0
 10
130.4925027711381
 20
88.56147745214581
 30
0.0
 10
130.4847642469738
 20
88.62692938976704
 30
0.0
  0
SPLINE
  5
93
330
1F
100
AcDbEntity
  8
0
  6
Continuous
 62
     7
370
    25
100
AcDbSpline
210
0.0
220
0.0
230
1.0
 70
     8
 71
     3
 72
    11
 73
     7
 74
     0
 42
0.000000001
 43
0.00000001
 40
0.0
 40
0.0
 40
0.0
 40
0.0
 40
0.2501293618956914
 40
0.5
 40
0.7498706381043087
 40
1.0
 40
1.0
 40
1.0
 40
1.0
 10
116.4848681229685
 20
88.62692938976704
 30
0.0
 10
116.4771295988041
 20
88.56147745214581
 30
0.0
 10
116.4616605548949
 20
88.43064127776549
 30
0.0
 10
116.3469742300976
 20
88.26482692597186
 30
0.0
 10
116.1811598783039
 20
88.15014060117453
 30
0.0
 10
116.0503237039236
 20
88.13467155726528
 30
0.0
 10
115.9848717663024
 20
88.12693303310095
 30
0.0
  0
LINE
  5
94
330
1F
100
AcDbEntity
  8
0
  6
Continuous
 62
     7
370
    25
100
AcDbLine
 10
147.9848155442
 20
72.1269853585
 30
0.0
 11
147.9848155442
 21
90.1269845837
 31
0.0
  0
LINE
  5
95
330
1F
100
AcDbEntity
  8
0
  6
Continuous
 62
     7
370
    25
100
AcDbLine
 10
98.9848168257
 20
81.1269849711
 30
0.0
 11
98.9848168257
 21
72.1269853585
 31
0.0
  0
LINE
  5
96
330
1F
100
AcDbEntity
  8
0
  6
Continuous
 62
     7
370
    25
100
AcDbLine
 10
98.9848168257
 20
90.1269845837
 30
0.0
 11
98.9848168257
 21
81.1269849711
 31
0.0
  0
LINE
  5
97
330
1F
100
AcDbEntity
  8
0
  6
Continuous
 62
     7
370
    25
100
AcDbLine
 10
98.4848158124
 20
81.1269849711
 30
0.0
 11
98.4848158124
 21
89.626985433
 31
0.0
  0
LINE
  5
98
330
1F
100
AcDbEntity
  8
0
  6
Continuous
 62
     7
370
    25
100
AcDbLine
 10
98.4848158124
 20
72.6269845092
 30
0.0
 11
98.4848158124
 21
81.1269849711
 31
0.0
  0
LINE
  5
99
330
1F
100
AcDbEntity
  8
0
  6
Continuous
 62
     7
370
    25
100
AcDbLine
 10
148.4848165575
 20
89.626985433
 30
0.0
 11
148.4848165575
 21
72.6269845092
 31
0.0
  0
LINE
  5
9A
330
1F
100
AcDbEntity
  8
0
  6
Continuous
 62
     7
370
    25
100
AcDbLine
 10
124.9845082795
 20
77.4820747957
 30
0.0
 11
125.6737262167
 21
76.1681956411
 31
0.0
  0
ARC
  5
9B
330
1F
100
AcDbEntity
  8
0
  6
Continuous
 62
     7
370
    25
100
AcDbCircle
 10
125.7405779645
 20
76.2032637546
 30
0.0
 40
0.0754912582857817
100
AcDbArc
 50
207.6800279694
 51
311.070386533
  0
ARC
  5
9C
330
1F
100
AcDbEntity
  8
0
  6
Continuous
 62
     7
370
    25
100
AcDbCircle
 10
127.484816185
 20
74.201718555
 30
0.0
 40
2.57941931565541
100
AcDbArc
 50
48.929613467
 51
131.070386533
  0
ARC
  5
9D
330
1F
100
AcDbEntity
  8
0
  6
Continuous
 62
     7
370
    25
100
AcDbCircle
 10
129.2290544055
 20
76.2032637546
 30
0.0
 40
0.075491258285771
100
AcDbArc
 50
228.929613467
 51
332.3199720306
  0
LINE
  5
9E
330
1F
100
AcDbEntity
  8
0
  6
Continuous
 62
     7
370
    25
100
AcDbLine
 10
129.2959063004
 20
76.1681956411
 30
0.0
 11
129.9851241212
 21
77.4820747957
 31
0.0
  0
LINE
  5
9F
330
1F
100
AcDbEntity
  8
0
  6
Continuous
 62
     7
370
    25
100
AcDbLine
 10
129.9851241212
 20
77.4820747957
 30
0.0
 11
129.9453091498
 21
77.4593221196
 31
0.0
  0
ARC
  5
A0
330
1F
100
AcDbEntity
  8
0
  6
Continuous
 62
     7
370
    25
100
AcDbCircle
 10
129.6480104108
 20
77.9795656357
 30
0.0
 40
0.5991992501208521
100
AcDbArc
 50
199.6800689411
 51
299.7462530425
  0
LINE
  5
A1
330
1F
100
AcDbEntity
  8
0
  6
Continuous
 62
     7
370
    25
100
AcDbLine
 10
129.0838115539
 20
77.7777746026
 30
0.0
 11
127.9973054926
 21
80.8155983451
 31
0.0
  0
SPLINE
  5
A2
330
1F
100
AcDbEntity
  8
0
  6
Continuous
 62
     7
370
    25
100
AcDbSpline
210
0.0
220
0.0
230
1.0
 70
     8
 71
     3
 72
    16
 73
    12
 74
     0
 42
0.000000001
 43
0.00000001
 40
0.0
 40
0.0
 40
0.0
 40
0.0
 40
0.1113160552874951
 40
0.2221777142163596
 40
0.333357231917414
 40
0.4444842326561919
 40
0.5552113451997907
 40
0.6662702792617305
 40
0.7776772343596836
 40
0.888683744007764
 40
1.0
 40
1.0
 40
1.0
 40
1.0
 10
127.9973054545302
 20
80.81559835383122
 30
0.0
 10
127.9734415113923
 20
80.85612055588393
 30
0.0
 10
127.9258110386371
 20
80.93699954682405
 30
0.0
 10
127.8180786065712
 20
81.03005295663732
 30
0.0
 10
127.6929649954381
 20
81.09511406751677
 30
0.0
 10
127.5555641475078
 20
81.12827096326443
 30
0.0
 10
127.4144706950917
 20
81.12833423617344
 30
0.0
 10
127.2769725908355
 20
81.09527803752225
 30
0.0
 10
127.1517291974434
 20
81.03018042099093
 30
0.0
 10
127.0438317116655
 20
80.93706891406148
 30
0.0
 10
126.9961839755529
 20
80.85612613116349
 30
0.0
 10
126.9723269154121
 20
80.81559835383109
 30
0.0
  0
LINE
  5
A3
330
1F
100
AcDbEntity
  8
0
  6
Continuous
 62
     7
370
    25
100
AcDbLine
 10
126.9723270244
 20
80.8155983451
 30
0.0
 11
125.8860987302
 21
77.778552257
 31
0.0
  0
ARC
  5
A4
330
1F
100
AcDbEntity
  8
0
  6
Continuous
 62
     7
370
    25
100
AcDbCircle
 10
125.3219000502
 20
77.980343166
 30
0.0
 40
0.5991992501208464
100
AcDbArc
 50
241.1755227373
 51
340.3199310589
  0
LINE
  5
A5
330
1F
100
AcDbEntity
  8
0
  6
Continuous
 62
     7
370
    25
100
AcDbLine
 10
125.0330093473
 20
77.4553842549
 30
0.0
 11
124.9845082795
 21
77.4820747957
 31
0.0
  0
SPLINE
  5
A6
330
1F
100
AcDbEntity
  8
0
  6
Continuous
 62
     7
370
    25
100
AcDbSpline
210
0.0
220
0.0
230
1.0
 70
     8
 71
     3
 72
    16
 73
    12
 74
     0
 42
0.000000001
 43
0.00000001
 40
0.0
 40
0.0
 40
0.0
 40
0.0
 40
0.0739298478380645
 40
0.1513677900875573
 40
0.2324450724520033
 40
0.3172760505712285
 40
0.4059605604870915
 40
0.4985859785248051
 40
0.6141264807254729
 40
0.7496239523722917
 40
1.0
 40
1.0
 40
1.0
 40
1.0
 10
116.4848161849711
 20
78.52890875974498
 30
0.0
 10
116.4839008796784
 20
78.59432039423992
 30
0.0
 10
116.4820268363324
 20
78.72824755423083
 30
0.0
 10
116.4676520847721
 20
78.93348952976609
 30
0.0
 10
116.4449587392789
 20
79.14761709733645
 30
0.0
 10
116.4129961800534
 20
79.3706321847142
 30
0.0
 10
116.3720533988836
 20
79.60254250012079
 30
0.0
 10
116.3185857081435
 20
79.85971020086426
 30
0.0
 10
116.2479830476579
 20
80.15548432397205
 30
0.0
 10
116.1354763451904
 20
80.5846116794043
 30
0.0
 10
116.0441037623825
 20
80.9135509851636
 30
0.0
 10
115.9848161849711
 20
81.1269849710983
 30
0.0
  0
SPLINE
  5
A7
330
1F
100
AcDbEntity
  8
0
  6
Continuous
 62
     7
370
    25
100
AcDbSpline
210
0.0
220
0.0
230
1.0
 70
     8
 71
     3
 72
    14
 73
    10
 74
     0
 42
0.000000001
 43
0.00000001
 40
0.0
 40
0.0
 40
0.0
 40
0.0
 40
0.2503818975769405
 40
0.3853960642454612
 40
0.5014219062737861
 40
0.6386745024418747
 40
0.7672919706928744
 40
0.8876008223903926
 40
1.0
 40
1.0
 40
1.0
 40
1.0
 10
115.9848161849711
 20
81.1269849710983
 30
0.0
 10
116.0443492687009
 20
81.34035467879438
 30
0.0
 10
116.1359845521775
 20
81.66878036120622
 30
0.0
 10
116.2485106063551
 20
82.09791325378023
 30
0.0
 10
116.3281688160384
 20
82.43211115081127
 30
0.0
 10
116.3948392818358
 20
82.76347402064789
 30
0.0
 10
116.4458615856774
 20
83.10138626771894
 30
0.0
 10
116.4783768776978
 20
83.41970232818645
 30
0.0
 10
116.4827189443821
 20
83.62560778534103
 30
0.0
 10
116.4848161849711
 20
83.72506118245163
 30
0.0
  0
LINE
  5
A8
330
1F
100
AcDbEntity
  8
0
  6
Continuous
 62
     7
370
    25
100
AcDbLine
 10
116.4848159689
 20
83.7250610986
 30
0.0
 11
116.4848159689
 21
86.6270310418
 31
0.0
  0
SPLINE
  5
A9
330
1F
100
AcDbEntity
  8
0
  6
Continuous
 62
     7
370
    25
100
AcDbSpline
210
0.0
220
0.0
230
1.0
 70
     8
 71
     3
 72
    19
 73
    15
 74
     0
 42
0.000000001
 43
0.00000001
 40
0.0
 40
0.0
 40
0.0
 40
0.0
 40
0.0504323727095946
 40
0.1003565609002702
 40
0.1500822900422585
 40
0.199922985600534
 40
0.250189922563005
 40
0.3750855037481943
 40
0.5000544104077007
 40
0.6247887185113573
 40
0.7499189120354086
 40
0.8333029051587477
 40
0.9161791203953933
 40
1.0
 40
1.0
 40
1.0
 40
1.0
 10
117.9847701169259
 20
88.12698497109831
 30
0.0
 10
117.9838813336336
 20
88.08740400239382
 30
0.0
 10
117.9821127229217
 20
88.00864090474711
 30
0.0
 10
117.9678733691313
 20
87.89156046249293
 30
0.0
 10
117.9451119322868
 20
87.77639705363683
 30
0.0
 10
117.9130127648894
 20
87.66315033797746
 30
0.0
 10
117.8517083763843
 20
87.49746865225742
 30
0.0
 10
117.7404731844088
 20
87.28796884834428
 30
0.0
 10
117.5522608934411
 20
87.05979974389473
 30
0.0
 10
117.323976089986
 20
86.87145006819863
 30
0.0
 10
117.0914433336939
 20
86.74782321457086
 30
0.0
 10
116.8745861475701
 20
86.67402448510953
 30
0.0
 10
116.6815248496949
 20
86.63429343689417
 30
0.0
 10
116.5506329924855
 20
86.62946096685167
 30
0.0
 10
116.4848161849711
 20
86.62703103914352
 30
0.0
  0
LINE
  5
AA
330
1F
100
AcDbEntity
  8
0
  6
Continuous
 62
     7
370
    25
100
AcDbLine
 10
117.9847701143
 20
88.1269851872
 30
0.0
 11
120.8867400575
 21
88.1269851872
 31
0.0
  0
SPLINE
  5
AB
330
1F
100
AcDbEntity
  8
0
  6
Continuous
 62
     7
370
    25
100
AcDbSpline
210
0.0
220
0.0
230
1.0
 70
     8
 71
     3
 72
    10
 73
     6
 74
     0
 42
0.000000001
 43
0.00000001
 40
-0.796694357225795
 40
-0.796694357225795
 40
-0.796694357225795
 40
-0.796694357225795
 40
-0.533073702210409
 40
-0.533073702210409
 40
-0.532116113157305
 40
-0.532116113157305
 40
-0.532116113157305
 40
-0.532116113157305
 10
120.8867399736178
 20
88.12698497110554
 30
0.0
 10
121.7654754903342
 20
88.12698497110273
 30
0.0
 10
122.6277634262691
 20
88.39345237416276
 30
0.0
 10
123.4786672266291
 20
88.62526890312597
 30
0.0
 10
123.4817403319691
 20
88.62613188296643
 30
0.0
 10
123.4848161849711
 20
88.62698497109831
 30
0.0
  0
SPLINE
  5
AC
330
1F
100
AcDbEntity
  8
0
  6
Continuous
 62
     7
370
    25
100
AcDbSpline
210
0.0
220
0.0
230
1.0
 70
     8
 71
     3
 72
    10
 73
     6
 74
     0
 42
0.000000001
 43
0.00000001
 40
-0.263620655015386
 40
-0.263620655015386
 40
-0.263620655015386
 40
-0.263620655015386
 40
-0.2626630659468851
 40
-0.2626630659468851
 40
0.0009575890685009
 40
0.0009575890685009
 40
0.0009575890685009
 40
0.0009575890685009
 10
123.4848161849711
 20
88.62698497109831
 30
0.0
 10
123.4878920380226
 20
88.6261318829527
 30
0.0
 10
123.490966036328
 20
88.62527243768065
 30
0.0
 10
124.3415184018367
 20
88.39207168871111
 30
0.0
 10
125.2041568796065
 20
88.12698497109831
 30
0.0
 10
126.0828923963245
 20
88.12698497109831
 30
0.0
  0
LINE
  5
AD
330
1F
100
AcDbEntity
  8
0
  6
Continuous
 62
     7
370
    25
100
AcDbLine
 10
126.0828923124
 20
88.1269851872
 30
0.0
 11
128.9848622556
 21
88.1269851872
 31
0.0
  0
SPLINE
  5
AE
330
1F
100
AcDbEntity
  8
0
  6
Continuous
 62
     7
370
    25
100
AcDbSpline
210
0.0
220
0.0
230
1.0
 70
     8
 71
     3
 72
    19
 73
    15
 74
     0
 42
0.000000001
 43
0.00000001
 40
0.0
 40
0.0
 40
0.0
 40
0.0
 40
0.0504323727096602
 40
0.1003565609003688
 40
0.1500822900423565
 40
0.199922985600599
 40
0.2501899225630071
 40
0.3750855037480327
 40
0.5000544104076973
 40
0.624788718511343
 40
0.7499189120354135
 40
0.8333029051590075
 40
0.916179120395655
 40
1.0
 40
1.0
 40
1.0
 40
1.0
 10
130.4848161849711
 20
86.62703103914349
 30
0.0
 10
130.4452352162666
 20
86.6279198224358
 30
0.0
 10
130.3664721186198
 20
86.62968843314772
 30
0.0
 10
130.2493916763655
 20
86.64392778693808
 30
0.0
 10
130.1342282675095
 20
86.66668922378258
 30
0.0
 10
130.0209815518502
 20
86.69878839118
 30
0.0
 10
129.8552998661304
 20
86.76009277968515
 30
0.0
 10
129.6458000622174
 20
86.87132797166075
 30
0.0
 10
129.4176309577677
 20
87.05954026262815
 30
0.0
 10
129.2292812820712
 20
87.28782506608312
 30
0.0
 10
129.1056544284436
 20
87.52035782237553
 30
0.0
 10
129.0318556989825
 20
87.73721500849958
 30
0.0
 10
128.992124650767
 20
87.93027630637476
 30
0.0
 10
128.9872921807245
 20
88.06116816358396
 30
0.0
 10
128.9848622530163
 20
88.12698497109814
 30
0.0
  0
LINE
  5
AF
330
1F
100
AcDbEntity
  8
0
  6
Continuous
 62
     7
370
    25
100
AcDbLine
 10
130.484816401
 20
86.6270310418
 30
0.0
 11
130.484816401
 21
83.7250610986
 31
0.0
  0
SPLINE
  5
B0
330
1F
100
AcDbEntity
  8
0
  6
Continuous
 62
     7
370
    25
100
AcDbSpline
210
0.0
220
0.0
230
1.0
 70
     8
 71
     3
 72
    16
 73
    12
 74
     0
 42
0.000000001
 43
0.00000001
 40
0.0
 40
0.0
 40
0.0
 40
0.0
 40
0.0739298478317502
 40
0.1513677900738161
 40
0.2324450724296886
 40
0.3172760505391666
 40
0.4059605604440887
 40
0.4985859784696513
 40
0.6141264806631028
 40
0.7496239522892343
 40
1.0
 40
1.0
 40
1.0
 40
1.0
 10
130.4848161849711
 20
83.72506118245163
 30
0.0
 10
130.4857314902636
 20
83.65964954796227
 30
0.0
 10
130.4876055336093
 20
83.52572238798352
 30
0.0
 10
130.5019802851668
 20
83.32048041246787
 30
0.0
 10
130.5246736306555
 20
83.10635284491995
 30
0.0
 10
130.5566361898747
 20
82.88333775756746
 30
0.0
 10
130.5975789710365
 20
82.65142744218893
 30
0.0
 10
130.6510466617679
 20
82.39425974147105
 30
0.0
 10
130.7216493222411
 20
82.09848561839674
 30
0.0
 10
130.8341560247165
 20
81.66935826291605
 30
0.0
 10
130.9255286075397
 20
81.34041895710372
 30
0.0
 10
130.9848161849711
 20
81.1269849710983
 30
0.0
  0
SPLINE
  5
B1
330
1F
100
AcDbEntity
  8
0
  6
Continuous
 62
     7
370
    25
100
AcDbSpline
210
0.0
220
0.0
230
1.0
 70
     8
 71
     3
 72
    14
 73
    10
 74
     0
 42
0.000000001
 43
0.00000001
 40
0.0
 40
0.0
 40
0.0
 40
0.0
 40
0.250381897495202
 40
0.3853960641816825
 40
0.5014219062198584
 40
0.6386745024049088
 40
0.7672919706705007
 40
0.8876008223803089
 40
0.9999999999999999
 40
0.9999999999999999
 40
0.9999999999999999
 40
0.9999999999999999
 10
130.9848161849711
 20
81.1269849710983
 30
0.0
 10
130.9252831012611
 20
80.9136152634718
 30
0.0
 10
130.8336478178003
 20
80.58518958111418
 30
0.0
 10
130.7211217636298
 20
80.15605668858765
 30
0.0
 10
130.6414635539329
 20
79.82185879151915
 30
0.0
 10
130.5747930881239
 20
79.4904959216475
 30
0.0
 10
130.5237707842724
 20
79.15258367453868
 30
0.0
 10
130.4912554922458
 20
78.8342676140389
 30
0.0
 10
130.4869134255605
 20
78.6283621568645
 30
0.0
 10
130.4848161849711
 20
78.52890875974498
 30
0.0
  0
LINE
  5
B2
330
1F
100
AcDbEntity
  8
0
  6
Continuous
 62
     7
370
    25
100
AcDbLine
 10
130.484816401
 20
78.5289088436
 30
0.0
 11
130.484816401
 21
75.6269850009
 31
0.0
  0
LINE
  5
B3
330
1F
100
AcDbEntity
  8
0
  6
Continuous
 62
     7
370
    25
100
AcDbLine
 10
116.4848159689
 20
75.6269850009
 30
0.0
 11
130.484816401
 21
75.6269850009
 31
0.0
  0
LINE
  5
B4
330
1F
100
AcDbEntity
  8
0
  6
Continuous
 62
     7
370
    25
100
AcDbLine
 10
116.4848159689
 20
75.6269850009
 30
0.0
 11
116.4848159689
 21
78.5289088436
 31
0.0
  0
SPLINE
  5
B5
330
1F
100
AcDbEntity
  8
0
  6
Continuous
 62
     7
370
    25
100
AcDbSpline
210
0.0
220
0.0
230
1.0
 70
     8
 71
     3
 72
    13
 73
     9
 74
     0
 42
0.000000001
 43
0.00000001
 40
0.0
 40
0.0
 40
0.0
 40
0.0
 40
0.1856794033212272
 40
0.3634611737568169
 40
0.533542336720674
 40
0.6961479207300177
 40
0.8515354443703902
 40
1.0
 40
1.0
 40
1.0
 40
1.0
 10
115.6403593675134
 20
83.55185610168033
 30
0.0
 10
115.6240310616703
 20
83.61917889884877
 30
0.0
 10
115.5920689533208
 20
83.75096100522006
 30
0.0
 10
115.5533501000889
 20
83.94305342192615
 30
0.0
 10
115.5227960210012
 20
84.12564050409786
 30
0.0
 10
115.501179284092
 20
84.29871434287763
 30
0.0
 10
115.4874715896033
 20
84.462674343765
 30
0.0
 10
115.4856877723467
 20
84.56782236709238
 30
0.0
 10
115.4848161849711
 20
84.61919853208731
 30
0.0
  0
SPLINE
  5
B6
330
1F
100
AcDbEntity
  8
0
  6
Continuous
 62
     7
370
    25
100
AcDbSpline
210
0.0
220
0.0
230
1.0
 70
     8
 71
     3
 72
    17
 73
    13
 74
     0
 42
0.000000001
 43
0.00000001
 40
0.0
 40
0.0
 40
0.0
 40
0.0
 40
0.1130667886658668
 40
0.2142471894553318
 40
0.3035410226158834
 40
0.3809482842621089
 40
0.4464692357998273
 40
0.5001045924259258
 40
0.6375226532033567
 40
0.75004211245356
 40
0.8820380142920121
 40
1.0
 40
1.0
 40
1.0
 40
1.0
 10
115.9848161849711
 20
81.1269849710983
 30
0.0
 10
115.9745865588672
 20
81.22070244236022
 30
0.0
 10
115.9552027179727
 20
81.39828513536536
 30
0.0
 10
115.9273084734148
 20
81.64944445639745
 30
0.0
 10
115.9023156657173
 20
81.87048317811849
 30
0.0
 10
115.8801862681833
 20
82.06143018103668
 30
0.0
 10
115.860986441457
 20
82.2224466288809
 30
0.0
 10
115.8348046761039
 20
82.43176873595151
 30
0.0
 10
115.8018231345129
 20
82.6777516848166
 30
0.0
 10
115.7562288600987
 20
82.98340185578964
 30
0.0
 10
115.7063202034199
 20
83.26953890389011
 30
0.0
 10
115.6615076439402
 20
83.46133993315627
 30
0.0
 10
115.6403593675134
 20
83.55185610168033
 30
0.0
  0
SPLINE
  5
B7
330
1F
100
AcDbEntity
  8
0
  6
Continuous
 62
     7
370
    25
100
AcDbSpline
210
0.0
220
0.0
230
1.0
 70
     8
 71
     3
 72
    14
 73
    10
 74
     0
 42
0.000000001
 43
0.00000001
 40
0.0
 40
0.0
 40
0.0
 40
0.0
 40
0.0771019312675692
 40
0.1604220743863116
 40
0.2500134455674957
 40
0.3625277428666271
 40
0.4999872826714505
 40
0.6965319275930101
 40
1.0
 40
1.0
 40
1.0
 40
1.0
 10
115.6403593675134
 20
78.70211384051629
 30
0.0
 10
115.6544886444166
 20
78.76110730138957
 30
0.0
 10
115.6838867136106
 20
78.88385200068484
 30
0.0
 10
115.7224046098216
 20
79.07894347773784
 30
0.0
 10
115.7614671363106
 20
79.30440175459482
 30
0.0
 10
115.8017476427128
 20
79.57624026119728
 30
0.0
 10
115.8504063372613
 20
79.93791431772433
 30
0.0
 10
115.9118411767972
 20
80.46080827836428
 30
0.0
 10
115.9572541258064
 20
80.87537552453892
 30
0.0
 10
115.9848161849711
 20
81.1269849710983
 30
0.0
  0
SPLINE
  5
B8
330
1F
100
AcDbEntity
  8
0
  6
Continuous
 62
     7
370
    25
100
AcDbSpline
210
0.0
220
0.0
230
1.0
 70
     8
 71
     3
 72
    13
 73
     9
 74
     0
 42
0.000000001
 43
0.00000001
 40
0.0
 40
0.0
 40
0.0
 40
0.0
 40
0.1484645556296105
 40
0.303852079269983
 40
0.4664576632793263
 40
0.6365388262431836
 40
0.8143205966787732
 40
1.0
 40
1.0
 40
1.0
 40
1.0
 10
115.4848161849711
 20
77.6347714101093
 30
0.0
 10
115.4856877723467
 20
77.68614757510424
 30
0.0
 10
115.4874715896033
 20
77.7912955984316
 30
0.0
 10
115.501179284092
 20
77.95525559931899
 30
0.0
 10
115.5227960210012
 20
78.12832943809876
 30
0.0
 10
115.5533501000889
 20
78.31091652027047
 30
0.0
 10
115.5920689533208
 20
78.50300893697656
 30
0.0
 10
115.6240310616703
 20
78.63479104334783
 30
0.0
 10
115.6403593675134
 20
78.70211384051629
 30
0.0
  0
LINE
  5
B9
330
1F
100
AcDbEntity
  8
0
  6
Continuous
 62
     7
370
    25
100
AcDbLine
 10
115.484815805
 20
75.0603185207
 30
0.0
 11
115.484815805
 21
77.6347714183
 31
0.0
  0
LINE
  5
BA
330
1F
100
AcDbEntity
  8
0
  6
Continuous
 62
     7
370
    25
100
AcDbLine
 10
131.484816565
 20
75.0603185207
 30
0.0
 11
115.484815805
 21
75.0603185207
 31
0.0
  0
LINE
  5
BB
330
1F
100
AcDbEntity
  8
0
  6
Continuous
 62
     7
370
    25
100
AcDbLine
 10
131.484816565
 20
77.6347714183
 30
0.0
 11
131.484816565
 21
75.0603185207
 31
0.0
  0
SPLINE
  5
BC
330
1F
100
AcDbEntity
  8
0
  6
Continuous
 62
     7
370
    25
100
AcDbSpline
210
0.0
220
0.0
230
1.0
 70
     8
 71
     3
 72
    13
 73
     9
 74
     0
 42
0.000000001
 43
0.00000001
 40
0.0
 40
0.0
 40
0.0
 40
0.0
 40
0.1856794033212448
 40
0.3634611737568449
 40
0.5335423367206995
 40
0.6961479207300406
 40
0.8515354443704051
 40
0.9999999999999999
 40
0.9999999999999999
 40
0.9999999999999999
 40
0.9999999999999999
 10
131.3292730024288
 20
78.70211384051629
 30
0.0
 10
131.345601308272
 20
78.63479104334783
 30
0.0
 10
131.3775634166214
 20
78.50300893697654
 30
0.0
 10
131.4162822698534
 20
78.31091652027044
 30
0.0
 10
131.446836348941
 20
78.12832943809872
 30
0.0
 10
131.4684530858502
 20
77.95525559931896
 30
0.0
 10
131.4821607803389
 20
77.79129559843159
 30
0.0
 10
131.4839445975956
 20
77.68614757510423
 30
0.0
 10
131.4848161849711
 20
77.6347714101093
 30
0.0
  0
SPLINE
  5
BD
330
1F
100
AcDbEntity
  8
0
  6
Continuous
 62
     7
370
    25
100
AcDbSpline
210
0.0
220
0.0
230
1.0
 70
     8
 71
     3
 72
    16
 73
    12
 74
     0
 42
0.000000001
 43
0.00000001
 40
0.0
 40
0.0
 40
0.0
 40
0.0
 40
0.1113707256031287
 40
0.2115306859456111
 40
0.3004797843893181
 40
0.3782180970979205
 40
0.444745959733242
 40
0.5000641419851813
 40
0.7004020768438615
 40
0.8669907153098478
 40
1.0
 40
1.0
 40
1.0
 40
1.0
 10
130.9848161849711
 20
81.1269849710983
 30
0.0
 10
130.9948938639848
 20
81.03468127198208
 30
0.0
 10
131.014034785829
 20
80.85936531993424
 30
0.0
 10
131.0416805038749
 20
80.61075267188626
 30
0.0
 10
131.066629292383
 20
80.39057088281471
 30
0.0
 10
131.0889104255126
 20
80.19880426889434
 30
0.0
 10
131.108489547996
 20
80.03531886859403
 30
0.0
 10
131.1413772680543
 20
79.77246617439951
 30
0.0
 10
131.1892559251302
 20
79.43140585860655
 30
0.0
 10
131.2537692842799
 20
79.0346796054054
 30
0.0
 10
131.3060586514881
 20
78.8043644126243
 30
0.0
 10
131.3292730024288
 20
78.70211384051629
 30
0.0
  0
SPLINE
  5
BE
330
1F
100
AcDbEntity
  8
0
  6
Continuous
 62
     7
370
    25
100
AcDbSpline
210
0.0
220
0.0
230
1.0
 70
     8
 71
     3
 72
    14
 73
    10
 74
     0
 42
0.000000001
 43
0.00000001
 40
0.0
 40
0.0
 40
0.0
 40
0.0
 40
0.0771019312872794
 40
0.1604220744063169
 40
0.2500134455684252
 40
0.3625277428809286
 40
0.4999872826729911
 40
0.6965319256112464
 40
1.0
 40
1.0
 40
1.0
 40
1.0
 10
131.3292730024288
 20
83.55185610168033
 30
0.0
 10
131.3151437255217
 20
83.49286264079207
 30
0.0
 10
131.2857456563235
 20
83.37011794148178
 30
0.0
 10
131.2472277601112
 20
83.17502646442819
 30
0.0
 10
131.2081652336262
 20
82.94956818757505
 30
0.0
 10
131.1678847272327
 20
82.67772968098699
 30
0.0
 10
131.1192260328749
 20
82.31605562606883
 30
0.0
 10
131.0577911934245
 20
81.7931616654688
 30
0.0
 10
131.0123782443535
 20
81.37859441929878
 30
0.0
 10
130.9848161849711
 20
81.1269849710983
 30
0.0
  0
SPLINE
  5
BF
330
1F
100
AcDbEntity
  8
0
  6
Continuous
 62
     7
370
    25
100
AcDbSpline
210
0.0
220
0.0
230
1.0
 70
     8
 71
     3
 72
    13
 73
     9
 74
     0
 42
0.000000001
 43
0.00000001
 40
0.0
 40
0.0
 40
0.0
 40
0.0
 40
0.1484645556295969
 40
0.303852079269964
 40
0.4664576632793
 40
0.6365388262431574
 40
0.814320596678755
 40
1.0
 40
1.0
 40
1.0
 40
1.0
 10
131.4848161849711
 20
84.61919853208731
 30
0.0
 10
131.4839445975956
 20
84.56782236709239
 30
0.0
 10
131.4821607803389
 20
84.46267434376502
 30
0.0
 10
131.4684530858502
 20
84.29871434287766
 30
0.0
 10
131.446836348941
 20
84.12564050409787
 30
0.0
 10
131.4162822698534
 20
83.94305342192617
 30
0.0
 10
131.3775634166214
 20
83.75096100522008
 30
0.0
 10
131.345601308272
 20
83.61917889884877
 30
0.0
 10
131.3292730024288
 20
83.55185610168033
 30
0.0
  0
LINE
  5
C0
330
1F
100
AcDbEntity
  8
0
  6
Continuous
 62
     7
370
    25
100
AcDbLine
 10
131.484816565
 20
86.2603181214
 30
0.0
 11
131.484816565
 21
84.6191985239
 31
0.0
  0
SPLINE
  5
C1
330
1F
100
AcDbEntity
  8
0
  6
Continuous
 62
     7
370
    25
100
AcDbSpline
210
0.0
220
0.0
230
1.0
 70
     8
 71
     3
 72
    13
 73
     9
 74
     0
 42
0.000000001
 43
0.00000001
 40
0.0
 40
0.0
 40
0.0
 40
0.0
 40
0.1257153360577753
 40
0.250986709269415
 40
0.3762164861937409
 40
0.5018074329537138
 40
0.7521854029755236
 40
1.0
 40
1.0
 40
1.0
 40
1.0
 10
131.2664605584156
 20
86.84246103759239
 30
0.0
 10
131.2836548355869
 20
86.82137519774169
 30
0.0
 10
131.3179826684578
 20
86.77927798253894
 30
0.0
 10
131.361552216693
 20
86.71236526670705
 30
0.0
 10
131.3991600203377
 20
86.6428500150556
 30
0.0
 10
131.4401832979187
 20
86.54651657772983
 30
0.0
 10
131.4767118526734
 20
86.42068276218858
 30
0.0
 10
131.4821240233684
 20
86.31358944630543
 30
0.0
 10
131.4848161849711
 20
86.26031830443164
 30
0.0
  0
SPLINE
  5
C2
330
1F
100
AcDbEntity
  8
0
  6
Continuous
 62
     7
370
    25
100
AcDbSpline
210
0.0
220
0.0
230
1.0
 70
     8
 71
     3
 72
    16
 73
    12
 74
     0
 42
0.000000001
 43
0.00000001
 40
0.0
 40
0.0
 40
0.0
 40
0.0
 40
0.065953468215878
 40
0.1324870475734065
 40
0.2006767984510681
 40
0.2715233530653123
 40
0.3459202143274948
 40
0.4246400792148715
 40
0.5083359903947017
 40
0.7405135829365557
 40
1.0
 40
1.0
 40
1.0
 40
1.0
 10
130.4848161849711
 20
87.19365163776496
 30
0.0
 10
130.5083282373981
 20
87.19319961240436
 30
0.0
 10
130.5555591487166
 20
87.19229158577475
 30
0.0
 10
130.6258772350107
 20
87.18505866311241
 30
0.0
 10
130.6955363496834
 20
87.17349070167522
 30
0.0
 10
130.7645126801651
 20
87.15710331597835
 30
0.0
 10
130.832804054308
 20
87.13593027884659
 30
0.0
 10
130.9004311385482
 20
87.1098130818625
 30
0.0
 10
131.0054326081979
 20
87.06089003353125
 30
0.0
 10
131.1392162557352
 20
86.97670759935653
 30
0.0
 10
131.2225037595881
 20
86.88883678082368
 30
0.0
 10
131.2664605584156
 20
86.84246103759239
 30
0.0
  0
SPLINE
  5
C3
330
1F
100
AcDbEntity
  8
0
  6
Continuous
 62
     7
370
    25
100
AcDbSpline
210
0.0
220
0.0
230
1.0
 70
     8
 71
     3
 72
    13
 73
     9
 74
     0
 42
0.000000001
 43
0.00000001
 40
0.0
 40
0.0
 40
0.0
 40
0.0
 40
0.1759205118839867
 40
0.3391896075500394
 40
0.4921931780779421
 40
0.6738397335242767
 40
0.8395017852842264
 40
1.0
 40
1.0
 40
1.0
 40
1.0
 10
130.1312627943778
 20
87.3303351398779
 30
0.0
 10
130.1443613389244
 20
87.31880996248073
 30
0.0
 10
130.1696164392914
 20
87.29658844688582
 30
0.0
 10
130.2154595058717
 20
87.26618482759228
 30
0.0
 10
130.2693504873012
 20
87.23798111514343
 30
0.0
 10
130.3326984085645
 20
87.21405518689758
 30
0.0
 10
130.4072526044621
 20
87.19692893990485
 30
0.0
 10
130.4592359954136
 20
87.19473248020965
 30
0.0
 10
130.4848161849711
 20
87.19365163776496
 30
0.0
  0
SPLINE
  5
C4
330
1F
100
AcDbEntity
  8
0
  6
Continuous
 62
     7
370
    25
100
AcDbSpline
210
0.0
220
0.0
230
1.0
 70
     8
 71
     3
 72
    14
 73
    10
 74
     0
 42
0.000000001
 43
0.00000001
 40
0.0
 40
0.0
 40
0.0
 40
0.0
 40
0.0960186407856747
 40
0.1924368822044046
 40
0.2917857869559113
 40
0.3963838799166358
 40
0.5082236945494524
 40
0.7392053714339348
 40
1.0
 40
1.0
 40
1.0
 40
1.0
 10
116.4848161849711
 20
87.19365163776497
 30
0.0
 10
116.500096691913
 20
87.19404972565962
 30
0.0
 10
116.5307212986596
 20
87.19484755817074
 30
0.0
 10
116.5758462197496
 20
87.20085408069714
 30
0.0
 10
116.6197692971094
 20
87.21033173962749
 30
0.0
 10
116.6624655642809
 20
87.2235405673676
 30
0.0
 10
116.717478043433
 20
87.24570532300928
 30
0.0
 10
116.7811329608911
 20
87.2810764288035
 30
0.0
 10
116.8185348982079
 20
87.31326511142262
 30
0.0
 10
116.8383695755644
 20
87.3303351398779
 30
0.0
  0
SPLINE
  5
C5
330
1F
100
AcDbEntity
  8
0
  6
Continuous
 62
     7
370
    25
100
AcDbSpline
210
0.0
220
0.0
230
1.0
 70
     8
 71
     3
 72
    15
 73
    11
 74
     0
 42
0.000000001
 43
0.00000001
 40
0.0
 40
0.0
 40
0.0
 40
0.0
 40
0.1336726496021612
 40
0.2596519444552429
 40
0.3787836139818168
 40
0.4920668899310182
 40
0.6351830136473593
 40
0.7645526196418757
 40
0.8844004131119898
 40
1.0
 40
1.0
 40
1.0
 40
1.0
 10
115.7031718115266
 20
86.84246103759239
 30
0.0
 10
115.7250673019633
 20
86.86670607594384
 30
0.0
 10
115.7675981164836
 20
86.91380076113248
 30
0.0
 10
115.8407939746265
 20
86.97680560514102
 30
0.0
 10
115.9185700541961
 20
87.03189784733952
 30
0.0
 10
116.0102084973205
 20
87.08379884401113
 30
0.0
 10
116.1155368785024
 20
87.13012338866619
 30
0.0
 10
116.2360857608096
 20
87.16660122544813
 30
0.0
 10
116.3595052194789
 20
87.1894162667776
 30
0.0
 10
116.4435513480831
 20
87.19225693226359
 30
0.0
 10
116.4848161849711
 20
87.19365163776497
 30
0.0
  0
SPLINE
  5
C6
330
1F
100
AcDbEntity
  8
0
  6
Continuous
 62
     7
370
    25
100
AcDbSpline
210
0.0
220
0.0
230
1.0
 70
     8
 71
     3
 72
    13
 73
     9
 74
     0
 42
0.000000001
 43
0.00000001
 40
0.0
 40
0.0
 40
0.0
 40
0.0
 40
0.123835855545221
 40
0.2479006248871513
 40
0.3726202178325717
 40
0.4984138930967346
 40
0.7490996844582696
 40
1.0
 40
1.0
 40
1.0
 40
1.0
 10
115.4848161849711
 20
86.26031830443164
 30
0.0
 10
115.4854877162875
 20
86.28706996922085
 30
0.0
 10
115.4868320202633
 20
86.34062274994675
 30
0.0
 10
115.4977340039137
 20
86.41893945249602
 30
0.0
 10
115.5150956875261
 20
86.49573908352843
 30
0.0
 10
115.5477833289593
 20
86.5952657192031
 30
0.0
 10
115.6036681298837
 20
86.71442884305758
 30
0.0
 10
115.6699944619066
 20
86.79977147263797
 30
0.0
 10
115.7031718115266
 20
86.84246103759239
 30
0.0
  0
LINE
  5
C7
330
1F
100
AcDbEntity
  8
0
  6
Continuous
 62
     7
370
    25
100
AcDbLine
 10
115.484815805
 20
84.6191985239
 30
0.0
 11
115.484815805
 21
86.2603181214
 31
0.0
  0
LINE
  5
C8
330
1F
100
AcDbEntity
  8
0
  6
Continuous
 62
     7
370
    25
100
AcDbLine
 10
119.7431588236
 20
88.6269848035
 30
0.0
 11
117.9848162148
 21
88.6269848035
 31
0.0
  0
SPLINE
  5
C9
330
1F
100
AcDbEntity
  8
0
  6
Continuous
 62
     7
370
    25
100
AcDbSpline
210
0.0
220
0.0
230
1.0
 70
     8
 71
     3
 72
     8
 73
     4
 74
     0
 42
0.000000001
 43
0.00000001
 40
0.0000000000000001
 40
0.0000000000000001
 40
0.0000000000000001
 40
0.0000000000000001
 40
0.127234597098751
 40
0.127234597098751
 40
0.127234597098751
 40
0.127234597098751
 10
119.7431587981972
 20
88.62698497109831
 30
0.0
 10
120.1107254120381
 20
88.62698497109831
 30
0.0
 10
120.4981539789168
 20
88.59472148208536
 30
0.0
 10
120.8867399736303
 20
88.54921337982749
 30
0.0
  0
SPLINE
  5
CA
330
1F
100
AcDbEntity
  8
0
  6
Continuous
 62
     7
370
    25
100
AcDbSpline
210
0.0
220
0.0
230
1.0
 70
    24
 71
     3
 72
    10
 73
     6
 74
     0
 42
0.000000001
 43
0.00000001
 40
0.0
 40
0.0
 40
0.0
 40
0.0
 40
0.5
 40
0.5
 40
1.0
 40
1.0
 40
1.0
 40
1.0
 10
120.8867399736178
 20
88.12698497109831
 30
0.0
 10
120.8867399736178
 20
88.21078082464459
 30
0.0
 10
120.8867399736178
 20
88.29448850537005
 30
0.0
 10
120.8867399736178
 20
88.44134052424691
 30
0.0
 10
120.8867399736178
 20
88.50433033975551
 30
0.0
 10
120.8867399736178
 20
88.54921337982715
 30
0.0
  0
SPLINE
  5
CB
330
1F
100
AcDbEntity
  8
0
  6
Continuous
 62
     7
370
    25
100
AcDbSpline
210
0.0
220
0.0
230
1.0
 70
     8
 71
     3
 72
    14
 73
    10
 74
     0
 42
0.000000001
 43
0.00000001
 40
0.0
 40
0.0
 40
0.0
 40
0.0
 40
0.1488603597576148
 40
0.3150273328471772
 40
0.4987646698883385
 40
0.5951853465608922
 40
0.7494349165377944
 40
0.8793203508289453
 40
1.0
 40
1.0
 40
1.0
 40
1.0
 10
117.6197994001722
 20
88.46869061462064
 30
0.0
 10
117.6362777830865
 20
88.45347985720893
 30
0.0
 10
117.6711503376576
 20
88.42128992870278
 30
0.0
 10
117.7303007133878
 20
88.3666658975985
 30
0.0
 10
117.7848772368384
 20
88.31596023514925
 30
0.0
 10
117.8394333770373
 20
88.26594359556628
 30
0.0
 10
117.8875991414287
 20
88.22126990005515
 30
0.0
 10
117.9386883490139
 20
88.1726926375753
 30
0.0
 10
117.9697904253749
 20
88.1418430543787
 30
0.0
 10
117.9847701169259
 20
88.12698497109831
 30
0.0
  0
ARC
  5
CC
330
1F
100
AcDbEntity
  8
0
  6
Continuous
 62
     7
370
    25
100
AcDbCircle
 10
117.984816185
 20
88.1269849711
 30
0.0
 40
0.5
100
AcDbArc
 50
90.0
 51
136.8892083855
  0
LINE
  5
CD
330
1F
100
AcDbEntity
  8
0
  6
Continuous
 62
     7
370
    25
100
AcDbLine
 10
130.9848160173
 20
86.6269849413
 30
0.0
 11
130.9848160173
 21
84.8686423325
 31
0.0
  0
SPLINE
  5
CE
330
1F
100
AcDbEntity
  8
0
  6
Continuous
 62
     7
370
    25
100
AcDbSpline
210
0.0
220
0.0
230
1.0
 70
     8
 71
     3
 72
    11
 73
     7
 74
     0
 42
0.000000001
 43
0.00000001
 40
0.0
 40
0.0
 40
0.0
 40
0.0
 40
0.2815942436633383
 40
0.5420860673673156
 40
0.7815308548566234
 40
1.0
 40
1.0
 40
1.0
 40
1.0
 10
130.9070445936999
 20
83.72506118244273
 30
0.0
 10
130.9190884506945
 20
83.83302551612563
 30
0.0
 10
130.9422736088467
 20
84.04086343319636
 30
0.0
 10
130.9664012928778
 20
84.33935411886502
 30
0.0
 10
130.981809711321
 20
84.61286434905313
 30
0.0
 10
130.9838451054899
 20
84.78602704006015
 30
0.0
 10
130.9848161849711
 20
84.86864235787225
 30
0.0
  0
SPLINE
  5
CF
330
1F
100
AcDbEntity
  8
0
  6
Continuous
 62
     7
370
    25
100
AcDbSpline
210
0.0
220
0.0
230
1.0
 70
    24
 71
     3
 72
    10
 73
     6
 74
     0
 42
0.000000001
 43
0.00000001
 40
0.0
 40
0.0
 40
0.0
 40
0.0
 40
0.5
 40
0.5
 40
1.0
 40
1.0
 40
1.0
 40
1.0
 10
130.4848161849711
 20
83.72506118245163
 30
0.0
 10
130.5686120385174
 20
83.72506118245163
 30
0.0
 10
130.6523197192429
 20
83.72506118245163
 30
0.0
 10
130.7991717381197
 20
83.72506118245163
 30
0.0
 10
130.8621615536283
 20
83.72506118245163
 30
0.0
 10
130.9070445936999
 20
83.72506118245163
 30
0.0
  0
SPLINE
  5
D0
330
1F
100
AcDbEntity
  8
0
  6
Continuous
 62
     7
370
    25
100
AcDbSpline
210
0.0
220
0.0
230
1.0
 70
     8
 71
     3
 72
    14
 73
    10
 74
     0
 42
0.000000001
 43
0.00000001
 40
0.0
 40
0.0
 40
0.0
 40
0.0
 40
0.1488603598374869
 40
0.3150273329269794
 40
0.4987646698885773
 40
0.5951853465829806
 40
0.7494349165379153
 40
0.8793203509512854
 40
1.0
 40
1.0
 40
1.0
 40
1.0
 10
130.8265218284934
 20
86.99200175589729
 30
0.0
 10
130.8113110710731
 20
86.97552337297444
 30
0.0
 10
130.7791211425578
 20
86.94065081839511
 30
0.0
 10
130.72449711145
 20
86.88150044266604
 30
0.0
 10
130.6737914490103
 20
86.8269239192185
 30
0.0
 10
130.6237748094379
 20
86.77236777902804
 30
0.0
 10
130.5791011139107
 20
86.72420201462278
 30
0.0
 10
130.5305238514331
 20
86.67311280704025
 30
0.0
 10
130.4996742682365
 20
86.64201073067936
 30
0.0
 10
130.4848161849711
 20
86.62703103914349
 30
0.0
  0
ARC
  5
D1
330
1F
100
AcDbEntity
  8
0
  6
Continuous
 62
     7
370
    25
100
AcDbCircle
 10
130.484816185
 20
86.6269849711
 30
0.0
 40
0.5
100
AcDbArc
 50
0.0
 51
46.8892083855
  0
SPLINE
  5
D2
330
1F
100
AcDbEntity
  8
0
  6
Continuous
 62
     7
370
    25
100
AcDbSpline
210
0.0
220
0.0
230
1.0
 70
     8
 71
     3
 72
    11
 73
     7
 74
     0
 42
0.000000001
 43
0.00000001
 40
0.0
 40
0.0
 40
0.0
 40
0.0
 40
0.2815942436632133
 40
0.5420860673671491
 40
0.7815308548564992
 40
1.0
 40
1.0
 40
1.0
 40
1.0
 10
116.0625877762423
 20
78.52890875975388
 30
0.0
 10
116.0505439192478
 20
78.42094442607103
 30
0.0
 10
116.0273587610955
 20
78.21310650900035
 30
0.0
 10
116.0032310770644
 20
77.91461582333174
 30
0.0
 10
115.9878226586213
 20
77.6411055931436
 30
0.0
 10
115.9857872644523
 20
77.4679429021365
 30
0.0
 10
115.9848161849711
 20
77.38532758432437
 30
0.0
  0
SPLINE
  5
D3
330
1F
100
AcDbEntity
  8
0
  6
Continuous
 62
     7
370
    25
100
AcDbSpline
210
0.0
220
0.0
230
1.0
 70
    24
 71
     3
 72
    10
 73
     6
 74
     0
 42
0.000000001
 43
0.00000001
 40
0.0
 40
0.0
 40
0.0
 40
0.0
 40
0.5
 40
0.5
 40
1.0
 40
1.0
 40
1.0
 40
1.0
 10
116.4848161849711
 20
78.52890875974498
 30
0.0
 10
116.4010203314248
 20
78.52890875974498
 30
0.0
 10
116.3173126506994
 20
78.52890875974498
 30
0.0
 10
116.1704606318225
 20
78.52890875974498
 30
0.0
 10
116.1074708163139
 20
78.52890875974498
 30
0.0
 10
116.0625877762423
 20
78.52890875974498
 30
0.0
  0
LINE
  5
D4
330
1F
100
AcDbEntity
  8
0
  6
Continuous
 62
     7
370
    25
100
AcDbLine
 10
115.9848163526
 20
75.6269850009
 30
0.0
 11
116.4848159689
 21
75.6269850009
 31
0.0
  0
LINE
  5
D5
330
1F
100
AcDbEntity
  8
0
  6
Continuous
 62
     7
370
    25
100
AcDbLine
 10
115.9848163526
 20
75.6269850009
 30
0.0
 11
115.9848163526
 21
77.3853276097
 31
0.0
  0
LINE
  5
D6
330
1F
100
AcDbEntity
  8
0
  6
Continuous
 62
     7
370
    25
100
AcDbLine
 10
130.484816401
 20
91.195047664
 30
0.0
 11
116.4848159689
 21
91.195047664
 31
0.0
  0
SPLINE
  5
D7
330
1F
100
AcDbEntity
  8
0
  6
Continuous
 62
     7
370
    25
100
AcDbSpline
210
0.0
220
0.0
230
1.0
 70
     8
 71
     3
 72
    14
 73
    10
 74
     0
 42
0.000000001
 43
0.00000001
 40
0.0
 40
0.0
 40
0.0
 40
0.0
 40
0.096021547728022
 40
0.1924412985067401
 40
0.2917902771809186
 40
0.396387075314727
 40
0.508224361229722
 40
0.7392002680930558
 40
1.0
 40
1.0
 40
1.0
 40
1.0
 10
129.5514828516378
 20
88.12698497109831
 30
0.0
 10
129.5518809255614
 20
88.1117039566145
 30
0.0
 10
129.5526787242283
 20
88.08107855701054
 30
0.0
 10
129.5586850981879
 20
88.03595268844161
 30
0.0
 10
129.5681625692179
 20
87.99202922825611
 30
0.0
 10
129.5813711571225
 20
87.94933317375613
 30
0.0
 10
129.6035355357131
 20
87.89432170128654
 30
0.0
 10
129.6389070813022
 20
87.83066813107237
 30
0.0
 10
129.6710958973565
 20
87.79326650684578
 30
0.0
 10
129.6881663537507
 20
87.77343158050503
 30
0.0
  0
SPLINE
  5
D8
330
1F
100
AcDbEntity
  8
0
  6
Continuous
 62
     7
370
    25
100
AcDbSpline
210
0.0
220
0.0
230
1.0
 70
     8
 71
     3
 72
    15
 73
    11
 74
     0
 42
0.000000001
 43
0.00000001
 40
0.0
 40
0.0
 40
0.0
 40
0.0
 40
0.1307681764282987
 40
0.2557775964014054
 40
0.375854271439311
 40
0.4919295877812418
 40
0.6226338248371327
 40
0.7437286717850853
 40
0.8761291708518495
 40
1.0
 40
1.0
 40
1.0
 40
1.0
 10
129.2002922514652
 20
88.90862934454277
 30
0.0
 10
129.2239915771357
 20
88.88718348586237
 30
0.0
 10
129.270346559838
 20
88.84523619917641
 30
0.0
 10
129.3327950463138
 20
88.77239592694461
 30
0.0
 10
129.3882762983216
 20
88.69396895635224
 30
0.0
 10
129.4393042901113
 20
88.60519473448109
 30
0.0
 10
129.4841226158688
 20
88.50581979928748
 30
0.0
 10
129.520692333807
 20
88.38893473957101
 30
0.0
 10
129.5462471027371
 20
88.26260184412635
 30
0.0
 10
129.5497767621
 20
88.17117626686247
 30
0.0
 10
129.5514828516378
 20
88.12698497109831
 30
0.0
  0
SPLINE
  5
D9
330
1F
100
AcDbEntity
  8
0
  6
Continuous
 62
     7
370
    25
100
AcDbSpline
210
0.0
220
0.0
230
1.0
 70
     8
 71
     3
 72
    13
 73
     9
 74
     0
 42
0.000000001
 43
0.00000001
 40
0.0
 40
0.0
 40
0.0
 40
0.0
 40
0.1238371160455669
 40
0.247902303023111
 40
0.3726214666345126
 40
0.4984138700895143
 40
0.7490979627897995
 40
1.0
 40
1.0
 40
1.0
 40
1.0
 10
128.6181495183044
 20
89.12698497109831
 30
0.0
 10
128.644901458732
 20
89.12631345350603
 30
0.0
 10
128.6984546086608
 20
89.12496918158688
 30
0.0
 10
128.7767715799608
 20
89.11406737156085
 30
0.0
 10
128.8535709612869
 20
89.0967059341387
 30
0.0
 10
128.9530969493896
 20
89.0640186487716
 30
0.0
 10
129.072259797689
 20
89.0081335212917
 30
0.0
 10
129.157602406116
 20
88.94180700998403
 30
0.0
 10
129.2002922514652
 20
88.90862934454277
 30
0.0
  0
LINE
  5
DA
330
1F
100
AcDbEntity
  8
0
  6
Continuous
 62
     7
370
    25
100
AcDbLine
 10
126.9770297378
 20
89.1269853511
 30
0.0
 11
128.6181493353
 21
89.1269853511
 31
0.0
  0
SPLINE
  5
DB
330
1F
100
AcDbEntity
  8
0
  6
Continuous
 62
     7
370
    25
100
AcDbSpline
210
0.0
220
0.0
230
1.0
 70
     8
 71
     3
 72
    13
 73
     9
 74
     0
 42
0.000000001
 43
0.00000001
 40
0.0
 40
0.0
 40
0.0
 40
0.0
 40
0.1856794033212454
 40
0.3634611737568486
 40
0.5335423367207065
 40
0.6961479207300426
 40
0.8515354443704023
 40
1.0
 40
1.0
 40
1.0
 40
1.0
 10
125.9096873155531
 20
88.97144178855599
 30
0.0
 10
125.9770101127216
 20
88.98777009439915
 30
0.0
 10
126.1087922190929
 20
89.01973220274859
 30
0.0
 10
126.300884635799
 20
89.05845105598056
 30
0.0
 10
126.4834717179707
 20
89.08900513506823
 30
0.0
 10
126.6565455567505
 20
89.11062187197739
 30
0.0
 10
126.8205055576378
 20
89.12432956646614
 30
0.0
 10
126.9256535809652
 20
89.12611338372275
 30
0.0
 10
126.9770297459601
 20
89.12698497109831
 30
0.0
  0
SPLINE
  5
DC
330
1F
100
AcDbEntity
  8
0
  6
Continuous
 62
     7
370
    25
100
AcDbSpline
210
0.0
220
0.0
230
1.0
 70
     8
 71
     3
 72
    17
 73
    13
 74
     0
 42
0.000000001
 43
0.00000001
 40
0.0
 40
0.0
 40
0.0
 40
0.0
 40
0.1130667887614413
 40
0.214247189583317
 40
0.3035410227131065
 40
0.3809482842653933
 40
0.4464692356459874
 40
0.5001045920517729
 40
0.6375226522804812
 40
0.750042112035746
 40
0.8820380142736961
 40
0.9999999999999999
 40
0.9999999999999999
 40
0.9999999999999999
 40
0.9999999999999999
 10
123.4848161849711
 20
88.62698497109831
 30
0.0
 10
123.5785336563118
 20
88.6372145972136
 30
0.0
 10
123.7561163494221
 20
88.65659843812479
 30
0.0
 10
124.0072756705331
 20
88.68449268269605
 30
0.0
 10
124.2283143921764
 20
88.70948549038704
 30
0.0
 10
124.419261394862
 20
88.73161488789424
 30
0.0
 10
124.5802778423204
 20
88.75081471457386
 30
0.0
 10
124.7895999486384
 20
88.77699647983113
 30
0.0
 10
125.0355828972965
 20
88.80997802141894
 30
0.0
 10
125.3412330685688
 20
88.85557229589844
 30
0.0
 10
125.6273701174205
 20
88.90548095260739
 30
0.0
 10
125.8191711470126
 20
88.95029351213749
 30
0.0
 10
125.9096873155531
 20
88.97144178855599
 30
0.0
  0
SPLINE
  5
DD
330
1F
100
AcDbEntity
  8
0
  6
Continuous
 62
     7
370
    25
100
AcDbSpline
210
0.0
220
0.0
230
1.0
 70
     8
 71
     3
 72
    14
 73
    10
 74
     0
 42
0.000000001
 43
0.00000001
 40
0.0
 40
0.0
 40
0.0
 40
0.0
 40
0.0771019312304826
 40
0.1604220744887596
 40
0.2500134459863516
 40
0.3625277438465788
 40
0.4999872830472304
 40
0.6965319249886696
 40
1.0
 40
1.0
 40
1.0
 40
1.0
 10
121.0599450543891
 20
88.97144178855599
 30
0.0
 10
121.1189385152349
 20
88.95731251166514
 30
0.0
 10
121.2416832146104
 20
88.92791444246396
 30
0.0
 10
121.4367746919991
 20
88.8893965462359
 30
0.0
 10
121.6622329696735
 20
88.85033401966372
 30
0.0
 10
121.934071476508
 20
88.81005351320736
 30
0.0
 10
122.2957455305958
 20
88.76139481893706
 30
0.0
 10
122.8186394904004
 20
88.69995997963184
 30
0.0
 10
123.2332067362566
 20
88.65454703055896
 30
0.0
 10
123.4848161849711
 20
88.62698497109831
 30
0.0
  0
SPLINE
  5
DE
330
1F
100
AcDbEntity
  8
0
  6
Continuous
 62
     7
370
    25
100
AcDbSpline
210
0.0
220
0.0
230
1.0
 70
     8
 71
     3
 72
    13
 73
     9
 74
     0
 42
0.000000001
 43
0.00000001
 40
0.0
 40
0.0
 40
0.0
 40
0.0
 40
0.1484645556295968
 40
0.3038520792699616
 40
0.4664576632792965
 40
0.6365388262431637
 40
0.8143205966787558
 40
1.0
 40
1.0
 40
1.0
 40
1.0
 10
119.9926026239821
 20
89.12698497109831
 30
0.0
 10
120.043978788977
 20
89.12611338372275
 30
0.0
 10
120.1491268123044
 20
89.12432956646614
 30
0.0
 10
120.3130868131918
 20
89.11062187197739
 30
0.0
 10
120.4861606519715
 20
89.08900513506823
 30
0.0
 10
120.6687477341433
 20
89.05845105598054
 30
0.0
 10
120.8608401508494
 20
89.01973220274859
 30
0.0
 10
120.9926222572206
 20
88.98777009439915
 30
0.0
 10
121.0599450543891
 20
88.97144178855599
 30
0.0
  0
LINE
  5
DF
330
1F
100
AcDbEntity
  8
0
  6
Continuous
 62
     7
370
    25
100
AcDbLine
 10
118.3514830347
 20
89.1269853511
 30
0.0
 11
119.9926026322
 21
89.1269853511
 31
0.0
  0
SPLINE
  5
E0
330
1F
100
AcDbEntity
  8
0
  6
Continuous
 62
     7
370
    25
100
AcDbSpline
210
0.0
220
0.0
230
1.0
 70
     8
 71
     3
 72
    13
 73
     9
 74
     0
 42
0.000000001
 43
0.00000001
 40
0.0
 40
0.0
 40
0.0
 40
0.0
 40
0.1257153360429536
 40
0.2509867092496626
 40
0.3762164861788906
 40
0.5018074329534182
 40
0.7521854029562103
 40
1.0
 40
1.0
 40
1.0
 40
1.0
 10
117.769340118477
 20
88.90862934454277
 30
0.0
 10
117.7904259583253
 20
88.92582362171197
 30
0.0
 10
117.8325231735247
 20
88.96015145457994
 30
0.0
 10
117.8994358893539
 20
89.00372100281274
 30
0.0
 10
117.9689511410078
 20
89.04132880645898
 30
0.0
 10
118.0652845783328
 20
89.08235208404481
 30
0.0
 10
118.1911183938766
 20
89.11888063880288
 30
0.0
 10
118.2982117097598
 20
89.12429280949614
 30
0.0
 10
118.3514828516378
 20
89.12698497109831
 30
0.0
  0
SPLINE
  5
E1
330
1F
100
AcDbEntity
  8
0
  6
Continuous
 62
     7
370
    25
100
AcDbSpline
210
0.0
220
0.0
230
1.0
 70
     8
 71
     3
 72
    16
 73
    12
 74
     0
 42
0.000000001
 43
0.00000001
 40
0.0
 40
0.0
 40
0.0
 40
0.0
 40
0.0659534682181705
 40
0.1324870475771656
 40
0.2006767984554997
 40
0.2715233530696834
 40
0.3459202143311513
 40
0.4246400792172604
 40
0.5083359903953556
 40
0.740513582944488
 40
1.0
 40
1.0
 40
1.0
 40
1.0
 10
117.4181495183045
 20
88.12698497109831
 30
0.0
 10
117.418601543665
 20
88.15049702352616
 30
0.0
 10
117.4195095702946
 20
88.19772793484599
 30
0.0
 10
117.4267424929568
 20
88.26804602114181
 30
0.0
 10
117.4383104543939
 20
88.33770513581537
 30
0.0
 10
117.4546978400908
 20
88.40668146629721
 30
0.0
 10
117.4758708772226
 20
88.47497284043925
 30
0.0
 10
117.5019880742067
 20
88.54259992467792
 30
0.0
 10
117.5509111225399
 20
88.64760139432656
 30
0.0
 10
117.6350935567146
 20
88.78138504186266
 30
0.0
 10
117.7229643752472
 20
88.8646725457162
 30
0.0
 10
117.769340118477
 20
88.90862934454277
 30
0.0
  0
SPLINE
  5
E2
330
1F
100
AcDbEntity
  8
0
  6
Continuous
 62
     7
370
    25
100
AcDbSpline
210
0.0
220
0.0
230
1.0
 70
     8
 71
     3
 72
    13
 73
     9
 74
     0
 42
0.000000001
 43
0.00000001
 40
0.0
 40
0.0
 40
0.0
 40
0.0
 40
0.1759205118839894
 40
0.33918960755005
 40
0.4921931780779566
 40
0.6738397335242725
 40
0.8395017852842178
 40
1.0
 40
1.0
 40
1.0
 40
1.0
 10
117.2814660161915
 20
87.77343158050503
 30
0.0
 10
117.2929911935887
 20
87.78653012505163
 30
0.0
 10
117.3152127091836
 20
87.81178522541857
 30
0.0
 10
117.3456163284771
 20
87.85762829199892
 30
0.0
 10
117.373820040926
 20
87.91151927342837
 30
0.0
 10
117.3977459691718
 20
87.97486719469173
 30
0.0
 10
117.4148722161646
 20
88.04942139058927
 30
0.0
 10
117.4170686758598
 20
88.10140478154075
 30
0.0
 10
117.4181495183045
 20
88.12698497109831
 30
0.0
  0
SPLINE
  5
E3
330
1F
100
AcDbEntity
  8
0
  6
Continuous
 62
     7
370
    25
100
AcDbSpline
210
0.0
220
0.0
230
1.0
 70
    24
 71
     3
 72
    10
 73
     6
 74
     0
 42
0.000000001
 43
0.00000001
 40
0.0
 40
0.0
 40
0.0
 40
0.0
 40
0.5
 40
0.5
 40
1.0
 40
1.0
 40
1.0
 40
1.0
 10
126.0828923963155
 20
88.54921337982715
 30
0.0
 10
126.0828923963155
 20
88.50433033975551
 30
0.0
 10
126.0828923963155
 20
88.44134052424691
 30
0.0
 10
126.0828923963155
 20
88.29448850537005
 30
0.0
 10
126.0828923963155
 20
88.21078082464459
 30
0.0
 10
126.0828923963155
 20
88.12698497109831
 30
0.0
  0
SPLINE
  5
E4
330
1F
100
AcDbEntity
  8
0
  6
Continuous
 62
     7
370
    25
100
AcDbSpline
210
0.0
220
0.0
230
1.0
 70
     8
 71
     3
 72
     8
 73
     4
 74
     0
 42
0.000000001
 43
0.00000001
 40
-0.0000000000002226
 40
-0.0000000000002226
 40
-0.0000000000002226
 40
-0.0000000000002226
 40
0.127234597098529
 40
0.127234597098529
 40
0.127234597098529
 40
0.127234597098529
 10
126.082892396312
 20
88.54921337982749
 30
0.0
 10
126.4714783910254
 20
88.59472148208536
 30
0.0
 10
126.8589069579042
 20
88.62698497109831
 30
0.0
 10
127.2264735717451
 20
88.62698497109831
 30
0.0
  0
LINE
  5
E5
330
1F
100
AcDbEntity
  8
0
  6
Continuous
 62
     7
370
    25
100
AcDbLine
 10
128.9848161552
 20
88.6269848035
 30
0.0
 11
127.2264735464
 21
88.6269848035
 31
0.0
  0
ARC
  5
E6
330
1F
100
AcDbEntity
  8
0
  6
Continuous
 62
     7
370
    25
100
AcDbCircle
 10
128.984816185
 20
88.1269849711
 30
0.0
 40
0.5
100
AcDbArc
 50
43.1107916145
 51
90.0
  0
SPLINE
  5
E7
330
1F
100
AcDbEntity
  8
0
  6
Continuous
 62
     7
370
    25
100
AcDbSpline
210
0.0
220
0.0
230
1.0
 70
     8
 71
     3
 72
    13
 73
     9
 74
     0
 42
0.000000001
 43
0.00000001
 40
0.0
 40
0.0
 40
0.0
 40
0.0
 40
0.1206933106363776
 40
0.2506349558809258
 40
0.4049363551860728
 40
0.501375099440844
 40
0.7702864432344702
 40
1.0
 40
1.0
 40
1.0
 40
1.0
 10
128.9848622530164
 20
88.12698497109831
 30
0.0
 10
128.9998398025641
 20
88.14184074939011
 30
0.0
 10
129.0309425824142
 20
88.17269065579433
 30
0.0
 10
129.0820274130201
 20
88.22126580726277
 30
0.0
 10
129.1302166335212
 20
88.26595548954448
 30
0.0
 10
129.1953796464179
 20
88.32571919893189
 30
0.0
 10
129.2683040339899
 20
88.3935112121068
 30
0.0
 10
129.3241192351333
 20
88.44497948448154
 30
0.0
 10
129.3498329697701
 20
88.46869061462067
 30
0.0
  0
SPLINE
  5
E8
330
1F
100
AcDbEntity
  8
0
  6
Continuous
 62
     7
370
    25
100
AcDbSpline
210
0.0
220
0.0
230
1.0
 70
    24
 71
     3
 72
    10
 73
     6
 74
     0
 42
0.000000001
 43
0.00000001
 40
0.0
 40
0.0
 40
0.0
 40
0.0
 40
0.5
 40
0.5
 40
1.0
 40
1.0
 40
1.0
 40
1.0
 10
116.0625877762423
 20
83.72506118244273
 30
0.0
 10
116.1074708163139
 20
83.72506118244273
 30
0.0
 10
116.1704606318225
 20
83.72506118244273
 30
0.0
 10
116.3173126506994
 20
83.72506118244273
 30
0.0
 10
116.4010203314248
 20
83.72506118244273
 30
0.0
 10
116.4848161849711
 20
83.72506118244273
 30
0.0
  0
SPLINE
  5
E9
330
1F
100
AcDbEntity
  8
0
  6
Continuous
 62
     7
370
    25
100
AcDbSpline
210
0.0
220
0.0
230
1.0
 70
     8
 71
     3
 72
    12
 73
     8
 74
     0
 42
0.000000001
 43
0.00000001
 40
0.0
 40
0.0
 40
0.0
 40
0.0
 40
0.1731008601133525
 40
0.359615337634814
 40
0.5595829448172194
 40
0.773035722531595
 40
1.0
 40
1.0
 40
1.0
 40
1.0
 10
115.9848161849711
 20
84.86864235787225
 30
0.0
 10
115.9854300126598
 20
84.8032094736268
 30
0.0
 10
115.9867052336573
 20
84.6672732989311
 30
0.0
 10
115.9963885389644
 20
84.45456142607136
 30
0.0
 10
116.0119438220844
 20
84.22581639640356
 30
0.0
 10
116.0338027225455
 20
83.98096546987372
 30
0.0
 10
116.052798501963
 20
83.81208958563033
 30
0.0
 10
116.0625877762423
 20
83.72506118244273
 30
0.0
  0
LINE
  5
EA
330
1F
100
AcDbEntity
  8
0
  6
Continuous
 62
     7
370
    25
100
AcDbLine
 10
115.9848163526
 20
84.8686423325
 30
0.0
 11
115.9848163526
 21
86.6269849413
 31
0.0
  0
ARC
  5
EB
330
1F
100
AcDbEntity
  8
0
  6
Continuous
 62
     7
370
    25
100
AcDbCircle
 10
116.484816185
 20
86.6269849711
 30
0.0
 40
0.5
100
AcDbArc
 50
133.1107916145
 51
180.0
  0
SPLINE
  5
EC
330
1F
100
AcDbEntity
  8
0
  6
Continuous
 62
     7
370
    25
100
AcDbSpline
210
0.0
220
0.0
230
1.0
 70
     8
 71
     3
 72
    13
 73
     9
 74
     0
 42
0.000000001
 43
0.00000001
 40
0.0
 40
0.0
 40
0.0
 40
0.0
 40
0.1206933098378984
 40
0.2506349558807637
 40
0.4049363563536673
 40
0.5013750994399903
 40
0.7702864430522399
 40
1.0
 40
1.0
 40
1.0
 40
1.0
 10
116.4848161849711
 20
86.6270310391435
 30
0.0
 10
116.4699604067792
 20
86.64200858859365
 30
0.0
 10
116.4391105003785
 20
86.67311136844685
 30
0.0
 10
116.3905353487613
 20
86.72419619919462
 30
0.0
 10
116.345845666376
 20
86.77238541978383
 30
0.0
 10
116.2860819570342
 20
86.83754843267349
 30
0.0
 10
116.2182899439867
 20
86.91047282010062
 30
0.0
 10
116.1668216716083
 20
86.9662880212414
 30
0.0
 10
116.1431105414487
 20
86.99200175589725
 30
0.0
  0
SPLINE
  5
ED
330
1F
100
AcDbEntity
  8
0
  6
Continuous
 62
     7
370
    25
100
AcDbSpline
210
0.0
220
0.0
230
1.0
 70
    24
 71
     3
 72
    10
 73
     6
 74
     0
 42
0.000000001
 43
0.00000001
 40
0.0
 40
0.0
 40
0.0
 40
0.0
 40
0.5
 40
0.5
 40
1.0
 40
1.0
 40
1.0
 40
1.0
 10
130.9070445936999
 20
78.52890875975388
 30
0.0
 10
130.8621615536283
 20
78.52890875975388
 30
0.0
 10
130.7991717381197
 20
78.52890875975388
 30
0.0
 10
130.6523197192429
 20
78.52890875975388
 30
0.0
 10
130.5686120385174
 20
78.52890875975388
 30
0.0
 10
130.4848161849711
 20
78.52890875975388
 30
0.0
  0
SPLINE
  5
EE
330
1F
100
AcDbEntity
  8
0
  6
Continuous
 62
     7
370
    25
100
AcDbSpline
210
0.0
220
0.0
230
1.0
 70
     8
 71
     3
 72
    12
 73
     8
 74
     0
 42
0.000000001
 43
0.00000001
 40
0.0
 40
0.0
 40
0.0
 40
0.0
 40
0.1731008601132462
 40
0.3596153376346544
 40
0.5595829448170604
 40
0.7730357225314888
 40
1.0
 40
1.0
 40
1.0
 40
1.0
 10
130.9848161849711
 20
77.38532758432437
 30
0.0
 10
130.9842023572825
 20
77.45076046856977
 30
0.0
 10
130.982927136285
 20
77.58669664326543
 30
0.0
 10
130.9732438309778
 20
77.79940851612507
 30
0.0
 10
130.9576885478578
 20
78.02815354579289
 30
0.0
 10
130.9358296473968
 20
78.27300447232278
 30
0.0
 10
130.9168338679792
 20
78.44188035656624
 30
0.0
 10
130.9070445936999
 20
78.52890875975388
 30
0.0
  0
LINE
  5
EF
330
1F
100
AcDbEntity
  8
0
  6
Continuous
 62
     7
370
    25
100
AcDbLine
 10
130.9848160173
 20
77.3853276097
 30
0.0
 11
130.9848160173
 21
75.6269850009
 31
0.0
  0
LINE
  5
F0
330
1F
100
AcDbEntity
  8
0
  6
Continuous
 62
     7
370
    25
100
AcDbLine
 10
130.484816401
 20
75.6269850009
 30
0.0
 11
130.9848160173
 21
75.6269850009
 31
0.0
  0
SPLINE
  5
F1
330
1F
100
AcDbEntity
  8
0
  6
Continuous
 62
     7
370
    25
100
AcDbSpline
210
0.0
220
0.0
230
1.0
 70
     8
 71
     3
 72
    12
 73
     8
 74
     0
 42
0.000000001
 43
0.00000001
 40
-0.267217449764123
 40
-0.267217449764123
 40
-0.267217449764123
 40
-0.267217449764123
 40
-0.160856558527433
 40
-0.107676112909088
 40
-0.001315221672398
 40
-0.001315221672398
 40
0.0
 40
0.0
 40
0.0
 40
0.0
 10
116.0625877762423
 20
78.52890875976276
 30
0.0
 10
116.1006299630747
 20
78.90298923034132
 30
0.0
 10
116.0951340909134
 20
79.4226903958177
 30
0.0
 10
116.0532375113865
 20
80.27493556444807
 30
0.0
 10
116.0121113536303
 20
80.77914700666051
 30
0.0
 10
115.985463976117
 20
81.11868640324752
 30
0.0
 10
115.9851404744495
 20
81.1228361717574
 30
0.0
 10
115.9848161849711
 20
81.1269849710983
 30
0.0
  0
SPLINE
  5
F2
330
1F
100
AcDbEntity
  8
0
  6
Continuous
 62
     7
370
    25
100
AcDbSpline
210
0.0
220
0.0
230
1.0
 70
     8
 71
     3
 72
    12
 73
     8
 74
     0
 42
0.000000001
 43
0.00000001
 40
0.0
 40
0.0
 40
0.0
 40
0.0
 40
0.106360891224351
 40
0.159541336836527
 40
0.265902228060878
 40
0.265902228060878
 40
0.267217449764311
 40
0.267217449764311
 40
0.267217449764311
 40
0.267217449764311
 10
130.9070445936999
 20
83.72506118243385
 30
0.0
 10
130.8690024068719
 20
83.35098071189869
 30
0.0
 10
130.874498279025
 20
82.83127954647904
 30
0.0
 10
130.9163948585419
 20
81.9790343779455
 30
0.0
 10
130.9575210162858
 20
81.47482293579094
 30
0.0
 10
130.9841683938101
 20
81.13528353914474
 30
0.0
 10
130.9844918954851
 20
81.13113377053618
 30
0.0
 10
130.9848161849711
 20
81.1269849710983
 30
0.0
  0
SPLINE
  5
F3
330
1F
100
AcDbEntity
  8
0
  6
Continuous
 62
     7
370
    25
100
AcDbSpline
210
0.0
220
0.0
230
1.0
 70
     8
 71
     3
 72
    12
 73
     8
 74
     0
 42
0.000000001
 43
0.00000001
 40
0.0
 40
0.0
 40
0.0
 40
0.0
 40
0.106360889128132
 40
0.159541333692198
 40
0.26590222282033
 40
0.26590222282033
 40
0.267217449923961
 40
0.267217449923961
 40
0.267217449923961
 40
0.267217449923961
 10
120.8867399736356
 20
88.54921337982714
 30
0.0
 10
121.2608204367982
 20
88.51117119374885
 30
0.0
 10
121.7805215942283
 20
88.51666706494787
 30
0.0
 10
122.6327667435028
 20
88.5585636425151
 30
0.0
 10
123.1369781757992
 20
88.59968979894052
 30
0.0
 10
123.4765175828516
 20
88.62633717727748
 30
0.0
 10
123.4806673684983
 20
88.62666068028105
 30
0.0
 10
123.4848161849711
 20
88.62698497109831
 30
0.0
  0
SPLINE
  5
F4
330
1F
100
AcDbEntity
  8
0
  6
Continuous
 62
     7
370
    25
100
AcDbSpline
210
0.0
220
0.0
230
1.0
 70
     8
 71
     3
 72
     8
 73
     4
 74
     0
 42
0.000000001
 43
0.00000001
 40
0.0
 40
0.0
 40
0.0
 40
0.0
 40
1.0
 40
1.0
 40
1.0
 40
1.0
 10
115.6403593675134
 20
78.70211384051629
 30
0.0
 10
115.8103632473491
 20
78.66707311559801
 30
0.0
 10
115.9771677097016
 20
78.59864716468014
 30
0.0
 10
116.0625877762423
 20
78.52890875976276
 30
0.0
  0
SPLINE
  5
F5
330
1F
100
AcDbEntity
  8
0
  6
Continuous
 62
     7
370
    25
100
AcDbSpline
210
0.0
220
0.0
230
1.0
 70
     8
 71
     3
 72
     9
 73
     5
 74
     0
 42
0.000000001
 43
0.00000001
 40
0.0
 40
0.0
 40
0.0
 40
0.0
 40
0.571428571428571
 40
1.0
 40
1.0
 40
1.0
 40
1.0
 10
131.3292730024288
 20
83.55185610168033
 30
0.0
 10
131.232127928237
 20
83.57187937306219
 30
0.0
 10
131.0624665895193
 20
83.62539769053753
 30
0.0
 10
130.943653193646
 20
83.6951732946121
 30
0.0
 10
130.9070445936999
 20
83.72506118243385
 30
0.0
  0
SPLINE
  5
F6
330
1F
100
AcDbEntity
  8
0
  6
Continuous
 62
     7
370
    25
100
AcDbSpline
210
0.0
220
0.0
230
1.0
 70
     8
 71
     3
 72
     9
 73
     5
 74
     0
 42
0.000000001
 43
0.00000001
 40
0.0
 40
0.0
 40
0.0
 40
0.0
 40
0.5
 40
1.0
 40
1.0
 40
1.0
 40
1.0
 10
131.3292730024299
 20
78.70211384051173
 30
0.0
 10
131.2442710625118
 20
78.6845934780522
 30
0.0
 10
131.0743771442631
 20
78.63347125906975
 30
0.0
 10
130.9497546269707
 20
78.56377796221459
 30
0.0
 10
130.9070445937005
 20
78.52890875975554
 30
0.0
  0
SPLINE
  5
F7
330
1F
100
AcDbEntity
  8
0
  6
Continuous
 62
     7
370
    25
100
AcDbSpline
210
0.0
220
0.0
230
1.0
 70
     8
 71
     3
 72
    12
 73
     8
 74
     0
 42
0.000000001
 43
0.00000001
 40
-0.0013152216724614
 40
-0.0013152216724614
 40
-0.0013152216724614
 40
-0.0013152216724614
 40
0.0
 40
0.0
 40
0.159541336854997
 40
0.212721782473329
 40
0.265902228091661
 40
0.265902228091661
 40
0.265902228091661
 40
0.265902228091661
 10
130.9848161849711
 20
81.1269849710983
 30
0.0
 10
130.9844918954928
 20
81.12283617175811
 30
0.0
 10
130.9841665757622
 20
81.11868862515423
 30
0.0
 10
130.9446868257138
 20
80.61105441197144
 30
0.0
 10
130.8896189110384
 20
79.93842451159678
 30
0.0
 10
130.8738066029034
 20
79.073908434816
 30
0.0
 10
130.8880235002837
 20
78.715948995052
 30
0.0
 10
130.9070445936999
 20
78.52890875976276
 30
0.0
  0
SPLINE
  5
F8
330
1F
100
AcDbEntity
  8
0
  6
Continuous
 62
     7
370
    25
100
AcDbSpline
210
0.0
220
0.0
230
1.0
 70
     8
 71
     3
 72
    12
 73
     8
 74
     0
 42
0.000000001
 43
0.00000001
 40
-0.265902228061387
 40
-0.265902228061387
 40
-0.265902228061387
 40
-0.265902228061387
 40
-0.2645870063584663
 40
-0.2645870063584663
 40
-0.1582261151339113
 40
-0.1050456695216343
 40
0.0013152217029208
 40
0.0013152217029208
 40
0.0013152217029208
 40
0.0013152217029208
 10
115.9848161849711
 20
81.1269849710983
 30
0.0
 10
115.985140474457
 20
81.13113377053486
 30
0.0
 10
115.9854639761317
 20
81.13528353914151
 30
0.0
 10
116.0121113536582
 20
81.47482293579003
 30
0.0
 10
116.0532375114006
 20
81.97903437794294
 30
0.0
 10
116.0951340909179
 20
82.83127954647861
 30
0.0
 10
116.1006299630704
 20
83.35098071189796
 30
0.0
 10
116.0625877762423
 20
83.72506118243385
 30
0.0
  0
SPLINE
  5
F9
330
1F
100
AcDbEntity
  8
0
  6
Continuous
 62
     7
370
    25
100
AcDbSpline
210
0.0
220
0.0
230
1.0
 70
     8
 71
     3
 72
     9
 73
     5
 74
     0
 42
0.000000001
 43
0.00000001
 40
0.0
 40
0.0
 40
0.0
 40
0.0
 40
0.5
 40
1.0
 40
1.0
 40
1.0
 40
1.0
 10
115.6403593675127
 20
83.55185610168311
 30
0.0
 10
115.7253613074307
 20
83.56937646414266
 30
0.0
 10
115.8952552256794
 20
83.62049868312508
 30
0.0
 10
116.0198777429718
 20
83.69019197998017
 30
0.0
 10
116.0625877762419
 20
83.72506118243918
 30
0.0
  0
SPLINE
  5
FA
330
1F
100
AcDbEntity
  8
0
  6
Continuous
 62
     7
370
    25
100
AcDbSpline
210
0.0
220
0.0
230
1.0
 70
     8
 71
     3
 72
     9
 73
     5
 74
     0
 42
0.000000001
 43
0.00000001
 40
0.0
 40
0.0
 40
0.0
 40
0.0
 40
0.571428571428571
 40
1.0
 40
1.0
 40
1.0
 40
1.0
 10
121.0599450543891
 20
88.97144178855599
 30
0.0
 10
121.0399217830072
 20
88.87429671436416
 30
0.0
 10
120.9864034655319
 20
88.7046353756465
 30
0.0
 10
120.9166278614573
 20
88.58582197977313
 30
0.0
 10
120.8867399736356
 20
88.54921337982714
 30
0.0
  0
SPLINE
  5
FB
330
1F
100
AcDbEntity
  8
0
  6
Continuous
 62
     7
370
    25
100
AcDbSpline
210
0.0
220
0.0
230
1.0
 70
     8
 71
     3
 72
    12
 73
     8
 74
     0
 42
0.000000001
 43
0.00000001
 40
-0.0013152270871416
 40
-0.0013152270871416
 40
-0.0013152270871416
 40
-0.0013152270871416
 40
0.0
 40
0.0
 40
0.106360889134687
 40
0.159541333702031
 40
0.265902222836718
 40
0.265902222836718
 40
0.265902222836718
 40
0.265902222836718
 10
123.4848161849711
 20
88.62698497109831
 30
0.0
 10
123.4889650013922
 20
88.6266606802851
 30
0.0
 10
123.4931147869866
 20
88.62633717728563
 30
0.0
 10
123.8326541940069
 20
88.59968979895194
 30
0.0
 10
124.3368656263346
 20
88.55856364252193
 30
0.0
 10
125.1891107756605
 20
88.516667064949
 30
0.0
 10
125.708811933121
 20
88.51117119374649
 30
0.0
 10
126.0828923963067
 20
88.54921337982714
 30
0.0
  0
SPLINE
  5
FC
330
1F
100
AcDbEntity
  8
0
  6
Continuous
 62
     7
370
    25
100
AcDbSpline
210
0.0
220
0.0
230
1.0
 70
     8
 71
     3
 72
     9
 73
     5
 74
     0
 42
0.000000001
 43
0.00000001
 40
0.0
 40
0.0
 40
0.0
 40
0.0
 40
0.5
 40
1.0
 40
1.0
 40
1.0
 40
1.0
 10
125.9096873155578
 20
88.97144178855717
 30
0.0
 10
125.9272076780174
 20
88.88643984863907
 30
0.0
 10
125.9783298969998
 20
88.71654593039028
 30
0.0
 10
126.048023193855
 20
88.59192341309787
 30
0.0
 10
126.082892396314
 20
88.54921337982773
 30
0.0
  0
SPLINE
  5
FD
330
1F
100
AcDbEntity
  8
0
  6
Continuous
 62
     7
370
    25
100
AcDbSpline
210
0.0
220
0.0
230
1.0
 70
     8
 71
     3
 72
    13
 73
     9
 74
     0
 42
0.000000001
 43
0.00000001
 40
0.0
 40
0.0
 40
0.0
 40
0.0
 40
0.1162222239500744
 40
0.2381780213579675
 40
0.3660917905452749
 40
0.5001580142688472
 40
0.7504239388829979
 40
1.0
 40
1.0
 40
1.0
 40
1.0
 10
129.3498329697701
 20
88.46869061462067
 30
0.0
 10
129.3608170922652
 20
88.45624260400258
 30
0.0
 10
129.383327215315
 20
88.4307324869347
 30
0.0
 10
129.4114383424798
 20
88.38922531391799
 30
0.0
 10
129.435962339078
 20
88.344632563213
 30
0.0
 10
129.4613359239418
 20
88.28412647990903
 30
0.0
 10
129.4811956018143
 20
88.20872269624718
 30
0.0
 10
129.4836104348734
 20
88.15420581126466
 30
0.0
 10
129.4848161849711
 20
88.12698498987169
 30
0.0
  0
SPLINE
  5
FE
330
1F
100
AcDbEntity
  8
0
  6
Continuous
 62
     7
370
    25
100
AcDbSpline
210
0.0
220
0.0
230
1.0
 70
     8
 71
     3
 72
    10
 73
     6
 74
     0
 42
0.000000001
 43
0.00000001
 40
0.0
 40
0.0
 40
0.0
 40
0.0
 40
0.5
 40
0.5
 40
1.0
 40
1.0
 40
1.0
 40
1.0
 10
129.4848161849711
 20
88.12698497109831
 30
0.0
 10
129.4848161849711
 20
87.86518558016996
 30
0.0
 10
129.5925892840488
 20
87.60499830617185
 30
0.0
 10
129.9628295367963
 20
87.23475806037564
 30
0.0
 10
130.2230168128179
 20
87.126984966183
 30
0.0
 10
130.4848162037462
 20
87.12698497109831
 30
0.0
  0
SPLINE
  5
FF
330
1F
100
AcDbEntity
  8
0
  6
Continuous
 62
     7
370
    25
100
AcDbSpline
210
0.0
220
0.0
230
1.0
 70
     8
 71
     3
 72
    12
 73
     8
 74
     0
 42
0.000000001
 43
0.00000001
 40
0.0
 40
0.0
 40
0.0
 40
0.0
 40
0.1664616503807027
 40
0.3330491366093241
 40
0.5001938540683241
 40
0.7619811741357122
 40
1.0
 40
1.0
 40
1.0
 40
1.0
 10
130.4848162037445
 20
87.12698497109831
 30
0.0
 10
130.5027900274963
 20
87.12644259166687
 30
0.0
 10
130.5387512622216
 20
87.12535742279496
 30
0.0
 10
130.596468191295
 20
87.11557427443512
 30
0.0
 10
130.6667529027874
 20
87.0948942026555
 30
0.0
 10
130.7460956572304
 20
87.0585929332389
 30
0.0
 10
130.8005767282535
 20
87.01348375291508
 30
0.0
 10
130.8265218284934
 20
86.9920017558973
 30
0.0
  0
SPLINE
  5
100
330
1F
100
AcDbEntity
  8
0
  6
Continuous
 62
     7
370
    25
100
AcDbSpline
210
0.0
220
0.0
230
1.0
 70
     8
 71
     3
 72
    13
 73
     9
 74
     0
 42
0.000000001
 43
0.00000001
 40
0.0
 40
0.0
 40
0.0
 40
0.0
 40
0.1162222239446788
 40
0.2381780213507807
 40
0.3660917905398808
 40
0.5001580142687957
 40
0.7504239388759752
 40
1.0
 40
1.0
 40
1.0
 40
1.0
 10
116.1431105414487
 20
86.99200175589725
 30
0.0
 10
116.1555585520662
 20
87.00298587839188
 30
0.0
 10
116.1810686691333
 20
87.02549600144107
 30
0.0
 10
116.2225758421492
 20
87.0536071286056
 30
0.0
 10
116.2671685928547
 20
87.07813112520444
 30
0.0
 10
116.327674676159
 20
87.10350471006855
 30
0.0
 10
116.4030784598217
 20
87.12336438794138
 30
0.0
 10
116.4575953448041
 20
87.12577922100053
 30
0.0
 10
116.4848161661977
 20
87.12698497109831
 30
0.0
  0
SPLINE
  5
101
330
1F
100
AcDbEntity
  8
0
  6
Continuous
 62
     7
370
    25
100
AcDbSpline
210
0.0
220
0.0
230
1.0
 70
     8
 71
     3
 72
    10
 73
     6
 74
     0
 42
0.000000001
 43
0.00000001
 40
0.0
 40
0.0
 40
0.0
 40
0.0
 40
0.5
 40
0.5
 40
1.0
 40
1.0
 40
1.0
 40
1.0
 10
116.484816166196
 20
87.12698497109831
 30
0.0
 10
116.7466155602535
 20
87.126984966183
 30
0.0
 10
117.0068028393091
 20
87.23475806306317
 30
0.0
 10
117.3770430930063
 20
87.60499831676036
 30
0.0
 10
117.4848161898864
 20
87.8651855958159
 30
0.0
 10
117.4848161849711
 20
88.1269849898734
 30
0.0
  0
SPLINE
  5
102
330
1F
100
AcDbEntity
  8
0
  6
Continuous
 62
     7
370
    25
100
AcDbSpline
210
0.0
220
0.0
230
1.0
 70
     8
 71
     3
 72
    12
 73
     8
 74
     0
 42
0.000000001
 43
0.00000001
 40
0.0
 40
0.0
 40
0.0
 40
0.0
 40
0.1664615763807151
 40
0.3330490665505926
 40
0.500193865880855
 40
0.7619811797519991
 40
1.0
 40
1.0
 40
1.0
 40
1.0
 10
117.4848161849711
 20
88.12698497109831
 30
0.0
 10
117.4853585633029
 20
88.14495878785985
 30
0.0
 10
117.4864437302289
 20
88.18092001702115
 30
0.0
 10
117.4962268755415
 20
88.23863695438145
 30
0.0
 10
117.5169069489699
 20
88.3089216795351
 30
0.0
 10
117.5532082227697
 20
88.38826444313686
 30
0.0
 10
117.5983174031342
 20
88.44274551430881
 30
0.0
 10
117.6197994001721
 20
88.46869061462064
 30
0.0
  0
SPLINE
  5
103
330
1F
100
AcDbEntity
  8
0
  6
Continuous
 62
     7
370
    25
100
AcDbSpline
210
0.0
220
0.0
230
1.0
 70
     8
 71
     3
 72
    14
 73
    10
 74
     0
 42
0.000000001
 43
0.00000001
 40
0.0
 40
0.0
 40
0.0
 40
0.0
 40
0.25
 40
0.25
 40
0.5
 40
0.5
 40
0.75
 40
0.75
 40
1.0
 40
1.0
 40
1.0
 40
1.0
 10
130.4848161849711
 20
75.12698497109831
 30
0.0
 10
130.54374175007
 20
75.12698497109831
 30
0.0
 10
130.6073150645601
 20
75.13772434050506
 30
0.0
 10
130.730412014944
 20
75.18645730062912
 30
0.0
 10
130.7895540390955
 20
75.22461604403611
 30
0.0
 10
130.8871851120333
 20
75.32224711697394
 30
0.0
 10
130.9253438554403
 20
75.38138914112542
 30
0.0
 10
130.9740768155644
 20
75.5044860915093
 30
0.0
 10
130.9848161849711
 20
75.56805940599942
 30
0.0
 10
130.9848161849711
 20
75.62698497109831
 30
0.0
  0
SPLINE
  5
104
330
1F
100
AcDbEntity
  8
0
  6
Continuous
 62
     7
370
    25
100
AcDbSpline
210
0.0
220
0.0
230
1.0
 70
    24
 71
     3
 72
    10
 73
     6
 74
     0
 42
0.000000001
 43
0.00000001
 40
0.0
 40
0.0
 40
0.0
 40
0.0
 40
0.5
 40
0.5
 40
1.0
 40
1.0
 40
1.0
 40
1.0
 10
130.4848161849711
 20
75.12698497109831
 30
0.0
 10
130.4848161849712
 20
75.12698497109831
 30
0.0
 10
130.4848161849713
 20
75.18087151929339
 30
0.0
 10
130.4848161849712
 20
75.36599164171666
 30
0.0
 10
130.4848161849712
 20
75.49608527719873
 30
0.0
 10
130.4848161849711
 20
75.62698497109831
 30
0.0
  0
LINE
  5
105
330
1F
100
AcDbEntity
  8
0
  6
Continuous
 62
     7
370
    25
100
AcDbLine
 10
130.484816401
 20
75.1269849189
 30
0.0
 11
116.4848159689
 21
75.1269849189
 31
0.0
  0
SPLINE
  5
106
330
1F
100
AcDbEntity
  8
0
  6
Continuous
 62
     7
370
    25
100
AcDbSpline
210
0.0
220
0.0
230
1.0
 70
    24
 71
     3
 72
    14
 73
    10
 74
     0
 42
0.000000001
 43
0.00000001
 40
0.0
 40
0.0
 40
0.0
 40
0.0
 40
0.25
 40
0.25
 40
0.5
 40
0.5
 40
0.75
 40
0.75
 40
1.0
 40
1.0
 40
1.0
 40
1.0
 10
116.4848161849711
 20
75.12698497109831
 30
0.0
 10
116.4848161849711
 20
75.12698497109831
 30
0.0
 10
116.4848161849711
 20
75.13772434050506
 30
0.0
 10
116.4848161849711
 20
75.18645730062913
 30
0.0
 10
116.4848161849711
 20
75.22461604403613
 30
0.0
 10
116.4848161849711
 20
75.32224711697394
 30
0.0
 10
116.4848161849711
 20
75.38138914112542
 30
0.0
 10
116.4848161849711
 20
75.5044860915093
 30
0.0
 10
116.4848161849711
 20
75.56805940599942
 30
0.0
 10
116.4848161849711
 20
75.62698497109831
 30
0.0
  0
SPLINE
  5
107
330
1F
100
AcDbEntity
  8
0
  6
Continuous
 62
     7
370
    25
100
AcDbSpline
210
0.0
220
0.0
230
1.0
 70
     8
 71
     3
 72
    10
 73
     6
 74
     0
 42
0.000000001
 43
0.00000001
 40
0.0
 40
0.0
 40
0.0
 40
0.0
 40
0.5
 40
0.5
 40
1.0
 40
1.0
 40
1.0
 40
1.0
 10
116.4848161849711
 20
75.12698497109831
 30
0.0
 10
116.3539164910715
 20
75.12698497109831
 30
0.0
 10
116.2238228555895
 20
75.18087151929339
 30
0.0
 10
116.0387027331662
 20
75.36599164171668
 30
0.0
 10
115.9848161849711
 20
75.49608527719873
 30
0.0
 10
115.9848161849711
 20
75.62698497109831
 30
0.0
  0
LINE
  5
108
330
1F
100
AcDbEntity
  8
0
  6
Continuous
 62
     7
370
    25
100
AcDbLine
 10
118.416753846
 20
93.1269850754
 30
0.0
 11
128.5528785239
 21
93.1269850754
 31
0.0
  0
LINE
  5
109
330
1F
100
AcDbEntity
  8
0
  6
Continuous
 62
     7
370
    25
100
AcDbLine
 10
127.4155618313
 20
78.5589442295
 30
0.0
 11
127.1522210601
 21
77.856122347
 31
0.0
  0
SPLINE
  5
10A
330
1F
100
AcDbEntity
  8
0
  6
Continuous
 62
     7
370
    25
100
AcDbSpline
210
0.0
220
0.0
230
1.0
 70
     8
 71
     3
 72
    31
 73
    27
 74
     0
 42
0.000000001
 43
0.00000001
 40
0.0
 40
0.0
 40
0.0
 40
0.0
 40
0.041802146707033
 40
0.0834773119907251
 40
0.1252067539465352
 40
0.1667553111646444
 40
0.208343789897431
 40
0.2500683763875439
 40
0.2917172802014936
 40
0.3332298152280506
 40
0.3749213178163661
 40
0.4166401475748497
 40
0.4581957047388333
 40
0.4998271904370101
 40
0.5415736637950209
 40
0.5832410842716478
 40
0.624816154537611
 40
0.6665619264699779
 40
0.7082962697793289
 40
0.7498773808560844
 40
0.7916005699338539
 40
0.8333637303001521
 40
0.8749600854558802
 40
0.9166279211224443
 40
0.9583871623503707
 40
1.0
 40
1.0
 40
1.0
 40
1.0
 10
127.4155619303301
 20
78.55894411960756
 30
0.0
 10
127.4165027759902
 20
78.56123245501911
 30
0.0
 10
127.4183816093251
 20
78.56580217461818
 30
0.0
 10
127.4221254513525
 20
78.57221413243958
 30
0.0
 10
127.4264535849143
 20
78.57821415487035
 30
0.0
 10
127.4313932777528
 20
78.58372151053216
 30
0.0
 10
127.4368820285844
 20
78.58867824159111
 30
0.0
 10
127.442844691623
 20
78.5930622681299
 30
0.0
 10
127.4492062400289
 20
78.59683581474789
 30
0.0
 10
127.4559130602875
 20
78.5999502359326
 30
0.0
 10
127.4628963550877
 20
78.60239228850689
 30
0.0
 10
127.4700827089571
 20
78.60415838374169
 30
0.0
 10
127.4774022551807
 20
78.60522706044874
 30
0.0
 10
127.4847926921201
 20
78.60557529230297
 30
0.0
 10
127.4921888593292
 20
78.6052217792209
 30
0.0
 10
127.4995157164337
 20
78.60417073928328
 30
0.0
 10
127.5067051182189
 20
78.6024086330884
 30
0.0
 10
127.5136927197282
 20
78.59995529576807
 30
0.0
 10
127.52041237121
 20
78.59684058372156
 30
0.0
 10
127.5267887585653
 20
78.59307373112878
 30
0.0
 10
127.5327512445938
 20
78.58867790460323
 30
0.0
 10
127.5382441644379
 20
78.58370731507364
 30
0.0
 10
127.5431998883072
 20
78.57820148945585
 30
0.0
 10
127.5475237860351
 20
78.5721924116424
 30
0.0
 10
127.5512530095974
 20
78.56578393764654
 30
0.0
 10
127.5531323986973
 20
78.5612213883014
 30
0.0
 10
127.5540704431188
 20
78.55894411960756
 30
0.0
  0
LINE
  5
10B
330
1F
100
AcDbEntity
  8
0
  6
Continuous
 62
     7
370
    25
100
AcDbLine
 10
127.2214753709
 20
77.7624524836
 30
0.0
 11
127.7481571462
 21
77.7624524836
 31
0.0
  0
SPLINE
  5
10C
330
1F
100
AcDbEntity
  8
0
  6
Continuous
 62
     7
370
    25
100
AcDbSpline
210
0.0
220
0.0
230
1.0
 70
     8
 71
     3
 72
    15
 73
    11
 74
     0
 42
0.000000001
 43
0.00000001
 40
0.0
 40
0.0
 40
0.0
 40
0.0
 40
0.1255482376299943
 40
0.2506612331927046
 40
0.3755698012986847
 40
0.5003109015749712
 40
0.6252467103373207
 40
0.7502075817355112
 40
0.874985997901262
 40
1.0
 40
1.0
 40
1.0
 40
1.0
 10
127.8174113304752
 20
77.85612230274461
 30
0.0
 10
127.8190263759424
 20
77.8506071160416
 30
0.0
 10
127.8222508679474
 20
77.83959586230868
 30
0.0
 10
127.8215933642292
 20
77.8222268030393
 30
0.0
 10
127.8168628031054
 20
77.8056819624065
 30
0.0
 10
127.8081162299722
 20
77.79083079299703
 30
0.0
 10
127.7960865249098
 20
77.77850030403256
 30
0.0
 10
127.7815085761871
 20
77.76940789653925
 30
0.0
 10
127.7652551326062
 20
77.76355622349072
 30
0.0
 10
127.7538600092408
 20
77.76282068674855
 30
0.0
 10
127.7481570740348
 20
77.76245257152524
 30
0.0
  0
SPLINE
  5
10D
330
1F
100
AcDbEntity
  8
0
  6
Continuous
 62
     7
370
    25
100
AcDbSpline
210
0.0
220
0.0
230
1.0
 70
     8
 71
     3
 72
    15
 73
    11
 74
     0
 42
0.000000001
 43
0.00000001
 40
0.0
 40
0.0
 40
0.0
 40
0.0
 40
0.1247517205531464
 40
0.2498857245441838
 40
0.3745674687454417
 40
0.4993106804387823
 40
0.6244677860264319
 40
0.7493917290903895
 40
0.8741574726928457
 40
1.0
 40
1.0
 40
1.0
 40
1.0
 10
127.2214752963121
 20
77.76245257152524
 30
0.0
 10
127.2157841715223
 20
77.76281731401478
 30
0.0
 10
127.2043844823215
 20
77.76354791669397
 30
0.0
 10
127.1881376847564
 20
77.76939987395262
 30
0.0
 10
127.173569757588
 20
77.77849406476155
 30
0.0
 10
127.1615226786066
 20
77.79080258917561
 30
0.0
 10
127.1527677774305
 20
77.8056663219458
 30
0.0
 10
127.1480538912634
 20
77.82221848076416
 30
0.0
 10
127.1473797503729
 20
77.83958333759212
 30
0.0
 10
127.1506026608331
 20
77.8505935454087
 30
0.0
 10
127.1522210399716
 20
77.85612230299036
 30
0.0
  0
LINE
  5
10E
330
1F
100
AcDbEntity
  8
0
  6
Continuous
 62
     7
370
    25
100
AcDbLine
 10
127.8174112241
 20
77.856122347
 30
0.0
 11
127.5540704529
 21
78.5589442295
 31
0.0
  0
SPLINE
  5
10F
330
1F
100
AcDbEntity
  8
0
  6
Continuous
 62
     7
370
    25
100
AcDbSpline
210
0.0
220
0.0
230
1.0
 70
     8
 71
     3
 72
     9
 73
     5
 74
     0
 42
0.000000001
 43
0.00000001
 40
0.0
 40
0.0
 40
0.0
 40
0.0
 40
0.5
 40
1.0
 40
1.0
 40
1.0
 40
1.0
 10
115.4848161849711
 20
77.63477141010928
 30
0.0
 10
115.6157158788707
 20
77.63477141010928
 30
0.0
 10
115.8765323147862
 20
77.58074992440982
 30
0.0
 10
115.9848161849711
 20
77.45063182520514
 30
0.0
 10
115.9848161849711
 20
77.38532758432437
 30
0.0
  0
SPLINE
  5
110
330
1F
100
AcDbEntity
  8
0
  6
Continuous
 62
     7
370
    25
100
AcDbSpline
210
0.0
220
0.0
230
1.0
 70
     8
 71
     3
 72
     9
 73
     5
 74
     0
 42
0.000000001
 43
0.00000001
 40
0.0
 40
0.0
 40
0.0
 40
0.0
 40
0.5
 40
1.0
 40
1.0
 40
1.0
 40
1.0
 10
131.4848161849711
 20
84.61919853208731
 30
0.0
 10
131.3539164910715
 20
84.61919853208731
 30
0.0
 10
131.0931000551561
 20
84.67322001778678
 30
0.0
 10
130.9848161849711
 20
84.80333811699148
 30
0.0
 10
130.9848161849711
 20
84.86864235787225
 30
0.0
  0
SPLINE
  5
111
330
1F
100
AcDbEntity
  8
0
  6
Continuous
 62
     7
370
    25
100
AcDbSpline
210
0.0
220
0.0
230
1.0
 70
     8
 71
     3
 72
     9
 73
     5
 74
     0
 42
0.000000001
 43
0.00000001
 40
0.0
 40
0.0
 40
0.0
 40
0.0
 40
0.5
 40
1.0
 40
1.0
 40
1.0
 40
1.0
 10
119.9926026239821
 20
89.12698497109831
 30
0.0
 10
119.9926026239821
 20
88.99608527719874
 30
0.0
 10
119.9385811382826
 20
88.73526884128327
 30
0.0
 10
119.8084630390779
 20
88.62698497109831
 30
0.0
 10
119.7431587981972
 20
88.62698497109831
 30
0.0
  0
SPLINE
  5
112
330
1F
100
AcDbEntity
  8
0
  6
Continuous
 62
     7
370
    25
100
AcDbSpline
210
0.0
220
0.0
230
1.0
 70
     8
 71
     3
 72
     9
 73
     5
 74
     0
 42
0.000000001
 43
0.00000001
 40
0.0
 40
0.0
 40
0.0
 40
0.0
 40
0.5
 40
1.0
 40
1.0
 40
1.0
 40
1.0
 10
127.2264735717451
 20
88.62698497109831
 30
0.0
 10
127.1611693308643
 20
88.62698497109831
 30
0.0
 10
127.0310512316596
 20
88.73526884128327
 30
0.0
 10
126.9770297459602
 20
88.99608527719873
 30
0.0
 10
126.9770297459602
 20
89.12698497109831
 30
0.0
  0
SPLINE
  5
113
330
1F
100
AcDbEntity
  8
0
  6
Continuous
 62
     7
370
    25
100
AcDbSpline
210
0.0
220
0.0
230
1.0
 70
     8
 71
     3
 72
     9
 73
     5
 74
     0
 42
0.000000001
 43
0.00000001
 40
0.0
 40
0.0
 40
0.0
 40
0.0
 40
0.5
 40
1.0
 40
1.0
 40
1.0
 40
1.0
 10
130.9848161849711
 20
77.38532758432437
 30
0.0
 10
130.9848161849711
 20
77.45063182520514
 30
0.0
 10
131.0931000551561
 20
77.58074992440983
 30
0.0
 10
131.3539164910715
 20
77.6347714101093
 30
0.0
 10
131.4848161849711
 20
77.6347714101093
 30
0.0
  0
SPLINE
  5
114
330
1F
100
AcDbEntity
  8
0
  6
Continuous
 62
     7
370
    25
100
AcDbSpline
210
0.0
220
0.0
230
1.0
 70
     8
 71
     3
 72
     9
 73
     5
 74
     0
 42
0.000000001
 43
0.00000001
 40
0.0
 40
0.0
 40
0.0
 40
0.0
 40
0.5
 40
1.0
 40
1.0
 40
1.0
 40
1.0
 10
115.9848161849711
 20
84.86864235787225
 30
0.0
 10
115.9848161849711
 20
84.80333811699148
 30
0.0
 10
115.8765323147862
 20
84.67322001778678
 30
0.0
 10
115.6157158788707
 20
84.61919853208731
 30
0.0
 10
115.4848161849711
 20
84.61919853208731
 30
0.0
  0
LINE
  5
115
330
1F
100
AcDbEntity
  8
0
  6
Continuous
 62
     7
370
    25
100
AcDbLine
 10
115.9746947389
 20
75.5723424428
 30
0.0
 11
115.9848163526
 21
75.626891403
 31
0.0
  0
SPLINE
  5
116
330
1F
100
AcDbEntity
  8
0
  6
Continuous
 62
     7
370
    25
100
AcDbSpline
210
0.0
220
0.0
230
1.0
 70
     8
 71
     3
 72
    11
 73
     7
 74
     0
 42
0.000000001
 43
0.00000001
 40
0.0
 40
0.0
 40
0.0
 40
0.0
 40
0.2813371813345898
 40
0.4847351098322705
 40
0.7599089647777694
 40
1.0
 40
1.0
 40
1.0
 40
1.0
 10
115.4848161849711
 20
75.06031830443163
 30
0.0
 10
115.5097241024004
 20
75.08469361139939
 30
0.0
 10
115.5526396602856
 20
75.12669149822028
 30
0.0
 10
115.6197662792696
 20
75.1850810058131
 30
0.0
 10
115.6837059185323
 20
75.23511268610365
 30
0.0
 10
115.7288373185902
 20
75.26328661149867
 30
0.0
 10
115.7498665887146
 20
75.27641443573711
 30
0.0
  0
LINE
  5
117
330
1F
100
AcDbEntity
  8
0
  6
Continuous
 62
     7
370
    25
100
AcDbLine
 10
116.3010837201
 20
75.1620128923
 30
0.0
 11
116.4847228366
 21
75.1269849189
 31
0.0
  0
SPLINE
  5
118
330
1F
100
AcDbEntity
  8
0
  6
Continuous
 62
     7
370
    25
100
AcDbSpline
210
0.0
220
0.0
230
1.0
 70
     8
 71
     3
 72
    12
 73
     8
 74
     0
 42
0.000000001
 43
0.00000001
 40
0.0
 40
0.0
 40
0.0
 40
0.0
 40
0.156133543665343
 40
0.327879147000269
 40
0.5152978781378685
 40
0.7186269797895557
 40
1.0
 40
1.0
 40
1.0
 40
1.0
 10
131.2197646944712
 20
75.27643552453864
 30
0.0
 10
131.2334161729099
 20
75.26810480366278
 30
0.0
 10
131.2620841644298
 20
75.25061035890384
 30
0.0
 10
131.3076567480886
 20
75.2179268632966
 30
0.0
 10
131.3576025148906
 20
75.17844766633588
 30
0.0
 10
131.4169890236784
 20
75.126660953112
 30
0.0
 10
131.4599038334574
 20
75.08468540682509
 30
0.0
 10
131.4848161849711
 20
75.06031830443163
 30
0.0
  0
LINE
  5
119
330
1F
100
AcDbEntity
  8
0
  6
Continuous
 62
     7
370
    25
100
AcDbLine
 10
130.9848160173
 20
75.6269556642
 30
0.0
 11
131.0031090553
 21
75.573219283
 31
0.0
  0
SPLINE
  5
11A
330
1F
100
AcDbEntity
  8
0
  6
Continuous
 62
     7
370
    25
100
AcDbSpline
210
0.0
220
0.0
230
1.0
 70
     8
 71
     3
 72
     9
 73
     5
 74
     0
 42
0.000000001
 43
0.00000001
 40
0.0
 40
0.0
 40
0.0
 40
0.0
 40
0.5
 40
1.0
 40
1.0
 40
1.0
 40
1.0
 10
128.6181495183044
 20
89.12698497109831
 30
0.0
 10
128.6181495183044
 20
88.99608527719874
 30
0.0
 10
128.6975597317113
 20
88.73527162574396
 30
0.0
 10
128.8888230761114
 20
88.62698497109831
 30
0.0
 10
128.9848161849711
 20
88.62698497109831
 30
0.0
  0
SPLINE
  5
11B
330
1F
100
AcDbEntity
  8
0
  6
Continuous
 62
     7
370
    25
100
AcDbSpline
210
0.0
220
0.0
230
1.0
 70
     8
 71
     3
 72
     9
 73
     5
 74
     0
 42
0.000000001
 43
0.00000001
 40
0.0
 40
0.0
 40
0.0
 40
0.0
 40
0.5
 40
1.0
 40
1.0
 40
1.0
 40
1.0
 10
115.4848161849711
 20
86.26031830443165
 30
0.0
 10
115.6157158788707
 20
86.26031830443165
 30
0.0
 10
115.8765295303255
 20
86.33972851783845
 30
0.0
 10
115.9848161849711
 20
86.53099186223862
 30
0.0
 10
115.9848161849711
 20
86.62698497109831
 30
0.0
  0
SPLINE
  5
11C
330
1F
100
AcDbEntity
  8
0
  6
Continuous
 62
     7
370
    25
100
AcDbSpline
210
0.0
220
0.0
230
1.0
 70
     8
 71
     3
 72
     9
 73
     5
 74
     0
 42
0.000000001
 43
0.00000001
 40
0.0
 40
0.0
 40
0.0
 40
0.0
 40
0.5
 40
1.0
 40
1.0
 40
1.0
 40
1.0
 10
130.9848161849711
 20
86.62698497109831
 30
0.0
 10
130.9848161849711
 20
86.53099186223862
 30
0.0
 10
131.0931028396168
 20
86.33972851783845
 30
0.0
 10
131.3539164910715
 20
86.26031830443164
 30
0.0
 10
131.4848161849711
 20
86.26031830443164
 30
0.0
  0
SPLINE
  5
11D
330
1F
100
AcDbEntity
  8
0
  6
Continuous
 62
     7
370
    25
100
AcDbSpline
210
0.0
220
0.0
230
1.0
 70
     8
 71
     3
 72
     9
 73
     5
 74
     0
 42
0.000000001
 43
0.00000001
 40
0.0
 40
0.0
 40
0.0
 40
0.0
 40
0.5
 40
1.0
 40
1.0
 40
1.0
 40
1.0
 10
117.9848161849711
 20
88.62698497109831
 30
0.0
 10
118.0808092938308
 20
88.62698497109831
 30
0.0
 10
118.272072638231
 20
88.73527162574396
 30
0.0
 10
118.3514828516378
 20
88.99608527719874
 30
0.0
 10
118.3514828516378
 20
89.12698497109831
 30
0.0
  0
SPLINE
  5
11E
330
1F
100
AcDbEntity
  8
0
  6
Continuous
 62
     7
370
    25
100
AcDbSpline
210
0.0
220
0.0
230
1.0
 70
     8
 71
     3
 72
     8
 73
     4
 74
     0
 42
0.000000001
 43
0.00000001
 40
0.0
 40
0.0
 40
0.0
 40
0.0
 40
1.0
 40
1.0
 40
1.0
 40
1.0
 10
129.2002922514652
 20
88.90862934454277
 30
0.0
 10
129.1585603483102
 20
88.7517354846334
 30
0.0
 10
129.1965471396412
 20
88.59770830635235
 30
0.0
 10
129.2966783634501
 20
88.51780715782054
 30
0.0
  0
SPLINE
  5
11F
330
1F
100
AcDbEntity
  8
0
  6
Continuous
 62
     7
370
    25
100
AcDbSpline
210
0.0
220
0.0
230
1.0
 70
     8
 71
     3
 72
     9
 73
     5
 74
     0
 42
0.000000001
 43
0.00000001
 40
0.0
 40
0.0
 40
0.0
 40
0.0
 40
0.5
 40
1.0
 40
1.0
 40
1.0
 40
1.0
 10
131.2664605584156
 20
86.84246103759239
 30
0.0
 10
131.1880136284609
 20
86.82159508601491
 30
0.0
 10
131.0312184073729
 20
86.81726327136434
 30
0.0
 10
130.9155889459593
 20
86.88878153767283
 30
0.0
 10
130.8756383716934
 20
86.93884714957728
 30
0.0
  0
SPLINE
  5
120
330
1F
100
AcDbEntity
  8
0
  6
Continuous
 62
     7
370
    25
100
AcDbSpline
210
0.0
220
0.0
230
1.0
 70
     8
 71
     3
 72
     9
 73
     5
 74
     0
 42
0.000000001
 43
0.00000001
 40
0.0
 40
0.0
 40
0.0
 40
0.0
 40
0.5
 40
1.0
 40
1.0
 40
1.0
 40
1.0
 10
117.769340118477
 20
88.90862934454277
 30
0.0
 10
117.7902060700545
 20
88.83018241458808
 30
0.0
 10
117.7945378847051
 20
88.67338719350009
 30
0.0
 10
117.7230196183966
 20
88.55775773208644
 30
0.0
 10
117.6729540064921
 20
88.51780715782054
 30
0.0
  0
SPLINE
  5
121
330
1F
100
AcDbEntity
  8
0
  6
Continuous
 62
     7
370
    25
100
AcDbSpline
210
0.0
220
0.0
230
1.0
 70
     8
 71
     3
 72
     9
 73
     5
 74
     0
 42
0.000000001
 43
0.00000001
 40
0.0
 40
0.0
 40
0.0
 40
0.0
 40
0.5
 40
1.0
 40
1.0
 40
1.0
 40
1.0
 10
116.0939939982489
 20
86.93884714957728
 30
0.0
 10
116.054043423983
 20
86.88878153767283
 30
0.0
 10
115.9384139625693
 20
86.81726327136434
 30
0.0
 10
115.7816187414813
 20
86.82159508601491
 30
0.0
 10
115.7031718115266
 20
86.84246103759239
 30
0.0
  0
SPLINE
  5
122
330
1F
100
AcDbEntity
  8
0
  6
Continuous
 62
     7
370
    25
100
AcDbSpline
210
0.0
220
0.0
230
1.0
 70
     8
 71
     3
 72
    10
 73
     6
 74
     0
 42
0.000000001
 43
0.00000001
 40
0.0
 40
0.0
 40
0.0
 40
0.0
 40
0.499999999999999
 40
0.499999999999999
 40
1.0
 40
1.0
 40
1.0
 40
1.0
 10
131.2197646944712
 20
75.27643552453864
 30
0.0
 10
131.1861851717977
 20
75.23049205112058
 30
0.0
 10
131.1443783440457
 20
75.1917748167222
 30
0.0
 10
131.0524595604914
 20
75.13994294022308
 30
0.0
 10
131.0026254489491
 20
75.12698497109831
 30
0.0
 10
130.9547286972894
 20
75.12698497109831
 30
0.0
  0
SPLINE
  5
123
330
1F
100
AcDbEntity
  8
0
  6
Continuous
 62
     7
370
    25
100
AcDbSpline
210
0.0
220
0.0
230
1.0
 70
    24
 71
     3
 72
    11
 73
     7
 74
     0
 42
0.000000001
 43
0.00000001
 40
0.0
 40
0.0
 40
0.0
 40
0.0
 40
0.2767778395911417
 40
0.5553076326901417
 40
0.8530198398008104
 40
1.0
 40
1.0
 40
1.0
 40
1.0
 10
130.9547287102375
 20
75.12698491894423
 30
0.0
 10
130.8852082871106
 20
75.12698491894423
 30
0.0
 10
130.7457273891916
 20
75.12698491894423
 30
0.0
 10
130.6099913849335
 20
75.12698491894425
 30
0.0
 10
130.5231910285933
 20
75.12698491894423
 30
0.0
 10
130.5108058288673
 20
75.12698491894425
 30
0.0
 10
130.5067122604285
 20
75.12698491894423
 30
0.0
  0
SPLINE
  5
124
330
1F
100
AcDbEntity
  8
0
  6
Continuous
 62
     7
370
    25
100
AcDbSpline
210
0.0
220
0.0
230
1.0
 70
     8
 71
     3
 72
    10
 73
     6
 74
     0
 42
0.000000001
 43
0.00000001
 40
0.0
 40
0.0
 40
0.0
 40
0.0
 40
0.5
 40
0.5
 40
1.0
 40
1.0
 40
1.0
 40
1.0
 10
115.7498665887146
 20
75.27641443573711
 30
0.0
 10
115.7834417943196
 20
75.23047739515128
 30
0.0
 10
115.8252431110214
 20
75.19176564033445
 30
0.0
 10
115.9171496421236
 20
75.13994110494554
 30
0.0
 10
115.9669770565015
 20
75.12698497109831
 30
0.0
 10
116.014867396466
 20
75.12698497109831
 30
0.0
  0
SPLINE
  5
125
330
1F
100
AcDbEntity
  8
0
  6
Continuous
 62
     7
370
    25
100
AcDbSpline
210
0.0
220
0.0
230
1.0
 70
    24
 71
     3
 72
    11
 73
     7
 74
     0
 42
0.000000001
 43
0.00000001
 40
0.0
 40
0.0
 40
0.0
 40
0.0
 40
0.2043000103634868
 40
0.4140672716802192
 40
0.7075943768723066
 40
1.0
 40
1.0
 40
1.0
 40
1.0
 10
116.4625783141289
 20
75.12698491894423
 30
0.0
 10
116.4501945287928
 20
75.12698491894423
 30
0.0
 10
116.4250955569519
 20
75.12698491894423
 30
0.0
 10
116.3441911076374
 20
75.12698491894423
 30
0.0
 10
116.222912548917
 20
75.12698491894423
 30
0.0
 10
116.0841271961282
 20
75.12698491894423
 30
0.0
 10
116.0148673381243
 20
75.12698491894423
 30
0.0
  0
LINE
  5
126
330
1F
100
AcDbEntity
  8
0
  6
Continuous
 62
     7
370
    25
100
AcDbLine
 10
128.2670956727
 20
104.7720376574
 30
0.0
 11
118.7025366973
 21
104.7720376574
 31
0.0
  0
LINE
  5
127
330
1F
100
AcDbEntity
  8
0
  6
Continuous
 62
     7
370
    25
100
AcDbLine
 10
118.416753846
 20
95.6269845539
 30
0.0
 11
128.5528785239
 21
95.6269845539
 31
0.0
  0
LINE
  5
128
330
1F
100
AcDbEntity
  8
0
  6
Continuous
 62
     7
370
    25
100
AcDbLine
 10
119.484815995
 20
106.1269853436
 30
0.0
 11
127.484816375
 21
106.1269853436
 31
0.0
  0
SPLINE
  5
129
330
1F
100
AcDbEntity
  8
0
  6
Continuous
 62
     7
370
    25
100
AcDbSpline
210
0.0
220
0.0
230
1.0
 70
    24
 71
     3
 72
     8
 73
     4
 74
     0
 42
0.000000001
 43
0.00000001
 40
0.0
 40
0.0
 40
0.0
 40
0.0
 40
1.0
 40
1.0
 40
1.0
 40
1.0
 10
130.4848161849711
 20
87.19365163776496
 30
0.0
 10
130.4848161849711
 20
87.15022223529314
 30
0.0
 10
130.4848161849711
 20
87.12698497109831
 30
0.0
 10
130.4848161849711
 20
87.12698497109831
 30
0.0
  0
SPLINE
  5
12A
330
1F
100
AcDbEntity
  8
0
  6
Continuous
 62
     7
370
    25
100
AcDbSpline
210
0.0
220
0.0
230
1.0
 70
    24
 71
     3
 72
     8
 73
     4
 74
     0
 42
0.000000001
 43
0.00000001
 40
0.0
 40
0.0
 40
0.0
 40
0.0
 40
1.0
 40
1.0
 40
1.0
 40
1.0
 10
117.4181495183045
 20
88.12698497109831
 30
0.0
 10
117.4615789207763
 20
88.12698497109831
 30
0.0
 10
117.4848161849711
 20
88.12698497109831
 30
0.0
 10
117.4848161849711
 20
88.12698497109831
 30
0.0
  0
SPLINE
  5
12B
330
1F
100
AcDbEntity
  8
0
  6
Continuous
 62
     7
370
    25
100
AcDbSpline
210
0.0
220
0.0
230
1.0
 70
    24
 71
     3
 72
     8
 73
     4
 74
     0
 42
0.000000001
 43
0.00000001
 40
0.0
 40
0.0
 40
0.0
 40
0.0
 40
1.0
 40
1.0
 40
1.0
 40
1.0
 10
116.4848161849711
 20
87.12698497109831
 30
0.0
 10
116.4848161849711
 20
87.12698497109831
 30
0.0
 10
116.4848161849711
 20
87.15022223529314
 30
0.0
 10
116.4848161849711
 20
87.19365163776497
 30
0.0
  0
SPLINE
  5
12C
330
1F
100
AcDbEntity
  8
0
  6
Continuous
 62
     7
370
    25
100
AcDbSpline
210
0.0
220
0.0
230
1.0
 70
    24
 71
     3
 72
     8
 73
     4
 74
     0
 42
0.000000001
 43
0.00000001
 40
0.0
 40
0.0
 40
0.0
 40
0.0
 40
1.0
 40
1.0
 40
1.0
 40
1.0
 10
129.5514828516378
 20
88.12698497109831
 30
0.0
 10
129.508053449166
 20
88.12698497109831
 30
0.0
 10
129.4848161849711
 20
88.12698497109831
 30
0.0
 10
129.4848161849711
 20
88.12698497109831
 30
0.0
  0
SPLINE
  5
12D
330
1F
100
AcDbEntity
  8
0
  6
Continuous
 62
     7
370
    25
100
AcDbSpline
210
0.0
220
0.0
230
1.0
 70
     8
 71
     3
 72
    11
 73
     7
 74
     0
 42
0.000000001
 43
0.00000001
 40
0.0
 40
0.0
 40
0.0
 40
0.0
 40
0.2796925902103931
 40
0.4824920995717302
 40
0.7583389673489331
 40
0.9999999999999999
 40
0.9999999999999999
 40
0.9999999999999999
 40
0.9999999999999999
 10
131.4848161849711
 20
75.06031830443163
 30
0.0
 10
131.4348185233262
 20
75.07110778337595
 30
0.0
 10
131.3485685560941
 20
75.08972049794666
 30
0.0
 10
131.2135841094311
 20
75.1101516485899
 30
0.0
 10
131.0862925667165
 20
75.12409669443039
 30
0.0
 10
130.9966085202905
 20
75.1260655658227
 30
0.0
 10
130.9547286972894
 20
75.12698497109831
 30
0.0
  0
SPLINE
  5
12E
330
1F
100
AcDbEntity
  8
0
  6
Continuous
 62
     7
370
    25
100
AcDbSpline
210
0.0
220
0.0
230
1.0
 70
     8
 71
     3
 72
    12
 73
     8
 74
     0
 42
0.000000001
 43
0.00000001
 40
0.0
 40
0.0
 40
0.0
 40
0.0
 40
0.1573492972449686
 40
0.3298380470016292
 40
0.5175259235705421
 40
0.7203120516631307
 40
1.0
 40
1.0
 40
1.0
 40
1.0
 10
116.014867396466
 20
75.12698497109831
 30
0.0
 10
115.9876603389382
 20
75.12658980765042
 30
0.0
 10
115.9306284813021
 20
75.12576145987776
 30
0.0
 10
115.8398514245448
 20
75.11916102077414
 30
0.0
 10
115.7403822038195
 20
75.10786640908928
 30
0.0
 10
115.6210475090825
 20
75.08968626362484
 30
0.0
 10
115.53480852033
 20
75.07109536230999
 30
0.0
 10
115.4848161849711
 20
75.06031830443163
 30
0.0
  0
SPLINE
  5
12F
330
1F
100
AcDbEntity
  8
0
  6
Continuous
 62
     7
370
    25
100
AcDbSpline
210
0.0
220
0.0
230
1.0
 70
     8
 71
     3
 72
     9
 73
     5
 74
     0
 42
0.000000001
 43
0.00000001
 40
0.0
 40
0.0
 40
0.0
 40
0.0
 40
0.5
 40
1.0
 40
1.0
 40
1.0
 40
1.0
 10
129.6881663537474
 20
87.77343158050151
 30
0.0
 10
129.7101505014967
 20
87.67101881252148
 30
0.0
 10
129.8244208929687
 20
87.46658967909586
 30
0.0
 10
130.0288500263943
 20
87.35231928762386
 30
0.0
 10
130.1312627943744
 20
87.33033513987462
 30
0.0
  0
SPLINE
  5
130
330
1F
100
AcDbEntity
  8
0
  6
Continuous
 62
     7
370
    25
100
AcDbSpline
210
0.0
220
0.0
230
1.0
 70
     8
 71
     3
 72
     9
 73
     5
 74
     0
 42
0.000000001
 43
0.00000001
 40
0.0
 40
0.0
 40
0.0
 40
0.0
 40
0.5
 40
1.0
 40
1.0
 40
1.0
 40
1.0
 10
116.8383695755644
 20
87.3303351398779
 30
0.0
 10
116.9407823435445
 20
87.35231928762705
 30
0.0
 10
117.1452114769704
 20
87.46658967909906
 30
0.0
 10
117.2594818684424
 20
87.67101881252488
 30
0.0
 10
117.2814660161915
 20
87.77343158050502
 30
0.0
  0
LINE
  5
131
330
1F
100
AcDbEntity
  8
0
  6
Continuous
 62
     8
370
    25
100
AcDbLine
 10
136.9848165351
 20
90.1269845837
 30
0.0
 11
136.9848165351
 21
72.1269853585
 31
0.0
  0
LINE
  5
132
330
1F
100
AcDbEntity
  8
0
  6
Continuous
 62
     8
370
    25
100
AcDbLine
 10
109.9848158348
 20
81.1269849711
 30
0.0
 11
109.9848158348
 21
90.1269845837
 31
0.0
  0
LINE
  5
133
330
1F
100
AcDbEntity
  8
0
  6
Continuous
 62
     8
370
    25
100
AcDbLine
 10
109.9848158348
 20
72.1269853585
 30
0.0
 11
109.9848158348
 21
81.1269849711
 31
0.0
  0
LINE
  5
134
330
1F
100
AcDbEntity
  8
0
  6
Continuous
 62
     8
370
    25
100
AcDbLine
 10
135.5151224572
 20
88.9269847595
 30
0.0
 11
135.5151224572
 21
73.3269851827
 31
0.0
  0
LINE
  5
135
330
1F
100
AcDbEntity
  8
0
  6
Continuous
 62
     8
370
    25
100
AcDbLine
 10
111.4545099128
 20
73.3269851827
 30
0.0
 11
111.4545099128
 21
88.9269847595
 31
0.0
  0
LINE
  5
136
330
1F
100
AcDbEntity
  8
0
  6
Continuous
 62
     8
370
    25
100
AcDbLine
 10
112.4343059647
 20
88.1269851872
 30
0.0
 11
112.4343059647
 21
74.126984755
 31
0.0
  0
LINE
  5
137
330
1F
100
AcDbEntity
  8
0
  6
Continuous
 62
     8
370
    25
100
AcDbLine
 10
134.5353264052
 20
74.126984755
 30
0.0
 11
134.5353264052
 21
88.1269851872
 31
0.0
  0
SPLINE
  5
138
330
1F
100
AcDbEntity
  8
0
  6
Continuous
 62
     8
370
    25
100
AcDbSpline
210
0.0
220
0.0
230
1.0
 70
     8
 71
     3
 72
    19
 73
    15
 74
     0
 42
0.000000001
 43
0.00000001
 40
0.0
 40
0.0
 40
0.0
 40
0.0
 40
0.0606727911926113
 40
0.1214874002643155
 40
0.1825081921994686
 40
0.2437988823923964
 40
0.3054223490615667
 40
0.3674404582586578
 40
0.4299139036293041
 40
0.4929020625848005
 40
0.6146975824539129
 40
0.7395812568283596
 40
0.8679067285909485
 40
1.0
 40
1.0
 40
1.0
 40
1.0
 10
130.9848161849727
 20
88.12698497109831
 30
0.0
 10
130.9841448833246
 20
88.12636120294434
 30
0.0
 10
130.9828007109136
 20
88.1251122086274
 30
0.0
 10
130.9719410010377
 20
88.11500534781912
 30
0.0
 10
130.9546115697989
 20
88.09885359330521
 30
0.0
 10
130.9301737260644
 20
88.07605430893597
 30
0.0
 10
130.8988001025244
 20
88.04676439450441
 30
0.0
 10
130.8604443702067
 20
88.01094360755054
 30
0.0
 10
130.8151207465905
 20
87.9686143570557
 30
0.0
 10
130.7467095480133
 20
87.90474120805762
 30
0.0
 10
130.6456640350613
 20
87.81048301323162
 30
0.0
 10
130.5001457870383
 20
87.6747057144114
 30
0.0
 10
130.330093633794
 20
87.51594627924392
 30
0.0
 10
130.1981759462302
 20
87.39279942555082
 30
0.0
 10
130.1312627943778
 20
87.3303351398779
 30
0.0
  0
SPLINE
  5
139
330
1F
100
AcDbEntity
  8
0
  6
Continuous
 62
     8
370
    25
100
AcDbSpline
210
0.0
220
0.0
230
1.0
 70
     8
 71
     3
 72
    18
 73
    14
 74
     0
 42
0.000000001
 43
0.00000001
 40
0.0
 40
0.0
 40
0.0
 40
0.0
 40
0.0759716985786636
 40
0.1506710093718998
 40
0.2241554833695644
 40
0.296485571458475
 40
0.3677246633008381
 40
0.4379391034842293
 40
0.5071981812646982
 40
0.6326267587181382
 40
0.756240453292097
 40
0.8785294569467931
 40
1.0
 40
1.0
 40
1.0
 40
1.0
 10
116.8383695755644
 20
87.3303351398779
 30
0.0
 10
116.7994506619117
 20
87.36666364085919
 30
0.0
 10
116.7222646556303
 20
87.43871220649903
 30
0.0
 10
116.6155716328436
 20
87.53832752154027
 30
0.0
 10
116.5168682932778
 20
87.63047183727637
 30
0.0
 10
116.4267043527594
 20
87.71462513905819
 30
0.0
 10
116.3449387778423
 20
87.79091821982087
 30
0.0
 10
116.2716033473471
 20
87.8593322006814
 30
0.0
 10
116.1889021307292
 20
87.93649226643207
 30
0.0
 10
116.1060588990263
 20
88.01386464876948
 30
0.0
 10
116.0365335350633
 20
88.07879546572711
 30
0.0
 10
115.9929270441704
 20
88.11945207399518
 30
0.0
 10
115.9875137460402
 20
88.12447963233369
 30
0.0
 10
115.9848161849704
 20
88.12698497109831
 30
0.0
  0
SPLINE
  5
13A
330
1F
100
AcDbEntity
  8
0
  6
Continuous
 62
     8
370
    25
100
AcDbSpline
210
0.0
220
0.0
230
1.0
 70
    24
 71
     3
 72
     9
 73
     5
 74
     0
 42
0.000000001
 43
0.00000001
 40
-0.481733964059299
 40
-0.481733964059299
 40
-0.481733964059299
 40
-0.481733964059299
 40
-0.4129148263141913
 40
0.0000000001423262
 40
0.0000000001423262
 40
0.0000000001423262
 40
0.0000000001423262
 10
130.4847642453247
 20
88.62692932147714
 30
0.0
 10
130.4847908302308
 20
88.62695780530517
 30
0.0
 10
130.4462176630499
 20
88.58562941189693
 30
0.0
 10
130.1345569401604
 20
88.25170720880112
 30
0.0
 10
129.6881663537474
 20
87.77343158050151
 30
0.0
  0
SPLINE
  5
13B
330
1F
100
AcDbEntity
  8
0
  6
Continuous
 62
     8
370
    25
100
AcDbSpline
210
0.0
220
0.0
230
1.0
 70
    24
 71
     3
 72
     9
 73
     5
 74
     0
 42
0.000000001
 43
0.00000001
 40
-0.0000000000100284
 40
-0.0000000000100284
 40
-0.0000000000100284
 40
-0.0000000000100284
 40
0.412914826326082
 40
0.481733964058292
 40
0.481733964058292
 40
0.481733964058292
 40
0.481733964058292
 10
117.2814660161915
 20
87.77343158050502
 30
0.0
 10
116.8350754299096
 20
88.25170720866424
 30
0.0
 10
116.5234147070446
 20
88.5856294117339
 30
0.0
 10
116.4848415397327
 20
88.62695780528232
 30
0.0
 10
116.4848681246176
 20
88.62692932147708
 30
0.0
  0
SPLINE
  5
13C
330
1F
100
AcDbEntity
  8
0
  6
Continuous
 62
     8
370
    25
100
AcDbSpline
210
0.0
220
0.0
230
1.0
 70
     8
 71
     3
 72
    12
 73
     8
 74
     0
 42
0.000000001
 43
0.00000001
 40
0.0
 40
0.0
 40
0.0
 40
0.0
 40
0.1646973236447365
 40
0.341712621123571
 40
0.5400570339626277
 40
0.8380246350087188
 40
1.0
 40
1.0
 40
1.0
 40
1.0
 10
115.7498664844368
 20
75.27641422905742
 30
0.0
 10
115.7726116589771
 20
75.29114201890145
 30
0.0
 10
115.8198031557063
 20
75.32169911333133
 30
0.0
 10
115.8740516501146
 20
75.37336981769141
 30
0.0
 10
115.9270702372339
 20
75.43981135088201
 30
0.0
 10
115.9658784056703
 20
75.50698513017092
 30
0.0
 10
115.972398571162
 20
75.55532047377531
 30
0.0
 10
115.9746947388683
 20
75.57234244280278
 30
0.0
  0
SPLINE
  5
13D
330
1F
100
AcDbEntity
  8
0
  6
Continuous
 62
     8
370
    25
100
AcDbSpline
210
0.0
220
0.0
230
1.0
 70
     8
 71
     3
 72
     9
 73
     5
 74
     0
 42
0.000000001
 43
0.00000001
 40
0.0
 40
0.0
 40
0.0
 40
0.0
 40
0.4584340749503982
 40
1.0
 40
1.0
 40
1.0
 40
1.0
 10
131.0031090553437
 20
75.57321928300678
 30
0.0
 10
131.0120810628148
 20
75.5248943691482
 30
0.0
 10
131.0316520501418
 20
75.41948136322402
 30
0.0
 10
131.1536789030471
 20
75.32668889069791
 30
0.0
 10
131.2197644885216
 20
75.27643564947664
 30
0.0
  0
SPLINE
  5
13E
330
1F
100
AcDbEntity
  8
0
  6
Continuous
 62
     8
370
    25
100
AcDbSpline
210
0.0
220
0.0
230
1.0
 70
     8
 71
     3
 72
    10
 73
     6
 74
     0
 42
0.000000001
 43
0.00000001
 40
0.0
 40
0.0
 40
0.0
 40
0.0
 40
0.248573228850268
 40
0.6467864389238261
 40
1.0
 40
1.0
 40
1.0
 40
1.0
 10
129.7107490401302
 20
87.52009115972339
 30
0.0
 10
129.7030171648135
 20
87.53883636248516
 30
0.0
 10
129.6828988595343
 20
87.58761129692704
 30
0.0
 10
129.6730376401955
 20
87.67440400065163
 30
0.0
 10
129.6833288657248
 20
87.74176695001889
 30
0.0
 10
129.6881663303409
 20
87.77343138911544
 30
0.0
  0
SPLINE
  5
13F
330
1F
100
AcDbEntity
  8
0
  6
Continuous
 62
     8
370
    25
100
AcDbSpline
210
0.0
220
0.0
230
1.0
 70
     8
 71
     3
 72
    10
 73
     6
 74
     0
 42
0.000000001
 43
0.00000001
 40
0.0
 40
0.0
 40
0.0
 40
0.0
 40
0.248573228850268
 40
0.6467864389238261
 40
1.0
 40
1.0
 40
1.0
 40
1.0
 10
117.091709996346
 20
87.35291782625734
 30
0.0
 10
117.0729647935843
 20
87.3451859509407
 30
0.0
 10
117.0241898591424
 20
87.32506764566149
 30
0.0
 10
116.9373971554178
 20
87.31520642632267
 30
0.0
 10
116.8700342060505
 20
87.32549765185196
 30
0.0
 10
116.838369766954
 20
87.33033511646806
 30
0.0
  0
SPLINE
  5
140
330
1F
100
AcDbEntity
  8
0
  6
Continuous
 62
     8
370
    25
100
AcDbSpline
210
0.0
220
0.0
230
1.0
 70
     8
 71
     3
 72
    10
 73
     6
 74
     0
 42
0.000000001
 43
0.00000001
 40
0.0
 40
0.0
 40
0.0
 40
0.0
 40
0.3531919359855523
 40
0.7514407532050961
 40
1.0
 40
1.0
 40
1.0
 40
1.0
 10
130.1312626029883
 20
87.33033511646806
 30
0.0
 10
130.0996009213547
 20
87.32549761709187
 30
0.0
 10
130.0322384606914
 20
87.31520549599703
 30
0.0
 10
129.9454463326187
 20
87.32506692459478
 30
0.0
 10
129.8966701140379
 20
87.34518456972275
 30
0.0
 10
129.8779260988865
 20
87.3529154979509
 30
0.0
  0
SPLINE
  5
141
330
1F
100
AcDbEntity
  8
0
  6
Continuous
 62
     8
370
    25
100
AcDbSpline
210
0.0
220
0.0
230
1.0
 70
     8
 71
     3
 72
    10
 73
     6
 74
     0
 42
0.000000001
 43
0.00000001
 40
0.0
 40
0.0
 40
0.0
 40
0.0
 40
0.3531919359855523
 40
0.7514407532050961
 40
1.0
 40
1.0
 40
1.0
 40
1.0
 10
117.2814660396014
 20
87.77343138911544
 30
0.0
 10
117.2863035389775
 20
87.74176970748195
 30
0.0
 10
117.2965956600724
 20
87.67440724681862
 30
0.0
 10
117.2867342314747
 20
87.5876151187459
 30
0.0
 10
117.2666165863467
 20
87.53883890016512
 30
0.0
 10
117.2588856581185
 20
87.52009488501369
 30
0.0
  0
LINE
  5
142
330
1F
100
AcDbEntity
  8
0
  6
Continuous
 62
     7
370
    18
100
AcDbLine
 10
127.7840105553
 20
105.6087651203
 30
0.0
 11
128.049066185
 21
97.1269849711
 31
0.0
  0
LINE
  5
143
330
1F
100
AcDbEntity
  8
0
  6
Continuous
 62
     7
370
    18
100
AcDbLine
 10
119.1856218146
 20
105.6087651203
 30
0.0
 11
118.920566185
 21
97.1269849711
 31
0.0
  0
LINE
  5
144
330
1F
100
AcDbEntity
  8
0
  6
Continuous
 62
     7
370
    18
100
AcDbLine
 10
118.463628685
 20
97.1269849711
 30
0.0
 11
128.506003685
 21
97.1269849711
 31
0.0
  0
LINE
  5
145
330
1F
100
AcDbEntity
  8
0
  6
CENTERX2
 62
     7
370
    18
100
AcDbLine
 10
123.484816185
 20
106.7720369117
 30
0.0
 11
123.484816185
 21
93.6269849711
 31
0.0
  0
LINE
  5
146
330
1F
100
AcDbEntity
  8
0
  6
CENTERX2
 62
     7
370
    18
100
AcDbLine
 10
123.484816185
 20
72.5101264311
 30
0.0
 11
123.484816185
 21
93.1950474711
 31
0.0
  0
LINE
  5
147
330
1F
100
AcDbEntity
  8
0
  6
CENTERX2
 62
     7
370
    18
100
AcDbLine
 10
96.984816185
 20
81.1269849711
 30
0.0
 11
149.984816185
 21
81.1269849711
 31
0.0
  0
LINE
  5
148
330
1F
100
AcDbEntity
  8
0
  6
Continuous
 62
     7
370
    25
100
AcDbLine
 10
173.4606226966
 20
91.195047664
 30
0.0
 11
173.4606226966
 21
88.6269848035
 31
0.0
  0
LINE
  5
149
330
1F
100
AcDbEntity
  8
0
  6
Continuous
 62
     7
370
    25
100
AcDbLine
 10
187.4606231288
 20
88.6269848035
 30
0.0
 11
187.4606231288
 21
91.195047664
 31
0.0
  0
LINE
  5
14A
330
1F
100
AcDbEntity
  8
0
  6
Continuous
 62
     7
370
    25
100
AcDbLine
 10
187.4606231288
 20
91.195047664
 30
0.0
 11
185.5286852517
 21
93.1269850754
 31
0.0
  0
LINE
  5
14B
330
1F
100
AcDbEntity
  8
0
  6
Continuous
 62
     7
370
    25
100
AcDbLine
 10
175.3925605737
 20
93.1269850754
 30
0.0
 11
173.4606226966
 21
91.195047664
 31
0.0
  0
LINE
  5
14C
330
1F
100
AcDbEntity
  8
0
  6
Continuous
 62
     7
370
    25
100
AcDbLine
 10
175.3925605737
 20
95.6269845539
 30
0.0
 11
175.3925605737
 21
93.1269850754
 31
0.0
  0
LINE
  5
14D
330
1F
100
AcDbEntity
  8
0
  6
Continuous
 62
     7
370
    25
100
AcDbLine
 10
185.5286852517
 20
93.1269850754
 30
0.0
 11
185.5286852517
 21
95.6269845539
 31
0.0
  0
LINE
  5
14E
330
1F
100
AcDbEntity
  8
0
  6
Continuous
 62
     7
370
    25
100
AcDbLine
 10
185.5286852517
 20
95.6269845539
 30
0.0
 11
185.2429024004
 21
104.7720376574
 31
0.0
  0
LINE
  5
14F
330
1F
100
AcDbEntity
  8
0
  6
Continuous
 62
     7
370
    25
100
AcDbLine
 10
175.678343425
 20
104.7720376574
 30
0.0
 11
175.3925605737
 21
95.6269845539
 31
0.0
  0
LINE
  5
150
330
1F
100
AcDbEntity
  8
0
  6
Continuous
 62
     7
370
    25
100
AcDbLine
 10
185.2429024004
 20
104.7720376574
 30
0.0
 11
184.4606231027
 21
106.1269853436
 31
0.0
  0
LINE
  5
151
330
1F
100
AcDbEntity
  8
0
  6
Continuous
 62
     7
370
    25
100
AcDbLine
 10
176.4606227227
 20
106.1269853436
 30
0.0
 11
175.678343425
 21
104.7720376574
 31
0.0
  0
CIRCLE
  5
152
330
1F
100
AcDbEntity
  8
0
  6
Continuous
 62
     7
370
    25
100
AcDbCircle
 10
180.4606229127
 20
81.1269849711
 30
0.0
 40
6.103432381750508
  0
CIRCLE
  5
153
330
1F
100
AcDbEntity
  8
0
  6
Continuous
 62
     7
370
    25
100
AcDbCircle
 10
180.4606229127
 20
81.1269849711
 30
0.0
 40
6.750000000000028
  0
CIRCLE
  5
154
330
1F
100
AcDbEntity
  8
0
  6
Continuous
 62
     7
370
    25
100
AcDbCircle
 10
180.4606229127
 20
81.1269849711
 30
0.0
 40
8.500000000000028
  0
CIRCLE
  5
155
330
1F
100
AcDbEntity
  8
0
  6
Continuous
 62
     7
370
    25
100
AcDbCircle
 10
180.4606229127
 20
81.1269849711
 30
0.0
 40
9.000000000000028
  0
CIRCLE
  5
156
330
1F
100
AcDbEntity
  8
0
  6
Continuous
 62
     7
370
    25
100
AcDbCircle
 10
180.4606229127
 20
81.1269849711
 30
0.0
 40
5.810616978814238
  0
CIRCLE
  5
157
330
1F
100
AcDbEntity
  8
0
  6
Continuous
 62
     7
370
    25
100
AcDbCircle
 10
180.4606229127
 20
81.1269849711
 30
0.0
 40
5.722499999999997
  0
CIRCLE
  5
158
330
1F
100
AcDbEntity
  8
0
  6
Continuous
 62
     7
370
    25
100
AcDbCircle
 10
180.4606229127
 20
81.1269849711
 30
0.0
 40
3.999999999999972
  0
LINE
  5
159
330
1F
100
AcDbEntity
  8
0
  6
Continuous
 62
     7
370
    25
100
AcDbLine
 10
173.5956062623
 20
86.9920019233
 30
0.0
 11
173.6163342432
 21
86.9712739424
 31
0.0
  0
LINE
  5
15A
330
1F
100
AcDbEntity
  8
0
  6
Continuous
 62
     7
370
    25
100
AcDbLine
 10
173.6999088027
 20
87.0570021854
 30
0.0
 11
173.5956062623
 21
86.9920019233
 31
0.0
  0
LINE
  5
15B
330
1F
100
AcDbEntity
  8
0
  6
Continuous
 62
     7
370
    25
100
AcDbLine
 10
187.3256395631
 20
86.9920019233
 30
0.0
 11
187.2030747183
 21
87.0683834129
 31
0.0
  0
LINE
  5
15C
330
1F
100
AcDbEntity
  8
0
  6
Continuous
 62
     7
370
    25
100
AcDbLine
 10
187.3049115822
 20
86.9712739424
 30
0.0
 11
187.3256395631
 21
86.9920019233
 31
0.0
  0
SPLINE
  5
15D
330
1F
100
AcDbEntity
  8
0
  6
Continuous
 62
     7
370
    25
100
AcDbSpline
210
0.0
220
0.0
230
1.0
 70
     8
 71
     3
 72
     9
 73
     5
 74
     0
 42
0.000000001
 43
0.00000001
 40
0.0
 40
0.0
 40
0.0
 40
0.0
 40
0.1468917263368845
 40
1.0
 40
1.0
 40
1.0
 40
1.0
 10
187.4331966102617
 20
86.78353002154051
 30
0.0
 10
187.4315996920388
 20
86.79435144114672
 30
0.0
 10
187.4207282953799
 20
86.86802080208389
 30
0.0
 10
187.3694151942362
 20
86.93492521502807
 30
0.0
 10
187.3256395631032
 20
86.99200192325533
 30
0.0
  0
SPLINE
  5
15E
330
1F
100
AcDbEntity
  8
0
  6
Continuous
 62
     7
370
    25
100
AcDbSpline
210
0.0
220
0.0
230
1.0
 70
     8
 71
     3
 72
    13
 73
     9
 74
     0
 42
0.000000001
 43
0.00000001
 40
0.0
 40
0.0
 40
0.0
 40
0.0
 40
0.1162222239500744
 40
0.2381780213579675
 40
0.3660917905452749
 40
0.5001580142688472
 40
0.7504239388829979
 40
1.0
 40
1.0
 40
1.0
 40
1.0
 10
173.5956061278957
 20
88.46869061462067
 30
0.0
 10
173.6074435862264
 20
88.45624260400258
 30
0.0
 10
173.6317024784355
 20
88.4307324869347
 30
0.0
 10
173.671988636793
 20
88.38922531391799
 30
0.0
 10
173.7161458277392
 20
88.344632563213
 30
0.0
 10
173.7775601030332
 20
88.28412647990903
 30
0.0
 10
173.8575909050446
 20
88.20872269624718
 30
0.0
 10
173.9263105249073
 20
88.15420581126466
 30
0.0
 10
173.9606229126947
 20
88.12698498987169
 30
0.0
  0
SPLINE
  5
15F
330
1F
100
AcDbEntity
  8
0
  6
Continuous
 62
     7
370
    25
100
AcDbSpline
210
0.0
220
0.0
230
1.0
 70
     8
 71
     3
 72
    13
 73
     9
 74
     0
 42
0.000000001
 43
0.00000001
 40
0.0
 40
0.0
 40
0.0
 40
0.0
 40
0.1206933106363776
 40
0.2506349558809258
 40
0.4049363551860728
 40
0.501375099440844
 40
0.7702864432344702
 40
1.0
 40
1.0
 40
1.0
 40
1.0
 10
173.4606229126947
 20
88.12698497109831
 30
0.0
 10
173.4610106274406
 20
88.14184074939011
 30
0.0
 10
173.4618157662483
 20
88.17269065579433
 30
0.0
 10
173.4687657780817
 20
88.22126580726277
 30
0.0
 10
173.4795560868912
 20
88.26595548954448
 30
0.0
 10
173.5001758722902
 20
88.32571919893189
 30
0.0
 10
173.5326835563043
 20
88.3935112121068
 30
0.0
 10
173.5757607283075
 20
88.44497948448154
 30
0.0
 10
173.5956061278957
 20
88.46869061462067
 30
0.0
  0
SPLINE
  5
160
330
1F
100
AcDbEntity
  8
0
  6
Continuous
 62
     7
370
    25
100
AcDbSpline
210
0.0
220
0.0
230
1.0
 70
    24
 71
     3
 72
    13
 73
     9
 74
     0
 42
0.000000001
 43
0.00000001
 40
0.0
 40
0.0
 40
0.0
 40
0.0
 40
0.1144647671590815
 40
0.291615705726434
 40
0.4684340794035635
 40
0.6458133828963049
 40
0.8225570207736255
 40
1.0
 40
1.0
 40
1.0
 40
1.0
 10
173.4606226966278
 20
86.79008047886907
 30
0.0
 10
173.4606226966278
 20
86.81808035694809
 30
0.0
 10
173.4606226966278
 20
86.88941413422225
 30
0.0
 10
173.4606226966278
 20
87.06081885703941
 30
0.0
 10
173.4606226966278
 20
87.28751305878328
 30
0.0
 10
173.4606226966278
 20
87.54913963736692
 30
0.0
 10
173.4606226966278
 20
87.83214204342433
 30
0.0
 10
173.4606226966278
 20
88.0285748537469
 30
0.0
 10
173.4606226966278
 20
88.12698518716513
 30
0.0
  0
SPLINE
  5
161
330
1F
100
AcDbEntity
  8
0
  6
Continuous
 62
     7
370
    25
100
AcDbSpline
210
0.0
220
0.0
230
1.0
 70
     8
 71
     3
 72
    12
 73
     8
 74
     0
 42
0.000000001
 43
0.00000001
 40
0.0
 40
0.0
 40
0.0
 40
0.0
 40
0.1664615747826677
 40
0.3330490629245378
 40
0.50019385964186
 40
0.761981166969512
 40
1.0
 40
1.0
 40
1.0
 40
1.0
 10
186.9606229126947
 20
88.12698497109831
 30
0.0
 10
186.9836165875947
 20
88.14495878791324
 30
0.0
 10
187.0296213300624
 20
88.1809200171351
 30
0.0
 10
187.0951642928592
 20
88.23863695370318
 30
0.0
 10
187.1695304882929
 20
88.30892167669441
 30
0.0
 10
187.2488020441587
 20
88.38826444059757
 30
0.0
 10
187.300852235373
 20
88.44274551276507
 30
0.0
 10
187.3256396974938
 20
88.46869061462051
 30
0.0
  0
SPLINE
  5
162
330
1F
100
AcDbEntity
  8
0
  6
Continuous
 62
     7
370
    25
100
AcDbSpline
210
0.0
220
0.0
230
1.0
 70
     8
 71
     3
 72
    14
 73
    10
 74
     0
 42
0.000000001
 43
0.00000001
 40
0.0
 40
0.0
 40
0.0
 40
0.0
 40
0.1488603140964728
 40
0.3150272284381161
 40
0.4987644934539461
 40
0.5951852670853452
 40
0.7494348315821825
 40
0.8793203117440467
 40
1.0
 40
1.0
 40
1.0
 40
1.0
 10
187.3256396974938
 20
88.46869061462051
 30
0.0
 10
187.3388830545601
 20
88.45347986196083
 30
0.0
 10
187.3669094502931
 20
88.42128994430601
 30
0.0
 10
187.4009790034157
 20
88.36666593367656
 30
0.0
 10
187.4245328927686
 20
88.31596027666326
 30
0.0
 10
187.4416619646977
 20
88.26594363513466
 30
0.0
 10
187.4524870051999
 20
88.22126992422712
 30
0.0
 10
187.4594282401486
 20
88.17269265280264
 30
0.0
 10
187.4602345633133
 20
88.14184305917635
 30
0.0
 10
187.4606229126947
 20
88.12698497109831
 30
0.0
  0
SPLINE
  5
163
330
1F
100
AcDbEntity
  8
0
  6
Continuous
 62
     7
370
    25
100
AcDbSpline
210
0.0
220
0.0
230
1.0
 70
    24
 71
     3
 72
    13
 73
     9
 74
     0
 42
0.000000001
 43
0.00000001
 40
0.0
 40
0.0
 40
0.0
 40
0.0
 40
0.1695817806945505
 40
0.3388103097035301
 40
0.508174029247671
 40
0.6776374365387978
 40
0.8467827107175723
 40
1.0
 40
1.0
 40
1.0
 40
1.0
 10
187.4606231287615
 20
88.12698518716513
 30
0.0
 10
187.4606231287615
 20
88.02867578672362
 30
0.0
 10
187.4606231287615
 20
87.83226177176319
 30
0.0
 10
187.4606231287615
 20
87.54935311009267
 30
0.0
 10
187.4606231287615
 20
87.28780990766596
 30
0.0
 10
187.4606231287615
 20
87.06057402103946
 30
0.0
 10
187.4606231287615
 20
86.87473502619781
 30
0.0
 10
187.4606231287615
 20
86.7933242697972
 30
0.0
 10
187.4606231287615
 20
86.75463015072762
 30
0.0
  0
LINE
  5
164
330
1F
100
AcDbEntity
  8
0
  6
Continuous
 62
     7
370
    25
100
AcDbLine
 10
187.4606231288
 20
91.195047664
 30
0.0
 11
173.4606226966
 21
91.195047664
 31
0.0
  0
SPLINE
  5
165
330
1F
100
AcDbEntity
  8
0
  6
Continuous
 62
     7
370
    25
100
AcDbSpline
210
0.0
220
0.0
230
1.0
 70
     8
 71
     3
 72
    14
 73
    10
 74
     0
 42
0.000000001
 43
0.00000001
 40
0.0
 40
0.0
 40
0.0
 40
0.0
 40
0.0771019312235469
 40
0.1604220744820928
 40
0.2500134459871365
 40
0.3625277437571762
 40
0.4999872830486552
 40
0.6965319223496549
 40
1.0
 40
1.0
 40
1.0
 40
1.0
 10
187.0272049764528
 20
88.97144178855599
 30
0.0
 10
187.0484697017534
 20
88.9573125116665
 30
0.0
 10
187.0927141362557
 20
88.92791444246676
 30
0.0
 10
187.1553728774465
 20
88.88939654623948
 30
0.0
 10
187.2207464012571
 20
88.85033401967425
 30
0.0
 10
187.2890917085003
 20
88.81005351322538
 30
0.0
 10
187.3627544259978
 20
88.76139481920902
 30
0.0
 10
187.4405173517132
 20
88.69995998000128
 30
0.0
 10
187.4530292079265
 20
88.6545470308477
 30
0.0
 10
187.4606229126947
 20
88.62698497109831
 30
0.0
  0
SPLINE
  5
166
330
1F
100
AcDbEntity
  8
0
  6
Continuous
 62
     7
370
    25
100
AcDbSpline
210
0.0
220
0.0
230
1.0
 70
     8
 71
     3
 72
    13
 73
     9
 74
     0
 42
0.000000001
 43
0.00000001
 40
0.0
 40
0.0
 40
0.0
 40
0.0
 40
0.1484645556295967
 40
0.3038520792699613
 40
0.4664576632792974
 40
0.6365388262431585
 40
0.814320596678755
 40
0.9999999999999999
 40
0.9999999999999999
 40
0.9999999999999999
 40
0.9999999999999999
 10
186.5272895793613
 20
89.12698497109831
 30
0.0
 10
186.556364478795
 20
89.12611338372275
 30
0.0
 10
186.6158700531053
 20
89.12432956646614
 30
0.0
 10
186.7017068163529
 20
89.11062187197739
 30
0.0
 10
186.7868742832305
 20
89.08900513506823
 30
0.0
 10
186.870199167149
 20
89.05845105598056
 30
0.0
 10
186.9516744099975
 20
89.01973220274859
 30
0.0
 10
187.001666032333
 20
88.98777009439915
 30
0.0
 10
187.0272049764528
 20
88.97144178855599
 30
0.0
  0
LINE
  5
167
330
1F
100
AcDbEntity
  8
0
  6
Continuous
 62
     7
370
    25
100
AcDbLine
 10
185.2197078117
 20
89.1269853511
 30
0.0
 11
186.527289363
 21
89.1269853511
 31
0.0
  0
LINE
  5
168
330
1F
100
AcDbEntity
  8
0
  6
Continuous
 62
     7
370
    25
100
AcDbLine
 10
174.3939564623
 20
89.1269853511
 30
0.0
 11
175.7015380137
 21
89.1269853511
 31
0.0
  0
SPLINE
  5
169
330
1F
100
AcDbEntity
  8
0
  6
Continuous
 62
     7
370
    25
100
AcDbSpline
210
0.0
220
0.0
230
1.0
 70
     8
 71
     3
 72
    13
 73
     9
 74
     0
 42
0.000000001
 43
0.00000001
 40
0.0
 40
0.0
 40
0.0
 40
0.0
 40
0.1856794033212454
 40
0.3634611737568486
 40
0.5335423367207065
 40
0.6961479207300426
 40
0.8515354443704023
 40
1.0
 40
1.0
 40
1.0
 40
1.0
 10
173.8940408489366
 20
88.97144178855599
 30
0.0
 10
173.9195797930564
 20
88.98777009439915
 30
0.0
 10
173.9695714153918
 20
89.01973220274859
 30
0.0
 10
174.0510466582404
 20
89.05845105598056
 30
0.0
 10
174.1343715421589
 20
89.08900513506823
 30
0.0
 10
174.2195390090365
 20
89.11062187197739
 30
0.0
 10
174.3053757722841
 20
89.12432956646614
 30
0.0
 10
174.3648813465944
 20
89.12611338372275
 30
0.0
 10
174.393956246028
 20
89.12698497109831
 30
0.0
  0
SPLINE
  5
16A
330
1F
100
AcDbEntity
  8
0
  6
Continuous
 62
     7
370
    25
100
AcDbSpline
210
0.0
220
0.0
230
1.0
 70
     8
 71
     3
 72
    17
 73
    13
 74
     0
 42
0.000000001
 43
0.00000001
 40
0.0
 40
0.0
 40
0.0
 40
0.0
 40
0.1130667887614413
 40
0.214247189583317
 40
0.3035410227131065
 40
0.3809482842653933
 40
0.4464692356459874
 40
0.5001045920517729
 40
0.6375226522804812
 40
0.750042112035746
 40
0.8820380142736961
 40
0.9999999999999999
 40
0.9999999999999999
 40
0.9999999999999999
 40
0.9999999999999999
 10
173.4606229126947
 20
88.62698497109831
 30
0.0
 10
173.4617003953862
 20
88.6372145972136
 30
0.0
 10
173.4637420880973
 20
88.65659843812479
 30
0.0
 10
173.4789075098101
 20
88.68449268269605
 30
0.0
 10
173.4991687553798
 20
88.70948549038704
 30
0.0
 10
173.5225195069192
 20
88.73161488789424
 30
0.0
 10
173.5463400328885
 20
88.75081471457386
 30
0.0
 10
173.5818574723822
 20
88.77699647983113
 30
0.0
 10
173.6321667651567
 20
88.80997802141894
 30
0.0
 10
173.7091532434918
 20
88.85557229589844
 30
0.0
 10
173.7935938237212
 20
88.90548095260739
 30
0.0
 10
173.8618356558986
 20
88.95029351213749
 30
0.0
 10
173.8940408489366
 20
88.97144178855599
 30
0.0
  0
LINE
  5
16B
330
1F
100
AcDbEntity
  8
0
  6
Continuous
 62
     7
370
    25
100
AcDbLine
 10
180.4606229127
 20
93.1269850754
 30
0.0
 11
185.5286852517
 21
93.1269850754
 31
0.0
  0
LINE
  5
16C
330
1F
100
AcDbEntity
  8
0
  6
Continuous
 62
     7
370
    25
100
AcDbLine
 10
175.3925605737
 20
93.1269850754
 30
0.0
 11
180.4606229127
 21
93.1269850754
 31
0.0
  0
LINE
  5
16D
330
1F
100
AcDbEntity
  8
0
  6
Continuous
 62
     7
370
    25
100
AcDbLine
 10
173.9606227786
 20
88.6269848035
 30
0.0
 11
175.3616034113
 21
88.6269848035
 31
0.0
  0
ARC
  5
16E
330
1F
100
AcDbEntity
  8
0
  6
Continuous
 62
     7
370
    25
100
AcDbCircle
 10
173.9606229127
 20
88.1269849711
 30
0.0
 40
0.5
100
AcDbArc
 50
90.0
 51
136.8892083855
  0
LINE
  5
16F
330
1F
100
AcDbEntity
  8
0
  6
Continuous
 62
     7
370
    25
100
AcDbLine
 10
185.5596424141
 20
88.6269848035
 30
0.0
 11
186.9606230468
 21
88.6269848035
 31
0.0
  0
ARC
  5
170
330
1F
100
AcDbEntity
  8
0
  6
Continuous
 62
     7
370
    25
100
AcDbCircle
 10
186.9606229127
 20
88.1269849711
 30
0.0
 40
0.5
100
AcDbArc
 50
43.1107916145
 51
90.0
  0
SPLINE
  5
171
330
1F
100
AcDbEntity
  8
0
  6
Continuous
 62
     7
370
    25
100
AcDbSpline
210
0.0
220
0.0
230
1.0
 70
     8
 71
     3
 72
     9
 73
     5
 74
     0
 42
0.000000001
 43
0.00000001
 40
0.0
 40
0.0
 40
0.0
 40
0.0
 40
0.5
 40
1.0
 40
1.0
 40
1.0
 40
1.0
 10
185.5596424262875
 20
88.62698497109831
 30
0.0
 10
185.4706477471518
 20
88.62698497109831
 30
0.0
 10
185.293328560728
 20
88.73527162574396
 30
0.0
 10
185.219707792048
 20
88.99608527719873
 30
0.0
 10
185.219707792048
 20
89.12698497109831
 30
0.0
  0
SPLINE
  5
172
330
1F
100
AcDbEntity
  8
0
  6
Continuous
 62
     7
370
    25
100
AcDbSpline
210
0.0
220
0.0
230
1.0
 70
     8
 71
     3
 72
     9
 73
     5
 74
     0
 42
0.000000001
 43
0.00000001
 40
0.0
 40
0.0
 40
0.0
 40
0.0
 40
0.5
 40
1.0
 40
1.0
 40
1.0
 40
1.0
 10
175.7015380333414
 20
89.12698497109831
 30
0.0
 10
175.7015380333414
 20
88.99608527719874
 30
0.0
 10
175.6279172646614
 20
88.73527162574396
 30
0.0
 10
175.4505980782375
 20
88.62698497109831
 30
0.0
 10
175.3616033991019
 20
88.62698497109831
 30
0.0
  0
SPLINE
  5
173
330
1F
100
AcDbEntity
  8
0
  6
Continuous
 62
     7
370
    25
100
AcDbSpline
210
0.0
220
0.0
230
1.0
 70
     8
 71
     3
 72
     9
 73
     5
 74
     0
 42
0.000000001
 43
0.00000001
 40
0.0
 40
0.0
 40
0.0
 40
0.0
 40
0.5
 40
1.0
 40
1.0
 40
1.0
 40
1.0
 10
173.9606229126947
 20
88.62698497109831
 30
0.0
 10
174.0740693140743
 20
88.62698497109831
 30
0.0
 10
174.3001102252011
 20
88.73526884128327
 30
0.0
 10
174.393956246028
 20
88.99608527719873
 30
0.0
 10
174.393956246028
 20
89.12698497109831
 30
0.0
  0
SPLINE
  5
174
330
1F
100
AcDbEntity
  8
0
  6
Continuous
 62
     7
370
    25
100
AcDbSpline
210
0.0
220
0.0
230
1.0
 70
     8
 71
     3
 72
     9
 73
     5
 74
     0
 42
0.000000001
 43
0.00000001
 40
0.0
 40
0.0
 40
0.0
 40
0.0
 40
0.5
 40
1.0
 40
1.0
 40
1.0
 40
1.0
 10
186.5272895793613
 20
89.12698497109831
 30
0.0
 10
186.5272895793613
 20
88.99608527719873
 30
0.0
 10
186.6211356001883
 20
88.73526884128327
 30
0.0
 10
186.847176511315
 20
88.62698497109831
 30
0.0
 10
186.9606229126947
 20
88.62698497109831
 30
0.0
  0
LINE
  5
175
330
1F
100
AcDbEntity
  8
0
  6
Continuous
 62
     7
370
    25
100
AcDbLine
 10
180.4606229127
 20
95.6269845539
 30
0.0
 11
185.5286852517
 21
95.6269845539
 31
0.0
  0
LINE
  5
176
330
1F
100
AcDbEntity
  8
0
  6
Continuous
 62
     7
370
    25
100
AcDbLine
 10
175.3925605737
 20
95.6269845539
 30
0.0
 11
180.4606229127
 21
95.6269845539
 31
0.0
  0
LINE
  5
177
330
1F
100
AcDbEntity
  8
0
  6
Continuous
 62
     7
370
    25
100
AcDbLine
 10
185.2429024004
 20
104.7720376574
 30
0.0
 11
175.678343425
 21
104.7720376574
 31
0.0
  0
LINE
  5
178
330
1F
100
AcDbEntity
  8
0
  6
Continuous
 62
     7
370
    25
100
AcDbLine
 10
180.4606229127
 20
106.1269853436
 30
0.0
 11
184.4606231027
 21
106.1269853436
 31
0.0
  0
LINE
  5
179
330
1F
100
AcDbEntity
  8
0
  6
Continuous
 62
     7
370
    25
100
AcDbLine
 10
176.4606227227
 20
106.1269853436
 30
0.0
 11
180.4606229127
 21
106.1269853436
 31
0.0
  0
SPLINE
  5
17A
330
1F
100
AcDbEntity
  8
0
  6
Continuous
 62
     7
370
    25
100
AcDbSpline
210
0.0
220
0.0
230
1.0
 70
     8
 71
     3
 72
     9
 73
     5
 74
     0
 42
0.000000001
 43
0.00000001
 40
0.0
 40
0.0
 40
0.0
 40
0.0
 40
0.571428571428571
 40
1.0
 40
1.0
 40
1.0
 40
1.0
 10
187.0272049764528
 20
88.97144178855599
 30
0.0
 10
187.0198108934668
 20
88.87429671436416
 30
0.0
 10
187.057126073045
 20
88.7046353756465
 30
0.0
 10
187.1707181205485
 20
88.58582197977313
 30
0.0
 10
187.2284347325651
 20
88.54921337982715
 30
0.0
  0
SPLINE
  5
17B
330
1F
100
AcDbEntity
  8
0
  6
Continuous
 62
     7
370
    25
100
AcDbSpline
210
0.0
220
0.0
230
1.0
 70
     8
 71
     3
 72
     9
 73
     5
 74
     0
 42
0.000000001
 43
0.00000001
 40
0.0
 40
0.0
 40
0.0
 40
0.0
 40
0.5
 40
1.0
 40
1.0
 40
1.0
 40
1.0
 10
173.8940408489383
 20
88.97144178855717
 30
0.0
 10
173.9005106715512
 20
88.88643984863907
 30
0.0
 10
173.8698316783452
 20
88.71654593039028
 30
0.0
 10
173.7601471401782
 20
88.59192341309787
 30
0.0
 10
173.6928110928252
 20
88.54921337982773
 30
0.0
  0
SPLINE
  5
17C
330
1F
100
AcDbEntity
  8
0
  6
Continuous
 62
     7
370
    25
100
AcDbSpline
210
0.0
220
0.0
230
1.0
 70
     8
 71
     3
 72
    12
 73
     8
 74
     0
 42
0.000000001
 43
0.00000001
 40
0.0
 40
0.0
 40
0.0
 40
0.0
 40
0.106360889119859
 40
0.159541333679788
 40
0.265902222799647
 40
0.265902222799647
 40
0.267217449924086
 40
0.267217449924086
 40
0.267217449924086
 40
0.267217449924086
 10
187.2284347325651
 20
88.54921337982715
 30
0.0
 10
187.2884115166361
 20
88.5111711937518
 30
0.0
 10
187.3627021597199
 20
88.51666706494402
 30
0.0
 10
187.4409337445655
 20
88.55856364250502
 30
0.0
 10
187.4603098622884
 20
88.59968979891934
 30
0.0
 10
187.460621005027
 20
88.62633717726744
 30
0.0
 10
187.4606229126947
 20
88.62666068027606
 30
0.0
 10
187.4606229126947
 20
88.62698497109831
 30
0.0
  0
SPLINE
  5
17D
330
1F
100
AcDbEntity
  8
0
  6
Continuous
 62
     7
370
    25
100
AcDbSpline
210
0.0
220
0.0
230
1.0
 70
    24
 71
     3
 72
    14
 73
    10
 74
     0
 42
0.000000001
 43
0.00000001
 40
0.0
 40
0.0
 40
0.0
 40
0.0
 40
0.2503841006840345
 40
0.3856977520239709
 40
0.5014304172375459
 40
0.6388330237075766
 40
0.767498519821732
 40
0.8877539750359934
 40
1.0
 40
1.0
 40
1.0
 40
1.0
 10
187.4606229126947
 20
88.62698497109831
 30
0.0
 10
187.4606229126947
 20
88.56769829948622
 30
0.0
 10
187.4606229126947
 20
88.47637167010646
 30
0.0
 10
187.4606229126947
 20
88.36385757675694
 30
0.0
 10
187.4606229126947
 20
88.28407101077741
 30
0.0
 10
187.4606229126947
 20
88.2172716227916
 30
0.0
 10
187.4606229126947
 20
88.16608240959471
 30
0.0
 10
187.4606229126947
 20
88.13345288628558
 30
0.0
 10
187.4606229126947
 20
88.1290908536899
 30
0.0
 10
187.4606229126947
 20
88.12698497109831
 30
0.0
  0
LINE
  5
17E
330
1F
100
AcDbEntity
  8
0
  6
Continuous
 62
     7
370
    25
100
AcDbLine
 10
173.4606226966
 20
88.6269848035
 30
0.0
 11
173.4680374213
 21
88.6025259443
 31
0.0
  0
SPLINE
  5
17F
330
1F
100
AcDbEntity
  8
0
  6
Continuous
 62
     7
370
    25
100
AcDbSpline
210
0.0
220
0.0
230
1.0
 70
    24
 71
     3
 72
    10
 73
     6
 74
     0
 42
0.000000001
 43
0.00000001
 40
-0.263620655015386
 40
-0.263620655015386
 40
-0.263620655015386
 40
-0.263620655015386
 40
-0.2626630659468851
 40
-0.2626630659468851
 40
0.0009575890685009
 40
0.0009575890685009
 40
0.0009575890685009
 40
0.0009575890685009
 10
173.4606229126947
 20
88.62698497109831
 30
0.0
 10
173.4606229126947
 20
88.6261318829527
 30
0.0
 10
173.4606229126947
 20
88.62527243768065
 30
0.0
 10
173.4606229126945
 20
88.39207168871111
 30
0.0
 10
173.4606229126947
 20
88.12698497109831
 30
0.0
 10
173.4606229126947
 20
88.12698497109831
 30
0.0
  0
SPLINE
  5
180
330
1F
100
AcDbEntity
  8
0
  6
Continuous
 62
     8
370
    25
100
AcDbSpline
210
0.0
220
0.0
230
1.0
 70
    24
 71
     3
 72
    10
 73
     6
 74
     0
 42
0.000000001
 43
0.00000001
 40
0.0
 40
0.0
 40
0.0
 40
0.0
 40
0.414928205129049
 40
0.8298562538090092
 40
1.0
 40
1.0
 40
1.0
 40
1.0
 10
173.9606227785842
 20
88.12698518716513
 30
0.0
 10
173.9606227785842
 20
87.99758717178243
 30
0.0
 10
173.9606227785842
 20
87.73879118980663
 30
0.0
 10
173.9606227785842
 20
87.45349524034401
 30
0.0
 10
173.9606227785842
 20
87.35858891862534
 30
0.0
 10
173.9606227785842
 20
87.33098937057673
 30
0.0
  0
SPLINE
  5
181
330
1F
100
AcDbEntity
  8
0
  6
Continuous
 62
     8
370
    25
100
AcDbSpline
210
0.0
220
0.0
230
1.0
 70
    24
 71
     3
 72
    10
 73
     6
 74
     0
 42
0.000000001
 43
0.00000001
 40
0.0
 40
0.0
 40
0.0
 40
0.0
 40
0.1548036829657409
 40
0.5774017618123293
 40
0.9999999999999999
 40
0.9999999999999999
 40
0.9999999999999999
 40
0.9999999999999999
 10
186.9606230468051
 20
87.34047116570889
 30
0.0
 10
186.9606230468051
 20
87.36526303356084
 30
0.0
 10
186.9606230468051
 20
87.45773414214224
 30
0.0
 10
186.9606230468051
 20
87.7391102052052
 30
0.0
 10
186.9606230468051
 20
87.99769351026197
 30
0.0
 10
186.9606230468051
 20
88.12698518716513
 30
0.0
  0
LINE
  5
182
330
1F
100
AcDbEntity
  8
0
  6
Continuous
 62
     8
370
    25
100
AcDbLine
 10
186.1174771622
 20
88.1269851872
 30
0.0
 11
186.9606230468
 21
88.1269851872
 31
0.0
  0
LINE
  5
183
330
1F
100
AcDbEntity
  8
0
  6
Continuous
 62
     8
370
    25
100
AcDbLine
 10
173.9606227786
 20
88.1269851872
 30
0.0
 11
174.8037686632
 21
88.1269851872
 31
0.0
  0
SPLINE
  5
184
330
1F
100
AcDbEntity
  8
0
  6
Continuous
 62
     8
370
    25
100
AcDbSpline
210
0.0
220
0.0
230
1.0
 70
     8
 71
     3
 72
     9
 73
     5
 74
     0
 42
0.000000001
 43
0.00000001
 40
0.0
 40
0.0
 40
0.0
 40
0.0
 40
0.2445636372772303
 40
1.0
 40
1.0
 40
1.0
 40
1.0
 10
184.7463090964155
 20
89.01890629761635
 30
0.0
 10
184.7848837651377
 20
89.03771779852634
 30
0.0
 10
184.9426123185384
 20
89.11463643254493
 30
0.0
 10
185.100462240654
 20
89.12167110426259
 30
0.0
 10
185.2197078116731
 20
89.1269853510779
 30
0.0
  0
SPLINE
  5
185
330
1F
100
AcDbEntity
  8
0
  6
Continuous
 62
     8
370
    25
100
AcDbSpline
210
0.0
220
0.0
230
1.0
 70
     8
 71
     3
 72
     9
 73
     5
 74
     0
 42
0.000000001
 43
0.00000001
 40
0.0
 40
0.0
 40
0.0
 40
0.0
 40
0.7519363683777341
 40
1.0
 40
1.0
 40
1.0
 40
1.0
 10
175.7015380137162
 20
89.1269853510779
 30
0.0
 10
175.8207835043439
 20
89.1216095579848
 30
0.0
 10
175.9793680543704
 20
89.11446029201072
 30
0.0
 10
176.1378305297454
 20
89.03710153845218
 30
0.0
 10
176.1771393068628
 20
89.01791164510666
 30
0.0
  0
LINE
  5
186
330
1F
100
AcDbEntity
  8
0
  6
Continuous
 62
     8
370
    25
100
AcDbLine
 10
175.5004677982
 20
88.6224124753
 30
0.0
 11
175.3616034113
 21
88.6269848035
 31
0.0
  0
LINE
  5
187
330
1F
100
AcDbEntity
  8
0
  6
Continuous
 62
     8
370
    25
100
AcDbLine
 10
185.5596424141
 20
88.6269848035
 30
0.0
 11
185.4141474762
 21
88.6203370229
 31
0.0
  0
SPLINE
  5
188
330
1F
100
AcDbEntity
  8
0
  6
Continuous
 62
     8
370
    25
100
AcDbSpline
210
0.0
220
0.0
230
1.0
 70
     8
 71
     3
 72
    11
 73
     7
 74
     0
 42
0.000000001
 43
0.00000001
 40
0.0
 40
0.0
 40
0.0
 40
0.0
 40
0.138306374567875
 40
0.4174703047224942
 40
0.7013665291882653
 40
1.0
 40
1.0
 40
1.0
 40
1.0
 10
173.4680374213056
 20
88.60252594434439
 30
0.0
 10
173.4698104304167
 20
88.5941461658937
 30
0.0
 10
173.4751621624403
 20
88.56885225826109
 30
0.0
 10
173.5162674765515
 20
88.53665228328005
 30
0.0
 10
173.5893162483298
 20
88.50673408543587
 30
0.0
 10
173.6577359021637
 20
88.53481675336599
 30
0.0
 10
173.6928111933665
 20
88.5492133148831
 30
0.0
  0
INSERT
  5
194
330
1F
100
AcDbEntity
  8
0
  6
Continuous
 62
     7
370
    18
100
AcDbBlockReference
  2
SW_CENTERMARKSYMBOL_0
 10
180.4606229127
 20
81.1269849711
 30
0.0
  0
ARC
  5
195
330
1F
100
AcDbEntity
  8
0
  6
Continuous
 62
     7
370
    18
100
AcDbCircle
 10
180.4606229127
 20
81.1269849711
 30
0.0
 40
6.562891500000009
100
AcDbArc
 50
75.0
 51
345.0
  0
ARC
  5
196
330
1F
100
AcDbEntity
  8
0
  6
Continuous
 62
     7
370
    18
100
AcDbCircle
 10
180.4606229127
 20
81.1269849711
 30
0.0
 40
6.562891500000009
100
AcDbArc
 50
75.0
 51
345.0
  0
LINE
  5
197
330
1F
100
AcDbEntity
  8
0
  6
Continuous
 62
     7
370
    18
100
AcDbLine
 10
184.759817283
 20
105.6087651203
 30
0.0
 11
185.0248729127
 21
97.1269849711
 31
0.0
  0
LINE
  5
198
330
1F
100
AcDbEntity
  8
0
  6
Continuous
 62
     7
370
    18
100
AcDbLine
 10
176.1614285424
 20
105.6087651203
 30
0.0
 11
175.8963729127
 21
97.1269849711
 31
0.0
  0
LINE
  5
199
330
1F
100
AcDbEntity
  8
0
  6
Continuous
 62
     7
370
    18
100
AcDbLine
 10
175.4394354127
 20
97.1269849711
 30
0.0
 11
185.4818104127
 21
97.1269849711
 31
0.0
  0
LINE
  5
19A
330
1F
100
AcDbEntity
  8
0
  6
Continuous
 62
     7
370
    25
100
AcDbLine
 10
147.9848155442
 20
129.7412997682
 30
0.0
 11
148.4848165575
 21
130.2412989188
 31
0.0
  0
LINE
  5
19B
330
1F
100
AcDbEntity
  8
0
  6
Continuous
 62
     7
370
    25
100
AcDbLine
 10
148.4848165575
 20
147.2412998427
 30
0.0
 11
147.9848155442
 21
147.7412989933
 31
0.0
  0
LINE
  5
19C
330
1F
100
AcDbEntity
  8
0
  6
Continuous
 62
     7
370
    25
100
AcDbLine
 10
109.9848158348
 20
147.7412989933
 30
0.0
 11
98.9848168257
 21
147.7412989933
 31
0.0
  0
LINE
  5
19D
330
1F
100
AcDbEntity
  8
0
  6
Continuous
 62
     7
370
    25
100
AcDbLine
 10
98.9848168257
 20
129.7412997682
 30
0.0
 11
109.9848158348
 21
129.7412997682
 31
0.0
  0
LINE
  5
19E
330
1F
100
AcDbEntity
  8
0
  6
Continuous
 62
     7
370
    25
100
AcDbLine
 10
98.9848168257
 20
147.7412989933
 30
0.0
 11
98.4848158124
 21
147.2412998427
 31
0.0
  0
LINE
  5
19F
330
1F
100
AcDbEntity
  8
0
  6
Continuous
 62
     7
370
    25
100
AcDbLine
 10
98.4848158124
 20
130.2412989188
 30
0.0
 11
98.9848168257
 21
129.7412997682
 31
0.0
  0
LINE
  5
1A0
330
1F
100
AcDbEntity
  8
0
  6
Continuous
 62
     7
370
    25
100
AcDbLine
 10
136.9848165351
 20
129.7412997682
 30
0.0
 11
147.9848155442
 21
129.7412997682
 31
0.0
  0
LINE
  5
1A1
330
1F
100
AcDbEntity
  8
0
  6
Continuous
 62
     7
370
    25
100
AcDbLine
 10
147.9848155442
 20
147.7412989933
 30
0.0
 11
136.9848165351
 21
147.7412989933
 31
0.0
  0
ARC
  5
1A2
330
1F
100
AcDbEntity
  8
0
  6
Continuous
 62
     7
370
    25
100
AcDbCircle
 10
136.984816185
 20
146.2412993807
 30
0.0
 40
1.500000000000012
100
AcDbArc
 50
90.0
 51
168.4630409672
  0
ARC
  5
1A3
330
1F
100
AcDbEntity
  8
0
  6
Continuous
 62
     7
370
    25
100
AcDbCircle
 10
136.984816185
 20
131.2412993807
 30
0.0
 40
1.500000000000012
100
AcDbArc
 50
191.5369590328
 51
270.0
  0
ARC
  5
1A4
330
1F
100
AcDbEntity
  8
0
  6
Continuous
 62
     7
370
    25
100
AcDbCircle
 10
109.984816185
 20
146.2412993807
 30
0.0
 40
1.5
100
AcDbArc
 50
11.5369590328
 51
90.0
  0
ARC
  5
1A5
330
1F
100
AcDbEntity
  8
0
  6
Continuous
 62
     7
370
    25
100
AcDbCircle
 10
109.984816185
 20
131.2412993807
 30
0.0
 40
1.5
100
AcDbArc
 50
270.0
 51
348.4630409672
  0
ARC
  5
1A6
330
1F
100
AcDbEntity
  8
0
  6
Continuous
 62
     7
370
    25
100
AcDbCircle
 10
134.5353264422
 20
146.7412993807
 30
0.0
 40
1.0
100
AcDbArc
 50
270.0
 51
348.4630409672
  0
ARC
  5
1A7
330
1F
100
AcDbEntity
  8
0
  6
Continuous
 62
     7
370
    25
100
AcDbCircle
 10
134.5353264422
 20
130.7412993807
 30
0.0
 40
1.0
100
AcDbArc
 50
11.5369590328
 51
90.0
  0
ARC
  5
1A8
330
1F
100
AcDbEntity
  8
0
  6
Continuous
 62
     7
370
    25
100
AcDbCircle
 10
112.4343059278
 20
146.7412993807
 30
0.0
 40
1.000000000000023
100
AcDbArc
 50
191.5369590328
 51
270.0
  0
ARC
  5
1A9
330
1F
100
AcDbEntity
  8
0
  6
Continuous
 62
     7
370
    25
100
AcDbCircle
 10
112.4343059278
 20
130.7412993807
 30
0.0
 40
1.000000000000023
100
AcDbArc
 50
90.0
 51
168.4630409672
  0
SPLINE
  5
1AA
330
1F
100
AcDbEntity
  8
0
  6
Continuous
 62
     7
370
    25
100
AcDbSpline
210
0.0
220
0.0
230
1.0
 70
     8
 71
     3
 72
     9
 73
     5
 74
     0
 42
0.000000001
 43
0.00000001
 40
0.0
 40
0.0
 40
0.0
 40
0.0
 40
0.3118869528766096
 40
1.0
 40
1.0
 40
1.0
 40
1.0
 10
117.8431238669489
 20
145.7338946510192
 30
0.0
 10
117.8450744887991
 20
145.7357756827228
 30
0.0
 10
117.8513287480178
 20
145.7418068157544
 30
0.0
 10
117.8150838447889
 20
145.7412773975295
 30
0.0
 10
117.7901432539854
 20
145.7409130979415
 30
0.0
  0
SPLINE
  5
1AB
330
1F
100
AcDbEntity
  8
0
  6
Continuous
 62
     7
370
    25
100
AcDbSpline
210
0.0
220
0.0
230
1.0
 70
     8
 71
     3
 72
     9
 73
     5
 74
     0
 42
0.000000001
 43
0.00000001
 40
0.0
 40
0.0
 40
0.0
 40
0.0
 40
0.7386329696608467
 40
1.0
 40
1.0
 40
1.0
 40
1.0
 10
129.4853042501543
 20
132.2412992466327
 30
0.0
 10
129.4845029879407
 20
132.2049692469822
 30
0.0
 10
129.48341819719
 20
132.1557837906828
 30
0.0
 10
129.4661251758837
 20
132.1032809146756
 30
0.0
 10
129.4616053502593
 20
132.0895583938893
 30
0.0
  0
SPLINE
  5
1AC
330
1F
100
AcDbEntity
  8
0
  6
Continuous
 62
     7
370
    25
100
AcDbSpline
210
0.0
220
0.0
230
1.0
 70
     8
 71
     3
 72
    16
 73
    12
 74
     0
 42
0.000000001
 43
0.00000001
 40
0.0
 40
0.0
 40
0.0
 40
0.0
 40
0.001558688101615
 40
0.0410302892138949
 40
0.1371775496461782
 40
0.2564358294803687
 40
0.3953632821085705
 40
0.5485297445143557
 40
0.7092896286264974
 40
0.8703572720428943
 40
1.0
 40
1.0
 40
1.0
 40
1.0
 10
129.279123401973
 20
131.8353818368253
 30
0.0
 10
129.2785495251819
 20
131.8349713664855
 30
0.0
 10
129.2634430194683
 20
131.8241663075807
 30
0.0
 10
129.22391174865
 20
131.8025351486262
 30
0.0
 10
129.1748771587449
 20
131.7748511815467
 30
0.0
 10
129.1633757699037
 20
131.758567415113
 30
0.0
 10
129.209746110648
 20
131.7485844407529
 30
0.0
 10
129.323806592319
 20
131.7438904931542
 30
0.0
 10
129.5021292570102
 20
131.741871012311
 30
0.0
 10
129.7144736039099
 20
131.7413211608649
 30
0.0
 10
129.8757384048478
 20
131.7413159319975
 30
0.0
 10
129.9476546857093
 20
131.7413136001762
 30
0.0
  0
LINE
  5
1AD
330
1F
100
AcDbEntity
  8
0
  6
Continuous
 62
     7
370
    25
100
AcDbLine
 10
115.9848163526
 20
145.7412995968
 30
0.0
 11
112.4343059647
 21
145.7412995968
 31
0.0
  0
LINE
  5
1AE
330
1F
100
AcDbEntity
  8
0
  6
Continuous
 62
     7
370
    25
100
AcDbLine
 10
134.5353264052
 20
145.7412995968
 30
0.0
 11
132.7348163042
 21
145.7412995968
 31
0.0
  0
LINE
  5
1AF
330
1F
100
AcDbEntity
  8
0
  6
Continuous
 62
     7
370
    25
100
AcDbLine
 10
131.2348160583
 20
145.7412995968
 30
0.0
 11
130.9848160173
 21
145.7412995968
 31
0.0
  0
LINE
  5
1B0
330
1F
100
AcDbEntity
  8
0
  6
Continuous
 62
     7
370
    25
100
AcDbLine
 10
130.9848160173
 20
131.7412991647
 30
0.0
 11
134.5353264052
 21
131.7412991647
 31
0.0
  0
LINE
  5
1B1
330
1F
100
AcDbEntity
  8
0
  6
Continuous
 62
     7
370
    25
100
AcDbLine
 10
112.4343059647
 20
131.7412991647
 30
0.0
 11
115.9848163526
 21
131.7412991647
 31
0.0
  0
ARC
  5
1B2
330
1F
100
AcDbEntity
  8
0
  6
Continuous
 62
     7
370
    25
100
AcDbCircle
 10
132.2765586155
 20
145.5412993807
 30
0.0
 40
0.5
100
AcDbArc
 50
23.5781784782
 51
90.0
  0
ARC
  5
1B3
330
1F
100
AcDbEntity
  8
0
  6
Continuous
 62
     7
370
    25
100
AcDbCircle
 10
131.6930737545
 20
145.5412993807
 30
0.0
 40
0.5
100
AcDbArc
 50
90.0
 51
156.4218215218
  0
CIRCLE
  5
1B4
330
1F
100
AcDbEntity
  8
0
  6
Continuous
 62
     7
370
    25
100
AcDbCircle
 10
123.484816185
 20
138.7412993807
 30
0.0
 40
4.0
  0
CIRCLE
  5
1B5
330
1F
100
AcDbEntity
  8
0
  6
Continuous
 62
     7
370
    25
100
AcDbCircle
 10
123.484816185
 20
138.7412993807
 30
0.0
 40
4.782279626857616
  0
CIRCLE
  5
1B6
330
1F
100
AcDbEntity
  8
0
  6
Continuous
 62
     7
370
    25
100
AcDbCircle
 10
123.484816185
 20
138.7412993807
 30
0.0
 40
2.5
  0
CIRCLE
  5
1B7
330
1F
100
AcDbEntity
  8
0
  6
Continuous
 62
     7
370
    25
100
AcDbCircle
 10
123.484816185
 20
138.7412993807
 30
0.0
 40
2.0
  0
CIRCLE
  5
1B8
330
1F
100
AcDbEntity
  8
0
  6
Continuous
 62
     7
370
    25
100
AcDbCircle
 10
123.484816185
 20
138.7412993807
 30
0.0
 40
5.068062499999996
  0
CIRCLE
  5
1B9
330
1F
100
AcDbEntity
  8
0
  6
Continuous
 62
     7
370
    25
100
AcDbCircle
 10
123.484816185
 20
138.7412993807
 30
0.0
 40
7.000000000000014
  0
LINE
  5
1BA
330
1F
100
AcDbEntity
  8
0
  6
Continuous
 62
     7
370
    25
100
AcDbLine
 10
147.9848155442
 20
129.7412997682
 30
0.0
 11
147.9848155442
 21
147.7412989933
 31
0.0
  0
LINE
  5
1BB
330
1F
100
AcDbEntity
  8
0
  6
Continuous
 62
     7
370
    25
100
AcDbLine
 10
148.4848165575
 20
147.2412998427
 30
0.0
 11
148.4848165575
 21
130.2412989188
 31
0.0
  0
LINE
  5
1BC
330
1F
100
AcDbEntity
  8
0
  6
Continuous
 62
     7
370
    25
100
AcDbLine
 10
98.9848168257
 20
147.7412989933
 30
0.0
 11
98.9848168257
 21
129.7412997682
 31
0.0
  0
LINE
  5
1BD
330
1F
100
AcDbEntity
  8
0
  6
Continuous
 62
     7
370
    25
100
AcDbLine
 10
98.4848158124
 20
130.2412989188
 30
0.0
 11
98.4848158124
 21
147.2412998427
 31
0.0
  0
SPLINE
  5
1BE
330
1F
100
AcDbEntity
  8
0
  6
Continuous
 62
     7
370
    25
100
AcDbSpline
210
0.0
220
0.0
230
1.0
 70
     8
 71
     3
 72
     9
 73
     5
 74
     0
 42
0.000000001
 43
0.00000001
 40
0.0
 40
0.0
 40
0.0
 40
0.0
 40
0.571428571428571
 40
1.0
 40
1.0
 40
1.0
 40
1.0
 10
125.9096873155531
 20
145.3078814445013
 30
0.0
 10
125.929710586935
 20
145.3004873615153
 30
0.0
 10
125.9832289044103
 20
145.3378025410934
 30
0.0
 10
126.0530045084849
 20
145.451394588597
 30
0.0
 10
126.0828923963067
 20
145.5091112006135
 30
0.0
  0
SPLINE
  5
1BF
330
1F
100
AcDbEntity
  8
0
  6
Continuous
 62
     7
370
    25
100
AcDbSpline
210
0.0
220
0.0
230
1.0
 70
     8
 71
     3
 72
    11
 73
     7
 74
     0
 42
0.000000001
 43
0.00000001
 40
0.0
 40
0.0
 40
0.0
 40
0.0
 40
0.2815942436633045
 40
0.54208606736727
 40
0.7815308548565899
 40
0.9999999999999999
 40
0.9999999999999999
 40
0.9999999999999999
 40
0.9999999999999999
 10
126.0828923963155
 20
145.5091112006135
 30
0.0
 10
126.1908567299984
 20
145.4883660641697
 30
0.0
 10
126.3986946470691
 20
145.4484304131935
 30
0.0
 10
126.6971853327378
 20
145.3808934621566
 30
0.0
 10
126.9706955629259
 20
145.3130174602953
 30
0.0
 10
127.143858253933
 20
145.2644640459246
 30
0.0
 10
127.226473571745
 20
145.2412993807432
 30
0.0
  0
SPLINE
  5
1C0
330
1F
100
AcDbEntity
  8
0
  6
Continuous
 62
     7
370
    25
100
AcDbSpline
210
0.0
220
0.0
230
1.0
 70
    24
 71
     3
 72
     9
 73
     5
 74
     0
 42
0.000000001
 43
0.00000001
 40
0.0
 40
0.0
 40
0.0
 40
0.0
 40
0.5
 40
1.0
 40
1.0
 40
1.0
 40
1.0
 10
126.9770297459601
 20
144.8079660474098
 30
0.0
 10
126.9770297459601
 20
144.8079660474098
 30
0.0
 10
127.0310512316596
 20
144.9018120682368
 30
0.0
 10
127.1611693308643
 20
145.1278529793635
 30
0.0
 10
127.226473571745
 20
145.2412993807432
 30
0.0
  0
SPLINE
  5
1C1
330
1F
100
AcDbEntity
  8
0
  6
Continuous
 62
     7
370
    25
100
AcDbSpline
210
0.0
220
0.0
230
1.0
 70
     8
 71
     3
 72
     9
 73
     5
 74
     0
 42
0.000000001
 43
0.00000001
 40
0.0
 40
0.0
 40
0.0
 40
0.0
 40
0.571428571428571
 40
1.0
 40
1.0
 40
1.0
 40
1.0
 10
121.0599450543891
 20
132.174717316985
 30
0.0
 10
121.0399217830072
 20
132.182111399971
 30
0.0
 10
120.9864034655319
 20
132.1447962203929
 30
0.0
 10
120.9166278614573
 20
132.0312041728893
 30
0.0
 10
120.8867399736356
 20
131.9734875608727
 30
0.0
  0
SPLINE
  5
1C2
330
1F
100
AcDbEntity
  8
0
  6
Continuous
 62
     7
370
    25
100
AcDbSpline
210
0.0
220
0.0
230
1.0
 70
     8
 71
     3
 72
     8
 73
     4
 74
     0
 42
0.000000001
 43
0.00000001
 40
0.0000000000000001
 40
0.0000000000000001
 40
0.0000000000000001
 40
0.0000000000000001
 40
0.127234597098751
 40
0.127234597098751
 40
0.127234597098751
 40
0.127234597098751
 10
119.7431587981972
 20
132.2412993807431
 30
0.0
 10
120.1107254120381
 20
132.1355064318347
 30
0.0
 10
120.4981539789168
 20
132.0452350050674
 30
0.0
 10
120.8867399736303
 20
131.9734875608733
 30
0.0
  0
SPLINE
  5
1C3
330
1F
100
AcDbEntity
  8
0
  6
Continuous
 62
     7
370
    25
100
AcDbSpline
210
0.0
220
0.0
230
1.0
 70
    24
 71
     3
 72
     9
 73
     5
 74
     0
 42
0.000000001
 43
0.00000001
 40
0.0
 40
0.0
 40
0.0
 40
0.0
 40
0.5
 40
1.0
 40
1.0
 40
1.0
 40
1.0
 10
119.9926026239821
 20
132.6746327140765
 30
0.0
 10
119.9926026239821
 20
132.6746327140765
 30
0.0
 10
119.9385811382826
 20
132.5807866932495
 30
0.0
 10
119.8084630390779
 20
132.3547457821228
 30
0.0
 10
119.7431587981972
 20
132.2412993807431
 30
0.0
  0
SPLINE
  5
1C4
330
1F
100
AcDbEntity
  8
0
  6
Continuous
 62
     7
370
    25
100
AcDbSpline
210
0.0
220
0.0
230
1.0
 70
    24
 71
     3
 72
     9
 73
     5
 74
     0
 42
0.000000001
 43
0.00000001
 40
0.0
 40
0.0
 40
0.0
 40
0.0
 40
0.5
 40
1.0
 40
1.0
 40
1.0
 40
1.0
 10
127.2264735717451
 20
132.2412993807431
 30
0.0
 10
127.1611693308643
 20
132.3547457821228
 30
0.0
 10
127.0310512316596
 20
132.5807866932495
 30
0.0
 10
126.9770297459602
 20
132.6746327140765
 30
0.0
 10
126.9770297459602
 20
132.6746327140765
 30
0.0
  0
SPLINE
  5
1C5
330
1F
100
AcDbEntity
  8
0
  6
Continuous
 62
     7
370
    25
100
AcDbSpline
210
0.0
220
0.0
230
1.0
 70
     8
 71
     3
 72
     8
 73
     4
 74
     0
 42
0.000000001
 43
0.00000001
 40
-0.0000000000002226
 40
-0.0000000000002226
 40
-0.0000000000002226
 40
-0.0000000000002226
 40
0.127234597098529
 40
0.127234597098529
 40
0.127234597098529
 40
0.127234597098529
 10
126.082892396312
 20
131.9734875608733
 30
0.0
 10
126.4714783910254
 20
132.0452350050674
 30
0.0
 10
126.8589069579042
 20
132.1355064318347
 30
0.0
 10
127.2264735717451
 20
132.2412993807431
 30
0.0
  0
SPLINE
  5
1C6
330
1F
100
AcDbEntity
  8
0
  6
Continuous
 62
     7
370
    25
100
AcDbSpline
210
0.0
220
0.0
230
1.0
 70
     8
 71
     3
 72
     9
 73
     5
 74
     0
 42
0.000000001
 43
0.00000001
 40
0.0
 40
0.0
 40
0.0
 40
0.0
 40
0.5
 40
1.0
 40
1.0
 40
1.0
 40
1.0
 10
125.9096873155578
 20
132.1747173169868
 30
0.0
 10
125.9272076780174
 20
132.1811871395997
 30
0.0
 10
125.9783298969998
 20
132.1505081463937
 30
0.0
 10
126.048023193855
 20
132.0408236082267
 30
0.0
 10
126.082892396314
 20
131.9734875608737
 30
0.0
  0
SPLINE
  5
1C7
330
1F
100
AcDbEntity
  8
0
  6
Continuous
 62
     7
370
    25
100
AcDbSpline
210
0.0
220
0.0
230
1.0
 70
     8
 71
     3
 72
    12
 73
     8
 74
     0
 42
0.000000001
 43
0.00000001
 40
0.0
 40
0.0
 40
0.0
 40
0.0
 40
0.1731008601133688
 40
0.3596153376348382
 40
0.5595829448172438
 40
0.7730357225316113
 40
1.0
 40
1.0
 40
1.0
 40
1.0
 10
119.7431587981972
 20
145.2412993807432
 30
0.0
 10
119.8085916824426
 20
145.2597424115428
 30
0.0
 10
119.9445278571384
 20
145.2980576269826
 30
0.0
 10
120.1572397299981
 20
145.3526451667055
 30
0.0
 10
120.3859847596659
 20
145.4069665939828
 30
0.0
 10
120.6308356861957
 20
145.4602888107198
 30
0.0
 10
120.7997115704391
 20
145.4925075919952
 30
0.0
 10
120.8867399736267
 20
145.5091112006135
 30
0.0
  0
SPLINE
  5
1C8
330
1F
100
AcDbEntity
  8
0
  6
Continuous
 62
     7
370
    25
100
AcDbSpline
210
0.0
220
0.0
230
1.0
 70
     8
 71
     3
 72
     9
 73
     5
 74
     0
 42
0.000000001
 43
0.00000001
 40
0.0
 40
0.0
 40
0.0
 40
0.0
 40
0.5
 40
1.0
 40
1.0
 40
1.0
 40
1.0
 10
121.0599450543863
 20
145.3078814445003
 30
0.0
 10
121.0424246919268
 20
145.3014116218873
 30
0.0
 10
120.9913024729443
 20
145.3320906150933
 30
0.0
 10
120.9216091760892
 20
145.4417751532601
 30
0.0
 10
120.8867399736303
 20
145.509111200613
 30
0.0
  0
SPLINE
  5
1C9
330
1F
100
AcDbEntity
  8
0
  6
Continuous
 62
     7
370
    25
100
AcDbSpline
210
0.0
220
0.0
230
1.0
 70
    24
 71
     3
 72
     9
 73
     5
 74
     0
 42
0.000000001
 43
0.00000001
 40
0.0
 40
0.0
 40
0.0
 40
0.0
 40
0.5
 40
1.0
 40
1.0
 40
1.0
 40
1.0
 10
119.7431587981972
 20
145.2412993807432
 30
0.0
 10
119.8084630390779
 20
145.1278529793635
 30
0.0
 10
119.9385811382826
 20
144.9018120682368
 30
0.0
 10
119.9926026239821
 20
144.8079660474098
 30
0.0
 10
119.9926026239821
 20
144.8079660474098
 30
0.0
  0
SPLINE
  5
1CA
330
1F
100
AcDbEntity
  8
0
  6
Continuous
 62
     7
370
    25
100
AcDbSpline
210
0.0
220
0.0
230
1.0
 70
     8
 71
     3
 72
    11
 73
     7
 74
     0
 42
0.000000001
 43
0.00000001
 40
0.0
 40
0.0
 40
0.0
 40
0.0
 40
0.1998734113242355
 40
0.50088420293333
 40
0.7872151654228284
 40
1.0
 40
1.0
 40
1.0
 40
1.0
 10
117.6729540064921
 20
143.0714263996653
 30
0.0
 10
117.6912655966385
 20
143.1225387080166
 30
0.0
 10
117.7371545729369
 20
143.2506265194917
 30
0.0
 10
117.8166207835365
 20
143.4531700653613
 30
0.0
 10
117.9025366281081
 20
143.658917313211
 30
0.0
 10
117.9602230871173
 20
143.7860985386909
 30
0.0
 10
117.9848161849711
 20
143.8403188943359
 30
0.0
  0
SPLINE
  5
1CB
330
1F
100
AcDbEntity
  8
0
  6
Continuous
 62
     7
370
    25
100
AcDbSpline
210
0.0
220
0.0
230
1.0
 70
    24
 71
     3
 72
     9
 73
     5
 74
     0
 42
0.000000001
 43
0.00000001
 40
0.0
 40
0.0
 40
0.0
 40
0.0
 40
0.5
 40
1.0
 40
1.0
 40
1.0
 40
1.0
 10
118.3514828516378
 20
143.5003842600964
 30
0.0
 10
118.3514828516378
 20
143.5003842600964
 30
0.0
 10
118.272072638231
 20
143.5740050287764
 30
0.0
 10
118.0808092938308
 20
143.7513242152003
 30
0.0
 10
117.9848161849711
 20
143.8403188943359
 30
0.0
  0
SPLINE
  5
1CC
330
1F
100
AcDbEntity
  8
0
  6
Continuous
 62
     7
370
    25
100
AcDbSpline
210
0.0
220
0.0
230
1.0
 70
     8
 71
     3
 72
     8
 73
     4
 74
     0
 42
0.000000001
 43
0.00000001
 40
0.0
 40
0.0
 40
0.0
 40
0.0
 40
1.0
 40
1.0
 40
1.0
 40
1.0
 10
117.769340118477
 20
142.7827512650705
 30
0.0
 10
117.811072021632
 20
142.8417690884959
 30
0.0
 10
117.7730852303011
 20
142.9555390276963
 30
0.0
 10
117.6729540064921
 20
143.0714263996653
 30
0.0
  0
SPLINE
  5
1CD
330
1F
100
AcDbEntity
  8
0
  6
Continuous
 62
     7
370
    25
100
AcDbSpline
210
0.0
220
0.0
230
1.0
 70
    24
 71
     3
 72
     9
 73
     5
 74
     0
 42
0.000000001
 43
0.00000001
 40
0.0
 40
0.0
 40
0.0
 40
0.0
 40
0.5
 40
1.0
 40
1.0
 40
1.0
 40
1.0
 10
128.9848161849711
 20
143.8403188943359
 30
0.0
 10
128.8888230761114
 20
143.7513242152003
 30
0.0
 10
128.6975597317113
 20
143.5740050287764
 30
0.0
 10
128.6181495183044
 20
143.5003842600964
 30
0.0
 10
128.6181495183044
 20
143.5003842600964
 30
0.0
  0
SPLINE
  5
1CE
330
1F
100
AcDbEntity
  8
0
  6
Continuous
 62
     7
370
    25
100
AcDbSpline
210
0.0
220
0.0
230
1.0
 70
     8
 71
     3
 72
    12
 73
     8
 74
     0
 42
0.000000001
 43
0.00000001
 40
0.0
 40
0.0
 40
0.0
 40
0.0
 40
0.133687439079169
 40
0.3000652536960207
 40
0.4991448923272338
 40
0.8001431782006811
 40
1.0
 40
1.0
 40
1.0
 40
1.0
 10
128.9848161849711
 20
143.8403188943359
 30
0.0
 10
129.0003535140009
 20
143.8062958055821
 30
0.0
 10
129.0352274902636
 20
143.7299300166287
 30
0.0
 10
129.0907728650039
 20
143.6020186937824
 30
0.0
 10
129.1618715635521
 20
143.4307700375968
 30
0.0
 10
129.2324687527127
 20
143.250616702757
 30
0.0
 10
129.2783645197845
 20
143.1225349978879
 30
0.0
 10
129.2966783634501
 20
143.0714263996653
 30
0.0
  0
SPLINE
  5
1CF
330
1F
100
AcDbEntity
  8
0
  6
Continuous
 62
     7
370
    25
100
AcDbSpline
210
0.0
220
0.0
230
1.0
 70
     8
 71
     3
 72
     9
 73
     5
 74
     0
 42
0.000000001
 43
0.00000001
 40
0.0
 40
0.0
 40
0.0
 40
0.0
 40
0.5
 40
1.0
 40
1.0
 40
1.0
 40
1.0
 10
129.2002922514652
 20
142.7827512650705
 30
0.0
 10
129.1794262998877
 20
142.8122601767832
 30
0.0
 10
129.1750944852371
 20
142.8976681998452
 30
0.0
 10
129.2466127515457
 20
143.0134827136808
 30
0.0
 10
129.2966783634501
 20
143.0714263996653
 30
0.0
  0
SPLINE
  5
1D0
330
1F
100
AcDbEntity
  8
0
  6
Continuous
 62
     7
370
    25
100
AcDbSpline
210
0.0
220
0.0
230
1.0
 70
    24
 71
     3
 72
     9
 73
     5
 74
     0
 42
0.000000001
 43
0.00000001
 40
0.0
 40
0.0
 40
0.0
 40
0.0
 40
0.5
 40
1.0
 40
1.0
 40
1.0
 40
1.0
 10
117.9848161849711
 20
133.6422798671504
 30
0.0
 10
118.0808092938308
 20
133.731274546286
 30
0.0
 10
118.272072638231
 20
133.9085937327099
 30
0.0
 10
118.3514828516378
 20
133.9822145013899
 30
0.0
 10
118.3514828516378
 20
133.9822145013899
 30
0.0
  0
SPLINE
  5
1D1
330
1F
100
AcDbEntity
  8
0
  6
Continuous
 62
     7
370
    25
100
AcDbSpline
210
0.0
220
0.0
230
1.0
 70
     8
 71
     3
 72
    12
 73
     8
 74
     0
 42
0.000000001
 43
0.00000001
 40
0.0
 40
0.0
 40
0.0
 40
0.0
 40
0.1336874391244513
 40
0.300065253741295
 40
0.4991448923272317
 40
0.8001431781198298
 40
0.9999999999999999
 40
0.9999999999999999
 40
0.9999999999999999
 40
0.9999999999999999
 10
117.9848161849711
 20
133.6422798671504
 30
0.0
 10
117.969278855936
 20
133.6763029559156
 30
0.0
 10
117.9344048796678
 20
133.7526687448805
 30
0.0
 10
117.8788595049275
 20
133.8805800677267
 30
0.0
 10
117.8077608063945
 20
134.0518287238805
 30
0.0
 10
117.7371636172386
 20
134.231982058709
 30
0.0
 10
117.6912678501656
 20
134.3600637635778
 30
0.0
 10
117.6729540064921
 20
134.4111723618209
 30
0.0
  0
SPLINE
  5
1D2
330
1F
100
AcDbEntity
  8
0
  6
Continuous
 62
     7
370
    25
100
AcDbSpline
210
0.0
220
0.0
230
1.0
 70
     8
 71
     3
 72
     9
 73
     5
 74
     0
 42
0.000000001
 43
0.00000001
 40
0.0
 40
0.0
 40
0.0
 40
0.0
 40
0.5
 40
1.0
 40
1.0
 40
1.0
 40
1.0
 10
117.769340118477
 20
134.6998474964157
 30
0.0
 10
117.7902060700545
 20
134.6703385847031
 30
0.0
 10
117.7945378847051
 20
134.584930561641
 30
0.0
 10
117.7230196183966
 20
134.4691160478055
 30
0.0
 10
117.6729540064921
 20
134.4111723618209
 30
0.0
  0
SPLINE
  5
1D3
330
1F
100
AcDbEntity
  8
0
  6
Continuous
 62
     7
370
    25
100
AcDbSpline
210
0.0
220
0.0
230
1.0
 70
     8
 71
     3
 72
     8
 73
     4
 74
     0
 42
0.000000001
 43
0.00000001
 40
0.0
 40
0.0
 40
0.0
 40
0.0
 40
1.0
 40
1.0
 40
1.0
 40
1.0
 10
129.2002922514652
 20
134.6998474964157
 30
0.0
 10
129.1585603483102
 20
134.6408296729904
 30
0.0
 10
129.1965471396412
 20
134.52705973379
 30
0.0
 10
129.2966783634501
 20
134.4111723618209
 30
0.0
  0
SPLINE
  5
1D4
330
1F
100
AcDbEntity
  8
0
  6
Continuous
 62
     7
370
    25
100
AcDbSpline
210
0.0
220
0.0
230
1.0
 70
     8
 71
     3
 72
    11
 73
     7
 74
     0
 42
0.000000001
 43
0.00000001
 40
0.0
 40
0.0
 40
0.0
 40
0.0
 40
0.1998756938799861
 40
0.5008842154834532
 40
0.7872132635947938
 40
1.0
 40
1.0
 40
1.0
 40
1.0
 10
129.2966783634501
 20
134.4111723618209
 30
0.0
 10
129.2783665512434
 20
134.360059472959
 30
0.0
 10
129.2324775413635
 20
134.2319716662741
 30
0.0
 10
129.1530115426459
 20
134.029428589296
 30
0.0
 10
129.0670959955797
 20
133.8236819152038
 30
0.0
 10
129.0094095132105
 20
133.6965007030768
 30
0.0
 10
128.9848161849711
 20
133.6422798671504
 30
0.0
  0
SPLINE
  5
1D5
330
1F
100
AcDbEntity
  8
0
  6
Continuous
 62
     7
370
    25
100
AcDbSpline
210
0.0
220
0.0
230
1.0
 70
    24
 71
     3
 72
     9
 73
     5
 74
     0
 42
0.000000001
 43
0.00000001
 40
0.0
 40
0.0
 40
0.0
 40
0.0
 40
0.5
 40
1.0
 40
1.0
 40
1.0
 40
1.0
 10
128.6181495183044
 20
133.9822145013899
 30
0.0
 10
128.6181495183044
 20
133.9822145013899
 30
0.0
 10
128.6975597317113
 20
133.9085937327099
 30
0.0
 10
128.8888230761114
 20
133.731274546286
 30
0.0
 10
128.9848161849711
 20
133.6422798671504
 30
0.0
  0
SPLINE
  5
1D6
330
1F
100
AcDbEntity
  8
0
  6
Continuous
 62
     7
370
    25
100
AcDbSpline
210
0.0
220
0.0
230
1.0
 70
     8
 71
     3
 72
    15
 73
    11
 74
     0
 42
0.000000001
 43
0.00000001
 40
0.0
 40
0.0
 40
0.0
 40
0.0
 40
0.1256227982397242
 40
0.250712529493989
 40
0.3754456171266946
 40
0.5000000000000002
 40
0.6245543828733057
 40
0.7492874705060107
 40
0.8743772017602763
 40
1.0
 40
1.0
 40
1.0
 40
1.0
 10
117.9848161849711
 20
143.8403188943359
 30
0.0
 10
118.0498045687166
 20
143.9089350829198
 30
0.0
 10
118.1795055649121
 20
144.045876294588
 30
0.0
 10
118.3832696430891
 20
144.2415735011134
 30
0.0
 10
118.5931323275382
 20
144.4294428519235
 30
0.0
 10
118.8097961498209
 20
144.6088236077015
 30
0.0
 10
119.033040660781
 20
144.77994507262
 30
0.0
 10
119.2630401294505
 20
144.9425411479407
 30
0.0
 10
119.4993074346274
 20
145.0974442037582
 30
0.0
 10
119.6617598744483
 20
145.1932797329919
 30
0.0
 10
119.7431587981972
 20
145.2412993807432
 30
0.0
  0
SPLINE
  5
1D7
330
1F
100
AcDbEntity
  8
0
  6
Continuous
 62
     7
370
    25
100
AcDbSpline
210
0.0
220
0.0
230
1.0
 70
     8
 71
     3
 72
    15
 73
    11
 74
     0
 42
0.000000001
 43
0.00000001
 40
0.0
 40
0.0
 40
0.0
 40
0.0
 40
0.1256227982397242
 40
0.250712529493989
 40
0.3754456171266946
 40
0.5000000000000002
 40
0.6245543828733057
 40
0.7492874705060107
 40
0.8743772017602763
 40
1.0
 40
1.0
 40
1.0
 40
1.0
 10
128.9848161849711
 20
133.6422798671504
 30
0.0
 10
128.9198278012256
 20
133.5736636785665
 30
0.0
 10
128.7901268050301
 20
133.4367224668983
 30
0.0
 10
128.5863627268531
 20
133.2410252603729
 30
0.0
 10
128.376500042404
 20
133.0531559095628
 30
0.0
 10
128.1598362201214
 20
132.8737751537847
 30
0.0
 10
127.9365917091613
 20
132.7026536888663
 30
0.0
 10
127.7065922404917
 20
132.5400576135456
 30
0.0
 10
127.4703249353148
 20
132.3851545577281
 30
0.0
 10
127.3078724954939
 20
132.2893190284944
 30
0.0
 10
127.226473571745
 20
132.2412993807431
 30
0.0
  0
SPLINE
  5
1D8
330
1F
100
AcDbEntity
  8
0
  6
Continuous
 62
     7
370
    25
100
AcDbSpline
210
0.0
220
0.0
230
1.0
 70
     8
 71
     3
 72
    15
 73
    11
 74
     0
 42
0.000000001
 43
0.00000001
 40
0.0
 40
0.0
 40
0.0
 40
0.0
 40
0.1256227982397244
 40
0.2507125294939896
 40
0.3754456171266953
 40
0.500000000000001
 40
0.6245543828733067
 40
0.7492874705060116
 40
0.8743772017602766
 40
1.0
 40
1.0
 40
1.0
 40
1.0
 10
127.226473571745
 20
145.2412993807432
 30
0.0
 10
127.3078724954939
 20
145.1932797329919
 30
0.0
 10
127.4703249353148
 20
145.0974442037582
 30
0.0
 10
127.7065922404917
 20
144.9425411479407
 30
0.0
 10
127.9365917091613
 20
144.77994507262
 30
0.0
 10
128.1598362201214
 20
144.6088236077015
 30
0.0
 10
128.376500042404
 20
144.4294428519235
 30
0.0
 10
128.5863627268531
 20
144.2415735011134
 30
0.0
 10
128.7901268050301
 20
144.045876294588
 30
0.0
 10
128.9198278012256
 20
143.9089350829198
 30
0.0
 10
128.9848161849711
 20
143.8403188943359
 30
0.0
  0
SPLINE
  5
1D9
330
1F
100
AcDbEntity
  8
0
  6
Continuous
 62
     7
370
    25
100
AcDbSpline
210
0.0
220
0.0
230
1.0
 70
     8
 71
     3
 72
    15
 73
    11
 74
     0
 42
0.000000001
 43
0.00000001
 40
0.0
 40
0.0
 40
0.0
 40
0.0
 40
0.1256227982397243
 40
0.2507125294939895
 40
0.375445617126695
 40
0.5000000000000004
 40
0.624554382873306
 40
0.7492874705060116
 40
0.8743772017602763
 40
1.0
 40
1.0
 40
1.0
 40
1.0
 10
119.7431587981972
 20
132.2412993807431
 30
0.0
 10
119.6617598744483
 20
132.2893190284944
 30
0.0
 10
119.4993074346274
 20
132.3851545577281
 30
0.0
 10
119.2630401294505
 20
132.5400576135456
 30
0.0
 10
119.033040660781
 20
132.7026536888663
 30
0.0
 10
118.8097961498209
 20
132.8737751537847
 30
0.0
 10
118.5931323275382
 20
133.0531559095628
 30
0.0
 10
118.3832696430891
 20
133.2410252603729
 30
0.0
 10
118.1795055649121
 20
133.4367224668983
 30
0.0
 10
118.0498045687166
 20
133.5736636785665
 30
0.0
 10
117.9848161849711
 20
133.6422798671504
 30
0.0
  0
SPLINE
  5
1DA
330
1F
100
AcDbEntity
  8
0
  6
Continuous
 62
     7
370
    25
100
AcDbSpline
210
0.0
220
0.0
230
1.0
 70
     8
 71
     3
 72
    11
 73
     7
 74
     0
 42
0.000000001
 43
0.00000001
 40
0.0
 40
0.0
 40
0.0
 40
0.0
 40
0.2797027302494835
 40
0.5456024262037126
 40
0.8070698137647283
 40
1.0
 40
1.0
 40
1.0
 40
1.0
 10
126.0828923124407
 20
145.5091111000713
 30
0.0
 10
125.8571314011425
 20
145.5441547065691
 30
0.0
 10
125.4167506410536
 20
145.6125125545996
 30
0.0
 10
124.7606591785507
 20
145.6860049152752
 30
0.0
 10
124.1741583084961
 20
145.729578728154
 30
0.0
 10
123.8037308129437
 20
145.7351494566527
 30
0.0
 10
123.6464530240098
 20
145.7375147018668
 30
0.0
  0
SPLINE
  5
1DB
330
1F
100
AcDbEntity
  8
0
  6
Continuous
 62
     7
370
    25
100
AcDbSpline
210
0.0
220
0.0
230
1.0
 70
     8
 71
     3
 72
    12
 73
     8
 74
     0
 42
0.000000001
 43
0.00000001
 40
-0.001315227095634
 40
-0.001315227095634
 40
-0.001315227095634
 40
-0.001315227095634
 40
0.0
 40
0.0
 40
0.106360889131311
 40
0.159541333696967
 40
0.265902222828278
 40
0.265902222828278
 40
0.265902222828278
 40
0.265902222828278
 10
123.4848161849711
 20
145.7412993807432
 30
0.0
 10
123.4806673685241
 20
145.7412993807432
 30
0.0
 10
123.4765175829021
 20
145.7412974730755
 30
0.0
 10
123.1369781758643
 20
145.7409863303438
 30
0.0
 10
122.6327667435535
 20
145.7216102126269
 30
0.0
 10
121.780521594254
 20
145.6433786277805
 30
0.0
 10
121.2608204368097
 20
145.5690879846903
 30
0.0
 10
120.8867399736361
 20
145.5091112006126
 30
0.0
  0
SPLINE
  5
1DC
330
1F
100
AcDbEntity
  8
0
  6
Continuous
 62
     7
370
    25
100
AcDbSpline
210
0.0
220
0.0
230
1.0
 70
     8
 71
     3
 72
    11
 73
     7
 74
     0
 42
0.000000001
 43
0.00000001
 40
0.0
 40
0.0
 40
0.0
 40
0.0
 40
0.2797027302494835
 40
0.5456024262037126
 40
0.8070698137647283
 40
1.0
 40
1.0
 40
1.0
 40
1.0
 10
120.8867400575016
 20
131.973487661415
 30
0.0
 10
121.1125009687997
 20
131.9384440549172
 30
0.0
 10
121.5528817288887
 20
131.8700862068867
 30
0.0
 10
122.2089731913916
 20
131.7965938462111
 30
0.0
 10
122.7954740614461
 20
131.7530200333323
 30
0.0
 10
123.1659015569985
 20
131.7474493048336
 30
0.0
 10
123.3231793459324
 20
131.7450840596196
 30
0.0
  0
SPLINE
  5
1DD
330
1F
100
AcDbEntity
  8
0
  6
Continuous
 62
     7
370
    25
100
AcDbSpline
210
0.0
220
0.0
230
1.0
 70
     8
 71
     3
 72
    10
 73
     6
 74
     0
 42
0.000000001
 43
0.00000001
 40
0.0
 40
0.0
 40
0.0
 40
0.0
 40
0.047135691577777
 40
0.0785594859629615
 40
0.109983280348146
 40
0.109983280348146
 40
0.109983280348146
 40
0.109983280348146
 10
117.6729540064921
 20
143.0714263996653
 30
0.0
 10
117.6317592366551
 20
142.9549099952606
 30
0.0
 10
117.5690988279079
 20
142.7657437802942
 30
0.0
 10
117.5027021814889
 20
142.5457309231256
 30
0.0
 10
117.4848161849711
 20
142.4829567675171
 30
0.0
 10
117.4848161849711
 20
142.4829567675171
 30
0.0
  0
SPLINE
  5
1DE
330
1F
100
AcDbEntity
  8
0
  6
Continuous
 62
     7
370
    25
100
AcDbSpline
210
0.0
220
0.0
230
1.0
 70
     8
 71
     3
 72
     8
 73
     4
 74
     0
 42
0.000000001
 43
0.00000001
 40
0.0
 40
0.0
 40
0.0
 40
0.0
 40
1.0
 40
1.0
 40
1.0
 40
1.0
 10
117.4181495183045
 20
142.2335129417321
 30
0.0
 10
117.4615789207763
 20
142.308958415993
 30
0.0
 10
117.4848161849711
 20
142.3959042972161
 30
0.0
 10
117.4848161849711
 20
142.4829567675171
 30
0.0
  0
SPLINE
  5
1DF
330
1F
100
AcDbEntity
  8
0
  6
Continuous
 62
     7
370
    25
100
AcDbSpline
210
0.0
220
0.0
230
1.0
 70
     8
 71
     3
 72
    10
 73
     6
 74
     0
 42
0.000000001
 43
0.00000001
 40
0.0
 40
0.0
 40
0.0
 40
0.0
 40
0.0235668908901634
 40
0.0471337817803267
 40
0.109978824154096
 40
0.109978824154096
 40
0.109978824154096
 40
0.109978824154096
 10
129.4848161849711
 20
142.4829567675171
 30
0.0
 10
129.4848161849711
 20
142.4829567675171
 30
0.0
 10
129.4750258551674
 20
142.5171848079261
 30
0.0
 10
129.4195884645085
 20
142.7047891924155
 30
0.0
 10
129.3516024977808
 20
142.9160774883213
 30
0.0
 10
129.2966783634501
 20
143.0714263996653
 30
0.0
  0
SPLINE
  5
1E0
330
1F
100
AcDbEntity
  8
0
  6
Continuous
 62
     7
370
    25
100
AcDbSpline
210
0.0
220
0.0
230
1.0
 70
     8
 71
     3
 72
     8
 73
     4
 74
     0
 42
0.000000001
 43
0.00000001
 40
0.0
 40
0.0
 40
0.0
 40
0.0
 40
1.0
 40
1.0
 40
1.0
 40
1.0
 10
129.5514828516378
 20
142.2335129417321
 30
0.0
 10
129.508053449166
 20
142.308958415993
 30
0.0
 10
129.4848161849711
 20
142.3959042972161
 30
0.0
 10
129.4848161849711
 20
142.4829567675171
 30
0.0
  0
SPLINE
  5
1E1
330
1F
100
AcDbEntity
  8
0
  6
Continuous
 62
     7
370
    25
100
AcDbSpline
210
0.0
220
0.0
230
1.0
 70
     8
 71
     3
 72
    10
 73
     6
 74
     0
 42
0.000000001
 43
0.00000001
 40
0.0
 40
0.0
 40
0.0
 40
0.0
 40
0.0235668908901634
 40
0.0471337817803268
 40
0.109978824154096
 40
0.109978824154096
 40
0.109978824154096
 40
0.109978824154096
 10
117.4848161849711
 20
134.9996419939692
 30
0.0
 10
117.4848161849711
 20
134.9996419939692
 30
0.0
 10
117.4946065147748
 20
134.9654139535602
 30
0.0
 10
117.5500439054337
 20
134.7778095690708
 30
0.0
 10
117.6180298721615
 20
134.566521273165
 30
0.0
 10
117.6729540064921
 20
134.4111723618209
 30
0.0
  0
SPLINE
  5
1E2
330
1F
100
AcDbEntity
  8
0
  6
Continuous
 62
     7
370
    25
100
AcDbSpline
210
0.0
220
0.0
230
1.0
 70
     8
 71
     3
 72
     8
 73
     4
 74
     0
 42
0.000000001
 43
0.00000001
 40
0.0
 40
0.0
 40
0.0
 40
0.0
 40
1.0
 40
1.0
 40
1.0
 40
1.0
 10
117.4181495183045
 20
135.2490858197542
 30
0.0
 10
117.4615789207763
 20
135.1736403454933
 30
0.0
 10
117.4848161849711
 20
135.0866944642702
 30
0.0
 10
117.4848161849711
 20
134.9996419939692
 30
0.0
  0
SPLINE
  5
1E3
330
1F
100
AcDbEntity
  8
0
  6
Continuous
 62
     7
370
    25
100
AcDbSpline
210
0.0
220
0.0
230
1.0
 70
     8
 71
     3
 72
    10
 73
     6
 74
     0
 42
0.000000001
 43
0.00000001
 40
0.0
 40
0.0
 40
0.0
 40
0.0
 40
0.0471356915777762
 40
0.0785594859629606
 40
0.109983280348145
 40
0.109983280348145
 40
0.109983280348145
 40
0.109983280348145
 10
129.2966783634501
 20
134.4111723618209
 30
0.0
 10
129.3378731332872
 20
134.5276887662257
 30
0.0
 10
129.4005335420343
 20
134.7168549811921
 30
0.0
 10
129.4669301884534
 20
134.9368678383607
 30
0.0
 10
129.4848161849711
 20
134.9996419939692
 30
0.0
 10
129.4848161849711
 20
134.9996419939692
 30
0.0
  0
SPLINE
  5
1E4
330
1F
100
AcDbEntity
  8
0
  6
Continuous
 62
     7
370
    25
100
AcDbSpline
210
0.0
220
0.0
230
1.0
 70
     8
 71
     3
 72
     8
 73
     4
 74
     0
 42
0.000000001
 43
0.00000001
 40
0.0
 40
0.0
 40
0.0
 40
0.0
 40
1.0
 40
1.0
 40
1.0
 40
1.0
 10
129.5514828516378
 20
135.2490858197542
 30
0.0
 10
129.508053449166
 20
135.1736403454933
 30
0.0
 10
129.4848161849711
 20
135.0866944642702
 30
0.0
 10
129.4848161849711
 20
134.9996419939692
 30
0.0
  0
SPLINE
  5
1E5
330
1F
100
AcDbEntity
  8
0
  6
Continuous
 62
     7
370
    25
100
AcDbSpline
210
0.0
220
0.0
230
1.0
 70
     8
 71
     3
 72
    22
 73
    18
 74
     0
 42
0.000000001
 43
0.00000001
 40
0.0
 40
0.0
 40
0.0
 40
0.0
 40
0.038005392991836
 40
0.0753742647686151
 40
0.1121354056302434
 40
0.1483190565711081
 40
0.1839569287292916
 40
0.2190822114657171
 40
0.2537295672330642
 40
0.3781984086525479
 40
0.500020438091616
 40
0.6218365155722344
 40
0.7463113107007004
 40
0.8072426289301083
 40
0.8697188752907671
 40
0.9339169686632323
 40
1.0
 40
1.0
 40
1.0
 40
1.0
 10
130.1312627943803
 20
141.9845148659598
 30
0.0
 10
130.1701817091024
 20
141.9133385301224
 30
0.0
 10
130.247367717504
 20
141.7721779326299
 30
0.0
 10
130.3540607247188
 20
141.5542059458434
 30
0.0
 10
130.4527641220459
 20
141.3343386210016
 30
0.0
 10
130.5429278517692
 20
141.1122945729955
 30
0.0
 10
130.6246941958294
 20
140.8885217527115
 30
0.0
 10
130.6980268170919
 20
140.6632465416907
 30
0.0
 10
130.8192662339868
 20
140.2403069805054
 30
0.0
 10
130.9466730531969
 20
139.6031005425782
 30
0.0
 10
131.0036807622367
 20
138.7413247656584
 30
0.0
 10
130.9466794071416
 20
137.8794658499823
 30
0.0
 10
130.807336214389
 20
137.1828189493145
 30
0.0
 10
130.6456656488929
 20
136.6464467213914
 30
0.0
 10
130.5001453391754
 20
136.2550648847354
 30
0.0
 10
130.330093750908
 20
135.8682848390015
 30
0.0
 10
130.1981759856429
 20
135.6226687537925
 30
0.0
 10
130.1312627943778
 20
135.4980838955337
 30
0.0
  0
SPLINE
  5
1E6
330
1F
100
AcDbEntity
  8
0
  6
Continuous
 62
     7
370
    25
100
AcDbSpline
210
0.0
220
0.0
230
1.0
 70
     8
 71
     3
 72
     9
 73
     5
 74
     0
 42
0.000000001
 43
0.00000001
 40
0.0
 40
0.0
 40
0.0
 40
0.0
 40
0.5
 40
1.0
 40
1.0
 40
1.0
 40
1.0
 10
129.6881663537474
 20
135.4980838955275
 30
0.0
 10
129.7101505014967
 20
135.5401333268009
 30
0.0
 10
129.8244208929687
 20
135.5872698288645
 30
0.0
 10
130.0288500263943
 20
135.5401333268009
 30
0.0
 10
130.1312627943744
 20
135.4980838955275
 30
0.0
  0
SPLINE
  5
1E7
330
1F
100
AcDbEntity
  8
0
  6
Continuous
 62
     7
370
    25
100
AcDbSpline
210
0.0
220
0.0
230
1.0
 70
     8
 71
     3
 72
     9
 73
     5
 74
     0
 42
0.000000001
 43
0.00000001
 40
0.0
 40
0.0
 40
0.0
 40
0.0
 40
0.5
 40
1.0
 40
1.0
 40
1.0
 40
1.0
 10
130.1312627934016
 20
141.9845148676954
 30
0.0
 10
130.028850025449
 20
141.9424654364169
 30
0.0
 10
129.824420892078
 20
141.8953289343495
 30
0.0
 10
129.7101505006064
 20
141.9424654364169
 30
0.0
 10
129.6881663528395
 20
141.9845148676954
 30
0.0
  0
SPLINE
  5
1E8
330
1F
100
AcDbEntity
  8
0
  6
Continuous
 62
     7
370
    25
100
AcDbSpline
210
0.0
220
0.0
230
1.0
 70
     8
 71
     3
 72
    22
 73
    18
 74
     0
 42
0.000000001
 43
0.00000001
 40
0.0
 40
0.0
 40
0.0
 40
0.0
 40
0.0380053929891042
 40
0.0753742647640666
 40
0.1121354056247924
 40
0.1483190565656652
 40
0.1839569287247627
 40
0.2190822114630004
 40
0.2537295672330463
 40
0.3781984086454866
 40
0.5000204380916337
 40
0.6218365155675609
 40
0.7463113107006846
 40
0.8072426289280421
 40
0.8697188752880084
 40
0.9339169686611593
 40
1.0
 40
1.0
 40
1.0
 40
1.0
 10
116.8383695755644
 20
135.4980838955337
 30
0.0
 10
116.7994506608451
 20
135.569260231366
 30
0.0
 10
116.7222646524482
 20
135.7104208288499
 30
0.0
 10
116.6155716452391
 20
135.9283928156256
 30
0.0
 10
116.5168682479149
 20
136.1482601404617
 30
0.0
 10
116.4267045181916
 20
136.3703041884673
 30
0.0
 10
116.3449381741284
 20
136.5940770087564
 30
0.0
 10
116.2716055528606
 20
136.8193522197879
 30
0.0
 10
116.1503661359588
 20
137.2422917809652
 30
0.0
 10
116.0229593167464
 20
137.8794982188976
 30
0.0
 10
115.9659516077069
 20
138.7412739958061
 30
0.0
 10
116.022952962799
 20
139.6031329114981
 30
0.0
 10
116.1622961555509
 20
140.2997798121612
 30
0.0
 10
116.3239667210429
 20
140.8361520400894
 30
0.0
 10
116.4694870307587
 20
141.2275338767413
 30
0.0
 10
116.6395386190282
 20
141.6143139224792
 30
0.0
 10
116.7714563842962
 20
141.8599300076932
 30
0.0
 10
116.8383695755633
 20
141.9845148659557
 30
0.0
  0
SPLINE
  5
1E9
330
1F
100
AcDbEntity
  8
0
  6
Continuous
 62
     7
370
    25
100
AcDbSpline
210
0.0
220
0.0
230
1.0
 70
     8
 71
     3
 72
     9
 73
     5
 74
     0
 42
0.000000001
 43
0.00000001
 40
0.0
 40
0.0
 40
0.0
 40
0.0
 40
0.5
 40
1.0
 40
1.0
 40
1.0
 40
1.0
 10
117.2814660161948
 20
141.9845148659588
 30
0.0
 10
117.2594818684456
 20
141.9424654346854
 30
0.0
 10
117.1452114769736
 20
141.8953289326218
 30
0.0
 10
116.9407823435479
 20
141.9424654346854
 30
0.0
 10
116.8383695755679
 20
141.9845148659588
 30
0.0
  0
SPLINE
  5
1EA
330
1F
100
AcDbEntity
  8
0
  6
Continuous
 62
     7
370
    25
100
AcDbSpline
210
0.0
220
0.0
230
1.0
 70
     8
 71
     3
 72
     9
 73
     5
 74
     0
 42
0.000000001
 43
0.00000001
 40
0.0
 40
0.0
 40
0.0
 40
0.0
 40
0.5
 40
1.0
 40
1.0
 40
1.0
 40
1.0
 10
116.8383695755644
 20
135.4980838955337
 30
0.0
 10
116.9407823435445
 20
135.5401333268071
 30
0.0
 10
117.1452114769704
 20
135.5872698288707
 30
0.0
 10
117.2594818684424
 20
135.5401333268071
 30
0.0
 10
117.2814660161915
 20
135.4980838955337
 30
0.0
  0
LINE
  5
1EB
330
1F
100
AcDbEntity
  8
0
  6
Continuous
 62
     7
370
    25
100
AcDbLine
 10
117.9848162148
 20
143.8403188821
 30
0.0
 11
117.9848162148
 21
145.2412995149
 31
0.0
  0
LINE
  5
1EC
330
1F
100
AcDbEntity
  8
0
  6
Continuous
 62
     7
370
    25
100
AcDbLine
 10
117.4848161328
 20
145.2412995149
 30
0.0
 11
117.4848161328
 21
142.4829567421
 31
0.0
  0
SPLINE
  5
1ED
330
1F
100
AcDbEntity
  8
0
  6
Continuous
 62
     7
370
    25
100
AcDbSpline
210
0.0
220
0.0
230
1.0
 70
     8
 71
     3
 72
    13
 73
     9
 74
     0
 42
0.000000001
 43
0.00000001
 40
0.0
 40
0.0
 40
0.0
 40
0.0
 40
0.1162222328492899
 40
0.2381780342383815
 40
0.3660918025215373
 40
0.500158020507199
 40
0.7504239415057028
 40
1.0
 40
1.0
 40
1.0
 40
1.0
 10
117.6197994001721
 20
145.6063161655421
 30
0.0
 10
117.6088152768507
 20
145.5944787063291
 30
0.0
 10
117.5863051526139
 20
145.5702198128575
 30
0.0
 10
117.5581940248933
 20
145.5299336532643
 30
0.0
 10
117.5336700289922
 20
145.4857764625027
 30
0.0
 10
117.5082964453721
 20
145.4243621876803
 30
0.0
 10
117.4884367681822
 20
145.3443313864001
 30
0.0
 10
117.4860219350885
 20
145.2756117679118
 30
0.0
 10
117.4848161849711
 20
145.2412993807432
 30
0.0
  0
LWPOLYLINE
  5
1EE
330
1F
100
AcDbEntity
  8
0
  6
Continuous
 62
     7
370
    25
100
AcDbPolyline
 90
        5
 70
   128
 43
0.0
 10
117.9848162148
 20
145.2412995149
 10
117.8832317393
 20
145.3428835247
 10
117.7858852472
 20
145.4402304825
 10
117.6968359079
 20
145.5292793561
 10
117.6197992328
 20
145.6063160312
  0
LINE
  5
1EF
330
1F
100
AcDbEntity
  8
0
  6
Continuous
 62
     7
370
    25
100
AcDbLine
 10
119.7431588236
 20
145.2412995149
 30
0.0
 11
117.9848162148
 21
145.2412995149
 31
0.0
  0
LINE
  5
1F0
330
1F
100
AcDbEntity
  8
0
  6
Continuous
 62
     7
370
    25
100
AcDbLine
 10
128.9848161552
 20
143.8403188821
 30
0.0
 11
128.9848161552
 21
145.2412995149
 31
0.0
  0
LWPOLYLINE
  5
1F1
330
1F
100
AcDbEntity
  8
0
  6
Continuous
 62
     7
370
    25
100
AcDbPolyline
 90
        5
 70
   128
 43
0.0
 10
129.3498331371
 20
145.6063160312
 10
129.2727964621
 20
145.5292793561
 10
129.1837471228
 20
145.4402304825
 10
129.0864006307
 20
145.3428835247
 10
128.9848161552
 20
145.2412995149
  0
SPLINE
  5
1F2
330
1F
100
AcDbEntity
  8
0
  6
Continuous
 62
     7
370
    25
100
AcDbSpline
210
0.0
220
0.0
230
1.0
 70
     8
 71
     3
 72
    12
 73
     8
 74
     0
 42
0.000000001
 43
0.00000001
 40
0.0
 40
0.0
 40
0.0
 40
0.0
 40
0.1664615747826677
 40
0.3330490629245378
 40
0.50019385964186
 40
0.761981166969512
 40
1.0
 40
1.0
 40
1.0
 40
1.0
 10
129.4848161849711
 20
145.2412993807432
 30
0.0
 10
129.4842738066328
 20
145.2642930556432
 30
0.0
 10
129.4831886396953
 20
145.3102977981108
 30
0.0
 10
129.4734054944988
 20
145.3758407609077
 30
0.0
 10
129.4527254219178
 20
145.4502069563414
 30
0.0
 10
129.4164241488235
 20
145.5294785122071
 30
0.0
 10
129.3713149679406
 20
145.5815287034214
 30
0.0
 10
129.3498329697702
 20
145.6063161655422
 30
0.0
  0
LINE
  5
1F3
330
1F
100
AcDbEntity
  8
0
  6
Continuous
 62
     7
370
    25
100
AcDbLine
 10
129.4848162371
 20
142.4829567421
 30
0.0
 11
129.4848162371
 21
145.2412995149
 31
0.0
  0
LINE
  5
1F4
330
1F
100
AcDbEntity
  8
0
  6
Continuous
 62
     7
370
    25
100
AcDbLine
 10
128.9848161552
 20
145.2412995149
 30
0.0
 11
127.2264735464
 21
145.2412995149
 31
0.0
  0
LINE
  5
1F5
330
1F
100
AcDbEntity
  8
0
  6
Continuous
 62
     7
370
    25
100
AcDbLine
 10
128.9848161552
 20
132.2412992466
 30
0.0
 11
128.9848161552
 21
133.6422798794
 31
0.0
  0
LINE
  5
1F6
330
1F
100
AcDbEntity
  8
0
  6
Continuous
 62
     7
370
    25
100
AcDbLine
 10
129.4848162371
 20
132.2412992466
 30
0.0
 11
129.4848162371
 21
134.9996420194
 31
0.0
  0
SPLINE
  5
1F7
330
1F
100
AcDbEntity
  8
0
  6
Continuous
 62
     7
370
    25
100
AcDbSpline
210
0.0
220
0.0
230
1.0
 70
     8
 71
     3
 72
    13
 73
     9
 74
     0
 42
0.000000001
 43
0.00000001
 40
0.0
 40
0.0
 40
0.0
 40
0.0
 40
0.1162222239500744
 40
0.2381780213579675
 40
0.3660917905452749
 40
0.5001580142688472
 40
0.7504239388829979
 40
1.0
 40
1.0
 40
1.0
 40
1.0
 10
129.3498329697701
 20
131.8762825959442
 30
0.0
 10
129.3608170922652
 20
131.8881200542749
 30
0.0
 10
129.383327215315
 20
131.912378946484
 30
0.0
 10
129.4114383424798
 20
131.9526651048415
 30
0.0
 10
129.435962339078
 20
131.9968222957877
 30
0.0
 10
129.4613359239418
 20
132.0582365710817
 30
0.0
 10
129.4811956018143
 20
132.1382673730931
 30
0.0
 10
129.4836104348734
 20
132.2069869929558
 30
0.0
 10
129.4848161849711
 20
132.2412993807431
 30
0.0
  0
LWPOLYLINE
  5
1F8
330
1F
100
AcDbEntity
  8
0
  6
Continuous
 62
     7
370
    25
100
AcDbPolyline
 90
        5
 70
   128
 43
0.0
 10
128.9848161552
 20
132.2412992466
 10
129.0864006307
 20
132.1397152368
 10
129.1837471228
 20
132.042368279
 10
129.2727964621
 20
131.9533194054
 10
129.3498331371
 20
131.8762827303
  0
LINE
  5
1F9
330
1F
100
AcDbEntity
  8
0
  6
Continuous
 62
     7
370
    25
100
AcDbLine
 10
128.9848161552
 20
132.2412992466
 30
0.0
 11
127.2264735464
 21
132.2412992466
 31
0.0
  0
LINE
  5
1FA
330
1F
100
AcDbEntity
  8
0
  6
Continuous
 62
     7
370
    25
100
AcDbLine
 10
117.9848162148
 20
132.2412992466
 30
0.0
 11
117.9848162148
 21
133.6422798794
 31
0.0
  0
LWPOLYLINE
  5
1FB
330
1F
100
AcDbEntity
  8
0
  6
Continuous
 62
     7
370
    25
100
AcDbPolyline
 90
        5
 70
   128
 43
0.0
 10
117.6197992328
 20
131.8762827303
 10
117.6968359079
 20
131.9533194054
 10
117.7858852472
 20
132.042368279
 10
117.8832317393
 20
132.1397152368
 10
117.9848162148
 20
132.2412992466
  0
SPLINE
  5
1FC
330
1F
100
AcDbEntity
  8
0
  6
Continuous
 62
     7
370
    25
100
AcDbSpline
210
0.0
220
0.0
230
1.0
 70
     8
 71
     3
 72
    12
 73
     8
 74
     0
 42
0.000000001
 43
0.00000001
 40
0.0
 40
0.0
 40
0.0
 40
0.0
 40
0.1664615763807151
 40
0.3330490665505926
 40
0.500193865880855
 40
0.7619811797519991
 40
1.0
 40
1.0
 40
1.0
 40
1.0
 10
117.4848161849711
 20
132.2412993807431
 30
0.0
 10
117.4853585633029
 20
132.2183057054405
 30
0.0
 10
117.4864437302289
 20
132.1723009621082
 30
0.0
 10
117.4962268755415
 20
132.1067579985098
 30
0.0
 10
117.5169069489699
 20
132.0323918025689
 30
0.0
 10
117.5532082227697
 20
131.9531202476655
 30
0.0
 10
117.5983174031342
 20
131.9010700568522
 30
0.0
 10
117.6197994001721
 20
131.8762825959442
 30
0.0
  0
LINE
  5
1FD
330
1F
100
AcDbEntity
  8
0
  6
Continuous
 62
     7
370
    25
100
AcDbLine
 10
117.4848161328
 20
134.9996420194
 30
0.0
 11
117.4848161328
 21
132.2412992466
 31
0.0
  0
LINE
  5
1FE
330
1F
100
AcDbEntity
  8
0
  6
Continuous
 62
     7
370
    25
100
AcDbLine
 10
119.7431588236
 20
132.2412992466
 30
0.0
 11
117.9848162148
 21
132.2412992466
 31
0.0
  0
SPLINE
  5
1FF
330
1F
100
AcDbEntity
  8
0
  6
Continuous
 62
     7
370
    25
100
AcDbSpline
210
0.0
220
0.0
230
1.0
 70
    24
 71
     3
 72
    10
 73
     6
 74
     0
 42
0.000000001
 43
0.00000001
 40
0.0
 40
0.0
 40
0.0
 40
0.0
 40
0.5
 40
0.5
 40
1.0
 40
1.0
 40
1.0
 40
1.0
 10
120.8867399736267
 20
145.5091112006135
 30
0.0
 10
120.8867399736267
 20
145.5798731804154
 30
0.0
 10
120.8867399736267
 20
145.639045947386
 30
0.0
 10
120.8867399736267
 20
145.7198015344248
 30
0.0
 10
120.8867399736267
 20
145.7412993807432
 30
0.0
 10
120.8867399736267
 20
145.7412993807432
 30
0.0
  0
SPLINE
  5
200
330
1F
100
AcDbEntity
  8
0
  6
Continuous
 62
     7
370
    25
100
AcDbSpline
210
0.0
220
0.0
230
1.0
 70
     8
 71
     3
 72
    13
 73
     9
 74
     0
 42
0.000000001
 43
0.00000001
 40
0.0
 40
0.0
 40
0.0
 40
0.0
 40
0.1206933490086504
 40
0.2506350407931719
 40
0.4049364355086124
 40
0.5013752757898843
 40
0.7702865166460683
 40
0.9999999999999999
 40
0.9999999999999999
 40
0.9999999999999999
 40
0.9999999999999999
 10
117.9847701169259
 20
145.7412993807432
 30
0.0
 10
117.9697925625903
 20
145.7409116657498
 30
0.0
 10
117.9386897721487
 20
145.7401065264113
 30
0.0
 10
117.8876049310478
 20
145.7331565109377
 30
0.0
 10
117.8394156930034
 20
145.7223661956072
 30
0.0
 10
117.7742526829862
 20
145.7017464044596
 30
0.0
 10
117.7013283070648
 20
145.6692387173205
 30
0.0
 10
117.6455131262981
 20
145.6261615593447
 30
0.0
 10
117.6197994001721
 20
145.6063161655421
 30
0.0
  0
LINE
  5
201
330
1F
100
AcDbEntity
  8
0
  6
Continuous
 62
     7
370
    25
100
AcDbLine
 10
117.9847701143
 20
145.7412995968
 30
0.0
 11
120.8867400575
 21
145.7412995968
 31
0.0
  0
SPLINE
  5
202
330
1F
100
AcDbEntity
  8
0
  6
Continuous
 62
     7
370
    25
100
AcDbSpline
210
0.0
220
0.0
230
1.0
 70
    24
 71
     3
 72
    10
 73
     6
 74
     0
 42
0.000000001
 43
0.00000001
 40
0.0
 40
0.0
 40
0.0
 40
0.0
 40
0.5
 40
0.5
 40
1.0
 40
1.0
 40
1.0
 40
1.0
 10
126.0828923963245
 20
145.7412993807432
 30
0.0
 10
126.0828923963245
 20
145.7412993807432
 30
0.0
 10
126.0828923963245
 20
145.7198015344248
 30
0.0
 10
126.0828923963245
 20
145.639045947386
 30
0.0
 10
126.0828923963245
 20
145.5798731804154
 30
0.0
 10
126.0828923963245
 20
145.5091112006135
 30
0.0
  0
SPLINE
  5
203
330
1F
100
AcDbEntity
  8
0
  6
Continuous
 62
     7
370
    25
100
AcDbSpline
210
0.0
220
0.0
230
1.0
 70
     8
 71
     3
 72
    14
 73
    10
 74
     0
 42
0.000000001
 43
0.00000001
 40
0.0
 40
0.0
 40
0.0
 40
0.0
 40
0.1488603140964728
 40
0.3150272284381161
 40
0.4987644934539461
 40
0.5951852670853452
 40
0.7494348315821825
 40
0.8793203117440467
 40
1.0
 40
1.0
 40
1.0
 40
1.0
 10
129.3498329697702
 20
145.6063161655423
 30
0.0
 10
129.3333545920283
 20
145.6195595226085
 30
0.0
 10
129.2984820492642
 20
145.6475859183416
 30
0.0
 10
129.2393316958601
 20
145.6816554714642
 30
0.0
 10
129.1847551776556
 20
145.7052093608171
 30
0.0
 10
129.1301990362087
 20
145.7223384327462
 30
0.0
 10
129.0820332543578
 20
145.7331634732484
 30
0.0
 10
129.0309440363912
 20
145.7401047081971
 30
0.0
 10
128.99984194944
 20
145.7409110313618
 30
0.0
 10
128.9848622530158
 20
145.7412993807432
 30
0.0
  0
LINE
  5
204
330
1F
100
AcDbEntity
  8
0
  6
Continuous
 62
     7
370
    25
100
AcDbLine
 10
126.0828923124
 20
145.7412995968
 30
0.0
 11
128.9848622556
 21
145.7412995968
 31
0.0
  0
SPLINE
  5
205
330
1F
100
AcDbEntity
  8
0
  6
Continuous
 62
     7
370
    25
100
AcDbSpline
210
0.0
220
0.0
230
1.0
 70
    24
 71
     3
 72
    10
 73
     6
 74
     0
 42
0.000000001
 43
0.00000001
 40
0.0
 40
0.0
 40
0.0
 40
0.0
 40
0.5
 40
0.5
 40
1.0
 40
1.0
 40
1.0
 40
1.0
 10
120.8867399736178
 20
131.7412993807431
 30
0.0
 10
120.8867399736178
 20
131.7412993807431
 30
0.0
 10
120.8867399736178
 20
131.7627972270614
 30
0.0
 10
120.8867399736178
 20
131.8435528141003
 30
0.0
 10
120.8867399736178
 20
131.9027255810709
 30
0.0
 10
120.8867399736178
 20
131.9734875608727
 30
0.0
  0
SPLINE
  5
206
330
1F
100
AcDbEntity
  8
0
  6
Continuous
 62
     7
370
    25
100
AcDbSpline
210
0.0
220
0.0
230
1.0
 70
     8
 71
     3
 72
    14
 73
    10
 74
     0
 42
0.000000001
 43
0.00000001
 40
0.0
 40
0.0
 40
0.0
 40
0.0
 40
0.1488603597576148
 40
0.3150273328471772
 40
0.4987646698883385
 40
0.5951853465608922
 40
0.7494349165377944
 40
0.8793203508289453
 40
1.0
 40
1.0
 40
1.0
 40
1.0
 10
117.6197994001722
 20
131.8762825959442
 30
0.0
 10
117.6362777830865
 20
131.8630392350429
 30
0.0
 10
117.6711503376576
 20
131.8350128305022
 30
0.0
 10
117.7303007133878
 20
131.80094326929
 30
0.0
 10
117.7848772368384
 20
131.7773893838919
 30
0.0
 10
117.8394333770373
 20
131.7602603178213
 30
0.0
 10
117.8875991414287
 20
131.749435283819
 30
0.0
 10
117.9386883490139
 20
131.7424940525015
 30
0.0
 10
117.9697904253749
 20
131.7416877298724
 30
0.0
 10
117.9847701169259
 20
131.7412993807431
 30
0.0
  0
LINE
  5
207
330
1F
100
AcDbEntity
  8
0
  6
Continuous
 62
     7
370
    25
100
AcDbLine
 10
117.9847701143
 20
131.7412991647
 30
0.0
 11
120.8867400575
 21
131.7412991647
 31
0.0
  0
SPLINE
  5
208
330
1F
100
AcDbEntity
  8
0
  6
Continuous
 62
     7
370
    25
100
AcDbSpline
210
0.0
220
0.0
230
1.0
 70
    24
 71
     3
 72
    10
 73
     6
 74
     0
 42
0.000000001
 43
0.00000001
 40
0.0
 40
0.0
 40
0.0
 40
0.0
 40
0.5
 40
0.5
 40
1.0
 40
1.0
 40
1.0
 40
1.0
 10
126.0828923963155
 20
131.9734875608727
 30
0.0
 10
126.0828923963155
 20
131.9027255810709
 30
0.0
 10
126.0828923963155
 20
131.8435528141003
 30
0.0
 10
126.0828923963155
 20
131.7627972270614
 30
0.0
 10
126.0828923963155
 20
131.7412993807431
 30
0.0
 10
126.0828923963155
 20
131.7412993807431
 30
0.0
  0
SPLINE
  5
209
330
1F
100
AcDbEntity
  8
0
  6
Continuous
 62
     7
370
    25
100
AcDbSpline
210
0.0
220
0.0
230
1.0
 70
     8
 71
     3
 72
    13
 73
     9
 74
     0
 42
0.000000001
 43
0.00000001
 40
0.0
 40
0.0
 40
0.0
 40
0.0
 40
0.1206933106363776
 40
0.2506349558809258
 40
0.4049363551860728
 40
0.501375099440844
 40
0.7702864432344702
 40
1.0
 40
1.0
 40
1.0
 40
1.0
 10
128.9848622530164
 20
131.7412993807431
 30
0.0
 10
128.9998398025641
 20
131.741687095489
 30
0.0
 10
129.0309425824142
 20
131.7424922342968
 30
0.0
 10
129.0820274130201
 20
131.7494422461301
 30
0.0
 10
129.1302166335212
 20
131.7602325549396
 30
0.0
 10
129.1953796464179
 20
131.7808523403386
 30
0.0
 10
129.2683040339899
 20
131.8133600243527
 30
0.0
 10
129.3241192351333
 20
131.8564371963559
 30
0.0
 10
129.3498329697701
 20
131.8762825959442
 30
0.0
  0
LINE
  5
20A
330
1F
100
AcDbEntity
  8
0
  6
Continuous
 62
     7
370
    25
100
AcDbLine
 10
126.0828923124
 20
131.7412991647
 30
0.0
 11
128.9848622556
 21
131.7412991647
 31
0.0
  0
SPLINE
  5
20B
330
1F
100
AcDbEntity
  8
0
  6
Continuous
 62
     7
370
    25
100
AcDbSpline
210
0.0
220
0.0
230
1.0
 70
    24
 71
     3
 72
    14
 73
    10
 74
     0
 42
0.000000001
 43
0.00000001
 40
0.0
 40
0.0
 40
0.0
 40
0.0
 40
0.2503841006840345
 40
0.3856977520239709
 40
0.5014304172375459
 40
0.6388330237075766
 40
0.767498519821732
 40
0.8877539750359934
 40
1.0
 40
1.0
 40
1.0
 40
1.0
 10
123.4848161849711
 20
145.7412993807432
 30
0.0
 10
123.6982495635347
 20
145.7412993807432
 30
0.0
 10
124.0270275254498
 20
145.7412993807432
 30
0.0
 10
124.4561569877465
 20
145.7412993807432
 30
0.0
 10
124.790455906352
 20
145.7412993807432
 30
0.0
 10
125.1216973977998
 20
145.7412993807432
 30
0.0
 10
125.4597039498034
 20
145.7412993807432
 30
0.0
 10
125.7778602136685
 20
145.7412993807432
 30
0.0
 10
125.9835772468933
 20
145.7412993807432
 30
0.0
 10
126.0828923963245
 20
145.7412993807432
 30
0.0
  0
SPLINE
  5
20C
330
1F
100
AcDbEntity
  8
0
  6
Continuous
 62
     7
370
    25
100
AcDbSpline
210
0.0
220
0.0
230
1.0
 70
    24
 71
     3
 72
    16
 73
    12
 74
     0
 42
0.000000001
 43
0.00000001
 40
0.0
 40
0.0
 40
0.0
 40
0.0
 40
0.0740422904960615
 40
0.1515489802102759
 40
0.232650602936458
 40
0.3174610949583576
 40
0.406080088379551
 40
0.4985949116393214
 40
0.6144269189413111
 40
0.7496266544111689
 40
1.0
 40
1.0
 40
1.0
 40
1.0
 10
120.8867399736178
 20
145.7412993807432
 30
0.0
 10
120.9522528695192
 20
145.7412993807432
 30
0.0
 10
121.0863439747234
 20
145.7412993807432
 30
0.0
 10
121.2917766864831
 20
145.7412993807432
 30
0.0
 10
121.505982562401
 20
145.7412993807432
 30
0.0
 10
121.7289634462522
 20
145.7412993807432
 30
0.0
 10
121.9607268424364
 20
145.7412993807432
 30
0.0
 10
122.2180244425718
 20
145.7412993807432
 30
0.0
 10
122.5137275355742
 20
145.7412993807432
 30
0.0
 10
122.9428580520622
 20
145.7412993807432
 30
0.0
 10
123.2714462135086
 20
145.7412993807432
 30
0.0
 10
123.4848161849711
 20
145.7412993807432
 30
0.0
  0
SPLINE
  5
20D
330
1F
100
AcDbEntity
  8
0
  6
Continuous
 62
     7
370
    25
100
AcDbSpline
210
0.0
220
0.0
230
1.0
 70
    24
 71
     3
 72
    10
 73
     6
 74
     0
 42
0.000000001
 43
0.00000001
 40
-0.796694357225795
 40
-0.796694357225795
 40
-0.796694357225795
 40
-0.796694357225795
 40
-0.533073702210409
 40
-0.533073702210409
 40
-0.532116113157305
 40
-0.532116113157305
 40
-0.532116113157305
 40
-0.532116113157305
 10
120.8867399736178
 20
131.7412993807431
 30
0.0
 10
121.7654754903342
 20
131.7412993807431
 30
0.0
 10
122.6277634262691
 20
131.7412993807434
 30
0.0
 10
123.4786672266291
 20
131.7412993807431
 30
0.0
 10
123.4817403319691
 20
131.7412993807431
 30
0.0
 10
123.4848161849711
 20
131.7412993807431
 30
0.0
  0
SPLINE
  5
20E
330
1F
100
AcDbEntity
  8
0
  6
Continuous
 62
     7
370
    25
100
AcDbSpline
210
0.0
220
0.0
230
1.0
 70
    24
 71
     3
 72
    10
 73
     6
 74
     0
 42
0.000000001
 43
0.00000001
 40
-0.263620655015386
 40
-0.263620655015386
 40
-0.263620655015386
 40
-0.263620655015386
 40
-0.2626630659468851
 40
-0.2626630659468851
 40
0.0009575890685009
 40
0.0009575890685009
 40
0.0009575890685009
 40
0.0009575890685009
 10
123.4848161849711
 20
131.7412993807431
 30
0.0
 10
123.4878920380226
 20
131.7412993807431
 30
0.0
 10
123.490966036328
 20
131.7412993807431
 30
0.0
 10
124.3415184018367
 20
131.741299380743
 30
0.0
 10
125.2041568796065
 20
131.7412993807431
 30
0.0
 10
126.0828923963245
 20
131.7412993807431
 30
0.0
  0
SPLINE
  5
20F
330
1F
100
AcDbEntity
  8
0
  6
Continuous
 62
     7
370
    25
100
AcDbSpline
210
0.0
220
0.0
230
1.0
 70
    24
 71
     3
 72
    10
 73
     6
 74
     0
 42
0.000000001
 43
0.00000001
 40
0.0
 40
0.0
 40
0.0
 40
0.0
 40
0.5
 40
0.5
 40
1.0
 40
1.0
 40
1.0
 40
1.0
 10
117.4848161849711
 20
145.2412993807432
 30
0.0
 10
117.4848161898864
 20
145.2412993807432
 30
0.0
 10
117.3770430930063
 20
145.2412993807432
 30
0.0
 10
117.0068028393091
 20
145.2412993807432
 30
0.0
 10
116.7466155602535
 20
145.2412993807432
 30
0.0
 10
116.484816166196
 20
145.2412993807432
 30
0.0
  0
SPLINE
  5
210
330
1F
100
AcDbEntity
  8
0
  6
Continuous
 62
     7
370
    25
100
AcDbSpline
210
0.0
220
0.0
230
1.0
 70
     8
 71
     3
 72
    12
 73
     8
 74
     0
 42
0.000000001
 43
0.00000001
 40
0.0
 40
0.0
 40
0.0
 40
0.0
 40
0.1664616487437876
 40
0.3330491329443992
 40
0.500193847829015
 40
0.7619811613088653
 40
1.0
 40
1.0
 40
1.0
 40
1.0
 10
116.4848161661977
 20
145.2412993807432
 30
0.0
 10
116.4668423423966
 20
145.2642930657385
 30
0.0
 10
116.4308811076147
 20
145.3102978176358
 30
0.0
 10
116.3731641793325
 20
145.3758407816438
 30
0.0
 10
116.3028794700059
 20
145.4502069673586
 30
0.0
 10
116.2235367152579
 20
145.529478511987
 30
0.0
 10
116.1690556432378
 20
145.5815287033479
 30
0.0
 10
116.1431105414487
 20
145.6063161655421
 30
0.0
  0
SPLINE
  5
211
330
1F
100
AcDbEntity
  8
0
  6
Continuous
 62
     7
370
    25
100
AcDbSpline
210
0.0
220
0.0
230
1.0
 70
     8
 71
     3
 72
    14
 73
    10
 74
     0
 42
0.000000001
 43
0.00000001
 40
0.0
 40
0.0
 40
0.0
 40
0.0
 40
0.1488603139315083
 40
0.3150272282737267
 40
0.4987644934547347
 40
0.5951852632716568
 40
0.749434831581739
 40
0.879320313901446
 40
1.0
 40
1.0
 40
1.0
 40
1.0
 10
116.1431105414487
 20
145.6063161655421
 30
0.0
 10
116.1583212940909
 20
145.619559522594
 30
0.0
 10
116.1905112117274
 20
145.6475859183129
 30
0.0
 10
116.2451352223441
 20
145.6816554714402
 30
0.0
 10
116.2958408789684
 20
145.7052093606148
 30
0.0
 10
116.3458575204604
 20
145.7223384326119
 30
0.0
 10
116.3905312316403
 20
145.7331634732472
 30
0.0
 10
116.4391085035431
 20
145.7401047082232
 30
0.0
 10
116.4699580971622
 20
145.740911031375
 30
0.0
 10
116.4848161849711
 20
145.7412993807432
 30
0.0
  0
SPLINE
  5
212
330
1F
100
AcDbEntity
  8
0
  6
Continuous
 62
     7
370
    25
100
AcDbSpline
210
0.0
220
0.0
230
1.0
 70
    24
 71
     3
 72
    13
 73
     9
 74
     0
 42
0.000000001
 43
0.00000001
 40
0.0
 40
0.0
 40
0.0
 40
0.0
 40
0.1847371487918729
 40
0.3690894761192522
 40
0.5535890758358414
 40
0.7381972723018706
 40
0.9224589043912812
 40
0.9999999999999999
 40
0.9999999999999999
 40
0.9999999999999999
 40
0.9999999999999999
 10
116.4848159689043
 20
145.74129959681
 30
0.0
 10
116.5831320798541
 20
145.74129959681
 30
0.0
 10
116.7795595018527
 20
145.74129959681
 30
0.0
 10
117.0623677446006
 20
145.74129959681
 30
0.0
 10
117.3242927430802
 20
145.74129959681
 30
0.0
 10
117.5501017352037
 20
145.74129959681
 30
0.0
 10
117.7092333385054
 20
145.74129959681
 30
0.0
 10
117.7716453923228
 20
145.74129959681
 30
0.0
 10
117.7901306811307
 20
145.74129959681
 30
0.0
  0
SPLINE
  5
213
330
1F
100
AcDbEntity
  8
0
  6
Continuous
 62
     7
370
    25
100
AcDbSpline
210
0.0
220
0.0
230
1.0
 70
    24
 71
     3
 72
    10
 73
     6
 74
     0
 42
0.000000001
 43
0.00000001
 40
0.0
 40
0.0
 40
0.0
 40
0.0
 40
0.5
 40
0.5
 40
1.0
 40
1.0
 40
1.0
 40
1.0
 10
129.4848161849711
 20
132.2412993807431
 30
0.0
 10
129.4848161849711
 20
132.2412993807431
 30
0.0
 10
129.5925892840488
 20
132.2412993807431
 30
0.0
 10
129.9628295367963
 20
132.2412993807431
 30
0.0
 10
130.2230168128179
 20
132.2412993807431
 30
0.0
 10
130.4848162037462
 20
132.2412993807431
 30
0.0
  0
SPLINE
  5
214
330
1F
100
AcDbEntity
  8
0
  6
Continuous
 62
     7
370
    25
100
AcDbSpline
210
0.0
220
0.0
230
1.0
 70
     8
 71
     3
 72
    12
 73
     8
 74
     0
 42
0.000000001
 43
0.00000001
 40
0.0
 40
0.0
 40
0.0
 40
0.0
 40
0.1664616503807027
 40
0.3330491366093241
 40
0.5001938540683241
 40
0.7619811741357122
 40
1.0
 40
1.0
 40
1.0
 40
1.0
 10
130.4848162037445
 20
132.2412993807431
 30
0.0
 10
130.5027900274963
 20
132.2183056953398
 30
0.0
 10
130.5387512622216
 20
132.1723009425721
 30
0.0
 10
130.596468191295
 20
132.1067579777618
 30
0.0
 10
130.6667529027874
 20
132.0323917915422
 30
0.0
 10
130.7460956572304
 20
131.9531202478827
 30
0.0
 10
130.8005767282535
 20
131.9010700569216
 30
0.0
 10
130.8265218284934
 20
131.8762825959442
 30
0.0
  0
SPLINE
  5
215
330
1F
100
AcDbEntity
  8
0
  6
Continuous
 62
     7
370
    25
100
AcDbSpline
210
0.0
220
0.0
230
1.0
 70
     8
 71
     3
 72
    14
 73
    10
 74
     0
 42
0.000000001
 43
0.00000001
 40
0.0
 40
0.0
 40
0.0
 40
0.0
 40
0.1488603598374869
 40
0.3150273329269794
 40
0.4987646698885773
 40
0.5951853465829806
 40
0.7494349165379153
 40
0.8793203509512854
 40
1.0
 40
1.0
 40
1.0
 40
1.0
 10
130.8265218284934
 20
131.8762825959441
 30
0.0
 10
130.8113110710731
 20
131.8630392350359
 30
0.0
 10
130.7791211425578
 20
131.8350128304882
 30
0.0
 10
130.72449711145
 20
131.8009432692793
 30
0.0
 10
130.6737914490103
 20
131.7773893838877
 30
0.0
 10
130.6237748094379
 20
131.7602603178209
 30
0.0
 10
130.5791011139107
 20
131.749435283815
 30
0.0
 10
130.5305238514331
 20
131.7424940525001
 30
0.0
 10
130.4996742682365
 20
131.7416877298717
 30
0.0
 10
130.4848161849711
 20
131.7412993807431
 30
0.0
  0
SPLINE
  5
216
330
1F
100
AcDbEntity
  8
0
  6
Continuous
 62
     7
370
    25
100
AcDbSpline
210
0.0
220
0.0
230
1.0
 70
    24
 71
     3
 72
    19
 73
    15
 74
     0
 42
0.000000001
 43
0.00000001
 40
0.0
 40
0.0
 40
0.0
 40
0.0
 40
0.0504323727096602
 40
0.1003565609003688
 40
0.1500822900423565
 40
0.199922985600599
 40
0.2501899225630071
 40
0.3750855037480327
 40
0.5000544104076973
 40
0.624788718511343
 40
0.7499189120354135
 40
0.8333029051590075
 40
0.916179120395655
 40
1.0
 40
1.0
 40
1.0
 40
1.0
 10
130.4848161849711
 20
131.7412993807431
 30
0.0
 10
130.4452352162666
 20
131.7412993807431
 30
0.0
 10
130.3664721186198
 20
131.7412993807431
 30
0.0
 10
130.2493916763655
 20
131.7412993807431
 30
0.0
 10
130.1342282675095
 20
131.7412993807431
 30
0.0
 10
130.0209815518502
 20
131.7412993807431
 30
0.0
 10
129.8552998661304
 20
131.7412993807431
 30
0.0
 10
129.6458000622174
 20
131.7412993807431
 30
0.0
 10
129.4176309577677
 20
131.7412993807431
 30
0.0
 10
129.2292812820712
 20
131.7412993807431
 30
0.0
 10
129.1056544284436
 20
131.7412993807431
 30
0.0
 10
129.0318556989825
 20
131.7412993807431
 30
0.0
 10
128.992124650767
 20
131.7412993807431
 30
0.0
 10
128.9872921807245
 20
131.7412993807431
 30
0.0
 10
128.9848622530163
 20
131.7412993807431
 30
0.0
  0
SPLINE
  5
217
330
1F
100
AcDbEntity
  8
0
  6
Continuous
 62
     7
370
    25
100
AcDbSpline
210
0.0
220
0.0
230
1.0
 70
     8
 71
     3
 72
    13
 73
     9
 74
     0
 42
0.000000001
 43
0.00000001
 40
0.0
 40
0.0
 40
0.0
 40
0.0
 40
0.1162222239446788
 40
0.2381780213507807
 40
0.3660917905398808
 40
0.5001580142687957
 40
0.7504239388759752
 40
1.0
 40
1.0
 40
1.0
 40
1.0
 10
116.1431105414487
 20
131.8762825959442
 30
0.0
 10
116.1555585520662
 20
131.8881200542744
 30
0.0
 10
116.1810686691333
 20
131.9123789464828
 30
0.0
 10
116.2225758421492
 20
131.9526651048398
 30
0.0
 10
116.2671685928547
 20
131.9968222957866
 30
0.0
 10
116.327674676159
 20
132.05823657108
 30
0.0
 10
116.4030784598217
 20
132.1382673730919
 30
0.0
 10
116.4575953448041
 20
132.2069869929548
 30
0.0
 10
116.4848161661977
 20
132.2412993807431
 30
0.0
  0
SPLINE
  5
218
330
1F
100
AcDbEntity
  8
0
  6
Continuous
 62
     7
370
    25
100
AcDbSpline
210
0.0
220
0.0
230
1.0
 70
    24
 71
     3
 72
    10
 73
     6
 74
     0
 42
0.000000001
 43
0.00000001
 40
0.0
 40
0.0
 40
0.0
 40
0.0
 40
0.5
 40
0.5
 40
1.0
 40
1.0
 40
1.0
 40
1.0
 10
116.484816166196
 20
132.2412993807431
 30
0.0
 10
116.7466155602535
 20
132.2412993807431
 30
0.0
 10
117.0068028393091
 20
132.2412993807431
 30
0.0
 10
117.3770430930063
 20
132.2412993807431
 30
0.0
 10
117.4848161898864
 20
132.2412993807431
 30
0.0
 10
117.4848161849711
 20
132.2412993807431
 30
0.0
  0
SPLINE
  5
219
330
1F
100
AcDbEntity
  8
0
  6
Continuous
 62
     7
370
    25
100
AcDbSpline
210
0.0
220
0.0
230
1.0
 70
     8
 71
     3
 72
    13
 73
     9
 74
     0
 42
0.000000001
 43
0.00000001
 40
0.0
 40
0.0
 40
0.0
 40
0.0
 40
0.1206933098378984
 40
0.2506349558807637
 40
0.4049363563536673
 40
0.5013750994399903
 40
0.7702864430522399
 40
1.0
 40
1.0
 40
1.0
 40
1.0
 10
116.4848161849711
 20
131.7412993807431
 30
0.0
 10
116.4699604067792
 20
131.7416870954841
 30
0.0
 10
116.4391105003785
 20
131.742492234287
 30
0.0
 10
116.3905353487613
 20
131.7494422461264
 30
0.0
 10
116.345845666376
 20
131.7602325549818
 30
0.0
 10
116.2860819570342
 20
131.7808523403935
 30
0.0
 10
116.2182899439867
 20
131.8133600243371
 30
0.0
 10
116.1668216716083
 20
131.8564371963403
 30
0.0
 10
116.1431105414487
 20
131.8762825959442
 30
0.0
  0
SPLINE
  5
21A
330
1F
100
AcDbEntity
  8
0
  6
Continuous
 62
     7
370
    25
100
AcDbSpline
210
0.0
220
0.0
230
1.0
 70
    24
 71
     3
 72
    15
 73
    11
 74
     0
 42
0.000000001
 43
0.00000001
 40
0.0
 40
0.0
 40
0.0
 40
0.0
 40
0.0773540380250167
 40
0.2090383635081344
 40
0.3408278868236665
 40
0.4726949816562334
 40
0.6043145228135464
 40
0.7363516072578885
 40
0.8679155168002607
 40
1.0
 40
1.0
 40
1.0
 40
1.0
 10
117.9729241568182
 20
131.7412991646763
 30
0.0
 10
117.9691367290337
 20
131.7412991646763
 30
0.0
 10
117.9589017403222
 20
131.7412991646763
 30
0.0
 10
117.877688481682
 20
131.7412991646763
 30
0.0
 10
117.740911372589
 20
131.7412991646763
 30
0.0
 10
117.5521522790046
 20
131.7412991646763
 30
0.0
 10
117.3239738177353
 20
131.7412991646763
 30
0.0
 10
117.0627450918808
 20
131.7412991646763
 30
0.0
 10
116.779638154269
 20
131.7412991646763
 30
0.0
 10
116.5832193070071
 20
131.7412991646763
 30
0.0
 10
116.4848159689043
 20
131.7412991646763
 30
0.0
  0
SPLINE
  5
21B
330
1F
100
AcDbEntity
  8
0
  6
Continuous
 62
     7
370
    25
100
AcDbSpline
210
0.0
220
0.0
230
1.0
 70
     8
 71
     3
 72
    13
 73
     9
 74
     0
 42
0.000000001
 43
0.00000001
 40
0.0
 40
0.0
 40
0.0
 40
0.0
 40
0.1162222328345675
 40
0.2381780342187649
 40
0.3660918025068102
 40
0.5001580205070525
 40
0.7504239414864089
 40
0.9999999999999999
 40
0.9999999999999999
 40
0.9999999999999999
 40
0.9999999999999999
 10
130.8265218284934
 20
145.6063161655421
 30
0.0
 10
130.8140738168859
 20
145.5944787063306
 30
0.0
 10
130.7885636983628
 20
145.5702198128608
 30
0.0
 10
130.7470565236518
 20
145.529933653269
 30
0.0
 10
130.7024637730822
 20
145.4857764625058
 30
0.0
 10
130.6419576914524
 20
145.4243621876848
 30
0.0
 10
130.5665539100741
 20
145.3443313864033
 30
0.0
 10
130.5120370251594
 20
145.2756117679147
 30
0.0
 10
130.4848162037445
 20
145.2412993807432
 30
0.0
  0
SPLINE
  5
21C
330
1F
100
AcDbEntity
  8
0
  6
Continuous
 62
     7
370
    25
100
AcDbSpline
210
0.0
220
0.0
230
1.0
 70
    24
 71
     3
 72
    10
 73
     6
 74
     0
 42
0.000000001
 43
0.00000001
 40
0.0
 40
0.0
 40
0.0
 40
0.0
 40
0.5
 40
0.5
 40
1.0
 40
1.0
 40
1.0
 40
1.0
 10
130.4848162037462
 20
145.2412993807432
 30
0.0
 10
130.2230168128179
 20
145.2412993807432
 30
0.0
 10
129.9628295367963
 20
145.2412993807432
 30
0.0
 10
129.5925892840488
 20
145.2412993807432
 30
0.0
 10
129.4848161849711
 20
145.2412993807432
 30
0.0
 10
129.4848161849711
 20
145.2412993807432
 30
0.0
  0
SPLINE
  5
21D
330
1F
100
AcDbEntity
  8
0
  6
Continuous
 62
     7
370
    25
100
AcDbSpline
210
0.0
220
0.0
230
1.0
 70
     8
 71
     3
 72
    13
 73
     9
 74
     0
 42
0.000000001
 43
0.00000001
 40
0.0
 40
0.0
 40
0.0
 40
0.0
 40
0.1206933478353882
 40
0.25063504079335
 40
0.4049364375708385
 40
0.5013752757893005
 40
0.7702865166940487
 40
1.0
 40
1.0
 40
1.0
 40
1.0
 10
130.4848161849711
 20
145.7412993807432
 30
0.0
 10
130.4996719678287
 20
145.7409116657569
 30
0.0
 10
130.5305218846575
 20
145.7401065264255
 30
0.0
 10
130.5790970454429
 20
145.7331565109372
 30
0.0
 10
130.6237867433703
 20
145.7223661955345
 30
0.0
 10
130.6835504509877
 20
145.7017464043477
 30
0.0
 10
130.7513424523342
 20
145.6692387173155
 30
0.0
 10
130.8028107061164
 20
145.6261615593402
 30
0.0
 10
130.8265218284934
 20
145.6063161655421
 30
0.0
  0
SPLINE
  5
21E
330
1F
100
AcDbEntity
  8
0
  6
Continuous
 62
     7
370
    25
100
AcDbSpline
210
0.0
220
0.0
230
1.0
 70
    24
 71
     3
 72
    15
 73
    11
 74
     0
 42
0.000000001
 43
0.00000001
 40
0.0
 40
0.0
 40
0.0
 40
0.0
 40
0.0773540380250167
 40
0.2090383635081344
 40
0.3408278868236665
 40
0.4726949816562334
 40
0.6043145228135464
 40
0.7363516072578885
 40
0.8679155168002607
 40
1.0
 40
1.0
 40
1.0
 40
1.0
 10
128.9967082131241
 20
145.74129959681
 30
0.0
 10
129.0004956409086
 20
145.74129959681
 30
0.0
 10
129.01073062962
 20
145.74129959681
 30
0.0
 10
129.0919438882602
 20
145.74129959681
 30
0.0
 10
129.2287209973532
 20
145.74129959681
 30
0.0
 10
129.4174800909376
 20
145.74129959681
 30
0.0
 10
129.645658552207
 20
145.74129959681
 30
0.0
 10
129.9068872780615
 20
145.74129959681
 30
0.0
 10
130.1899942156733
 20
145.74129959681
 30
0.0
 10
130.3864130629351
 20
145.74129959681
 30
0.0
 10
130.484816401038
 20
145.74129959681
 30
0.0
  0
SPLINE
  5
21F
330
1F
100
AcDbEntity
  8
0
  6
Continuous
 62
     7
370
    25
100
AcDbSpline
210
0.0
220
0.0
230
1.0
 70
     8
 71
     3
 72
    10
 73
     6
 74
     0
 42
0.000000001
 43
0.00000001
 40
0.0
 40
0.0
 40
0.0
 40
0.0
 40
0.0070005206316469
 40
0.0210015618949408
 40
0.0490036444215285
 40
0.0490036444215285
 40
0.0490036444215285
 40
0.0490036444215285
 10
117.4848161849711
 20
142.4829567675171
 30
0.0
 10
117.4848161849711
 20
142.4829567675171
 30
0.0
 10
117.474949384067
 20
142.474377168478
 30
0.0
 10
117.3886302786813
 20
142.3990412583661
 30
0.0
 10
117.2705831482545
 20
142.2914004095534
 30
0.0
 10
117.1919229661577
 20
142.2161731148961
 30
0.0
  0
SPLINE
  5
220
330
1F
100
AcDbEntity
  8
0
  6
Continuous
 62
     7
370
    25
100
AcDbSpline
210
0.0
220
0.0
230
1.0
 70
     8
 71
     3
 72
    10
 73
     6
 74
     0
 42
0.000000001
 43
0.00000001
 40
0.0
 40
0.0
 40
0.0
 40
0.0
 40
0.0280000153919106
 40
0.0420000230878659
 40
0.0490000269358435
 40
0.0490000269358435
 40
0.0490000269358435
 40
0.0490000269358435
 10
117.1919229661577
 20
142.2161731148961
 30
0.0
 10
117.1132749989524
 20
142.2913887277441
 30
0.0
 10
116.9608729178595
 20
142.3990418297051
 30
0.0
 10
116.6734556543941
 20
142.4743760620468
 30
0.0
 10
116.531482877291
 20
142.4829567675171
 30
0.0
 10
116.4848161849711
 20
142.4829567675171
 30
0.0
  0
LINE
  5
221
330
1F
100
AcDbEntity
  8
0
  6
Continuous
 62
     7
370
    25
100
AcDbLine
 10
116.4848159689
 20
142.4829567421
 30
0.0
 11
116.4848159689
 21
145.2412995149
 31
0.0
  0
SPLINE
  5
222
330
1F
100
AcDbEntity
  8
0
  6
Continuous
 62
     7
370
    25
100
AcDbSpline
210
0.0
220
0.0
230
1.0
 70
     8
 71
     3
 72
    10
 73
     6
 74
     0
 42
0.000000001
 43
0.00000001
 40
0.0
 40
0.0
 40
0.0
 40
0.0
 40
0.0140010412632937
 40
0.0210015618949405
 40
0.0490036444215279
 40
0.0490036444215279
 40
0.0490036444215279
 40
0.0490036444215279
 10
129.4848161849711
 20
134.9996419939692
 30
0.0
 10
129.4848161849711
 20
134.9996419939692
 30
0.0
 10
129.5055739005022
 20
135.0176134581925
 30
0.0
 10
129.6010204765448
 20
135.1017769660664
 30
0.0
 10
129.6990492216878
 20
135.1911983519328
 30
0.0
 10
129.7777094037846
 20
135.2664256465902
 30
0.0
  0
SPLINE
  5
223
330
1F
100
AcDbEntity
  8
0
  6
Continuous
 62
     7
370
    25
100
AcDbSpline
210
0.0
220
0.0
230
1.0
 70
     8
 71
     3
 72
    10
 73
     6
 74
     0
 42
0.000000001
 43
0.00000001
 40
0.366355545301569
 40
0.366355545301569
 40
0.366355545301569
 40
0.366355545301569
 40
0.38735710719651
 40
0.401358148459804
 40
0.415359189723098
 40
0.415359189723098
 40
0.415359189723098
 40
0.415359189723098
 10
129.7777094037846
 20
135.2664256465902
 30
0.0
 10
129.8367045403572
 20
135.2100051755972
 30
0.0
 10
129.9573330356555
 20
135.1205792999467
 30
0.0
 10
130.2062447757197
 20
135.0242445679754
 30
0.0
 10
130.3914759098825
 20
134.9996419939692
 30
0.0
 10
130.4848161849711
 20
134.9996419939692
 30
0.0
  0
LINE
  5
224
330
1F
100
AcDbEntity
  8
0
  6
Continuous
 62
     7
370
    25
100
AcDbLine
 10
130.484816401
 20
134.9996420194
 30
0.0
 11
130.484816401
 21
132.2412992466
 31
0.0
  0
SPLINE
  5
225
330
1F
100
AcDbEntity
  8
0
  6
Continuous
 62
     7
370
    25
100
AcDbSpline
210
0.0
220
0.0
230
1.0
 70
     8
 71
     3
 72
    10
 73
     6
 74
     0
 42
0.000000001
 43
0.00000001
 40
0.366309709657398
 40
0.366309709657398
 40
0.366309709657398
 40
0.366309709657398
 40
0.380309717353353
 40
0.387309721201331
 40
0.415309736593242
 40
0.415309736593242
 40
0.415309736593242
 40
0.415309736593242
 10
116.4848161849711
 20
134.9996419939692
 30
0.0
 10
116.5781495696108
 20
134.9996419939692
 30
0.0
 10
116.7170776524292
 20
135.0176137125277
 30
0.0
 10
116.9852602027029
 20
135.1017772116809
 30
0.0
 10
117.1132749989524
 20
135.1912100337422
 30
0.0
 10
117.1919229661577
 20
135.2664256465902
 30
0.0
  0
SPLINE
  5
226
330
1F
100
AcDbEntity
  8
0
  6
Continuous
 62
     7
370
    25
100
AcDbSpline
210
0.0
220
0.0
230
1.0
 70
     8
 71
     3
 72
    10
 73
     6
 74
     0
 42
0.000000001
 43
0.00000001
 40
0.366355545301555
 40
0.366355545301555
 40
0.366355545301555
 40
0.366355545301555
 40
0.387357107196496
 40
0.40135814845979
 40
0.415359189723084
 40
0.415359189723084
 40
0.415359189723084
 40
0.415359189723084
 10
117.1919229661577
 20
135.2664256465902
 30
0.0
 10
117.2509181027303
 20
135.2100051755972
 30
0.0
 10
117.3475792479859
 20
135.1205792999467
 30
0.0
 10
117.4563411850544
 20
135.0242445679754
 30
0.0
 10
117.4848161849711
 20
134.9996419939692
 30
0.0
 10
117.4848161849711
 20
134.9996419939692
 30
0.0
  0
LINE
  5
227
330
1F
100
AcDbEntity
  8
0
  6
Continuous
 62
     7
370
    25
100
AcDbLine
 10
116.4848159689
 20
132.2412992466
 30
0.0
 11
116.4848159689
 21
134.9996420194
 31
0.0
  0
SPLINE
  5
228
330
1F
100
AcDbEntity
  8
0
  6
Continuous
 62
     7
370
    25
100
AcDbSpline
210
0.0
220
0.0
230
1.0
 70
     8
 71
     3
 72
    10
 73
     6
 74
     0
 42
0.000000001
 43
0.00000001
 40
0.0
 40
0.0
 40
0.0
 40
0.0
 40
0.0140010412632939
 40
0.0210015618949408
 40
0.0490036444215286
 40
0.0490036444215286
 40
0.0490036444215286
 40
0.0490036444215286
 10
130.4848161849711
 20
142.4829567675171
 30
0.0
 10
130.3914759098825
 20
142.4829567675171
 30
0.0
 10
130.2525394178393
 20
142.4649853032938
 30
0.0
 10
129.9843717288179
 20
142.3808217954199
 30
0.0
 10
129.8563695858814
 20
142.2914004095535
 30
0.0
 10
129.7777094037846
 20
142.2161731148961
 30
0.0
  0
SPLINE
  5
229
330
1F
100
AcDbEntity
  8
0
  6
Continuous
 62
     7
370
    25
100
AcDbSpline
210
0.0
220
0.0
230
1.0
 70
     8
 71
     3
 72
    10
 73
     6
 74
     0
 42
0.000000001
 43
0.00000001
 40
0.366355545301555
 40
0.366355545301555
 40
0.366355545301555
 40
0.366355545301555
 40
0.387357107196496
 40
0.401358148459789
 40
0.415359189723083
 40
0.415359189723083
 40
0.415359189723083
 40
0.415359189723083
 10
129.7777094037846
 20
142.2161731148961
 30
0.0
 10
129.718714267212
 20
142.2725935858891
 30
0.0
 10
129.6220531219563
 20
142.3620194615396
 30
0.0
 10
129.5132911848879
 20
142.4583541935109
 30
0.0
 10
129.4848161849711
 20
142.4829567675171
 30
0.0
 10
129.4848161849711
 20
142.4829567675171
 30
0.0
  0
LINE
  5
22A
330
1F
100
AcDbEntity
  8
0
  6
Continuous
 62
     7
370
    25
100
AcDbLine
 10
130.484816401
 20
145.2412995149
 30
0.0
 11
130.484816401
 21
142.4829567421
 31
0.0
  0
SPLINE
  5
22B
330
1F
100
AcDbEntity
  8
0
  6
Continuous
 62
     7
370
    25
100
AcDbSpline
210
0.0
220
0.0
230
1.0
 70
     8
 71
     3
 72
    13
 73
     9
 74
     0
 42
0.000000001
 43
0.00000001
 40
0.0
 40
0.0
 40
0.0
 40
0.0
 40
0.1856794033212272
 40
0.3634611737568169
 40
0.533542336720674
 40
0.6961479207300177
 40
0.8515354443703902
 40
1.0
 40
1.0
 40
1.0
 40
1.0
 10
115.6403593675134
 20
132.174717316985
 30
0.0
 10
115.6240310616703
 20
132.2002562611048
 30
0.0
 10
115.5920689533208
 20
132.2502478834403
 30
0.0
 10
115.5533501000889
 20
132.3317231262888
 30
0.0
 10
115.5227960210012
 20
132.4150480102073
 30
0.0
 10
115.501179284092
 20
132.5002154770849
 30
0.0
 10
115.4874715896033
 20
132.5860522403325
 30
0.0
 10
115.4856877723467
 20
132.6455578146428
 30
0.0
 10
115.4848161849711
 20
132.6746327140765
 30
0.0
  0
SPLINE
  5
22C
330
1F
100
AcDbEntity
  8
0
  6
Continuous
 62
     7
370
    25
100
AcDbSpline
210
0.0
220
0.0
230
1.0
 70
     8
 71
     3
 72
    17
 73
    13
 74
     0
 42
0.000000001
 43
0.00000001
 40
0.0
 40
0.0
 40
0.0
 40
0.0
 40
0.1130667886658668
 40
0.2142471894553318
 40
0.3035410226158834
 40
0.3809482842621089
 40
0.4464692357998273
 40
0.5001045924259258
 40
0.6375226532033567
 40
0.75004211245356
 40
0.8820380142920121
 40
1.0
 40
1.0
 40
1.0
 40
1.0
 10
115.9848161849711
 20
131.7412993807431
 30
0.0
 10
115.9745865588672
 20
131.7423768634329
 30
0.0
 10
115.9552027179727
 20
131.7444185561412
 30
0.0
 10
115.9273084734148
 20
131.7595839778388
 30
0.0
 10
115.9023156657173
 20
131.7798452234069
 30
0.0
 10
115.8801862681833
 20
131.8031959749715
 30
0.0
 10
115.860986441457
 20
131.8270165010023
 30
0.0
 10
115.8348046761039
 20
131.862533940644
 30
0.0
 10
115.8018231345129
 20
131.9128432335199
 30
0.0
 10
115.7562288600987
 20
131.9898297118567
 30
0.0
 10
115.7063202034199
 20
132.0742702918901
 30
0.0
 10
115.6615076439402
 20
132.1425121239525
 30
0.0
 10
115.6403593675134
 20
132.174717316985
 30
0.0
  0
SPLINE
  5
22D
330
1F
100
AcDbEntity
  8
0
  6
Continuous
 62
     7
370
    25
100
AcDbSpline
210
0.0
220
0.0
230
1.0
 70
     8
 71
     3
 72
    14
 73
    10
 74
     0
 42
0.000000001
 43
0.00000001
 40
0.0
 40
0.0
 40
0.0
 40
0.0
 40
0.0771019312872794
 40
0.1604220744063169
 40
0.2500134455684252
 40
0.3625277428809286
 40
0.4999872826729911
 40
0.6965319256112464
 40
1.0
 40
1.0
 40
1.0
 40
1.0
 10
131.3292730024288
 20
132.174717316985
 30
0.0
 10
131.3151437255217
 20
132.1534525916674
 30
0.0
 10
131.2857456563235
 20
132.1092081571874
 30
0.0
 10
131.2472277601112
 20
132.0465494161037
 30
0.0
 10
131.2081652336262
 20
131.9811758924901
 30
0.0
 10
131.1678847272327
 20
131.9128305852439
 30
0.0
 10
131.1192260328749
 20
131.8391678670571
 30
0.0
 10
131.0577911934245
 20
131.7614049414756
 30
0.0
 10
131.0123782443535
 20
131.7488930853629
 30
0.0
 10
130.9848161849711
 20
131.7412993807431
 30
0.0
  0
SPLINE
  5
22E
330
1F
100
AcDbEntity
  8
0
  6
Continuous
 62
     7
370
    25
100
AcDbSpline
210
0.0
220
0.0
230
1.0
 70
     8
 71
     3
 72
    13
 73
     9
 74
     0
 42
0.000000001
 43
0.00000001
 40
0.0
 40
0.0
 40
0.0
 40
0.0
 40
0.1484645556295969
 40
0.303852079269964
 40
0.4664576632793
 40
0.6365388262431574
 40
0.814320596678755
 40
1.0
 40
1.0
 40
1.0
 40
1.0
 10
131.4848161849711
 20
132.6746327140765
 30
0.0
 10
131.4839445975956
 20
132.6455578146429
 30
0.0
 10
131.4821607803389
 20
132.5860522403325
 30
0.0
 10
131.4684530858502
 20
132.5002154770849
 30
0.0
 10
131.446836348941
 20
132.4150480102073
 30
0.0
 10
131.4162822698534
 20
132.3317231262888
 30
0.0
 10
131.3775634166214
 20
132.2502478834403
 30
0.0
 10
131.345601308272
 20
132.2002562611048
 30
0.0
 10
131.3292730024288
 20
132.174717316985
 30
0.0
  0
LINE
  5
22F
330
1F
100
AcDbEntity
  8
0
  6
Continuous
 62
     7
370
    25
100
AcDbLine
 10
131.484816565
 20
133.9822144818
 30
0.0
 11
131.484816565
 21
132.6746329304
 31
0.0
  0
SPLINE
  5
230
330
1F
100
AcDbEntity
  8
0
  6
Continuous
 62
     7
370
    25
100
AcDbSpline
210
0.0
220
0.0
230
1.0
 70
     8
 71
     3
 72
    13
 73
     9
 74
     0
 42
0.000000001
 43
0.00000001
 40
0.0
 40
0.0
 40
0.0
 40
0.0
 40
0.1257153360577753
 40
0.250986709269415
 40
0.3762164861937409
 40
0.5018074329537138
 40
0.7521854029755236
 40
1.0
 40
1.0
 40
1.0
 40
1.0
 10
131.2664605584156
 20
134.6998474964157
 30
0.0
 10
131.2836548355869
 20
134.670305278587
 30
0.0
 10
131.3179826684578
 20
134.6113251710689
 30
0.0
 10
131.361552216693
 20
134.5214072835692
 30
0.0
 10
131.3991600203377
 20
134.4308647485603
 30
0.0
 10
131.4401832979187
 20
134.3097543864192
 30
0.0
 10
131.4767118526734
 20
134.1586305774797
 30
0.0
 10
131.4821240233684
 20
134.0408177975919
 30
0.0
 10
131.4848161849711
 20
133.9822145013899
 30
0.0
  0
SPLINE
  5
231
330
1F
100
AcDbEntity
  8
0
  6
Continuous
 62
     7
370
    25
100
AcDbSpline
210
0.0
220
0.0
230
1.0
 70
     8
 71
     3
 72
    16
 73
    12
 74
     0
 42
0.000000001
 43
0.00000001
 40
0.0
 40
0.0
 40
0.0
 40
0.0
 40
0.065953468215878
 40
0.1324870475734065
 40
0.2006767984510681
 40
0.2715233530653123
 40
0.3459202143274948
 40
0.4246400792148715
 40
0.5083359903947017
 40
0.7405135829365557
 40
1.0
 40
1.0
 40
1.0
 40
1.0
 10
130.4848161849711
 20
135.2490858197541
 30
0.0
 10
130.5083282373981
 20
135.2482999778374
 30
0.0
 10
130.5555591487166
 20
135.246721381924
 30
0.0
 10
130.6258772350107
 20
135.2341841116109
 30
0.0
 10
130.6955363496834
 20
135.214258625512
 30
0.0
 10
130.7645126801651
 20
135.1862850626669
 30
0.0
 10
130.832804054308
 20
135.1505803817495
 30
0.0
 10
130.9004311385482
 20
135.1071781871003
 30
0.0
 10
131.0054326081979
 20
135.0273936933515
 30
0.0
 10
131.1392162557352
 20
134.8939794068032
 30
0.0
 10
131.2225037595881
 20
134.7669107530893
 30
0.0
 10
131.2664605584156
 20
134.6998474964157
 30
0.0
  0
SPLINE
  5
232
330
1F
100
AcDbEntity
  8
0
  6
Continuous
 62
     7
370
    25
100
AcDbSpline
210
0.0
220
0.0
230
1.0
 70
     8
 71
     3
 72
    13
 73
     9
 74
     0
 42
0.000000001
 43
0.00000001
 40
0.0
 40
0.0
 40
0.0
 40
0.0
 40
0.1759205118839867
 40
0.3391896075500394
 40
0.4921931780779421
 40
0.6738397335242767
 40
0.8395017852842264
 40
1.0
 40
1.0
 40
1.0
 40
1.0
 10
130.1312627943778
 20
135.4980838955337
 30
0.0
 10
130.1443613389244
 20
135.4762073145895
 30
0.0
 10
130.1696164392914
 20
135.4340274185355
 30
0.0
 10
130.2154595058717
 20
135.3780788934105
 30
0.0
 10
130.2693504873012
 20
135.3270982621544
 30
0.0
 10
130.3326984085645
 20
135.2846824396218
 30
0.0
 10
130.4072526044621
 20
135.2547688377764
 30
0.0
 10
130.4592359954136
 20
135.2509600586342
 30
0.0
 10
130.4848161849711
 20
135.2490858197541
 30
0.0
  0
SPLINE
  5
233
330
1F
100
AcDbEntity
  8
0
  6
Continuous
 62
     7
370
    25
100
AcDbSpline
210
0.0
220
0.0
230
1.0
 70
     8
 71
     3
 72
    14
 73
    10
 74
     0
 42
0.000000001
 43
0.00000001
 40
0.0
 40
0.0
 40
0.0
 40
0.0
 40
0.0960215477330772
 40
0.1924412985150813
 40
0.2917902771908843
 40
0.3963870753248954
 40
0.508224361238917
 40
0.7392002681070544
 40
1.0
 40
1.0
 40
1.0
 40
1.0
 10
130.4848161849711
 20
142.2335129417321
 30
0.0
 10
130.4695351704868
 20
142.2328217931941
 30
0.0
 10
130.438909770882
 20
142.2314366299129
 30
0.0
 10
130.3937839023122
 20
142.2209827348227
 30
0.0
 10
130.3498604421266
 20
142.2043994381501
 30
0.0
 10
130.3071643876274
 20
142.1811166233935
 30
0.0
 10
130.2521529151593
 20
142.1416215497774
 30
0.0
 10
130.1884993449472
 20
142.0776645689021
 30
0.0
 10
130.1510977207204
 20
142.0167952441126
 30
0.0
 10
130.1312627943803
 20
141.9845148659598
 30
0.0
  0
SPLINE
  5
234
330
1F
100
AcDbEntity
  8
0
  6
Continuous
 62
     7
370
    25
100
AcDbSpline
210
0.0
220
0.0
230
1.0
 70
     8
 71
     3
 72
    15
 73
    11
 74
     0
 42
0.000000001
 43
0.00000001
 40
0.0
 40
0.0
 40
0.0
 40
0.0
 40
0.1336726496006024
 40
0.2596519444531545
 40
0.3787836139802159
 40
0.4920668899308765
 40
0.6351830136462188
 40
0.7645526196403578
 40
0.8844004131108331
 40
1.0
 40
1.0
 40
1.0
 40
1.0
 10
131.2664605584156
 20
142.7827512650705
 30
0.0
 10
131.2445650679792
 20
142.7480729982764
 30
0.0
 10
131.2020342534592
 20
142.6807123270376
 30
0.0
 10
131.1288383953165
 20
142.5861777357345
 30
0.0
 10
131.0510623157466
 20
142.5009644310126
 30
0.0
 10
130.9594238726224
 20
142.4181772985773
 30
0.0
 10
130.854095491441
 20
142.3419544325078
 30
0.0
 10
130.7335466091341
 20
142.2802467786431
 30
0.0
 10
130.6101271504643
 20
142.240888020823
 30
0.0
 10
130.5260810218595
 20
142.2359415515073
 30
0.0
 10
130.4848161849711
 20
142.2335129417321
 30
0.0
  0
SPLINE
  5
235
330
1F
100
AcDbEntity
  8
0
  6
Continuous
 62
     7
370
    25
100
AcDbSpline
210
0.0
220
0.0
230
1.0
 70
     8
 71
     3
 72
    13
 73
     9
 74
     0
 42
0.000000001
 43
0.00000001
 40
0.0
 40
0.0
 40
0.0
 40
0.0
 40
0.123837116045566
 40
0.2479023030231072
 40
0.3726214666345097
 40
0.4984138700895106
 40
0.7490979627897992
 40
1.0
 40
1.0
 40
1.0
 40
1.0
 10
131.4848161849711
 20
143.5003842600964
 30
0.0
 10
131.4841446673788
 20
143.471243603302
 30
0.0
 10
131.4828003954597
 20
143.4129086213385
 30
0.0
 10
131.4718985854337
 20
143.3238232885488
 30
0.0
 10
131.4545371480115
 20
143.2336599468856
 30
0.0
 10
131.4218498626444
 20
143.1125801266235
 30
0.0
 10
131.3659647351645
 20
142.9604990743386
 30
0.0
 10
131.2996382238568
 20
142.8420176952998
 30
0.0
 10
131.2664605584156
 20
142.7827512650705
 30
0.0
  0
LINE
  5
236
330
1F
100
AcDbEntity
  8
0
  6
Continuous
 62
     7
370
    25
100
AcDbLine
 10
131.484816565
 20
144.8079658311
 30
0.0
 11
131.484816565
 21
143.5003842797
 31
0.0
  0
SPLINE
  5
237
330
1F
100
AcDbEntity
  8
0
  6
Continuous
 62
     7
370
    25
100
AcDbSpline
210
0.0
220
0.0
230
1.0
 70
     8
 71
     3
 72
    13
 73
     9
 74
     0
 42
0.000000001
 43
0.00000001
 40
0.0
 40
0.0
 40
0.0
 40
0.0
 40
0.1856794033212442
 40
0.3634611737568403
 40
0.5335423367206995
 40
0.6961479207300372
 40
0.8515354443704025
 40
0.9999999999999999
 40
0.9999999999999999
 40
0.9999999999999999
 40
0.9999999999999999
 10
131.3292730024288
 20
145.3078814445013
 30
0.0
 10
131.345601308272
 20
145.2823425003814
 30
0.0
 10
131.3775634166214
 20
145.232350878046
 30
0.0
 10
131.4162822698534
 20
145.1508756351975
 30
0.0
 10
131.446836348941
 20
145.067550751279
 30
0.0
 10
131.4684530858502
 20
144.9823832844014
 30
0.0
 10
131.4821607803389
 20
144.8965465211537
 30
0.0
 10
131.4839445975956
 20
144.8370409468434
 30
0.0
 10
131.4848161849711
 20
144.8079660474098
 30
0.0
  0
SPLINE
  5
238
330
1F
100
AcDbEntity
  8
0
  6
Continuous
 62
     7
370
    25
100
AcDbSpline
210
0.0
220
0.0
230
1.0
 70
     8
 71
     3
 72
    16
 73
    12
 74
     0
 42
0.000000001
 43
0.00000001
 40
0.0
 40
0.0
 40
0.0
 40
0.0
 40
0.1113707238457123
 40
0.2115306831336734
 40
0.3004797812258395
 40
0.3782180942859685
 40
0.4447459579759641
 40
0.500064141985791
 40
0.7004020768506897
 40
0.8669907153164842
 40
1.0
 40
1.0
 40
1.0
 40
1.0
 10
130.9848161849711
 20
145.7412993807432
 30
0.0
 10
130.9948938637985
 20
145.7402537373045
 30
0.0
 10
131.0140347853366
 20
145.7382677066562
 30
0.0
 10
131.0416805030511
 20
145.7234601494665
 30
0.0
 10
131.0666292914488
 20
145.7035053405352
 30
0.0
 10
131.0889104246887
 20
145.6802588585563
 30
0.0
 10
131.1084895475103
 20
145.6562021111961
 30
0.0
 10
131.1413772678789
 20
145.6117227995196
 30
0.0
 10
131.1892559251257
 20
145.5375994061588
 30
0.0
 10
131.2537692842841
 20
145.4255854735689
 30
0.0
 10
131.3060586514898
 20
145.3440706906053
 30
0.0
 10
131.3292730024288
 20
145.3078814445013
 30
0.0
  0
SPLINE
  5
239
330
1F
100
AcDbEntity
  8
0
  6
Continuous
 62
     7
370
    25
100
AcDbSpline
210
0.0
220
0.0
230
1.0
 70
     8
 71
     3
 72
    14
 73
    10
 74
     0
 42
0.000000001
 43
0.00000001
 40
0.0
 40
0.0
 40
0.0
 40
0.0
 40
0.0771019312877576
 40
0.1604220744066402
 40
0.250013445567957
 40
0.3625277428349449
 40
0.4999872826724504
 40
0.6965319246666456
 40
1.0
 40
1.0
 40
1.0
 40
1.0
 10
115.6403593675134
 20
145.3078814445013
 30
0.0
 10
115.6544886444207
 20
145.3291461698189
 30
0.0
 10
115.683886713619
 20
145.373390604299
 30
0.0
 10
115.7224046098316
 20
145.4360493453825
 30
0.0
 10
115.7614671363122
 20
145.5014228689853
 30
0.0
 10
115.8017476427017
 20
145.5697681762338
 30
0.0
 10
115.8504063369697
 20
145.643430894267
 30
0.0
 10
115.9118411763874
 20
145.7211938199349
 30
0.0
 10
115.9572541254862
 20
145.73370567608
 30
0.0
 10
115.9848161849711
 20
145.7412993807432
 30
0.0
  0
SPLINE
  5
23A
330
1F
100
AcDbEntity
  8
0
  6
Continuous
 62
     7
370
    25
100
AcDbSpline
210
0.0
220
0.0
230
1.0
 70
     8
 71
     3
 72
    13
 73
     9
 74
     0
 42
0.000000001
 43
0.00000001
 40
0.0
 40
0.0
 40
0.0
 40
0.0
 40
0.1484645556296106
 40
0.3038520792699841
 40
0.4664576632793244
 40
0.6365388262431811
 40
0.8143205966787692
 40
1.0
 40
1.0
 40
1.0
 40
1.0
 10
115.4848161849711
 20
144.8079660474098
 30
0.0
 10
115.4856877723467
 20
144.8370409468434
 30
0.0
 10
115.4874715896033
 20
144.8965465211537
 30
0.0
 10
115.501179284092
 20
144.9823832844014
 30
0.0
 10
115.5227960210012
 20
145.067550751279
 30
0.0
 10
115.5533501000889
 20
145.1508756351975
 30
0.0
 10
115.5920689533208
 20
145.232350878046
 30
0.0
 10
115.6240310616703
 20
145.2823425003814
 30
0.0
 10
115.6403593675134
 20
145.3078814445013
 30
0.0
  0
LINE
  5
23B
330
1F
100
AcDbEntity
  8
0
  6
Continuous
 62
     7
370
    25
100
AcDbLine
 10
115.484815805
 20
143.5003842797
 30
0.0
 11
115.484815805
 21
144.8079658311
 31
0.0
  0
SPLINE
  5
23C
330
1F
100
AcDbEntity
  8
0
  6
Continuous
 62
     7
370
    25
100
AcDbSpline
210
0.0
220
0.0
230
1.0
 70
     8
 71
     3
 72
    13
 73
     9
 74
     0
 42
0.000000001
 43
0.00000001
 40
0.0
 40
0.0
 40
0.0
 40
0.0
 40
0.1257153360569889
 40
0.2509867092683644
 40
0.3762164861929509
 40
0.5018074329536976
 40
0.7521854029745006
 40
1.0
 40
1.0
 40
1.0
 40
1.0
 10
115.7031718115266
 20
142.7827512650705
 30
0.0
 10
115.6859775343554
 20
142.8122934828991
 30
0.0
 10
115.6516497014847
 20
142.871273590417
 30
0.0
 10
115.6080801532496
 20
142.9611914779165
 30
0.0
 10
115.5704723496049
 20
143.0517340129255
 30
0.0
 10
115.5294490720236
 20
143.1728443750666
 30
0.0
 10
115.4929205172686
 20
143.3239681840063
 30
0.0
 10
115.4875083465738
 20
143.4417809638942
 30
0.0
 10
115.4848161849711
 20
143.5003842600964
 30
0.0
  0
SPLINE
  5
23D
330
1F
100
AcDbEntity
  8
0
  6
Continuous
 62
     7
370
    25
100
AcDbSpline
210
0.0
220
0.0
230
1.0
 70
     8
 71
     3
 72
    16
 73
    12
 74
     0
 42
0.000000001
 43
0.00000001
 40
0.0
 40
0.0
 40
0.0
 40
0.0
 40
0.0659534682171166
 40
0.1324870475754467
 40
0.2006767984534837
 40
0.2715233530677
 40
0.3459202143294877
 40
0.4246400792161534
 40
0.5083359903950035
 40
0.7405135829405138
 40
1.0
 40
1.0
 40
1.0
 40
1.0
 10
116.4848161849711
 20
142.2335129417321
 30
0.0
 10
116.4613041325436
 20
142.2342987836489
 30
0.0
 10
116.4140732212245
 20
142.2358773795623
 30
0.0
 10
116.3437551349295
 20
142.2484146498753
 30
0.0
 10
116.2740960202563
 20
142.2683401359742
 30
0.0
 10
116.2051196897745
 20
142.2963136988193
 30
0.0
 10
116.1368283156321
 20
142.3320183797367
 30
0.0
 10
116.0692012313927
 20
142.3754205743859
 30
0.0
 10
115.9641997617435
 20
142.4552050681363
 30
0.0
 10
115.8304161142069
 20
142.5886193546844
 30
0.0
 10
115.7471286103537
 20
142.7156880083981
 30
0.0
 10
115.7031718115266
 20
142.7827512650705
 30
0.0
  0
SPLINE
  5
23E
330
1F
100
AcDbEntity
  8
0
  6
Continuous
 62
     7
370
    25
100
AcDbSpline
210
0.0
220
0.0
230
1.0
 70
     8
 71
     3
 72
    13
 73
     9
 74
     0
 42
0.000000001
 43
0.00000001
 40
0.0
 40
0.0
 40
0.0
 40
0.0
 40
0.1786053289436242
 40
0.3418136440148246
 40
0.4920615784510198
 40
0.6741596503290138
 40
0.83992025420101
 40
1.0
 40
1.0
 40
1.0
 40
1.0
 10
116.8383695755633
 20
141.9845148659557
 30
0.0
 10
116.8250938454047
 20
142.0067454611995
 30
0.0
 10
116.7996868447887
 20
142.0492902207197
 30
0.0
 10
116.7540832945519
 20
142.1053999578883
 30
0.0
 10
116.7003004194013
 20
142.1560809137774
 30
0.0
 10
116.6369097403292
 20
142.197986848652
 30
0.0
 10
116.5622962532704
 20
142.2278471255451
 30
0.0
 10
116.5103409363726
 20
142.2316464158909
 30
0.0
 10
116.4848161849711
 20
142.2335129417321
 30
0.0
  0
SPLINE
  5
23F
330
1F
100
AcDbEntity
  8
0
  6
Continuous
 62
     7
370
    25
100
AcDbSpline
210
0.0
220
0.0
230
1.0
 70
     8
 71
     3
 72
    14
 73
    10
 74
     0
 42
0.000000001
 43
0.00000001
 40
0.0
 40
0.0
 40
0.0
 40
0.0
 40
0.0960186407856747
 40
0.1924368822044046
 40
0.2917857869559113
 40
0.3963838799166358
 40
0.5082236945494524
 40
0.7392053714339348
 40
1.0
 40
1.0
 40
1.0
 40
1.0
 10
116.4848161849711
 20
135.2490858197542
 30
0.0
 10
116.500096691913
 20
135.2497769925524
 30
0.0
 10
116.5307212986596
 20
135.2511622146016
 30
0.0
 10
116.5758462197496
 20
135.2616163689232
 30
0.0
 10
116.6197692971094
 20
135.2781999974856
 30
0.0
 10
116.6624655642809
 20
135.3014832423493
 30
0.0
 10
116.717478043433
 20
135.3409790096222
 30
0.0
 10
116.7811329608911
 20
135.40493523668
 30
0.0
 10
116.8185348982079
 20
135.4658043205606
 30
0.0
 10
116.8383695755644
 20
135.4980838955337
 30
0.0
  0
SPLINE
  5
240
330
1F
100
AcDbEntity
  8
0
  6
Continuous
 62
     7
370
    25
100
AcDbSpline
210
0.0
220
0.0
230
1.0
 70
     8
 71
     3
 72
    15
 73
    11
 74
     0
 42
0.000000001
 43
0.00000001
 40
0.0
 40
0.0
 40
0.0
 40
0.0
 40
0.1336726496021612
 40
0.2596519444552429
 40
0.3787836139818168
 40
0.4920668899310182
 40
0.6351830136473593
 40
0.7645526196418757
 40
0.8844004131119898
 40
1.0
 40
1.0
 40
1.0
 40
1.0
 10
115.7031718115266
 20
134.6998474964157
 30
0.0
 10
115.7250673019633
 20
134.7345257632103
 30
0.0
 10
115.7675981164836
 20
134.8018864344496
 30
0.0
 10
115.8407939746265
 20
134.8964210257532
 30
0.0
 10
115.9185700541961
 20
134.9816343304747
 30
0.0
 10
116.0102084973205
 20
135.0644214629096
 30
0.0
 10
116.1155368785024
 20
135.1406443289785
 30
0.0
 10
116.2360857608096
 20
135.2023519828432
 30
0.0
 10
116.3595052194789
 20
135.2417107406633
 30
0.0
 10
116.4435513480831
 20
135.246657209979
 30
0.0
 10
116.4848161849711
 20
135.2490858197542
 30
0.0
  0
SPLINE
  5
241
330
1F
100
AcDbEntity
  8
0
  6
Continuous
 62
     7
370
    25
100
AcDbSpline
210
0.0
220
0.0
230
1.0
 70
     8
 71
     3
 72
    13
 73
     9
 74
     0
 42
0.000000001
 43
0.00000001
 40
0.0
 40
0.0
 40
0.0
 40
0.0
 40
0.123835855545221
 40
0.2479006248871513
 40
0.3726202178325717
 40
0.4984138930967346
 40
0.7490996844582696
 40
1.0
 40
1.0
 40
1.0
 40
1.0
 10
115.4848161849711
 20
133.9822145013899
 30
0.0
 10
115.4854877162875
 20
134.0113548551371
 30
0.0
 10
115.4868320202633
 20
134.0696894293327
 30
0.0
 10
115.4977340039137
 20
134.1587744180951
 30
0.0
 10
115.5150956875261
 20
134.2489380145601
 30
0.0
 10
115.5477833289593
 20
134.3700185965195
 30
0.0
 10
115.6036681298837
 20
134.5221000286036
 30
0.0
 10
115.6699944619066
 20
134.6405814493077
 30
0.0
 10
115.7031718115266
 20
134.6998474964157
 30
0.0
  0
LINE
  5
242
330
1F
100
AcDbEntity
  8
0
  6
Continuous
 62
     7
370
    25
100
AcDbLine
 10
115.484815805
 20
132.6746329304
 30
0.0
 11
115.484815805
 21
133.9822144818
 31
0.0
  0
SPLINE
  5
243
330
1F
100
AcDbEntity
  8
0
  6
Continuous
 62
     7
370
    25
100
AcDbSpline
210
0.0
220
0.0
230
1.0
 70
     8
 71
     3
 72
     8
 73
     4
 74
     0
 42
0.000000001
 43
0.00000001
 40
0.0
 40
0.0
 40
0.0
 40
0.0
 40
1.0
 40
1.0
 40
1.0
 40
1.0
 10
129.6881663537507
 20
141.9845148659525
 30
0.0
 10
129.6591591641538
 20
142.0399973817775
 30
0.0
 10
129.6930328093701
 20
142.127632428084
 30
0.0
 10
129.7777094037846
 20
142.2161731148961
 30
0.0
  0
SPLINE
  5
244
330
1F
100
AcDbEntity
  8
0
  6
Continuous
 62
     7
370
    25
100
AcDbSpline
210
0.0
220
0.0
230
1.0
 70
     8
 71
     3
 72
     8
 73
     4
 74
     0
 42
0.000000001
 43
0.00000001
 40
0.0
 40
0.0
 40
0.0
 40
0.0
 40
1.0
 40
1.0
 40
1.0
 40
1.0
 10
129.7777094037846
 20
135.2664256465902
 30
0.0
 10
129.6930328093701
 20
135.3549663334023
 30
0.0
 10
129.6591591641538
 20
135.4426013797088
 30
0.0
 10
129.6881663537507
 20
135.4980838955337
 30
0.0
  0
SPLINE
  5
245
330
1F
100
AcDbEntity
  8
0
  6
Continuous
 62
     7
370
    25
100
AcDbSpline
210
0.0
220
0.0
230
1.0
 70
     8
 71
     3
 72
     8
 73
     4
 74
     0
 42
0.000000001
 43
0.00000001
 40
0.0
 40
0.0
 40
0.0
 40
0.0
 40
1.0
 40
1.0
 40
1.0
 40
1.0
 10
117.1919229661577
 20
142.2161731148961
 30
0.0
 10
117.2765995605721
 20
142.127632428084
 30
0.0
 10
117.3104732057884
 20
142.0399973817775
 30
0.0
 10
117.2814660161915
 20
141.9845148659525
 30
0.0
  0
SPLINE
  5
246
330
1F
100
AcDbEntity
  8
0
  6
Continuous
 62
     7
370
    25
100
AcDbSpline
210
0.0
220
0.0
230
1.0
 70
     8
 71
     3
 72
     8
 73
     4
 74
     0
 42
0.000000001
 43
0.00000001
 40
0.0
 40
0.0
 40
0.0
 40
0.0
 40
1.0
 40
1.0
 40
1.0
 40
1.0
 10
117.2814660161915
 20
135.4980838955337
 30
0.0
 10
117.3104732057884
 20
135.4426013797088
 30
0.0
 10
117.2765995605722
 20
135.3549663334023
 30
0.0
 10
117.1919229661577
 20
135.2664256465902
 30
0.0
  0
SPLINE
  5
247
330
1F
100
AcDbEntity
  8
0
  6
Continuous
 62
     7
370
    25
100
AcDbSpline
210
0.0
220
0.0
230
1.0
 70
     8
 71
     3
 72
     8
 73
     4
 74
     0
 42
0.000000001
 43
0.00000001
 40
0.0
 40
0.0
 40
0.0
 40
0.0
 40
1.0
 40
1.0
 40
1.0
 40
1.0
 10
129.7777094037846
 20
142.2161731148961
 30
0.0
 10
129.862385998199
 20
142.127632428084
 30
0.0
 10
129.9961333087211
 20
142.0399973817775
 30
0.0
 10
130.1312627943778
 20
141.9845148659525
 30
0.0
  0
SPLINE
  5
248
330
1F
100
AcDbEntity
  8
0
  6
Continuous
 62
     7
370
    25
100
AcDbSpline
210
0.0
220
0.0
230
1.0
 70
     8
 71
     3
 72
     8
 73
     4
 74
     0
 42
0.000000001
 43
0.00000001
 40
0.0
 40
0.0
 40
0.0
 40
0.0
 40
1.0
 40
1.0
 40
1.0
 40
1.0
 10
130.1312627943778
 20
135.4980838955337
 30
0.0
 10
129.9961333087211
 20
135.4426013797088
 30
0.0
 10
129.862385998199
 20
135.3549663334023
 30
0.0
 10
129.7777094037846
 20
135.2664256465902
 30
0.0
  0
SPLINE
  5
249
330
1F
100
AcDbEntity
  8
0
  6
Continuous
 62
     7
370
    25
100
AcDbSpline
210
0.0
220
0.0
230
1.0
 70
     8
 71
     3
 72
     8
 73
     4
 74
     0
 42
0.000000001
 43
0.00000001
 40
0.0
 40
0.0
 40
0.0
 40
0.0
 40
1.0
 40
1.0
 40
1.0
 40
1.0
 10
116.8383695755644
 20
141.9845148659525
 30
0.0
 10
116.9734990612211
 20
142.0399973817775
 30
0.0
 10
117.1072463717432
 20
142.127632428084
 30
0.0
 10
117.1919229661577
 20
142.2161731148961
 30
0.0
  0
SPLINE
  5
24A
330
1F
100
AcDbEntity
  8
0
  6
Continuous
 62
     7
370
    25
100
AcDbSpline
210
0.0
220
0.0
230
1.0
 70
     8
 71
     3
 72
     8
 73
     4
 74
     0
 42
0.000000001
 43
0.00000001
 40
0.0
 40
0.0
 40
0.0
 40
0.0
 40
1.0
 40
1.0
 40
1.0
 40
1.0
 10
117.1919229661577
 20
135.2664256465902
 30
0.0
 10
117.1072463717432
 20
135.3549663334023
 30
0.0
 10
116.9734990612211
 20
135.4426013797088
 30
0.0
 10
116.8383695755644
 20
135.4980838955337
 30
0.0
  0
SPLINE
  5
24B
330
1F
100
AcDbEntity
  8
0
  6
Continuous
 62
     7
370
    25
100
AcDbSpline
210
0.0
220
0.0
230
1.0
 70
    24
 71
     3
 72
     8
 73
     4
 74
     0
 42
0.000000001
 43
0.00000001
 40
0.0
 40
0.0
 40
0.0
 40
0.0
 40
1.0
 40
1.0
 40
1.0
 40
1.0
 10
116.4848161849711
 20
142.2335129417321
 30
0.0
 10
116.4848161849711
 20
142.308958415993
 30
0.0
 10
116.4848161849711
 20
142.3959042972161
 30
0.0
 10
116.4848161849711
 20
142.4829567675171
 30
0.0
  0
SPLINE
  5
24C
330
1F
100
AcDbEntity
  8
0
  6
Continuous
 62
     7
370
    25
100
AcDbSpline
210
0.0
220
0.0
230
1.0
 70
    24
 71
     3
 72
     8
 73
     4
 74
     0
 42
0.000000001
 43
0.00000001
 40
0.0
 40
0.0
 40
0.0
 40
0.0
 40
1.0
 40
1.0
 40
1.0
 40
1.0
 10
116.4848161849711
 20
134.9996419939692
 30
0.0
 10
116.4848161849711
 20
135.0866944642702
 30
0.0
 10
116.4848161849711
 20
135.1736403454933
 30
0.0
 10
116.4848161849711
 20
135.2490858197542
 30
0.0
  0
SPLINE
  5
24D
330
1F
100
AcDbEntity
  8
0
  6
Continuous
 62
     7
370
    25
100
AcDbSpline
210
0.0
220
0.0
230
1.0
 70
    24
 71
     3
 72
     8
 73
     4
 74
     0
 42
0.000000001
 43
0.00000001
 40
0.0
 40
0.0
 40
0.0
 40
0.0
 40
1.0
 40
1.0
 40
1.0
 40
1.0
 10
130.4848161849711
 20
142.2335129417322
 30
0.0
 10
130.4848161849711
 20
142.308958415993
 30
0.0
 10
130.4848161849711
 20
142.3959042972161
 30
0.0
 10
130.4848161849711
 20
142.4829567675171
 30
0.0
  0
SPLINE
  5
24E
330
1F
100
AcDbEntity
  8
0
  6
Continuous
 62
     7
370
    25
100
AcDbSpline
210
0.0
220
0.0
230
1.0
 70
    24
 71
     3
 72
     8
 73
     4
 74
     0
 42
0.000000001
 43
0.00000001
 40
0.0
 40
0.0
 40
0.0
 40
0.0
 40
1.0
 40
1.0
 40
1.0
 40
1.0
 10
130.4848161849711
 20
135.2490858197541
 30
0.0
 10
130.4848161849711
 20
135.1736403454933
 30
0.0
 10
130.4848161849711
 20
135.0866944642702
 30
0.0
 10
130.4848161849711
 20
134.9996419939692
 30
0.0
  0
SPLINE
  5
24F
330
1F
100
AcDbEntity
  8
0
  6
Continuous
 62
     7
370
    25
100
AcDbSpline
210
0.0
220
0.0
230
1.0
 70
     8
 71
     3
 72
     9
 73
     5
 74
     0
 42
0.000000001
 43
0.00000001
 40
0.0
 40
0.0
 40
0.0
 40
0.0
 40
0.5
 40
1.0
 40
1.0
 40
1.0
 40
1.0
 10
115.7031718115266
 20
142.7827512650705
 30
0.0
 10
115.7816187414813
 20
142.8122601767832
 30
0.0
 10
115.9384139625693
 20
142.8976681998452
 30
0.0
 10
116.054043423983
 20
143.0134827136808
 30
0.0
 10
116.0939939982489
 20
143.0714263996653
 30
0.0
  0
SPLINE
  5
250
330
1F
100
AcDbEntity
  8
0
  6
Continuous
 62
     7
370
    25
100
AcDbSpline
210
0.0
220
0.0
230
1.0
 70
     8
 71
     3
 72
    10
 73
     6
 74
     0
 42
0.000000001
 43
0.00000001
 40
0.0
 40
0.0
 40
0.0
 40
0.0
 40
0.0235668908901633
 40
0.0471337817803266
 40
0.109978824154095
 40
0.109978824154095
 40
0.109978824154095
 40
0.109978824154095
 10
116.4848161849711
 20
142.4829567675171
 30
0.0
 10
116.4455380334875
 20
142.4829567675171
 30
0.0
 10
116.3673209484669
 20
142.5171848079261
 30
0.0
 10
116.2159430617197
 20
142.7047891924155
 30
0.0
 10
116.1378215002827
 20
142.9160774883213
 30
0.0
 10
116.0939939982489
 20
143.0714263996653
 30
0.0
  0
SPLINE
  5
251
330
1F
100
AcDbEntity
  8
0
  6
Continuous
 62
     7
370
    25
100
AcDbSpline
210
0.0
220
0.0
230
1.0
 70
     8
 71
     3
 72
    10
 73
     6
 74
     0
 42
0.000000001
 43
0.00000001
 40
0.0
 40
0.0
 40
0.0
 40
0.0
 40
0.0628475887703685
 40
0.0864154345592567
 40
0.109983280348145
 40
0.109983280348145
 40
0.109983280348145
 40
0.109983280348145
 10
130.8756383716934
 20
143.0714263996654
 30
0.0
 10
130.8318090938281
 20
142.9160711937923
 30
0.0
 10
130.7537583115048
 20
142.70490836578
 30
0.0
 10
130.602310468328
 20
142.5171754537427
 30
0.0
 10
130.5240959279526
 20
142.4829567675171
 30
0.0
 10
130.4848161849711
 20
142.4829567675171
 30
0.0
  0
SPLINE
  5
252
330
1F
100
AcDbEntity
  8
0
  6
Continuous
 62
     7
370
    25
100
AcDbSpline
210
0.0
220
0.0
230
1.0
 70
     8
 71
     3
 72
     8
 73
     4
 74
     0
 42
0.000000001
 43
0.00000001
 40
0.0
 40
0.0
 40
0.0
 40
0.0
 40
1.0
 40
1.0
 40
1.0
 40
1.0
 10
131.2664605584156
 20
142.7827512650705
 30
0.0
 10
131.1095666985062
 20
142.8417690884959
 30
0.0
 10
130.9555395202252
 20
142.9555390276963
 30
0.0
 10
130.8756383716934
 20
143.0714263996654
 30
0.0
  0
SPLINE
  5
253
330
1F
100
AcDbEntity
  8
0
  6
Continuous
 62
     7
370
    25
100
AcDbSpline
210
0.0
220
0.0
230
1.0
 70
     8
 71
     3
 72
    10
 73
     6
 74
     0
 42
0.000000001
 43
0.00000001
 40
0.0
 40
0.0
 40
0.0
 40
0.0
 40
0.0628475887703684
 40
0.0864154345592567
 40
0.109983280348145
 40
0.109983280348145
 40
0.109983280348145
 40
0.109983280348145
 10
116.0939939982489
 20
134.4111723618209
 30
0.0
 10
116.1378232761142
 20
134.566527567694
 30
0.0
 10
116.2158740584374
 20
134.7776903957063
 30
0.0
 10
116.3673219016142
 20
134.9654233077435
 30
0.0
 10
116.4455364419896
 20
134.9996419939692
 30
0.0
 10
116.4848161849711
 20
134.9996419939692
 30
0.0
  0
SPLINE
  5
254
330
1F
100
AcDbEntity
  8
0
  6
Continuous
 62
     7
370
    25
100
AcDbSpline
210
0.0
220
0.0
230
1.0
 70
     8
 71
     3
 72
     9
 73
     5
 74
     0
 42
0.000000001
 43
0.00000001
 40
0.0
 40
0.0
 40
0.0
 40
0.0
 40
0.5
 40
1.0
 40
1.0
 40
1.0
 40
1.0
 10
116.0939939982489
 20
134.4111723618209
 30
0.0
 10
116.054043423983
 20
134.4691160478055
 30
0.0
 10
115.9384139625693
 20
134.584930561641
 30
0.0
 10
115.7816187414813
 20
134.6703385847031
 30
0.0
 10
115.7031718115266
 20
134.6998474964157
 30
0.0
  0
SPLINE
  5
255
330
1F
100
AcDbEntity
  8
0
  6
Continuous
 62
     7
370
    25
100
AcDbSpline
210
0.0
220
0.0
230
1.0
 70
     8
 71
     3
 72
     9
 73
     5
 74
     0
 42
0.000000001
 43
0.00000001
 40
0.0
 40
0.0
 40
0.0
 40
0.0
 40
0.5
 40
1.0
 40
1.0
 40
1.0
 40
1.0
 10
131.2664605584156
 20
134.6998474964157
 30
0.0
 10
131.1880136284609
 20
134.6703385847031
 30
0.0
 10
131.0312184073729
 20
134.584930561641
 30
0.0
 10
130.9155889459593
 20
134.4691160478055
 30
0.0
 10
130.8756383716934
 20
134.4111723618209
 30
0.0
  0
SPLINE
  5
256
330
1F
100
AcDbEntity
  8
0
  6
Continuous
 62
     7
370
    25
100
AcDbSpline
210
0.0
220
0.0
230
1.0
 70
     8
 71
     3
 72
    10
 73
     6
 74
     0
 42
0.000000001
 43
0.00000001
 40
0.0
 40
0.0
 40
0.0
 40
0.0
 40
0.0235668908901634
 40
0.0471337817803268
 40
0.109978824154096
 40
0.109978824154096
 40
0.109978824154096
 40
0.109978824154096
 10
130.4848161849711
 20
134.9996419939692
 30
0.0
 10
130.5240943364547
 20
134.9996419939692
 30
0.0
 10
130.6023114214753
 20
134.9654139535602
 30
0.0
 10
130.7536893082226
 20
134.7778095690708
 30
0.0
 10
130.8318108696595
 20
134.5665212731651
 30
0.0
 10
130.8756383716934
 20
134.4111723618209
 30
0.0
  0
LINE
  5
257
330
1F
100
AcDbEntity
  8
0
  6
Continuous
 62
     7
370
    25
100
AcDbLine
 10
130.9848160173
 20
143.8403188821
 30
0.0
 11
130.9848160173
 21
145.2412995149
 31
0.0
  0
SPLINE
  5
258
330
1F
100
AcDbEntity
  8
0
  6
Continuous
 62
     7
370
    25
100
AcDbSpline
210
0.0
220
0.0
230
1.0
 70
     8
 71
     3
 72
    11
 73
     7
 74
     0
 42
0.000000001
 43
0.00000001
 40
0.0
 40
0.0
 40
0.0
 40
0.0
 40
0.1998756938242405
 40
0.5008842154834765
 40
0.7872132636300052
 40
1.0
 40
1.0
 40
1.0
 40
1.0
 10
130.8756383716934
 20
143.0714263996654
 30
0.0
 10
130.8890693407059
 20
143.1225392885131
 30
0.0
 10
130.9227270619043
 20
143.2506270951983
 30
0.0
 10
130.9585379298578
 20
143.453170172185
 30
0.0
 10
130.9811819515021
 20
143.6589168462912
 30
0.0
 10
130.9837299173201
 20
143.7860980584184
 30
0.0
 10
130.9848161849711
 20
143.8403188943359
 30
0.0
  0
ARC
  5
259
330
1F
100
AcDbEntity
  8
0
  6
Continuous
 62
     7
370
    25
100
AcDbCircle
 10
130.484816185
 20
145.2412993807
 30
0.0
 40
0.5
100
AcDbArc
 50
0.0
 51
46.8892083855
  0
LINE
  5
25A
330
1F
100
AcDbEntity
  8
0
  6
Continuous
 62
     7
370
    25
100
AcDbLine
 10
115.9848163526
 20
133.6422798794
 30
0.0
 11
115.9848163526
 21
132.2412992466
 31
0.0
  0
SPLINE
  5
25B
330
1F
100
AcDbEntity
  8
0
  6
Continuous
 62
     7
370
    25
100
AcDbSpline
210
0.0
220
0.0
230
1.0
 70
     8
 71
     3
 72
    11
 73
     7
 74
     0
 42
0.000000001
 43
0.00000001
 40
0.0
 40
0.0
 40
0.0
 40
0.0
 40
0.1998734112540359
 40
0.500884202933325
 40
0.7872151654670749
 40
1.0
 40
1.0
 40
1.0
 40
1.0
 10
116.0939939982489
 20
134.4111723618209
 30
0.0
 10
116.0805631794967
 20
134.3600600534876
 30
0.0
 10
116.0469054513217
 20
134.2319722420121
 30
0.0
 10
116.0110944058739
 20
134.0294286961317
 30
0.0
 10
115.9884503757995
 20
133.8236814482643
 30
0.0
 10
115.9859024330509
 20
133.6965002227843
 30
0.0
 10
115.9848161849711
 20
133.6422798671504
 30
0.0
  0
ARC
  5
25C
330
1F
100
AcDbEntity
  8
0
  6
Continuous
 62
     7
370
    25
100
AcDbCircle
 10
116.484816185
 20
132.2412993807
 30
0.0
 40
0.5
100
AcDbArc
 50
180.0
 51
226.8892083855
  0
SPLINE
  5
25D
330
1F
100
AcDbEntity
  8
0
  6
Continuous
 62
     7
370
    25
100
AcDbSpline
210
0.0
220
0.0
230
1.0
 70
     8
 71
     3
 72
    12
 73
     8
 74
     0
 42
0.000000001
 43
0.00000001
 40
0.0
 40
0.0
 40
0.0
 40
0.0
 40
0.1336874390793356
 40
0.3000652536961946
 40
0.4991448923272561
 40
0.8001431782005175
 40
1.0
 40
1.0
 40
1.0
 40
1.0
 10
115.9848161849711
 20
143.8403188943359
 30
0.0
 10
115.9852495108047
 20
143.8062958055821
 30
0.0
 10
115.9862221229444
 20
143.7299300166287
 30
0.0
 10
115.9949631130986
 20
143.6020186937823
 30
0.0
 10
116.0148509969318
 20
143.4307700375968
 30
0.0
 10
116.0469442639243
 20
143.250616702757
 30
0.0
 10
116.0805744887855
 20
143.122534997888
 30
0.0
 10
116.0939939982489
 20
143.0714263996653
 30
0.0
  0
LINE
  5
25E
330
1F
100
AcDbEntity
  8
0
  6
Continuous
 62
     7
370
    25
100
AcDbLine
 10
115.9848163526
 20
145.2412995149
 30
0.0
 11
115.9848163526
 21
143.8403188821
 31
0.0
  0
ARC
  5
25F
330
1F
100
AcDbEntity
  8
0
  6
Continuous
 62
     7
370
    25
100
AcDbCircle
 10
116.484816185
 20
145.2412993807
 30
0.0
 40
0.5
100
AcDbArc
 50
133.1107916145
 51
180.0
  0
SPLINE
  5
260
330
1F
100
AcDbEntity
  8
0
  6
Continuous
 62
     7
370
    25
100
AcDbSpline
210
0.0
220
0.0
230
1.0
 70
     8
 71
     3
 72
    12
 73
     8
 74
     0
 42
0.000000001
 43
0.00000001
 40
0.0
 40
0.0
 40
0.0
 40
0.0
 40
0.1336874390379308
 40
0.3000652536547861
 40
0.4991448923272269
 40
0.8001431782741747
 40
1.0
 40
1.0
 40
1.0
 40
1.0
 10
130.9848161849711
 20
133.6422798671504
 30
0.0
 10
130.9843828591378
 20
133.6763029558937
 30
0.0
 10
130.9834102469985
 20
133.7526687448367
 30
0.0
 10
130.974669256846
 20
133.8805800676831
 30
0.0
 10
130.9547813730102
 20
134.0518287238977
 30
0.0
 10
130.9226881060133
 20
134.2319820587477
 30
0.0
 10
130.8890578811518
 20
134.3600637636171
 30
0.0
 10
130.8756383716934
 20
134.4111723618209
 30
0.0
  0
LINE
  5
261
330
1F
100
AcDbEntity
  8
0
  6
Continuous
 62
     7
370
    25
100
AcDbLine
 10
130.9848160173
 20
132.2412992466
 30
0.0
 11
130.9848160173
 21
133.6422798794
 31
0.0
  0
ARC
  5
262
330
1F
100
AcDbEntity
  8
0
  6
Continuous
 62
     7
370
    25
100
AcDbCircle
 10
130.484816185
 20
132.2412993807
 30
0.0
 40
0.5
100
AcDbArc
 50
313.1107916145
 51
0.0
  0
SPLINE
  5
263
330
1F
100
AcDbEntity
  8
0
  6
Continuous
 62
     7
370
    25
100
AcDbSpline
210
0.0
220
0.0
230
1.0
 70
     8
 71
     3
 72
     9
 73
     5
 74
     0
 42
0.000000001
 43
0.00000001
 40
0.0
 40
0.0
 40
0.0
 40
0.0
 40
0.5
 40
1.0
 40
1.0
 40
1.0
 40
1.0
 10
115.9848161849711
 20
143.8403188943359
 30
0.0
 10
115.9848161849711
 20
143.7513242152003
 30
0.0
 10
115.8765295303255
 20
143.5740050287764
 30
0.0
 10
115.6157158788707
 20
143.5003842600964
 30
0.0
 10
115.4848161849711
 20
143.5003842600964
 30
0.0
  0
SPLINE
  5
264
330
1F
100
AcDbEntity
  8
0
  6
Continuous
 62
     7
370
    25
100
AcDbSpline
210
0.0
220
0.0
230
1.0
 70
     8
 71
     3
 72
     9
 73
     5
 74
     0
 42
0.000000001
 43
0.00000001
 40
0.0
 40
0.0
 40
0.0
 40
0.0
 40
0.5
 40
1.0
 40
1.0
 40
1.0
 40
1.0
 10
131.4848161849711
 20
143.5003842600964
 30
0.0
 10
131.3539164910715
 20
143.5003842600964
 30
0.0
 10
131.0931028396168
 20
143.5740050287764
 30
0.0
 10
130.9848161849711
 20
143.7513242152003
 30
0.0
 10
130.9848161849711
 20
143.8403188943359
 30
0.0
  0
SPLINE
  5
265
330
1F
100
AcDbEntity
  8
0
  6
Continuous
 62
     7
370
    25
100
AcDbSpline
210
0.0
220
0.0
230
1.0
 70
     8
 71
     3
 72
     9
 73
     5
 74
     0
 42
0.000000001
 43
0.00000001
 40
0.0
 40
0.0
 40
0.0
 40
0.0
 40
0.5
 40
1.0
 40
1.0
 40
1.0
 40
1.0
 10
115.4848161849711
 20
133.9822145013899
 30
0.0
 10
115.6157158788707
 20
133.9822145013899
 30
0.0
 10
115.8765295303255
 20
133.9085937327099
 30
0.0
 10
115.9848161849711
 20
133.731274546286
 30
0.0
 10
115.9848161849711
 20
133.6422798671504
 30
0.0
  0
SPLINE
  5
266
330
1F
100
AcDbEntity
  8
0
  6
Continuous
 62
     7
370
    25
100
AcDbSpline
210
0.0
220
0.0
230
1.0
 70
     8
 71
     3
 72
     9
 73
     5
 74
     0
 42
0.000000001
 43
0.00000001
 40
0.0
 40
0.0
 40
0.0
 40
0.0
 40
0.5
 40
1.0
 40
1.0
 40
1.0
 40
1.0
 10
130.9848161849711
 20
133.6422798671504
 30
0.0
 10
130.9848161849711
 20
133.731274546286
 30
0.0
 10
131.0931028396168
 20
133.9085937327099
 30
0.0
 10
131.3539164910715
 20
133.9822145013899
 30
0.0
 10
131.4848161849711
 20
133.9822145013899
 30
0.0
  0
SPLINE
  5
267
330
1F
100
AcDbEntity
  8
0
  6
Continuous
 62
     7
370
    25
100
AcDbSpline
210
0.0
220
0.0
230
1.0
 70
     8
 71
     3
 72
     9
 73
     5
 74
     0
 42
0.000000001
 43
0.00000001
 40
0.0
 40
0.0
 40
0.0
 40
0.0
 40
0.5
 40
1.0
 40
1.0
 40
1.0
 40
1.0
 10
130.9848161849711
 20
145.2412993807432
 30
0.0
 10
130.9848161849711
 20
145.1278529793635
 30
0.0
 10
131.0931000551561
 20
144.9018120682368
 30
0.0
 10
131.3539164910715
 20
144.8079660474098
 30
0.0
 10
131.4848161849711
 20
144.8079660474098
 30
0.0
  0
SPLINE
  5
268
330
1F
100
AcDbEntity
  8
0
  6
Continuous
 62
     7
370
    25
100
AcDbSpline
210
0.0
220
0.0
230
1.0
 70
     8
 71
     3
 72
     9
 73
     5
 74
     0
 42
0.000000001
 43
0.00000001
 40
0.0
 40
0.0
 40
0.0
 40
0.0
 40
0.5
 40
1.0
 40
1.0
 40
1.0
 40
1.0
 10
115.9848161849711
 20
132.2412993807431
 30
0.0
 10
115.9848161849711
 20
132.3547457821228
 30
0.0
 10
115.8765323147862
 20
132.5807866932495
 30
0.0
 10
115.6157158788707
 20
132.6746327140765
 30
0.0
 10
115.4848161849711
 20
132.6746327140765
 30
0.0
  0
SPLINE
  5
269
330
1F
100
AcDbEntity
  8
0
  6
Continuous
 62
     7
370
    25
100
AcDbSpline
210
0.0
220
0.0
230
1.0
 70
     8
 71
     3
 72
     9
 73
     5
 74
     0
 42
0.000000001
 43
0.00000001
 40
0.0
 40
0.0
 40
0.0
 40
0.0
 40
0.5
 40
1.0
 40
1.0
 40
1.0
 40
1.0
 10
115.4848161849711
 20
144.8079660474098
 30
0.0
 10
115.6157158788707
 20
144.8079660474098
 30
0.0
 10
115.8765323147862
 20
144.9018120682368
 30
0.0
 10
115.9848161849711
 20
145.1278529793635
 30
0.0
 10
115.9848161849711
 20
145.2412993807432
 30
0.0
  0
SPLINE
  5
26A
330
1F
100
AcDbEntity
  8
0
  6
Continuous
 62
     7
370
    25
100
AcDbSpline
210
0.0
220
0.0
230
1.0
 70
     8
 71
     3
 72
     9
 73
     5
 74
     0
 42
0.000000001
 43
0.00000001
 40
0.0
 40
0.0
 40
0.0
 40
0.0
 40
0.5
 40
1.0
 40
1.0
 40
1.0
 40
1.0
 10
131.4848161849711
 20
132.6746327140765
 30
0.0
 10
131.3539164910715
 20
132.6746327140765
 30
0.0
 10
131.0931000551561
 20
132.5807866932495
 30
0.0
 10
130.9848161849711
 20
132.3547457821228
 30
0.0
 10
130.9848161849711
 20
132.2412993807431
 30
0.0
  0
SPLINE
  5
26B
330
1F
100
AcDbEntity
  8
0
  6
Continuous
 62
     7
370
    25
100
AcDbSpline
210
0.0
220
0.0
230
1.0
 70
     8
 71
     3
 72
     8
 73
     4
 74
     0
 42
0.000000001
 43
0.00000001
 40
0.0
 40
0.0
 40
0.0
 40
0.0
 40
1.0
 40
1.0
 40
1.0
 40
1.0
 10
115.6403593675134
 20
145.3078814445013
 30
0.0
 10
115.8103632473491
 20
145.2949417992758
 30
0.0
 10
115.9771677097016
 20
145.3744391059082
 30
0.0
 10
116.0625877762423
 20
145.5091112006135
 30
0.0
  0
SPLINE
  5
26C
330
1F
100
AcDbEntity
  8
0
  6
Continuous
 62
     7
370
    25
100
AcDbSpline
210
0.0
220
0.0
230
1.0
 70
     8
 71
     3
 72
     9
 73
     5
 74
     0
 42
0.000000001
 43
0.00000001
 40
0.0
 40
0.0
 40
0.0
 40
0.0
 40
0.571428571428571
 40
1.0
 40
1.0
 40
1.0
 40
1.0
 10
131.3292730024288
 20
132.174717316985
 30
0.0
 10
131.232127928237
 20
132.182111399971
 30
0.0
 10
131.0624665895193
 20
132.1447962203929
 30
0.0
 10
130.943653193646
 20
132.0312041728893
 30
0.0
 10
130.9070445936999
 20
131.9734875608727
 30
0.0
  0
SPLINE
  5
26D
330
1F
100
AcDbEntity
  8
0
  6
Continuous
 62
     7
370
    25
100
AcDbSpline
210
0.0
220
0.0
230
1.0
 70
     8
 71
     3
 72
     9
 73
     5
 74
     0
 42
0.000000001
 43
0.00000001
 40
0.0
 40
0.0
 40
0.0
 40
0.0
 40
0.5
 40
1.0
 40
1.0
 40
1.0
 40
1.0
 10
131.32927300243
 20
145.3078814444995
 30
0.0
 10
131.2442710625119
 20
145.3014116218866
 30
0.0
 10
131.0743771442631
 20
145.3320906150926
 30
0.0
 10
130.9497546269707
 20
145.4417751532596
 30
0.0
 10
130.9070445937006
 20
145.5091112006126
 30
0.0
  0
SPLINE
  5
26E
330
1F
100
AcDbEntity
  8
0
  6
Continuous
 62
     7
370
    25
100
AcDbSpline
210
0.0
220
0.0
230
1.0
 70
     8
 71
     3
 72
     9
 73
     5
 74
     0
 42
0.000000001
 43
0.00000001
 40
0.0
 40
0.0
 40
0.0
 40
0.0
 40
0.5
 40
1.0
 40
1.0
 40
1.0
 40
1.0
 10
115.6403593675127
 20
132.174717316986
 30
0.0
 10
115.7253613074307
 20
132.181187139599
 30
0.0
 10
115.8952552256794
 20
132.150508146393
 30
0.0
 10
116.0198777429718
 20
132.0408236082262
 30
0.0
 10
116.0625877762419
 20
131.9734875608733
 30
0.0
  0
SPLINE
  5
26F
330
1F
100
AcDbEntity
  8
0
  6
Continuous
 62
     7
370
    25
100
AcDbSpline
210
0.0
220
0.0
230
1.0
 70
     8
 71
     3
 72
    11
 73
     7
 74
     0
 42
0.000000001
 43
0.00000001
 40
0.0
 40
0.0
 40
0.0
 40
0.0
 40
0.2876478479512965
 40
0.5611005784409707
 40
0.8299950982559509
 40
1.0
 40
1.0
 40
1.0
 40
1.0
 10
116.0625878411863
 20
145.5091111000713
 30
0.0
 10
116.0769782700429
 20
145.5441672563609
 30
0.0
 10
116.1050489752924
 20
145.6125495846561
 30
0.0
 10
116.075216635281
 20
145.6858662470473
 30
0.0
 10
116.0409844366312
 20
145.7283397884574
 30
0.0
 10
116.0132584260917
 20
145.7338128823398
 30
0.0
 10
116.0025189321075
 20
145.7359328504738
 30
0.0
  0
SPLINE
  5
270
330
1F
100
AcDbEntity
  8
0
  6
Continuous
 62
     7
370
    25
100
AcDbSpline
210
0.0
220
0.0
230
1.0
 70
    24
 71
     3
 72
    14
 73
    10
 74
     0
 42
0.000000001
 43
0.00000001
 40
0.0
 40
0.0
 40
0.0
 40
0.0
 40
0.250384366109634
 40
0.3856975923178703
 40
0.5014306604032173
 40
0.6388329400918317
 40
0.7674982872365089
 40
0.8877537710032762
 40
1.0
 40
1.0
 40
1.0
 40
1.0
 10
115.9848161849711
 20
145.7412993807432
 30
0.0
 10
116.0441031298566
 20
145.7412993807432
 30
0.0
 10
116.1354300455642
 20
145.7412993807432
 30
0.0
 10
116.247944375466
 20
145.7412993807432
 30
0.0
 10
116.3277307848389
 20
145.7412993807432
 30
0.0
 10
116.3945299986953
 20
145.7412993807432
 30
0.0
 10
116.4457189623661
 20
145.7412993807432
 30
0.0
 10
116.4783483142248
 20
145.7412993807432
 30
0.0
 10
116.4827103156882
 20
145.7412993807432
 30
0.0
 10
116.4848161849711
 20
145.7412993807432
 30
0.0
  0
SPLINE
  5
271
330
1F
100
AcDbEntity
  8
0
  6
Continuous
 62
     7
370
    25
100
AcDbSpline
210
0.0
220
0.0
230
1.0
 70
     8
 71
     3
 72
    12
 73
     8
 74
     0
 42
0.000000001
 43
0.00000001
 40
0.0
 40
0.0
 40
0.0
 40
0.0
 40
0.106360891224351
 40
0.159541336836527
 40
0.265902228060878
 40
0.265902228060878
 40
0.267217449764311
 40
0.267217449764311
 40
0.267217449764311
 40
0.267217449764311
 10
130.9070445936999
 20
131.9734875608727
 30
0.0
 10
130.8690024068719
 20
131.913510775615
 30
0.0
 10
130.874498279025
 20
131.8392201315784
 30
0.0
 10
130.9163948585419
 20
131.7609885463551
 30
0.0
 10
130.9575210162858
 20
131.7416124298426
 30
0.0
 10
130.9841683938101
 20
131.7413012883952
 30
0.0
 10
130.9844918954851
 20
131.7412993807431
 30
0.0
 10
130.9848161849711
 20
131.7412993807431
 30
0.0
  0
SPLINE
  5
272
330
1F
100
AcDbEntity
  8
0
  6
Continuous
 62
     7
370
    25
100
AcDbSpline
210
0.0
220
0.0
230
1.0
 70
    24
 71
     3
 72
    16
 73
    12
 74
     0
 42
0.000000001
 43
0.00000001
 40
0.0
 40
0.0
 40
0.0
 40
0.0
 40
0.0739298478317502
 40
0.1513677900738161
 40
0.2324450724296886
 40
0.3172760505391666
 40
0.4059605604440887
 40
0.4985859784696513
 40
0.6141264806631028
 40
0.7496239522892343
 40
1.0
 40
1.0
 40
1.0
 40
1.0
 10
130.4848161849711
 20
131.7412993807431
 30
0.0
 10
130.4857314902636
 20
131.7412993807431
 30
0.0
 10
130.4876055336093
 20
131.7412993807431
 30
0.0
 10
130.5019802851668
 20
131.7412993807431
 30
0.0
 10
130.5246736306555
 20
131.7412993807431
 30
0.0
 10
130.5566361898747
 20
131.7412993807431
 30
0.0
 10
130.5975789710365
 20
131.7412993807431
 30
0.0
 10
130.6510466617679
 20
131.7412993807431
 30
0.0
 10
130.7216493222411
 20
131.7412993807431
 30
0.0
 10
130.8341560247165
 20
131.7412993807431
 30
0.0
 10
130.9255286075397
 20
131.7412993807431
 30
0.0
 10
130.9848161849711
 20
131.7412993807431
 30
0.0
  0
SPLINE
  5
273
330
1F
100
AcDbEntity
  8
0
  6
Continuous
 62
     7
370
    25
100
AcDbSpline
210
0.0
220
0.0
230
1.0
 70
     8
 71
     3
 72
    12
 73
     8
 74
     0
 42
0.000000001
 43
0.00000001
 40
-0.265902228061387
 40
-0.265902228061387
 40
-0.265902228061387
 40
-0.265902228061387
 40
-0.2645870063584663
 40
-0.2645870063584663
 40
-0.1582261151339113
 40
-0.1050456695216343
 40
0.0013152217029208
 40
0.0013152217029208
 40
0.0013152217029208
 40
0.0013152217029208
 10
115.9848161849711
 20
131.7412993807431
 30
0.0
 10
115.985140474457
 20
131.7412993807431
 30
0.0
 10
115.9854639761317
 20
131.7413012883952
 30
0.0
 10
116.0121113536582
 20
131.7416124298425
 30
0.0
 10
116.0532375114006
 20
131.7609885463549
 30
0.0
 10
116.0951340909179
 20
131.8392201315782
 30
0.0
 10
116.1006299630704
 20
131.9135107756149
 30
0.0
 10
116.0625877762423
 20
131.9734875608727
 30
0.0
  0
SPLINE
  5
274
330
1F
100
AcDbEntity
  8
0
  6
Continuous
 62
     7
370
    25
100
AcDbSpline
210
0.0
220
0.0
230
1.0
 70
    24
 71
     3
 72
    14
 73
    10
 74
     0
 42
0.000000001
 43
0.00000001
 40
0.0
 40
0.0
 40
0.0
 40
0.0
 40
0.2503818975769405
 40
0.3853960642454612
 40
0.5014219062737861
 40
0.6386745024418747
 40
0.7672919706928744
 40
0.8876008223903926
 40
1.0
 40
1.0
 40
1.0
 40
1.0
 10
115.9848161849711
 20
131.7412993807431
 30
0.0
 10
116.0443492687009
 20
131.7412993807431
 30
0.0
 10
116.1359845521775
 20
131.7412993807431
 30
0.0
 10
116.2485106063551
 20
131.7412993807431
 30
0.0
 10
116.3281688160384
 20
131.7412993807431
 30
0.0
 10
116.3948392818358
 20
131.7412993807431
 30
0.0
 10
116.4458615856774
 20
131.7412993807431
 30
0.0
 10
116.4783768776978
 20
131.7412993807431
 30
0.0
 10
116.4827189443821
 20
131.7412993807431
 30
0.0
 10
116.4848161849711
 20
131.7412993807431
 30
0.0
  0
LINE
  5
275
330
1F
100
AcDbEntity
  8
0
  6
Continuous
 62
     7
370
    25
100
AcDbLine
 10
130.9848160173
 20
145.7412995968
 30
0.0
 11
130.9604456339
 21
145.7338536728
 31
0.0
  0
SPLINE
  5
276
330
1F
100
AcDbEntity
  8
0
  6
Continuous
 62
     7
370
    25
100
AcDbSpline
210
0.0
220
0.0
230
1.0
 70
    24
 71
     3
 72
    16
 73
    12
 74
     0
 42
0.000000001
 43
0.00000001
 40
0.0
 40
0.0
 40
0.0
 40
0.0
 40
0.0740424421768231
 40
0.1515492076760871
 40
0.2326508292781398
 40
0.3174612427217847
 40
0.4060800799075449
 40
0.4985946693164888
 40
0.6144270548830109
 40
0.7496263894763571
 40
1.0
 40
1.0
 40
1.0
 40
1.0
 10
130.4848161849711
 20
145.7412993807432
 30
0.0
 10
130.4857279827378
 20
145.7412993807432
 30
0.0
 10
130.4875942397796
 20
145.7412993807432
 30
0.0
 10
130.5019198979249
 20
145.7412993807432
 30
0.0
 10
130.5245393061858
 20
145.7412993807432
 30
0.0
 10
130.5563981837903
 20
145.7412993807432
 30
0.0
 10
130.5972094724216
 20
145.7412993807432
 30
0.0
 10
130.6505893635972
 20
145.7412993807432
 30
0.0
 10
130.7210829944581
 20
145.7412993807432
 30
0.0
 10
130.8336010917515
 20
145.7412993807432
 30
0.0
 10
130.9252824576174
 20
145.7412993807432
 30
0.0
 10
130.9848161849711
 20
145.7412993807432
 30
0.0
  0
LINE
  5
277
330
1F
100
AcDbEntity
  8
0
  6
Continuous
 62
     7
370
    25
100
AcDbLine
 10
131.6930733312
 20
146.0412995529
 30
0.0
 11
132.2765590313
 21
146.0412995529
 31
0.0
  0
LINE
  5
278
330
1F
100
AcDbEntity
  8
0
  6
Continuous
 62
     7
370
    25
100
AcDbLine
 10
131.2348160583
 20
145.7412995968
 30
0.0
 11
132.7348163042
 21
145.7412995968
 31
0.0
  0
LINE
  5
279
330
1F
100
AcDbEntity
  8
0
  6
Continuous
 62
     8
370
    25
100
AcDbLine
 10
109.9848158348
 20
129.7412997682
 30
0.0
 11
109.9848158348
 21
147.7412989933
 31
0.0
  0
LINE
  5
27A
330
1F
100
AcDbEntity
  8
0
  6
Continuous
 62
     8
370
    25
100
AcDbLine
 10
136.9848165351
 20
147.7412989933
 30
0.0
 11
136.9848165351
 21
129.7412997682
 31
0.0
  0
LINE
  5
27B
330
1F
100
AcDbEntity
  8
0
  6
Continuous
 62
     8
370
    25
100
AcDbLine
 10
135.5151224572
 20
146.5412991691
 30
0.0
 11
135.5151224572
 21
130.9412995923
 31
0.0
  0
LINE
  5
27C
330
1F
100
AcDbEntity
  8
0
  6
Continuous
 62
     8
370
    25
100
AcDbLine
 10
111.4545099128
 20
130.9412995923
 30
0.0
 11
111.4545099128
 21
146.5412991691
 31
0.0
  0
SPLINE
  5
27D
330
1F
100
AcDbEntity
  8
0
  6
Continuous
 62
     8
370
    25
100
AcDbSpline
210
0.0
220
0.0
230
1.0
 70
     8
 71
     3
 72
    11
 73
     7
 74
     0
 42
0.000000001
 43
0.00000001
 40
0.0
 40
0.0
 40
0.0
 40
0.0
 40
0.2277352367144223
 40
0.4779267898091948
 40
0.7323595070928828
 40
1.0
 40
1.0
 40
1.0
 40
1.0
 10
123.5362502749538
 20
131.7425038304266
 30
0.0
 10
123.7302720990781
 20
131.7452362051513
 30
0.0
 10
124.1374476811027
 20
131.7509703862099
 30
0.0
 10
124.7606629638548
 20
131.7964030486991
 30
0.0
 10
125.4167496302234
 20
131.8701371575822
 30
0.0
 10
125.8571310585638
 20
131.9384613225285
 30
0.0
 10
126.0828923124407
 20
131.973487661415
 30
0.0
  0
LINE
  5
27E
330
1F
100
AcDbEntity
  8
0
  6
Continuous
 62
     8
370
    25
100
AcDbLine
 10
134.5353264052
 20
131.7412991647
 30
0.0
 11
134.5353264052
 21
145.7412995968
 31
0.0
  0
LINE
  5
27F
330
1F
100
AcDbEntity
  8
0
  6
Continuous
 62
     8
370
    25
100
AcDbLine
 10
112.4343059647
 20
145.7412995968
 30
0.0
 11
112.4343059647
 21
131.7412991647
 31
0.0
  0
SPLINE
  5
280
330
1F
100
AcDbEntity
  8
0
  6
Continuous
 62
     8
370
    25
100
AcDbSpline
210
0.0
220
0.0
230
1.0
 70
     8
 71
     3
 72
    11
 73
     7
 74
     0
 42
0.000000001
 43
0.00000001
 40
0.0
 40
0.0
 40
0.0
 40
0.0
 40
0.137696887866455
 40
0.4171858930680554
 40
0.7017749847908697
 40
1.0
 40
1.0
 40
1.0
 40
1.0
 10
130.9604456338618
 20
145.7338536728259
 30
0.0
 10
130.9522113111756
 20
145.7320939772488
 30
0.0
 10
130.9272634469437
 20
145.7267625555862
 30
0.0
 10
130.8945022700642
 20
145.6855725409594
 30
0.0
 10
130.8673185695999
 20
145.6129875214978
 30
0.0
 10
130.89359759493
 20
145.5442724755214
 30
0.0
 10
130.9070445287559
 20
145.5091111000713
 30
0.0
  0
LINE
  5
281
330
1F
100
AcDbEntity
  8
0
  6
Continuous
 62
     8
370
    25
100
AcDbLine
 10
129.1794579167
 20
131.7412991647
 30
0.0
 11
129.1794579167
 21
131.7777315725
 31
0.0
  0
INSERT
  5
28D
330
1F
100
AcDbEntity
  8
0
  6
Continuous
 62
     7
370
    18
100
AcDbBlockReference
  2
SW_CENTERMARKSYMBOL_1
 10
123.484816185
 20
138.7412993807
 30
0.0
  0
ARC
  5
28E
330
1F
100
AcDbEntity
  8
0
  6
Continuous
 62
     7
370
    18
100
AcDbCircle
 10
123.484816185
 20
138.7412993807
 30
0.0
 40
4.282999999999998
100
AcDbArc
 50
75.0
 51
345.0
  0
ENDSEC
  0
SECTION
  2
OBJECTS
  0
DICTIONARY
  5
C
330
0
100
AcDbDictionary
281
     1
  3
ACAD_GROUP
350
D
  3
ACAD_LAYOUT
350
1A
  3
ACAD_MLINESTYLE
350
17
  3
ACAD_PLOTSETTINGS
350
19
  3
ACAD_PLOTSTYLENAME
350
E
  3
ACAD_SCALELIST
350
47
  0
DICTIONARY
  5
D
102
{ACAD_REACTORS
330
C
102
}
330
C
100
AcDbDictionary
281
     1
  0
DICTIONARY
  5
1A
102
{ACAD_REACTORS
330
C
102
}
330
C
100
AcDbDictionary
281
     1
  3
Layout1
350
1E
  3
Layout2
350
26
  3
Model
350
22
  0
DICTIONARY
  5
17
102
{ACAD_REACTORS
330
C
102
}
330
C
100
AcDbDictionary
281
     1
  3
Standard
350
18
  0
DICTIONARY
  5
19
102
{ACAD_REACTORS
330
C
102
}
330
C
100
AcDbDictionary
281
     1
  0
ACDBDICTIONARYWDFLT
  5
E
102
{ACAD_REACTORS
330
C
102
}
330
C
100
AcDbDictionary
281
     1
  3
Normal
350
F
100
AcDbDictionaryWithDefault
340
F
  0
DICTIONARY
  5
47
102
{ACAD_REACTORS
330
C
102
}
330
C
100
AcDbDictionary
281
     1
  3
A0
350
48
  3
A1
350
49
  3
A2
350
4A
  3
A3
350
4B
  3
A4
350
4C
  3
A5
350
4D
  3
A6
350
4E
  3
A7
350
4F
  3
A8
350
50
  3
A9
350
51
  3
B0
350
52
  3
B1
350
53
  3
B2
350
54
  3
B3
350
55
  3
B4
350
56
  3
B5
350
57
  3
B6
350
58
  3
B7
350
59
  3
B8
350
5A
  3
B9
350
5B
  3
C0
350
5C
  3
C1
350
5D
  3
C2
350
5E
  3
C3
350
5F
  3
C4
350
60
  3
C5
350
61
  3
C6
350
62
  3
C7
350
63
  3
C8
350
64
  3
C9
350
65
  3
D0
350
66
  3
D1
350
67
  3
D2
350
68
  0
LAYOUT
  5
1E
102
{ACAD_REACTORS
330
1A
102
}
330
1A
100
AcDbPlotSettings
  1

  2
none_device
  4

  6

 40
0.0
 41
0.0
 42
0.0
 43
0.0
 44
0.0
 45
0.0
 46
0.0
 47
0.0
 48
0.0
 49
0.0
140
0.0
141
0.0
142
1.0
143
1.0
 70
   688
 72
     1
 73
     0
 74
     5
  7

 75
    16
147
1.0
148
0.0
149
0.0
100
AcDbLayout
  1
Layout1
 70
     1
 71
     1
 10
0.0
 20
0.0
 11
420.0
 21
297.0
 12
0.0
 22
0.0
 32
0.0
 14
1.0000000000E+20
 24
1.0000000000E+20
 34
1.0000000000E+20
 15
-1.0000000000E+20
 25
-1.0000000000E+20
 35
-1.0000000000E+20
146
0.0
 13
0.0
 23
0.0
 33
0.0
 16
1.0
 26
0.0
 36
0.0
 17
0.0
 27
1.0
 37
0.0
 76
     0
330
1B
  0
LAYOUT
  5
26
102
{ACAD_REACTORS
330
1A
102
}
330
1A
100
AcDbPlotSettings
  1

  2
none_device
  4

  6

 40
0.0
 41
0.0
 42
0.0
 43
0.0
 44
0.0
 45
0.0
 46
0.0
 47
0.0
 48
0.0
 49
0.0
140
0.0
141
0.0
142
1.0
143
1.0
 70
   688
 72
     1
 73
     0
 74
     5
  7

 75
    16
147
1.0
148
0.0
149
0.0
100
AcDbLayout
  1
Layout2
 70
     1
 71
     2
 10
0.0
 20
0.0
 11
0.0
 21
0.0
 12
0.0
 22
0.0
 32
0.0
 14
0.0
 24
0.0
 34
0.0
 15
0.0
 25
0.0
 35
0.0
146
0.0
 13
0.0
 23
0.0
 33
0.0
 16
1.0
 26
0.0
 36
0.0
 17
0.0
 27
1.0
 37
0.0
 76
     0
330
23
  0
LAYOUT
  5
22
102
{ACAD_REACTORS
330
1A
102
}
330
1A
100
AcDbPlotSettings
  1

  2
none_device
  4
Letter_(8.50_x_11.00_Inches)
  6

 40
6.35
 41
6.35
 42
6.35000508
 43
6.35000508
 44
215.9
 45
279.4
 46
0.0
 47
0.0
 48
0.0
 49
0.0
140
0.0
141
0.0
142
1.0
143
1.0
 70
  1712
 72
     1
 73
     0
 74
     0
  7

 75
     0
147
1.0
148
0.0
149
0.0
100
AcDbLayout
  1
Model
 70
     1
 71
     0
 10
0.0
 20
0.0
 11
431.8
 21
279.4
 12
0.0
 22
0.0
 32
0.0
 14
0.0
 24
0.0
 34
0.0
 15
431.8
 25
279.4
 35
0.0
146
0.0
 13
0.0
 23
0.0
 33
0.0
 16
1.0
 26
0.0
 36
0.0
 17
0.0
 27
1.0
 37
0.0
 76
     0
330
1F
331
29
  0
MLINESTYLE
  5
18
102
{ACAD_REACTORS
330
17
102
}
330
17
100
AcDbMlineStyle
  2
Standard
 70
     0
  3

 62
   256
 51
90.0
 52
90.0
 71
     2
 49
0.5
 62
   256
  6
BYLAYER
 49
-0.5
 62
   256
  6
BYLAYER
  0
ACDBPLACEHOLDER
  5
F
102
{ACAD_REACTORS
330
E
102
}
330
E
  0
SCALE
  5
48
102
{ACAD_REACTORS
330
47
102
}
330
47
100
AcDbScale
 70
     0
300
1:1
140
1.0
141
1.0
290
     1
  0
SCALE
  5
49
102
{ACAD_REACTORS
330
47
102
}
330
47
100
AcDbScale
 70
     0
300
1:2
140
1.0
141
2.0
290
     0
  0
SCALE
  5
4A
102
{ACAD_REACTORS
330
47
102
}
330
47
100
AcDbScale
 70
     0
300
1:4
140
1.0
141
4.0
290
     0
  0
SCALE
  5
4B
102
{ACAD_REACTORS
330
47
102
}
330
47
100
AcDbScale
 70
     0
300
1:5
140
1.0
141
5.0
290
     0
  0
SCALE
  5
4C
102
{ACAD_REACTORS
330
47
102
}
330
47
100
AcDbScale
 70
     0
300
1:8
140
1.0
141
8.0
290
     0
  0
SCALE
  5
4D
102
{ACAD_REACTORS
330
47
102
}
330
47
100
AcDbScale
 70
     0
300
1:10
140
1.0
141
10.0
290
     0
  0
SCALE
  5
4E
102
{ACAD_REACTORS
330
47
102
}
330
47
100
AcDbScale
 70
     0
300
1:16
140
1.0
141
16.0
290
     0
  0
SCALE
  5
4F
102
{ACAD_REACTORS
330
47
102
}
330
47
100
AcDbScale
 70
     0
300
1:20
140
1.0
141
20.0
290
     0
  0
SCALE
  5
50
102
{ACAD_REACTORS
330
47
102
}
330
47
100
AcDbScale
 70
     0
300
1:30
140
1.0
141
30.0
290
     0
  0
SCALE
  5
51
102
{ACAD_REACTORS
330
47
102
}
330
47
100
AcDbScale
 70
     0
300
1:40
140
1.0
141
40.0
290
     0
  0
SCALE
  5
52
102
{ACAD_REACTORS
330
47
102
}
330
47
100
AcDbScale
 70
     0
300
1:50
140
1.0
141
50.0
290
     0
  0
SCALE
  5
53
102
{ACAD_REACTORS
330
47
102
}
330
47
100
AcDbScale
 70
     0
300
1:100
140
1.0
141
100.0
290
     0
  0
SCALE
  5
54
102
{ACAD_REACTORS
330
47
102
}
330
47
100
AcDbScale
 70
     0
300
2:1
140
2.0
141
1.0
290
     0
  0
SCALE
  5
55
102
{ACAD_REACTORS
330
47
102
}
330
47
100
AcDbScale
 70
     0
300
4:1
140
4.0
141
1.0
290
     0
  0
SCALE
  5
56
102
{ACAD_REACTORS
330
47
102
}
330
47
100
AcDbScale
 70
     0
300
8:1
140
8.0
141
1.0
290
     0
  0
SCALE
  5
57
102
{ACAD_REACTORS
330
47
102
}
330
47
100
AcDbScale
 70
     0
300
10:1
140
10.0
141
1.0
290
     0
  0
SCALE
  5
58
102
{ACAD_REACTORS
330
47
102
}
330
47
100
AcDbScale
 70
     0
300
100:1
140
100.0
141
1.0
290
     0
  0
SCALE
  5
59
102
{ACAD_REACTORS
330
47
102
}
330
47
100
AcDbScale
 70
     0
300
1/128" = 1'-0"
140
0.0078125
141
12.0
290
     0
  0
SCALE
  5
5A
102
{ACAD_REACTORS
330
47
102
}
330
47
100
AcDbScale
 70
     0
300
1/64" = 1'-0"
140
0.015625
141
12.0
290
     0
  0
SCALE
  5
5B
102
{ACAD_REACTORS
330
47
102
}
330
47
100
AcDbScale
 70
     0
300
1/32" = 1'-0"
140
0.03125
141
12.0
290
     0
  0
SCALE
  5
5C
102
{ACAD_REACTORS
330
47
102
}
330
47
100
AcDbScale
 70
     0
300
1/16" = 1'-0"
140
0.0625
141
12.0
290
     0
  0
SCALE
  5
5D
102
{ACAD_REACTORS
330
47
102
}
330
47
100
AcDbScale
 70
     0
300
3/32" = 1'-0"
140
0.09375
141
12.0
290
     0
  0
SCALE
  5
5E
102
{ACAD_REACTORS
330
47
102
}
330
47
100
AcDbScale
 70
     0
300
1/8" = 1'-0"
140
0.125
141
12.0
290
     0
  0
SCALE
  5
5F
102
{ACAD_REACTORS
330
47
102
}
330
47
100
AcDbScale
 70
     0
300
3/16" = 1'-0"
140
0.1875
141
12.0
290
     0
  0
SCALE
  5
60
102
{ACAD_REACTORS
330
47
102
}
330
47
100
AcDbScale
 70
     0
300
1/4" = 1'-0"
140
0.25
141
12.0
290
     0
  0
SCALE
  5
61
102
{ACAD_REACTORS
330
47
102
}
330
47
100
AcDbScale
 70
     0
300
3/8" = 1'-0"
140
0.375
141
12.0
290
     0
  0
SCALE
  5
62
102
{ACAD_REACTORS
330
47
102
}
330
47
100
AcDbScale
 70
     0
300
1/2" = 1'-0"
140
0.5
141
12.0
290
     0
  0
SCALE
  5
63
102
{ACAD_REACTORS
330
47
102
}
330
47
100
AcDbScale
 70
     0
300
3/4" = 1'-0"
140
0.75
141
12.0
290
     0
  0
SCALE
  5
64
102
{ACAD_REACTORS
330
47
102
}
330
47
100
AcDbScale
 70
     0
300
1" = 1'-0"
140
1.0
141
12.0
290
     0
  0
SCALE
  5
65
102
{ACAD_REACTORS
330
47
102
}
330
47
100
AcDbScale
 70
     0
300
1-1/2" = 1'-0"
140
1.5
141
12.0
290
     0
  0
SCALE
  5
66
102
{ACAD_REACTORS
330
47
102
}
330
47
100
AcDbScale
 70
     0
300
3" = 1'-0"
140
3.0
141
12.0
290
     0
  0
SCALE
  5
67
102
{ACAD_REACTORS
330
47
102
}
330
47
100
AcDbScale
 70
     0
300
6" = 1'-0"
140
6.0
141
12.0
290
     0
  0
SCALE
  5
68
102
{ACAD_REACTORS
330
47
102
}
330
47
100
AcDbScale
 70
     0
300
1'-0" = 1'-0"
140
12.0
141
12.0
290
     0
  0
ENDSEC
  0
EOF
