  0
SECTION
  2
HEADER
  9
$ACADVER
  1
AC1015
  9
$ACADMAINTVER
 70
     6
  9
$DWGCODEPAGE
  3
DOS932
  9
$INSBASE
 10
0.0
 20
0.0
 30
0.0
  9
$EXTMIN
 10
0.0
 20
0.0
 30
0.0
  9
$EXTMAX
 10
431.8
 20
279.4
 30
0.0
  9
$LIMMIN
 10
0.0
 20
0.0
  9
$LIMMAX
 10
431.8
 20
279.4
  9
$ORTHOMODE
 70
     0
  9
$REGENMODE
 70
     1
  9
$FILLMODE
 70
     1
  9
$QTEXTMODE
 70
     0
  9
$MIRRTEXT
 70
     1
  9
$LTSCALE
 40
1.0
  9
$ATTMODE
 70
     1
  9
$TEXTSIZE
 40
3.5
  9
$TRACEWID
 40
1.0
  9
$TEXTSTYLE
  7
Standard
  9
$CLAYER
  8
0
  9
$CELTYPE
  6
ByLayer
  9
$CECOLOR
 62
   256
  9
$CELTSCALE
 40
1.0
  9
$DISPSILH
 70
     0
  9
$DIMSCALE
 40
1.0
  9
$DIMASZ
 40
3.302
  9
$DIMEXO
 40
1.0
  9
$DIMDLI
 40
3.75
  9
$DIMRND
 40
0.0
  9
$DIMDLE
 40
0.0
  9
$DIMEXE
 40
1.0
  9
$DIMTP
 40
0.0
  9
$DIMTM
 40
0.0
  9
$DIMTXT
 40
3.5
  9
$DIMCEN
 40
2.5
  9
$DIMTSZ
 40
0.0
  9
$DIMTOL
 70
     0
  9
$DIMLIM
 70
     0
  9
$DIMTIH
 70
     1
  9
$DIMTOH
 70
     1
  9
$DIMSE1
 70
     0
  9
$DIMSE2
 70
     0
  9
$DIMTAD
 70
     1
  9
$DIMZIN
 70
     1
  9
$DIMBLK
  1

  9
$DIMASO
 70
     1
  9
$DIMSHO
 70
     1
  9
$DIMPOST
  1

  9
$DIMAPOST
  1

  9
$DIMALT
 70
     0
  9
$DIMALTD
 70
     3
  9
$DIMALTF
 40
0.0393700787
  9
$DIMLFAC
 40
1.0
  9
$DIMTOFL
 70
     1
  9
$DIMTVP
 40
0.0
  9
$DIMTIX
 70
     0
  9
$DIMSOXD
 70
     0
  9
$DIMSAH
 70
     0
  9
$DIMBLK1
  1

  9
$DIMBLK2
  1

  9
$DIMSTYLE
  2
ISO-25
  9
$DIMCLRD
 70
     0
  9
$DIMCLRE
 70
     0
  9
$DIMCLRT
 70
     0
  9
$DIMTFAC
 40
1.0
  9
$DIMGAP
 40
1.524
  9
$DIMJUST
 70
     0
  9
$DIMSD1
 70
     0
  9
$DIMSD2
 70
     0
  9
$DIMTOLJ
 70
     0
  9
$DIMTZIN
 70
     1
  9
$DIMALTZ
 70
     0
  9
$DIMALTTZ
 70
     0
  9
$DIMUPT
 70
     0
  9
$DIMDEC
 70
     2
  9
$DIMTDEC
 70
     2
  9
$DIMALTU
 70
     2
  9
$DIMALTTD
 70
     3
  9
$DIMTXSTY
  7
Standard
  9
$DIMAUNIT
 70
     0
  9
$DIMADEC
 70
     2
  9
$DIMALTRND
 40
0.0
  9
$DIMAZIN
 70
     0
  9
$DIMDSEP
 70
    44
  9
$DIMATFIT
 70
     3
  9
$DIMFRAC
 70
     0
  9
$DIMLDRBLK
  1

  9
$DIMLUNIT
 70
     2
  9
$DIMLWD
 70
    -2
  9
$DIMLWE
 70
    -2
  9
$DIMTMOVE
 70
     0
  9
$LUNITS
 70
     2
  9
$LUPREC
 70
     2
  9
$SKETCHINC
 40
1.0
  9
$FILLETRAD
 40
10.0
  9
$AUNITS
 70
     0
  9
$AUPREC
 70
     2
  9
$MENU
  1
.
  9
$ELEVATION
 40
0.0
  9
$PELEVATION
 40
0.0
  9
$THICKNESS
 40
0.0
  9
$LIMCHECK
 70
     0
  9
$CHAMFERA
 40
0.0
  9
$CHAMFERB
 40
0.0
  9
$CHAMFERC
 40
0.0
  9
$CHAMFERD
 40
0.0
  9
$SKPOLY
 70
     0
  9
$TDCREATE
 40
2459230.378928704
  9
$TDUCREATE
 40
2459230.003928704
  9
$TDUPDATE
 40
2459230.378929329
  9
$TDUUPDATE
 40
2459230.003929329
  9
$TDINDWG
 40
0.0000000116
  9
$TDUSRTIMER
 40
0.0000000116
  9
$USRTIMER
 70
     1
  9
$ANGBASE
 50
0.0
  9
$ANGDIR
 70
     0
  9
$PDMODE
 70
     0
  9
$PDSIZE
 40
-1.0
  9
$PLINEWID
 40
0.0
  9
$SPLFRAME
 70
     0
  9
$SPLINETYPE
 70
     6
  9
$SPLINESEGS
 70
     8
  9
$HANDSEED
  5
205
  9
$SURFTAB1
 70
     6
  9
$SURFTAB2
 70
     6
  9
$SURFTYPE
 70
     6
  9
$SURFU
 70
     6
  9
$SURFV
 70
     6
  9
$UCSBASE
  2

  9
$UCSNAME
  2

  9
$UCSORG
 10
0.0
 20
0.0
 30
0.0
  9
$UCSXDIR
 10
1.0
 20
0.0
 30
0.0
  9
$UCSYDIR
 10
0.0
 20
1.0
 30
0.0
  9
$UCSORTHOREF
  2

  9
$UCSORTHOVIEW
 70
     0
  9
$UCSORGTOP
 10
0.0
 20
0.0
 30
0.0
  9
$UCSORGBOTTOM
 10
0.0
 20
0.0
 30
0.0
  9
$UCSORGLEFT
 10
0.0
 20
0.0
 30
0.0
  9
$UCSORGRIGHT
 10
0.0
 20
0.0
 30
0.0
  9
$UCSORGFRONT
 10
0.0
 20
0.0
 30
0.0
  9
$UCSORGBACK
 10
0.0
 20
0.0
 30
0.0
  9
$PUCSBASE
  2

  9
$PUCSNAME
  2

  9
$PUCSORG
 10
0.0
 20
0.0
 30
0.0
  9
$PUCSXDIR
 10
1.0
 20
0.0
 30
0.0
  9
$PUCSYDIR
 10
0.0
 20
1.0
 30
0.0
  9
$PUCSORTHOREF
  2

  9
$PUCSORTHOVIEW
 70
     0
  9
$PUCSORGTOP
 10
0.0
 20
0.0
 30
0.0
  9
$PUCSORGBOTTOM
 10
0.0
 20
0.0
 30
0.0
  9
$PUCSORGLEFT
 10
0.0
 20
0.0
 30
0.0
  9
$PUCSORGRIGHT
 10
0.0
 20
0.0
 30
0.0
  9
$PUCSORGFRONT
 10
0.0
 20
0.0
 30
0.0
  9
$PUCSORGBACK
 10
0.0
 20
0.0
 30
0.0
  9
$USERI1
 70
     0
  9
$USERI2
 70
     0
  9
$USERI3
 70
     0
  9
$USERI4
 70
     0
  9
$USERI5
 70
     0
  9
$USERR1
 40
0.0
  9
$USERR2
 40
0.0
  9
$USERR3
 40
0.0
  9
$USERR4
 40
0.0
  9
$USERR5
 40
0.0
  9
$WORLDVIEW
 70
     1
  9
$SHADEDGE
 70
     3
  9
$SHADEDIF
 70
    70
  9
$TILEMODE
 70
     1
  9
$MAXACTVP
 70
    64
  9
$PINSBASE
 10
0.0
 20
0.0
 30
0.0
  9
$PLIMCHECK
 70
     0
  9
$PEXTMIN
 10
1.0000000000E+20
 20
1.0000000000E+20
 30
1.0000000000E+20
  9
$PEXTMAX
 10
-1.0000000000E+20
 20
-1.0000000000E+20
 30
-1.0000000000E+20
  9
$PLIMMIN
 10
0.0
 20
0.0
  9
$PLIMMAX
 10
420.0
 20
297.0
  9
$UNITMODE
 70
     0
  9
$VISRETAIN
 70
     1
  9
$PLINEGEN
 70
     0
  9
$PSLTSCALE
 70
     1
  9
$TREEDEPTH
 70
  3020
  9
$CMLSTYLE
  2
Standard
  9
$CMLJUST
 70
     0
  9
$CMLSCALE
 40
20.0
  9
$PROXYGRAPHICS
 70
     1
  9
$MEASUREMENT
 70
     1
  9
$CELWEIGHT
370
    -1
  9
$ENDCAPS
280
     0
  9
$JOINSTYLE
280
     0
  9
$LWDISPLAY
290
     1
  9
$INSUNITS
 70
     4
  9
$HYPERLINKBASE
  1

  9
$STYLESHEET
  1

  9
$XEDIT
290
     1
  9
$CEPSNTYPE
380
     0
  9
$PSTYLEMODE
290
     1
  9
$FINGERPRINTGUID
  2
{F6A652A6-D2FF-4FBF-80C6-96B7DC5B0A4F}
  9
$VERSIONGUID
  2
{FAEB1C32-E019-11D5-929B-00C0DF256EC4}
  9
$EXTNAMES
290
     1
  9
$PSVPSCALE
 40
0.0
  9
$OLESTARTUP
290
     0
  0
ENDSEC
  0
SECTION
  2
CLASSES
  0
CLASS
  1
ACDBDICTIONARYWDFLT
  2
AcDbDictionaryWithDefault
  3
ObjectDBX Classes
 90
        0
280
     0
281
     0
  0
CLASS
  1
VISUALSTYLE
  2
AcDbVisualStyle
  3
ObjectDBX Classes
 90
     4095
280
     0
281
     0
  0
CLASS
  1
MATERIAL
  2
AcDbMaterial
  3
ObjectDBX Classes
 90
     1153
280
     0
281
     0
  0
CLASS
  1
SCALE
  2
AcDbScale
  3
ObjectDBX Classes
 90
     1153
280
     0
281
     0
  0
CLASS
  1
TABLESTYLE
  2
AcDbTableStyle
  3
ObjectDBX Classes
 90
     4095
280
     0
281
     0
  0
CLASS
  1
MLEADERSTYLE
  2
AcDbMLeaderStyle
  3
ACDB_MLEADERSTYLE_CLASS
 90
     4095
280
     0
281
     0
  0
CLASS
  1
SUN
  2
AcDbSun
  3
SCENEOE
 90
     1153
280
     0
281
     0
  0
CLASS
  1
ACDBPLACEHOLDER
  2
AcDbPlaceHolder
  3
ObjectDBX Classes
 90
        0
280
     0
281
     0
  0
CLASS
  1
LAYOUT
  2
AcDbLayout
  3
ObjectDBX Classes
 90
        0
280
     0
281
     0
  0
ENDSEC
  0
SECTION
  2
TABLES
  0
TABLE
  2
VPORT
  5
8
330
0
100
AcDbSymbolTable
 70
     1
  0
VPORT
  5
29
330
8
100
AcDbSymbolTableRecord
100
AcDbViewportTableRecord
  2
*Active
 70
     0
 10
0.0
 20
0.0
 11
1.0
 21
1.0
 12
215.9
 22
139.7
 13
0.0
 23
0.0
 14
10.0
 24
10.0
 15
10.0
 25
10.0
 16
0.0
 26
0.0
 36
1.0
 17
0.0
 27
0.0
 37
0.0
 40
279.4
 41
1.5454545455
 42
50.0
 43
0.0
 44
0.0
 50
0.0
 51
0.0
 71
     0
 72
  2000
 73
     1
 74
     3
 75
     0
 76
     0
 77
     0
 78
     0
281
     0
 65
     1
110
0.0
120
0.0
130
0.0
111
1.0
121
0.0
131
0.0
112
0.0
122
1.0
132
0.0
 79
     0
146
0.0
  0
ENDTAB
  0
TABLE
  2
LTYPE
  5
5
330
0
100
AcDbSymbolTable
 70
     6
  0
LTYPE
  5
14
330
5
100
AcDbSymbolTableRecord
100
AcDbLinetypeTableRecord
  2
ByBlock
 70
     0
  3

 72
    65
 73
     0
 40
0.0
  0
LTYPE
  5
15
330
5
100
AcDbSymbolTableRecord
100
AcDbLinetypeTableRecord
  2
ByLayer
 70
     0
  3

 72
    65
 73
     0
 40
0.0
  0
LTYPE
  5
16
330
5
100
AcDbSymbolTableRecord
100
AcDbLinetypeTableRecord
  2
Continuous
 70
     0
  3
Solid line
 72
    65
 73
     0
 40
0.0
  0
LTYPE
  5
6E
330
5
100
AcDbSymbolTableRecord
100
AcDbLinetypeTableRecord
  2
HIDDEN
 70
     0
  3
Hidden __ __ __ __ __ __ __ __ __ __ __ __ __ __
 72
    65
 73
     2
 40
1.905
 49
1.27
 74
     0
 49
-0.635
 74
     0
  0
LTYPE
  5
6F
330
5
100
AcDbSymbolTableRecord
100
AcDbLinetypeTableRecord
  2
PHANTOM
 70
     0
  3
Phantom ______  __  __  ______  __  __  ______
 72
    65
 73
     6
 40
12.7
 49
6.35
 74
     0
 49
-1.27
 74
     0
 49
1.27
 74
     0
 49
-1.27
 74
     0
 49
1.27
 74
     0
 49
-1.27
 74
     0
  0
LTYPE
  5
70
330
5
100
AcDbSymbolTableRecord
100
AcDbLinetypeTableRecord
  2
CENTER
 70
     0
  3
Center ____ _ ____ _ ____ _ ____ _ ____ _ ____
 72
    65
 73
     4
 40
10.16
 49
6.35
 74
     0
 49
-1.27
 74
     0
 49
1.27
 74
     0
 49
-1.27
 74
     0
  0
LTYPE
  5
71
330
5
100
AcDbSymbolTableRecord
100
AcDbLinetypeTableRecord
  2
CENTERX2
 70
     0
  3
Center (2x) ________  __  ________  __  _____
 72
    65
 73
     4
 40
20.32
 49
12.7
 74
     0
 49
-2.54
 74
     0
 49
2.54
 74
     0
 49
-2.54
 74
     0
  0
LTYPE
  5
72
330
5
100
AcDbSymbolTableRecord
100
AcDbLinetypeTableRecord
  2
DOT2
 70
     0
  3
Dot (.5x) ........................................
 72
    65
 73
     2
 40
0.635
 49
0.0
 74
     0
 49
-0.635
 74
     0
  0
ENDTAB
  0
TABLE
  2
LAYER
  5
2
330
0
100
AcDbSymbolTable
 70
     1
  0
LAYER
  5
10
330
2
100
AcDbSymbolTableRecord
100
AcDbLayerTableRecord
  2
0
 70
     0
 62
     7
  6
Continuous
370
    -3
390
F
  0
ENDTAB
  0
TABLE
  2
STYLE
  5
3
330
0
100
AcDbSymbolTable
 70
     2
  0
STYLE
  5
11
330
3
100
AcDbSymbolTableRecord
100
AcDbTextStyleTableRecord
  2
Standard
 70
     0
 40
0.0
 41
1.0
 50
0.0
 71
     0
 42
3.5
  3
txt
  4
bigfont
  0
STYLE
  5
73
330
3
100
AcDbSymbolTableRecord
100
AcDbTextStyleTableRecord
  2
SLDTEXTSTYLE0
 70
     0
 40
0.0
 41
0.7
 50
0.0
 71
     0
 42
3.5
  3
TXT
  4
bigfont
  0
ENDTAB
  0
TABLE
  2
VIEW
  5
6
330
0
100
AcDbSymbolTable
 70
     0
  0
ENDTAB
  0
TABLE
  2
UCS
  5
7
330
0
100
AcDbSymbolTable
 70
     0
  0
ENDTAB
  0
TABLE
  2
APPID
  5
9
330
0
100
AcDbSymbolTable
 70
     1
  0
APPID
  5
12
330
9
100
AcDbSymbolTableRecord
100
AcDbRegAppTableRecord
  2
ACAD
 70
     0
  0
ENDTAB
  0
TABLE
  2
DIMSTYLE
  5
A
330
0
100
AcDbSymbolTable
 70
     1
100
AcDbDimStyleTable
  0
DIMSTYLE
105
27
330
A
100
AcDbSymbolTableRecord
100
AcDbDimStyleTableRecord
  2
ISO-25
 70
     0
 41
2.5
 42
0.625
 43
3.75
 44
1.25
 73
     0
 74
     0
 77
     1
 78
     8
140
2.5
141
2.5
143
0.0393700787
147
0.625
171
     3
172
     1
178
     0
271
     2
272
     2
274
     3
278
    44
283
     0
284
     8
340
11
  0
ENDTAB
  0
TABLE
  2
BLOCK_RECORD
  5
1
330
0
100
AcDbSymbolTable
 70
     3
  0
BLOCK_RECORD
  5
1F
330
1
100
AcDbSymbolTableRecord
100
AcDbBlockTableRecord
  2
*Model_Space
340
22
  0
BLOCK_RECORD
  5
1B
330
1
100
AcDbSymbolTableRecord
100
AcDbBlockTableRecord
  2
*Paper_Space
340
1E
  0
BLOCK_RECORD
  5
23
330
1
100
AcDbSymbolTableRecord
100
AcDbBlockTableRecord
  2
*Paper_Space0
340
26
  0
BLOCK_RECORD
  5
179
330
1
100
AcDbSymbolTableRecord
100
AcDbBlockTableRecord
  2
SW_CENTERMARKSYMBOL_0
340
0
102
{BLKREFS
331
184
102
}
  0
BLOCK_RECORD
  5
1F8
330
1
100
AcDbSymbolTableRecord
100
AcDbBlockTableRecord
  2
SW_CENTERMARKSYMBOL_1
340
0
102
{BLKREFS
331
203
102
}
  0
ENDTAB
  0
ENDSEC
  0
SECTION
  2
BLOCKS
  0
BLOCK
  5
20
330
1F
100
AcDbEntity
  8
0
100
AcDbBlockBegin
  2
*Model_Space
 70
     0
 10
0.0
 20
0.0
 30
0.0
  3
*Model_Space
  1

  0
ENDBLK
  5
21
330
1F
100
AcDbEntity
  8
0
100
AcDbBlockEnd
  0
BLOCK
  5
1C
330
1B
100
AcDbEntity
 67
     1
  8
0
100
AcDbBlockBegin
  2
*Paper_Space
 70
     0
 10
0.0
 20
0.0
 30
0.0
  3
*Paper_Space
  1

  0
ENDBLK
  5
1D
330
1B
100
AcDbEntity
 67
     1
  8
0
100
AcDbBlockEnd
  0
BLOCK
  5
24
330
23
100
AcDbEntity
  8
0
100
AcDbBlockBegin
  2
*Paper_Space0
 70
     0
 10
0.0
 20
0.0
 30
0.0
  3
*Paper_Space0
  1

  0
ENDBLK
  5
25
330
23
100
AcDbEntity
  8
0
100
AcDbBlockEnd
  0
BLOCK
  5
17A
330
179
100
AcDbEntity
  8
0
100
AcDbBlockBegin
  2
SW_CENTERMARKSYMBOL_0
 70
     0
 10
0.0
 20
0.0
 30
0.0
  3
SW_CENTERMARKSYMBOL_0
  1

  0
LINE
  5
17C
330
179
100
AcDbEntity
  8
0
  6
Continuous
 62
     0
370
    18
100
AcDbLine
 10
0.0
 20
0.0
 30
0.0
 11
0.0
 21
2.5
 31
0.0
  0
LINE
  5
17D
330
179
100
AcDbEntity
  8
0
  6
Continuous
 62
     0
370
    18
100
AcDbLine
 10
0.0
 20
0.0
 30
0.0
 11
-2.5
 21
0.0
 31
0.0
  0
LINE
  5
17E
330
179
100
AcDbEntity
  8
0
  6
Continuous
 62
     0
370
    18
100
AcDbLine
 10
0.0
 20
0.0
 30
0.0
 11
0.0
 21
-2.5
 31
0.0
  0
LINE
  5
17F
330
179
100
AcDbEntity
  8
0
  6
Continuous
 62
     0
370
    18
100
AcDbLine
 10
0.0
 20
0.0
 30
0.0
 11
2.5
 21
0.0
 31
0.0
  0
LINE
  5
180
330
179
100
AcDbEntity
  8
0
  6
Continuous
 62
     0
370
    18
100
AcDbLine
 10
0.0
 20
5.0
 30
0.0
 11
0.0
 21
36.2299205546
 31
0.0
  0
LINE
  5
181
330
179
100
AcDbEntity
  8
0
  6
Continuous
 62
     0
370
    18
100
AcDbLine
 10
-5.0
 20
0.0
 30
0.0
 11
-16.5
 21
0.0
 31
0.0
  0
LINE
  5
182
330
179
100
AcDbEntity
  8
0
  6
Continuous
 62
     0
370
    18
100
AcDbLine
 10
0.0
 20
-5.0
 30
0.0
 11
0.0
 21
-16.5
 31
0.0
  0
LINE
  5
183
330
179
100
AcDbEntity
  8
0
  6
Continuous
 62
     0
370
    18
100
AcDbLine
 10
5.0
 20
0.0
 30
0.0
 11
16.5
 21
0.0
 31
0.0
  0
ENDBLK
  5
17B
330
179
100
AcDbEntity
  8
0
100
AcDbBlockEnd
  0
BLOCK
  5
1F9
330
1F8
100
AcDbEntity
  8
0
100
AcDbBlockBegin
  2
SW_CENTERMARKSYMBOL_1
 70
     0
 10
0.0
 20
0.0
 30
0.0
  3
SW_CENTERMARKSYMBOL_1
  1

  0
LINE
  5
1FB
330
1F8
100
AcDbEntity
  8
0
  6
Continuous
 62
     0
370
    18
100
AcDbLine
 10
0.0
 20
0.0
 30
0.0
 11
0.0
 21
2.5
 31
0.0
  0
LINE
  5
1FC
330
1F8
100
AcDbEntity
  8
0
  6
Continuous
 62
     0
370
    18
100
AcDbLine
 10
0.0
 20
0.0
 30
0.0
 11
-2.5
 21
0.0
 31
0.0
  0
LINE
  5
1FD
330
1F8
100
AcDbEntity
  8
0
  6
Continuous
 62
     0
370
    18
100
AcDbLine
 10
0.0
 20
0.0
 30
0.0
 11
0.0
 21
-2.5
 31
0.0
  0
LINE
  5
1FE
330
1F8
100
AcDbEntity
  8
0
  6
Continuous
 62
     0
370
    18
100
AcDbLine
 10
0.0
 20
0.0
 30
0.0
 11
2.5
 21
0.0
 31
0.0
  0
LINE
  5
1FF
330
1F8
100
AcDbEntity
  8
0
  6
Continuous
 62
     0
370
    18
100
AcDbLine
 10
0.0
 20
5.0
 30
0.0
 11
0.0
 21
16.5
 31
0.0
  0
LINE
  5
200
330
1F8
100
AcDbEntity
  8
0
  6
Continuous
 62
     0
370
    18
100
AcDbLine
 10
-5.0
 20
0.0
 30
0.0
 11
-36.0661407626
 21
0.0
 31
0.0
  0
LINE
  5
201
330
1F8
100
AcDbEntity
  8
0
  6
Continuous
 62
     0
370
    18
100
AcDbLine
 10
0.0
 20
-5.0
 30
0.0
 11
0.0
 21
-16.5
 31
0.0
  0
LINE
  5
202
330
1F8
100
AcDbEntity
  8
0
  6
Continuous
 62
     0
370
    18
100
AcDbLine
 10
5.0
 20
0.0
 30
0.0
 11
36.3642080416
 21
0.0
 31
0.0
  0
ENDBLK
  5
1FA
330
1F8
100
AcDbEntity
  8
0
100
AcDbBlockEnd
  0
ENDSEC
  0
SECTION
  2
ENTITIES
  0
MTEXT
  5
74
330
1F
100
AcDbEntity
  8
0
  6
Continuous
 62
     7
370
     0
100
AcDbMText
 10
177.1951288914
 20
128.1633249657
 30
0.0
 40
5.2916666667
 41
0.0
 71
     1
 72
     1
  1
5R-TF1443
  7
SLDTEXTSTYLE0
 73
     1
 44
1.0
  0
LINE
  5
75
330
1F
100
AcDbEntity
  8
0
  6
Continuous
 62
     7
370
    25
100
AcDbLine
 10
171.7304000658
 20
92.9210260768
 30
0.0
 11
157.7303996337
 21
92.9210260768
 31
0.0
  0
LINE
  5
76
330
1F
100
AcDbEntity
  8
0
  6
Continuous
 62
     7
370
    25
100
AcDbLine
 10
157.7303996337
 20
64.9210252125
 30
0.0
 11
171.7304000658
 21
64.9210252125
 31
0.0
  0
LINE
  5
77
330
1F
100
AcDbEntity
  8
0
  6
Continuous
 62
     7
370
    25
100
AcDbLine
 10
124.7303998125
 20
111.9210254658
 30
0.0
 11
124.7303998125
 21
97.9210250337
 31
0.0
  0
LINE
  5
78
330
1F
100
AcDbEntity
  8
0
  6
Continuous
 62
     7
370
    25
100
AcDbLine
 10
152.7304006768
 20
97.9210250337
 30
0.0
 11
152.7304006768
 21
111.9210254658
 31
0.0
  0
LINE
  5
79
330
1F
100
AcDbEntity
  8
0
  6
Continuous
 62
     7
370
    25
100
AcDbLine
 10
105.7304004234
 20
64.9210252125
 30
0.0
 11
119.7304008556
 21
64.9210252125
 31
0.0
  0
LINE
  5
7A
330
1F
100
AcDbEntity
  8
0
  6
Continuous
 62
     7
370
    25
100
AcDbLine
 10
119.7304008556
 20
92.9210260768
 30
0.0
 11
105.7304004234
 21
92.9210260768
 31
0.0
  0
ARC
  5
7B
330
1F
100
AcDbEntity
  8
0
  6
Continuous
 62
     7
370
    25
100
AcDbCircle
 10
125.7304002446
 20
97.9210256446
 30
0.0
 40
1.0
100
AcDbArc
 50
180.0
 51
270.0
  0
ARC
  5
7C
330
1F
100
AcDbEntity
  8
0
  6
Continuous
 62
     7
370
    25
100
AcDbCircle
 10
151.7304002446
 20
97.9210256446
 30
0.0
 40
1.0
100
AcDbArc
 50
270.0
 51
0.0
  0
LINE
  5
7D
330
1F
100
AcDbEntity
  8
0
  6
Continuous
 62
     7
370
    25
100
AcDbLine
 10
152.7304006768
 20
111.9210254658
 30
0.0
 11
151.7304005128
 21
112.9210274924
 31
0.0
  0
LINE
  5
7E
330
1F
100
AcDbEntity
  8
0
  6
Continuous
 62
     7
370
    25
100
AcDbLine
 10
125.7303999764
 20
112.9210274924
 30
0.0
 11
124.7303998125
 21
111.9210254658
 31
0.0
  0
ARC
  5
7F
330
1F
100
AcDbEntity
  8
0
  6
Continuous
 62
     7
370
    25
100
AcDbCircle
 10
157.7304002446
 20
91.9210256446
 30
0.0
 40
1.0
100
AcDbArc
 50
90.0
 51
180.0
  0
ARC
  5
80
330
1F
100
AcDbEntity
  8
0
  6
Continuous
 62
     7
370
    25
100
AcDbCircle
 10
157.7304002446
 20
65.9210256446
 30
0.0
 40
1.0
100
AcDbArc
 50
180.0
 51
270.0
  0
LINE
  5
81
330
1F
100
AcDbEntity
  8
0
  6
Continuous
 62
     7
370
    25
100
AcDbLine
 10
171.7304000658
 20
64.9210252125
 30
0.0
 11
172.7304020924
 21
65.9210253764
 31
0.0
  0
LINE
  5
82
330
1F
100
AcDbEntity
  8
0
  6
Continuous
 62
     7
370
    25
100
AcDbLine
 10
172.7304020924
 20
91.9210259129
 30
0.0
 11
171.7304000658
 21
92.9210260768
 31
0.0
  0
ARC
  5
83
330
1F
100
AcDbEntity
  8
0
  6
Continuous
 62
     7
370
    25
100
AcDbCircle
 10
119.7304002446
 20
65.9210256446
 30
0.0
 40
1.0
100
AcDbArc
 50
270.0
 51
0.0
  0
ARC
  5
84
330
1F
100
AcDbEntity
  8
0
  6
Continuous
 62
     7
370
    25
100
AcDbCircle
 10
119.7304002446
 20
91.9210256446
 30
0.0
 40
1.0
100
AcDbArc
 50
0.0
 51
90.0
  0
LINE
  5
85
330
1F
100
AcDbEntity
  8
0
  6
Continuous
 62
     7
370
    25
100
AcDbLine
 10
105.7304004234
 20
92.9210260768
 30
0.0
 11
104.7303983969
 21
91.9210259129
 31
0.0
  0
LINE
  5
86
330
1F
100
AcDbEntity
  8
0
  6
Continuous
 62
     7
370
    25
100
AcDbLine
 10
104.7303983969
 20
65.9210253764
 30
0.0
 11
105.7304004234
 21
64.9210252125
 31
0.0
  0
ARC
  5
87
330
1F
100
AcDbEntity
  8
0
  6
Continuous
 62
     7
370
    25
100
AcDbCircle
 10
155.7304002446
 20
90.9210256446
 30
0.0
 40
1.0
100
AcDbArc
 50
270.0
 51
0.0
  0
ARC
  5
88
330
1F
100
AcDbEntity
  8
0
  6
Continuous
 62
     7
370
    25
100
AcDbCircle
 10
155.7304002446
 20
66.9210256446
 30
0.0
 40
1.0
100
AcDbArc
 50
0.0
 51
90.0
  0
ARC
  5
89
330
1F
100
AcDbEntity
  8
0
  6
Continuous
 62
     7
370
    25
100
AcDbCircle
 10
126.7304002446
 20
95.9210256446
 30
0.0
 40
1.0
100
AcDbArc
 50
0.0
 51
90.0
  0
ARC
  5
8A
330
1F
100
AcDbEntity
  8
0
  6
Continuous
 62
     7
370
    25
100
AcDbCircle
 10
150.7304002446
 20
95.9210256446
 30
0.0
 40
1.0
100
AcDbArc
 50
90.0
 51
180.0
  0
ARC
  5
8B
330
1F
100
AcDbEntity
  8
0
  6
Continuous
 62
     7
370
    25
100
AcDbCircle
 10
121.7304002446
 20
66.9210256446
 30
0.0
 40
1.000000000000014
100
AcDbArc
 50
90.0
 51
180.0
  0
ARC
  5
8C
330
1F
100
AcDbEntity
  8
0
  6
Continuous
 62
     7
370
    25
100
AcDbCircle
 10
121.7304002446
 20
90.9210256446
 30
0.0
 40
1.000000000000014
100
AcDbArc
 50
180.0
 51
270.0
  0
LINE
  5
8D
330
1F
100
AcDbEntity
  8
0
  6
Continuous
 62
     7
370
    25
100
AcDbLine
 10
127.2304002223
 20
89.921025585
 30
0.0
 11
121.7303993208
 21
89.921025585
 31
0.0
  0
LINE
  5
8E
330
1F
100
AcDbEntity
  8
0
  6
Continuous
 62
     7
370
    25
100
AcDbLine
 10
155.7304011685
 20
89.921025585
 30
0.0
 11
150.230400267
 21
89.921025585
 31
0.0
  0
LINE
  5
8F
330
1F
100
AcDbEntity
  8
0
  6
Continuous
 62
     7
370
    25
100
AcDbLine
 10
121.7303993208
 20
67.9210257043
 30
0.0
 11
155.7304011685
 21
67.9210257043
 31
0.0
  0
LINE
  5
90
330
1F
100
AcDbEntity
  8
0
  6
Continuous
 62
     7
370
    25
100
AcDbLine
 10
149.730400185
 20
90.421025667
 30
0.0
 11
149.730400185
 21
95.9210265685
 31
0.0
  0
LINE
  5
91
330
1F
100
AcDbEntity
  8
0
  6
Continuous
 62
     7
370
    25
100
AcDbLine
 10
127.7304003042
 20
95.9210265685
 30
0.0
 11
127.7304003042
 21
90.421025667
 31
0.0
  0
ARC
  5
92
330
1F
100
AcDbEntity
  8
0
  6
Continuous
 62
     7
370
    25
100
AcDbCircle
 10
150.2304002446
 20
90.4210256446
 30
0.0
 40
0.5000000000000057
100
AcDbArc
 50
180.1005417843
 51
269.9608729934
  0
ARC
  5
93
330
1F
100
AcDbEntity
  8
0
  6
Continuous
 62
     7
370
    25
100
AcDbCircle
 10
127.2304002446
 20
90.4210256446
 30
0.0
 40
0.4999999999999915
100
AcDbArc
 50
270.1005417843
 51
359.9608729934
  0
LINE
  5
94
330
1F
100
AcDbEntity
  8
0
  6
Continuous
 62
     7
370
    25
100
AcDbLine
 10
171.7304000658
 20
64.9210252125
 30
0.0
 11
171.7304000658
 21
92.9210260768
 31
0.0
  0
LINE
  5
95
330
1F
100
AcDbEntity
  8
0
  6
Continuous
 62
     7
370
    25
100
AcDbLine
 10
152.7304006768
 20
111.9210254658
 30
0.0
 11
124.7303998125
 21
111.9210254658
 31
0.0
  0
LINE
  5
96
330
1F
100
AcDbEntity
  8
0
  6
Continuous
 62
     7
370
    25
100
AcDbLine
 10
105.7304004234
 20
78.9210256446
 30
0.0
 11
105.7304004234
 21
64.9210252125
 31
0.0
  0
LINE
  5
97
330
1F
100
AcDbEntity
  8
0
  6
Continuous
 62
     7
370
    25
100
AcDbLine
 10
105.7304004234
 20
92.9210260768
 30
0.0
 11
105.7304004234
 21
78.9210256446
 31
0.0
  0
LINE
  5
98
330
1F
100
AcDbEntity
  8
0
  6
Continuous
 62
     7
370
    25
100
AcDbLine
 10
125.7303999764
 20
96.9210248698
 30
0.0
 11
151.7304005128
 21
96.9210248698
 31
0.0
  0
LINE
  5
99
330
1F
100
AcDbEntity
  8
0
  6
Continuous
 62
     7
370
    25
100
AcDbLine
 10
125.7303999764
 20
112.9210274924
 30
0.0
 11
151.7304005128
 21
112.9210274924
 31
0.0
  0
LINE
  5
9A
330
1F
100
AcDbEntity
  8
0
  6
Continuous
 62
     7
370
    25
100
AcDbLine
 10
156.7303994698
 20
65.9210253764
 30
0.0
 11
156.7303994698
 21
91.9210259129
 31
0.0
  0
LINE
  5
9B
330
1F
100
AcDbEntity
  8
0
  6
Continuous
 62
     7
370
    25
100
AcDbLine
 10
172.7304020924
 20
91.9210259129
 30
0.0
 11
172.7304020924
 21
65.9210253764
 31
0.0
  0
LINE
  5
9C
330
1F
100
AcDbEntity
  8
0
  6
Continuous
 62
     7
370
    25
100
AcDbLine
 10
120.7304010195
 20
78.9210256446
 30
0.0
 11
120.7304010195
 21
65.9210253764
 31
0.0
  0
LINE
  5
9D
330
1F
100
AcDbEntity
  8
0
  6
Continuous
 62
     7
370
    25
100
AcDbLine
 10
120.7304010195
 20
91.9210259129
 30
0.0
 11
120.7304010195
 21
78.9210256446
 31
0.0
  0
LINE
  5
9E
330
1F
100
AcDbEntity
  8
0
  6
Continuous
 62
     7
370
    25
100
AcDbLine
 10
104.7303983969
 20
78.9210256446
 30
0.0
 11
104.7303983969
 21
91.9210259129
 31
0.0
  0
LINE
  5
9F
330
1F
100
AcDbEntity
  8
0
  6
Continuous
 62
     7
370
    25
100
AcDbLine
 10
104.7303983969
 20
65.9210253764
 30
0.0
 11
104.7303983969
 21
78.9210256446
 31
0.0
  0
ARC
  5
A0
330
1F
100
AcDbEntity
  8
0
  6
Continuous
 62
     7
370
    25
100
AcDbCircle
 10
127.2193575499
 20
74.6022671743
 30
0.0
 40
1.193170564788403
100
AcDbArc
 50
60.65213411
 51
82.3649073709
  0
SPLINE
  5
A1
330
1F
100
AcDbEntity
  8
0
  6
Continuous
 62
     7
370
    25
100
AcDbSpline
210
0.0
220
0.0
230
1.0
 70
     8
 71
     3
 72
    12
 73
     8
 74
     0
 42
0.000000001
 43
0.00000001
 40
0.0
 40
0.0
 40
0.0
 40
0.0
 40
0.25
 40
0.25
 40
0.5
 40
0.5
 40
1.0
 40
1.0
 40
1.0
 40
1.0
 10
127.3778859086677
 20
75.78485939389334
 30
0.0
 10
127.4259278792976
 20
76.0368274950794
 30
0.0
 10
127.4626215219412
 20
76.29242601373699
 30
0.0
 10
127.5286122033659
 20
76.80895237859781
 30
0.0
 10
127.5573856915428
 20
77.07037253791822
 30
0.0
 10
127.6378613985535
 20
77.85805629225662
 30
0.0
 10
127.6839911017973
 20
78.39006786489185
 30
0.0
 10
127.7304002446235
 20
78.92102564464636
 30
0.0
  0
SPLINE
  5
A2
330
1F
100
AcDbEntity
  8
0
  6
Continuous
 62
     7
370
    25
100
AcDbSpline
210
0.0
220
0.0
230
1.0
 70
     8
 71
     3
 72
    12
 73
     8
 74
     0
 42
0.000000001
 43
0.00000001
 40
0.0
 40
0.0
 40
0.0
 40
0.0
 40
0.2500000000000001
 40
0.2500000000000001
 40
0.5000000000000001
 40
0.5000000000000001
 40
1.0
 40
1.0
 40
1.0
 40
1.0
 10
127.8041430766456
 20
75.6423063824954
 30
0.0
 10
127.8268555783537
 20
75.91361082086786
 30
0.0
 10
127.8343680981832
 20
76.18572301942822
 30
0.0
 10
127.8359241728836
 20
76.73143270390001
 30
0.0
 10
127.8294973310426
 20
77.00482865806246
 30
0.0
 10
127.7992723307418
 20
77.82505053513172
 30
0.0
 10
127.7645768096281
 20
78.37338593244766
 30
0.0
 10
127.7304002446235
 20
78.92102564464636
 30
0.0
  0
LINE
  5
A3
330
1F
100
AcDbEntity
  8
0
  6
Continuous
 62
     7
370
    25
100
AcDbLine
 10
128.2304003862
 20
75.6423063834
 30
0.0
 11
127.804143357
 21
75.6423063834
 31
0.0
  0
SPLINE
  5
A4
330
1F
100
AcDbEntity
  8
0
  6
Continuous
 62
     7
370
    25
100
AcDbSpline
210
0.0
220
0.0
230
1.0
 70
     8
 71
     3
 72
    12
 73
     8
 74
     0
 42
0.000000001
 43
0.00000001
 40
0.0
 40
0.0
 40
0.0
 40
0.0
 40
0.25
 40
0.25
 40
0.5
 40
0.5
 40
1.0
 40
1.0
 40
1.0
 40
1.0
 10
128.2304002446235
 20
75.64230638249538
 30
0.0
 10
128.2304002446235
 20
75.9198283884052
 30
0.0
 10
128.2106772992156
 20
76.19596471533795
 30
0.0
 10
128.1500408344544
 20
76.74674857875053
 30
0.0
 10
128.108784288766
 20
77.02095697527591
 30
0.0
 10
127.9670109790939
 20
77.83911325292469
 30
0.0
 10
127.8484439339336
 20
78.3800761680297
 30
0.0
 10
127.7304002446235
 20
78.92102564464636
 30
0.0
  0
ARC
  5
A5
330
1F
100
AcDbEntity
  8
0
  6
Continuous
 62
     7
370
    25
100
AcDbCircle
 10
134.4116417742
 20
90.4320683394
 30
0.0
 40
1.193170564788362
100
AcDbArc
 50
330.65213411
 51
352.3649073709
  0
SPLINE
  5
A6
330
1F
100
AcDbEntity
  8
0
  6
Continuous
 62
     7
370
    25
100
AcDbSpline
210
0.0
220
0.0
230
1.0
 70
     8
 71
     3
 72
    12
 73
     8
 74
     0
 42
0.000000001
 43
0.00000001
 40
0.0
 40
0.0
 40
0.0
 40
0.0
 40
0.2499999999999999
 40
0.2499999999999999
 40
0.4999999999999999
 40
0.4999999999999999
 40
1.0
 40
1.0
 40
1.0
 40
1.0
 10
135.5942339938705
 20
90.27353998060225
 30
0.0
 10
135.8462020950566
 20
90.22549800997236
 30
0.0
 10
136.1018006137141
 20
90.18880436732873
 30
0.0
 10
136.618326978575
 20
90.12281368590402
 30
0.0
 10
136.8797471378954
 20
90.09404019772708
 30
0.0
 10
137.6674308922338
 20
90.01356449071638
 30
0.0
 10
138.199442464869
 20
89.96743478747257
 30
0.0
 10
138.7304002446236
 20
89.92102564464636
 30
0.0
  0
SPLINE
  5
A7
330
1F
100
AcDbEntity
  8
0
  6
Continuous
 62
     7
370
    25
100
AcDbSpline
210
0.0
220
0.0
230
1.0
 70
     8
 71
     3
 72
    12
 73
     8
 74
     0
 42
0.000000001
 43
0.00000001
 40
0.0
 40
0.0
 40
0.0
 40
0.0
 40
0.2500000000000001
 40
0.2500000000000001
 40
0.5000000000000002
 40
0.5000000000000002
 40
1.0
 40
1.0
 40
1.0
 40
1.0
 10
135.4516809824726
 20
89.84728281262431
 30
0.0
 10
135.722985420845
 20
89.82457031091626
 30
0.0
 10
135.9950976194054
 20
89.81705779108675
 30
0.0
 10
136.5408073038772
 20
89.8155017163863
 30
0.0
 10
136.8142032580396
 20
89.82192855822726
 30
0.0
 10
137.6344251351089
 20
89.85215355852809
 30
0.0
 10
138.1827605324249
 20
89.88684907964178
 30
0.0
 10
138.7304002446236
 20
89.92102564464636
 30
0.0
  0
LINE
  5
A8
330
1F
100
AcDbEntity
  8
0
  6
Continuous
 62
     7
370
    25
100
AcDbLine
 10
135.4516809833
 20
89.4210255031
 30
0.0
 11
135.4516809833
 21
89.8472825323
 31
0.0
  0
SPLINE
  5
A9
330
1F
100
AcDbEntity
  8
0
  6
Continuous
 62
     7
370
    25
100
AcDbSpline
210
0.0
220
0.0
230
1.0
 70
     8
 71
     3
 72
    12
 73
     8
 74
     0
 42
0.000000001
 43
0.00000001
 40
0.0
 40
0.0
 40
0.0
 40
0.0
 40
0.2500000000000001
 40
0.2500000000000001
 40
0.5000000000000001
 40
0.5000000000000001
 40
1.0
 40
1.0
 40
1.0
 40
1.0
 10
135.4516809824725
 20
89.42102564464636
 30
0.0
 10
135.7292029883824
 20
89.42102564464636
 30
0.0
 10
136.0053393153151
 20
89.4407485900543
 30
0.0
 10
136.5561231787277
 20
89.50138505481556
 30
0.0
 10
136.8303315752531
 20
89.5426416005039
 30
0.0
 10
137.6484878529019
 20
89.68441491017597
 30
0.0
 10
138.1894507680069
 20
89.80298195533632
 30
0.0
 10
138.7304002446236
 20
89.92102564464636
 30
0.0
  0
ARC
  5
AA
330
1F
100
AcDbEntity
  8
0
  6
Continuous
 62
     7
370
    25
100
AcDbCircle
 10
127.2193575499
 20
83.239784115
 30
0.0
 40
1.193170564788394
100
AcDbArc
 50
277.6350926291
 51
299.34786589
  0
SPLINE
  5
AB
330
1F
100
AcDbEntity
  8
0
  6
Continuous
 62
     7
370
    25
100
AcDbSpline
210
0.0
220
0.0
230
1.0
 70
     8
 71
     3
 72
    12
 73
     8
 74
     0
 42
0.000000001
 43
0.00000001
 40
0.0
 40
0.0
 40
0.0
 40
0.0
 40
0.2499999999999999
 40
0.2499999999999999
 40
0.4999999999999998
 40
0.4999999999999998
 40
1.0
 40
1.0
 40
1.0
 40
1.0
 10
127.8041430766456
 20
82.19974490679738
 30
0.0
 10
127.8268555783547
 20
81.92844046841232
 30
0.0
 10
127.8343680981839
 20
81.65632826983932
 30
0.0
 10
127.8359241728831
 20
81.11061858534207
 30
0.0
 10
127.829497331041
 20
80.83722263116692
 30
0.0
 10
127.7992723307367
 20
80.01700075405947
 30
0.0
 10
127.7645768096185
 20
79.46866535687258
 30
0.0
 10
127.7304002446235
 20
78.92102564464636
 30
0.0
  0
SPLINE
  5
AC
330
1F
100
AcDbEntity
  8
0
  6
Continuous
 62
     7
370
    25
100
AcDbSpline
210
0.0
220
0.0
230
1.0
 70
     8
 71
     3
 72
    12
 73
     8
 74
     0
 42
0.000000001
 43
0.00000001
 40
0.0
 40
0.0
 40
0.0
 40
0.0
 40
0.2499999999999999
 40
0.2499999999999999
 40
0.4999999999999998
 40
0.4999999999999998
 40
1.0
 40
1.0
 40
1.0
 40
1.0
 10
127.3778859086676
 20
82.05719189539951
 30
0.0
 10
127.4259111263104
 20
81.8053116594346
 30
0.0
 10
127.4625953965852
 20
81.54980346895094
 30
0.0
 10
127.5285692895146
 20
81.03346107777102
 30
0.0
 10
127.5573209220829
 20
80.77229202619876
 30
0.0
 10
127.6378758228729
 20
79.98389512732535
 30
0.0
 10
127.6840072994918
 20
79.45179827234976
 30
0.0
 10
127.7304002446235
 20
78.92102564464636
 30
0.0
  0
SPLINE
  5
AD
330
1F
100
AcDbEntity
  8
0
  6
Continuous
 62
     7
370
    25
100
AcDbSpline
210
0.0
220
0.0
230
1.0
 70
     8
 71
     3
 72
    12
 73
     8
 74
     0
 42
0.000000001
 43
0.00000001
 40
0.0
 40
0.0
 40
0.0
 40
0.0
 40
0.2499999999999999
 40
0.2499999999999999
 40
0.4999999999999999
 40
0.4999999999999999
 40
1.0
 40
1.0
 40
1.0
 40
1.0
 10
128.2304002446235
 20
82.19974490679738
 30
0.0
 10
128.2304002446235
 20
81.92222290088756
 30
0.0
 10
128.2106772992156
 20
81.6460865739548
 30
0.0
 10
128.1500408344544
 20
81.09530271054223
 30
0.0
 10
128.108784288766
 20
80.82109431401685
 30
0.0
 10
127.9670109790939
 20
80.00293803636805
 30
0.0
 10
127.8484439339336
 20
79.46197512126305
 30
0.0
 10
127.7304002446235
 20
78.92102564464636
 30
0.0
  0
LINE
  5
AE
330
1F
100
AcDbEntity
  8
0
  6
Continuous
 62
     7
370
    25
100
AcDbLine
 10
127.804143357
 20
82.1997449059
 30
0.0
 11
128.2304003862
 21
82.1997449059
 31
0.0
  0
ARC
  5
AF
330
1F
100
AcDbEntity
  8
0
  6
Continuous
 62
     7
370
    25
100
AcDbCircle
 10
143.049158715
 20
90.4320683394
 30
0.0
 40
1.19317056478839
100
AcDbArc
 50
187.6350926291
 51
209.34786589
  0
SPLINE
  5
B0
330
1F
100
AcDbEntity
  8
0
  6
Continuous
 62
     7
370
    25
100
AcDbSpline
210
0.0
220
0.0
230
1.0
 70
     8
 71
     3
 72
    12
 73
     8
 74
     0
 42
0.000000001
 43
0.00000001
 40
0.0
 40
0.0
 40
0.0
 40
0.0
 40
0.25
 40
0.25
 40
0.5
 40
0.5
 40
1.0
 40
1.0
 40
1.0
 40
1.0
 10
142.0091195067746
 20
89.84728281262431
 30
0.0
 10
141.7378150683895
 20
89.8245703109152
 30
0.0
 10
141.4657028698165
 20
89.81705779108601
 30
0.0
 10
140.9199931853192
 20
89.81550171638683
 30
0.0
 10
140.6465972311441
 20
89.82192855822888
 30
0.0
 10
139.8263753540367
 20
89.85215355853325
 30
0.0
 10
139.2780399568498
 20
89.88684907965187
 30
0.0
 10
138.7304002446236
 20
89.92102564464636
 30
0.0
  0
SPLINE
  5
B1
330
1F
100
AcDbEntity
  8
0
  6
Continuous
 62
     7
370
    25
100
AcDbSpline
210
0.0
220
0.0
230
1.0
 70
     8
 71
     3
 72
    12
 73
     8
 74
     0
 42
0.000000001
 43
0.00000001
 40
0.0
 40
0.0
 40
0.0
 40
0.0
 40
0.2499999999999999
 40
0.2499999999999999
 40
0.4999999999999998
 40
0.4999999999999998
 40
1.0
 40
1.0
 40
1.0
 40
1.0
 10
141.8665664953767
 20
90.27353998060227
 30
0.0
 10
141.6146862594118
 20
90.22551476295956
 30
0.0
 10
141.3591780689281
 20
90.18883049268467
 30
0.0
 10
140.8428356777482
 20
90.12285659975528
 30
0.0
 10
140.5816666261759
 20
90.09410496718701
 30
0.0
 10
139.7932697273025
 20
90.01355006639704
 30
0.0
 10
139.2611728723269
 20
89.9674185897781
 30
0.0
 10
138.7304002446236
 20
89.92102564464636
 30
0.0
  0
SPLINE
  5
B2
330
1F
100
AcDbEntity
  8
0
  6
Continuous
 62
     7
370
    25
100
AcDbSpline
210
0.0
220
0.0
230
1.0
 70
     8
 71
     3
 72
    12
 73
     8
 74
     0
 42
0.000000001
 43
0.00000001
 40
0.0
 40
0.0
 40
0.0
 40
0.0
 40
0.25
 40
0.25
 40
0.5
 40
0.5
 40
1.0
 40
1.0
 40
1.0
 40
1.0
 10
142.0091195067746
 20
89.42102564464636
 30
0.0
 10
141.7315975008648
 20
89.42102564464636
 30
0.0
 10
141.455461173932
 20
89.4407485900543
 30
0.0
 10
140.9046773105194
 20
89.50138505481556
 30
0.0
 10
140.630468913994
 20
89.5426416005039
 30
0.0
 10
139.8123126363452
 20
89.68441491017599
 30
0.0
 10
139.2713497212402
 20
89.80298195533632
 30
0.0
 10
138.7304002446236
 20
89.92102564464636
 30
0.0
  0
LINE
  5
B3
330
1F
100
AcDbEntity
  8
0
  6
Continuous
 62
     7
370
    25
100
AcDbLine
 10
142.0091195059
 20
89.4210255031
 30
0.0
 11
142.0091195059
 21
89.8472825323
 31
0.0
  0
ARC
  5
B4
330
1F
100
AcDbEntity
  8
0
  6
Continuous
 62
     7
370
    25
100
AcDbCircle
 10
150.2414429394
 20
74.6022671743
 30
0.0
 40
1.193170564788394
100
AcDbArc
 50
97.6350926291
 51
119.34786589
  0
SPLINE
  5
B5
330
1F
100
AcDbEntity
  8
0
  6
Continuous
 62
     7
370
    25
100
AcDbSpline
210
0.0
220
0.0
230
1.0
 70
     8
 71
     3
 72
    12
 73
     8
 74
     0
 42
0.000000001
 43
0.00000001
 40
0.0
 40
0.0
 40
0.0
 40
0.0
 40
0.2500000000000001
 40
0.2500000000000001
 40
0.5000000000000001
 40
0.5000000000000001
 40
1.0
 40
1.0
 40
1.0
 40
1.0
 10
149.6566574126015
 20
75.64230638249536
 30
0.0
 10
149.6339449108924
 20
75.9136108208804
 30
0.0
 10
149.6264323910632
 20
76.18572301945335
 30
0.0
 10
149.624876316364
 20
76.73143270395055
 30
0.0
 10
149.6313031582061
 20
77.00482865812565
 30
0.0
 10
149.6615281585104
 20
77.82505053523299
 30
0.0
 10
149.6962236796287
 20
78.37338593242023
 30
0.0
 10
149.7304002446236
 20
78.92102564464636
 30
0.0
  0
SPLINE
  5
B6
330
1F
100
AcDbEntity
  8
0
  6
Continuous
 62
     7
370
    25
100
AcDbSpline
210
0.0
220
0.0
230
1.0
 70
     8
 71
     3
 72
    12
 73
     8
 74
     0
 42
0.000000001
 43
0.00000001
 40
0.0
 40
0.0
 40
0.0
 40
0.0
 40
0.2499999999999999
 40
0.2499999999999999
 40
0.4999999999999999
 40
0.4999999999999999
 40
1.0
 40
1.0
 40
1.0
 40
1.0
 10
150.0829145805795
 20
75.78485939389324
 30
0.0
 10
150.0348726099432
 20
76.03682749511259
 30
0.0
 10
149.998178967296
 20
76.2924260138044
 30
0.0
 10
149.9321882858649
 20
76.80895237873492
 30
0.0
 10
149.9034147976855
 20
77.07037253809095
 30
0.0
 10
149.8229390906674
 20
77.85805629253532
 30
0.0
 10
149.7768093874668
 20
78.39006786481691
 30
0.0
 10
149.7304002446236
 20
78.92102564464636
 30
0.0
  0
SPLINE
  5
B7
330
1F
100
AcDbEntity
  8
0
  6
Continuous
 62
     7
370
    25
100
AcDbSpline
210
0.0
220
0.0
230
1.0
 70
     8
 71
     3
 72
    12
 73
     8
 74
     0
 42
0.000000001
 43
0.00000001
 40
0.0
 40
0.0
 40
0.0
 40
0.0
 40
0.25
 40
0.25
 40
0.5
 40
0.5
 40
1.0
 40
1.0
 40
1.0
 40
1.0
 10
149.2304002446236
 20
75.64230638249536
 30
0.0
 10
149.2304002446236
 20
75.91982838840518
 30
0.0
 10
149.2501231900315
 20
76.19596471533795
 30
0.0
 10
149.3107596547927
 20
76.74674857875051
 30
0.0
 10
149.3520162004811
 20
77.02095697527591
 30
0.0
 10
149.4937895101532
 20
77.83911325292469
 30
0.0
 10
149.6123565553135
 20
78.38007616802969
 30
0.0
 10
149.7304002446236
 20
78.92102564464636
 30
0.0
  0
LINE
  5
B8
330
1F
100
AcDbEntity
  8
0
  6
Continuous
 62
     7
370
    25
100
AcDbLine
 10
149.6566571322
 20
75.6423063834
 30
0.0
 11
149.2304001031
 21
75.6423063834
 31
0.0
  0
LINE
  5
B9
330
1F
100
AcDbEntity
  8
0
  6
Continuous
 62
     7
370
    25
100
AcDbLine
 10
149.2304001031
 20
82.1997449059
 30
0.0
 11
149.6566571322
 21
82.1997449059
 31
0.0
  0
SPLINE
  5
BA
330
1F
100
AcDbEntity
  8
0
  6
Continuous
 62
     7
370
    25
100
AcDbSpline
210
0.0
220
0.0
230
1.0
 70
     8
 71
     3
 72
    12
 73
     8
 74
     0
 42
0.000000001
 43
0.00000001
 40
0.0
 40
0.0
 40
0.0
 40
0.0
 40
0.2500000000000001
 40
0.2500000000000001
 40
0.5000000000000001
 40
0.5000000000000001
 40
1.0
 40
1.0
 40
1.0
 40
1.0
 10
149.6566574126015
 20
82.19974490679735
 30
0.0
 10
149.6339449108935
 20
81.92844046842505
 30
0.0
 10
149.626432391064
 20
81.65632826986489
 30
0.0
 10
149.6248763163634
 20
81.11061858539344
 30
0.0
 10
149.6313031582044
 20
80.83722263123086
 30
0.0
 10
149.6615281585052
 20
80.01700075416144
 30
0.0
 10
149.6962236796189
 20
79.46866535684472
 30
0.0
 10
149.7304002446236
 20
78.92102564464636
 30
0.0
  0
SPLINE
  5
BB
330
1F
100
AcDbEntity
  8
0
  6
Continuous
 62
     7
370
    25
100
AcDbSpline
210
0.0
220
0.0
230
1.0
 70
     8
 71
     3
 72
    12
 73
     8
 74
     0
 42
0.000000001
 43
0.00000001
 40
0.0
 40
0.0
 40
0.0
 40
0.0
 40
0.2499999999999999
 40
0.2499999999999999
 40
0.4999999999999999
 40
0.4999999999999999
 40
1.0
 40
1.0
 40
1.0
 40
1.0
 10
149.2304002446236
 20
82.19974490679738
 30
0.0
 10
149.2304002446236
 20
81.92222290088756
 30
0.0
 10
149.2501231900315
 20
81.6460865739548
 30
0.0
 10
149.3107596547927
 20
81.09530271054223
 30
0.0
 10
149.3520162004811
 20
80.82109431401685
 30
0.0
 10
149.4937895101532
 20
80.00293803636805
 30
0.0
 10
149.6123565553135
 20
79.46197512126305
 30
0.0
 10
149.7304002446236
 20
78.92102564464636
 30
0.0
  0
ARC
  5
BC
330
1F
100
AcDbEntity
  8
0
  6
Continuous
 62
     7
370
    25
100
AcDbCircle
 10
150.2414429394
 20
83.239784115
 30
0.0
 40
1.193170564788406
100
AcDbArc
 50
240.65213411
 51
262.3649073709
  0
SPLINE
  5
BD
330
1F
100
AcDbEntity
  8
0
  6
Continuous
 62
     7
370
    25
100
AcDbSpline
210
0.0
220
0.0
230
1.0
 70
     8
 71
     3
 72
    12
 73
     8
 74
     0
 42
0.000000001
 43
0.00000001
 40
0.0
 40
0.0
 40
0.0
 40
0.0
 40
0.2499999999999999
 40
0.2499999999999999
 40
0.4999999999999998
 40
0.4999999999999998
 40
1.0
 40
1.0
 40
1.0
 40
1.0
 10
150.0829145805795
 20
82.05719189539948
 30
0.0
 10
150.0348726099496
 20
81.80522379421342
 30
0.0
 10
149.9981789673059
 20
81.54962527555581
 30
0.0
 10
149.9321882858812
 20
81.03309891069497
 30
0.0
 10
149.9034147977043
 20
80.77167875137455
 30
0.0
 10
149.8229390906936
 20
79.98399499703616
 30
0.0
 10
149.7768093874488
 20
79.451983424401
 30
0.0
 10
149.7304002446236
 20
78.92102564464636
 30
0.0
  0
LINE
  5
BE
330
1F
100
AcDbEntity
  8
0
  6
Continuous
 62
     7
370
    25
100
AcDbLine
 10
135.4516809833
 20
89.4210255031
 30
0.0
 11
129.7304006321
 21
89.4210255031
 31
0.0
  0
LWPOLYLINE
  5
BF
330
1F
100
AcDbEntity
  8
0
  6
Continuous
 62
     7
370
    25
100
AcDbPolyline
 90
        9
 70
   128
 43
0.0
 10
129.7304006321
 20
89.4210255031
 10
129.6328548369
 20
89.5185703669
 10
129.5390585465
 20
89.6123675887
 10
129.4526150477
 20
89.6988110874
 10
129.3768472997
 20
89.7745788355
 10
129.3146656853
 20
89.8367604498
 10
129.2684609098
 20
89.8829652254
 10
129.2400071425
 20
89.9114180614
 10
129.2304005501
 20
89.921025585
  0
LINE
  5
C0
330
1F
100
AcDbEntity
  8
0
  6
Continuous
 62
     7
370
    25
100
AcDbLine
 10
129.2304005501
 20
89.921025585
 30
0.0
 11
134.039984553
 21
89.921025585
 31
0.0
  0
SPLINE
  5
C1
330
1F
100
AcDbEntity
  8
0
  6
Continuous
 62
     7
370
    25
100
AcDbSpline
210
0.0
220
0.0
230
1.0
 70
     8
 71
     3
 72
     8
 73
     4
 74
     0
 42
0.000000001
 43
0.00000001
 40
0.0
 40
0.0
 40
0.0
 40
0.0
 40
1.0
 40
1.0
 40
1.0
 40
1.0
 10
135.4516809824726
 20
89.84728281262431
 30
0.0
 10
134.9792400265188
 20
89.89036399746271
 30
0.0
 10
134.5081148481594
 20
89.92102564464636
 30
0.0
 10
134.0399844848001
 20
89.92102564464636
 30
0.0
  0
LINE
  5
C2
330
1F
100
AcDbEntity
  8
0
  6
Continuous
 62
     7
370
    25
100
AcDbLine
 10
129.7304006321
 20
89.4210255031
 30
0.0
 11
129.2304005501
 21
89.4210255031
 31
0.0
  0
LINE
  5
C3
330
1F
100
AcDbEntity
  8
0
  6
Continuous
 62
     7
370
    25
100
AcDbLine
 10
129.2304005501
 20
89.4210255031
 30
0.0
 11
129.2304005501
 21
89.921025585
 31
0.0
  0
LINE
  5
C4
330
1F
100
AcDbEntity
  8
0
  6
Continuous
 62
     7
370
    25
100
AcDbLine
 10
128.2304003862
 20
75.6423063834
 30
0.0
 11
128.2304003862
 21
69.4210259501
 31
0.0
  0
LWPOLYLINE
  5
C5
330
1F
100
AcDbEntity
  8
0
  6
Continuous
 62
     7
370
    25
100
AcDbPolyline
 90
        9
 70
   128
 43
0.0
 10
128.2304003862
 20
69.4210259501
 10
128.1328555224
 20
69.323480155
 10
128.0390583006
 20
69.2296838645
 10
127.9526148019
 20
69.1432403658
 10
127.8768470538
 20
69.0674726177
 10
127.8146654395
 20
69.0052910034
 10
127.7684606639
 20
68.9590862278
 10
127.7400078279
 20
68.9306333918
 10
127.7304003042
 20
68.9210258682
  0
LINE
  5
C6
330
1F
100
AcDbEntity
  8
0
  6
Continuous
 62
     7
370
    25
100
AcDbLine
 10
127.7304003042
 20
68.9210258682
 30
0.0
 11
127.7304003042
 21
74.2306099531
 31
0.0
  0
SPLINE
  5
C7
330
1F
100
AcDbEntity
  8
0
  6
Continuous
 62
     7
370
    25
100
AcDbSpline
210
0.0
220
0.0
230
1.0
 70
     8
 71
     3
 72
     8
 73
     4
 74
     0
 42
0.000000001
 43
0.00000001
 40
0.0
 40
0.0
 40
0.0
 40
0.0
 40
1.0
 40
1.0
 40
1.0
 40
1.0
 10
127.8041430766456
 20
75.6423063824954
 30
0.0
 10
127.7610618918072
 20
75.1698654265416
 30
0.0
 10
127.7304002446235
 20
74.69874024818218
 30
0.0
 10
127.7304002446235
 20
74.23060988482294
 30
0.0
  0
SPLINE
  5
C8
330
1F
100
AcDbEntity
  8
0
  6
Continuous
 62
     7
370
    25
100
AcDbSpline
210
0.0
220
0.0
230
1.0
 70
     8
 71
     3
 72
    10
 73
     6
 74
     0
 42
0.000000001
 43
0.00000001
 40
0.0
 40
0.0
 40
0.0
 40
0.0
 40
0.5
 40
0.5
 40
1.0
 40
1.0
 40
1.0
 40
1.0
 10
128.2304002446235
 20
88.48624303595072
 30
0.0
 10
128.311637065352
 20
88.48624303595072
 30
0.0
 10
128.3874050744617
 20
88.50625017711592
 30
0.0
 10
128.5039902125027
 20
88.55945338006353
 30
0.0
 10
128.5484009843297
 20
88.592315518013
 30
0.0
 10
128.5839536352168
 20
88.6263224014702
 30
0.0
  0
LINE
  5
C9
330
1F
100
AcDbEntity
  8
0
  6
Continuous
 62
     7
370
    25
100
AcDbLine
 10
127.2304002223
 20
88.4862430651
 30
0.0
 11
128.2304003862
 21
88.4862430651
 31
0.0
  0
LINE
  5
CA
330
1F
100
AcDbEntity
  8
0
  6
Continuous
 62
     7
370
    25
100
AcDbLine
 10
127.2304002223
 20
83.4075100977
 30
0.0
 11
127.2304002223
 21
88.4862430651
 31
0.0
  0
SPLINE
  5
CB
330
1F
100
AcDbEntity
  8
0
  6
Continuous
 62
     7
370
    25
100
AcDbSpline
210
0.0
220
0.0
230
1.0
 70
     8
 71
     3
 72
     8
 73
     4
 74
     0
 42
0.000000001
 43
0.00000001
 40
0.0
 40
0.0
 40
0.0
 40
0.0
 40
1.0
 40
1.0
 40
1.0
 40
1.0
 10
127.3778859086676
 20
82.05719189539951
 30
0.0
 10
127.2906947291091
 20
82.5144877903322
 30
0.0
 10
127.2304002446235
 20
82.96372798656608
 30
0.0
 10
127.2304002446235
 20
83.40751028447747
 30
0.0
  0
SPLINE
  5
CC
330
1F
100
AcDbEntity
  8
0
  6
Continuous
 62
     7
370
    25
100
AcDbSpline
210
0.0
220
0.0
230
1.0
 70
     8
 71
     3
 72
     8
 73
     4
 74
     0
 42
0.000000001
 43
0.00000001
 40
0.0
 40
0.0
 40
0.0
 40
0.0
 40
1.0
 40
1.0
 40
1.0
 40
1.0
 10
127.2304002446235
 20
74.43454100481527
 30
0.0
 10
127.2304002446235
 20
74.87832330272668
 30
0.0
 10
127.2906947291091
 20
75.32756349896061
 30
0.0
 10
127.3778859086677
 20
75.78485939389334
 30
0.0
  0
LINE
  5
CD
330
1F
100
AcDbEntity
  8
0
  6
Continuous
 62
     7
370
    25
100
AcDbLine
 10
127.2304002223
 20
68.8775470738
 30
0.0
 11
127.2304002223
 21
74.4345411916
 31
0.0
  0
LINE
  5
CE
330
1F
100
AcDbEntity
  8
0
  6
Continuous
 62
     7
370
    25
100
AcDbLine
 10
150.230400267
 20
68.8775470738
 30
0.0
 11
127.2304002223
 21
68.8775470738
 31
0.0
  0
LINE
  5
CF
330
1F
100
AcDbEntity
  8
0
  6
Continuous
 62
     7
370
    25
100
AcDbLine
 10
150.230400267
 20
74.4345411916
 30
0.0
 11
150.230400267
 21
68.8775470738
 31
0.0
  0
SPLINE
  5
D0
330
1F
100
AcDbEntity
  8
0
  6
Continuous
 62
     7
370
    25
100
AcDbSpline
210
0.0
220
0.0
230
1.0
 70
     8
 71
     3
 72
     8
 73
     4
 74
     0
 42
0.000000001
 43
0.00000001
 40
0.0
 40
0.0
 40
0.0
 40
0.0
 40
1.0
 40
1.0
 40
1.0
 40
1.0
 10
150.0829145805795
 20
75.78485939389324
 30
0.0
 10
150.1701057601379
 20
75.32756349896056
 30
0.0
 10
150.2304002446236
 20
74.87832330272666
 30
0.0
 10
150.2304002446236
 20
74.43454100481527
 30
0.0
  0
SPLINE
  5
D1
330
1F
100
AcDbEntity
  8
0
  6
Continuous
 62
     7
370
    25
100
AcDbSpline
210
0.0
220
0.0
230
1.0
 70
     8
 71
     3
 72
     8
 73
     4
 74
     0
 42
0.000000001
 43
0.00000001
 40
0.0
 40
0.0
 40
0.0
 40
0.0
 40
1.0
 40
1.0
 40
1.0
 40
1.0
 10
150.2304002446236
 20
83.40751028447747
 30
0.0
 10
150.2304002446236
 20
82.96372798656608
 30
0.0
 10
150.1701057601379
 20
82.51448779033217
 30
0.0
 10
150.0829145805794
 20
82.05719189539948
 30
0.0
  0
LINE
  5
D2
330
1F
100
AcDbEntity
  8
0
  6
Continuous
 62
     7
370
    25
100
AcDbLine
 10
150.230400267
 20
88.4862430651
 30
0.0
 11
150.230400267
 21
83.4075100977
 31
0.0
  0
LINE
  5
D3
330
1F
100
AcDbEntity
  8
0
  6
Continuous
 62
     7
370
    25
100
AcDbLine
 10
149.2304001031
 20
88.4862430651
 30
0.0
 11
150.230400267
 21
88.4862430651
 31
0.0
  0
SPLINE
  5
D4
330
1F
100
AcDbEntity
  8
0
  6
Continuous
 62
     7
370
    25
100
AcDbSpline
210
0.0
220
0.0
230
1.0
 70
     8
 71
     3
 72
    10
 73
     6
 74
     0
 42
0.000000001
 43
0.00000001
 40
0.0
 40
0.0
 40
0.0
 40
0.0
 40
0.5
 40
0.5
 40
1.0
 40
1.0
 40
1.0
 40
1.0
 10
148.8768468540303
 20
88.6263224014702
 30
0.0
 10
148.9123995049173
 20
88.59231551801298
 30
0.0
 10
148.9568102767444
 20
88.55945338006353
 30
0.0
 10
149.0733954147854
 20
88.5062501771159
 30
0.0
 10
149.1491634238951
 20
88.48624303595071
 30
0.0
 10
149.2304002446236
 20
88.48624303595072
 30
0.0
  0
LWPOLYLINE
  5
D5
330
1F
100
AcDbEntity
  8
0
  6
Continuous
 62
     7
370
    25
100
AcDbPolyline
 90
        9
 70
   128
 43
0.0
 10
147.7303998572
 20
89.4210255031
 10
147.8279456523
 20
89.5185703669
 10
147.9217419428
 20
89.6123675887
 10
148.0081854415
 20
89.6988110874
 10
148.0839531896
 20
89.7745788355
 10
148.1461348039
 20
89.8367604498
 10
148.1923395795
 20
89.8829652254
 10
148.2207933468
 20
89.9114180614
 10
148.2303999391
 20
89.921025585
  0
LINE
  5
D6
330
1F
100
AcDbEntity
  8
0
  6
Continuous
 62
     7
370
    25
100
AcDbLine
 10
148.2303999391
 20
89.921025585
 30
0.0
 11
148.2303999391
 21
89.4210255031
 31
0.0
  0
LINE
  5
D7
330
1F
100
AcDbEntity
  8
0
  6
Continuous
 62
     7
370
    25
100
AcDbLine
 10
147.7303998572
 20
89.4210255031
 30
0.0
 11
148.2303999391
 21
89.4210255031
 31
0.0
  0
LINE
  5
D8
330
1F
100
AcDbEntity
  8
0
  6
Continuous
 62
     7
370
    25
100
AcDbLine
 10
147.7303998572
 20
89.4210255031
 30
0.0
 11
142.0091195059
 21
89.4210255031
 31
0.0
  0
SPLINE
  5
D9
330
1F
100
AcDbEntity
  8
0
  6
Continuous
 62
     7
370
    25
100
AcDbSpline
210
0.0
220
0.0
230
1.0
 70
     8
 71
     3
 72
     8
 73
     4
 74
     0
 42
0.000000001
 43
0.00000001
 40
0.0
 40
0.0
 40
0.0
 40
0.0
 40
1.0
 40
1.0
 40
1.0
 40
1.0
 10
143.420816004447
 20
89.92102564464636
 30
0.0
 10
142.9525915806734
 20
89.92102564464636
 30
0.0
 10
142.4816110963038
 20
89.8903686146628
 30
0.0
 10
142.0091195067746
 20
89.84728281262431
 30
0.0
  0
LINE
  5
DA
330
1F
100
AcDbEntity
  8
0
  6
Continuous
 62
     7
370
    25
100
AcDbLine
 10
143.4208159362
 20
89.921025585
 30
0.0
 11
148.2303999391
 21
89.921025585
 31
0.0
  0
LWPOLYLINE
  5
DB
330
1F
100
AcDbEntity
  8
0
  6
Continuous
 62
     7
370
    25
100
AcDbPolyline
 90
        9
 70
   128
 43
0.0
 10
127.7304003042
 20
88.4210253392
 10
127.7400078279
 20
88.4114187468
 10
127.7684606639
 20
88.3829649795
 10
127.8146654395
 20
88.3367602039
 10
127.8768470538
 20
88.2745785896
 10
127.9526148019
 20
88.1988108415
 10
128.0390583006
 20
88.1123673428
 10
128.1328555224
 20
88.0185710524
 10
128.2304003862
 20
87.9210252572
  0
LINE
  5
DC
330
1F
100
AcDbEntity
  8
0
  6
Continuous
 62
     7
370
    25
100
AcDbLine
 10
128.2304003862
 20
87.9210252572
 30
0.0
 11
128.2304003862
 21
82.1997449059
 31
0.0
  0
SPLINE
  5
DD
330
1F
100
AcDbEntity
  8
0
  6
Continuous
 62
     7
370
    25
100
AcDbSpline
210
0.0
220
0.0
230
1.0
 70
     8
 71
     3
 72
     8
 73
     4
 74
     0
 42
0.000000001
 43
0.00000001
 40
0.0
 40
0.0
 40
0.0
 40
0.0
 40
1.0
 40
1.0
 40
1.0
 40
1.0
 10
127.7304002446235
 20
83.6114414044698
 30
0.0
 10
127.7304002446235
 20
83.14321698069625
 30
0.0
 10
127.7610572746071
 20
82.67223649632665
 30
0.0
 10
127.8041430766456
 20
82.19974490679738
 30
0.0
  0
LINE
  5
DE
330
1F
100
AcDbEntity
  8
0
  6
Continuous
 62
     7
370
    25
100
AcDbLine
 10
127.7304003042
 20
83.6114413362
 30
0.0
 11
127.7304003042
 21
88.4210253392
 31
0.0
  0
LINE
  5
DF
330
1F
100
AcDbEntity
  8
0
  6
Continuous
 62
     7
370
    25
100
AcDbLine
 10
149.2304001031
 20
82.1997449059
 30
0.0
 11
149.2304001031
 21
87.9210252572
 31
0.0
  0
LWPOLYLINE
  5
E0
330
1F
100
AcDbEntity
  8
0
  6
Continuous
 62
     7
370
    25
100
AcDbPolyline
 90
        9
 70
   128
 43
0.0
 10
149.2304001031
 20
87.9210252572
 10
149.3279449669
 20
88.0185710524
 10
149.4217421887
 20
88.1123673428
 10
149.5081856874
 20
88.1988108415
 10
149.5839534355
 20
88.2745785896
 10
149.6461350498
 20
88.3367602039
 10
149.6923398254
 20
88.3829649795
 10
149.7207926613
 20
88.4114187468
 10
149.730400185
 20
88.4210253392
  0
LINE
  5
E1
330
1F
100
AcDbEntity
  8
0
  6
Continuous
 62
     7
370
    25
100
AcDbLine
 10
149.730400185
 20
88.4210253392
 30
0.0
 11
149.730400185
 21
83.6114413362
 31
0.0
  0
SPLINE
  5
E2
330
1F
100
AcDbEntity
  8
0
  6
Continuous
 62
     7
370
    25
100
AcDbSpline
210
0.0
220
0.0
230
1.0
 70
     8
 71
     3
 72
     8
 73
     4
 74
     0
 42
0.000000001
 43
0.00000001
 40
0.0
 40
0.0
 40
0.0
 40
0.0
 40
1.0
 40
1.0
 40
1.0
 40
1.0
 10
149.6566574126015
 20
82.19974490679735
 30
0.0
 10
149.6997385974399
 20
82.67218586275115
 30
0.0
 10
149.7304002446236
 20
83.14331104111056
 30
0.0
 10
149.7304002446236
 20
83.6114414044698
 30
0.0
  0
SPLINE
  5
E3
330
1F
100
AcDbEntity
  8
0
  6
Continuous
 62
     7
370
    25
100
AcDbSpline
210
0.0
220
0.0
230
1.0
 70
     8
 71
     3
 72
     8
 73
     4
 74
     0
 42
0.000000001
 43
0.00000001
 40
0.0
 40
0.0
 40
0.0
 40
0.0
 40
1.0
 40
1.0
 40
1.0
 40
1.0
 10
134.2439156047924
 20
90.42102564464636
 30
0.0
 10
134.6876979027039
 20
90.42102564464636
 30
0.0
 10
135.1369380989378
 20
90.36073116016077
 30
0.0
 10
135.5942339938705
 20
90.27353998060225
 30
0.0
  0
LINE
  5
E4
330
1F
100
AcDbEntity
  8
0
  6
Continuous
 62
     7
370
    25
100
AcDbLine
 10
129.1651828242
 20
90.421025667
 30
0.0
 11
134.2439157915
 21
90.421025667
 31
0.0
  0
LINE
  5
E5
330
1F
100
AcDbEntity
  8
0
  6
Continuous
 62
     7
370
    25
100
AcDbLine
 10
129.1651828242
 20
89.4210255031
 30
0.0
 11
129.1651828242
 21
90.421025667
 31
0.0
  0
SPLINE
  5
E6
330
1F
100
AcDbEntity
  8
0
  6
Continuous
 62
     7
370
    25
100
AcDbSpline
210
0.0
220
0.0
230
1.0
 70
     8
 71
     3
 72
    10
 73
     6
 74
     0
 42
0.000000001
 43
0.00000001
 40
0.0
 40
0.0
 40
0.0
 40
0.0
 40
0.5
 40
0.5
 40
1.0
 40
1.0
 40
1.0
 40
1.0
 10
129.0251034877997
 20
89.0674722540531
 30
0.0
 10
129.0591103712569
 20
89.10302490494018
 30
0.0
 10
129.0919725092064
 20
89.14743567676722
 30
0.0
 10
129.145175712154
 20
89.26402081480826
 30
0.0
 10
129.1651828533192
 20
89.33978882391794
 30
0.0
 10
129.1651828533192
 20
89.42102564464638
 30
0.0
  0
SPLINE
  5
E7
330
1F
100
AcDbEntity
  8
0
  6
Continuous
 62
     7
370
    25
100
AcDbSpline
210
0.0
220
0.0
230
1.0
 70
     8
 71
     3
 72
    10
 73
     6
 74
     0
 42
0.000000001
 43
0.00000001
 40
0.0
 40
0.0
 40
0.0
 40
0.0
 40
0.5
 40
0.5
 40
1.0
 40
1.0
 40
1.0
 40
1.0
 10
148.2956176359279
 20
89.42102564464636
 30
0.0
 10
148.2956176359279
 20
89.33978882391794
 30
0.0
 10
148.3156247770931
 20
89.26402081480825
 30
0.0
 10
148.3688279800407
 20
89.1474356767672
 30
0.0
 10
148.4016901179902
 20
89.10302490494017
 30
0.0
 10
148.4356970014474
 20
89.06747225405309
 30
0.0
  0
LINE
  5
E8
330
1F
100
AcDbEntity
  8
0
  6
Continuous
 62
     7
370
    25
100
AcDbLine
 10
148.2956176651
 20
90.421025667
 30
0.0
 11
148.2956176651
 21
89.4210255031
 31
0.0
  0
LINE
  5
E9
330
1F
100
AcDbEntity
  8
0
  6
Continuous
 62
     7
370
    25
100
AcDbLine
 10
143.2168846977
 20
90.421025667
 30
0.0
 11
148.2956176651
 21
90.421025667
 31
0.0
  0
SPLINE
  5
EA
330
1F
100
AcDbEntity
  8
0
  6
Continuous
 62
     7
370
    25
100
AcDbSpline
210
0.0
220
0.0
230
1.0
 70
     8
 71
     3
 72
     8
 73
     4
 74
     0
 42
0.000000001
 43
0.00000001
 40
0.0
 40
0.0
 40
0.0
 40
0.0
 40
1.0
 40
1.0
 40
1.0
 40
1.0
 10
141.8665664953767
 20
90.27353998060227
 30
0.0
 10
142.3238623903094
 20
90.36073116016077
 30
0.0
 10
142.7731025865433
 20
90.42102564464636
 30
0.0
 10
143.2168848844547
 20
90.42102564464636
 30
0.0
  0
ARC
  5
EB
330
1F
100
AcDbEntity
  8
0
  6
Continuous
 62
     7
370
    25
100
AcDbCircle
 10
128.2304002446
 20
89.4210256446
 30
0.0
 40
1.500000000000028
100
AcDbArc
 50
270.0
 51
0.0
  0
LINE
  5
EC
330
1F
100
AcDbEntity
  8
0
  6
Continuous
 62
     7
370
    25
100
AcDbLine
 10
128.2304003862
 20
87.9210252572
 30
0.0
 11
128.2304003862
 21
88.4210253392
 31
0.0
  0
ARC
  5
ED
330
1F
100
AcDbEntity
  8
0
  6
Continuous
 62
     7
370
    25
100
AcDbCircle
 10
128.2304002446
 20
89.4210256446
 30
0.0
 40
1.000000000000028
100
AcDbArc
 50
270.0
 51
0.0
  0
LINE
  5
EE
330
1F
100
AcDbEntity
  8
0
  6
Continuous
 62
     7
370
    25
100
AcDbLine
 10
149.2304001031
 20
69.4210259501
 30
0.0
 11
149.2304001031
 21
75.6423063834
 31
0.0
  0
LINE
  5
EF
330
1F
100
AcDbEntity
  8
0
  6
Continuous
 62
     7
370
    25
100
AcDbLine
 10
128.2304003862
 20
69.4210259501
 30
0.0
 11
149.2304001031
 21
69.4210259501
 31
0.0
  0
ARC
  5
F0
330
1F
100
AcDbEntity
  8
0
  6
Continuous
 62
     7
370
    25
100
AcDbCircle
 10
149.2304002446
 20
89.4210256446
 30
0.0
 40
1.5
100
AcDbArc
 50
180.0
 51
270.0
  0
ELLIPSE
  5
F1
330
1F
100
AcDbEntity
  8
0
  6
Continuous
 62
     7
370
    25
100
AcDbEllipse
 10
145.0362657068
 20
68.9283926407
 30
0.0
 11
2.525369784127093
 21
-1.705302565824240E-13
 31
0.0
210
0.0
220
0.0
230
1.0
 40
0.9531667975
 41
0.8210019969639478
 42
2.320590656625491
  0
ELLIPSE
  5
F2
330
1F
100
AcDbEntity
  8
0
  6
Continuous
 62
     7
370
    25
100
AcDbEllipse
 10
147.2325313718
 20
72.5153168566
 30
0.0
 11
-0.5977206589647892
 21
-1.563194018672221E-13
 31
0.0
210
0.0
220
0.0
230
1.0
 40
0.9531667975
 41
0.3285531705514472
 42
2.110876526947267
  0
LINE
  5
F3
330
1F
100
AcDbEntity
  8
0
  6
Continuous
 62
     7
370
    25
100
AcDbLine
 10
146.6667829109
 20
72.3314807076
 30
0.0
 11
145.5569546697
 21
75.434510389
 31
0.0
  0
ELLIPSE
  5
F4
330
1F
100
AcDbEntity
  8
0
  6
Continuous
 62
     7
370
    25
100
AcDbEllipse
 10
145.0362657068
 20
75.2034067831
 30
0.0
 11
0.5743721957241519
 21
1.250555214937776E-12
 31
0.0
210
0.0
220
0.0
230
1.0
 40
0.9531667975
 41
0.4357918987530006
 42
2.705800754832487
  0
LINE
  5
F5
330
1F
100
AcDbEntity
  8
0
  6
Continuous
 62
     7
370
    25
100
AcDbLine
 10
147.5765788955
 20
72.0476508398
 30
0.0
 11
147.5398819921
 21
72.0266802494
 31
0.0
  0
LINE
  5
F6
330
1F
100
AcDbEntity
  8
0
  6
Continuous
 62
     7
370
    25
100
AcDbLine
 10
146.8750201193
 20
70.7102464769
 30
0.0
 11
147.5765788955
 21
72.0476508398
 31
0.0
  0
ELLIPSE
  5
F7
330
1F
100
AcDbEntity
  8
0
  6
Continuous
 62
     7
370
    25
100
AcDbEllipse
 10
146.8081930158
 20
70.7420952253
 30
0.0
 11
0.0747150823706022
 21
2.842170943040401E-14
 31
0.0
210
0.0
220
0.0
230
1.0
 40
0.9531667976
 41
3.962594650564854
 42
5.81953769816928
  0
ELLIPSE
  5
F8
330
1F
100
AcDbEntity
  8
0
  6
Continuous
 62
     7
370
    25
100
AcDbEllipse
 10
143.2643383978
 20
70.7420952253
 30
0.0
 11
0.07471508237065905
 21
0.0
 31
0.0
210
0.0
220
0.0
230
1.0
 40
0.9531667975
 41
3.605240262591991
 42
5.462183310213709
  0
LINE
  5
F9
330
1F
100
AcDbEntity
  8
0
  6
Continuous
 62
     7
370
    25
100
AcDbLine
 10
142.495953015
 20
72.0476508398
 30
0.0
 11
143.1975113255
 21
70.7102464769
 31
0.0
  0
LINE
  5
FA
330
1F
100
AcDbEntity
  8
0
  6
Continuous
 62
     7
370
    25
100
AcDbLine
 10
142.541398297
 20
72.022641569
 30
0.0
 11
142.495953015
 21
72.0476508398
 31
0.0
  0
ELLIPSE
  5
FB
330
1F
100
AcDbEntity
  8
0
  6
Continuous
 62
     7
370
    25
100
AcDbEllipse
 10
142.8402586722
 20
72.5160399762
 30
0.0
 11
-0.5977206589639081
 21
5.684341886080801E-14
 31
0.0
210
0.0
220
0.0
230
1.0
 40
0.9531667975
 41
1.04719755119561
 42
2.813039483037407
  0
LINE
  5
FC
330
1F
100
AcDbEntity
  8
0
  6
Continuous
 62
     7
370
    25
100
AcDbLine
 10
144.5155767751
 20
75.434510389
 30
0.0
 11
143.4060074416
 21
72.3322038796
 31
0.0
  0
LINE
  5
FD
330
1F
100
AcDbEntity
  8
0
  6
Continuous
 62
     7
370
    25
100
AcDbLine
 10
149.2304001031
 20
87.9210252572
 30
0.0
 11
149.2304001031
 21
88.4210253392
 31
0.0
  0
LINE
  5
FE
330
1F
100
AcDbEntity
  8
0
  6
Continuous
 62
     7
370
    25
100
AcDbLine
 10
149.2304001031
 20
88.4210253392
 30
0.0
 11
149.730400185
 21
88.4210253392
 31
0.0
  0
ARC
  5
FF
330
1F
100
AcDbEntity
  8
0
  6
Continuous
 62
     7
370
    25
100
AcDbCircle
 10
149.2304002446
 20
89.4210256446
 30
0.0
 40
1.0
100
AcDbArc
 50
180.0
 51
270.0
  0
LWPOLYLINE
  5
100
330
1F
100
AcDbEntity
  8
0
  6
Continuous
 62
     7
370
    25
100
AcDbPolyline
 90
        9
 70
   128
 43
0.0
 10
149.2304001031
 20
69.4210259501
 10
149.3279449669
 20
69.323480155
 10
149.4217421887
 20
69.2296838645
 10
149.5081856874
 20
69.1432403658
 10
149.5839534355
 20
69.0674726177
 10
149.6461350498
 20
69.0052910034
 10
149.6923398254
 20
68.9590862278
 10
149.7207926613
 20
68.9306333918
 10
149.730400185
 20
68.9210258682
  0
LINE
  5
101
330
1F
100
AcDbEntity
  8
0
  6
Continuous
 62
     7
370
    25
100
AcDbLine
 10
149.730400185
 20
68.9210258682
 30
0.0
 11
127.7304003042
 21
68.9210258682
 31
0.0
  0
SPLINE
  5
102
330
1F
100
AcDbEntity
  8
0
  6
Continuous
 62
     7
370
    25
100
AcDbSpline
210
0.0
220
0.0
230
1.0
 70
     8
 71
     3
 72
     8
 73
     4
 74
     0
 42
0.000000001
 43
0.00000001
 40
0.0
 40
0.0
 40
0.0
 40
0.0
 40
1.0
 40
1.0
 40
1.0
 40
1.0
 10
149.7304002446236
 20
74.23060988482294
 30
0.0
 10
149.7304002446236
 20
74.6988343085965
 30
0.0
 10
149.69974321464
 20
75.1698147929661
 30
0.0
 10
149.6566574126015
 20
75.64230638249536
 30
0.0
  0
LINE
  5
103
330
1F
100
AcDbEntity
  8
0
  6
Continuous
 62
     7
370
    25
100
AcDbLine
 10
149.730400185
 20
74.2306099531
 30
0.0
 11
149.730400185
 21
68.9210258682
 31
0.0
  0
LINE
  5
104
330
1F
100
AcDbEntity
  8
0
  6
Continuous
 62
     7
370
    25
100
AcDbLine
 10
127.7304003042
 20
88.4210253392
 30
0.0
 11
128.2304003862
 21
88.4210253392
 31
0.0
  0
ELLIPSE
  5
105
330
1F
100
AcDbEntity
  8
0
  6
Continuous
 62
     7
370
    25
100
AcDbEllipse
 10
145.3038200501
 20
72.4037303073
 30
0.0
 11
0.07471508237063063
 21
2.842170943040401E-14
 31
0.0
210
0.0
220
0.0
230
1.0
 40
0.9531667975
 41
4.712388980384341
 42
6.626209245754739
  0
LINE
  5
106
330
1F
100
AcDbEntity
  8
0
  6
Continuous
 62
     7
370
    25
100
AcDbLine
 10
144.9659033706
 20
73.141749974
 30
0.0
 11
144.6983488304
 21
72.4276826043
 31
0.0
  0
LINE
  5
107
330
1F
100
AcDbEntity
  8
0
  6
Continuous
 62
     7
370
    25
100
AcDbLine
 10
144.7687111822
 20
72.3325144757
 30
0.0
 11
145.3038202626
 21
72.3325144757
 31
0.0
  0
ELLIPSE
  5
108
330
1F
100
AcDbEntity
  8
0
  6
Continuous
 62
     7
370
    25
100
AcDbEllipse
 10
144.7687113639
 20
72.4037303073
 30
0.0
 11
-0.07471508237065905
 21
0.0
 31
0.0
210
0.0
220
0.0
230
1.0
 40
0.9531667975
 41
5.940161364898012
 42
7.853981633974483
  0
ELLIPSE
  5
109
330
1F
100
AcDbEntity
  8
0
  6
Continuous
 62
     7
370
    25
100
AcDbEllipse
 10
145.0362657086
 20
73.1177972731
 30
0.0
 11
0.07471508237065905
 21
0.0
 31
0.0
210
0.0
220
0.0
230
1.0
 40
0.9531667975
 41
0.3430239404209288
 42
2.798568713168677
  0
LINE
  5
10A
330
1F
100
AcDbEntity
  8
0
  6
Continuous
 62
     7
370
    25
100
AcDbLine
 10
145.3741821488
 20
72.4276826043
 30
0.0
 11
145.1066280742
 21
73.141749974
 31
0.0
  0
LWPOLYLINE
  5
10B
330
1F
100
AcDbEntity
  8
0
  6
Continuous
 62
     7
370
    25
100
AcDbPolyline
 90
        9
 70
   128
 43
0.0
 10
149.730400185
 20
83.6114413362
 10
149.7400077087
 20
83.5716566328
 10
149.7684605447
 20
83.5334002298
 10
149.8146653202
 20
83.4981431511
 10
149.8768469346
 20
83.4672404711
 10
149.9526146826
 20
83.4418786947
 10
150.0390581814
 20
83.4230338481
 10
150.1328554032
 20
83.4114286375
 10
150.230400267
 20
83.4075100977
  0
LWPOLYLINE
  5
10C
330
1F
100
AcDbEntity
  8
0
  6
Continuous
 62
     7
370
    25
100
AcDbPolyline
 90
        9
 70
   128
 43
0.0
 10
127.2304002223
 20
83.4075100977
 10
127.3279450861
 20
83.4114286375
 10
127.4217423079
 20
83.4230338481
 10
127.5081858066
 20
83.4418786947
 10
127.5839535547
 20
83.4672404711
 10
127.646135169
 20
83.4981431511
 10
127.6923399446
 20
83.5334002298
 10
127.7207927805
 20
83.5716566328
 10
127.7304003042
 20
83.6114413362
  0
LWPOLYLINE
  5
10D
330
1F
100
AcDbEntity
  8
0
  6
Continuous
 62
     7
370
    25
100
AcDbPolyline
 90
        9
 70
   128
 43
0.0
 10
143.2168846977
 20
90.421025667
 10
143.2208032374
 20
90.3234808032
 10
143.232408448
 20
90.2296835814
 10
143.2512532947
 20
90.1432400827
 10
143.276615071
 20
90.0674723346
 10
143.307517751
 20
90.0052907203
 10
143.3427748297
 20
89.9590859447
 10
143.3810312328
 20
89.9306331087
 10
143.4208159362
 20
89.921025585
  0
LWPOLYLINE
  5
10E
330
1F
100
AcDbEntity
  8
0
  6
Continuous
 62
     7
370
    25
100
AcDbPolyline
 90
        9
 70
   128
 43
0.0
 10
127.2304002223
 20
74.4345411916
 10
127.3279450861
 20
74.4306226518
 10
127.4217423079
 20
74.4190174412
 10
127.5081858066
 20
74.4001725946
 10
127.5839535547
 20
74.3748108182
 10
127.646135169
 20
74.3439081382
 10
127.6923399446
 20
74.3086510595
 10
127.7207927805
 20
74.2703946565
 10
127.7304003042
 20
74.2306099531
  0
LWPOLYLINE
  5
10F
330
1F
100
AcDbEntity
  8
0
  6
Continuous
 62
     7
370
    25
100
AcDbPolyline
 90
        9
 70
   128
 43
0.0
 10
150.230400267
 20
74.4345411916
 10
150.1328554032
 20
74.4306226518
 10
150.0390581814
 20
74.4190174412
 10
149.9526146826
 20
74.4001725946
 10
149.8768469346
 20
74.3748108182
 10
149.8146653202
 20
74.3439081382
 10
149.7684605447
 20
74.3086510595
 10
149.7400077087
 20
74.2703946565
 10
149.730400185
 20
74.2306099531
  0
LWPOLYLINE
  5
110
330
1F
100
AcDbEntity
  8
0
  6
Continuous
 62
     7
370
    25
100
AcDbPolyline
 90
        9
 70
   128
 43
0.0
 10
134.039984553
 20
89.921025585
 10
134.0797692564
 20
89.9306331087
 10
134.1180256595
 20
89.9590859447
 10
134.1532827382
 20
90.0052907203
 10
134.1841854182
 20
90.0674723346
 10
134.2095471946
 20
90.1432400827
 10
134.2283920412
 20
90.2296835814
 10
134.2399972518
 20
90.3234808032
 10
134.2439157915
 20
90.421025667
  0
SPLINE
  5
111
330
1F
100
AcDbEntity
  8
0
  6
Continuous
 62
     7
370
    25
100
AcDbSpline
210
0.0
220
0.0
230
1.0
 70
     8
 71
     3
 72
     8
 73
     4
 74
     0
 42
0.000000001
 43
0.00000001
 40
0.0
 40
0.0
 40
0.0
 40
0.0
 40
1.0
 40
1.0
 40
1.0
 40
1.0
 10
127.4384949233325
 20
68.92102564464638
 30
0.0
 10
127.370905328231
 20
68.92102564464638
 30
0.0
 10
127.3006140447122
 20
68.90555548055622
 30
0.0
 10
127.2304002446235
 20
68.87754738377681
 30
0.0
  0
SPLINE
  5
112
330
1F
100
AcDbEntity
  8
0
  6
Continuous
 62
     7
370
    25
100
AcDbSpline
210
0.0
220
0.0
230
1.0
 70
    24
 71
     3
 72
    12
 73
     8
 74
     0
 42
0.000000001
 43
0.00000001
 40
0.0
 40
0.0
 40
0.0
 40
0.0
 40
0.4999999999999989
 40
0.4999999999999989
 40
0.7499999999999994
 40
0.7499999999999994
 40
1.0
 40
1.0
 40
1.0
 40
1.0
 10
127.7304002446235
 20
68.92102564464638
 30
0.0
 10
127.7304002446235
 20
68.92102564464638
 30
0.0
 10
127.7092006966478
 20
68.92102564464638
 30
0.0
 10
127.6432733603177
 20
68.92102564464638
 30
0.0
 10
127.6150341134027
 20
68.92102564464638
 30
0.0
 10
127.5424837376851
 20
68.92102564464638
 30
0.0
 10
127.4994969054671
 20
68.92102564464638
 30
0.0
 10
127.4384949233325
 20
68.92102564464638
 30
0.0
  0
SPLINE
  5
113
330
1F
100
AcDbEntity
  8
0
  6
Continuous
 62
     7
370
    25
100
AcDbSpline
210
0.0
220
0.0
230
1.0
 70
     8
 71
     3
 72
     8
 73
     4
 74
     0
 42
0.000000001
 43
0.00000001
 40
0.0
 40
0.0
 40
0.0
 40
0.0
 40
1.0
 40
1.0
 40
1.0
 40
1.0
 10
127.4820977685789
 20
88.42102564464638
 30
0.0
 10
127.4018869901803
 20
88.42102564464638
 30
0.0
 10
127.3158864934577
 20
88.4449562667546
 30
0.0
 10
127.2304002446235
 20
88.48624303595072
 30
0.0
  0
SPLINE
  5
114
330
1F
100
AcDbEntity
  8
0
  6
Continuous
 62
     7
370
    25
100
AcDbSpline
210
0.0
220
0.0
230
1.0
 70
    24
 71
     3
 72
    10
 73
     6
 74
     0
 42
0.000000001
 43
0.00000001
 40
0.0
 40
0.0
 40
0.0
 40
0.0
 40
0.5
 40
0.5
 40
1.0
 40
1.0
 40
1.0
 40
1.0
 10
127.4820977685789
 20
88.42102564464638
 30
0.0
 10
127.5775748375103
 20
88.42102564464638
 30
0.0
 10
127.6344536427189
 20
88.42102564464638
 30
0.0
 10
127.7115511512462
 20
88.42102564464638
 30
0.0
 10
127.7304002446234
 20
88.42102564464638
 30
0.0
 10
127.7304002446235
 20
88.42102564464638
 30
0.0
  0
SPLINE
  5
115
330
1F
100
AcDbEntity
  8
0
  6
Continuous
 62
     7
370
    25
100
AcDbSpline
210
0.0
220
0.0
230
1.0
 70
     8
 71
     3
 72
     8
 73
     4
 74
     0
 42
0.000000001
 43
0.00000001
 40
0.0
 40
0.0
 40
0.0
 40
0.0
 40
1.0
 40
1.0
 40
1.0
 40
1.0
 10
148.2304002446236
 20
90.169328120691
 30
0.0
 10
148.2304002446236
 20
90.24953889908956
 30
0.0
 10
148.2543308667322
 20
90.33553939581141
 30
0.0
 10
148.2956176359279
 20
90.42102564464636
 30
0.0
  0
SPLINE
  5
116
330
1F
100
AcDbEntity
  8
0
  6
Continuous
 62
     7
370
    25
100
AcDbSpline
210
0.0
220
0.0
230
1.0
 70
    24
 71
     3
 72
    10
 73
     6
 74
     0
 42
0.000000001
 43
0.00000001
 40
0.0
 40
0.0
 40
0.0
 40
0.0
 40
0.5
 40
0.5
 40
1.0
 40
1.0
 40
1.0
 40
1.0
 10
148.2304002446236
 20
90.169328120691
 30
0.0
 10
148.2304002446236
 20
90.07385105175963
 30
0.0
 10
148.2304002446236
 20
90.01697224655105
 30
0.0
 10
148.2304002446236
 20
89.93987473802375
 30
0.0
 10
148.2304002446236
 20
89.92102564464649
 30
0.0
 10
148.2304002446236
 20
89.92102564464636
 30
0.0
  0
SPLINE
  5
117
330
1F
100
AcDbEntity
  8
0
  6
Continuous
 62
     7
370
    25
100
AcDbSpline
210
0.0
220
0.0
230
1.0
 70
     8
 71
     3
 72
     8
 73
     4
 74
     0
 42
0.000000001
 43
0.00000001
 40
0.0
 40
0.0
 40
0.0
 40
0.0
 40
1.0
 40
1.0
 40
1.0
 40
1.0
 10
129.2304002446236
 20
90.16932812069103
 30
0.0
 10
129.2304002446236
 20
90.2495388990896
 30
0.0
 10
129.2064696225163
 20
90.33553939581424
 30
0.0
 10
129.1651828533192
 20
90.42102564464636
 30
0.0
  0
SPLINE
  5
118
330
1F
100
AcDbEntity
  8
0
  6
Continuous
 62
     7
370
    25
100
AcDbSpline
210
0.0
220
0.0
230
1.0
 70
    24
 71
     3
 72
    12
 73
     8
 74
     0
 42
0.000000001
 43
0.00000001
 40
0.0
 40
0.0
 40
0.0
 40
0.0
 40
0.5000000000000022
 40
0.5000000000000022
 40
0.7500000000000011
 40
0.7500000000000011
 40
1.0
 40
1.0
 40
1.0
 40
1.0
 10
129.2304002446236
 20
89.92102564464636
 30
0.0
 10
129.2304002446236
 20
89.92102564464636
 30
0.0
 10
129.2304002446236
 20
89.93951037578373
 30
0.0
 10
129.2304002446236
 20
89.99764655966435
 30
0.0
 10
129.2304002446236
 20
90.02249134570631
 30
0.0
 10
129.2304002446236
 20
90.08443600578406
 30
0.0
 10
129.2304002446236
 20
90.12127156640116
 30
0.0
 10
129.2304002446236
 20
90.16932812069246
 30
0.0
  0
SPLINE
  5
119
330
1F
100
AcDbEntity
  8
0
  6
Continuous
 62
     7
370
    25
100
AcDbSpline
210
0.0
220
0.0
230
1.0
 70
     8
 71
     3
 72
     8
 73
     4
 74
     0
 42
0.000000001
 43
0.00000001
 40
0.0
 40
0.0
 40
0.0
 40
0.0
 40
1.0
 40
1.0
 40
1.0
 40
1.0
 10
150.0223055659146
 20
68.92102564464638
 30
0.0
 10
150.0898951610161
 20
68.92102564464638
 30
0.0
 10
150.160186444535
 20
68.90555548055622
 30
0.0
 10
150.2304002446236
 20
68.87754738377681
 30
0.0
  0
SPLINE
  5
11A
330
1F
100
AcDbEntity
  8
0
  6
Continuous
 62
     7
370
    25
100
AcDbSpline
210
0.0
220
0.0
230
1.0
 70
    24
 71
     3
 72
    12
 73
     8
 74
     0
 42
0.000000001
 43
0.00000001
 40
0.0
 40
0.0
 40
0.0
 40
0.0
 40
0.2499999999999997
 40
0.2499999999999997
 40
0.4999999999999993
 40
0.4999999999999993
 40
1.0
 40
1.0
 40
1.0
 40
1.0
 10
150.0223055659146
 20
68.92102564464638
 30
0.0
 10
149.9618858193858
 20
68.92102564464638
 30
0.0
 10
149.9185395663226
 20
68.92102564464638
 30
0.0
 10
149.8456699482544
 20
68.92102564464638
 30
0.0
 10
149.81801794079
 20
68.92102564464638
 30
0.0
 10
149.7519863718499
 20
68.92102564464638
 30
0.0
 10
149.7304002446235
 20
68.92102564464638
 30
0.0
 10
149.7304002446235
 20
68.92102564464638
 30
0.0
  0
SPLINE
  5
11B
330
1F
100
AcDbEntity
  8
0
  6
Continuous
 62
     7
370
    25
100
AcDbSpline
210
0.0
220
0.0
230
1.0
 70
    24
 71
     3
 72
    12
 73
     8
 74
     0
 42
0.000000001
 43
0.00000001
 40
0.0
 40
0.0
 40
0.0
 40
0.0
 40
0.5000000000000023
 40
0.5000000000000023
 40
0.7500000000000011
 40
0.7500000000000011
 40
1.0
 40
1.0
 40
1.0
 40
1.0
 10
149.7304002446236
 20
88.42102564464636
 30
0.0
 10
149.7304002446236
 20
88.42102564464636
 30
0.0
 10
149.7488849757609
 20
88.42102564464636
 30
0.0
 10
149.8070211596415
 20
88.42102564464636
 30
0.0
 10
149.8318659456835
 20
88.42102564464636
 30
0.0
 10
149.8938106057612
 20
88.42102564464636
 30
0.0
 10
149.9306461663783
 20
88.42102564464636
 30
0.0
 10
149.9787027206696
 20
88.42102564464636
 30
0.0
  0
SPLINE
  5
11C
330
1F
100
AcDbEntity
  8
0
  6
Continuous
 62
     7
370
    25
100
AcDbSpline
210
0.0
220
0.0
230
1.0
 70
     8
 71
     3
 72
     8
 73
     4
 74
     0
 42
0.000000001
 43
0.00000001
 40
0.0
 40
0.0
 40
0.0
 40
0.0
 40
1.0
 40
1.0
 40
1.0
 40
1.0
 10
149.9787027206682
 20
88.42102564464636
 30
0.0
 10
150.0589134990668
 20
88.42102564464636
 30
0.0
 10
150.1449139957905
 20
88.44495626675405
 30
0.0
 10
150.2304002446236
 20
88.48624303595072
 30
0.0
  0
ARC
  5
11D
330
1F
100
AcDbEntity
  8
0
  6
Continuous
 62
     7
370
    25
100
AcDbCircle
 10
148.7993561004
 20
88.9699443338
 30
0.0
 40
0.3765098242385761
100
AcDbArc
 50
164.9874081083
 51
222.8433971034
  0
LINE
  5
11E
330
1F
100
AcDbEntity
  8
0
  6
Continuous
 62
     7
370
    25
100
AcDbLine
 10
148.2956176651
 20
89.4210255031
 30
0.0
 11
148.2303999391
 21
89.4210255031
 31
0.0
  0
LINE
  5
11F
330
1F
100
AcDbEntity
  8
0
  6
Continuous
 62
     7
370
    25
100
AcDbLine
 10
149.2304001031
 20
88.4862430651
 30
0.0
 11
149.2304001031
 21
88.4210253392
 31
0.0
  0
ARC
  5
120
330
1F
100
AcDbEntity
  8
0
  6
Continuous
 62
     7
370
    25
100
AcDbCircle
 10
148.7793189338
 20
88.9899815004
 30
0.0
 40
0.3765098242385487
100
AcDbArc
 50
227.1566028966
 51
285.0125918917
  0
ARC
  5
121
330
1F
100
AcDbEntity
  8
0
  6
Continuous
 62
     7
370
    25
100
AcDbCircle
 10
128.6814815555
 20
88.9899815004
 30
0.0
 40
0.3765098242385487
100
AcDbArc
 50
254.9874081083
 51
312.8433971034
  0
LINE
  5
122
330
1F
100
AcDbEntity
  8
0
  6
Continuous
 62
     7
370
    25
100
AcDbLine
 10
128.2304003862
 20
88.4862430651
 30
0.0
 11
128.2304003862
 21
88.4210253392
 31
0.0
  0
ARC
  5
123
330
1F
100
AcDbEntity
  8
0
  6
Continuous
 62
     7
370
    25
100
AcDbCircle
 10
128.6614443889
 20
88.9699443338
 30
0.0
 40
0.3765098242385487
100
AcDbArc
 50
317.1566028966
 51
15.0125918917
  0
LINE
  5
124
330
1F
100
AcDbEntity
  8
0
  6
Continuous
 62
     7
370
    25
100
AcDbLine
 10
129.2304005501
 20
89.4210255031
 30
0.0
 11
129.1651828242
 21
89.4210255031
 31
0.0
  0
ARC
  5
125
330
1F
100
AcDbEntity
  8
0
  6
Continuous
 62
     7
370
    25
100
AcDbCircle
 10
149.0169400871
 20
89.2075654871
 30
0.0
 40
0.597887704788263
100
AcDbArc
 50
193.551174763
 51
256.448825237
  0
ARC
  5
126
330
1F
100
AcDbEntity
  8
0
  6
Continuous
 62
     7
370
    25
100
AcDbCircle
 10
128.4438604022
 20
89.2075654871
 30
0.0
 40
0.597887704788263
100
AcDbArc
 50
283.551174763
 51
346.448825237
  0
LINE
  5
127
330
1F
100
AcDbEntity
  8
0
  6
Continuous
 62
     8
370
    25
100
AcDbLine
 10
157.7303996337
 20
92.9210260768
 30
0.0
 11
157.7303996337
 21
64.9210252125
 31
0.0
  0
LINE
  5
128
330
1F
100
AcDbEntity
  8
0
  6
Continuous
 62
     8
370
    25
100
AcDbLine
 10
124.7303998125
 20
97.9210250337
 30
0.0
 11
152.7304006768
 21
97.9210250337
 31
0.0
  0
LINE
  5
129
330
1F
100
AcDbEntity
  8
0
  6
Continuous
 62
     8
370
    25
100
AcDbLine
 10
119.7304008556
 20
78.9210256446
 30
0.0
 11
119.7304008556
 21
92.9210260768
 31
0.0
  0
LINE
  5
12A
330
1F
100
AcDbEntity
  8
0
  6
Continuous
 62
     8
370
    25
100
AcDbLine
 10
119.7304008556
 20
64.9210252125
 30
0.0
 11
119.7304008556
 21
78.9210256446
 31
0.0
  0
LINE
  5
12B
330
1F
100
AcDbEntity
  8
0
  6
Continuous
 62
     8
370
    25
100
AcDbLine
 10
155.7304011685
 20
67.9210257043
 30
0.0
 11
155.7304011685
 21
89.921025585
 31
0.0
  0
LINE
  5
12C
330
1F
100
AcDbEntity
  8
0
  6
Continuous
 62
     8
370
    25
100
AcDbLine
 10
149.730400185
 20
95.9210265685
 30
0.0
 11
127.7304003042
 21
95.9210265685
 31
0.0
  0
LINE
  5
12D
330
1F
100
AcDbEntity
  8
0
  6
Continuous
 62
     8
370
    25
100
AcDbLine
 10
121.7303993208
 20
78.9210256446
 30
0.0
 11
121.7303993208
 21
67.9210257043
 31
0.0
  0
LINE
  5
12E
330
1F
100
AcDbEntity
  8
0
  6
Continuous
 62
     8
370
    25
100
AcDbLine
 10
121.7303993208
 20
89.921025585
 30
0.0
 11
121.7303993208
 21
78.9210256446
 31
0.0
  0
LWPOLYLINE
  5
12F
330
1F
100
AcDbEntity
  8
0
  6
Continuous
 62
     8
370
    25
100
AcDbPolyline
 90
        9
 70
   128
 43
0.0
 10
128.5839537186
 20
88.6263223622
 10
128.2521644634
 20
88.943686362
 10
127.9650973183
 20
89.218271922
 10
127.7239788351
 20
89.4489074383
 10
127.5298362625
 20
89.6346085031
 10
127.3835003403
 20
89.7745816294
 10
127.2855950547
 20
89.8682307709
 10
127.236537638
 20
89.9151554589
 10
127.2304002223
 20
89.921025585
  0
LWPOLYLINE
  5
130
330
1F
100
AcDbEntity
  8
0
  6
Continuous
 62
     8
370
    25
100
AcDbPolyline
 90
        9
 70
   128
 43
0.0
 10
150.230400267
 20
89.921025585
 10
150.2242628512
 20
89.9151554589
 10
150.1752054346
 20
89.8682307709
 10
150.0773001489
 20
89.7745816294
 10
149.9309642268
 20
89.6346085031
 10
149.7368216542
 20
89.4489074383
 10
149.4957031709
 20
89.218271922
 10
149.2086360258
 20
88.943686362
 10
148.8768467707
 20
88.6263223622
  0
LWPOLYLINE
  5
131
330
1F
100
AcDbEntity
  8
0
  6
Continuous
 62
     8
370
    25
100
AcDbPolyline
 90
        9
 70
   128
 43
0.0
 10
127.7304003042
 20
90.421025667
 10
127.7362704304
 20
90.4148882512
 10
127.7831951183
 20
90.3658308346
 10
127.8768442598
 20
90.267925549
 10
128.0168173862
 20
90.1215896268
 10
128.2025184509
 20
89.9274470542
 10
128.4331539673
 20
89.6863285709
 10
128.7077395273
 20
89.3992614258
 10
129.025103527
 20
89.0674721707
  0
LWPOLYLINE
  5
132
330
1F
100
AcDbEntity
  8
0
  6
Continuous
 62
     8
370
    25
100
AcDbPolyline
 90
        9
 70
   128
 43
0.0
 10
148.4356969622
 20
89.0674721707
 10
148.753060962
 20
89.3992614258
 10
149.027646522
 20
89.6863285709
 10
149.2582820383
 20
89.9274470542
 10
149.4439831031
 20
90.1215896268
 10
149.5839562294
 20
90.267925549
 10
149.6776053709
 20
90.3658308346
 10
149.7245300588
 20
90.4148882512
 10
149.730400185
 20
90.421025667
  0
LINE
  5
133
330
1F
100
AcDbEntity
  8
0
  6
CENTERX2
 62
     7
370
    18
100
AcDbLine
 10
138.7304002446
 20
64.4795087642
 30
0.0
 11
138.7304002446
 21
113.9210256446
 31
0.0
  0
LINE
  5
134
330
1F
100
AcDbEntity
  8
0
  6
CENTERX2
 62
     7
370
    18
100
AcDbLine
 10
105.7304002446
 20
78.9210256446
 30
0.0
 11
171.7304002446
 21
78.9210256446
 31
0.0
  0
LINE
  5
135
330
1F
100
AcDbEntity
  8
0
  6
CENTERX2
 62
     7
370
    18
100
AcDbLine
 10
105.7304002446
 20
78.9210256446
 30
0.0
 11
102.7304002446
 21
78.9210256446
 31
0.0
  0
LINE
  5
136
330
1F
100
AcDbEntity
  8
0
  6
CENTERX2
 62
     7
370
    18
100
AcDbLine
 10
171.7304002446
 20
78.9210256446
 30
0.0
 11
174.7304002446
 21
78.9210256446
 31
0.0
  0
LINE
  5
137
330
1F
100
AcDbEntity
  8
0
  6
Continuous
 62
     7
370
    25
100
AcDbLine
 10
238.1266761188
 20
111.9210254658
 30
0.0
 11
237.1266759549
 21
112.9210274924
 31
0.0
  0
LINE
  5
138
330
1F
100
AcDbEntity
  8
0
  6
Continuous
 62
     7
370
    25
100
AcDbLine
 10
211.1266754185
 20
112.9210274924
 30
0.0
 11
210.1266752546
 21
111.9210254658
 31
0.0
  0
LINE
  5
139
330
1F
100
AcDbEntity
  8
0
  6
Continuous
 62
     7
370
    25
100
AcDbLine
 10
210.1266752546
 20
111.9210254658
 30
0.0
 11
210.1266752546
 21
97.9210250337
 31
0.0
  0
LINE
  5
13A
330
1F
100
AcDbEntity
  8
0
  6
Continuous
 62
     7
370
    25
100
AcDbLine
 10
238.1266761188
 20
97.9210250337
 30
0.0
 11
238.1266761188
 21
111.9210254658
 31
0.0
  0
ARC
  5
13B
330
1F
100
AcDbEntity
  8
0
  6
Continuous
 62
     7
370
    25
100
AcDbCircle
 10
211.1266756867
 20
97.9210256446
 30
0.0
 40
1.0
100
AcDbArc
 50
180.0
 51
270.0
  0
ARC
  5
13C
330
1F
100
AcDbEntity
  8
0
  6
Continuous
 62
     7
370
    25
100
AcDbCircle
 10
237.1266756867
 20
97.9210256446
 30
0.0
 40
1.0
100
AcDbArc
 50
270.0
 51
0.0
  0
ARC
  5
13D
330
1F
100
AcDbEntity
  8
0
  6
Continuous
 62
     7
370
    25
100
AcDbCircle
 10
212.1266756867
 20
95.9210256446
 30
0.0
 40
1.0
100
AcDbArc
 50
0.0
 51
90.0
  0
ARC
  5
13E
330
1F
100
AcDbEntity
  8
0
  6
Continuous
 62
     7
370
    25
100
AcDbCircle
 10
236.1266756867
 20
95.9210256446
 30
0.0
 40
1.0
100
AcDbArc
 50
90.0
 51
180.0
  0
LINE
  5
13F
330
1F
100
AcDbEntity
  8
0
  6
Continuous
 62
     7
370
    25
100
AcDbLine
 10
235.1266756271
 20
89.921025585
 30
0.0
 11
235.1266756271
 21
95.9210265685
 31
0.0
  0
LINE
  5
140
330
1F
100
AcDbEntity
  8
0
  6
Continuous
 62
     7
370
    25
100
AcDbLine
 10
213.1266757463
 20
95.9210265685
 30
0.0
 11
213.1266757463
 21
89.921025585
 31
0.0
  0
CIRCLE
  5
141
330
1F
100
AcDbEntity
  8
0
  6
Continuous
 62
     7
370
    25
100
AcDbCircle
 10
224.1266756867
 20
78.9210256446
 30
0.0
 40
13.00000000000003
  0
CIRCLE
  5
142
330
1F
100
AcDbEntity
  8
0
  6
Continuous
 62
     7
370
    25
100
AcDbCircle
 10
224.1266756867
 20
78.9210256446
 30
0.0
 40
14.00000000000003
  0
CIRCLE
  5
143
330
1F
100
AcDbEntity
  8
0
  6
Continuous
 62
     7
370
    25
100
AcDbCircle
 10
224.1266756867
 20
78.9210256446
 30
0.0
 40
10.75
  0
CIRCLE
  5
144
330
1F
100
AcDbEntity
  8
0
  6
Continuous
 62
     7
370
    25
100
AcDbCircle
 10
224.1266756867
 20
78.9210256446
 30
0.0
 40
9.798213046580429
  0
CIRCLE
  5
145
330
1F
100
AcDbEntity
  8
0
  6
Continuous
 62
     7
370
    25
100
AcDbCircle
 10
224.1266756867
 20
78.9210256446
 30
0.0
 40
9.428250615618282
  0
CIRCLE
  5
146
330
1F
100
AcDbEntity
  8
0
  6
Continuous
 62
     7
370
    25
100
AcDbCircle
 10
224.1266756867
 20
78.9210256446
 30
0.0
 40
9.315500000000014
  0
CIRCLE
  5
147
330
1F
100
AcDbEntity
  8
0
  6
Continuous
 62
     7
370
    25
100
AcDbCircle
 10
224.1266756867
 20
78.9210256446
 30
0.0
 40
6.499999999999972
  0
LINE
  5
148
330
1F
100
AcDbEntity
  8
0
  6
Continuous
 62
     7
370
    25
100
AcDbLine
 10
238.1266761188
 20
111.9210254658
 30
0.0
 11
210.1266752546
 21
111.9210254658
 31
0.0
  0
LINE
  5
149
330
1F
100
AcDbEntity
  8
0
  6
Continuous
 62
     7
370
    25
100
AcDbLine
 10
211.1266754185
 20
112.9210274924
 30
0.0
 11
237.1266759549
 21
112.9210274924
 31
0.0
  0
LINE
  5
14A
330
1F
100
AcDbEntity
  8
0
  6
Continuous
 62
     7
370
    25
100
AcDbLine
 10
237.1266759549
 20
96.9210248698
 30
0.0
 11
211.1266754185
 21
96.9210248698
 31
0.0
  0
SPLINE
  5
14B
330
1F
100
AcDbEntity
  8
0
  6
Continuous
 62
     7
370
    25
100
AcDbSpline
210
0.0
220
0.0
230
1.0
 70
     8
 71
     3
 72
    12
 73
     8
 74
     0
 42
0.000000001
 43
0.00000001
 40
0.0
 40
0.0
 40
0.0
 40
0.0
 40
0.25
 40
0.25
 40
0.5
 40
0.5
 40
1.0
 40
1.0
 40
1.0
 40
1.0
 10
234.6701315360602
 20
90.27353998060225
 30
0.0
 10
234.7450798136079
 20
90.225498009966
 30
0.0
 10
234.8112632687182
 20
90.18880436731885
 30
0.0
 10
234.9252447741532
 20
90.12281368588776
 30
0.0
 10
234.9731262111326
 20
90.09404019770827
 30
0.0
 10
235.0880496770467
 20
90.01356449069023
 30
0.0
 10
235.1266756866891
 20
89.96743478748951
 30
0.0
 10
235.1266756866891
 20
89.92102564464636
 30
0.0
  0
SPLINE
  5
14C
330
1F
100
AcDbEntity
  8
0
  6
Continuous
 62
     7
370
    25
100
AcDbSpline
210
0.0
220
0.0
230
1.0
 70
     8
 71
     3
 72
     8
 73
     4
 74
     0
 42
0.000000001
 43
0.00000001
 40
0.0
 40
0.0
 40
0.0
 40
0.0
 40
1.0
 40
1.0
 40
1.0
 40
1.0
 10
234.1701539475587
 20
90.42102564464636
 30
0.0
 10
234.3683942793734
 20
90.42102564464636
 30
0.0
 10
234.534108208151
 20
90.36073116016077
 30
0.0
 10
234.6701315360602
 20
90.27353998060225
 30
0.0
  0
SPLINE
  5
14D
330
1F
100
AcDbEntity
  8
0
  6
Continuous
 62
     7
370
    25
100
AcDbSpline
210
0.0
220
0.0
230
1.0
 70
     8
 71
     3
 72
     8
 73
     4
 74
     0
 42
0.000000001
 43
0.00000001
 40
0.0
 40
0.0
 40
0.0
 40
0.0
 40
1.0
 40
1.0
 40
1.0
 40
1.0
 10
213.583219837318
 20
90.27353998060227
 30
0.0
 10
213.7192431652273
 20
90.36073116016077
 30
0.0
 10
213.8849570940049
 20
90.42102564464636
 30
0.0
 10
214.0831974258195
 20
90.42102564464636
 30
0.0
  0
SPLINE
  5
14E
330
1F
100
AcDbEntity
  8
0
  6
Continuous
 62
     7
370
    25
100
AcDbSpline
210
0.0
220
0.0
230
1.0
 70
     8
 71
     3
 72
    12
 73
     8
 74
     0
 42
0.000000001
 43
0.00000001
 40
0.0
 40
0.0
 40
0.0
 40
0.0
 40
0.2499999999999999
 40
0.2499999999999999
 40
0.4999999999999998
 40
0.4999999999999998
 40
1.0
 40
1.0
 40
1.0
 40
1.0
 10
213.583219837318
 20
90.27353998060227
 30
0.0
 10
213.5082976954179
 20
90.22551476295956
 30
0.0
 10
213.4421342400339
 20
90.18883049268467
 30
0.0
 10
213.3281797119838
 20
90.12285659975528
 30
0.0
 10
213.2803239065231
 20
90.09410496718701
 30
0.0
 10
213.1652686109026
 20
90.01355006639704
 30
0.0
 10
213.1266756866891
 20
89.9674185897781
 30
0.0
 10
213.1266756866891
 20
89.92102564464636
 30
0.0
  0
ARC
  5
14F
330
1F
100
AcDbEntity
  8
0
  6
Continuous
 62
     7
370
    25
100
AcDbCircle
 10
234.6266756867
 20
87.9210256446
 30
0.0
 40
0.5
100
AcDbArc
 50
0.0
 51
90.0
  0
LINE
  5
150
330
1F
100
AcDbEntity
  8
0
  6
Continuous
 62
     7
370
    25
100
AcDbLine
 10
235.1266756271
 20
87.9210252572
 30
0.0
 11
235.1266756271
 21
87.5812797133
 31
0.0
  0
ARC
  5
151
330
1F
100
AcDbEntity
  8
0
  6
Continuous
 62
     7
370
    25
100
AcDbCircle
 10
234.6266756867
 20
69.4210256446
 30
0.0
 40
0.5
100
AcDbArc
 50
270.0
 51
0.0
  0
LINE
  5
152
330
1F
100
AcDbEntity
  8
0
  6
Continuous
 62
     7
370
    25
100
AcDbLine
 10
235.1266756271
 20
70.260771576
 30
0.0
 11
235.1266756271
 21
69.4210259501
 31
0.0
  0
LINE
  5
153
330
1F
100
AcDbEntity
  8
0
  6
Continuous
 62
     7
370
    25
100
AcDbLine
 10
234.4101579477
 20
88.4210253392
 30
0.0
 11
234.6266755451
 21
88.4210253392
 31
0.0
  0
LINE
  5
154
330
1F
100
AcDbEntity
  8
0
  6
Continuous
 62
     7
370
    25
100
AcDbLine
 10
233.9246343438
 20
68.9210258682
 30
0.0
 11
234.6266755451
 21
68.9210258682
 31
0.0
  0
LINE
  5
155
330
1F
100
AcDbEntity
  8
0
  6
Continuous
 62
     7
370
    25
100
AcDbLine
 10
213.6266758283
 20
68.9210258682
 30
0.0
 11
214.3287170295
 21
68.9210258682
 31
0.0
  0
LINE
  5
156
330
1F
100
AcDbEntity
  8
0
  6
Continuous
 62
     7
370
    25
100
AcDbLine
 10
213.6266758283
 20
88.4210253392
 30
0.0
 11
213.8431934257
 21
88.4210253392
 31
0.0
  0
ARC
  5
157
330
1F
100
AcDbEntity
  8
0
  6
Continuous
 62
     7
370
    25
100
AcDbCircle
 10
213.6266756867
 20
87.9210256446
 30
0.0
 40
0.5
100
AcDbArc
 50
90.0
 51
180.0
  0
LINE
  5
158
330
1F
100
AcDbEntity
  8
0
  6
Continuous
 62
     7
370
    25
100
AcDbLine
 10
213.1266757463
 20
87.5812797133
 30
0.0
 11
213.1266757463
 21
87.9210252572
 31
0.0
  0
ARC
  5
159
330
1F
100
AcDbEntity
  8
0
  6
Continuous
 62
     7
370
    25
100
AcDbCircle
 10
213.6266756867
 20
69.4210256446
 30
0.0
 40
0.5
100
AcDbArc
 50
180.0
 51
270.0
  0
LINE
  5
15A
330
1F
100
AcDbEntity
  8
0
  6
Continuous
 62
     7
370
    25
100
AcDbLine
 10
213.1266757463
 20
69.4210259501
 30
0.0
 11
213.1266757463
 21
70.260771576
 31
0.0
  0
LINE
  5
15B
330
1F
100
AcDbEntity
  8
0
  6
Continuous
 62
     7
370
    25
100
AcDbLine
 10
234.6266755451
 20
88.4210253392
 30
0.0
 11
234.6266755451
 21
89.4210255031
 31
0.0
  0
LINE
  5
15C
330
1F
100
AcDbEntity
  8
0
  6
Continuous
 62
     7
370
    25
100
AcDbLine
 10
235.1266756271
 20
89.4210255031
 30
0.0
 11
234.6266755451
 21
89.4210255031
 31
0.0
  0
LINE
  5
15D
330
1F
100
AcDbEntity
  8
0
  6
Continuous
 62
     7
370
    25
100
AcDbLine
 10
235.1266756271
 20
89.4210255031
 30
0.0
 11
235.1266756271
 21
87.9210252572
 31
0.0
  0
LINE
  5
15E
330
1F
100
AcDbEntity
  8
0
  6
Continuous
 62
     7
370
    25
100
AcDbLine
 10
213.6266758283
 20
89.4210255031
 30
0.0
 11
213.6266758283
 21
88.4210253392
 31
0.0
  0
LINE
  5
15F
330
1F
100
AcDbEntity
  8
0
  6
Continuous
 62
     7
370
    25
100
AcDbLine
 10
213.1266757463
 20
89.4210255031
 30
0.0
 11
213.6266758283
 21
89.4210255031
 31
0.0
  0
LINE
  5
160
330
1F
100
AcDbEntity
  8
0
  6
Continuous
 62
     7
370
    25
100
AcDbLine
 10
213.1266757463
 20
87.9210252572
 30
0.0
 11
213.1266757463
 21
89.4210255031
 31
0.0
  0
ARC
  5
161
330
1F
100
AcDbEntity
  8
0
  6
Continuous
 62
     7
370
    25
100
AcDbCircle
 10
234.6494499566
 20
90.4002312818
 30
0.0
 40
0.4797465722737439
100
AcDbArc
 50
177.5157636109
 51
267.2790461907
  0
ARC
  5
162
330
1F
100
AcDbEntity
  8
0
  6
Continuous
 62
     7
370
    25
100
AcDbCircle
 10
213.6039014167
 20
90.4002312818
 30
0.0
 40
0.4797465722737439
100
AcDbArc
 50
272.7209538093
 51
2.4842363891
  0
LINE
  5
163
330
1F
100
AcDbEntity
  8
0
  6
Continuous
 62
     7
370
    25
100
AcDbLine
 10
234.6266755451
 20
89.4210255031
 30
0.0
 11
234.6266755451
 21
89.921025585
 31
0.0
  0
ARC
  5
164
330
1F
100
AcDbEntity
  8
0
  6
Continuous
 62
     7
370
    25
100
AcDbCircle
 10
234.6266756867
 20
89.4210256446
 30
0.0
 40
0.5
100
AcDbArc
 50
0.0
 51
90.0
  0
LINE
  5
165
330
1F
100
AcDbEntity
  8
0
  6
Continuous
 62
     7
370
    25
100
AcDbLine
 10
232.7869297554
 20
89.921025585
 30
0.0
 11
234.6266755451
 21
89.921025585
 31
0.0
  0
LINE
  5
166
330
1F
100
AcDbEntity
  8
0
  6
Continuous
 62
     7
370
    25
100
AcDbLine
 10
213.6266758283
 20
89.921025585
 30
0.0
 11
213.6266758283
 21
89.4210255031
 31
0.0
  0
LINE
  5
167
330
1F
100
AcDbEntity
  8
0
  6
Continuous
 62
     7
370
    25
100
AcDbLine
 10
213.6266758283
 20
89.921025585
 30
0.0
 11
215.466421618
 21
89.921025585
 31
0.0
  0
ARC
  5
168
330
1F
100
AcDbEntity
  8
0
  6
Continuous
 62
     7
370
    25
100
AcDbCircle
 10
213.6266756867
 20
89.4210256446
 30
0.0
 40
0.5
100
AcDbArc
 50
90.0
 51
180.0
  0
ARC
  5
169
330
1F
100
AcDbEntity
  8
0
  6
Continuous
 62
     7
370
    25
100
AcDbCircle
 10
235.1373292842
 20
90.2435425194
 30
0.0
 40
0.4681593065412952
100
AcDbArc
 50
176.3262887358
 51
237.8245327008
  0
ARC
  5
16A
330
1F
100
AcDbEntity
  8
0
  6
Continuous
 62
     7
370
    25
100
AcDbCircle
 10
213.1160220892
 20
90.2435425194
 30
0.0
 40
0.4681593065413072
100
AcDbArc
 50
302.1754672992
 51
3.6737112642
  0
SPLINE
  5
16B
330
1F
100
AcDbEntity
  8
0
  6
Continuous
 62
     7
370
    25
100
AcDbSpline
210
0.0
220
0.0
230
1.0
 70
     8
 71
     3
 72
    12
 73
     8
 74
     0
 42
0.000000001
 43
0.00000001
 40
0.0
 40
0.0
 40
0.0
 40
0.0
 40
0.25
 40
0.25
 40
0.5
 40
0.5
 40
1.0
 40
1.0
 40
1.0
 40
1.0
 10
234.8880276079513
 20
89.84728281262431
 30
0.0
 10
234.9250710190327
 20
89.8245703109152
 30
0.0
 10
234.9592839203209
 20
89.81705779108601
 30
0.0
 10
235.0188160751819
 20
89.81550171638683
 30
0.0
 10
235.0442168062043
 20
89.82192855822888
 30
0.0
 10
235.1055754379333
 20
89.85215355853322
 30
0.0
 10
235.1266756866891
 20
89.88684907965178
 30
0.0
 10
235.1266756866891
 20
89.92102564464636
 30
0.0
  0
SPLINE
  5
16C
330
1F
100
AcDbEntity
  8
0
  6
Continuous
 62
     7
370
    25
100
AcDbSpline
210
0.0
220
0.0
230
1.0
 70
    24
 71
     3
 72
    12
 73
     8
 74
     0
 42
0.000000001
 43
0.00000001
 40
0.0
 40
0.0
 40
0.0
 40
0.0
 40
0.2500000000000001
 40
0.2500000000000001
 40
0.5000000000000001
 40
0.5000000000000001
 40
1.0
 40
1.0
 40
1.0
 40
1.0
 10
235.1266756866891
 20
89.42102564464636
 30
0.0
 10
235.1266756866891
 20
89.42102564464636
 30
0.0
 10
235.1266756866891
 20
89.4407485900543
 30
0.0
 10
235.1266756866891
 20
89.50138505481554
 30
0.0
 10
235.1266756866891
 20
89.5426416005039
 30
0.0
 10
235.1266756866891
 20
89.68441491017599
 30
0.0
 10
235.1266756866891
 20
89.80298195533632
 30
0.0
 10
235.1266756866891
 20
89.92102564464636
 30
0.0
  0
SPLINE
  5
16D
330
1F
100
AcDbEntity
  8
0
  6
Continuous
 62
     7
370
    25
100
AcDbSpline
210
0.0
220
0.0
230
1.0
 70
     8
 71
     3
 72
    12
 73
     8
 74
     0
 42
0.000000001
 43
0.00000001
 40
0.0
 40
0.0
 40
0.0
 40
0.0
 40
0.25
 40
0.25
 40
0.5
 40
0.5
 40
1.0
 40
1.0
 40
1.0
 40
1.0
 10
213.365323765427
 20
89.84728281262431
 30
0.0
 10
213.3282803543456
 20
89.8245703109152
 30
0.0
 10
213.2940674530574
 20
89.81705779108601
 30
0.0
 10
213.2345352981963
 20
89.81550171638683
 30
0.0
 10
213.2091345671739
 20
89.82192855822888
 30
0.0
 10
213.147775935445
 20
89.85215355853325
 30
0.0
 10
213.1266756866891
 20
89.88684907965187
 30
0.0
 10
213.1266756866891
 20
89.92102564464636
 30
0.0
  0
SPLINE
  5
16E
330
1F
100
AcDbEntity
  8
0
  6
Continuous
 62
     7
370
    25
100
AcDbSpline
210
0.0
220
0.0
230
1.0
 70
    24
 71
     3
 72
    12
 73
     8
 74
     0
 42
0.000000001
 43
0.00000001
 40
0.0
 40
0.0
 40
0.0
 40
0.0
 40
0.25
 40
0.25
 40
0.5
 40
0.5
 40
1.0
 40
1.0
 40
1.0
 40
1.0
 10
213.1266756866891
 20
89.42102564464636
 30
0.0
 10
213.1266756866891
 20
89.42102564464636
 30
0.0
 10
213.1266756866891
 20
89.4407485900543
 30
0.0
 10
213.1266756866891
 20
89.50138505481556
 30
0.0
 10
213.1266756866891
 20
89.5426416005039
 30
0.0
 10
213.1266756866891
 20
89.68441491017599
 30
0.0
 10
213.1266756866891
 20
89.80298195533632
 30
0.0
 10
213.1266756866891
 20
89.92102564464636
 30
0.0
  0
LINE
  5
16F
330
1F
100
AcDbEntity
  8
0
  6
Continuous
 62
     8
370
    25
100
AcDbLine
 10
210.1266752546
 20
97.9210250337
 30
0.0
 11
238.1266761188
 21
97.9210250337
 31
0.0
  0
LINE
  5
170
330
1F
100
AcDbEntity
  8
0
  6
Continuous
 62
     8
370
    25
100
AcDbLine
 10
235.1266756271
 20
95.9210265685
 30
0.0
 11
213.1266757463
 21
95.9210265685
 31
0.0
  0
LINE
  5
171
330
1F
100
AcDbEntity
  8
0
  6
Continuous
 62
     8
370
    25
100
AcDbLine
 10
232.1110354354
 20
90.421025667
 30
0.0
 11
234.1701542576
 21
90.421025667
 31
0.0
  0
LINE
  5
172
330
1F
100
AcDbEntity
  8
0
  6
Continuous
 62
     8
370
    25
100
AcDbLine
 10
214.0831971158
 20
90.421025667
 30
0.0
 11
216.142315938
 21
90.421025667
 31
0.0
  0
LINE
  5
173
330
1F
100
AcDbEntity
  8
0
  6
Continuous
 62
     8
370
    25
100
AcDbLine
 10
234.6266755451
 20
88.1811548282
 30
0.0
 11
234.6266755451
 21
88.4210253392
 31
0.0
  0
LINE
  5
174
330
1F
100
AcDbEntity
  8
0
  6
Continuous
 62
     8
370
    25
100
AcDbLine
 10
234.6266755451
 20
68.9210258682
 30
0.0
 11
234.6266755451
 21
69.6608964611
 31
0.0
  0
LINE
  5
175
330
1F
100
AcDbEntity
  8
0
  6
Continuous
 62
     8
370
    25
100
AcDbLine
 10
213.6266758283
 20
69.6608964611
 30
0.0
 11
213.6266758283
 21
68.9210258682
 31
0.0
  0
LINE
  5
176
330
1F
100
AcDbEntity
  8
0
  6
Continuous
 62
     8
370
    25
100
AcDbLine
 10
213.6266758283
 20
88.4210253392
 30
0.0
 11
213.6266758283
 21
88.1811548282
 31
0.0
  0
LINE
  5
177
330
1F
100
AcDbEntity
  8
0
  6
Continuous
 62
     8
370
    25
100
AcDbLine
 10
233.3868048702
 20
89.4210255031
 30
0.0
 11
234.6266755451
 21
89.4210255031
 31
0.0
  0
LINE
  5
178
330
1F
100
AcDbEntity
  8
0
  6
Continuous
 62
     8
370
    25
100
AcDbLine
 10
213.6266758283
 20
89.4210255031
 30
0.0
 11
214.8665465032
 21
89.4210255031
 31
0.0
  0
INSERT
  5
184
330
1F
100
AcDbEntity
  8
0
  6
Continuous
 62
     7
370
    18
100
AcDbBlockReference
  2
SW_CENTERMARKSYMBOL_0
 10
224.1266756867
 20
78.9210256446
 30
0.0
  0
ARC
  5
185
330
1F
100
AcDbEntity
  8
0
  6
Continuous
 62
     7
370
    18
100
AcDbCircle
 10
224.1266756867
 20
78.9210256446
 30
0.0
 40
10.43039212103399
100
AcDbArc
 50
75.0
 51
345.0
  0
ARC
  5
186
330
1F
100
AcDbEntity
  8
0
  6
Continuous
 62
     7
370
    18
100
AcDbCircle
 10
224.1266756867
 20
78.9210256446
 30
0.0
 40
10.43039212103399
100
AcDbArc
 50
75.0
 51
345.0
  0
LINE
  5
187
330
1F
100
AcDbEntity
  8
0
  6
Continuous
 62
     7
370
    25
100
AcDbLine
 10
171.7304000658
 20
136.6209519717
 30
0.0
 11
172.7304020924
 21
137.6209521356
 31
0.0
  0
LINE
  5
188
330
1F
100
AcDbEntity
  8
0
  6
Continuous
 62
     7
370
    25
100
AcDbLine
 10
172.7304020924
 20
163.6209526721
 30
0.0
 11
171.7304000658
 21
164.620952836
 31
0.0
  0
ARC
  5
189
330
1F
100
AcDbEntity
  8
0
  6
Continuous
 62
     7
370
    25
100
AcDbCircle
 10
119.7304002446
 20
137.6209524038
 30
0.0
 40
1.0
100
AcDbArc
 50
270.0
 51
0.0
  0
ARC
  5
18A
330
1F
100
AcDbEntity
  8
0
  6
Continuous
 62
     7
370
    25
100
AcDbCircle
 10
119.7304002446
 20
163.6209524038
 30
0.0
 40
1.0
100
AcDbArc
 50
0.0
 51
90.0
  0
LINE
  5
18B
330
1F
100
AcDbEntity
  8
0
  6
Continuous
 62
     7
370
    25
100
AcDbLine
 10
105.7304004234
 20
136.6209519717
 30
0.0
 11
119.7304008556
 21
136.6209519717
 31
0.0
  0
LINE
  5
18C
330
1F
100
AcDbEntity
  8
0
  6
Continuous
 62
     7
370
    25
100
AcDbLine
 10
119.7304008556
 20
164.620952836
 30
0.0
 11
105.7304004234
 21
164.620952836
 31
0.0
  0
ARC
  5
18D
330
1F
100
AcDbEntity
  8
0
  6
Continuous
 62
     7
370
    25
100
AcDbCircle
 10
157.7304002446
 20
163.6209524038
 30
0.0
 40
1.0
100
AcDbArc
 50
90.0
 51
180.0
  0
ARC
  5
18E
330
1F
100
AcDbEntity
  8
0
  6
Continuous
 62
     7
370
    25
100
AcDbCircle
 10
157.7304002446
 20
137.6209524038
 30
0.0
 40
1.0
100
AcDbArc
 50
180.0
 51
270.0
  0
LINE
  5
18F
330
1F
100
AcDbEntity
  8
0
  6
Continuous
 62
     7
370
    25
100
AcDbLine
 10
171.7304000658
 20
164.620952836
 30
0.0
 11
157.7303996337
 21
164.620952836
 31
0.0
  0
LINE
  5
190
330
1F
100
AcDbEntity
  8
0
  6
Continuous
 62
     7
370
    25
100
AcDbLine
 10
157.7303996337
 20
136.6209519717
 30
0.0
 11
171.7304000658
 21
136.6209519717
 31
0.0
  0
LINE
  5
191
330
1F
100
AcDbEntity
  8
0
  6
Continuous
 62
     7
370
    25
100
AcDbLine
 10
105.7304004234
 20
164.620952836
 30
0.0
 11
104.7303983969
 21
163.6209526721
 31
0.0
  0
LINE
  5
192
330
1F
100
AcDbEntity
  8
0
  6
Continuous
 62
     7
370
    25
100
AcDbLine
 10
104.7303983969
 20
137.6209521356
 30
0.0
 11
105.7304004234
 21
136.6209519717
 31
0.0
  0
ARC
  5
193
330
1F
100
AcDbEntity
  8
0
  6
Continuous
 62
     7
370
    25
100
AcDbCircle
 10
155.7304002446
 20
162.6209524038
 30
0.0
 40
1.0
100
AcDbArc
 50
270.0
 51
0.0
  0
ARC
  5
194
330
1F
100
AcDbEntity
  8
0
  6
Continuous
 62
     7
370
    25
100
AcDbCircle
 10
155.7304002446
 20
138.6209524038
 30
0.0
 40
1.0
100
AcDbArc
 50
0.0
 51
90.0
  0
ARC
  5
195
330
1F
100
AcDbEntity
  8
0
  6
Continuous
 62
     7
370
    25
100
AcDbCircle
 10
121.7304002446
 20
138.6209524038
 30
0.0
 40
1.000000000000014
100
AcDbArc
 50
90.0
 51
180.0
  0
ARC
  5
196
330
1F
100
AcDbEntity
  8
0
  6
Continuous
 62
     7
370
    25
100
AcDbCircle
 10
121.7304002446
 20
162.6209524038
 30
0.0
 40
1.000000000000014
100
AcDbArc
 50
180.0
 51
270.0
  0
LINE
  5
197
330
1F
100
AcDbEntity
  8
0
  6
Continuous
 62
     7
370
    25
100
AcDbLine
 10
127.7304003042
 20
161.6209523442
 30
0.0
 11
121.7303993208
 21
161.6209523442
 31
0.0
  0
LINE
  5
198
330
1F
100
AcDbEntity
  8
0
  6
Continuous
 62
     7
370
    25
100
AcDbLine
 10
155.7304011685
 20
161.6209523442
 30
0.0
 11
151.7304005128
 21
161.6209523442
 31
0.0
  0
LINE
  5
199
330
1F
100
AcDbEntity
  8
0
  6
Continuous
 62
     7
370
    25
100
AcDbLine
 10
149.730400185
 20
139.6209524634
 30
0.0
 11
155.7304011685
 21
139.6209524634
 31
0.0
  0
LINE
  5
19A
330
1F
100
AcDbEntity
  8
0
  6
Continuous
 62
     7
370
    25
100
AcDbLine
 10
121.7303993208
 20
139.6209524634
 30
0.0
 11
127.7304003042
 21
139.6209524634
 31
0.0
  0
ARC
  5
19B
330
1F
100
AcDbEntity
  8
0
  6
Continuous
 62
     7
370
    25
100
AcDbCircle
 10
151.2721426751
 20
161.4209524038
 30
0.0
 40
0.5000000000000107
100
AcDbArc
 50
23.5781784782
 51
90.0
  0
ARC
  5
19C
330
1F
100
AcDbEntity
  8
0
  6
Continuous
 62
     7
370
    25
100
AcDbCircle
 10
150.1886578141
 20
161.4209524038
 30
0.0
 40
0.5
100
AcDbArc
 50
90.0
 51
156.4218215218
  0
CIRCLE
  5
19D
330
1F
100
AcDbEntity
  8
0
  6
Continuous
 62
     7
370
    25
100
AcDbCircle
 10
138.7304002446
 20
150.6209524038
 30
0.0
 40
14.00000000000001
  0
CIRCLE
  5
19E
330
1F
100
AcDbEntity
  8
0
  6
Continuous
 62
     7
370
    25
100
AcDbCircle
 10
138.7304002446
 20
150.6209524038
 30
0.0
 40
12.99999999999999
  0
CIRCLE
  5
19F
330
1F
100
AcDbEntity
  8
0
  6
Continuous
 62
     7
370
    25
100
AcDbCircle
 10
138.7304002446
 20
150.6209524038
 30
0.0
 40
8.5
  0
CIRCLE
  5
1A0
330
1F
100
AcDbEntity
  8
0
  6
Continuous
 62
     7
370
    25
100
AcDbCircle
 10
138.7304002446
 20
150.6209524038
 30
0.0
 40
7.872175816270413
  0
CIRCLE
  5
1A1
330
1F
100
AcDbEntity
  8
0
  6
Continuous
 62
     7
370
    25
100
AcDbCircle
 10
138.7304002446
 20
150.6209524038
 30
0.0
 40
7.547130357748898
  0
CIRCLE
  5
1A2
330
1F
100
AcDbEntity
  8
0
  6
Continuous
 62
     7
370
    25
100
AcDbCircle
 10
138.7304002446
 20
150.6209524038
 30
0.0
 40
7.474999999999994
  0
CIRCLE
  5
1A3
330
1F
100
AcDbEntity
  8
0
  6
Continuous
 62
     7
370
    25
100
AcDbCircle
 10
138.7304002446
 20
150.6209524038
 30
0.0
 40
5.0
  0
LINE
  5
1A4
330
1F
100
AcDbEntity
  8
0
  6
Continuous
 62
     7
370
    25
100
AcDbLine
 10
172.7304020924
 20
163.6209526721
 30
0.0
 11
172.7304020924
 21
137.6209521356
 31
0.0
  0
LINE
  5
1A5
330
1F
100
AcDbEntity
  8
0
  6
Continuous
 62
     7
370
    25
100
AcDbLine
 10
171.7304000658
 20
136.6209519717
 30
0.0
 11
171.7304000658
 21
164.620952836
 31
0.0
  0
LINE
  5
1A6
330
1F
100
AcDbEntity
  8
0
  6
Continuous
 62
     7
370
    25
100
AcDbLine
 10
120.7304010195
 20
137.6209521356
 30
0.0
 11
120.7304010195
 21
163.6209526721
 31
0.0
  0
LINE
  5
1A7
330
1F
100
AcDbEntity
  8
0
  6
Continuous
 62
     7
370
    25
100
AcDbLine
 10
105.7304004234
 20
164.620952836
 30
0.0
 11
105.7304004234
 21
136.6209519717
 31
0.0
  0
LINE
  5
1A8
330
1F
100
AcDbEntity
  8
0
  6
Continuous
 62
     7
370
    25
100
AcDbLine
 10
156.7303994698
 20
163.6209526721
 30
0.0
 11
156.7303994698
 21
137.6209521356
 31
0.0
  0
LINE
  5
1A9
330
1F
100
AcDbEntity
  8
0
  6
Continuous
 62
     7
370
    25
100
AcDbLine
 10
104.7303983969
 20
137.6209521356
 30
0.0
 11
104.7303983969
 21
163.6209526721
 31
0.0
  0
SPLINE
  5
1AA
330
1F
100
AcDbEntity
  8
0
  6
Continuous
 62
     7
370
    25
100
AcDbSpline
210
0.0
220
0.0
230
1.0
 70
     8
 71
     3
 72
    12
 73
     8
 74
     0
 42
0.000000001
 43
0.00000001
 40
0.0
 40
0.0
 40
0.0
 40
0.0
 40
0.2500000000000001
 40
0.2500000000000001
 40
0.5000000000000002
 40
0.5000000000000002
 40
1.0
 40
1.0
 40
1.0
 40
1.0
 10
127.3778859086677
 20
161.1644082532063
 30
0.0
 10
127.4259278793039
 20
161.239356530754
 30
0.0
 10
127.4626215219511
 20
161.3055399858642
 30
0.0
 10
127.5286122033822
 20
161.4195214912993
 30
0.0
 10
127.5573856915617
 20
161.4674029282787
 30
0.0
 10
127.6378613985797
 20
161.5823263941927
 30
0.0
 10
127.6839911017803
 20
161.6209524038352
 30
0.0
 10
127.7304002446235
 20
161.6209524038352
 30
0.0
  0
SPLINE
  5
1AB
330
1F
100
AcDbEntity
  8
0
  6
Continuous
 62
     7
370
    25
100
AcDbSpline
210
0.0
220
0.0
230
1.0
 70
     8
 71
     3
 72
     8
 73
     4
 74
     0
 42
0.000000001
 43
0.00000001
 40
0.0
 40
0.0
 40
0.0
 40
0.0
 40
1.0
 40
1.0
 40
1.0
 40
1.0
 10
127.2304002446235
 20
160.6644306647047
 30
0.0
 10
127.2304002446235
 20
160.8626709965194
 30
0.0
 10
127.2906947291091
 20
161.028384925297
 30
0.0
 10
127.3778859086677
 20
161.1644082532063
 30
0.0
  0
SPLINE
  5
1AC
330
1F
100
AcDbEntity
  8
0
  6
Continuous
 62
     7
370
    25
100
AcDbSpline
210
0.0
220
0.0
230
1.0
 70
     8
 71
     3
 72
     8
 73
     4
 74
     0
 42
0.000000001
 43
0.00000001
 40
0.0
 40
0.0
 40
0.0
 40
0.0
 40
1.0
 40
1.0
 40
1.0
 40
1.0
 10
127.3778859086676
 20
140.0774965544641
 30
0.0
 10
127.2906947291091
 20
140.2135198823734
 30
0.0
 10
127.2304002446235
 20
140.3792338111509
 30
0.0
 10
127.2304002446235
 20
140.5774741429656
 30
0.0
  0
SPLINE
  5
1AD
330
1F
100
AcDbEntity
  8
0
  6
Continuous
 62
     7
370
    25
100
AcDbSpline
210
0.0
220
0.0
230
1.0
 70
     8
 71
     3
 72
    12
 73
     8
 74
     0
 42
0.000000001
 43
0.00000001
 40
0.0
 40
0.0
 40
0.0
 40
0.0
 40
0.2499999999999999
 40
0.2499999999999999
 40
0.4999999999999998
 40
0.4999999999999998
 40
1.0
 40
1.0
 40
1.0
 40
1.0
 10
127.3778859086676
 20
140.0774965544641
 30
0.0
 10
127.4259111263104
 20
140.0025744125639
 30
0.0
 10
127.4625953965852
 20
139.93641095718
 30
0.0
 10
127.5285692895146
 20
139.8224564291298
 30
0.0
 10
127.5573209220829
 20
139.7746006236691
 30
0.0
 10
127.6378758228729
 20
139.6595453280487
 30
0.0
 10
127.6840072994918
 20
139.6209524038352
 30
0.0
 10
127.7304002446235
 20
139.6209524038352
 30
0.0
  0
SPLINE
  5
1AE
330
1F
100
AcDbEntity
  8
0
  6
Continuous
 62
     7
370
    25
100
AcDbSpline
210
0.0
220
0.0
230
1.0
 70
     8
 71
     3
 72
    12
 73
     8
 74
     0
 42
0.000000001
 43
0.00000001
 40
0.0
 40
0.0
 40
0.0
 40
0.0
 40
0.2499999999999999
 40
0.2499999999999999
 40
0.4999999999999998
 40
0.4999999999999998
 40
1.0
 40
1.0
 40
1.0
 40
1.0
 10
150.0829145805795
 20
140.0774965544641
 30
0.0
 10
150.0348726099496
 20
140.0025482769263
 30
0.0
 10
149.9981789673059
 20
139.9363648218236
 30
0.0
 10
149.9321882858812
 20
139.8223833163988
 30
0.0
 10
149.9034147977043
 20
139.774501879422
 30
0.0
 10
149.8229390906936
 20
139.659578413508
 30
0.0
 10
149.7768093874488
 20
139.6209524038352
 30
0.0
 10
149.7304002446236
 20
139.6209524038352
 30
0.0
  0
SPLINE
  5
1AF
330
1F
100
AcDbEntity
  8
0
  6
Continuous
 62
     7
370
    25
100
AcDbSpline
210
0.0
220
0.0
230
1.0
 70
     8
 71
     3
 72
     8
 73
     4
 74
     0
 42
0.000000001
 43
0.00000001
 40
0.0
 40
0.0
 40
0.0
 40
0.0
 40
1.0
 40
1.0
 40
1.0
 40
1.0
 10
150.2304002446236
 20
140.5774741429656
 30
0.0
 10
150.2304002446236
 20
140.3792338111509
 30
0.0
 10
150.1701057601379
 20
140.2135198823734
 30
0.0
 10
150.0829145805794
 20
140.0774965544641
 30
0.0
  0
SPLINE
  5
1B0
330
1F
100
AcDbEntity
  8
0
  6
Continuous
 62
     7
370
    25
100
AcDbSpline
210
0.0
220
0.0
230
1.0
 70
     8
 71
     3
 72
     8
 73
     4
 74
     0
 42
0.000000001
 43
0.00000001
 40
0.0
 40
0.0
 40
0.0
 40
0.0
 40
1.0
 40
1.0
 40
1.0
 40
1.0
 10
150.0829145805795
 20
161.1644082532062
 30
0.0
 10
150.1701057601379
 20
161.028384925297
 30
0.0
 10
150.2304002446236
 20
160.8626709965194
 30
0.0
 10
150.2304002446236
 20
160.6644306647047
 30
0.0
  0
SPLINE
  5
1B1
330
1F
100
AcDbEntity
  8
0
  6
Continuous
 62
     7
370
    25
100
AcDbSpline
210
0.0
220
0.0
230
1.0
 70
     8
 71
     3
 72
    12
 73
     8
 74
     0
 42
0.000000001
 43
0.00000001
 40
0.0
 40
0.0
 40
0.0
 40
0.0
 40
0.2500000000000001
 40
0.2500000000000001
 40
0.5000000000000001
 40
0.5000000000000001
 40
1.0
 40
1.0
 40
1.0
 40
1.0
 10
150.0829145805795
 20
161.1644082532062
 30
0.0
 10
150.0348726099496
 20
161.239356530744
 30
0.0
 10
149.9981789673059
 20
161.3055399858468
 30
0.0
 10
149.9321882858812
 20
161.4195214912715
 30
0.0
 10
149.9034147977043
 20
161.4674029282483
 30
0.0
 10
149.8229390906936
 20
161.5823263941624
 30
0.0
 10
149.776809387449
 20
161.6209524038352
 30
0.0
 10
149.7304002446236
 20
161.6209524038352
 30
0.0
  0
ARC
  5
1B2
330
1F
100
AcDbEntity
  8
0
  6
Continuous
 62
     7
370
    25
100
AcDbCircle
 10
147.7304002446
 20
161.1209524038
 30
0.0
 40
0.5
100
AcDbArc
 50
0.0
 51
90.0
  0
LINE
  5
1B3
330
1F
100
AcDbEntity
  8
0
  6
Continuous
 62
     7
370
    25
100
AcDbLine
 10
147.3906543133
 20
161.6209523442
 30
0.0
 11
147.7303998572
 21
161.6209523442
 31
0.0
  0
ARC
  5
1B4
330
1F
100
AcDbEntity
  8
0
  6
Continuous
 62
     7
370
    25
100
AcDbCircle
 10
129.7304002446
 20
161.1209524038
 30
0.0
 40
0.5
100
AcDbArc
 50
90.0
 51
180.0
  0
LINE
  5
1B5
330
1F
100
AcDbEntity
  8
0
  6
Continuous
 62
     7
370
    25
100
AcDbLine
 10
129.7304006321
 20
161.6209523442
 30
0.0
 11
130.070146176
 21
161.6209523442
 31
0.0
  0
LINE
  5
1B6
330
1F
100
AcDbEntity
  8
0
  6
Continuous
 62
     7
370
    25
100
AcDbLine
 10
148.2303999391
 20
160.9044346648
 30
0.0
 11
148.2303999391
 21
161.1209522623
 31
0.0
  0
LINE
  5
1B7
330
1F
100
AcDbEntity
  8
0
  6
Continuous
 62
     7
370
    25
100
AcDbLine
 10
129.2304005501
 20
160.9044346648
 30
0.0
 11
129.2304005501
 21
161.1209522623
 31
0.0
  0
LINE
  5
1B8
330
1F
100
AcDbEntity
  8
0
  6
Continuous
 62
     7
370
    25
100
AcDbLine
 10
148.2303999391
 20
140.1209525454
 30
0.0
 11
148.2303999391
 21
140.3374701428
 31
0.0
  0
LINE
  5
1B9
330
1F
100
AcDbEntity
  8
0
  6
Continuous
 62
     7
370
    25
100
AcDbLine
 10
129.2304005501
 20
140.1209525454
 30
0.0
 11
129.2304005501
 21
140.3374701428
 31
0.0
  0
ARC
  5
1BA
330
1F
100
AcDbEntity
  8
0
  6
Continuous
 62
     7
370
    25
100
AcDbCircle
 10
147.7304002446
 20
140.1209524038
 30
0.0
 40
0.5
100
AcDbArc
 50
270.0
 51
0.0
  0
LINE
  5
1BB
330
1F
100
AcDbEntity
  8
0
  6
Continuous
 62
     7
370
    25
100
AcDbLine
 10
147.7303998572
 20
139.6209524634
 30
0.0
 11
147.3906543133
 21
139.6209524634
 31
0.0
  0
ARC
  5
1BC
330
1F
100
AcDbEntity
  8
0
  6
Continuous
 62
     7
370
    25
100
AcDbCircle
 10
129.7304002446
 20
140.1209524038
 30
0.0
 40
0.5
100
AcDbArc
 50
180.0
 51
270.0
  0
LINE
  5
1BD
330
1F
100
AcDbEntity
  8
0
  6
Continuous
 62
     7
370
    25
100
AcDbLine
 10
130.070146176
 20
139.6209524634
 30
0.0
 11
129.7304006321
 21
139.6209524634
 31
0.0
  0
LINE
  5
1BE
330
1F
100
AcDbEntity
  8
0
  6
Continuous
 62
     7
370
    25
100
AcDbLine
 10
129.2304005501
 20
161.1209522623
 30
0.0
 11
128.2304003862
 21
161.1209522623
 31
0.0
  0
LINE
  5
1BF
330
1F
100
AcDbEntity
  8
0
  6
Continuous
 62
     7
370
    25
100
AcDbLine
 10
128.2304003862
 20
161.6209523442
 30
0.0
 11
128.2304003862
 21
161.1209522623
 31
0.0
  0
LINE
  5
1C0
330
1F
100
AcDbEntity
  8
0
  6
Continuous
 62
     7
370
    25
100
AcDbLine
 10
128.2304003862
 20
161.6209523442
 30
0.0
 11
129.7304006321
 21
161.6209523442
 31
0.0
  0
LINE
  5
1C1
330
1F
100
AcDbEntity
  8
0
  6
Continuous
 62
     7
370
    25
100
AcDbLine
 10
149.2304001031
 20
161.6209523442
 30
0.0
 11
149.2304001031
 21
161.1209522623
 31
0.0
  0
LINE
  5
1C2
330
1F
100
AcDbEntity
  8
0
  6
Continuous
 62
     7
370
    25
100
AcDbLine
 10
149.2304001031
 20
161.1209522623
 30
0.0
 11
148.2303999391
 21
161.1209522623
 31
0.0
  0
LINE
  5
1C3
330
1F
100
AcDbEntity
  8
0
  6
Continuous
 62
     7
370
    25
100
AcDbLine
 10
147.7303998572
 20
161.6209523442
 30
0.0
 11
149.2304001031
 21
161.6209523442
 31
0.0
  0
LINE
  5
1C4
330
1F
100
AcDbEntity
  8
0
  6
Continuous
 62
     7
370
    25
100
AcDbLine
 10
128.2304003862
 20
140.1209525454
 30
0.0
 11
129.2304005501
 21
140.1209525454
 31
0.0
  0
LINE
  5
1C5
330
1F
100
AcDbEntity
  8
0
  6
Continuous
 62
     7
370
    25
100
AcDbLine
 10
148.2303999391
 20
140.1209525454
 30
0.0
 11
149.2304001031
 21
140.1209525454
 31
0.0
  0
LINE
  5
1C6
330
1F
100
AcDbEntity
  8
0
  6
Continuous
 62
     7
370
    25
100
AcDbLine
 10
128.2304003862
 20
139.6209524634
 30
0.0
 11
128.2304003862
 21
140.1209525454
 31
0.0
  0
LINE
  5
1C7
330
1F
100
AcDbEntity
  8
0
  6
Continuous
 62
     7
370
    25
100
AcDbLine
 10
129.7304006321
 20
139.6209524634
 30
0.0
 11
128.2304003862
 21
139.6209524634
 31
0.0
  0
LINE
  5
1C8
330
1F
100
AcDbEntity
  8
0
  6
Continuous
 62
     7
370
    25
100
AcDbLine
 10
149.2304001031
 20
139.6209524634
 30
0.0
 11
149.2304001031
 21
140.1209525454
 31
0.0
  0
LINE
  5
1C9
330
1F
100
AcDbEntity
  8
0
  6
Continuous
 62
     7
370
    25
100
AcDbLine
 10
149.2304001031
 20
139.6209524634
 30
0.0
 11
147.7303998572
 21
139.6209524634
 31
0.0
  0
ARC
  5
1CA
330
1F
100
AcDbEntity
  8
0
  6
Continuous
 62
     7
370
    25
100
AcDbCircle
 10
127.2511946075
 20
161.1437266738
 30
0.0
 40
0.4797465722737284
100
AcDbArc
 50
267.5157636109
 51
357.2790461907
  0
ARC
  5
1CB
330
1F
100
AcDbEntity
  8
0
  6
Continuous
 62
     7
370
    25
100
AcDbCircle
 10
150.2096058818
 20
161.1437266738
 30
0.0
 40
0.4797465722737284
100
AcDbArc
 50
182.7209538093
 51
272.4842363891
  0
ARC
  5
1CC
330
1F
100
AcDbEntity
  8
0
  6
Continuous
 62
     7
370
    25
100
AcDbCircle
 10
127.2511946075
 20
140.0981781339
 30
0.0
 40
0.4797465722737297
100
AcDbArc
 50
2.7209538093
 51
92.4842363891
  0
ARC
  5
1CD
330
1F
100
AcDbEntity
  8
0
  6
Continuous
 62
     7
370
    25
100
AcDbCircle
 10
150.2096058818
 20
140.0981781339
 30
0.0
 40
0.4797465722737297
100
AcDbArc
 50
87.5157636109
 51
177.2790461907
  0
LINE
  5
1CE
330
1F
100
AcDbEntity
  8
0
  6
Continuous
 62
     7
370
    25
100
AcDbLine
 10
128.2304003862
 20
161.1209522623
 30
0.0
 11
127.7304003042
 21
161.1209522623
 31
0.0
  0
ARC
  5
1CF
330
1F
100
AcDbEntity
  8
0
  6
Continuous
 62
     7
370
    25
100
AcDbCircle
 10
128.2304002446
 20
161.1209524038
 30
0.0
 40
0.5
100
AcDbArc
 50
90.0
 51
180.0
  0
LINE
  5
1D0
330
1F
100
AcDbEntity
  8
0
  6
Continuous
 62
     7
370
    25
100
AcDbLine
 10
127.7304003042
 20
159.2812064725
 30
0.0
 11
127.7304003042
 21
161.1209522623
 31
0.0
  0
LINE
  5
1D1
330
1F
100
AcDbEntity
  8
0
  6
Continuous
 62
     7
370
    25
100
AcDbLine
 10
149.730400185
 20
161.1209522623
 30
0.0
 11
149.2304001031
 21
161.1209522623
 31
0.0
  0
ARC
  5
1D2
330
1F
100
AcDbEntity
  8
0
  6
Continuous
 62
     7
370
    25
100
AcDbCircle
 10
149.2304002446
 20
161.1209524038
 30
0.0
 40
0.5
100
AcDbArc
 50
0.0
 51
90.0
  0
LINE
  5
1D3
330
1F
100
AcDbEntity
  8
0
  6
Continuous
 62
     7
370
    25
100
AcDbLine
 10
149.730400185
 20
159.2812064725
 30
0.0
 11
149.730400185
 21
161.1209522623
 31
0.0
  0
LINE
  5
1D4
330
1F
100
AcDbEntity
  8
0
  6
Continuous
 62
     7
370
    25
100
AcDbLine
 10
127.7304003042
 20
140.1209525454
 30
0.0
 11
128.2304003862
 21
140.1209525454
 31
0.0
  0
LINE
  5
1D5
330
1F
100
AcDbEntity
  8
0
  6
Continuous
 62
     7
370
    25
100
AcDbLine
 10
127.7304003042
 20
140.1209525454
 30
0.0
 11
127.7304003042
 21
141.9606983352
 31
0.0
  0
LINE
  5
1D6
330
1F
100
AcDbEntity
  8
0
  6
Continuous
 62
     7
370
    25
100
AcDbLine
 10
149.730400185
 20
140.1209525454
 30
0.0
 11
149.730400185
 21
141.9606983352
 31
0.0
  0
LINE
  5
1D7
330
1F
100
AcDbEntity
  8
0
  6
Continuous
 62
     7
370
    25
100
AcDbLine
 10
149.2304001031
 20
140.1209525454
 30
0.0
 11
149.730400185
 21
140.1209525454
 31
0.0
  0
ARC
  5
1D8
330
1F
100
AcDbEntity
  8
0
  6
Continuous
 62
     7
370
    25
100
AcDbCircle
 10
128.2304002446
 20
140.1209524038
 30
0.0
 40
0.5
100
AcDbArc
 50
180.0
 51
270.0
  0
ARC
  5
1D9
330
1F
100
AcDbEntity
  8
0
  6
Continuous
 62
     7
370
    25
100
AcDbCircle
 10
149.2304002446
 20
140.1209524038
 30
0.0
 40
0.5
100
AcDbArc
 50
270.0
 51
0.0
  0
ARC
  5
1DA
330
1F
100
AcDbEntity
  8
0
  6
Continuous
 62
     7
370
    25
100
AcDbCircle
 10
127.4078833699
 20
161.6316060013
 30
0.0
 40
0.468159306541287
100
AcDbArc
 50
266.3262887358
 51
327.8245327008
  0
ARC
  5
1DB
330
1F
100
AcDbEntity
  8
0
  6
Continuous
 62
     7
370
    25
100
AcDbCircle
 10
150.0529171194
 20
161.6316060013
 30
0.0
 40
0.46815930654128
100
AcDbArc
 50
212.1754672991
 51
273.6737112642
  0
ARC
  5
1DC
330
1F
100
AcDbEntity
  8
0
  6
Continuous
 62
     7
370
    25
100
AcDbCircle
 10
150.0529171194
 20
139.6102988063
 30
0.0
 40
0.4681593065412952
100
AcDbArc
 50
86.3262887358
 51
147.8245327008
  0
ARC
  5
1DD
330
1F
100
AcDbEntity
  8
0
  6
Continuous
 62
     7
370
    25
100
AcDbCircle
 10
127.4078833699
 20
139.6102988063
 30
0.0
 40
0.468159306541287
100
AcDbArc
 50
32.1754672992
 51
93.6737112642
  0
SPLINE
  5
1DE
330
1F
100
AcDbEntity
  8
0
  6
Continuous
 62
     7
370
    25
100
AcDbSpline
210
0.0
220
0.0
230
1.0
 70
     8
 71
     3
 72
    12
 73
     8
 74
     0
 42
0.000000001
 43
0.00000001
 40
0.0
 40
0.0
 40
0.0
 40
0.0
 40
0.25
 40
0.25
 40
0.5
 40
0.5
 40
1.0
 40
1.0
 40
1.0
 40
1.0
 10
127.8041430766456
 20
161.3823043250973
 30
0.0
 10
127.8268555783547
 20
161.4193477361787
 30
0.0
 10
127.8343680981839
 20
161.4535606374669
 30
0.0
 10
127.8359241728831
 20
161.5130927923279
 30
0.0
 10
127.829497331041
 20
161.5384935233503
 30
0.0
 10
127.7992723307367
 20
161.5998521550793
 30
0.0
 10
127.7645768096181
 20
161.6209524038352
 30
0.0
 10
127.7304002446235
 20
161.6209524038352
 30
0.0
  0
SPLINE
  5
1DF
330
1F
100
AcDbEntity
  8
0
  6
Continuous
 62
     7
370
    25
100
AcDbSpline
210
0.0
220
0.0
230
1.0
 70
    24
 71
     3
 72
    12
 73
     8
 74
     0
 42
0.000000001
 43
0.00000001
 40
0.0
 40
0.0
 40
0.0
 40
0.0
 40
0.2499999999999999
 40
0.2499999999999999
 40
0.4999999999999999
 40
0.4999999999999999
 40
1.0
 40
1.0
 40
1.0
 40
1.0
 10
128.2304002446235
 20
161.6209524038352
 30
0.0
 10
128.2304002446235
 20
161.6209524038352
 30
0.0
 10
128.2106772992156
 20
161.6209524038352
 30
0.0
 10
128.1500408344544
 20
161.6209524038352
 30
0.0
 10
128.108784288766
 20
161.6209524038352
 30
0.0
 10
127.9670109790939
 20
161.6209524038352
 30
0.0
 10
127.8484439339336
 20
161.6209524038352
 30
0.0
 10
127.7304002446235
 20
161.6209524038352
 30
0.0
  0
SPLINE
  5
1E0
330
1F
100
AcDbEntity
  8
0
  6
Continuous
 62
     7
370
    25
100
AcDbSpline
210
0.0
220
0.0
230
1.0
 70
     8
 71
     3
 72
    12
 73
     8
 74
     0
 42
0.000000001
 43
0.00000001
 40
0.0
 40
0.0
 40
0.0
 40
0.0
 40
0.25
 40
0.25
 40
0.5
 40
0.5
 40
1.0
 40
1.0
 40
1.0
 40
1.0
 10
149.6566574126015
 20
161.3823043250973
 30
0.0
 10
149.6339449108934
 20
161.419347736177
 30
0.0
 10
149.6264323910639
 20
161.4535606374638
 30
0.0
 10
149.6248763163634
 20
161.5130927923228
 30
0.0
 10
149.6313031582044
 20
161.5384935233447
 30
0.0
 10
149.6615281585053
 20
161.5998521550736
 30
0.0
 10
149.6962236796192
 20
161.6209524038352
 30
0.0
 10
149.7304002446236
 20
161.6209524038352
 30
0.0
  0
SPLINE
  5
1E1
330
1F
100
AcDbEntity
  8
0
  6
Continuous
 62
     7
370
    25
100
AcDbSpline
210
0.0
220
0.0
230
1.0
 70
    24
 71
     3
 72
    12
 73
     8
 74
     0
 42
0.000000001
 43
0.00000001
 40
0.0
 40
0.0
 40
0.0
 40
0.0
 40
0.2499999999999999
 40
0.2499999999999999
 40
0.4999999999999999
 40
0.4999999999999999
 40
1.0
 40
1.0
 40
1.0
 40
1.0
 10
149.2304002446236
 20
161.6209524038352
 30
0.0
 10
149.2304002446236
 20
161.6209524038352
 30
0.0
 10
149.2501231900315
 20
161.6209524038352
 30
0.0
 10
149.3107596547927
 20
161.6209524038352
 30
0.0
 10
149.3520162004811
 20
161.6209524038352
 30
0.0
 10
149.4937895101532
 20
161.6209524038352
 30
0.0
 10
149.6123565553135
 20
161.6209524038352
 30
0.0
 10
149.7304002446236
 20
161.6209524038352
 30
0.0
  0
SPLINE
  5
1E2
330
1F
100
AcDbEntity
  8
0
  6
Continuous
 62
     7
370
    25
100
AcDbSpline
210
0.0
220
0.0
230
1.0
 70
     8
 71
     3
 72
    12
 73
     8
 74
     0
 42
0.000000001
 43
0.00000001
 40
0.0
 40
0.0
 40
0.0
 40
0.0
 40
0.2499999999999999
 40
0.2499999999999999
 40
0.4999999999999998
 40
0.4999999999999998
 40
1.0
 40
1.0
 40
1.0
 40
1.0
 10
127.8041430766456
 20
139.859600482573
 30
0.0
 10
127.8268555783547
 20
139.8225570714917
 30
0.0
 10
127.8343680981839
 20
139.7883441702034
 30
0.0
 10
127.8359241728831
 20
139.7288120153424
 30
0.0
 10
127.829497331041
 20
139.70341128432
 30
0.0
 10
127.7992723307367
 20
139.642052652591
 30
0.0
 10
127.7645768096185
 20
139.6209524038352
 30
0.0
 10
127.7304002446235
 20
139.6209524038352
 30
0.0
  0
SPLINE
  5
1E3
330
1F
100
AcDbEntity
  8
0
  6
Continuous
 62
     7
370
    25
100
AcDbSpline
210
0.0
220
0.0
230
1.0
 70
    24
 71
     3
 72
    12
 73
     8
 74
     0
 42
0.000000001
 43
0.00000001
 40
0.0
 40
0.0
 40
0.0
 40
0.0
 40
0.2499999999999999
 40
0.2499999999999999
 40
0.4999999999999999
 40
0.4999999999999999
 40
1.0
 40
1.0
 40
1.0
 40
1.0
 10
128.2304002446235
 20
139.6209524038352
 30
0.0
 10
128.2304002446235
 20
139.6209524038352
 30
0.0
 10
128.2106772992156
 20
139.6209524038352
 30
0.0
 10
128.1500408344544
 20
139.6209524038352
 30
0.0
 10
128.108784288766
 20
139.6209524038352
 30
0.0
 10
127.9670109790939
 20
139.6209524038352
 30
0.0
 10
127.8484439339336
 20
139.6209524038352
 30
0.0
 10
127.7304002446235
 20
139.6209524038352
 30
0.0
  0
SPLINE
  5
1E4
330
1F
100
AcDbEntity
  8
0
  6
Continuous
 62
     7
370
    25
100
AcDbSpline
210
0.0
220
0.0
230
1.0
 70
     8
 71
     3
 72
    12
 73
     8
 74
     0
 42
0.000000001
 43
0.00000001
 40
0.0
 40
0.0
 40
0.0
 40
0.0
 40
0.2500000000000001
 40
0.2500000000000001
 40
0.5000000000000001
 40
0.5000000000000001
 40
1.0
 40
1.0
 40
1.0
 40
1.0
 10
149.6566574126015
 20
139.859600482573
 30
0.0
 10
149.6339449108935
 20
139.8225570714934
 30
0.0
 10
149.626432391064
 20
139.7883441702066
 30
0.0
 10
149.6248763163634
 20
139.7288120153476
 30
0.0
 10
149.6313031582044
 20
139.7034112843257
 30
0.0
 10
149.6615281585052
 20
139.6420526525968
 30
0.0
 10
149.6962236796189
 20
139.6209524038352
 30
0.0
 10
149.7304002446236
 20
139.6209524038352
 30
0.0
  0
SPLINE
  5
1E5
330
1F
100
AcDbEntity
  8
0
  6
Continuous
 62
     7
370
    25
100
AcDbSpline
210
0.0
220
0.0
230
1.0
 70
    24
 71
     3
 72
    12
 73
     8
 74
     0
 42
0.000000001
 43
0.00000001
 40
0.0
 40
0.0
 40
0.0
 40
0.0
 40
0.2499999999999999
 40
0.2499999999999999
 40
0.4999999999999999
 40
0.4999999999999999
 40
1.0
 40
1.0
 40
1.0
 40
1.0
 10
149.2304002446236
 20
139.6209524038352
 30
0.0
 10
149.2304002446236
 20
139.6209524038352
 30
0.0
 10
149.2501231900315
 20
139.6209524038352
 30
0.0
 10
149.3107596547927
 20
139.6209524038352
 30
0.0
 10
149.3520162004811
 20
139.6209524038352
 30
0.0
 10
149.4937895101532
 20
139.6209524038352
 30
0.0
 10
149.6123565553135
 20
139.6209524038352
 30
0.0
 10
149.7304002446236
 20
139.6209524038352
 30
0.0
  0
LINE
  5
1E6
330
1F
100
AcDbEntity
  8
0
  6
Continuous
 62
     7
370
    25
100
AcDbLine
 10
150.1886574579
 20
161.9209527659
 30
0.0
 11
151.2721423087
 21
161.9209527659
 31
0.0
  0
LINE
  5
1E7
330
1F
100
AcDbEntity
  8
0
  6
Continuous
 62
     7
370
    25
100
AcDbLine
 10
149.730400185
 20
161.6209523442
 30
0.0
 11
151.7304005128
 21
161.6209523442
 31
0.0
  0
LINE
  5
1E8
330
1F
100
AcDbEntity
  8
0
  6
Continuous
 62
     8
370
    25
100
AcDbLine
 10
119.7304008556
 20
136.6209519717
 30
0.0
 11
119.7304008556
 21
164.620952836
 31
0.0
  0
LINE
  5
1E9
330
1F
100
AcDbEntity
  8
0
  6
Continuous
 62
     8
370
    25
100
AcDbLine
 10
157.7303996337
 20
164.620952836
 30
0.0
 11
157.7303996337
 21
136.6209519717
 31
0.0
  0
LINE
  5
1EA
330
1F
100
AcDbEntity
  8
0
  6
Continuous
 62
     8
370
    25
100
AcDbLine
 10
155.7304011685
 20
139.6209524634
 30
0.0
 11
155.7304011685
 21
161.6209523442
 31
0.0
  0
LINE
  5
1EB
330
1F
100
AcDbEntity
  8
0
  6
Continuous
 62
     8
370
    25
100
AcDbLine
 10
121.7303993208
 20
161.6209523442
 30
0.0
 11
121.7303993208
 21
139.6209524634
 31
0.0
  0
LINE
  5
1EC
330
1F
100
AcDbEntity
  8
0
  6
Continuous
 62
     8
370
    25
100
AcDbLine
 10
127.2304002223
 20
158.6053121525
 30
0.0
 11
127.2304002223
 21
160.6644309747
 31
0.0
  0
LINE
  5
1ED
330
1F
100
AcDbEntity
  8
0
  6
Continuous
 62
     8
370
    25
100
AcDbLine
 10
127.2304002223
 20
140.577473833
 30
0.0
 11
127.2304002223
 21
142.6365926552
 31
0.0
  0
LINE
  5
1EE
330
1F
100
AcDbEntity
  8
0
  6
Continuous
 62
     8
370
    25
100
AcDbLine
 10
150.230400267
 20
142.6365926552
 30
0.0
 11
150.230400267
 21
140.577473833
 31
0.0
  0
LINE
  5
1EF
330
1F
100
AcDbEntity
  8
0
  6
Continuous
 62
     8
370
    25
100
AcDbLine
 10
150.230400267
 20
160.6644309747
 30
0.0
 11
150.230400267
 21
158.6053121525
 31
0.0
  0
LINE
  5
1F0
330
1F
100
AcDbEntity
  8
0
  6
Continuous
 62
     8
370
    25
100
AcDbLine
 10
148.2303999391
 20
161.1209522623
 30
0.0
 11
147.9905294282
 21
161.1209522623
 31
0.0
  0
LINE
  5
1F1
330
1F
100
AcDbEntity
  8
0
  6
Continuous
 62
     8
370
    25
100
AcDbLine
 10
129.4702710611
 20
161.1209522623
 30
0.0
 11
129.2304005501
 21
161.1209522623
 31
0.0
  0
LINE
  5
1F2
330
1F
100
AcDbEntity
  8
0
  6
Continuous
 62
     8
370
    25
100
AcDbLine
 10
147.9905294282
 20
140.1209525454
 30
0.0
 11
148.2303999391
 21
140.1209525454
 31
0.0
  0
LINE
  5
1F3
330
1F
100
AcDbEntity
  8
0
  6
Continuous
 62
     8
370
    25
100
AcDbLine
 10
129.2304005501
 20
140.1209525454
 30
0.0
 11
129.4702710611
 21
140.1209525454
 31
0.0
  0
LINE
  5
1F4
330
1F
100
AcDbEntity
  8
0
  6
Continuous
 62
     8
370
    25
100
AcDbLine
 10
128.2304003862
 20
159.8810815874
 30
0.0
 11
128.2304003862
 21
161.1209522623
 31
0.0
  0
LINE
  5
1F5
330
1F
100
AcDbEntity
  8
0
  6
Continuous
 62
     8
370
    25
100
AcDbLine
 10
149.2304001031
 20
159.8810815874
 30
0.0
 11
149.2304001031
 21
161.1209522623
 31
0.0
  0
LINE
  5
1F6
330
1F
100
AcDbEntity
  8
0
  6
Continuous
 62
     8
370
    25
100
AcDbLine
 10
128.2304003862
 20
140.1209525454
 30
0.0
 11
128.2304003862
 21
141.3608232203
 31
0.0
  0
LINE
  5
1F7
330
1F
100
AcDbEntity
  8
0
  6
Continuous
 62
     8
370
    25
100
AcDbLine
 10
149.2304001031
 20
140.1209525454
 30
0.0
 11
149.2304001031
 21
141.3608232203
 31
0.0
  0
INSERT
  5
203
330
1F
100
AcDbEntity
  8
0
  6
Continuous
 62
     7
370
    18
100
AcDbBlockReference
  2
SW_CENTERMARKSYMBOL_1
 10
138.7304002446
 20
150.6209524038
 30
0.0
  0
ARC
  5
204
330
1F
100
AcDbEntity
  8
0
  6
Continuous
 62
     7
370
    18
100
AcDbCircle
 10
138.7304002446
 20
150.6209524038
 30
0.0
 40
8.33391311411796
100
AcDbArc
 50
75.0
 51
345.0
  0
ENDSEC
  0
SECTION
  2
OBJECTS
  0
DICTIONARY
  5
C
330
0
100
AcDbDictionary
281
     1
  3
ACAD_GROUP
350
D
  3
ACAD_LAYOUT
350
1A
  3
ACAD_MLINESTYLE
350
17
  3
ACAD_PLOTSETTINGS
350
19
  3
ACAD_PLOTSTYLENAME
350
E
  3
ACAD_SCALELIST
350
47
  0
DICTIONARY
  5
D
102
{ACAD_REACTORS
330
C
102
}
330
C
100
AcDbDictionary
281
     1
  0
DICTIONARY
  5
1A
102
{ACAD_REACTORS
330
C
102
}
330
C
100
AcDbDictionary
281
     1
  3
Layout1
350
1E
  3
Layout2
350
26
  3
Model
350
22
  0
DICTIONARY
  5
17
102
{ACAD_REACTORS
330
C
102
}
330
C
100
AcDbDictionary
281
     1
  3
Standard
350
18
  0
DICTIONARY
  5
19
102
{ACAD_REACTORS
330
C
102
}
330
C
100
AcDbDictionary
281
     1
  0
ACDBDICTIONARYWDFLT
  5
E
102
{ACAD_REACTORS
330
C
102
}
330
C
100
AcDbDictionary
281
     1
  3
Normal
350
F
100
AcDbDictionaryWithDefault
340
F
  0
DICTIONARY
  5
47
102
{ACAD_REACTORS
330
C
102
}
330
C
100
AcDbDictionary
281
     1
  3
A0
350
48
  3
A1
350
49
  3
A2
350
4A
  3
A3
350
4B
  3
A4
350
4C
  3
A5
350
4D
  3
A6
350
4E
  3
A7
350
4F
  3
A8
350
50
  3
A9
350
51
  3
B0
350
52
  3
B1
350
53
  3
B2
350
54
  3
B3
350
55
  3
B4
350
56
  3
B5
350
57
  3
B6
350
58
  3
B7
350
59
  3
B8
350
5A
  3
B9
350
5B
  3
C0
350
5C
  3
C1
350
5D
  3
C2
350
5E
  3
C3
350
5F
  3
C4
350
60
  3
C5
350
61
  3
C6
350
62
  3
C7
350
63
  3
C8
350
64
  3
C9
350
65
  3
D0
350
66
  3
D1
350
67
  3
D2
350
68
  0
LAYOUT
  5
1E
102
{ACAD_REACTORS
330
1A
102
}
330
1A
100
AcDbPlotSettings
  1

  2
none_device
  4

  6

 40
0.0
 41
0.0
 42
0.0
 43
0.0
 44
0.0
 45
0.0
 46
0.0
 47
0.0
 48
0.0
 49
0.0
140
0.0
141
0.0
142
1.0
143
1.0
 70
   688
 72
     1
 73
     0
 74
     5
  7

 75
    16
147
1.0
148
0.0
149
0.0
100
AcDbLayout
  1
Layout1
 70
     1
 71
     1
 10
0.0
 20
0.0
 11
420.0
 21
297.0
 12
0.0
 22
0.0
 32
0.0
 14
1.0000000000E+20
 24
1.0000000000E+20
 34
1.0000000000E+20
 15
-1.0000000000E+20
 25
-1.0000000000E+20
 35
-1.0000000000E+20
146
0.0
 13
0.0
 23
0.0
 33
0.0
 16
1.0
 26
0.0
 36
0.0
 17
0.0
 27
1.0
 37
0.0
 76
     0
330
1B
  0
LAYOUT
  5
26
102
{ACAD_REACTORS
330
1A
102
}
330
1A
100
AcDbPlotSettings
  1

  2
none_device
  4

  6

 40
0.0
 41
0.0
 42
0.0
 43
0.0
 44
0.0
 45
0.0
 46
0.0
 47
0.0
 48
0.0
 49
0.0
140
0.0
141
0.0
142
1.0
143
1.0
 70
   688
 72
     1
 73
     0
 74
     5
  7

 75
    16
147
1.0
148
0.0
149
0.0
100
AcDbLayout
  1
Layout2
 70
     1
 71
     2
 10
0.0
 20
0.0
 11
0.0
 21
0.0
 12
0.0
 22
0.0
 32
0.0
 14
0.0
 24
0.0
 34
0.0
 15
0.0
 25
0.0
 35
0.0
146
0.0
 13
0.0
 23
0.0
 33
0.0
 16
1.0
 26
0.0
 36
0.0
 17
0.0
 27
1.0
 37
0.0
 76
     0
330
23
  0
LAYOUT
  5
22
102
{ACAD_REACTORS
330
1A
102
}
330
1A
100
AcDbPlotSettings
  1

  2
none_device
  4
Letter_(8.50_x_11.00_Inches)
  6

 40
6.35
 41
6.35
 42
6.35000508
 43
6.35000508
 44
215.9
 45
279.4
 46
0.0
 47
0.0
 48
0.0
 49
0.0
140
0.0
141
0.0
142
1.0
143
1.0
 70
  1712
 72
     1
 73
     0
 74
     0
  7

 75
     0
147
1.0
148
0.0
149
0.0
100
AcDbLayout
  1
Model
 70
     1
 71
     0
 10
0.0
 20
0.0
 11
431.8
 21
279.4
 12
0.0
 22
0.0
 32
0.0
 14
0.0
 24
0.0
 34
0.0
 15
431.8
 25
279.4
 35
0.0
146
0.0
 13
0.0
 23
0.0
 33
0.0
 16
1.0
 26
0.0
 36
0.0
 17
0.0
 27
1.0
 37
0.0
 76
     0
330
1F
331
29
  0
MLINESTYLE
  5
18
102
{ACAD_REACTORS
330
17
102
}
330
17
100
AcDbMlineStyle
  2
Standard
 70
     0
  3

 62
   256
 51
90.0
 52
90.0
 71
     2
 49
0.5
 62
   256
  6
BYLAYER
 49
-0.5
 62
   256
  6
BYLAYER
  0
ACDBPLACEHOLDER
  5
F
102
{ACAD_REACTORS
330
E
102
}
330
E
  0
SCALE
  5
48
102
{ACAD_REACTORS
330
47
102
}
330
47
100
AcDbScale
 70
     0
300
1:1
140
1.0
141
1.0
290
     1
  0
SCALE
  5
49
102
{ACAD_REACTORS
330
47
102
}
330
47
100
AcDbScale
 70
     0
300
1:2
140
1.0
141
2.0
290
     0
  0
SCALE
  5
4A
102
{ACAD_REACTORS
330
47
102
}
330
47
100
AcDbScale
 70
     0
300
1:4
140
1.0
141
4.0
290
     0
  0
SCALE
  5
4B
102
{ACAD_REACTORS
330
47
102
}
330
47
100
AcDbScale
 70
     0
300
1:5
140
1.0
141
5.0
290
     0
  0
SCALE
  5
4C
102
{ACAD_REACTORS
330
47
102
}
330
47
100
AcDbScale
 70
     0
300
1:8
140
1.0
141
8.0
290
     0
  0
SCALE
  5
4D
102
{ACAD_REACTORS
330
47
102
}
330
47
100
AcDbScale
 70
     0
300
1:10
140
1.0
141
10.0
290
     0
  0
SCALE
  5
4E
102
{ACAD_REACTORS
330
47
102
}
330
47
100
AcDbScale
 70
     0
300
1:16
140
1.0
141
16.0
290
     0
  0
SCALE
  5
4F
102
{ACAD_REACTORS
330
47
102
}
330
47
100
AcDbScale
 70
     0
300
1:20
140
1.0
141
20.0
290
     0
  0
SCALE
  5
50
102
{ACAD_REACTORS
330
47
102
}
330
47
100
AcDbScale
 70
     0
300
1:30
140
1.0
141
30.0
290
     0
  0
SCALE
  5
51
102
{ACAD_REACTORS
330
47
102
}
330
47
100
AcDbScale
 70
     0
300
1:40
140
1.0
141
40.0
290
     0
  0
SCALE
  5
52
102
{ACAD_REACTORS
330
47
102
}
330
47
100
AcDbScale
 70
     0
300
1:50
140
1.0
141
50.0
290
     0
  0
SCALE
  5
53
102
{ACAD_REACTORS
330
47
102
}
330
47
100
AcDbScale
 70
     0
300
1:100
140
1.0
141
100.0
290
     0
  0
SCALE
  5
54
102
{ACAD_REACTORS
330
47
102
}
330
47
100
AcDbScale
 70
     0
300
2:1
140
2.0
141
1.0
290
     0
  0
SCALE
  5
55
102
{ACAD_REACTORS
330
47
102
}
330
47
100
AcDbScale
 70
     0
300
4:1
140
4.0
141
1.0
290
     0
  0
SCALE
  5
56
102
{ACAD_REACTORS
330
47
102
}
330
47
100
AcDbScale
 70
     0
300
8:1
140
8.0
141
1.0
290
     0
  0
SCALE
  5
57
102
{ACAD_REACTORS
330
47
102
}
330
47
100
AcDbScale
 70
     0
300
10:1
140
10.0
141
1.0
290
     0
  0
SCALE
  5
58
102
{ACAD_REACTORS
330
47
102
}
330
47
100
AcDbScale
 70
     0
300
100:1
140
100.0
141
1.0
290
     0
  0
SCALE
  5
59
102
{ACAD_REACTORS
330
47
102
}
330
47
100
AcDbScale
 70
     0
300
1/128" = 1'-0"
140
0.0078125
141
12.0
290
     0
  0
SCALE
  5
5A
102
{ACAD_REACTORS
330
47
102
}
330
47
100
AcDbScale
 70
     0
300
1/64" = 1'-0"
140
0.015625
141
12.0
290
     0
  0
SCALE
  5
5B
102
{ACAD_REACTORS
330
47
102
}
330
47
100
AcDbScale
 70
     0
300
1/32" = 1'-0"
140
0.03125
141
12.0
290
     0
  0
SCALE
  5
5C
102
{ACAD_REACTORS
330
47
102
}
330
47
100
AcDbScale
 70
     0
300
1/16" = 1'-0"
140
0.0625
141
12.0
290
     0
  0
SCALE
  5
5D
102
{ACAD_REACTORS
330
47
102
}
330
47
100
AcDbScale
 70
     0
300
3/32" = 1'-0"
140
0.09375
141
12.0
290
     0
  0
SCALE
  5
5E
102
{ACAD_REACTORS
330
47
102
}
330
47
100
AcDbScale
 70
     0
300
1/8" = 1'-0"
140
0.125
141
12.0
290
     0
  0
SCALE
  5
5F
102
{ACAD_REACTORS
330
47
102
}
330
47
100
AcDbScale
 70
     0
300
3/16" = 1'-0"
140
0.1875
141
12.0
290
     0
  0
SCALE
  5
60
102
{ACAD_REACTORS
330
47
102
}
330
47
100
AcDbScale
 70
     0
300
1/4" = 1'-0"
140
0.25
141
12.0
290
     0
  0
SCALE
  5
61
102
{ACAD_REACTORS
330
47
102
}
330
47
100
AcDbScale
 70
     0
300
3/8" = 1'-0"
140
0.375
141
12.0
290
     0
  0
SCALE
  5
62
102
{ACAD_REACTORS
330
47
102
}
330
47
100
AcDbScale
 70
     0
300
1/2" = 1'-0"
140
0.5
141
12.0
290
     0
  0
SCALE
  5
63
102
{ACAD_REACTORS
330
47
102
}
330
47
100
AcDbScale
 70
     0
300
3/4" = 1'-0"
140
0.75
141
12.0
290
     0
  0
SCALE
  5
64
102
{ACAD_REACTORS
330
47
102
}
330
47
100
AcDbScale
 70
     0
300
1" = 1'-0"
140
1.0
141
12.0
290
     0
  0
SCALE
  5
65
102
{ACAD_REACTORS
330
47
102
}
330
47
100
AcDbScale
 70
     0
300
1-1/2" = 1'-0"
140
1.5
141
12.0
290
     0
  0
SCALE
  5
66
102
{ACAD_REACTORS
330
47
102
}
330
47
100
AcDbScale
 70
     0
300
3" = 1'-0"
140
3.0
141
12.0
290
     0
  0
SCALE
  5
67
102
{ACAD_REACTORS
330
47
102
}
330
47
100
AcDbScale
 70
     0
300
6" = 1'-0"
140
6.0
141
12.0
290
     0
  0
SCALE
  5
68
102
{ACAD_REACTORS
330
47
102
}
330
47
100
AcDbScale
 70
     0
300
1'-0" = 1'-0"
140
12.0
141
12.0
290
     0
  0
ENDSEC
  0
EOF
