  0
SECTION
  2
HEADER
  9
$ACADVER
  1
AC1015
  9
$ACADMAINTVER
 70
     6
  9
$DWGCODEPAGE
  3
DOS932
  9
$INSBASE
 10
0.0
 20
0.0
 30
0.0
  9
$EXTMIN
 10
0.0
 20
0.0
 30
0.0
  9
$EXTMAX
 10
431.8
 20
279.4
 30
0.0
  9
$LIMMIN
 10
0.0
 20
0.0
  9
$LIMMAX
 10
431.8
 20
279.4
  9
$ORTHOMODE
 70
     0
  9
$REGENMODE
 70
     1
  9
$FILLMODE
 70
     1
  9
$QTEXTMODE
 70
     0
  9
$MIRRTEXT
 70
     1
  9
$LTSCALE
 40
1.0
  9
$ATTMODE
 70
     1
  9
$TEXTSIZE
 40
3.5
  9
$TRACEWID
 40
1.0
  9
$TEXTSTYLE
  7
Standard
  9
$CLAYER
  8
0
  9
$CELTYPE
  6
ByLayer
  9
$CECOLOR
 62
   256
  9
$CELTSCALE
 40
1.0
  9
$DISPSILH
 70
     0
  9
$DIMSCALE
 40
1.0
  9
$DIMASZ
 40
3.302
  9
$DIMEXO
 40
1.0
  9
$DIMDLI
 40
3.75
  9
$DIMRND
 40
0.0
  9
$DIMDLE
 40
0.0
  9
$DIMEXE
 40
1.0
  9
$DIMTP
 40
0.0
  9
$DIMTM
 40
0.0
  9
$DIMTXT
 40
3.5
  9
$DIMCEN
 40
2.5
  9
$DIMTSZ
 40
0.0
  9
$DIMTOL
 70
     0
  9
$DIMLIM
 70
     0
  9
$DIMTIH
 70
     1
  9
$DIMTOH
 70
     1
  9
$DIMSE1
 70
     0
  9
$DIMSE2
 70
     0
  9
$DIMTAD
 70
     1
  9
$DIMZIN
 70
     1
  9
$DIMBLK
  1

  9
$DIMASO
 70
     1
  9
$DIMSHO
 70
     1
  9
$DIMPOST
  1

  9
$DIMAPOST
  1

  9
$DIMALT
 70
     0
  9
$DIMALTD
 70
     3
  9
$DIMALTF
 40
0.0393700787
  9
$DIMLFAC
 40
1.0
  9
$DIMTOFL
 70
     1
  9
$DIMTVP
 40
0.0
  9
$DIMTIX
 70
     0
  9
$DIMSOXD
 70
     0
  9
$DIMSAH
 70
     0
  9
$DIMBLK1
  1

  9
$DIMBLK2
  1

  9
$DIMSTYLE
  2
ISO-25
  9
$DIMCLRD
 70
     0
  9
$DIMCLRE
 70
     0
  9
$DIMCLRT
 70
     0
  9
$DIMTFAC
 40
1.0
  9
$DIMGAP
 40
1.524
  9
$DIMJUST
 70
     0
  9
$DIMSD1
 70
     0
  9
$DIMSD2
 70
     0
  9
$DIMTOLJ
 70
     0
  9
$DIMTZIN
 70
     1
  9
$DIMALTZ
 70
     0
  9
$DIMALTTZ
 70
     0
  9
$DIMUPT
 70
     0
  9
$DIMDEC
 70
     2
  9
$DIMTDEC
 70
     2
  9
$DIMALTU
 70
     2
  9
$DIMALTTD
 70
     3
  9
$DIMTXSTY
  7
Standard
  9
$DIMAUNIT
 70
     0
  9
$DIMADEC
 70
     2
  9
$DIMALTRND
 40
0.0
  9
$DIMAZIN
 70
     0
  9
$DIMDSEP
 70
    44
  9
$DIMATFIT
 70
     3
  9
$DIMFRAC
 70
     0
  9
$DIMLDRBLK
  1

  9
$DIMLUNIT
 70
     2
  9
$DIMLWD
 70
    -2
  9
$DIMLWE
 70
    -2
  9
$DIMTMOVE
 70
     0
  9
$LUNITS
 70
     2
  9
$LUPREC
 70
     2
  9
$SKETCHINC
 40
1.0
  9
$FILLETRAD
 40
10.0
  9
$AUNITS
 70
     0
  9
$AUPREC
 70
     2
  9
$MENU
  1
.
  9
$ELEVATION
 40
0.0
  9
$PELEVATION
 40
0.0
  9
$THICKNESS
 40
0.0
  9
$LIMCHECK
 70
     0
  9
$CHAMFERA
 40
0.0
  9
$CHAMFERB
 40
0.0
  9
$CHAMFERC
 40
0.0
  9
$CHAMFERD
 40
0.0
  9
$SKPOLY
 70
     0
  9
$TDCREATE
 40
2459229.39186985
  9
$TDUCREATE
 40
2459229.01686985
  9
$TDUPDATE
 40
2459229.391870486
  9
$TDUUPDATE
 40
2459229.016870486
  9
$TDINDWG
 40
0.0000000116
  9
$TDUSRTIMER
 40
0.0000000116
  9
$USRTIMER
 70
     1
  9
$ANGBASE
 50
0.0
  9
$ANGDIR
 70
     0
  9
$PDMODE
 70
     0
  9
$PDSIZE
 40
-1.0
  9
$PLINEWID
 40
0.0
  9
$SPLFRAME
 70
     0
  9
$SPLINETYPE
 70
     6
  9
$SPLINESEGS
 70
     8
  9
$HANDSEED
  5
206
  9
$SURFTAB1
 70
     6
  9
$SURFTAB2
 70
     6
  9
$SURFTYPE
 70
     6
  9
$SURFU
 70
     6
  9
$SURFV
 70
     6
  9
$UCSBASE
  2

  9
$UCSNAME
  2

  9
$UCSORG
 10
0.0
 20
0.0
 30
0.0
  9
$UCSXDIR
 10
1.0
 20
0.0
 30
0.0
  9
$UCSYDIR
 10
0.0
 20
1.0
 30
0.0
  9
$UCSORTHOREF
  2

  9
$UCSORTHOVIEW
 70
     0
  9
$UCSORGTOP
 10
0.0
 20
0.0
 30
0.0
  9
$UCSORGBOTTOM
 10
0.0
 20
0.0
 30
0.0
  9
$UCSORGLEFT
 10
0.0
 20
0.0
 30
0.0
  9
$UCSORGRIGHT
 10
0.0
 20
0.0
 30
0.0
  9
$UCSORGFRONT
 10
0.0
 20
0.0
 30
0.0
  9
$UCSORGBACK
 10
0.0
 20
0.0
 30
0.0
  9
$PUCSBASE
  2

  9
$PUCSNAME
  2

  9
$PUCSORG
 10
0.0
 20
0.0
 30
0.0
  9
$PUCSXDIR
 10
1.0
 20
0.0
 30
0.0
  9
$PUCSYDIR
 10
0.0
 20
1.0
 30
0.0
  9
$PUCSORTHOREF
  2

  9
$PUCSORTHOVIEW
 70
     0
  9
$PUCSORGTOP
 10
0.0
 20
0.0
 30
0.0
  9
$PUCSORGBOTTOM
 10
0.0
 20
0.0
 30
0.0
  9
$PUCSORGLEFT
 10
0.0
 20
0.0
 30
0.0
  9
$PUCSORGRIGHT
 10
0.0
 20
0.0
 30
0.0
  9
$PUCSORGFRONT
 10
0.0
 20
0.0
 30
0.0
  9
$PUCSORGBACK
 10
0.0
 20
0.0
 30
0.0
  9
$USERI1
 70
     0
  9
$USERI2
 70
     0
  9
$USERI3
 70
     0
  9
$USERI4
 70
     0
  9
$USERI5
 70
     0
  9
$USERR1
 40
0.0
  9
$USERR2
 40
0.0
  9
$USERR3
 40
0.0
  9
$USERR4
 40
0.0
  9
$USERR5
 40
0.0
  9
$WORLDVIEW
 70
     1
  9
$SHADEDGE
 70
     3
  9
$SHADEDIF
 70
    70
  9
$TILEMODE
 70
     1
  9
$MAXACTVP
 70
    64
  9
$PINSBASE
 10
0.0
 20
0.0
 30
0.0
  9
$PLIMCHECK
 70
     0
  9
$PEXTMIN
 10
1.0000000000E+20
 20
1.0000000000E+20
 30
1.0000000000E+20
  9
$PEXTMAX
 10
-1.0000000000E+20
 20
-1.0000000000E+20
 30
-1.0000000000E+20
  9
$PLIMMIN
 10
0.0
 20
0.0
  9
$PLIMMAX
 10
420.0
 20
297.0
  9
$UNITMODE
 70
     0
  9
$VISRETAIN
 70
     1
  9
$PLINEGEN
 70
     0
  9
$PSLTSCALE
 70
     1
  9
$TREEDEPTH
 70
  3020
  9
$CMLSTYLE
  2
Standard
  9
$CMLJUST
 70
     0
  9
$CMLSCALE
 40
20.0
  9
$PROXYGRAPHICS
 70
     1
  9
$MEASUREMENT
 70
     1
  9
$CELWEIGHT
370
    -1
  9
$ENDCAPS
280
     0
  9
$JOINSTYLE
280
     0
  9
$LWDISPLAY
290
     1
  9
$INSUNITS
 70
     4
  9
$HYPERLINKBASE
  1

  9
$STYLESHEET
  1

  9
$XEDIT
290
     1
  9
$CEPSNTYPE
380
     0
  9
$PSTYLEMODE
290
     1
  9
$FINGERPRINTGUID
  2
{1A38A8BC-E445-4D5A-8AEB-FAC19C193D7E}
  9
$VERSIONGUID
  2
{FAEB1C32-E019-11D5-929B-00C0DF256EC4}
  9
$EXTNAMES
290
     1
  9
$PSVPSCALE
 40
0.0
  9
$OLESTARTUP
290
     0
  0
ENDSEC
  0
SECTION
  2
CLASSES
  0
CLASS
  1
ACDBDICTIONARYWDFLT
  2
AcDbDictionaryWithDefault
  3
ObjectDBX Classes
 90
        0
280
     0
281
     0
  0
CLASS
  1
VISUALSTYLE
  2
AcDbVisualStyle
  3
ObjectDBX Classes
 90
     4095
280
     0
281
     0
  0
CLASS
  1
MATERIAL
  2
AcDbMaterial
  3
ObjectDBX Classes
 90
     1153
280
     0
281
     0
  0
CLASS
  1
SCALE
  2
AcDbScale
  3
ObjectDBX Classes
 90
     1153
280
     0
281
     0
  0
CLASS
  1
TABLESTYLE
  2
AcDbTableStyle
  3
ObjectDBX Classes
 90
     4095
280
     0
281
     0
  0
CLASS
  1
MLEADERSTYLE
  2
AcDbMLeaderStyle
  3
ACDB_MLEADERSTYLE_CLASS
 90
     4095
280
     0
281
     0
  0
CLASS
  1
SUN
  2
AcDbSun
  3
SCENEOE
 90
     1153
280
     0
281
     0
  0
CLASS
  1
ACDBPLACEHOLDER
  2
AcDbPlaceHolder
  3
ObjectDBX Classes
 90
        0
280
     0
281
     0
  0
CLASS
  1
LAYOUT
  2
AcDbLayout
  3
ObjectDBX Classes
 90
        0
280
     0
281
     0
  0
ENDSEC
  0
SECTION
  2
TABLES
  0
TABLE
  2
VPORT
  5
8
330
0
100
AcDbSymbolTable
 70
     1
  0
VPORT
  5
29
330
8
100
AcDbSymbolTableRecord
100
AcDbViewportTableRecord
  2
*Active
 70
     0
 10
0.0
 20
0.0
 11
1.0
 21
1.0
 12
215.9
 22
139.7
 13
0.0
 23
0.0
 14
10.0
 24
10.0
 15
10.0
 25
10.0
 16
0.0
 26
0.0
 36
1.0
 17
0.0
 27
0.0
 37
0.0
 40
279.4
 41
1.5454545455
 42
50.0
 43
0.0
 44
0.0
 50
0.0
 51
0.0
 71
     0
 72
  2000
 73
     1
 74
     3
 75
     0
 76
     0
 77
     0
 78
     0
281
     0
 65
     1
110
0.0
120
0.0
130
0.0
111
1.0
121
0.0
131
0.0
112
0.0
122
1.0
132
0.0
 79
     0
146
0.0
  0
ENDTAB
  0
TABLE
  2
LTYPE
  5
5
330
0
100
AcDbSymbolTable
 70
     6
  0
LTYPE
  5
14
330
5
100
AcDbSymbolTableRecord
100
AcDbLinetypeTableRecord
  2
ByBlock
 70
     0
  3

 72
    65
 73
     0
 40
0.0
  0
LTYPE
  5
15
330
5
100
AcDbSymbolTableRecord
100
AcDbLinetypeTableRecord
  2
ByLayer
 70
     0
  3

 72
    65
 73
     0
 40
0.0
  0
LTYPE
  5
16
330
5
100
AcDbSymbolTableRecord
100
AcDbLinetypeTableRecord
  2
Continuous
 70
     0
  3
Solid line
 72
    65
 73
     0
 40
0.0
  0
LTYPE
  5
6E
330
5
100
AcDbSymbolTableRecord
100
AcDbLinetypeTableRecord
  2
HIDDEN
 70
     0
  3
Hidden __ __ __ __ __ __ __ __ __ __ __ __ __ __
 72
    65
 73
     2
 40
1.905
 49
1.27
 74
     0
 49
-0.635
 74
     0
  0
LTYPE
  5
6F
330
5
100
AcDbSymbolTableRecord
100
AcDbLinetypeTableRecord
  2
PHANTOM
 70
     0
  3
Phantom ______  __  __  ______  __  __  ______
 72
    65
 73
     6
 40
12.7
 49
6.35
 74
     0
 49
-1.27
 74
     0
 49
1.27
 74
     0
 49
-1.27
 74
     0
 49
1.27
 74
     0
 49
-1.27
 74
     0
  0
LTYPE
  5
70
330
5
100
AcDbSymbolTableRecord
100
AcDbLinetypeTableRecord
  2
CENTER
 70
     0
  3
Center ____ _ ____ _ ____ _ ____ _ ____ _ ____
 72
    65
 73
     4
 40
10.16
 49
6.35
 74
     0
 49
-1.27
 74
     0
 49
1.27
 74
     0
 49
-1.27
 74
     0
  0
LTYPE
  5
71
330
5
100
AcDbSymbolTableRecord
100
AcDbLinetypeTableRecord
  2
CENTERX2
 70
     0
  3
Center (2x) ________  __  ________  __  _____
 72
    65
 73
     4
 40
20.32
 49
12.7
 74
     0
 49
-2.54
 74
     0
 49
2.54
 74
     0
 49
-2.54
 74
     0
  0
LTYPE
  5
72
330
5
100
AcDbSymbolTableRecord
100
AcDbLinetypeTableRecord
  2
DOT2
 70
     0
  3
Dot (.5x) ........................................
 72
    65
 73
     2
 40
0.635
 49
0.0
 74
     0
 49
-0.635
 74
     0
  0
ENDTAB
  0
TABLE
  2
LAYER
  5
2
330
0
100
AcDbSymbolTable
 70
     1
  0
LAYER
  5
10
330
2
100
AcDbSymbolTableRecord
100
AcDbLayerTableRecord
  2
0
 70
     0
 62
     7
  6
Continuous
370
    -3
390
F
  0
ENDTAB
  0
TABLE
  2
STYLE
  5
3
330
0
100
AcDbSymbolTable
 70
     2
  0
STYLE
  5
11
330
3
100
AcDbSymbolTableRecord
100
AcDbTextStyleTableRecord
  2
Standard
 70
     0
 40
0.0
 41
1.0
 50
0.0
 71
     0
 42
3.5
  3
txt
  4
bigfont
  0
STYLE
  5
73
330
3
100
AcDbSymbolTableRecord
100
AcDbTextStyleTableRecord
  2
SLDTEXTSTYLE0
 70
     0
 40
0.0
 41
0.7
 50
0.0
 71
     0
 42
3.5
  3
TXT
  4
bigfont
  0
ENDTAB
  0
TABLE
  2
VIEW
  5
6
330
0
100
AcDbSymbolTable
 70
     0
  0
ENDTAB
  0
TABLE
  2
UCS
  5
7
330
0
100
AcDbSymbolTable
 70
     0
  0
ENDTAB
  0
TABLE
  2
APPID
  5
9
330
0
100
AcDbSymbolTable
 70
     1
  0
APPID
  5
12
330
9
100
AcDbSymbolTableRecord
100
AcDbRegAppTableRecord
  2
ACAD
 70
     0
  0
ENDTAB
  0
TABLE
  2
DIMSTYLE
  5
A
330
0
100
AcDbSymbolTable
 70
     1
100
AcDbDimStyleTable
  0
DIMSTYLE
105
27
330
A
100
AcDbSymbolTableRecord
100
AcDbDimStyleTableRecord
  2
ISO-25
 70
     0
 41
2.5
 42
0.625
 43
3.75
 44
1.25
 73
     0
 74
     0
 77
     1
 78
     8
140
2.5
141
2.5
143
0.0393700787
147
0.625
171
     3
172
     1
178
     0
271
     2
272
     2
274
     3
278
    44
283
     0
284
     8
340
11
  0
ENDTAB
  0
TABLE
  2
BLOCK_RECORD
  5
1
330
0
100
AcDbSymbolTable
 70
     3
  0
BLOCK_RECORD
  5
1F
330
1
100
AcDbSymbolTableRecord
100
AcDbBlockTableRecord
  2
*Model_Space
340
22
  0
BLOCK_RECORD
  5
1B
330
1
100
AcDbSymbolTableRecord
100
AcDbBlockTableRecord
  2
*Paper_Space
340
1E
  0
BLOCK_RECORD
  5
23
330
1
100
AcDbSymbolTableRecord
100
AcDbBlockTableRecord
  2
*Paper_Space0
340
26
  0
BLOCK_RECORD
  5
177
330
1
100
AcDbSymbolTableRecord
100
AcDbBlockTableRecord
  2
SW_CENTERMARKSYMBOL_0
340
0
102
{BLKREFS
331
182
102
}
  0
BLOCK_RECORD
  5
1F9
330
1
100
AcDbSymbolTableRecord
100
AcDbBlockTableRecord
  2
SW_CENTERMARKSYMBOL_1
340
0
102
{BLKREFS
331
204
102
}
  0
ENDTAB
  0
ENDSEC
  0
SECTION
  2
BLOCKS
  0
BLOCK
  5
20
330
1F
100
AcDbEntity
  8
0
100
AcDbBlockBegin
  2
*Model_Space
 70
     0
 10
0.0
 20
0.0
 30
0.0
  3
*Model_Space
  1

  0
ENDBLK
  5
21
330
1F
100
AcDbEntity
  8
0
100
AcDbBlockEnd
  0
BLOCK
  5
1C
330
1B
100
AcDbEntity
 67
     1
  8
0
100
AcDbBlockBegin
  2
*Paper_Space
 70
     0
 10
0.0
 20
0.0
 30
0.0
  3
*Paper_Space
  1

  0
ENDBLK
  5
1D
330
1B
100
AcDbEntity
 67
     1
  8
0
100
AcDbBlockEnd
  0
BLOCK
  5
24
330
23
100
AcDbEntity
  8
0
100
AcDbBlockBegin
  2
*Paper_Space0
 70
     0
 10
0.0
 20
0.0
 30
0.0
  3
*Paper_Space0
  1

  0
ENDBLK
  5
25
330
23
100
AcDbEntity
  8
0
100
AcDbBlockEnd
  0
BLOCK
  5
178
330
177
100
AcDbEntity
  8
0
100
AcDbBlockBegin
  2
SW_CENTERMARKSYMBOL_0
 70
     0
 10
0.0
 20
0.0
 30
0.0
  3
SW_CENTERMARKSYMBOL_0
  1

  0
LINE
  5
17A
330
177
100
AcDbEntity
  8
0
  6
Continuous
 62
     0
370
    18
100
AcDbLine
 10
0.0
 20
0.0
 30
0.0
 11
0.0
 21
2.5
 31
0.0
  0
LINE
  5
17B
330
177
100
AcDbEntity
  8
0
  6
Continuous
 62
     0
370
    18
100
AcDbLine
 10
0.0
 20
0.0
 30
0.0
 11
-2.5
 21
0.0
 31
0.0
  0
LINE
  5
17C
330
177
100
AcDbEntity
  8
0
  6
Continuous
 62
     0
370
    18
100
AcDbLine
 10
0.0
 20
0.0
 30
0.0
 11
0.0
 21
-2.5
 31
0.0
  0
LINE
  5
17D
330
177
100
AcDbEntity
  8
0
  6
Continuous
 62
     0
370
    18
100
AcDbLine
 10
0.0
 20
0.0
 30
0.0
 11
2.5
 21
0.0
 31
0.0
  0
LINE
  5
17E
330
177
100
AcDbEntity
  8
0
  6
Continuous
 62
     0
370
    18
100
AcDbLine
 10
0.0
 20
5.0
 30
0.0
 11
0.0
 21
35.9422104101
 31
0.0
  0
LINE
  5
17F
330
177
100
AcDbEntity
  8
0
  6
Continuous
 62
     0
370
    18
100
AcDbLine
 10
-5.0
 20
0.0
 30
0.0
 11
-16.5
 21
0.0
 31
0.0
  0
LINE
  5
180
330
177
100
AcDbEntity
  8
0
  6
Continuous
 62
     0
370
    18
100
AcDbLine
 10
0.0
 20
-5.0
 30
0.0
 11
0.0
 21
-16.5
 31
0.0
  0
LINE
  5
181
330
177
100
AcDbEntity
  8
0
  6
Continuous
 62
     0
370
    18
100
AcDbLine
 10
5.0
 20
0.0
 30
0.0
 11
16.5
 21
0.0
 31
0.0
  0
ENDBLK
  5
179
330
177
100
AcDbEntity
  8
0
100
AcDbBlockEnd
  0
BLOCK
  5
1FA
330
1F9
100
AcDbEntity
  8
0
100
AcDbBlockBegin
  2
SW_CENTERMARKSYMBOL_1
 70
     0
 10
0.0
 20
0.0
 30
0.0
  3
SW_CENTERMARKSYMBOL_1
  1

  0
LINE
  5
1FC
330
1F9
100
AcDbEntity
  8
0
  6
Continuous
 62
     0
370
    18
100
AcDbLine
 10
0.0
 20
0.0
 30
0.0
 11
0.0
 21
2.5
 31
0.0
  0
LINE
  5
1FD
330
1F9
100
AcDbEntity
  8
0
  6
Continuous
 62
     0
370
    18
100
AcDbLine
 10
0.0
 20
0.0
 30
0.0
 11
-2.5
 21
0.0
 31
0.0
  0
LINE
  5
1FE
330
1F9
100
AcDbEntity
  8
0
  6
Continuous
 62
     0
370
    18
100
AcDbLine
 10
0.0
 20
0.0
 30
0.0
 11
0.0
 21
-2.5
 31
0.0
  0
LINE
  5
1FF
330
1F9
100
AcDbEntity
  8
0
  6
Continuous
 62
     0
370
    18
100
AcDbLine
 10
0.0
 20
0.0
 30
0.0
 11
2.5
 21
0.0
 31
0.0
  0
LINE
  5
200
330
1F9
100
AcDbEntity
  8
0
  6
Continuous
 62
     0
370
    18
100
AcDbLine
 10
0.0
 20
5.0
 30
0.0
 11
0.0
 21
16.5
 31
0.0
  0
LINE
  5
201
330
1F9
100
AcDbEntity
  8
0
  6
Continuous
 62
     0
370
    18
100
AcDbLine
 10
-5.0
 20
0.0
 30
0.0
 11
-35.943336943
 21
0.0
 31
0.0
  0
LINE
  5
202
330
1F9
100
AcDbEntity
  8
0
  6
Continuous
 62
     0
370
    18
100
AcDbLine
 10
0.0
 20
-5.0
 30
0.0
 11
0.0
 21
-16.5
 31
0.0
  0
LINE
  5
203
330
1F9
100
AcDbEntity
  8
0
  6
Continuous
 62
     0
370
    18
100
AcDbLine
 10
5.0
 20
0.0
 30
0.0
 11
36.1650991999
 21
0.0
 31
0.0
  0
ENDBLK
  5
1FB
330
1F9
100
AcDbEntity
  8
0
100
AcDbBlockEnd
  0
ENDSEC
  0
SECTION
  2
ENTITIES
  0
MTEXT
  5
74
330
1F
100
AcDbEntity
  8
0
  6
Continuous
 62
     7
370
     0
100
AcDbMText
 10
157.4510607108
 20
124.5826017488
 30
0.0
 40
5.2916666667
 41
0.0
 71
     1
 72
     1
  1
5R-TF1334
  7
SLDTEXTSTYLE0
 73
     1
 44
1.0
  0
LINE
  5
75
330
1F
100
AcDbEntity
  8
0
  6
Continuous
 62
     7
370
    25
100
AcDbLine
 10
87.8468780902
 20
85.4291208981
 30
0.0
 11
86.8468760637
 21
84.4291207342
 31
0.0
  0
LINE
  5
76
330
1F
100
AcDbEntity
  8
0
  6
Continuous
 62
     7
370
    25
100
AcDbLine
 10
86.8468760637
 20
58.4291201978
 30
0.0
 11
87.8468780902
 21
57.4291200339
 31
0.0
  0
ARC
  5
77
330
1F
100
AcDbEntity
  8
0
  6
Continuous
 62
     7
370
    25
100
AcDbCircle
 10
139.8468779114
 20
84.429120466
 30
0.0
 40
1.0
100
AcDbArc
 50
90.0
 51
180.0
  0
ARC
  5
78
330
1F
100
AcDbEntity
  8
0
  6
Continuous
 62
     7
370
    25
100
AcDbCircle
 10
139.8468779114
 20
58.429120466
 30
0.0
 40
1.0
100
AcDbArc
 50
180.0
 51
270.0
  0
LINE
  5
79
330
1F
100
AcDbEntity
  8
0
  6
Continuous
 62
     7
370
    25
100
AcDbLine
 10
106.8468774793
 20
104.4291202872
 30
0.0
 11
106.8468774793
 21
90.429119855
 31
0.0
  0
LINE
  5
7A
330
1F
100
AcDbEntity
  8
0
  6
Continuous
 62
     7
370
    25
100
AcDbLine
 10
134.8468783436
 20
90.429119855
 30
0.0
 11
134.8468783436
 21
104.4291202872
 31
0.0
  0
ARC
  5
7B
330
1F
100
AcDbEntity
  8
0
  6
Continuous
 62
     7
370
    25
100
AcDbCircle
 10
101.8468779114
 20
58.429120466
 30
0.0
 40
1.0
100
AcDbArc
 50
270.0
 51
0.0
  0
ARC
  5
7C
330
1F
100
AcDbEntity
  8
0
  6
Continuous
 62
     7
370
    25
100
AcDbCircle
 10
101.8468779114
 20
84.429120466
 30
0.0
 40
1.0
100
AcDbArc
 50
0.0
 51
90.0
  0
LINE
  5
7D
330
1F
100
AcDbEntity
  8
0
  6
Continuous
 62
     7
370
    25
100
AcDbLine
 10
153.8468777326
 20
85.4291208981
 30
0.0
 11
139.8468773005
 21
85.4291208981
 31
0.0
  0
LINE
  5
7E
330
1F
100
AcDbEntity
  8
0
  6
Continuous
 62
     7
370
    25
100
AcDbLine
 10
139.8468773005
 20
57.4291200339
 30
0.0
 11
153.8468777326
 21
57.4291200339
 31
0.0
  0
LINE
  5
7F
330
1F
100
AcDbEntity
  8
0
  6
Continuous
 62
     7
370
    25
100
AcDbLine
 10
153.8468777326
 20
57.4291200339
 30
0.0
 11
154.8468797592
 21
58.4291201978
 31
0.0
  0
LINE
  5
80
330
1F
100
AcDbEntity
  8
0
  6
Continuous
 62
     7
370
    25
100
AcDbLine
 10
154.8468797592
 20
84.4291207342
 30
0.0
 11
153.8468777326
 21
85.4291208981
 31
0.0
  0
LINE
  5
81
330
1F
100
AcDbEntity
  8
0
  6
Continuous
 62
     7
370
    25
100
AcDbLine
 10
87.8468780902
 20
57.4291200339
 30
0.0
 11
101.8468785224
 21
57.4291200339
 31
0.0
  0
LINE
  5
82
330
1F
100
AcDbEntity
  8
0
  6
Continuous
 62
     7
370
    25
100
AcDbLine
 10
101.8468785224
 20
85.4291208981
 30
0.0
 11
87.8468780902
 21
85.4291208981
 31
0.0
  0
LINE
  5
83
330
1F
100
AcDbEntity
  8
0
  6
Continuous
 62
     7
370
    25
100
AcDbLine
 10
134.8468783436
 20
104.4291202872
 30
0.0
 11
133.8468781797
 21
105.4291223137
 31
0.0
  0
LINE
  5
84
330
1F
100
AcDbEntity
  8
0
  6
Continuous
 62
     7
370
    25
100
AcDbLine
 10
107.8468776432
 20
105.4291223137
 30
0.0
 11
106.8468774793
 21
104.4291202872
 31
0.0
  0
ARC
  5
85
330
1F
100
AcDbEntity
  8
0
  6
Continuous
 62
     7
370
    25
100
AcDbCircle
 10
107.8468779114
 20
90.429120466
 30
0.0
 40
1.0
100
AcDbArc
 50
180.0
 51
270.0
  0
ARC
  5
86
330
1F
100
AcDbEntity
  8
0
  6
Continuous
 62
     7
370
    25
100
AcDbCircle
 10
133.8468779114
 20
90.429120466
 30
0.0
 40
1.0
100
AcDbArc
 50
270.0
 51
0.0
  0
ARC
  5
87
330
1F
100
AcDbEntity
  8
0
  6
Continuous
 62
     7
370
    25
100
AcDbCircle
 10
108.8468779114
 20
88.429120466
 30
0.0
 40
1.0
100
AcDbArc
 50
0.0
 51
90.0
  0
ARC
  5
88
330
1F
100
AcDbEntity
  8
0
  6
Continuous
 62
     7
370
    25
100
AcDbCircle
 10
132.8468779114
 20
88.429120466
 30
0.0
 40
1.0
100
AcDbArc
 50
90.0
 51
180.0
  0
ARC
  5
89
330
1F
100
AcDbEntity
  8
0
  6
Continuous
 62
     7
370
    25
100
AcDbCircle
 10
103.8468779114
 20
59.429120466
 30
0.0
 40
1.0
100
AcDbArc
 50
90.0
 51
180.0
  0
ARC
  5
8A
330
1F
100
AcDbEntity
  8
0
  6
Continuous
 62
     7
370
    25
100
AcDbCircle
 10
103.8468779114
 20
83.429120466
 30
0.0
 40
1.000000000000014
100
AcDbArc
 50
180.0
 51
270.0
  0
ARC
  5
8B
330
1F
100
AcDbEntity
  8
0
  6
Continuous
 62
     7
370
    25
100
AcDbCircle
 10
137.8468779114
 20
83.429120466
 30
0.0
 40
1.000000000000014
100
AcDbArc
 50
270.0
 51
0.0
  0
ARC
  5
8C
330
1F
100
AcDbEntity
  8
0
  6
Continuous
 62
     7
370
    25
100
AcDbCircle
 10
137.8468779114
 20
59.429120466
 30
0.0
 40
1.0
100
AcDbArc
 50
0.0
 51
90.0
  0
LINE
  5
8D
330
1F
100
AcDbEntity
  8
0
  6
Continuous
 62
     7
370
    25
100
AcDbLine
 10
131.8468778518
 20
82.9291204883
 30
0.0
 11
131.8468778518
 21
88.4291213899
 31
0.0
  0
LINE
  5
8E
330
1F
100
AcDbEntity
  8
0
  6
Continuous
 62
     7
370
    25
100
AcDbLine
 10
109.846877971
 20
88.4291213899
 30
0.0
 11
109.846877971
 21
82.9291204883
 31
0.0
  0
LINE
  5
8F
330
1F
100
AcDbEntity
  8
0
  6
Continuous
 62
     7
370
    25
100
AcDbLine
 10
109.3468778891
 20
82.4291204064
 30
0.0
 11
103.8468769876
 21
82.4291204064
 31
0.0
  0
LINE
  5
90
330
1F
100
AcDbEntity
  8
0
  6
Continuous
 62
     7
370
    25
100
AcDbLine
 10
137.8468788353
 20
82.4291204064
 30
0.0
 11
132.3468779338
 21
82.4291204064
 31
0.0
  0
LINE
  5
91
330
1F
100
AcDbEntity
  8
0
  6
Continuous
 62
     7
370
    25
100
AcDbLine
 10
103.8468769876
 20
60.4291205256
 30
0.0
 11
137.8468788353
 21
60.4291205256
 31
0.0
  0
ARC
  5
92
330
1F
100
AcDbEntity
  8
0
  6
Continuous
 62
     7
370
    25
100
AcDbCircle
 10
132.3468779114
 20
82.929120466
 30
0.0
 40
0.5000000000000016
100
AcDbArc
 50
180.1005417843
 51
269.9608729934
  0
ARC
  5
93
330
1F
100
AcDbEntity
  8
0
  6
Continuous
 62
     7
370
    25
100
AcDbCircle
 10
109.3468779114
 20
82.929120466
 30
0.0
 40
0.5000000000000057
100
AcDbArc
 50
270.1005417843
 51
359.9608729934
  0
LINE
  5
94
330
1F
100
AcDbEntity
  8
0
  6
Continuous
 62
     7
370
    25
100
AcDbLine
 10
87.8468780902
 20
71.429120466
 30
0.0
 11
87.8468780902
 21
57.4291200339
 31
0.0
  0
LINE
  5
95
330
1F
100
AcDbEntity
  8
0
  6
Continuous
 62
     7
370
    25
100
AcDbLine
 10
87.8468780902
 20
85.4291208981
 30
0.0
 11
87.8468780902
 21
71.429120466
 31
0.0
  0
LINE
  5
96
330
1F
100
AcDbEntity
  8
0
  6
Continuous
 62
     7
370
    25
100
AcDbLine
 10
86.8468760637
 20
71.429120466
 30
0.0
 11
86.8468760637
 21
84.4291207342
 31
0.0
  0
LINE
  5
97
330
1F
100
AcDbEntity
  8
0
  6
Continuous
 62
     7
370
    25
100
AcDbLine
 10
86.8468760637
 20
58.4291201978
 30
0.0
 11
86.8468760637
 21
71.429120466
 31
0.0
  0
LINE
  5
98
330
1F
100
AcDbEntity
  8
0
  6
Continuous
 62
     7
370
    25
100
AcDbLine
 10
138.8468771366
 20
58.4291201978
 30
0.0
 11
138.8468771366
 21
84.4291207342
 31
0.0
  0
LINE
  5
99
330
1F
100
AcDbEntity
  8
0
  6
Continuous
 62
     7
370
    25
100
AcDbLine
 10
134.8468783436
 20
104.4291202872
 30
0.0
 11
106.8468774793
 21
104.4291202872
 31
0.0
  0
LINE
  5
9A
330
1F
100
AcDbEntity
  8
0
  6
Continuous
 62
     7
370
    25
100
AcDbLine
 10
102.8468786863
 20
71.429120466
 30
0.0
 11
102.8468786863
 21
58.4291201978
 31
0.0
  0
LINE
  5
9B
330
1F
100
AcDbEntity
  8
0
  6
Continuous
 62
     7
370
    25
100
AcDbLine
 10
102.8468786863
 20
84.4291207342
 30
0.0
 11
102.8468786863
 21
71.429120466
 31
0.0
  0
LINE
  5
9C
330
1F
100
AcDbEntity
  8
0
  6
Continuous
 62
     7
370
    25
100
AcDbLine
 10
153.8468777326
 20
57.4291200339
 30
0.0
 11
153.8468777326
 21
85.4291208981
 31
0.0
  0
LINE
  5
9D
330
1F
100
AcDbEntity
  8
0
  6
Continuous
 62
     7
370
    25
100
AcDbLine
 10
154.8468797592
 20
84.4291207342
 30
0.0
 11
154.8468797592
 21
58.4291201978
 31
0.0
  0
LINE
  5
9E
330
1F
100
AcDbEntity
  8
0
  6
Continuous
 62
     7
370
    25
100
AcDbLine
 10
107.8468776432
 20
105.4291223137
 30
0.0
 11
133.8468781797
 21
105.4291223137
 31
0.0
  0
LINE
  5
9F
330
1F
100
AcDbEntity
  8
0
  6
Continuous
 62
     7
370
    25
100
AcDbLine
 10
107.8468776432
 20
89.4291196911
 30
0.0
 11
133.8468781797
 21
89.4291196911
 31
0.0
  0
ARC
  5
A0
330
1F
100
AcDbEntity
  8
0
  6
Continuous
 62
     7
370
    25
100
AcDbCircle
 10
109.3358352167
 20
67.1103619956
 30
0.0
 40
1.193170564788406
100
AcDbArc
 50
60.65213411
 51
82.3649073709
  0
SPLINE
  5
A1
330
1F
100
AcDbEntity
  8
0
  6
Continuous
 62
     7
370
    25
100
AcDbSpline
210
0.0
220
0.0
230
1.0
 70
     8
 71
     3
 72
    12
 73
     8
 74
     0
 42
0.000000001
 43
0.00000001
 40
0.0
 40
0.0
 40
0.0
 40
0.0
 40
0.25
 40
0.25
 40
0.5
 40
0.5
 40
1.0
 40
1.0
 40
1.0
 40
1.0
 10
109.4943635754761
 20
68.29295421523173
 30
0.0
 10
109.542405546106
 20
68.54492231641777
 30
0.0
 10
109.5790991887496
 20
68.80052083507537
 30
0.0
 10
109.6450898701743
 20
69.31704719993618
 30
0.0
 10
109.6738633583512
 20
69.57846735925662
 30
0.0
 10
109.754339065362
 20
70.36615111359501
 30
0.0
 10
109.8004687686058
 20
70.89816268623022
 30
0.0
 10
109.846877911432
 20
71.42912046598477
 30
0.0
  0
SPLINE
  5
A2
330
1F
100
AcDbEntity
  8
0
  6
Continuous
 62
     7
370
    25
100
AcDbSpline
210
0.0
220
0.0
230
1.0
 70
     8
 71
     3
 72
    12
 73
     8
 74
     0
 42
0.000000001
 43
0.00000001
 40
0.0
 40
0.0
 40
0.0
 40
0.0
 40
0.2500000000000001
 40
0.2500000000000001
 40
0.5000000000000001
 40
0.5000000000000001
 40
1.0
 40
1.0
 40
1.0
 40
1.0
 10
109.920620743454
 20
68.15040120383378
 30
0.0
 10
109.9433332451621
 20
68.42170564220626
 30
0.0
 10
109.9508457649916
 20
68.69381784076661
 30
0.0
 10
109.952401839692
 20
69.2395275252384
 30
0.0
 10
109.9459749978511
 20
69.51292347940085
 30
0.0
 10
109.9157499975503
 20
70.33314535647011
 30
0.0
 10
109.8810544764365
 20
70.88148075378606
 30
0.0
 10
109.846877911432
 20
71.42912046598477
 30
0.0
  0
LINE
  5
A3
330
1F
100
AcDbEntity
  8
0
  6
Continuous
 62
     7
370
    25
100
AcDbLine
 10
110.346878053
 20
68.1504012047
 30
0.0
 11
109.9206210238
 21
68.1504012047
 31
0.0
  0
SPLINE
  5
A4
330
1F
100
AcDbEntity
  8
0
  6
Continuous
 62
     7
370
    25
100
AcDbSpline
210
0.0
220
0.0
230
1.0
 70
     8
 71
     3
 72
    12
 73
     8
 74
     0
 42
0.000000001
 43
0.00000001
 40
0.0
 40
0.0
 40
0.0
 40
0.0
 40
0.25
 40
0.25
 40
0.5
 40
0.5
 40
1.0
 40
1.0
 40
1.0
 40
1.0
 10
110.346877911432
 20
68.15040120383377
 30
0.0
 10
110.346877911432
 20
68.42792320974357
 30
0.0
 10
110.327154966024
 20
68.70405953667634
 30
0.0
 10
110.2665185012628
 20
69.2548434000889
 30
0.0
 10
110.2252619555744
 20
69.5290517966143
 30
0.0
 10
110.0834886459023
 20
70.3472080742631
 30
0.0
 10
109.964921600742
 20
70.88817098936809
 30
0.0
 10
109.846877911432
 20
71.42912046598477
 30
0.0
  0
ARC
  5
A5
330
1F
100
AcDbEntity
  8
0
  6
Continuous
 62
     7
370
    25
100
AcDbCircle
 10
116.5281194411
 20
82.9401631607
 30
0.0
 40
1.193170564788404
100
AcDbArc
 50
330.65213411
 51
352.3649073709
  0
SPLINE
  5
A6
330
1F
100
AcDbEntity
  8
0
  6
Continuous
 62
     7
370
    25
100
AcDbSpline
210
0.0
220
0.0
230
1.0
 70
     8
 71
     3
 72
    12
 73
     8
 74
     0
 42
0.000000001
 43
0.00000001
 40
0.0
 40
0.0
 40
0.0
 40
0.0
 40
0.2499999999999999
 40
0.2499999999999999
 40
0.4999999999999999
 40
0.4999999999999999
 40
1.0
 40
1.0
 40
1.0
 40
1.0
 10
117.7107116606789
 20
82.78163480194064
 30
0.0
 10
117.962679761865
 20
82.73359283131074
 30
0.0
 10
118.2182782805226
 20
82.69689918866713
 30
0.0
 10
118.7348046453834
 20
82.63090850724241
 30
0.0
 10
118.9962248047038
 20
82.60213501906547
 30
0.0
 10
119.7839085590422
 20
82.52165931205477
 30
0.0
 10
120.3159201316774
 20
82.47552960881096
 30
0.0
 10
120.846877911432
 20
82.42912046598475
 30
0.0
  0
SPLINE
  5
A7
330
1F
100
AcDbEntity
  8
0
  6
Continuous
 62
     7
370
    25
100
AcDbSpline
210
0.0
220
0.0
230
1.0
 70
     8
 71
     3
 72
    12
 73
     8
 74
     0
 42
0.000000001
 43
0.00000001
 40
0.0
 40
0.0
 40
0.0
 40
0.0
 40
0.2500000000000001
 40
0.2500000000000001
 40
0.5000000000000002
 40
0.5000000000000002
 40
1.0
 40
1.0
 40
1.0
 40
1.0
 10
117.568158649281
 20
82.3553776339627
 30
0.0
 10
117.8394630876535
 20
82.33266513225465
 30
0.0
 10
118.1115752862138
 20
82.32515261242516
 30
0.0
 10
118.6572849706856
 20
82.32359653772467
 30
0.0
 10
118.9306809248481
 20
82.33002337956565
 30
0.0
 10
119.7509028019173
 20
82.36024837986646
 30
0.0
 10
120.2992381992333
 20
82.39494390098018
 30
0.0
 10
120.846877911432
 20
82.42912046598475
 30
0.0
  0
LINE
  5
A8
330
1F
100
AcDbEntity
  8
0
  6
Continuous
 62
     7
370
    25
100
AcDbLine
 10
117.5681586501
 20
81.9291203244
 30
0.0
 11
117.5681586501
 21
82.3553773536
 31
0.0
  0
SPLINE
  5
A9
330
1F
100
AcDbEntity
  8
0
  6
Continuous
 62
     7
370
    25
100
AcDbSpline
210
0.0
220
0.0
230
1.0
 70
     8
 71
     3
 72
    12
 73
     8
 74
     0
 42
0.000000001
 43
0.00000001
 40
0.0
 40
0.0
 40
0.0
 40
0.0
 40
0.2500000000000001
 40
0.2500000000000001
 40
0.5000000000000001
 40
0.5000000000000001
 40
1.0
 40
1.0
 40
1.0
 40
1.0
 10
117.568158649281
 20
81.92912046598475
 30
0.0
 10
117.8456806551908
 20
81.92912046598475
 30
0.0
 10
118.1218169821235
 20
81.94884341139269
 30
0.0
 10
118.6726008455361
 20
82.00947987615393
 30
0.0
 10
118.9468092420615
 20
82.0507364218423
 30
0.0
 10
119.7649655197103
 20
82.19250973151438
 30
0.0
 10
120.3059284348153
 20
82.31107677667471
 30
0.0
 10
120.846877911432
 20
82.42912046598475
 30
0.0
  0
ARC
  5
AA
330
1F
100
AcDbEntity
  8
0
  6
Continuous
 62
     7
370
    25
100
AcDbCircle
 10
109.3358352167
 20
75.7478789364
 30
0.0
 40
1.193170564788406
100
AcDbArc
 50
277.6350926291
 51
299.34786589
  0
SPLINE
  5
AB
330
1F
100
AcDbEntity
  8
0
  6
Continuous
 62
     7
370
    25
100
AcDbSpline
210
0.0
220
0.0
230
1.0
 70
     8
 71
     3
 72
    12
 73
     8
 74
     0
 42
0.000000001
 43
0.00000001
 40
0.0
 40
0.0
 40
0.0
 40
0.0
 40
0.2499999999999999
 40
0.2499999999999999
 40
0.4999999999999998
 40
0.4999999999999998
 40
1.0
 40
1.0
 40
1.0
 40
1.0
 10
109.920620743454
 20
74.70783972813575
 30
0.0
 10
109.9433332451631
 20
74.43653528975071
 30
0.0
 10
109.9508457649923
 20
74.16442309117771
 30
0.0
 10
109.9524018396915
 20
73.61871340668046
 30
0.0
 10
109.9459749978494
 20
73.34531745250531
 30
0.0
 10
109.9157499975451
 20
72.52509557539787
 30
0.0
 10
109.8810544764269
 20
71.97676017821098
 30
0.0
 10
109.846877911432
 20
71.42912046598477
 30
0.0
  0
SPLINE
  5
AC
330
1F
100
AcDbEntity
  8
0
  6
Continuous
 62
     7
370
    25
100
AcDbSpline
210
0.0
220
0.0
230
1.0
 70
     8
 71
     3
 72
    12
 73
     8
 74
     0
 42
0.000000001
 43
0.00000001
 40
0.0
 40
0.0
 40
0.0
 40
0.0
 40
0.2499999999999999
 40
0.2499999999999999
 40
0.4999999999999998
 40
0.4999999999999998
 40
1.0
 40
1.0
 40
1.0
 40
1.0
 10
109.4943635754761
 20
74.56528671673789
 30
0.0
 10
109.5423887931188
 20
74.31340648077297
 30
0.0
 10
109.5790730633937
 20
74.05789829028932
 30
0.0
 10
109.6450469563231
 20
73.54155589910943
 30
0.0
 10
109.6737985888913
 20
73.28038684753716
 30
0.0
 10
109.7543534896813
 20
72.49198994866374
 30
0.0
 10
109.8004849663002
 20
71.95989309368815
 30
0.0
 10
109.846877911432
 20
71.42912046598477
 30
0.0
  0
SPLINE
  5
AD
330
1F
100
AcDbEntity
  8
0
  6
Continuous
 62
     7
370
    25
100
AcDbSpline
210
0.0
220
0.0
230
1.0
 70
     8
 71
     3
 72
    12
 73
     8
 74
     0
 42
0.000000001
 43
0.00000001
 40
0.0
 40
0.0
 40
0.0
 40
0.0
 40
0.2499999999999999
 40
0.2499999999999999
 40
0.4999999999999999
 40
0.4999999999999999
 40
1.0
 40
1.0
 40
1.0
 40
1.0
 10
110.346877911432
 20
74.70783972813575
 30
0.0
 10
110.346877911432
 20
74.43031772222595
 30
0.0
 10
110.327154966024
 20
74.1541813952932
 30
0.0
 10
110.2665185012628
 20
73.60339753188062
 30
0.0
 10
110.2252619555744
 20
73.32918913535524
 30
0.0
 10
110.0834886459023
 20
72.51103285770644
 30
0.0
 10
109.964921600742
 20
71.97006994260144
 30
0.0
 10
109.846877911432
 20
71.42912046598477
 30
0.0
  0
LINE
  5
AE
330
1F
100
AcDbEntity
  8
0
  6
Continuous
 62
     7
370
    25
100
AcDbLine
 10
109.9206210238
 20
74.7078397273
 30
0.0
 11
110.346878053
 21
74.7078397273
 31
0.0
  0
SPLINE
  5
AF
330
1F
100
AcDbEntity
  8
0
  6
Continuous
 62
     7
370
    25
100
AcDbSpline
210
0.0
220
0.0
230
1.0
 70
     8
 71
     3
 72
    12
 73
     8
 74
     0
 42
0.000000001
 43
0.00000001
 40
0.0
 40
0.0
 40
0.0
 40
0.0
 40
0.25
 40
0.25
 40
0.5
 40
0.5
 40
1.0
 40
1.0
 40
1.0
 40
1.0
 10
124.125597173583
 20
81.92912046598475
 30
0.0
 10
123.8480751676732
 20
81.92912046598475
 30
0.0
 10
123.5719388407404
 20
81.94884341139269
 30
0.0
 10
123.0211549773278
 20
82.00947987615393
 30
0.0
 10
122.7469465808024
 20
82.0507364218423
 30
0.0
 10
121.9287903031536
 20
82.19250973151438
 30
0.0
 10
121.3878273880486
 20
82.31107677667471
 30
0.0
 10
120.846877911432
 20
82.42912046598475
 30
0.0
  0
SPLINE
  5
B0
330
1F
100
AcDbEntity
  8
0
  6
Continuous
 62
     7
370
    25
100
AcDbSpline
210
0.0
220
0.0
230
1.0
 70
     8
 71
     3
 72
    12
 73
     8
 74
     0
 42
0.000000001
 43
0.00000001
 40
0.0
 40
0.0
 40
0.0
 40
0.0
 40
0.25
 40
0.25
 40
0.5
 40
0.5
 40
1.0
 40
1.0
 40
1.0
 40
1.0
 10
124.125597173583
 20
82.3553776339627
 30
0.0
 10
123.8542927351979
 20
82.3326651322536
 30
0.0
 10
123.5821805366249
 20
82.32515261242439
 30
0.0
 10
123.0364708521276
 20
82.32359653772521
 30
0.0
 10
122.7630748979525
 20
82.33002337956727
 30
0.0
 10
121.9428530208451
 20
82.36024837987163
 30
0.0
 10
121.3945176236582
 20
82.39494390099027
 30
0.0
 10
120.846877911432
 20
82.42912046598475
 30
0.0
  0
LINE
  5
B1
330
1F
100
AcDbEntity
  8
0
  6
Continuous
 62
     7
370
    25
100
AcDbLine
 10
124.1255971727
 20
81.9291203244
 30
0.0
 11
124.1255971727
 21
82.3553773536
 31
0.0
  0
ARC
  5
B2
330
1F
100
AcDbEntity
  8
0
  6
Continuous
 62
     7
370
    25
100
AcDbCircle
 10
125.1656363818
 20
82.9401631607
 30
0.0
 40
1.19317056478842
100
AcDbArc
 50
187.6350926291
 51
209.34786589
  0
SPLINE
  5
B3
330
1F
100
AcDbEntity
  8
0
  6
Continuous
 62
     7
370
    25
100
AcDbSpline
210
0.0
220
0.0
230
1.0
 70
     8
 71
     3
 72
    12
 73
     8
 74
     0
 42
0.000000001
 43
0.00000001
 40
0.0
 40
0.0
 40
0.0
 40
0.0
 40
0.2499999999999999
 40
0.2499999999999999
 40
0.4999999999999998
 40
0.4999999999999998
 40
1.0
 40
1.0
 40
1.0
 40
1.0
 10
123.9830441621851
 20
82.78163480194065
 30
0.0
 10
123.7311639262202
 20
82.73360958429795
 30
0.0
 10
123.4756557357365
 20
82.69692531402306
 30
0.0
 10
122.9593133445566
 20
82.63095142109367
 30
0.0
 10
122.6981442929844
 20
82.60219978852538
 30
0.0
 10
121.909747394111
 20
82.52164488773542
 30
0.0
 10
121.3776505391353
 20
82.47551341111651
 30
0.0
 10
120.846877911432
 20
82.42912046598475
 30
0.0
  0
SPLINE
  5
B4
330
1F
100
AcDbEntity
  8
0
  6
Continuous
 62
     7
370
    25
100
AcDbSpline
210
0.0
220
0.0
230
1.0
 70
     8
 71
     3
 72
    12
 73
     8
 74
     0
 42
0.000000001
 43
0.00000001
 40
0.0
 40
0.0
 40
0.0
 40
0.0
 40
0.25
 40
0.25
 40
0.5
 40
0.5
 40
1.0
 40
1.0
 40
1.0
 40
1.0
 10
131.346877911432
 20
68.15040120383375
 30
0.0
 10
131.346877911432
 20
68.42792320974357
 30
0.0
 10
131.3666008568399
 20
68.70405953667633
 30
0.0
 10
131.4272373216011
 20
69.2548434000889
 30
0.0
 10
131.4684938672895
 20
69.52905179661428
 30
0.0
 10
131.6102671769616
 20
70.3472080742631
 30
0.0
 10
131.7288342221219
 20
70.88817098936809
 30
0.0
 10
131.846877911432
 20
71.42912046598477
 30
0.0
  0
SPLINE
  5
B5
330
1F
100
AcDbEntity
  8
0
  6
Continuous
 62
     7
370
    25
100
AcDbSpline
210
0.0
220
0.0
230
1.0
 70
     8
 71
     3
 72
    12
 73
     8
 74
     0
 42
0.000000001
 43
0.00000001
 40
0.0
 40
0.0
 40
0.0
 40
0.0
 40
0.2500000000000001
 40
0.2500000000000001
 40
0.5000000000000001
 40
0.5000000000000001
 40
1.0
 40
1.0
 40
1.0
 40
1.0
 10
131.7731350794099
 20
68.15040120383375
 30
0.0
 10
131.7504225777008
 20
68.42170564221878
 30
0.0
 10
131.7429100578716
 20
68.69381784079175
 30
0.0
 10
131.7413539831724
 20
69.23952752528893
 30
0.0
 10
131.7477808250145
 20
69.51292347946404
 30
0.0
 10
131.7780058253188
 20
70.33314535657136
 30
0.0
 10
131.8127013464371
 20
70.88148075375862
 30
0.0
 10
131.846877911432
 20
71.42912046598477
 30
0.0
  0
LINE
  5
B6
330
1F
100
AcDbEntity
  8
0
  6
Continuous
 62
     7
370
    25
100
AcDbLine
 10
131.773134799
 20
68.1504012047
 30
0.0
 11
131.3468777699
 21
68.1504012047
 31
0.0
  0
ARC
  5
B7
330
1F
100
AcDbEntity
  8
0
  6
Continuous
 62
     7
370
    25
100
AcDbCircle
 10
132.3579206062
 20
67.1103619956
 30
0.0
 40
1.19317056478842
100
AcDbArc
 50
97.6350926291
 51
119.34786589
  0
SPLINE
  5
B8
330
1F
100
AcDbEntity
  8
0
  6
Continuous
 62
     7
370
    25
100
AcDbSpline
210
0.0
220
0.0
230
1.0
 70
     8
 71
     3
 72
    12
 73
     8
 74
     0
 42
0.000000001
 43
0.00000001
 40
0.0
 40
0.0
 40
0.0
 40
0.0
 40
0.2499999999999999
 40
0.2499999999999999
 40
0.4999999999999999
 40
0.4999999999999999
 40
1.0
 40
1.0
 40
1.0
 40
1.0
 10
132.1993922473879
 20
68.29295421523163
 30
0.0
 10
132.1513502767516
 20
68.54492231645096
 30
0.0
 10
132.1146566341044
 20
68.80052083514279
 30
0.0
 10
132.0486659526734
 20
69.31704720007332
 30
0.0
 10
132.0198924644939
 20
69.57846735942933
 30
0.0
 10
131.9394167574758
 20
70.36615111387371
 30
0.0
 10
131.8932870542752
 20
70.8981626861553
 30
0.0
 10
131.846877911432
 20
71.42912046598477
 30
0.0
  0
LINE
  5
B9
330
1F
100
AcDbEntity
  8
0
  6
Continuous
 62
     7
370
    25
100
AcDbLine
 10
131.3468777699
 20
74.7078397273
 30
0.0
 11
131.773134799
 21
74.7078397273
 31
0.0
  0
SPLINE
  5
BA
330
1F
100
AcDbEntity
  8
0
  6
Continuous
 62
     7
370
    25
100
AcDbSpline
210
0.0
220
0.0
230
1.0
 70
     8
 71
     3
 72
    12
 73
     8
 74
     0
 42
0.000000001
 43
0.00000001
 40
0.0
 40
0.0
 40
0.0
 40
0.0
 40
0.2500000000000001
 40
0.2500000000000001
 40
0.5000000000000001
 40
0.5000000000000001
 40
1.0
 40
1.0
 40
1.0
 40
1.0
 10
131.7731350794099
 20
74.70783972813574
 30
0.0
 10
131.7504225777019
 20
74.43653528976344
 30
0.0
 10
131.7429100578724
 20
74.16442309120328
 30
0.0
 10
131.7413539831719
 20
73.61871340673183
 30
0.0
 10
131.7477808250128
 20
73.34531745256925
 30
0.0
 10
131.7780058253136
 20
72.52509557549983
 30
0.0
 10
131.8127013464274
 20
71.97676017818311
 30
0.0
 10
131.846877911432
 20
71.42912046598477
 30
0.0
  0
SPLINE
  5
BB
330
1F
100
AcDbEntity
  8
0
  6
Continuous
 62
     7
370
    25
100
AcDbSpline
210
0.0
220
0.0
230
1.0
 70
     8
 71
     3
 72
    12
 73
     8
 74
     0
 42
0.000000001
 43
0.00000001
 40
0.0
 40
0.0
 40
0.0
 40
0.0
 40
0.2499999999999999
 40
0.2499999999999999
 40
0.4999999999999999
 40
0.4999999999999999
 40
1.0
 40
1.0
 40
1.0
 40
1.0
 10
131.346877911432
 20
74.70783972813575
 30
0.0
 10
131.346877911432
 20
74.43031772222595
 30
0.0
 10
131.3666008568399
 20
74.1541813952932
 30
0.0
 10
131.4272373216011
 20
73.60339753188062
 30
0.0
 10
131.4684938672895
 20
73.32918913535524
 30
0.0
 10
131.6102671769616
 20
72.51103285770644
 30
0.0
 10
131.7288342221219
 20
71.97006994260144
 30
0.0
 10
131.846877911432
 20
71.42912046598477
 30
0.0
  0
ARC
  5
BC
330
1F
100
AcDbEntity
  8
0
  6
Continuous
 62
     7
370
    25
100
AcDbCircle
 10
132.3579206062
 20
75.7478789364
 30
0.0
 40
1.193170564788403
100
AcDbArc
 50
240.65213411
 51
262.3649073709
  0
SPLINE
  5
BD
330
1F
100
AcDbEntity
  8
0
  6
Continuous
 62
     7
370
    25
100
AcDbSpline
210
0.0
220
0.0
230
1.0
 70
     8
 71
     3
 72
    12
 73
     8
 74
     0
 42
0.000000001
 43
0.00000001
 40
0.0
 40
0.0
 40
0.0
 40
0.0
 40
0.2499999999999999
 40
0.2499999999999999
 40
0.4999999999999998
 40
0.4999999999999998
 40
1.0
 40
1.0
 40
1.0
 40
1.0
 10
132.1993922473879
 20
74.56528671673787
 30
0.0
 10
132.1513502767579
 20
74.31331861555181
 30
0.0
 10
132.1146566341143
 20
74.05772009689422
 30
0.0
 10
132.0486659526896
 20
73.54119373203336
 30
0.0
 10
132.0198924645127
 20
73.27977357271294
 30
0.0
 10
131.939416757502
 20
72.49208981837455
 30
0.0
 10
131.8932870542572
 20
71.9600782457394
 30
0.0
 10
131.846877911432
 20
71.42912046598477
 30
0.0
  0
LINE
  5
BE
330
1F
100
AcDbEntity
  8
0
  6
Continuous
 62
     7
370
    25
100
AcDbLine
 10
111.8468782989
 20
81.9291203244
 30
0.0
 11
111.3468782169
 21
81.9291203244
 31
0.0
  0
LINE
  5
BF
330
1F
100
AcDbEntity
  8
0
  6
Continuous
 62
     7
370
    25
100
AcDbLine
 10
111.3468782169
 20
81.9291203244
 30
0.0
 11
111.3468782169
 21
82.4291204064
 31
0.0
  0
LWPOLYLINE
  5
C0
330
1F
100
AcDbEntity
  8
0
  6
Continuous
 62
     7
370
    25
100
AcDbPolyline
 90
        9
 70
   128
 43
0.0
 10
111.8468782989
 20
81.9291203244
 10
111.7493325037
 20
82.0266651882
 10
111.6555362133
 20
82.12046241
 10
111.5690927145
 20
82.2069059088
 10
111.4933249665
 20
82.2826736568
 10
111.4311433521
 20
82.3448552712
 10
111.3849385766
 20
82.3910600467
 10
111.3564848093
 20
82.4195128827
 10
111.3468782169
 20
82.4291204064
  0
LINE
  5
C1
330
1F
100
AcDbEntity
  8
0
  6
Continuous
 62
     7
370
    25
100
AcDbLine
 10
131.3468777699
 20
80.4291200786
 30
0.0
 11
131.3468777699
 21
80.9291201605
 31
0.0
  0
LINE
  5
C2
330
1F
100
AcDbEntity
  8
0
  6
Continuous
 62
     7
370
    25
100
AcDbLine
 10
131.3468777699
 20
80.9291201605
 30
0.0
 11
131.8468778518
 21
80.9291201605
 31
0.0
  0
LWPOLYLINE
  5
C3
330
1F
100
AcDbEntity
  8
0
  6
Continuous
 62
     7
370
    25
100
AcDbPolyline
 90
        9
 70
   128
 43
0.0
 10
131.3468777699
 20
80.4291200786
 10
131.4444226337
 20
80.5266658737
 10
131.5382198555
 20
80.6204621642
 10
131.6246633542
 20
80.7069056629
 10
131.7004311023
 20
80.7826734109
 10
131.7626127166
 20
80.8448550253
 10
131.8088174922
 20
80.8910598009
 10
131.8372703281
 20
80.9195135682
 10
131.8468778518
 20
80.9291201605
  0
LINE
  5
C4
330
1F
100
AcDbEntity
  8
0
  6
Continuous
 62
     7
370
    25
100
AcDbLine
 10
131.3468777699
 20
74.7078397273
 30
0.0
 11
131.3468777699
 21
80.4291200786
 31
0.0
  0
LINE
  5
C5
330
1F
100
AcDbEntity
  8
0
  6
Continuous
 62
     7
370
    25
100
AcDbLine
 10
131.8468778518
 20
80.9291201605
 30
0.0
 11
131.8468778518
 21
76.1195361576
 31
0.0
  0
SPLINE
  5
C6
330
1F
100
AcDbEntity
  8
0
  6
Continuous
 62
     7
370
    25
100
AcDbSpline
210
0.0
220
0.0
230
1.0
 70
     8
 71
     3
 72
     8
 73
     4
 74
     0
 42
0.000000001
 43
0.00000001
 40
0.0
 40
0.0
 40
0.0
 40
0.0
 40
1.0
 40
1.0
 40
1.0
 40
1.0
 10
131.7731350794099
 20
74.70783972813574
 30
0.0
 10
131.8162162642483
 20
75.18028068408954
 30
0.0
 10
131.846877911432
 20
75.65140586244895
 30
0.0
 10
131.846877911432
 20
76.11953622580819
 30
0.0
  0
LWPOLYLINE
  5
C7
330
1F
100
AcDbEntity
  8
0
  6
Continuous
 62
     7
370
    25
100
AcDbPolyline
 90
        9
 70
   128
 43
0.0
 10
129.846877524
 20
81.9291203244
 10
129.9444233191
 20
82.0266651882
 10
130.0382196096
 20
82.12046241
 10
130.1246631083
 20
82.2069059088
 10
130.2004308564
 20
82.2826736568
 10
130.2626124707
 20
82.3448552712
 10
130.3088172463
 20
82.3910600467
 10
130.3372710136
 20
82.4195128827
 10
130.346877606
 20
82.4291204064
  0
LINE
  5
C8
330
1F
100
AcDbEntity
  8
0
  6
Continuous
 62
     7
370
    25
100
AcDbLine
 10
129.846877524
 20
81.9291203244
 30
0.0
 11
124.1255971727
 21
81.9291203244
 31
0.0
  0
SPLINE
  5
C9
330
1F
100
AcDbEntity
  8
0
  6
Continuous
 62
     7
370
    25
100
AcDbSpline
210
0.0
220
0.0
230
1.0
 70
     8
 71
     3
 72
     8
 73
     4
 74
     0
 42
0.000000001
 43
0.00000001
 40
0.0
 40
0.0
 40
0.0
 40
0.0
 40
1.0
 40
1.0
 40
1.0
 40
1.0
 10
125.5372936712554
 20
82.42912046598475
 30
0.0
 10
125.0690692474818
 20
82.42912046598475
 30
0.0
 10
124.5980887631122
 20
82.39846343600118
 30
0.0
 10
124.125597173583
 20
82.3553776339627
 30
0.0
  0
LINE
  5
CA
330
1F
100
AcDbEntity
  8
0
  6
Continuous
 62
     7
370
    25
100
AcDbLine
 10
125.537293603
 20
82.4291204064
 30
0.0
 11
130.346877606
 21
82.4291204064
 31
0.0
  0
LINE
  5
CB
330
1F
100
AcDbEntity
  8
0
  6
Continuous
 62
     7
370
    25
100
AcDbLine
 10
117.5681586501
 20
81.9291203244
 30
0.0
 11
111.8468782989
 21
81.9291203244
 31
0.0
  0
LINE
  5
CC
330
1F
100
AcDbEntity
  8
0
  6
Continuous
 62
     7
370
    25
100
AcDbLine
 10
111.3468782169
 20
82.4291204064
 30
0.0
 11
116.1564622198
 21
82.4291204064
 31
0.0
  0
SPLINE
  5
CD
330
1F
100
AcDbEntity
  8
0
  6
Continuous
 62
     7
370
    25
100
AcDbSpline
210
0.0
220
0.0
230
1.0
 70
     8
 71
     3
 72
     8
 73
     4
 74
     0
 42
0.000000001
 43
0.00000001
 40
0.0
 40
0.0
 40
0.0
 40
0.0
 40
1.0
 40
1.0
 40
1.0
 40
1.0
 10
117.568158649281
 20
82.3553776339627
 30
0.0
 10
117.0957176933272
 20
82.39845881880109
 30
0.0
 10
116.6245925149678
 20
82.42912046598475
 30
0.0
 10
116.1564621516085
 20
82.42912046598475
 30
0.0
  0
SPLINE
  5
CE
330
1F
100
AcDbEntity
  8
0
  6
Continuous
 62
     7
370
    25
100
AcDbSpline
210
0.0
220
0.0
230
1.0
 70
     8
 71
     3
 72
     8
 73
     4
 74
     0
 42
0.000000001
 43
0.00000001
 40
0.0
 40
0.0
 40
0.0
 40
0.0
 40
1.0
 40
1.0
 40
1.0
 40
1.0
 10
116.3603932716009
 20
82.92912046598477
 30
0.0
 10
116.8041755695123
 20
82.92912046598477
 30
0.0
 10
117.2534157657462
 20
82.86882598149916
 30
0.0
 10
117.7107116606789
 20
82.78163480194064
 30
0.0
  0
LINE
  5
CF
330
1F
100
AcDbEntity
  8
0
  6
Continuous
 62
     7
370
    25
100
AcDbLine
 10
111.281660491
 20
82.9291204883
 30
0.0
 11
116.3603934583
 21
82.9291204883
 31
0.0
  0
LINE
  5
D0
330
1F
100
AcDbEntity
  8
0
  6
Continuous
 62
     7
370
    25
100
AcDbLine
 10
111.281660491
 20
81.9291203244
 30
0.0
 11
111.281660491
 21
82.9291204883
 31
0.0
  0
SPLINE
  5
D1
330
1F
100
AcDbEntity
  8
0
  6
Continuous
 62
     7
370
    25
100
AcDbSpline
210
0.0
220
0.0
230
1.0
 70
     8
 71
     3
 72
    10
 73
     6
 74
     0
 42
0.000000001
 43
0.00000001
 40
0.0
 40
0.0
 40
0.0
 40
0.0
 40
0.5
 40
0.5
 40
1.0
 40
1.0
 40
1.0
 40
1.0
 10
111.1415811546081
 20
81.57556707539149
 30
0.0
 10
111.1755880380653
 20
81.61111972627857
 30
0.0
 10
111.2084501760148
 20
81.65553049810562
 30
0.0
 10
111.2616533789624
 20
81.77211563614665
 30
0.0
 10
111.2816605201276
 20
81.84788364525633
 30
0.0
 10
111.2816605201276
 20
81.92912046598477
 30
0.0
  0
SPLINE
  5
D2
330
1F
100
AcDbEntity
  8
0
  6
Continuous
 62
     7
370
    25
100
AcDbSpline
210
0.0
220
0.0
230
1.0
 70
     8
 71
     3
 72
    10
 73
     6
 74
     0
 42
0.000000001
 43
0.00000001
 40
0.0
 40
0.0
 40
0.0
 40
0.0
 40
0.5
 40
0.5
 40
1.0
 40
1.0
 40
1.0
 40
1.0
 10
130.4120953027363
 20
81.92912046598475
 30
0.0
 10
130.4120953027363
 20
81.84788364525632
 30
0.0
 10
130.4321024439015
 20
81.77211563614664
 30
0.0
 10
130.4853056468491
 20
81.6555304981056
 30
0.0
 10
130.5181677847986
 20
81.61111972627856
 30
0.0
 10
130.5521746682558
 20
81.57556707539149
 30
0.0
  0
LINE
  5
D3
330
1F
100
AcDbEntity
  8
0
  6
Continuous
 62
     7
370
    25
100
AcDbLine
 10
130.4120953319
 20
82.9291204883
 30
0.0
 11
130.4120953319
 21
81.9291203244
 31
0.0
  0
LINE
  5
D4
330
1F
100
AcDbEntity
  8
0
  6
Continuous
 62
     7
370
    25
100
AcDbLine
 10
125.3333623645
 20
82.9291204883
 30
0.0
 11
130.4120953319
 21
82.9291204883
 31
0.0
  0
SPLINE
  5
D5
330
1F
100
AcDbEntity
  8
0
  6
Continuous
 62
     7
370
    25
100
AcDbSpline
210
0.0
220
0.0
230
1.0
 70
     8
 71
     3
 72
     8
 73
     4
 74
     0
 42
0.000000001
 43
0.00000001
 40
0.0
 40
0.0
 40
0.0
 40
0.0
 40
1.0
 40
1.0
 40
1.0
 40
1.0
 10
123.9830441621851
 20
82.78163480194065
 30
0.0
 10
124.4403400571178
 20
82.86882598149917
 30
0.0
 10
124.8895802533517
 20
82.92912046598477
 30
0.0
 10
125.3333625512631
 20
82.92912046598477
 30
0.0
  0
ARC
  5
D6
330
1F
100
AcDbEntity
  8
0
  6
Continuous
 62
     7
370
    25
100
AcDbCircle
 10
131.3468779114
 20
81.929120466
 30
0.0
 40
1.5
100
AcDbArc
 50
180.0
 51
270.0
  0
LINE
  5
D7
330
1F
100
AcDbEntity
  8
0
  6
Continuous
 62
     7
370
    25
100
AcDbLine
 10
129.846877524
 20
81.9291203244
 30
0.0
 11
130.346877606
 21
81.9291203244
 31
0.0
  0
ARC
  5
D8
330
1F
100
AcDbEntity
  8
0
  6
Continuous
 62
     7
370
    25
100
AcDbCircle
 10
131.3468779114
 20
81.929120466
 30
0.0
 40
1.0
100
AcDbArc
 50
180.0
 51
270.0
  0
LWPOLYLINE
  5
D9
330
1F
100
AcDbEntity
  8
0
  6
Continuous
 62
     7
370
    25
100
AcDbPolyline
 90
        9
 70
   128
 43
0.0
 10
109.846877971
 20
80.9291201605
 10
109.8564854947
 20
80.9195135682
 10
109.8849383307
 20
80.8910598009
 10
109.9311431063
 20
80.8448550253
 10
109.9933247206
 20
80.7826734109
 10
110.0690924687
 20
80.7069056629
 10
110.1555359674
 20
80.6204621642
 10
110.2493331892
 20
80.5266658737
 10
110.346878053
 20
80.4291200786
  0
LINE
  5
DA
330
1F
100
AcDbEntity
  8
0
  6
Continuous
 62
     7
370
    25
100
AcDbLine
 10
109.846877971
 20
80.9291201605
 30
0.0
 11
110.346878053
 21
80.9291201605
 31
0.0
  0
LINE
  5
DB
330
1F
100
AcDbEntity
  8
0
  6
Continuous
 62
     7
370
    25
100
AcDbLine
 10
110.346878053
 20
80.4291200786
 30
0.0
 11
110.346878053
 21
80.9291201605
 31
0.0
  0
LWPOLYLINE
  5
DC
330
1F
100
AcDbEntity
  8
0
  6
Continuous
 62
     7
370
    25
100
AcDbPolyline
 90
        9
 70
   128
 43
0.0
 10
131.3468777699
 20
61.9291207715
 10
131.4444226337
 20
61.8315749763
 10
131.5382198555
 20
61.7377786859
 10
131.6246633542
 20
61.6513351871
 10
131.7004311023
 20
61.5755674391
 10
131.7626127166
 20
61.5133858247
 10
131.8088174922
 20
61.4671810492
 10
131.8372703281
 20
61.4387282132
 10
131.8468778518
 20
61.4291206895
  0
LINE
  5
DD
330
1F
100
AcDbEntity
  8
0
  6
Continuous
 62
     7
370
    25
100
AcDbLine
 10
131.3468777699
 20
61.9291207715
 30
0.0
 11
131.3468777699
 21
68.1504012047
 31
0.0
  0
SPLINE
  5
DE
330
1F
100
AcDbEntity
  8
0
  6
Continuous
 62
     7
370
    25
100
AcDbSpline
210
0.0
220
0.0
230
1.0
 70
     8
 71
     3
 72
     8
 73
     4
 74
     0
 42
0.000000001
 43
0.00000001
 40
0.0
 40
0.0
 40
0.0
 40
0.0
 40
1.0
 40
1.0
 40
1.0
 40
1.0
 10
131.846877911432
 20
66.73870470616133
 30
0.0
 10
131.846877911432
 20
67.20692912993489
 30
0.0
 10
131.8162208814484
 20
67.6779096143045
 30
0.0
 10
131.7731350794099
 20
68.15040120383375
 30
0.0
  0
LINE
  5
DF
330
1F
100
AcDbEntity
  8
0
  6
Continuous
 62
     7
370
    25
100
AcDbLine
 10
131.8468778518
 20
66.7387047744
 30
0.0
 11
131.8468778518
 21
61.4291206895
 31
0.0
  0
LINE
  5
E0
330
1F
100
AcDbEntity
  8
0
  6
Continuous
 62
     7
370
    25
100
AcDbLine
 10
130.346877606
 20
82.4291204064
 30
0.0
 11
130.346877606
 21
81.9291203244
 31
0.0
  0
LINE
  5
E1
330
1F
100
AcDbEntity
  8
0
  6
Continuous
 62
     7
370
    25
100
AcDbLine
 10
110.346878053
 20
80.4291200786
 30
0.0
 11
110.346878053
 21
74.7078397273
 31
0.0
  0
SPLINE
  5
E2
330
1F
100
AcDbEntity
  8
0
  6
Continuous
 62
     7
370
    25
100
AcDbSpline
210
0.0
220
0.0
230
1.0
 70
     8
 71
     3
 72
     8
 73
     4
 74
     0
 42
0.000000001
 43
0.00000001
 40
0.0
 40
0.0
 40
0.0
 40
0.0
 40
1.0
 40
1.0
 40
1.0
 40
1.0
 10
109.846877911432
 20
76.11953622580819
 30
0.0
 10
109.846877911432
 20
75.65131180203463
 30
0.0
 10
109.8775349414155
 20
75.18033131766504
 30
0.0
 10
109.920620743454
 20
74.70783972813575
 30
0.0
  0
LINE
  5
E3
330
1F
100
AcDbEntity
  8
0
  6
Continuous
 62
     7
370
    25
100
AcDbLine
 10
109.846877971
 20
76.1195361576
 30
0.0
 11
109.846877971
 21
80.9291201605
 31
0.0
  0
SPLINE
  5
E4
330
1F
100
AcDbEntity
  8
0
  6
Continuous
 62
     7
370
    25
100
AcDbSpline
210
0.0
220
0.0
230
1.0
 70
     8
 71
     3
 72
    10
 73
     6
 74
     0
 42
0.000000001
 43
0.00000001
 40
0.0
 40
0.0
 40
0.0
 40
0.0
 40
0.5
 40
0.5
 40
1.0
 40
1.0
 40
1.0
 40
1.0
 10
110.346877911432
 20
80.99433785728911
 30
0.0
 10
110.4281147321604
 20
80.99433785728911
 30
0.0
 10
110.5038827412701
 20
81.01434499845429
 30
0.0
 10
110.6204678793111
 20
81.06754820140192
 30
0.0
 10
110.6648786511382
 20
81.1004103393514
 30
0.0
 10
110.7004313020252
 20
81.1344172228086
 30
0.0
  0
LINE
  5
E5
330
1F
100
AcDbEntity
  8
0
  6
Continuous
 62
     7
370
    25
100
AcDbLine
 10
109.3468778891
 20
80.9943378864
 30
0.0
 11
110.346878053
 21
80.9943378864
 31
0.0
  0
LINE
  5
E6
330
1F
100
AcDbEntity
  8
0
  6
Continuous
 62
     7
370
    25
100
AcDbLine
 10
109.3468778891
 20
75.9156049191
 30
0.0
 11
109.3468778891
 21
80.9943378864
 31
0.0
  0
SPLINE
  5
E7
330
1F
100
AcDbEntity
  8
0
  6
Continuous
 62
     7
370
    25
100
AcDbSpline
210
0.0
220
0.0
230
1.0
 70
     8
 71
     3
 72
     8
 73
     4
 74
     0
 42
0.000000001
 43
0.00000001
 40
0.0
 40
0.0
 40
0.0
 40
0.0
 40
1.0
 40
1.0
 40
1.0
 40
1.0
 10
109.4943635754761
 20
74.56528671673789
 30
0.0
 10
109.4071723959176
 20
75.02258261167059
 30
0.0
 10
109.346877911432
 20
75.47182280790447
 30
0.0
 10
109.346877911432
 20
75.91560510581587
 30
0.0
  0
SPLINE
  5
E8
330
1F
100
AcDbEntity
  8
0
  6
Continuous
 62
     7
370
    25
100
AcDbSpline
210
0.0
220
0.0
230
1.0
 70
     8
 71
     3
 72
     8
 73
     4
 74
     0
 42
0.000000001
 43
0.00000001
 40
0.0
 40
0.0
 40
0.0
 40
0.0
 40
1.0
 40
1.0
 40
1.0
 40
1.0
 10
109.346877911432
 20
66.94263582615366
 30
0.0
 10
109.346877911432
 20
67.38641812406509
 30
0.0
 10
109.4071723959176
 20
67.835658320299
 30
0.0
 10
109.4943635754761
 20
68.29295421523173
 30
0.0
  0
LINE
  5
E9
330
1F
100
AcDbEntity
  8
0
  6
Continuous
 62
     7
370
    25
100
AcDbLine
 10
109.3468778891
 20
61.3856418951
 30
0.0
 11
109.3468778891
 21
66.9426360129
 31
0.0
  0
LINE
  5
EA
330
1F
100
AcDbEntity
  8
0
  6
Continuous
 62
     7
370
    25
100
AcDbLine
 10
132.3468779338
 20
61.3856418951
 30
0.0
 11
109.3468778891
 21
61.3856418951
 31
0.0
  0
LINE
  5
EB
330
1F
100
AcDbEntity
  8
0
  6
Continuous
 62
     7
370
    25
100
AcDbLine
 10
132.3468779338
 20
66.9426360129
 30
0.0
 11
132.3468779338
 21
61.3856418951
 31
0.0
  0
SPLINE
  5
EC
330
1F
100
AcDbEntity
  8
0
  6
Continuous
 62
     7
370
    25
100
AcDbSpline
210
0.0
220
0.0
230
1.0
 70
     8
 71
     3
 72
     8
 73
     4
 74
     0
 42
0.000000001
 43
0.00000001
 40
0.0
 40
0.0
 40
0.0
 40
0.0
 40
1.0
 40
1.0
 40
1.0
 40
1.0
 10
132.1993922473879
 20
68.29295421523163
 30
0.0
 10
132.2865834269464
 20
67.83565832029895
 30
0.0
 10
132.346877911432
 20
67.38641812406506
 30
0.0
 10
132.346877911432
 20
66.94263582615366
 30
0.0
  0
SPLINE
  5
ED
330
1F
100
AcDbEntity
  8
0
  6
Continuous
 62
     7
370
    25
100
AcDbSpline
210
0.0
220
0.0
230
1.0
 70
     8
 71
     3
 72
     8
 73
     4
 74
     0
 42
0.000000001
 43
0.00000001
 40
0.0
 40
0.0
 40
0.0
 40
0.0
 40
1.0
 40
1.0
 40
1.0
 40
1.0
 10
132.346877911432
 20
75.91560510581587
 30
0.0
 10
132.346877911432
 20
75.47182280790447
 30
0.0
 10
132.2865834269464
 20
75.02258261167057
 30
0.0
 10
132.1993922473879
 20
74.56528671673787
 30
0.0
  0
LINE
  5
EE
330
1F
100
AcDbEntity
  8
0
  6
Continuous
 62
     7
370
    25
100
AcDbLine
 10
132.3468779338
 20
80.9943378864
 30
0.0
 11
132.3468779338
 21
75.9156049191
 31
0.0
  0
LINE
  5
EF
330
1F
100
AcDbEntity
  8
0
  6
Continuous
 62
     7
370
    25
100
AcDbLine
 10
131.3468777699
 20
80.9943378864
 30
0.0
 11
132.3468779338
 21
80.9943378864
 31
0.0
  0
SPLINE
  5
F0
330
1F
100
AcDbEntity
  8
0
  6
Continuous
 62
     7
370
    25
100
AcDbSpline
210
0.0
220
0.0
230
1.0
 70
     8
 71
     3
 72
    10
 73
     6
 74
     0
 42
0.000000001
 43
0.00000001
 40
0.0
 40
0.0
 40
0.0
 40
0.0
 40
0.5
 40
0.5
 40
1.0
 40
1.0
 40
1.0
 40
1.0
 10
130.9933245208387
 20
81.13441722280858
 30
0.0
 10
131.0288771717258
 20
81.10041033935138
 30
0.0
 10
131.0732879435528
 20
81.0675482014019
 30
0.0
 10
131.1898730815938
 20
81.01434499845429
 30
0.0
 10
131.2656410907036
 20
80.9943378572891
 30
0.0
 10
131.346877911432
 20
80.9943378572891
 30
0.0
  0
LINE
  5
F1
330
1F
100
AcDbEntity
  8
0
  6
Continuous
 62
     7
370
    25
100
AcDbLine
 10
110.346878053
 20
61.9291207715
 30
0.0
 11
131.3468777699
 21
61.9291207715
 31
0.0
  0
LINE
  5
F2
330
1F
100
AcDbEntity
  8
0
  6
Continuous
 62
     7
370
    25
100
AcDbLine
 10
110.346878053
 20
68.1504012047
 30
0.0
 11
110.346878053
 21
61.9291207715
 31
0.0
  0
ARC
  5
F3
330
1F
100
AcDbEntity
  8
0
  6
Continuous
 62
     7
370
    25
100
AcDbCircle
 10
110.3468779114
 20
81.929120466
 30
0.0
 40
1.5
100
AcDbArc
 50
270.0
 51
0.0
  0
ELLIPSE
  5
F4
330
1F
100
AcDbEntity
  8
0
  6
Continuous
 62
     7
370
    25
100
AcDbEllipse
 10
127.1527433736
 20
67.7115016044
 30
0.0
 11
0.5743721957241519
 21
1.250555214937776E-12
 31
0.0
210
0.0
220
0.0
230
1.0
 40
0.9531667975
 41
0.435791898753024
 42
2.705800754832464
  0
LINE
  5
F5
330
1F
100
AcDbEntity
  8
0
  6
Continuous
 62
     7
370
    25
100
AcDbLine
 10
126.6320544419
 20
67.9426052103
 30
0.0
 11
125.5224851084
 21
64.8402987009
 31
0.0
  0
LINE
  5
F6
330
1F
100
AcDbEntity
  8
0
  6
Continuous
 62
     7
370
    25
100
AcDbLine
 10
128.7832605777
 20
64.839575529
 30
0.0
 11
127.6734323365
 21
67.9426052103
 31
0.0
  0
ELLIPSE
  5
F7
330
1F
100
AcDbEntity
  8
0
  6
Continuous
 62
     7
370
    25
100
AcDbEllipse
 10
125.3808160646
 20
63.2501900466
 30
0.0
 11
0.07471508237067326
 21
0.0
 31
0.0
210
0.0
220
0.0
230
1.0
 40
0.9531667975
 41
3.605240262591932
 42
5.462183310213286
  0
ELLIPSE
  5
F8
330
1F
100
AcDbEntity
  8
0
  6
Continuous
 62
     7
370
    25
100
AcDbEllipse
 10
129.3490090387
 20
65.0234116779
 30
0.0
 11
-0.5977206589647892
 21
-1.705302565824240E-13
 31
0.0
210
0.0
220
0.0
230
1.0
 40
0.9531667975
 41
0.3285531705513836
 42
2.110876526947284
  0
LINE
  5
F9
330
1F
100
AcDbEntity
  8
0
  6
Continuous
 62
     7
370
    25
100
AcDbLine
 10
129.6930565623
 20
64.5557456611
 30
0.0
 11
129.6563596589
 21
64.5347750707
 31
0.0
  0
LINE
  5
FA
330
1F
100
AcDbEntity
  8
0
  6
Continuous
 62
     7
370
    25
100
AcDbLine
 10
128.9914977861
 20
63.2183412983
 30
0.0
 11
129.6930565623
 21
64.5557456611
 31
0.0
  0
ELLIPSE
  5
FB
330
1F
100
AcDbEntity
  8
0
  6
Continuous
 62
     7
370
    25
100
AcDbEllipse
 10
128.9246706826
 20
63.2501900466
 30
0.0
 11
0.0747150823706022
 21
2.842170943040401E-14
 31
0.0
210
0.0
220
0.0
230
1.0
 40
0.9531667976
 41
3.962594650565201
 42
5.81953769816945
  0
ELLIPSE
  5
FC
330
1F
100
AcDbEntity
  8
0
  6
Continuous
 62
     7
370
    25
100
AcDbEllipse
 10
127.1527433736
 20
61.4364874621
 30
0.0
 11
2.525369784127093
 21
-1.634248292248230E-13
 31
0.0
210
0.0
220
0.0
230
1.0
 40
0.9531667975
 41
0.8210019969639382
 42
2.320590656625489
  0
LINE
  5
FD
330
1F
100
AcDbEntity
  8
0
  6
Continuous
 62
     7
370
    25
100
AcDbLine
 10
124.6124306818
 20
64.5557456611
 30
0.0
 11
125.3139889923
 21
63.2183412983
 31
0.0
  0
LINE
  5
FE
330
1F
100
AcDbEntity
  8
0
  6
Continuous
 62
     7
370
    25
100
AcDbLine
 10
124.6578759638
 20
64.5307363904
 30
0.0
 11
124.6124306818
 21
64.5557456611
 31
0.0
  0
ELLIPSE
  5
FF
330
1F
100
AcDbEntity
  8
0
  6
Continuous
 62
     7
370
    25
100
AcDbEllipse
 10
124.9567363391
 20
65.0241347976
 30
0.0
 11
-0.5977206589639081
 21
5.684341886080801E-14
 31
0.0
210
0.0
220
0.0
230
1.0
 40
0.9531667975
 41
1.047197551195598
 42
2.813039483037423
  0
ELLIPSE
  5
100
330
1F
100
AcDbEntity
  8
0
  6
Continuous
 62
     7
370
    25
100
AcDbEllipse
 10
126.8851890307
 20
64.9118251287
 30
0.0
 11
-0.07471508237065905
 21
0.0
 31
0.0
210
0.0
220
0.0
230
1.0
 40
0.9531667975
 41
5.940161364897888
 42
7.853981633974483
  0
ELLIPSE
  5
101
330
1F
100
AcDbEntity
  8
0
  6
Continuous
 62
     7
370
    25
100
AcDbEllipse
 10
127.1527433754
 20
65.6258920945
 30
0.0
 11
0.07471508237065905
 21
0.0
 31
0.0
210
0.0
220
0.0
230
1.0
 40
0.9531667975
 41
0.3430239404209255
 42
2.798568713168552
  0
LINE
  5
102
330
1F
100
AcDbEntity
  8
0
  6
Continuous
 62
     7
370
    25
100
AcDbLine
 10
127.4906598156
 20
64.9357774256
 30
0.0
 11
127.223105741
 21
65.6498447953
 31
0.0
  0
LINE
  5
103
330
1F
100
AcDbEntity
  8
0
  6
Continuous
 62
     7
370
    25
100
AcDbLine
 10
126.885188849
 20
64.840609297
 30
0.0
 11
127.4202979294
 21
64.840609297
 31
0.0
  0
LINE
  5
104
330
1F
100
AcDbEntity
  8
0
  6
Continuous
 62
     7
370
    25
100
AcDbLine
 10
127.0823810374
 20
65.6498447953
 30
0.0
 11
126.8148264972
 21
64.9357774256
 31
0.0
  0
ELLIPSE
  5
105
330
1F
100
AcDbEntity
  8
0
  6
Continuous
 62
     7
370
    25
100
AcDbEllipse
 10
127.4202977169
 20
64.9118251287
 30
0.0
 11
0.07471508237061641
 21
2.842170943040401E-14
 31
0.0
210
0.0
220
0.0
230
1.0
 40
0.9531667975
 41
4.712388980384341
 42
6.626209245754551
  0
LWPOLYLINE
  5
106
330
1F
100
AcDbEntity
  8
0
  6
Continuous
 62
     7
370
    25
100
AcDbPolyline
 90
        9
 70
   128
 43
0.0
 10
110.346878053
 20
61.9291207715
 10
110.2493331892
 20
61.8315749763
 10
110.1555359674
 20
61.7377786859
 10
110.0690924687
 20
61.6513351871
 10
109.9933247206
 20
61.5755674391
 10
109.9311431063
 20
61.5133858247
 10
109.8849383307
 20
61.4671810492
 10
109.8564854947
 20
61.4387282132
 10
109.846877971
 20
61.4291206895
  0
LINE
  5
107
330
1F
100
AcDbEntity
  8
0
  6
Continuous
 62
     7
370
    25
100
AcDbLine
 10
109.846877971
 20
61.4291206895
 30
0.0
 11
109.846877971
 21
66.7387047744
 31
0.0
  0
SPLINE
  5
108
330
1F
100
AcDbEntity
  8
0
  6
Continuous
 62
     7
370
    25
100
AcDbSpline
210
0.0
220
0.0
230
1.0
 70
     8
 71
     3
 72
     8
 73
     4
 74
     0
 42
0.000000001
 43
0.00000001
 40
0.0
 40
0.0
 40
0.0
 40
0.0
 40
1.0
 40
1.0
 40
1.0
 40
1.0
 10
109.920620743454
 20
68.15040120383378
 30
0.0
 10
109.8775395586156
 20
67.67796024788001
 30
0.0
 10
109.846877911432
 20
67.20683506952058
 30
0.0
 10
109.846877911432
 20
66.73870470616133
 30
0.0
  0
LINE
  5
109
330
1F
100
AcDbEntity
  8
0
  6
Continuous
 62
     7
370
    25
100
AcDbLine
 10
131.8468778518
 20
61.4291206895
 30
0.0
 11
109.846877971
 21
61.4291206895
 31
0.0
  0
ARC
  5
10A
330
1F
100
AcDbEntity
  8
0
  6
Continuous
 62
     7
370
    25
100
AcDbCircle
 10
110.3468779114
 20
81.929120466
 30
0.0
 40
1.0
100
AcDbArc
 50
270.0
 51
0.0
  0
LWPOLYLINE
  5
10B
330
1F
100
AcDbEntity
  8
0
  6
Continuous
 62
     7
370
    25
100
AcDbPolyline
 90
        9
 70
   128
 43
0.0
 10
131.8468778518
 20
76.1195361576
 10
131.8564853755
 20
76.0797514542
 10
131.8849382115
 20
76.0414950511
 10
131.9311429871
 20
76.0062379724
 10
131.9933246014
 20
75.9753352924
 10
132.0690923495
 20
75.949973516
 10
132.1555358482
 20
75.9311286694
 10
132.24933307
 20
75.9195234588
 10
132.3468779338
 20
75.9156049191
  0
LWPOLYLINE
  5
10C
330
1F
100
AcDbEntity
  8
0
  6
Continuous
 62
     7
370
    25
100
AcDbPolyline
 90
        9
 70
   128
 43
0.0
 10
125.3333623645
 20
82.9291204883
 10
125.3372809042
 20
82.8315756245
 10
125.3488861148
 20
82.7377784027
 10
125.3677309615
 20
82.651334904
 10
125.3930927378
 20
82.5755671559
 10
125.4239954178
 20
82.5133855416
 10
125.4592524966
 20
82.467180766
 10
125.4975088996
 20
82.4387279301
 10
125.537293603
 20
82.4291204064
  0
LWPOLYLINE
  5
10D
330
1F
100
AcDbEntity
  8
0
  6
Continuous
 62
     7
370
    25
100
AcDbPolyline
 90
        9
 70
   128
 43
0.0
 10
109.3468778891
 20
66.9426360129
 10
109.4444227529
 20
66.9387174732
 10
109.5382199747
 20
66.9271122626
 10
109.6246634734
 20
66.9082674159
 10
109.7004312215
 20
66.8829056396
 10
109.7626128358
 20
66.8520029596
 10
109.8088176114
 20
66.8167458809
 10
109.8372704474
 20
66.7784894778
 10
109.846877971
 20
66.7387047744
  0
LWPOLYLINE
  5
10E
330
1F
100
AcDbEntity
  8
0
  6
Continuous
 62
     7
370
    25
100
AcDbPolyline
 90
        9
 70
   128
 43
0.0
 10
109.3468778891
 20
75.9156049191
 10
109.4444227529
 20
75.9195234588
 10
109.5382199747
 20
75.9311286694
 10
109.6246634734
 20
75.949973516
 10
109.7004312215
 20
75.9753352924
 10
109.7626128358
 20
76.0062379724
 10
109.8088176114
 20
76.0414950511
 10
109.8372704474
 20
76.0797514542
 10
109.846877971
 20
76.1195361576
  0
LWPOLYLINE
  5
10F
330
1F
100
AcDbEntity
  8
0
  6
Continuous
 62
     7
370
    25
100
AcDbPolyline
 90
        9
 70
   128
 43
0.0
 10
116.1564622198
 20
82.4291204064
 10
116.1962469233
 20
82.4387279301
 10
116.2345033263
 20
82.467180766
 10
116.269760405
 20
82.5133855416
 10
116.300663085
 20
82.5755671559
 10
116.3260248614
 20
82.651334904
 10
116.344869708
 20
82.7377784027
 10
116.3564749186
 20
82.8315756245
 10
116.3603934583
 20
82.9291204883
  0
LWPOLYLINE
  5
110
330
1F
100
AcDbEntity
  8
0
  6
Continuous
 62
     7
370
    25
100
AcDbPolyline
 90
        9
 70
   128
 43
0.0
 10
132.3468779338
 20
66.9426360129
 10
132.24933307
 20
66.9387174732
 10
132.1555358482
 20
66.9271122626
 10
132.0690923495
 20
66.9082674159
 10
131.9933246014
 20
66.8829056396
 10
131.9311429871
 20
66.8520029596
 10
131.8849382115
 20
66.8167458809
 10
131.8564853755
 20
66.7784894778
 10
131.8468778518
 20
66.7387047744
  0
SPLINE
  5
111
330
1F
100
AcDbEntity
  8
0
  6
Continuous
 62
     7
370
    25
100
AcDbSpline
210
0.0
220
0.0
230
1.0
 70
     8
 71
     3
 72
     8
 73
     4
 74
     0
 42
0.000000001
 43
0.00000001
 40
0.0
 40
0.0
 40
0.0
 40
0.0
 40
1.0
 40
1.0
 40
1.0
 40
1.0
 10
109.5985754353873
 20
80.92912046598475
 30
0.0
 10
109.5183646569888
 20
80.92912046598475
 30
0.0
 10
109.4323641602661
 20
80.95305108809299
 30
0.0
 10
109.346877911432
 20
80.99433785728911
 30
0.0
  0
SPLINE
  5
112
330
1F
100
AcDbEntity
  8
0
  6
Continuous
 62
     7
370
    25
100
AcDbSpline
210
0.0
220
0.0
230
1.0
 70
    24
 71
     3
 72
    10
 73
     6
 74
     0
 42
0.000000001
 43
0.00000001
 40
0.0
 40
0.0
 40
0.0
 40
0.0
 40
0.5
 40
0.5
 40
1.0
 40
1.0
 40
1.0
 40
1.0
 10
109.5985754353873
 20
80.92912046598475
 30
0.0
 10
109.6940525043187
 20
80.92912046598475
 30
0.0
 10
109.7509313095273
 20
80.92912046598477
 30
0.0
 10
109.8280288180546
 20
80.92912046598475
 30
0.0
 10
109.8468779114318
 20
80.92912046598477
 30
0.0
 10
109.846877911432
 20
80.92912046598475
 30
0.0
  0
SPLINE
  5
113
330
1F
100
AcDbEntity
  8
0
  6
Continuous
 62
     7
370
    25
100
AcDbSpline
210
0.0
220
0.0
230
1.0
 70
     8
 71
     3
 72
     8
 73
     4
 74
     0
 42
0.000000001
 43
0.00000001
 40
0.0
 40
0.0
 40
0.0
 40
0.0
 40
1.0
 40
1.0
 40
1.0
 40
1.0
 10
132.138783232723
 20
61.42912046598477
 30
0.0
 10
132.2063728278245
 20
61.42912046598477
 30
0.0
 10
132.2766641113434
 20
61.4136503018946
 30
0.0
 10
132.346877911432
 20
61.3856422051152
 30
0.0
  0
SPLINE
  5
114
330
1F
100
AcDbEntity
  8
0
  6
Continuous
 62
     7
370
    25
100
AcDbSpline
210
0.0
220
0.0
230
1.0
 70
    24
 71
     3
 72
    12
 73
     8
 74
     0
 42
0.000000001
 43
0.00000001
 40
0.0
 40
0.0
 40
0.0
 40
0.0
 40
0.2499999999999997
 40
0.2499999999999997
 40
0.4999999999999993
 40
0.4999999999999993
 40
1.0
 40
1.0
 40
1.0
 40
1.0
 10
132.138783232723
 20
61.42912046598477
 30
0.0
 10
132.0783634861942
 20
61.42912046598477
 30
0.0
 10
132.035017233131
 20
61.42912046598477
 30
0.0
 10
131.9621476150628
 20
61.42912046598477
 30
0.0
 10
131.9344956075984
 20
61.42912046598476
 30
0.0
 10
131.8684640386583
 20
61.42912046598476
 30
0.0
 10
131.846877911432
 20
61.42912046598477
 30
0.0
 10
131.846877911432
 20
61.42912046598477
 30
0.0
  0
SPLINE
  5
115
330
1F
100
AcDbEntity
  8
0
  6
Continuous
 62
     7
370
    25
100
AcDbSpline
210
0.0
220
0.0
230
1.0
 70
     8
 71
     3
 72
     8
 73
     4
 74
     0
 42
0.000000001
 43
0.00000001
 40
0.0
 40
0.0
 40
0.0
 40
0.0
 40
1.0
 40
1.0
 40
1.0
 40
1.0
 10
130.346877911432
 20
82.67742294202938
 30
0.0
 10
130.346877911432
 20
82.75763372042793
 30
0.0
 10
130.3708085335406
 20
82.8436342171498
 30
0.0
 10
130.4120953027363
 20
82.92912046598477
 30
0.0
  0
SPLINE
  5
116
330
1F
100
AcDbEntity
  8
0
  6
Continuous
 62
     7
370
    25
100
AcDbSpline
210
0.0
220
0.0
230
1.0
 70
    24
 71
     3
 72
    10
 73
     6
 74
     0
 42
0.000000001
 43
0.00000001
 40
0.0
 40
0.0
 40
0.0
 40
0.0
 40
0.5
 40
0.5
 40
1.0
 40
1.0
 40
1.0
 40
1.0
 10
130.346877911432
 20
82.67742294202938
 30
0.0
 10
130.346877911432
 20
82.58194587309802
 30
0.0
 10
130.346877911432
 20
82.52506706788944
 30
0.0
 10
130.346877911432
 20
82.44796955936212
 30
0.0
 10
130.346877911432
 20
82.42912046598488
 30
0.0
 10
130.346877911432
 20
82.42912046598475
 30
0.0
  0
SPLINE
  5
117
330
1F
100
AcDbEntity
  8
0
  6
Continuous
 62
     7
370
    25
100
AcDbSpline
210
0.0
220
0.0
230
1.0
 70
     8
 71
     3
 72
     8
 73
     4
 74
     0
 42
0.000000001
 43
0.00000001
 40
0.0
 40
0.0
 40
0.0
 40
0.0
 40
1.0
 40
1.0
 40
1.0
 40
1.0
 10
111.346877911432
 20
82.67742294202942
 30
0.0
 10
111.346877911432
 20
82.75763372042799
 30
0.0
 10
111.3229472893247
 20
82.84363421715261
 30
0.0
 10
111.2816605201276
 20
82.92912046598477
 30
0.0
  0
SPLINE
  5
118
330
1F
100
AcDbEntity
  8
0
  6
Continuous
 62
     7
370
    25
100
AcDbSpline
210
0.0
220
0.0
230
1.0
 70
    24
 71
     3
 72
    12
 73
     8
 74
     0
 42
0.000000001
 43
0.00000001
 40
0.0
 40
0.0
 40
0.0
 40
0.0
 40
0.5000000000000022
 40
0.5000000000000022
 40
0.7500000000000011
 40
0.7500000000000011
 40
1.0
 40
1.0
 40
1.0
 40
1.0
 10
111.346877911432
 20
82.42912046598475
 30
0.0
 10
111.346877911432
 20
82.42912046598475
 30
0.0
 10
111.346877911432
 20
82.4476051971221
 30
0.0
 10
111.346877911432
 20
82.50574138100272
 30
0.0
 10
111.346877911432
 20
82.5305861670447
 30
0.0
 10
111.346877911432
 20
82.59253082712245
 30
0.0
 10
111.346877911432
 20
82.62936638773955
 30
0.0
 10
111.346877911432
 20
82.67742294203084
 30
0.0
  0
SPLINE
  5
119
330
1F
100
AcDbEntity
  8
0
  6
Continuous
 62
     7
370
    25
100
AcDbSpline
210
0.0
220
0.0
230
1.0
 70
     8
 71
     3
 72
     8
 73
     4
 74
     0
 42
0.000000001
 43
0.00000001
 40
0.0
 40
0.0
 40
0.0
 40
0.0
 40
1.0
 40
1.0
 40
1.0
 40
1.0
 10
109.5549725901409
 20
61.42912046598477
 30
0.0
 10
109.4873829950394
 20
61.42912046598477
 30
0.0
 10
109.4170917115206
 20
61.4136503018946
 30
0.0
 10
109.346877911432
 20
61.3856422051152
 30
0.0
  0
SPLINE
  5
11A
330
1F
100
AcDbEntity
  8
0
  6
Continuous
 62
     7
370
    25
100
AcDbSpline
210
0.0
220
0.0
230
1.0
 70
    24
 71
     3
 72
    12
 73
     8
 74
     0
 42
0.000000001
 43
0.00000001
 40
0.0
 40
0.0
 40
0.0
 40
0.0
 40
0.4999999999999989
 40
0.4999999999999989
 40
0.7499999999999994
 40
0.7499999999999994
 40
1.0
 40
1.0
 40
1.0
 40
1.0
 10
109.846877911432
 20
61.42912046598477
 30
0.0
 10
109.846877911432
 20
61.42912046598476
 30
0.0
 10
109.8256783634563
 20
61.42912046598477
 30
0.0
 10
109.7597510271261
 20
61.42912046598477
 30
0.0
 10
109.7315117802111
 20
61.42912046598477
 30
0.0
 10
109.6589614044935
 20
61.42912046598476
 30
0.0
 10
109.6159745722755
 20
61.42912046598477
 30
0.0
 10
109.5549725901409
 20
61.42912046598477
 30
0.0
  0
SPLINE
  5
11B
330
1F
100
AcDbEntity
  8
0
  6
Continuous
 62
     7
370
    25
100
AcDbSpline
210
0.0
220
0.0
230
1.0
 70
     8
 71
     3
 72
     8
 73
     4
 74
     0
 42
0.000000001
 43
0.00000001
 40
0.0
 40
0.0
 40
0.0
 40
0.0
 40
1.0
 40
1.0
 40
1.0
 40
1.0
 10
132.0951803874766
 20
80.92912046598475
 30
0.0
 10
132.1753911658752
 20
80.92912046598475
 30
0.0
 10
132.2613916625989
 20
80.95305108809245
 30
0.0
 10
132.346877911432
 20
80.9943378572891
 30
0.0
  0
SPLINE
  5
11C
330
1F
100
AcDbEntity
  8
0
  6
Continuous
 62
     7
370
    25
100
AcDbSpline
210
0.0
220
0.0
230
1.0
 70
    24
 71
     3
 72
    12
 73
     8
 74
     0
 42
0.000000001
 43
0.00000001
 40
0.0
 40
0.0
 40
0.0
 40
0.0
 40
0.5000000000000023
 40
0.5000000000000023
 40
0.7500000000000011
 40
0.7500000000000011
 40
1.0
 40
1.0
 40
1.0
 40
1.0
 10
131.846877911432
 20
80.92912046598475
 30
0.0
 10
131.846877911432
 20
80.92912046598475
 30
0.0
 10
131.8653626425693
 20
80.92912046598475
 30
0.0
 10
131.9234988264499
 20
80.92912046598475
 30
0.0
 10
131.9483436124919
 20
80.92912046598475
 30
0.0
 10
132.0102882725696
 20
80.92912046598475
 30
0.0
 10
132.0471238331867
 20
80.92912046598475
 30
0.0
 10
132.095180387478
 20
80.92912046598475
 30
0.0
  0
ARC
  5
11D
330
1F
100
AcDbEntity
  8
0
  6
Continuous
 62
     7
370
    25
100
AcDbCircle
 10
130.9158337672
 20
81.4780391551
 30
0.0
 40
0.3765098242385556
100
AcDbArc
 50
164.9874081083
 51
222.8433971034
  0
LINE
  5
11E
330
1F
100
AcDbEntity
  8
0
  6
Continuous
 62
     7
370
    25
100
AcDbLine
 10
130.4120953319
 20
81.9291203244
 30
0.0
 11
130.346877606
 21
81.9291203244
 31
0.0
  0
LINE
  5
11F
330
1F
100
AcDbEntity
  8
0
  6
Continuous
 62
     7
370
    25
100
AcDbLine
 10
131.3468777699
 20
80.9943378864
 30
0.0
 11
131.3468777699
 21
80.9291201605
 31
0.0
  0
ARC
  5
120
330
1F
100
AcDbEntity
  8
0
  6
Continuous
 62
     7
370
    25
100
AcDbCircle
 10
130.8957966006
 20
81.4980763217
 30
0.0
 40
0.3765098242385355
100
AcDbArc
 50
227.1566028966
 51
285.0125918917
  0
ARC
  5
121
330
1F
100
AcDbEntity
  8
0
  6
Continuous
 62
     7
370
    25
100
AcDbCircle
 10
110.7979592223
 20
81.4980763217
 30
0.0
 40
0.3765098242385452
100
AcDbArc
 50
254.9874081083
 51
312.8433971034
  0
LINE
  5
122
330
1F
100
AcDbEntity
  8
0
  6
Continuous
 62
     7
370
    25
100
AcDbLine
 10
110.346878053
 20
80.9943378864
 30
0.0
 11
110.346878053
 21
80.9291201605
 31
0.0
  0
ARC
  5
123
330
1F
100
AcDbEntity
  8
0
  6
Continuous
 62
     7
370
    25
100
AcDbCircle
 10
110.7779220557
 20
81.4780391551
 30
0.0
 40
0.376509824238566
100
AcDbArc
 50
317.1566028966
 51
15.0125918917
  0
LINE
  5
124
330
1F
100
AcDbEntity
  8
0
  6
Continuous
 62
     7
370
    25
100
AcDbLine
 10
111.3468782169
 20
81.9291203244
 30
0.0
 11
111.281660491
 21
81.9291203244
 31
0.0
  0
ARC
  5
125
330
1F
100
AcDbEntity
  8
0
  6
Continuous
 62
     7
370
    25
100
AcDbCircle
 10
131.1334177539
 20
81.7156603085
 30
0.0
 40
0.5978877047882802
100
AcDbArc
 50
193.551174763
 51
256.448825237
  0
ARC
  5
126
330
1F
100
AcDbEntity
  8
0
  6
Continuous
 62
     7
370
    25
100
AcDbCircle
 10
110.560338069
 20
81.7156603085
 30
0.0
 40
0.5978877047882664
100
AcDbArc
 50
283.551174763
 51
346.448825237
  0
LINE
  5
127
330
1F
100
AcDbEntity
  8
0
  6
Continuous
 62
     8
370
    25
100
AcDbLine
 10
139.8468773005
 20
85.4291208981
 30
0.0
 11
139.8468773005
 21
57.4291200339
 31
0.0
  0
LINE
  5
128
330
1F
100
AcDbEntity
  8
0
  6
Continuous
 62
     8
370
    25
100
AcDbLine
 10
106.8468774793
 20
90.429119855
 30
0.0
 11
134.8468783436
 21
90.429119855
 31
0.0
  0
LINE
  5
129
330
1F
100
AcDbEntity
  8
0
  6
Continuous
 62
     8
370
    25
100
AcDbLine
 10
101.8468785224
 20
71.429120466
 30
0.0
 11
101.8468785224
 21
85.4291208981
 31
0.0
  0
LINE
  5
12A
330
1F
100
AcDbEntity
  8
0
  6
Continuous
 62
     8
370
    25
100
AcDbLine
 10
101.8468785224
 20
57.4291200339
 30
0.0
 11
101.8468785224
 21
71.429120466
 31
0.0
  0
LINE
  5
12B
330
1F
100
AcDbEntity
  8
0
  6
Continuous
 62
     8
370
    25
100
AcDbLine
 10
131.8468778518
 20
88.4291213899
 30
0.0
 11
109.846877971
 21
88.4291213899
 31
0.0
  0
LINE
  5
12C
330
1F
100
AcDbEntity
  8
0
  6
Continuous
 62
     8
370
    25
100
AcDbLine
 10
103.8468769876
 20
71.429120466
 30
0.0
 11
103.8468769876
 21
60.4291205256
 31
0.0
  0
LINE
  5
12D
330
1F
100
AcDbEntity
  8
0
  6
Continuous
 62
     8
370
    25
100
AcDbLine
 10
103.8468769876
 20
82.4291204064
 30
0.0
 11
103.8468769876
 21
71.429120466
 31
0.0
  0
LINE
  5
12E
330
1F
100
AcDbEntity
  8
0
  6
Continuous
 62
     8
370
    25
100
AcDbLine
 10
137.8468788353
 20
60.4291205256
 30
0.0
 11
137.8468788353
 21
82.4291204064
 31
0.0
  0
LWPOLYLINE
  5
12F
330
1F
100
AcDbEntity
  8
0
  6
Continuous
 62
     8
370
    25
100
AcDbPolyline
 90
        9
 70
   128
 43
0.0
 10
109.846877971
 20
82.9291204883
 10
109.8527480972
 20
82.9229830726
 10
109.8996727851
 20
82.873925656
 10
109.9933219266
 20
82.7760203703
 10
110.133295053
 20
82.6296844481
 10
110.3189961178
 20
82.4355418755
 10
110.5496316341
 20
82.1944233923
 10
110.8242171941
 20
81.9073562472
 10
111.1415811938
 20
81.575566992
  0
LWPOLYLINE
  5
130
330
1F
100
AcDbEntity
  8
0
  6
Continuous
 62
     8
370
    25
100
AcDbPolyline
 90
        9
 70
   128
 43
0.0
 10
130.552174629
 20
81.575566992
 10
130.8695386288
 20
81.9073562472
 10
131.1441241888
 20
82.1944233923
 10
131.3747597051
 20
82.4355418755
 10
131.5604607699
 20
82.6296844481
 10
131.7004338962
 20
82.7760203703
 10
131.7940830377
 20
82.873925656
 10
131.8410077256
 20
82.9229830726
 10
131.8468778518
 20
82.9291204883
  0
LWPOLYLINE
  5
131
330
1F
100
AcDbEntity
  8
0
  6
Continuous
 62
     8
370
    25
100
AcDbPolyline
 90
        9
 70
   128
 43
0.0
 10
110.7004313854
 20
81.1344171836
 10
110.3686421302
 20
81.4517811834
 10
110.0815749851
 20
81.7263667433
 10
109.8404565019
 20
81.9570022597
 10
109.6463139293
 20
82.1427033244
 10
109.4999780071
 20
82.2826764508
 10
109.4020727215
 20
82.3763255923
 10
109.3530153048
 20
82.4232502802
 10
109.3468778891
 20
82.4291204064
  0
LWPOLYLINE
  5
132
330
1F
100
AcDbEntity
  8
0
  6
Continuous
 62
     8
370
    25
100
AcDbPolyline
 90
        9
 70
   128
 43
0.0
 10
132.3468779338
 20
82.4291204064
 10
132.340740518
 20
82.4232502802
 10
132.2916831014
 20
82.3763255923
 10
132.1937778157
 20
82.2826764508
 10
132.0474418936
 20
82.1427033244
 10
131.853299321
 20
81.9570022597
 10
131.6121808377
 20
81.7263667433
 10
131.3251136926
 20
81.4517811834
 10
130.9933244375
 20
81.1344171836
  0
LINE
  5
133
330
1F
100
AcDbEntity
  8
0
  6
CENTERX2
 62
     7
370
    18
100
AcDbLine
 10
120.8468779114
 20
58.6313694091
 30
0.0
 11
120.8468779114
 21
106.429120466
 31
0.0
  0
LINE
  5
134
330
1F
100
AcDbEntity
  8
0
  6
CENTERX2
 62
     7
370
    18
100
AcDbLine
 10
85.8468779114
 20
71.429120466
 30
0.0
 11
155.8468779114
 21
71.429120466
 31
0.0
  0
LINE
  5
135
330
1F
100
AcDbEntity
  8
0
  6
Continuous
 62
     7
370
    25
100
AcDbLine
 10
189.5450284696
 20
104.4291202872
 30
0.0
 11
189.5450284696
 21
90.429119855
 31
0.0
  0
LINE
  5
136
330
1F
100
AcDbEntity
  8
0
  6
Continuous
 62
     7
370
    25
100
AcDbLine
 10
217.5450293339
 20
90.429119855
 30
0.0
 11
217.5450293339
 21
104.4291202872
 31
0.0
  0
LINE
  5
137
330
1F
100
AcDbEntity
  8
0
  6
Continuous
 62
     7
370
    25
100
AcDbLine
 10
217.5450293339
 20
104.4291202872
 30
0.0
 11
216.54502917
 21
105.4291223137
 31
0.0
  0
LINE
  5
138
330
1F
100
AcDbEntity
  8
0
  6
Continuous
 62
     7
370
    25
100
AcDbLine
 10
190.5450286335
 20
105.4291223137
 30
0.0
 11
189.5450284696
 21
104.4291202872
 31
0.0
  0
ARC
  5
139
330
1F
100
AcDbEntity
  8
0
  6
Continuous
 62
     7
370
    25
100
AcDbCircle
 10
190.5450289017
 20
90.429120466
 30
0.0
 40
1.0
100
AcDbArc
 50
180.0
 51
270.0
  0
ARC
  5
13A
330
1F
100
AcDbEntity
  8
0
  6
Continuous
 62
     7
370
    25
100
AcDbCircle
 10
216.5450289017
 20
90.429120466
 30
0.0
 40
1.0
100
AcDbArc
 50
270.0
 51
0.0
  0
ARC
  5
13B
330
1F
100
AcDbEntity
  8
0
  6
Continuous
 62
     7
370
    25
100
AcDbCircle
 10
191.5450289017
 20
88.429120466
 30
0.0
 40
1.0
100
AcDbArc
 50
0.0
 51
90.0
  0
ARC
  5
13C
330
1F
100
AcDbEntity
  8
0
  6
Continuous
 62
     7
370
    25
100
AcDbCircle
 10
215.5450289017
 20
88.429120466
 30
0.0
 40
1.0
100
AcDbArc
 50
90.0
 51
180.0
  0
LINE
  5
13D
330
1F
100
AcDbEntity
  8
0
  6
Continuous
 62
     7
370
    25
100
AcDbLine
 10
214.5450288421
 20
82.4291204064
 30
0.0
 11
214.5450288421
 21
88.4291213899
 31
0.0
  0
LINE
  5
13E
330
1F
100
AcDbEntity
  8
0
  6
Continuous
 62
     7
370
    25
100
AcDbLine
 10
192.5450289613
 20
88.4291213899
 30
0.0
 11
192.5450289613
 21
82.4291204064
 31
0.0
  0
CIRCLE
  5
13F
330
1F
100
AcDbEntity
  8
0
  6
Continuous
 62
     7
370
    25
100
AcDbCircle
 10
203.5450289017
 20
71.429120466
 30
0.0
 40
8.5
  0
CIRCLE
  5
140
330
1F
100
AcDbEntity
  8
0
  6
Continuous
 62
     7
370
    25
100
AcDbCircle
 10
203.5450289017
 20
71.429120466
 30
0.0
 40
13.0
  0
CIRCLE
  5
141
330
1F
100
AcDbEntity
  8
0
  6
Continuous
 62
     7
370
    25
100
AcDbCircle
 10
203.5450289017
 20
71.429120466
 30
0.0
 40
14.0
  0
CIRCLE
  5
142
330
1F
100
AcDbEntity
  8
0
  6
Continuous
 62
     7
370
    25
100
AcDbCircle
 10
203.5450289017
 20
71.429120466
 30
0.0
 40
7.872175816270357
  0
CIRCLE
  5
143
330
1F
100
AcDbEntity
  8
0
  6
Continuous
 62
     7
370
    25
100
AcDbCircle
 10
203.5450289017
 20
71.429120466
 30
0.0
 40
7.547130357748898
  0
CIRCLE
  5
144
330
1F
100
AcDbEntity
  8
0
  6
Continuous
 62
     7
370
    25
100
AcDbCircle
 10
203.5450289017
 20
71.429120466
 30
0.0
 40
7.474999999999994
  0
CIRCLE
  5
145
330
1F
100
AcDbEntity
  8
0
  6
Continuous
 62
     7
370
    25
100
AcDbCircle
 10
203.5450289017
 20
71.429120466
 30
0.0
 40
4.999999999999972
  0
LINE
  5
146
330
1F
100
AcDbEntity
  8
0
  6
Continuous
 62
     7
370
    25
100
AcDbLine
 10
217.5450293339
 20
104.4291202872
 30
0.0
 11
189.5450284696
 21
104.4291202872
 31
0.0
  0
LINE
  5
147
330
1F
100
AcDbEntity
  8
0
  6
Continuous
 62
     7
370
    25
100
AcDbLine
 10
190.5450286335
 20
105.4291223137
 30
0.0
 11
216.54502917
 21
105.4291223137
 31
0.0
  0
LINE
  5
148
330
1F
100
AcDbEntity
  8
0
  6
Continuous
 62
     7
370
    25
100
AcDbLine
 10
216.54502917
 20
89.4291196911
 30
0.0
 11
190.5450286335
 21
89.4291196911
 31
0.0
  0
SPLINE
  5
149
330
1F
100
AcDbEntity
  8
0
  6
Continuous
 62
     7
370
    25
100
AcDbSpline
210
0.0
220
0.0
230
1.0
 70
     8
 71
     3
 72
    12
 73
     8
 74
     0
 42
0.000000001
 43
0.00000001
 40
0.0
 40
0.0
 40
0.0
 40
0.0
 40
0.25
 40
0.25
 40
0.5
 40
0.5
 40
1.0
 40
1.0
 40
1.0
 40
1.0
 10
214.0884847511051
 20
82.78163480194064
 30
0.0
 10
214.1634330286528
 20
82.73359283130439
 30
0.0
 10
214.2296164837631
 20
82.69689918865723
 30
0.0
 10
214.3435979891981
 20
82.63090850722615
 30
0.0
 10
214.3914794261775
 20
82.60213501904664
 30
0.0
 10
214.5064028920916
 20
82.52165931202862
 30
0.0
 10
214.545028901734
 20
82.4755296088279
 30
0.0
 10
214.545028901734
 20
82.42912046598475
 30
0.0
  0
SPLINE
  5
14A
330
1F
100
AcDbEntity
  8
0
  6
Continuous
 62
     7
370
    25
100
AcDbSpline
210
0.0
220
0.0
230
1.0
 70
     8
 71
     3
 72
     8
 73
     4
 74
     0
 42
0.000000001
 43
0.00000001
 40
0.0
 40
0.0
 40
0.0
 40
0.0
 40
1.0
 40
1.0
 40
1.0
 40
1.0
 10
213.5885071626036
 20
82.92912046598477
 30
0.0
 10
213.7867474944183
 20
82.92912046598477
 30
0.0
 10
213.9524614231959
 20
82.86882598149916
 30
0.0
 10
214.0884847511051
 20
82.78163480194064
 30
0.0
  0
SPLINE
  5
14B
330
1F
100
AcDbEntity
  8
0
  6
Continuous
 62
     7
370
    25
100
AcDbSpline
210
0.0
220
0.0
230
1.0
 70
     8
 71
     3
 72
     8
 73
     4
 74
     0
 42
0.000000001
 43
0.00000001
 40
0.0
 40
0.0
 40
0.0
 40
0.0
 40
1.0
 40
1.0
 40
1.0
 40
1.0
 10
193.0015730523629
 20
82.78163480194065
 30
0.0
 10
193.1375963802722
 20
82.86882598149917
 30
0.0
 10
193.3033103090498
 20
82.92912046598477
 30
0.0
 10
193.5015506408645
 20
82.92912046598477
 30
0.0
  0
SPLINE
  5
14C
330
1F
100
AcDbEntity
  8
0
  6
Continuous
 62
     7
370
    25
100
AcDbSpline
210
0.0
220
0.0
230
1.0
 70
     8
 71
     3
 72
    12
 73
     8
 74
     0
 42
0.000000001
 43
0.00000001
 40
0.0
 40
0.0
 40
0.0
 40
0.0
 40
0.2499999999999999
 40
0.2499999999999999
 40
0.4999999999999998
 40
0.4999999999999998
 40
1.0
 40
1.0
 40
1.0
 40
1.0
 10
193.0015730523629
 20
82.78163480194065
 30
0.0
 10
192.9266509104628
 20
82.73360958429795
 30
0.0
 10
192.8604874550788
 20
82.69692531402306
 30
0.0
 10
192.7465329270287
 20
82.63095142109367
 30
0.0
 10
192.698677121568
 20
82.60219978852538
 30
0.0
 10
192.5836218259475
 20
82.52164488773542
 30
0.0
 10
192.545028901734
 20
82.47551341111651
 30
0.0
 10
192.545028901734
 20
82.42912046598475
 30
0.0
  0
ARC
  5
14D
330
1F
100
AcDbEntity
  8
0
  6
Continuous
 62
     7
370
    25
100
AcDbCircle
 10
214.0450289017
 20
80.429120466
 30
0.0
 40
0.5
100
AcDbArc
 50
0.0
 51
90.0
  0
LINE
  5
14E
330
1F
100
AcDbEntity
  8
0
  6
Continuous
 62
     7
370
    25
100
AcDbLine
 10
214.5450288421
 20
80.4291200786
 30
0.0
 11
214.5450288421
 21
80.0893745347
 31
0.0
  0
ARC
  5
14F
330
1F
100
AcDbEntity
  8
0
  6
Continuous
 62
     7
370
    25
100
AcDbCircle
 10
214.0450289017
 20
61.929120466
 30
0.0
 40
0.5
100
AcDbArc
 50
270.0
 51
0.0
  0
LINE
  5
150
330
1F
100
AcDbEntity
  8
0
  6
Continuous
 62
     7
370
    25
100
AcDbLine
 10
214.5450288421
 20
62.7688663973
 30
0.0
 11
214.5450288421
 21
61.9291207715
 31
0.0
  0
LINE
  5
151
330
1F
100
AcDbEntity
  8
0
  6
Continuous
 62
     7
370
    25
100
AcDbLine
 10
213.8285111627
 20
80.9291201605
 30
0.0
 11
214.0450287602
 21
80.9291201605
 31
0.0
  0
LINE
  5
152
330
1F
100
AcDbEntity
  8
0
  6
Continuous
 62
     7
370
    25
100
AcDbLine
 10
213.3429875589
 20
61.4291206895
 30
0.0
 11
214.0450287602
 21
61.4291206895
 31
0.0
  0
LINE
  5
153
330
1F
100
AcDbEntity
  8
0
  6
Continuous
 62
     7
370
    25
100
AcDbLine
 10
193.0450290433
 20
61.4291206895
 30
0.0
 11
193.7470702446
 21
61.4291206895
 31
0.0
  0
LINE
  5
154
330
1F
100
AcDbEntity
  8
0
  6
Continuous
 62
     7
370
    25
100
AcDbLine
 10
193.0450290433
 20
80.9291201605
 30
0.0
 11
193.2615466407
 21
80.9291201605
 31
0.0
  0
ARC
  5
155
330
1F
100
AcDbEntity
  8
0
  6
Continuous
 62
     7
370
    25
100
AcDbCircle
 10
193.0450289017
 20
61.929120466
 30
0.0
 40
0.5000000000000284
100
AcDbArc
 50
180.0
 51
270.0
  0
LINE
  5
156
330
1F
100
AcDbEntity
  8
0
  6
Continuous
 62
     7
370
    25
100
AcDbLine
 10
192.5450289613
 20
61.9291207715
 30
0.0
 11
192.5450289613
 21
62.7688663973
 31
0.0
  0
ARC
  5
157
330
1F
100
AcDbEntity
  8
0
  6
Continuous
 62
     7
370
    25
100
AcDbCircle
 10
193.0450289017
 20
80.429120466
 30
0.0
 40
0.5000000000000284
100
AcDbArc
 50
90.0
 51
180.0
  0
LINE
  5
158
330
1F
100
AcDbEntity
  8
0
  6
Continuous
 62
     7
370
    25
100
AcDbLine
 10
192.5450289613
 20
80.0893745347
 30
0.0
 11
192.5450289613
 21
80.4291200786
 31
0.0
  0
LINE
  5
159
330
1F
100
AcDbEntity
  8
0
  6
Continuous
 62
     7
370
    25
100
AcDbLine
 10
214.0450287602
 20
80.9291201605
 30
0.0
 11
214.0450287602
 21
81.9291203244
 31
0.0
  0
LINE
  5
15A
330
1F
100
AcDbEntity
  8
0
  6
Continuous
 62
     7
370
    25
100
AcDbLine
 10
214.5450288421
 20
81.9291203244
 30
0.0
 11
214.0450287602
 21
81.9291203244
 31
0.0
  0
LINE
  5
15B
330
1F
100
AcDbEntity
  8
0
  6
Continuous
 62
     7
370
    25
100
AcDbLine
 10
214.5450288421
 20
81.9291203244
 30
0.0
 11
214.5450288421
 21
80.4291200786
 31
0.0
  0
LINE
  5
15C
330
1F
100
AcDbEntity
  8
0
  6
Continuous
 62
     7
370
    25
100
AcDbLine
 10
193.0450290433
 20
81.9291203244
 30
0.0
 11
193.0450290433
 21
80.9291201605
 31
0.0
  0
LINE
  5
15D
330
1F
100
AcDbEntity
  8
0
  6
Continuous
 62
     7
370
    25
100
AcDbLine
 10
192.5450289613
 20
81.9291203244
 30
0.0
 11
193.0450290433
 21
81.9291203244
 31
0.0
  0
LINE
  5
15E
330
1F
100
AcDbEntity
  8
0
  6
Continuous
 62
     7
370
    25
100
AcDbLine
 10
192.5450289613
 20
80.4291200786
 30
0.0
 11
192.5450289613
 21
81.9291203244
 31
0.0
  0
ARC
  5
15F
330
1F
100
AcDbEntity
  8
0
  6
Continuous
 62
     7
370
    25
100
AcDbCircle
 10
214.0678031717
 20
82.9083261031
 30
0.0
 40
0.4797465722737439
100
AcDbArc
 50
177.5157636109
 51
267.2790461907
  0
ARC
  5
160
330
1F
100
AcDbEntity
  8
0
  6
Continuous
 62
     7
370
    25
100
AcDbCircle
 10
193.0222546318
 20
82.9083261031
 30
0.0
 40
0.4797465722737439
100
AcDbArc
 50
272.7209538093
 51
2.4842363891
  0
LINE
  5
161
330
1F
100
AcDbEntity
  8
0
  6
Continuous
 62
     7
370
    25
100
AcDbLine
 10
214.0450287602
 20
81.9291203244
 30
0.0
 11
214.0450287602
 21
82.4291204064
 31
0.0
  0
ARC
  5
162
330
1F
100
AcDbEntity
  8
0
  6
Continuous
 62
     7
370
    25
100
AcDbCircle
 10
214.0450289017
 20
81.929120466
 30
0.0
 40
0.5
100
AcDbArc
 50
0.0
 51
90.0
  0
LINE
  5
163
330
1F
100
AcDbEntity
  8
0
  6
Continuous
 62
     7
370
    25
100
AcDbLine
 10
212.2052829704
 20
82.4291204064
 30
0.0
 11
214.0450287602
 21
82.4291204064
 31
0.0
  0
LINE
  5
164
330
1F
100
AcDbEntity
  8
0
  6
Continuous
 62
     7
370
    25
100
AcDbLine
 10
193.0450290433
 20
82.4291204064
 30
0.0
 11
193.0450290433
 21
81.9291203244
 31
0.0
  0
LINE
  5
165
330
1F
100
AcDbEntity
  8
0
  6
Continuous
 62
     7
370
    25
100
AcDbLine
 10
193.0450290433
 20
82.4291204064
 30
0.0
 11
194.8847748331
 21
82.4291204064
 31
0.0
  0
ARC
  5
166
330
1F
100
AcDbEntity
  8
0
  6
Continuous
 62
     7
370
    25
100
AcDbCircle
 10
193.0450289017
 20
81.929120466
 30
0.0
 40
0.5000000000000284
100
AcDbArc
 50
90.0
 51
180.0
  0
ARC
  5
167
330
1F
100
AcDbEntity
  8
0
  6
Continuous
 62
     7
370
    25
100
AcDbCircle
 10
214.5556824992
 20
82.7516373407
 30
0.0
 40
0.468159306541287
100
AcDbArc
 50
176.3262887358
 51
237.8245327008
  0
ARC
  5
168
330
1F
100
AcDbEntity
  8
0
  6
Continuous
 62
     7
370
    25
100
AcDbCircle
 10
192.5343753042
 20
82.7516373407
 30
0.0
 40
0.468159306541287
100
AcDbArc
 50
302.1754672992
 51
3.6737112642
  0
SPLINE
  5
169
330
1F
100
AcDbEntity
  8
0
  6
Continuous
 62
     7
370
    25
100
AcDbSpline
210
0.0
220
0.0
230
1.0
 70
     8
 71
     3
 72
    12
 73
     8
 74
     0
 42
0.000000001
 43
0.00000001
 40
0.0
 40
0.0
 40
0.0
 40
0.0
 40
0.25
 40
0.25
 40
0.5
 40
0.5
 40
1.0
 40
1.0
 40
1.0
 40
1.0
 10
214.3063808229962
 20
82.3553776339627
 30
0.0
 10
214.3434242340775
 20
82.3326651322536
 30
0.0
 10
214.3776371353658
 20
82.3251526124244
 30
0.0
 10
214.4371692902268
 20
82.32359653772521
 30
0.0
 10
214.4625700212492
 20
82.33002337956727
 30
0.0
 10
214.5239286529782
 20
82.36024837987162
 30
0.0
 10
214.545028901734
 20
82.39494390099017
 30
0.0
 10
214.545028901734
 20
82.42912046598475
 30
0.0
  0
SPLINE
  5
16A
330
1F
100
AcDbEntity
  8
0
  6
Continuous
 62
     7
370
    25
100
AcDbSpline
210
0.0
220
0.0
230
1.0
 70
    24
 71
     3
 72
    12
 73
     8
 74
     0
 42
0.000000001
 43
0.00000001
 40
0.0
 40
0.0
 40
0.0
 40
0.0
 40
0.2500000000000001
 40
0.2500000000000001
 40
0.5000000000000001
 40
0.5000000000000001
 40
1.0
 40
1.0
 40
1.0
 40
1.0
 10
214.545028901734
 20
81.92912046598475
 30
0.0
 10
214.545028901734
 20
81.92912046598475
 30
0.0
 10
214.545028901734
 20
81.94884341139269
 30
0.0
 10
214.545028901734
 20
82.00947987615393
 30
0.0
 10
214.545028901734
 20
82.0507364218423
 30
0.0
 10
214.545028901734
 20
82.19250973151438
 30
0.0
 10
214.545028901734
 20
82.31107677667471
 30
0.0
 10
214.545028901734
 20
82.42912046598475
 30
0.0
  0
SPLINE
  5
16B
330
1F
100
AcDbEntity
  8
0
  6
Continuous
 62
     7
370
    25
100
AcDbSpline
210
0.0
220
0.0
230
1.0
 70
     8
 71
     3
 72
    12
 73
     8
 74
     0
 42
0.000000001
 43
0.00000001
 40
0.0
 40
0.0
 40
0.0
 40
0.0
 40
0.25
 40
0.25
 40
0.5
 40
0.5
 40
1.0
 40
1.0
 40
1.0
 40
1.0
 10
192.7836769804719
 20
82.3553776339627
 30
0.0
 10
192.7466335693905
 20
82.3326651322536
 30
0.0
 10
192.7124206681023
 20
82.32515261242439
 30
0.0
 10
192.6528885132412
 20
82.32359653772521
 30
0.0
 10
192.6274877822189
 20
82.33002337956727
 30
0.0
 10
192.5661291504899
 20
82.36024837987163
 30
0.0
 10
192.545028901734
 20
82.39494390099027
 30
0.0
 10
192.545028901734
 20
82.42912046598475
 30
0.0
  0
SPLINE
  5
16C
330
1F
100
AcDbEntity
  8
0
  6
Continuous
 62
     7
370
    25
100
AcDbSpline
210
0.0
220
0.0
230
1.0
 70
    24
 71
     3
 72
    12
 73
     8
 74
     0
 42
0.000000001
 43
0.00000001
 40
0.0
 40
0.0
 40
0.0
 40
0.0
 40
0.25
 40
0.25
 40
0.5
 40
0.5
 40
1.0
 40
1.0
 40
1.0
 40
1.0
 10
192.545028901734
 20
81.92912046598475
 30
0.0
 10
192.545028901734
 20
81.92912046598475
 30
0.0
 10
192.545028901734
 20
81.94884341139269
 30
0.0
 10
192.545028901734
 20
82.00947987615393
 30
0.0
 10
192.545028901734
 20
82.0507364218423
 30
0.0
 10
192.545028901734
 20
82.19250973151438
 30
0.0
 10
192.545028901734
 20
82.31107677667471
 30
0.0
 10
192.545028901734
 20
82.42912046598475
 30
0.0
  0
LINE
  5
16D
330
1F
100
AcDbEntity
  8
0
  6
Continuous
 62
     8
370
    25
100
AcDbLine
 10
189.5450284696
 20
90.429119855
 30
0.0
 11
217.5450293339
 21
90.429119855
 31
0.0
  0
LINE
  5
16E
330
1F
100
AcDbEntity
  8
0
  6
Continuous
 62
     8
370
    25
100
AcDbLine
 10
214.5450288421
 20
88.4291213899
 30
0.0
 11
192.5450289613
 21
88.4291213899
 31
0.0
  0
LINE
  5
16F
330
1F
100
AcDbEntity
  8
0
  6
Continuous
 62
     8
370
    25
100
AcDbLine
 10
211.5293886504
 20
82.9291204883
 30
0.0
 11
213.5885074726
 21
82.9291204883
 31
0.0
  0
LINE
  5
170
330
1F
100
AcDbEntity
  8
0
  6
Continuous
 62
     8
370
    25
100
AcDbLine
 10
193.5015503309
 20
82.9291204883
 30
0.0
 11
195.5606691531
 21
82.9291204883
 31
0.0
  0
LINE
  5
171
330
1F
100
AcDbEntity
  8
0
  6
Continuous
 62
     8
370
    25
100
AcDbLine
 10
214.0450287602
 20
80.6892496495
 30
0.0
 11
214.0450287602
 21
80.9291201605
 31
0.0
  0
LINE
  5
172
330
1F
100
AcDbEntity
  8
0
  6
Continuous
 62
     8
370
    25
100
AcDbLine
 10
214.0450287602
 20
61.4291206895
 30
0.0
 11
214.0450287602
 21
62.1689912825
 31
0.0
  0
LINE
  5
173
330
1F
100
AcDbEntity
  8
0
  6
Continuous
 62
     8
370
    25
100
AcDbLine
 10
193.0450290433
 20
62.1689912825
 30
0.0
 11
193.0450290433
 21
61.4291206895
 31
0.0
  0
LINE
  5
174
330
1F
100
AcDbEntity
  8
0
  6
Continuous
 62
     8
370
    25
100
AcDbLine
 10
193.0450290433
 20
80.9291201605
 30
0.0
 11
193.0450290433
 21
80.6892496495
 31
0.0
  0
LINE
  5
175
330
1F
100
AcDbEntity
  8
0
  6
Continuous
 62
     8
370
    25
100
AcDbLine
 10
212.8051580853
 20
81.9291203244
 30
0.0
 11
214.0450287602
 21
81.9291203244
 31
0.0
  0
LINE
  5
176
330
1F
100
AcDbEntity
  8
0
  6
Continuous
 62
     8
370
    25
100
AcDbLine
 10
193.0450290433
 20
81.9291203244
 30
0.0
 11
194.2848997182
 21
81.9291203244
 31
0.0
  0
INSERT
  5
182
330
1F
100
AcDbEntity
  8
0
  6
Continuous
 62
     7
370
    18
100
AcDbBlockReference
  2
SW_CENTERMARKSYMBOL_0
 10
203.5450289017
 20
71.429120466
 30
0.0
  0
ARC
  5
183
330
1F
100
AcDbEntity
  8
0
  6
Continuous
 62
     7
370
    18
100
AcDbCircle
 10
203.5450289017
 20
71.429120466
 30
0.0
 40
8.33391311411796
100
AcDbArc
 50
75.0
 51
345.0
  0
ARC
  5
184
330
1F
100
AcDbEntity
  8
0
  6
Continuous
 62
     7
370
    18
100
AcDbCircle
 10
203.5450289017
 20
71.429120466
 30
0.0
 40
8.33391311411796
100
AcDbArc
 50
75.0
 51
345.0
  0
ARC
  5
185
330
1F
100
AcDbEntity
  8
0
  6
Continuous
 62
     7
370
    25
100
AcDbCircle
 10
133.3886203419
 20
164.1728346821
 30
0.0
 40
0.5
100
AcDbArc
 50
23.5781784782
 51
90.0
  0
ARC
  5
186
330
1F
100
AcDbEntity
  8
0
  6
Continuous
 62
     7
370
    25
100
AcDbCircle
 10
132.3051354809
 20
164.1728346821
 30
0.0
 40
0.5
100
AcDbArc
 50
90.0
 51
156.4218215218
  0
LINE
  5
187
330
1F
100
AcDbEntity
  8
0
  6
Continuous
 62
     7
370
    25
100
AcDbLine
 10
87.8468780902
 20
139.3728342499
 30
0.0
 11
101.8468785224
 21
139.3728342499
 31
0.0
  0
LINE
  5
188
330
1F
100
AcDbEntity
  8
0
  6
Continuous
 62
     7
370
    25
100
AcDbLine
 10
101.8468785224
 20
167.3728351142
 30
0.0
 11
87.8468780902
 21
167.3728351142
 31
0.0
  0
LINE
  5
189
330
1F
100
AcDbEntity
  8
0
  6
Continuous
 62
     7
370
    25
100
AcDbLine
 10
153.8468777326
 20
139.3728342499
 30
0.0
 11
154.8468797592
 21
140.3728344139
 31
0.0
  0
LINE
  5
18A
330
1F
100
AcDbEntity
  8
0
  6
Continuous
 62
     7
370
    25
100
AcDbLine
 10
154.8468797592
 20
166.3728349503
 30
0.0
 11
153.8468777326
 21
167.3728351142
 31
0.0
  0
LINE
  5
18B
330
1F
100
AcDbEntity
  8
0
  6
Continuous
 62
     7
370
    25
100
AcDbLine
 10
153.8468777326
 20
167.3728351142
 30
0.0
 11
139.8468773005
 21
167.3728351142
 31
0.0
  0
LINE
  5
18C
330
1F
100
AcDbEntity
  8
0
  6
Continuous
 62
     7
370
    25
100
AcDbLine
 10
139.8468773005
 20
139.3728342499
 30
0.0
 11
153.8468777326
 21
139.3728342499
 31
0.0
  0
LINE
  5
18D
330
1F
100
AcDbEntity
  8
0
  6
Continuous
 62
     7
370
    25
100
AcDbLine
 10
87.8468780902
 20
167.3728351142
 30
0.0
 11
86.8468760637
 21
166.3728349503
 31
0.0
  0
LINE
  5
18E
330
1F
100
AcDbEntity
  8
0
  6
Continuous
 62
     7
370
    25
100
AcDbLine
 10
86.8468760637
 20
140.3728344139
 30
0.0
 11
87.8468780902
 21
139.3728342499
 31
0.0
  0
ARC
  5
18F
330
1F
100
AcDbEntity
  8
0
  6
Continuous
 62
     7
370
    25
100
AcDbCircle
 10
101.8468779114
 20
140.3728346821
 30
0.0
 40
1.0
100
AcDbArc
 50
270.0
 51
0.0
  0
ARC
  5
190
330
1F
100
AcDbEntity
  8
0
  6
Continuous
 62
     7
370
    25
100
AcDbCircle
 10
101.8468779114
 20
166.3728346821
 30
0.0
 40
1.0
100
AcDbArc
 50
0.0
 51
90.0
  0
ARC
  5
191
330
1F
100
AcDbEntity
  8
0
  6
Continuous
 62
     7
370
    25
100
AcDbCircle
 10
139.8468779114
 20
166.3728346821
 30
0.0
 40
1.0
100
AcDbArc
 50
90.0
 51
180.0
  0
ARC
  5
192
330
1F
100
AcDbEntity
  8
0
  6
Continuous
 62
     7
370
    25
100
AcDbCircle
 10
139.8468779114
 20
140.3728346821
 30
0.0
 40
1.0
100
AcDbArc
 50
180.0
 51
270.0
  0
ARC
  5
193
330
1F
100
AcDbEntity
  8
0
  6
Continuous
 62
     7
370
    25
100
AcDbCircle
 10
103.8468779114
 20
141.3728346821
 30
0.0
 40
1.0
100
AcDbArc
 50
90.0
 51
180.0
  0
ARC
  5
194
330
1F
100
AcDbEntity
  8
0
  6
Continuous
 62
     7
370
    25
100
AcDbCircle
 10
103.8468779114
 20
165.3728346821
 30
0.0
 40
1.0
100
AcDbArc
 50
180.0
 51
270.0
  0
ARC
  5
195
330
1F
100
AcDbEntity
  8
0
  6
Continuous
 62
     7
370
    25
100
AcDbCircle
 10
137.8468779114
 20
165.3728346821
 30
0.0
 40
1.0
100
AcDbArc
 50
270.0
 51
0.0
  0
ARC
  5
196
330
1F
100
AcDbEntity
  8
0
  6
Continuous
 62
     7
370
    25
100
AcDbCircle
 10
137.8468779114
 20
141.3728346821
 30
0.0
 40
1.0
100
AcDbArc
 50
0.0
 51
90.0
  0
LINE
  5
197
330
1F
100
AcDbEntity
  8
0
  6
Continuous
 62
     7
370
    25
100
AcDbLine
 10
109.846877971
 20
164.3728346225
 30
0.0
 11
103.8468769876
 21
164.3728346225
 31
0.0
  0
LINE
  5
198
330
1F
100
AcDbEntity
  8
0
  6
Continuous
 62
     7
370
    25
100
AcDbLine
 10
137.8468788353
 20
164.3728346225
 30
0.0
 11
133.8468781797
 21
164.3728346225
 31
0.0
  0
LINE
  5
199
330
1F
100
AcDbEntity
  8
0
  6
Continuous
 62
     7
370
    25
100
AcDbLine
 10
131.8468778518
 20
142.3728347417
 30
0.0
 11
137.8468788353
 21
142.3728347417
 31
0.0
  0
LINE
  5
19A
330
1F
100
AcDbEntity
  8
0
  6
Continuous
 62
     7
370
    25
100
AcDbLine
 10
103.8468769876
 20
142.3728347417
 30
0.0
 11
109.846877971
 21
142.3728347417
 31
0.0
  0
LINE
  5
19B
330
1F
100
AcDbEntity
  8
0
  6
Continuous
 62
     7
370
    25
100
AcDbLine
 10
132.3051351247
 20
164.6728350442
 30
0.0
 11
133.3886199755
 21
164.6728350442
 31
0.0
  0
LINE
  5
19C
330
1F
100
AcDbEntity
  8
0
  6
Continuous
 62
     7
370
    25
100
AcDbLine
 10
131.8468778518
 20
164.3728346225
 30
0.0
 11
133.8468781797
 21
164.3728346225
 31
0.0
  0
CIRCLE
  5
19D
330
1F
100
AcDbEntity
  8
0
  6
Continuous
 62
     7
370
    25
100
AcDbCircle
 10
120.8468779114
 20
153.3728346821
 30
0.0
 40
14.0
  0
CIRCLE
  5
19E
330
1F
100
AcDbEntity
  8
0
  6
Continuous
 62
     7
370
    25
100
AcDbCircle
 10
120.8468779114
 20
153.3728346821
 30
0.0
 40
12.99999999999999
  0
CIRCLE
  5
19F
330
1F
100
AcDbEntity
  8
0
  6
Continuous
 62
     7
370
    25
100
AcDbCircle
 10
120.8468779114
 20
153.3728346821
 30
0.0
 40
10.75
  0
CIRCLE
  5
1A0
330
1F
100
AcDbEntity
  8
0
  6
Continuous
 62
     7
370
    25
100
AcDbCircle
 10
120.8468779114
 20
153.3728346821
 30
0.0
 40
9.798213046580429
  0
CIRCLE
  5
1A1
330
1F
100
AcDbEntity
  8
0
  6
Continuous
 62
     7
370
    25
100
AcDbCircle
 10
120.8468779114
 20
153.3728346821
 30
0.0
 40
9.428250615618282
  0
CIRCLE
  5
1A2
330
1F
100
AcDbEntity
  8
0
  6
Continuous
 62
     7
370
    25
100
AcDbCircle
 10
120.8468779114
 20
153.3728346821
 30
0.0
 40
9.3155
  0
CIRCLE
  5
1A3
330
1F
100
AcDbEntity
  8
0
  6
Continuous
 62
     7
370
    25
100
AcDbCircle
 10
120.8468779114
 20
153.3728346821
 30
0.0
 40
6.749999999999986
  0
LINE
  5
1A4
330
1F
100
AcDbEntity
  8
0
  6
Continuous
 62
     7
370
    25
100
AcDbLine
 10
87.8468780902
 20
167.3728351142
 30
0.0
 11
87.8468780902
 21
139.3728342499
 31
0.0
  0
LINE
  5
1A5
330
1F
100
AcDbEntity
  8
0
  6
Continuous
 62
     7
370
    25
100
AcDbLine
 10
154.8468797592
 20
166.3728349503
 30
0.0
 11
154.8468797592
 21
140.3728344139
 31
0.0
  0
LINE
  5
1A6
330
1F
100
AcDbEntity
  8
0
  6
Continuous
 62
     7
370
    25
100
AcDbLine
 10
153.8468777326
 20
139.3728342499
 30
0.0
 11
153.8468777326
 21
167.3728351142
 31
0.0
  0
LINE
  5
1A7
330
1F
100
AcDbEntity
  8
0
  6
Continuous
 62
     7
370
    25
100
AcDbLine
 10
86.8468760637
 20
140.3728344139
 30
0.0
 11
86.8468760637
 21
166.3728349503
 31
0.0
  0
LINE
  5
1A8
330
1F
100
AcDbEntity
  8
0
  6
Continuous
 62
     7
370
    25
100
AcDbLine
 10
102.8468786863
 20
140.3728344139
 30
0.0
 11
102.8468786863
 21
166.3728349503
 31
0.0
  0
LINE
  5
1A9
330
1F
100
AcDbEntity
  8
0
  6
Continuous
 62
     7
370
    25
100
AcDbLine
 10
138.8468771366
 20
166.3728349503
 30
0.0
 11
138.8468771366
 21
140.3728344139
 31
0.0
  0
SPLINE
  5
1AA
330
1F
100
AcDbEntity
  8
0
  6
Continuous
 62
     7
370
    25
100
AcDbSpline
210
0.0
220
0.0
230
1.0
 70
     8
 71
     3
 72
    12
 73
     8
 74
     0
 42
0.000000001
 43
0.00000001
 40
0.0
 40
0.0
 40
0.0
 40
0.0
 40
0.2500000000000001
 40
0.2500000000000001
 40
0.5000000000000002
 40
0.5000000000000002
 40
1.0
 40
1.0
 40
1.0
 40
1.0
 10
109.4943635754761
 20
163.9162905314521
 30
0.0
 10
109.5424055461123
 20
163.9912388089998
 30
0.0
 10
109.5790991887595
 20
164.05742226411
 30
0.0
 10
109.6450898701906
 20
164.1714037695451
 30
0.0
 10
109.6738633583701
 20
164.2192852065245
 30
0.0
 10
109.7543390653881
 20
164.3342086724385
 30
0.0
 10
109.8004687685887
 20
164.372834682081
 30
0.0
 10
109.846877911432
 20
164.372834682081
 30
0.0
  0
SPLINE
  5
1AB
330
1F
100
AcDbEntity
  8
0
  6
Continuous
 62
     7
370
    25
100
AcDbSpline
210
0.0
220
0.0
230
1.0
 70
     8
 71
     3
 72
     8
 73
     4
 74
     0
 42
0.000000001
 43
0.00000001
 40
0.0
 40
0.0
 40
0.0
 40
0.0
 40
1.0
 40
1.0
 40
1.0
 40
1.0
 10
109.346877911432
 20
163.4163129429505
 30
0.0
 10
109.346877911432
 20
163.6145532747652
 30
0.0
 10
109.4071723959176
 20
163.7802672035428
 30
0.0
 10
109.4943635754761
 20
163.9162905314521
 30
0.0
  0
SPLINE
  5
1AC
330
1F
100
AcDbEntity
  8
0
  6
Continuous
 62
     7
370
    25
100
AcDbSpline
210
0.0
220
0.0
230
1.0
 70
     8
 71
     3
 72
     8
 73
     4
 74
     0
 42
0.000000001
 43
0.00000001
 40
0.0
 40
0.0
 40
0.0
 40
0.0
 40
1.0
 40
1.0
 40
1.0
 40
1.0
 10
109.4943635754761
 20
142.8293788327099
 30
0.0
 10
109.4071723959176
 20
142.9654021606191
 30
0.0
 10
109.346877911432
 20
143.1311160893967
 30
0.0
 10
109.346877911432
 20
143.3293564212114
 30
0.0
  0
SPLINE
  5
1AD
330
1F
100
AcDbEntity
  8
0
  6
Continuous
 62
     7
370
    25
100
AcDbSpline
210
0.0
220
0.0
230
1.0
 70
     8
 71
     3
 72
    12
 73
     8
 74
     0
 42
0.000000001
 43
0.00000001
 40
0.0
 40
0.0
 40
0.0
 40
0.0
 40
0.2499999999999999
 40
0.2499999999999999
 40
0.4999999999999998
 40
0.4999999999999998
 40
1.0
 40
1.0
 40
1.0
 40
1.0
 10
109.4943635754761
 20
142.8293788327099
 30
0.0
 10
109.5423887931188
 20
142.7544566908097
 30
0.0
 10
109.5790730633937
 20
142.6882932354258
 30
0.0
 10
109.6450469563231
 20
142.5743387073756
 30
0.0
 10
109.6737985888913
 20
142.5264829019149
 30
0.0
 10
109.7543534896813
 20
142.4114276062945
 30
0.0
 10
109.8004849663002
 20
142.372834682081
 30
0.0
 10
109.846877911432
 20
142.372834682081
 30
0.0
  0
SPLINE
  5
1AE
330
1F
100
AcDbEntity
  8
0
  6
Continuous
 62
     7
370
    25
100
AcDbSpline
210
0.0
220
0.0
230
1.0
 70
     8
 71
     3
 72
    12
 73
     8
 74
     0
 42
0.000000001
 43
0.00000001
 40
0.0
 40
0.0
 40
0.0
 40
0.0
 40
0.2499999999999999
 40
0.2499999999999999
 40
0.4999999999999998
 40
0.4999999999999998
 40
1.0
 40
1.0
 40
1.0
 40
1.0
 10
132.1993922473879
 20
142.8293788327099
 30
0.0
 10
132.1513502767579
 20
142.7544305551721
 30
0.0
 10
132.1146566341143
 20
142.6882471000694
 30
0.0
 10
132.0486659526896
 20
142.5742655946446
 30
0.0
 10
132.0198924645127
 20
142.5263841576678
 30
0.0
 10
131.939416757502
 20
142.4114606917538
 30
0.0
 10
131.8932870542572
 20
142.372834682081
 30
0.0
 10
131.846877911432
 20
142.372834682081
 30
0.0
  0
SPLINE
  5
1AF
330
1F
100
AcDbEntity
  8
0
  6
Continuous
 62
     7
370
    25
100
AcDbSpline
210
0.0
220
0.0
230
1.0
 70
     8
 71
     3
 72
     8
 73
     4
 74
     0
 42
0.000000001
 43
0.00000001
 40
0.0
 40
0.0
 40
0.0
 40
0.0
 40
1.0
 40
1.0
 40
1.0
 40
1.0
 10
132.346877911432
 20
143.3293564212114
 30
0.0
 10
132.346877911432
 20
143.1311160893967
 30
0.0
 10
132.2865834269464
 20
142.9654021606191
 30
0.0
 10
132.1993922473879
 20
142.8293788327099
 30
0.0
  0
SPLINE
  5
1B0
330
1F
100
AcDbEntity
  8
0
  6
Continuous
 62
     7
370
    25
100
AcDbSpline
210
0.0
220
0.0
230
1.0
 70
     8
 71
     3
 72
     8
 73
     4
 74
     0
 42
0.000000001
 43
0.00000001
 40
0.0
 40
0.0
 40
0.0
 40
0.0
 40
1.0
 40
1.0
 40
1.0
 40
1.0
 10
132.1993922473879
 20
163.916290531452
 30
0.0
 10
132.2865834269464
 20
163.7802672035428
 30
0.0
 10
132.346877911432
 20
163.6145532747652
 30
0.0
 10
132.346877911432
 20
163.4163129429505
 30
0.0
  0
SPLINE
  5
1B1
330
1F
100
AcDbEntity
  8
0
  6
Continuous
 62
     7
370
    25
100
AcDbSpline
210
0.0
220
0.0
230
1.0
 70
     8
 71
     3
 72
    12
 73
     8
 74
     0
 42
0.000000001
 43
0.00000001
 40
0.0
 40
0.0
 40
0.0
 40
0.0
 40
0.2500000000000001
 40
0.2500000000000001
 40
0.5000000000000001
 40
0.5000000000000001
 40
1.0
 40
1.0
 40
1.0
 40
1.0
 10
132.1993922473879
 20
163.916290531452
 30
0.0
 10
132.151350276758
 20
163.9912388089898
 30
0.0
 10
132.1146566341143
 20
164.0574222640926
 30
0.0
 10
132.0486659526896
 20
164.1714037695173
 30
0.0
 10
132.0198924645127
 20
164.2192852064941
 30
0.0
 10
131.939416757502
 20
164.3342086724082
 30
0.0
 10
131.8932870542574
 20
164.372834682081
 30
0.0
 10
131.846877911432
 20
164.372834682081
 30
0.0
  0
ARC
  5
1B2
330
1F
100
AcDbEntity
  8
0
  6
Continuous
 62
     7
370
    25
100
AcDbCircle
 10
111.8468779114
 20
163.8728346821
 30
0.0
 40
0.5
100
AcDbArc
 50
90.0
 51
180.0
  0
LINE
  5
1B3
330
1F
100
AcDbEntity
  8
0
  6
Continuous
 62
     7
370
    25
100
AcDbLine
 10
111.8468782989
 20
164.3728346225
 30
0.0
 11
112.1866238428
 21
164.3728346225
 31
0.0
  0
ARC
  5
1B4
330
1F
100
AcDbEntity
  8
0
  6
Continuous
 62
     7
370
    25
100
AcDbCircle
 10
129.8468779114
 20
163.8728346821
 30
0.0
 40
0.5
100
AcDbArc
 50
0.0
 51
90.0
  0
LINE
  5
1B5
330
1F
100
AcDbEntity
  8
0
  6
Continuous
 62
     7
370
    25
100
AcDbLine
 10
129.5071319801
 20
164.3728346225
 30
0.0
 11
129.846877524
 21
164.3728346225
 31
0.0
  0
LINE
  5
1B6
330
1F
100
AcDbEntity
  8
0
  6
Continuous
 62
     7
370
    25
100
AcDbLine
 10
130.346877606
 20
163.6563169431
 30
0.0
 11
130.346877606
 21
163.8728345405
 31
0.0
  0
LINE
  5
1B7
330
1F
100
AcDbEntity
  8
0
  6
Continuous
 62
     7
370
    25
100
AcDbLine
 10
111.3468782169
 20
163.6563169431
 30
0.0
 11
111.3468782169
 21
163.8728345405
 31
0.0
  0
LINE
  5
1B8
330
1F
100
AcDbEntity
  8
0
  6
Continuous
 62
     7
370
    25
100
AcDbLine
 10
130.346877606
 20
142.8728348236
 30
0.0
 11
130.346877606
 21
143.0893524211
 31
0.0
  0
LINE
  5
1B9
330
1F
100
AcDbEntity
  8
0
  6
Continuous
 62
     7
370
    25
100
AcDbLine
 10
111.3468782169
 20
142.8728348236
 30
0.0
 11
111.3468782169
 21
143.0893524211
 31
0.0
  0
ARC
  5
1BA
330
1F
100
AcDbEntity
  8
0
  6
Continuous
 62
     7
370
    25
100
AcDbCircle
 10
129.8468779114
 20
142.8728346821
 30
0.0
 40
0.5
100
AcDbArc
 50
270.0
 51
0.0
  0
LINE
  5
1BB
330
1F
100
AcDbEntity
  8
0
  6
Continuous
 62
     7
370
    25
100
AcDbLine
 10
129.846877524
 20
142.3728347417
 30
0.0
 11
129.5071319801
 21
142.3728347417
 31
0.0
  0
ARC
  5
1BC
330
1F
100
AcDbEntity
  8
0
  6
Continuous
 62
     7
370
    25
100
AcDbCircle
 10
111.8468779114
 20
142.8728346821
 30
0.0
 40
0.5
100
AcDbArc
 50
180.0
 51
270.0
  0
LINE
  5
1BD
330
1F
100
AcDbEntity
  8
0
  6
Continuous
 62
     7
370
    25
100
AcDbLine
 10
112.1866238428
 20
142.3728347417
 30
0.0
 11
111.8468782989
 21
142.3728347417
 31
0.0
  0
LINE
  5
1BE
330
1F
100
AcDbEntity
  8
0
  6
Continuous
 62
     7
370
    25
100
AcDbLine
 10
111.3468782169
 20
163.8728345405
 30
0.0
 11
110.346878053
 21
163.8728345405
 31
0.0
  0
LINE
  5
1BF
330
1F
100
AcDbEntity
  8
0
  6
Continuous
 62
     7
370
    25
100
AcDbLine
 10
110.346878053
 20
164.3728346225
 30
0.0
 11
110.346878053
 21
163.8728345405
 31
0.0
  0
LINE
  5
1C0
330
1F
100
AcDbEntity
  8
0
  6
Continuous
 62
     7
370
    25
100
AcDbLine
 10
110.346878053
 20
164.3728346225
 30
0.0
 11
111.8468782989
 21
164.3728346225
 31
0.0
  0
LINE
  5
1C1
330
1F
100
AcDbEntity
  8
0
  6
Continuous
 62
     7
370
    25
100
AcDbLine
 10
131.3468777699
 20
164.3728346225
 30
0.0
 11
131.3468777699
 21
163.8728345405
 31
0.0
  0
LINE
  5
1C2
330
1F
100
AcDbEntity
  8
0
  6
Continuous
 62
     7
370
    25
100
AcDbLine
 10
131.3468777699
 20
163.8728345405
 30
0.0
 11
130.346877606
 21
163.8728345405
 31
0.0
  0
LINE
  5
1C3
330
1F
100
AcDbEntity
  8
0
  6
Continuous
 62
     7
370
    25
100
AcDbLine
 10
129.846877524
 20
164.3728346225
 30
0.0
 11
131.3468777699
 21
164.3728346225
 31
0.0
  0
LINE
  5
1C4
330
1F
100
AcDbEntity
  8
0
  6
Continuous
 62
     7
370
    25
100
AcDbLine
 10
110.346878053
 20
142.8728348236
 30
0.0
 11
111.3468782169
 21
142.8728348236
 31
0.0
  0
LINE
  5
1C5
330
1F
100
AcDbEntity
  8
0
  6
Continuous
 62
     7
370
    25
100
AcDbLine
 10
130.346877606
 20
142.8728348236
 30
0.0
 11
131.3468777699
 21
142.8728348236
 31
0.0
  0
LINE
  5
1C6
330
1F
100
AcDbEntity
  8
0
  6
Continuous
 62
     7
370
    25
100
AcDbLine
 10
110.346878053
 20
142.3728347417
 30
0.0
 11
110.346878053
 21
142.8728348236
 31
0.0
  0
LINE
  5
1C7
330
1F
100
AcDbEntity
  8
0
  6
Continuous
 62
     7
370
    25
100
AcDbLine
 10
111.8468782989
 20
142.3728347417
 30
0.0
 11
110.346878053
 21
142.3728347417
 31
0.0
  0
LINE
  5
1C8
330
1F
100
AcDbEntity
  8
0
  6
Continuous
 62
     7
370
    25
100
AcDbLine
 10
131.3468777699
 20
142.3728347417
 30
0.0
 11
131.3468777699
 21
142.8728348236
 31
0.0
  0
LINE
  5
1C9
330
1F
100
AcDbEntity
  8
0
  6
Continuous
 62
     7
370
    25
100
AcDbLine
 10
131.3468777699
 20
142.3728347417
 30
0.0
 11
129.846877524
 21
142.3728347417
 31
0.0
  0
ARC
  5
1CA
330
1F
100
AcDbEntity
  8
0
  6
Continuous
 62
     7
370
    25
100
AcDbCircle
 10
109.3676722743
 20
163.895608952
 30
0.0
 40
0.4797465722737439
100
AcDbArc
 50
267.5157636109
 51
357.2790461907
  0
ARC
  5
1CB
330
1F
100
AcDbEntity
  8
0
  6
Continuous
 62
     7
370
    25
100
AcDbCircle
 10
132.3260835486
 20
163.895608952
 30
0.0
 40
0.4797465722737297
100
AcDbArc
 50
182.7209538093
 51
272.4842363891
  0
ARC
  5
1CC
330
1F
100
AcDbEntity
  8
0
  6
Continuous
 62
     7
370
    25
100
AcDbCircle
 10
109.3676722743
 20
142.8500604121
 30
0.0
 40
0.4797465722737439
100
AcDbArc
 50
2.7209538093
 51
92.4842363891
  0
ARC
  5
1CD
330
1F
100
AcDbEntity
  8
0
  6
Continuous
 62
     7
370
    25
100
AcDbCircle
 10
132.3260835486
 20
142.8500604121
 30
0.0
 40
0.4797465722737297
100
AcDbArc
 50
87.5157636109
 51
177.2790461907
  0
LINE
  5
1CE
330
1F
100
AcDbEntity
  8
0
  6
Continuous
 62
     7
370
    25
100
AcDbLine
 10
110.346878053
 20
163.8728345405
 30
0.0
 11
109.846877971
 21
163.8728345405
 31
0.0
  0
ARC
  5
1CF
330
1F
100
AcDbEntity
  8
0
  6
Continuous
 62
     7
370
    25
100
AcDbCircle
 10
110.3468779114
 20
163.8728346821
 30
0.0
 40
0.5000000000000142
100
AcDbArc
 50
90.0
 51
180.0
  0
LINE
  5
1D0
330
1F
100
AcDbEntity
  8
0
  6
Continuous
 62
     7
370
    25
100
AcDbLine
 10
109.846877971
 20
162.0330887508
 30
0.0
 11
109.846877971
 21
163.8728345405
 31
0.0
  0
ARC
  5
1D1
330
1F
100
AcDbEntity
  8
0
  6
Continuous
 62
     7
370
    25
100
AcDbCircle
 10
131.3468779114
 20
163.8728346821
 30
0.0
 40
0.5
100
AcDbArc
 50
0.0
 51
90.0
  0
LINE
  5
1D2
330
1F
100
AcDbEntity
  8
0
  6
Continuous
 62
     7
370
    25
100
AcDbLine
 10
131.8468778518
 20
163.8728345405
 30
0.0
 11
131.3468777699
 21
163.8728345405
 31
0.0
  0
LINE
  5
1D3
330
1F
100
AcDbEntity
  8
0
  6
Continuous
 62
     7
370
    25
100
AcDbLine
 10
131.8468778518
 20
162.0330887508
 30
0.0
 11
131.8468778518
 21
163.8728345405
 31
0.0
  0
LINE
  5
1D4
330
1F
100
AcDbEntity
  8
0
  6
Continuous
 62
     7
370
    25
100
AcDbLine
 10
109.846877971
 20
142.8728348236
 30
0.0
 11
110.346878053
 21
142.8728348236
 31
0.0
  0
LINE
  5
1D5
330
1F
100
AcDbEntity
  8
0
  6
Continuous
 62
     7
370
    25
100
AcDbLine
 10
109.846877971
 20
142.8728348236
 30
0.0
 11
109.846877971
 21
144.7125806134
 31
0.0
  0
LINE
  5
1D6
330
1F
100
AcDbEntity
  8
0
  6
Continuous
 62
     7
370
    25
100
AcDbLine
 10
131.8468778518
 20
142.8728348236
 30
0.0
 11
131.8468778518
 21
144.7125806134
 31
0.0
  0
LINE
  5
1D7
330
1F
100
AcDbEntity
  8
0
  6
Continuous
 62
     7
370
    25
100
AcDbLine
 10
131.3468777699
 20
142.8728348236
 30
0.0
 11
131.8468778518
 21
142.8728348236
 31
0.0
  0
ARC
  5
1D8
330
1F
100
AcDbEntity
  8
0
  6
Continuous
 62
     7
370
    25
100
AcDbCircle
 10
110.3468779114
 20
142.8728346821
 30
0.0
 40
0.5000000000000142
100
AcDbArc
 50
180.0
 51
270.0
  0
ARC
  5
1D9
330
1F
100
AcDbEntity
  8
0
  6
Continuous
 62
     7
370
    25
100
AcDbCircle
 10
131.3468779114
 20
142.8728346821
 30
0.0
 40
0.5
100
AcDbArc
 50
270.0
 51
0.0
  0
SPLINE
  5
1DA
330
1F
100
AcDbEntity
  8
0
  6
Continuous
 62
     7
370
    25
100
AcDbSpline
210
0.0
220
0.0
230
1.0
 70
    11
 71
     3
 72
    62
 73
    58
 74
     0
 42
0.000000001
 43
0.00000001
 40
0.0
 40
0.0
 40
0.0
 40
0.0
 40
0.00002552603107
 40
0.00002552603107
 40
0.00002552603107
 40
0.0000566725105924
 40
0.0000566725105924
 40
0.0000566725105924
 40
0.0000875464556161
 40
0.0000875464556161
 40
0.0000875464556161
 40
0.0001184235810071
 40
0.0001184235810071
 40
0.0001184235810071
 40
0.0001496163952004
 40
0.0001496163952004
 40
0.0001496163952004
 40
0.0001812897466557
 40
0.0001812897466557
 40
0.0001812897466557
 40
0.00021340057224
 40
0.00021340057224
 40
0.00021340057224
 40
0.0002457251295224
 40
0.0002457251295224
 40
0.0002457251295224
 40
0.0002779492269397
 40
0.0002779492269397
 40
0.0002779492269397
 40
0.0003097916167335
 40
0.0003097916167335
 40
0.0003097916167335
 40
0.0003411302828531
 40
0.0003411302828531
 40
0.0003411302828531
 40
0.0003720728470962
 40
0.0003720728470962
 40
0.0003720728470962
 40
0.0004029110908232
 40
0.0004029110908232
 40
0.0004029110908232
 40
0.0004339780641525
 40
0.0004339780641525
 40
0.0004339780641525
 40
0.0004654954555852
 40
0.0004654954555852
 40
0.0004654954555852
 40
0.0004974859682136
 40
0.0004974859682136
 40
0.0004974859682136
 40
0.0005297748538631
 40
0.0005297748538631
 40
0.0005297748538631
 40
0.000562063961674
 40
0.000562063961674
 40
0.000562063961674
 40
0.0005881090259127
 40
0.0005881090259127
 40
0.0005881090259127
 40
0.0005881090259127
 10
120.8986018688944
 20
153.4512099161339
 30
0.0
 10
120.8915701788112
 20
153.4560002480186
 30
0.0
 10
120.8837997487148
 20
153.4598502910452
 30
0.0
 10
120.8757246564273
 20
153.4625313645616
 30
0.0
 10
120.8659190458243
 20
153.4657870007777
 30
0.0
 10
120.8554092909432
 20
153.4673844907554
 30
0.0
 10
120.8450791786751
 20
153.4671811575525
 30
0.0
 10
120.8348367728333
 20
153.4669795507229
 30
0.0
 10
120.8244890496819
 20
153.4650030292841
 30
0.0
 10
120.8148900766632
 20
153.4614248686341
 30
0.0
 10
120.8052882550059
 20
153.4578456461115
 30
0.0
 10
120.7961738715365
 20
153.452568647098
 30
0.0
 10
120.7882747050383
 20
153.4460414831146
 30
0.0
 10
120.7802947589753
 20
153.4394475701308
 30
0.0
 10
120.7733380990449
 20
153.431401398837
 30
0.0
 10
120.7679442409155
 20
153.4225658388066
 30
0.0
 10
120.7624682308403
 20
153.413595707486
 30
0.0
 10
120.7584536308575
 20
153.4035697192147
 30
0.0
 10
120.7562076498998
 20
153.3933026989005
 30
0.0
 10
120.7539312491757
 20
153.3828966211477
 30
0.0
 10
120.7534094937864
 20
153.3719582616627
 30
0.0
 10
120.7546825780994
 20
153.3613823958044
 30
0.0
 10
120.7559638118133
 20
153.3507388306048
 30
0.0
 10
120.7590998360853
 20
153.3401673775984
 30
0.0
 10
120.763843210647
 20
153.3305537714683
 30
0.0
 10
120.7685711616055
 20
153.3209714250339
 30
0.0
 10
120.7750307938235
 20
153.312072740956
 30
0.0
 10
120.7826955527859
 20
153.3046281049955
 30
0.0
 10
120.790269799346
 20
153.2972713820258
 30
0.0
 10
120.7992360923335
 20
153.2911287717091
 30
0.0
 10
120.8088431067819
 20
153.2867469642288
 30
0.0
 10
120.8183002529598
 20
153.2824335124185
 30
0.0
 10
120.8286439745974
 20
153.2797064605037
 30
0.0
 10
120.838999948638
 20
153.2788106282851
 30
0.0
 10
120.8492281994148
 20
153.2779258446279
 30
0.0
 10
120.8597513869214
 20
153.2788022728492
 30
0.0
 10
120.8696934047456
 20
153.2813624135102
 30
0.0
 10
120.8796043003859
 20
153.2839145399864
 30
0.0
 10
120.8892085109754
 20
153.2882075168436
 30
0.0
 10
120.8977309530985
 20
153.2938733226048
 30
0.0
 10
120.9063171603773
 20
153.2995815200867
 30
0.0
 10
120.9140387674765
 20
153.306835556699
 30
0.0
 10
120.9202922282785
 20
153.3150331080591
 30
0.0
 10
120.9266355644951
 20
153.3233484755135
 30
0.0
 10
120.9316410027967
 20
153.3328584625694
 30
0.0
 10
120.9349247209519
 20
153.3427885243182
 30
0.0
 10
120.938256911233
 20
153.3528651672231
 30
0.0
 10
120.9399073299242
 20
153.3636488736078
 30
0.0
 10
120.9397493659767
 20
153.3742611744568
 30
0.0
 10
120.9395899713868
 20
153.3849695884173
 30
0.0
 10
120.9375838994201
 20
153.3957991637059
 30
0.0
 10
120.9338880306319
 20
153.4058506160405
 30
0.0
 10
120.9301928300059
 20
153.415900251211
 30
0.0
 10
120.9247031045568
 20
153.4254525243479
 30
0.0
 10
120.9178617420709
 20
153.4336890155459
 30
0.0
 10
120.9123162973938
 20
153.4403653181634
 30
0.0
 10
120.9057746274421
 20
153.4463234814978
 30
0.0
 10
120.8986018688944
 20
153.4512099161339
 30
0.0
  0
SPLINE
  5
1DB
330
1F
100
AcDbEntity
  8
0
  6
Continuous
 62
     7
370
    25
100
AcDbSpline
210
0.0
220
0.0
230
1.0
 70
     8
 71
     3
 72
    24
 73
    20
 74
     0
 42
0.000000001
 43
0.00000001
 40
0.0
 40
0.0
 40
0.0
 40
0.0
 40
0.125
 40
0.125
 40
0.25
 40
0.25
 40
0.375
 40
0.375
 40
0.4375
 40
0.4375
 40
0.5
 40
0.5
 40
0.625
 40
0.625
 40
0.75
 40
0.75
 40
0.875
 40
0.875
 40
1.0
 40
1.0
 40
1.0
 40
1.0
 10
116.2033340061803
 20
158.2718141676473
 30
0.0
 10
116.5768529894564
 20
158.2372189539356
 30
0.0
 10
116.9511095037406
 20
158.1941810107593
 30
0.0
 10
117.7042908150996
 20
158.0951400570713
 30
0.0
 10
118.0830701366832
 20
158.0388901519645
 30
0.0
 10
118.8526743245051
 20
157.9237413486321
 30
0.0
 10
119.241649747741
 20
157.8647581631466
 30
0.0
 10
119.8380681617434
 20
157.7958746595904
 30
0.0
 10
120.0392071774639
 20
157.7763763259824
 30
0.0
 10
120.4481651851168
 20
157.7493820337796
 30
0.0
 10
120.6566327595304
 20
157.7421571373698
 30
0.0
 10
121.2707399249882
 20
157.7431768847448
 30
0.0
 10
121.6719337324183
 20
157.7743205740776
 30
0.0
 10
122.4642021099577
 20
157.8664981548004
 30
0.0
 10
122.8550313098114
 20
157.9258266779703
 30
0.0
 10
123.6198384739909
 20
158.0402615189651
 30
0.0
 10
123.9965707797202
 20
158.0961291663201
 30
0.0
 10
124.7459788396122
 20
158.1945637366622
 30
0.0
 10
125.1185184505647
 20
158.2373685919014
 30
0.0
 10
125.4904218166837
 20
158.2718141676473
 30
0.0
  0
SPLINE
  5
1DC
330
1F
100
AcDbEntity
  8
0
  6
Continuous
 62
     7
370
    25
100
AcDbSpline
210
0.0
220
0.0
230
1.0
 70
     8
 71
     3
 72
    24
 73
    20
 74
     0
 42
0.000000001
 43
0.00000001
 40
0.0
 40
0.0
 40
0.0
 40
0.0
 40
0.1249999999999999
 40
0.1249999999999999
 40
0.2499999999999999
 40
0.2499999999999999
 40
0.3749999999999998
 40
0.3749999999999998
 40
0.4374999999999998
 40
0.4374999999999998
 40
0.4999999999999998
 40
0.4999999999999998
 40
0.6249999999999998
 40
0.6249999999999998
 40
0.7499999999999999
 40
0.7499999999999999
 40
0.8749999999999999
 40
0.8749999999999999
 40
1.0
 40
1.0
 40
1.0
 40
1.0
 10
125.4904218166837
 20
148.4738551965146
 30
0.0
 10
125.1169028334076
 20
148.5084504102263
 30
0.0
 10
124.7426463191234
 20
148.5514883534026
 30
0.0
 10
123.9894650077644
 20
148.6505293070907
 30
0.0
 10
123.6106856861807
 20
148.7067792121974
 30
0.0
 10
122.8410814983588
 20
148.8219280155299
 30
0.0
 10
122.452106075123
 20
148.8809112010154
 30
0.0
 10
121.8556876611206
 20
148.9497947045715
 30
0.0
 10
121.6545486454
 20
148.9692930381796
 30
0.0
 10
121.2455906377471
 20
148.9962873303824
 30
0.0
 10
121.0371230633336
 20
149.0035122267921
 30
0.0
 10
120.4230158978758
 20
149.0024924794172
 30
0.0
 10
120.0218220904456
 20
148.9713487900843
 30
0.0
 10
119.2295537129062
 20
148.8791712093615
 30
0.0
 10
118.8387245130526
 20
148.8198426861917
 30
0.0
 10
118.073917348873
 20
148.7054078451968
 30
0.0
 10
117.6971850431437
 20
148.6495401978418
 30
0.0
 10
116.9477769832518
 20
148.5511056274997
 30
0.0
 10
116.5752373722992
 20
148.5083007722606
 30
0.0
 10
116.2033340061803
 20
148.4738551965146
 30
0.0
  0
ARC
  5
1DD
330
1F
100
AcDbEntity
  8
0
  6
Continuous
 62
     7
370
    25
100
AcDbCircle
 10
109.5243610367
 20
164.3834882796
 30
0.0
 40
0.468159306541287
100
AcDbArc
 50
266.3262887358
 51
327.8245327008
  0
ARC
  5
1DE
330
1F
100
AcDbEntity
  8
0
  6
Continuous
 62
     7
370
    25
100
AcDbCircle
 10
132.1693947862
 20
164.3834882796
 30
0.0
 40
0.4681593065412952
100
AcDbArc
 50
212.1754672992
 51
273.6737112642
  0
ARC
  5
1DF
330
1F
100
AcDbEntity
  8
0
  6
Continuous
 62
     7
370
    25
100
AcDbCircle
 10
132.1693947862
 20
142.3621810846
 30
0.0
 40
0.4681593065412879
100
AcDbArc
 50
86.3262887358
 51
147.8245327008
  0
ARC
  5
1E0
330
1F
100
AcDbEntity
  8
0
  6
Continuous
 62
     7
370
    25
100
AcDbCircle
 10
109.5243610367
 20
142.3621810846
 30
0.0
 40
0.468159306541287
100
AcDbArc
 50
32.1754672992
 51
93.6737112642
  0
SPLINE
  5
1E1
330
1F
100
AcDbEntity
  8
0
  6
Continuous
 62
     7
370
    25
100
AcDbSpline
210
0.0
220
0.0
230
1.0
 70
     8
 71
     3
 72
    12
 73
     8
 74
     0
 42
0.000000001
 43
0.00000001
 40
0.0
 40
0.0
 40
0.0
 40
0.0
 40
0.25
 40
0.25
 40
0.5
 40
0.5
 40
1.0
 40
1.0
 40
1.0
 40
1.0
 10
109.920620743454
 20
164.1341866033431
 30
0.0
 10
109.9433332451631
 20
164.1712300144245
 30
0.0
 10
109.9508457649923
 20
164.2054429157127
 30
0.0
 10
109.9524018396915
 20
164.2649750705737
 30
0.0
 10
109.9459749978495
 20
164.2903758015961
 30
0.0
 10
109.9157499975451
 20
164.3517344333251
 30
0.0
 10
109.8810544764265
 20
164.372834682081
 30
0.0
 10
109.846877911432
 20
164.372834682081
 30
0.0
  0
SPLINE
  5
1E2
330
1F
100
AcDbEntity
  8
0
  6
Continuous
 62
     7
370
    25
100
AcDbSpline
210
0.0
220
0.0
230
1.0
 70
    24
 71
     3
 72
    12
 73
     8
 74
     0
 42
0.000000001
 43
0.00000001
 40
0.0
 40
0.0
 40
0.0
 40
0.0
 40
0.2499999999999999
 40
0.2499999999999999
 40
0.4999999999999999
 40
0.4999999999999999
 40
1.0
 40
1.0
 40
1.0
 40
1.0
 10
110.346877911432
 20
164.372834682081
 30
0.0
 10
110.346877911432
 20
164.372834682081
 30
0.0
 10
110.327154966024
 20
164.372834682081
 30
0.0
 10
110.2665185012628
 20
164.372834682081
 30
0.0
 10
110.2252619555744
 20
164.372834682081
 30
0.0
 10
110.0834886459023
 20
164.372834682081
 30
0.0
 10
109.964921600742
 20
164.372834682081
 30
0.0
 10
109.846877911432
 20
164.372834682081
 30
0.0
  0
SPLINE
  5
1E3
330
1F
100
AcDbEntity
  8
0
  6
Continuous
 62
     7
370
    25
100
AcDbSpline
210
0.0
220
0.0
230
1.0
 70
     8
 71
     3
 72
    12
 73
     8
 74
     0
 42
0.000000001
 43
0.00000001
 40
0.0
 40
0.0
 40
0.0
 40
0.0
 40
0.25
 40
0.25
 40
0.5
 40
0.5
 40
1.0
 40
1.0
 40
1.0
 40
1.0
 10
131.7731350794099
 20
164.1341866033431
 30
0.0
 10
131.7504225777019
 20
164.1712300144228
 30
0.0
 10
131.7429100578724
 20
164.2054429157096
 30
0.0
 10
131.7413539831719
 20
164.2649750705686
 30
0.0
 10
131.7477808250129
 20
164.2903758015905
 30
0.0
 10
131.7780058253137
 20
164.3517344333194
 30
0.0
 10
131.8127013464276
 20
164.372834682081
 30
0.0
 10
131.846877911432
 20
164.372834682081
 30
0.0
  0
SPLINE
  5
1E4
330
1F
100
AcDbEntity
  8
0
  6
Continuous
 62
     7
370
    25
100
AcDbSpline
210
0.0
220
0.0
230
1.0
 70
    24
 71
     3
 72
    12
 73
     8
 74
     0
 42
0.000000001
 43
0.00000001
 40
0.0
 40
0.0
 40
0.0
 40
0.0
 40
0.2499999999999999
 40
0.2499999999999999
 40
0.4999999999999999
 40
0.4999999999999999
 40
1.0
 40
1.0
 40
1.0
 40
1.0
 10
131.346877911432
 20
164.372834682081
 30
0.0
 10
131.346877911432
 20
164.372834682081
 30
0.0
 10
131.3666008568399
 20
164.372834682081
 30
0.0
 10
131.4272373216011
 20
164.372834682081
 30
0.0
 10
131.4684938672895
 20
164.372834682081
 30
0.0
 10
131.6102671769616
 20
164.372834682081
 30
0.0
 10
131.7288342221219
 20
164.372834682081
 30
0.0
 10
131.846877911432
 20
164.372834682081
 30
0.0
  0
SPLINE
  5
1E5
330
1F
100
AcDbEntity
  8
0
  6
Continuous
 62
     7
370
    25
100
AcDbSpline
210
0.0
220
0.0
230
1.0
 70
     8
 71
     3
 72
    12
 73
     8
 74
     0
 42
0.000000001
 43
0.00000001
 40
0.0
 40
0.0
 40
0.0
 40
0.0
 40
0.2499999999999999
 40
0.2499999999999999
 40
0.4999999999999998
 40
0.4999999999999998
 40
1.0
 40
1.0
 40
1.0
 40
1.0
 10
109.920620743454
 20
142.6114827608188
 30
0.0
 10
109.9433332451631
 20
142.5744393497374
 30
0.0
 10
109.9508457649923
 20
142.5402264484492
 30
0.0
 10
109.9524018396915
 20
142.4806942935882
 30
0.0
 10
109.9459749978494
 20
142.4552935625658
 30
0.0
 10
109.9157499975451
 20
142.3939349308368
 30
0.0
 10
109.8810544764269
 20
142.372834682081
 30
0.0
 10
109.846877911432
 20
142.372834682081
 30
0.0
  0
SPLINE
  5
1E6
330
1F
100
AcDbEntity
  8
0
  6
Continuous
 62
     7
370
    25
100
AcDbSpline
210
0.0
220
0.0
230
1.0
 70
    24
 71
     3
 72
    12
 73
     8
 74
     0
 42
0.000000001
 43
0.00000001
 40
0.0
 40
0.0
 40
0.0
 40
0.0
 40
0.2499999999999999
 40
0.2499999999999999
 40
0.4999999999999999
 40
0.4999999999999999
 40
1.0
 40
1.0
 40
1.0
 40
1.0
 10
110.346877911432
 20
142.372834682081
 30
0.0
 10
110.346877911432
 20
142.372834682081
 30
0.0
 10
110.327154966024
 20
142.372834682081
 30
0.0
 10
110.2665185012628
 20
142.372834682081
 30
0.0
 10
110.2252619555744
 20
142.372834682081
 30
0.0
 10
110.0834886459023
 20
142.372834682081
 30
0.0
 10
109.964921600742
 20
142.372834682081
 30
0.0
 10
109.846877911432
 20
142.372834682081
 30
0.0
  0
SPLINE
  5
1E7
330
1F
100
AcDbEntity
  8
0
  6
Continuous
 62
     7
370
    25
100
AcDbSpline
210
0.0
220
0.0
230
1.0
 70
     8
 71
     3
 72
    12
 73
     8
 74
     0
 42
0.000000001
 43
0.00000001
 40
0.0
 40
0.0
 40
0.0
 40
0.0
 40
0.2500000000000001
 40
0.2500000000000001
 40
0.5000000000000001
 40
0.5000000000000001
 40
1.0
 40
1.0
 40
1.0
 40
1.0
 10
131.7731350794099
 20
142.6114827608188
 30
0.0
 10
131.7504225777019
 20
142.5744393497392
 30
0.0
 10
131.7429100578724
 20
142.5402264484524
 30
0.0
 10
131.7413539831719
 20
142.4806942935934
 30
0.0
 10
131.7477808250128
 20
142.4552935625715
 30
0.0
 10
131.7780058253136
 20
142.3939349308426
 30
0.0
 10
131.8127013464274
 20
142.372834682081
 30
0.0
 10
131.846877911432
 20
142.372834682081
 30
0.0
  0
SPLINE
  5
1E8
330
1F
100
AcDbEntity
  8
0
  6
Continuous
 62
     7
370
    25
100
AcDbSpline
210
0.0
220
0.0
230
1.0
 70
    24
 71
     3
 72
    12
 73
     8
 74
     0
 42
0.000000001
 43
0.00000001
 40
0.0
 40
0.0
 40
0.0
 40
0.0
 40
0.2499999999999999
 40
0.2499999999999999
 40
0.4999999999999999
 40
0.4999999999999999
 40
1.0
 40
1.0
 40
1.0
 40
1.0
 10
131.346877911432
 20
142.372834682081
 30
0.0
 10
131.346877911432
 20
142.372834682081
 30
0.0
 10
131.3666008568399
 20
142.372834682081
 30
0.0
 10
131.4272373216011
 20
142.372834682081
 30
0.0
 10
131.4684938672895
 20
142.372834682081
 30
0.0
 10
131.6102671769616
 20
142.372834682081
 30
0.0
 10
131.7288342221219
 20
142.372834682081
 30
0.0
 10
131.846877911432
 20
142.372834682081
 30
0.0
  0
LINE
  5
1E9
330
1F
100
AcDbEntity
  8
0
  6
Continuous
 62
     8
370
    25
100
AcDbLine
 10
101.8468785224
 20
139.3728342499
 30
0.0
 11
101.8468785224
 21
167.3728351142
 31
0.0
  0
LINE
  5
1EA
330
1F
100
AcDbEntity
  8
0
  6
Continuous
 62
     8
370
    25
100
AcDbLine
 10
139.8468773005
 20
167.3728351142
 30
0.0
 11
139.8468773005
 21
139.3728342499
 31
0.0
  0
LINE
  5
1EB
330
1F
100
AcDbEntity
  8
0
  6
Continuous
 62
     8
370
    25
100
AcDbLine
 10
103.8468769876
 20
164.3728346225
 30
0.0
 11
103.8468769876
 21
142.3728347417
 31
0.0
  0
LINE
  5
1EC
330
1F
100
AcDbEntity
  8
0
  6
Continuous
 62
     8
370
    25
100
AcDbLine
 10
137.8468788353
 20
142.3728347417
 30
0.0
 11
137.8468788353
 21
164.3728346225
 31
0.0
  0
LINE
  5
1ED
330
1F
100
AcDbEntity
  8
0
  6
Continuous
 62
     8
370
    25
100
AcDbLine
 10
109.3468778891
 20
161.3571944307
 30
0.0
 11
109.3468778891
 21
163.416313253
 31
0.0
  0
LINE
  5
1EE
330
1F
100
AcDbEntity
  8
0
  6
Continuous
 62
     8
370
    25
100
AcDbLine
 10
109.3468778891
 20
143.3293561112
 30
0.0
 11
109.3468778891
 21
145.3884749334
 31
0.0
  0
LINE
  5
1EF
330
1F
100
AcDbEntity
  8
0
  6
Continuous
 62
     8
370
    25
100
AcDbLine
 10
132.3468779338
 20
145.3884749334
 30
0.0
 11
132.3468779338
 21
143.3293561112
 31
0.0
  0
LINE
  5
1F0
330
1F
100
AcDbEntity
  8
0
  6
Continuous
 62
     8
370
    25
100
AcDbLine
 10
132.3468779338
 20
163.416313253
 30
0.0
 11
132.3468779338
 21
161.3571944307
 31
0.0
  0
LINE
  5
1F1
330
1F
100
AcDbEntity
  8
0
  6
Continuous
 62
     8
370
    25
100
AcDbLine
 10
111.5867487279
 20
163.8728345405
 30
0.0
 11
111.3468782169
 21
163.8728345405
 31
0.0
  0
LINE
  5
1F2
330
1F
100
AcDbEntity
  8
0
  6
Continuous
 62
     8
370
    25
100
AcDbLine
 10
130.346877606
 20
163.8728345405
 30
0.0
 11
130.107007095
 21
163.8728345405
 31
0.0
  0
LINE
  5
1F3
330
1F
100
AcDbEntity
  8
0
  6
Continuous
 62
     8
370
    25
100
AcDbLine
 10
130.107007095
 20
142.8728348236
 30
0.0
 11
130.346877606
 21
142.8728348236
 31
0.0
  0
LINE
  5
1F4
330
1F
100
AcDbEntity
  8
0
  6
Continuous
 62
     8
370
    25
100
AcDbLine
 10
111.3468782169
 20
142.8728348236
 30
0.0
 11
111.5867487279
 21
142.8728348236
 31
0.0
  0
LINE
  5
1F5
330
1F
100
AcDbEntity
  8
0
  6
Continuous
 62
     8
370
    25
100
AcDbLine
 10
110.346878053
 20
162.6329638656
 30
0.0
 11
110.346878053
 21
163.8728345405
 31
0.0
  0
LINE
  5
1F6
330
1F
100
AcDbEntity
  8
0
  6
Continuous
 62
     8
370
    25
100
AcDbLine
 10
131.3468777699
 20
162.6329638656
 30
0.0
 11
131.3468777699
 21
163.8728345405
 31
0.0
  0
LINE
  5
1F7
330
1F
100
AcDbEntity
  8
0
  6
Continuous
 62
     8
370
    25
100
AcDbLine
 10
110.346878053
 20
142.8728348236
 30
0.0
 11
110.346878053
 21
144.1127054986
 31
0.0
  0
LINE
  5
1F8
330
1F
100
AcDbEntity
  8
0
  6
Continuous
 62
     8
370
    25
100
AcDbLine
 10
131.3468777699
 20
142.8728348236
 30
0.0
 11
131.3468777699
 21
144.1127054986
 31
0.0
  0
INSERT
  5
204
330
1F
100
AcDbEntity
  8
0
  6
Continuous
 62
     7
370
    18
100
AcDbBlockReference
  2
SW_CENTERMARKSYMBOL_1
 10
120.8468779114
 20
153.3728346821
 30
0.0
  0
ARC
  5
205
330
1F
100
AcDbEntity
  8
0
  6
Continuous
 62
     7
370
    18
100
AcDbCircle
 10
120.8468779114
 20
153.3728346821
 30
0.0
 40
10.43039212103399
100
AcDbArc
 50
75.0
 51
345.0
  0
ENDSEC
  0
SECTION
  2
OBJECTS
  0
DICTIONARY
  5
C
330
0
100
AcDbDictionary
281
     1
  3
ACAD_GROUP
350
D
  3
ACAD_LAYOUT
350
1A
  3
ACAD_MLINESTYLE
350
17
  3
ACAD_PLOTSETTINGS
350
19
  3
ACAD_PLOTSTYLENAME
350
E
  3
ACAD_SCALELIST
350
47
  0
DICTIONARY
  5
D
102
{ACAD_REACTORS
330
C
102
}
330
C
100
AcDbDictionary
281
     1
  0
DICTIONARY
  5
1A
102
{ACAD_REACTORS
330
C
102
}
330
C
100
AcDbDictionary
281
     1
  3
Layout1
350
1E
  3
Layout2
350
26
  3
Model
350
22
  0
DICTIONARY
  5
17
102
{ACAD_REACTORS
330
C
102
}
330
C
100
AcDbDictionary
281
     1
  3
Standard
350
18
  0
DICTIONARY
  5
19
102
{ACAD_REACTORS
330
C
102
}
330
C
100
AcDbDictionary
281
     1
  0
ACDBDICTIONARYWDFLT
  5
E
102
{ACAD_REACTORS
330
C
102
}
330
C
100
AcDbDictionary
281
     1
  3
Normal
350
F
100
AcDbDictionaryWithDefault
340
F
  0
DICTIONARY
  5
47
102
{ACAD_REACTORS
330
C
102
}
330
C
100
AcDbDictionary
281
     1
  3
A0
350
48
  3
A1
350
49
  3
A2
350
4A
  3
A3
350
4B
  3
A4
350
4C
  3
A5
350
4D
  3
A6
350
4E
  3
A7
350
4F
  3
A8
350
50
  3
A9
350
51
  3
B0
350
52
  3
B1
350
53
  3
B2
350
54
  3
B3
350
55
  3
B4
350
56
  3
B5
350
57
  3
B6
350
58
  3
B7
350
59
  3
B8
350
5A
  3
B9
350
5B
  3
C0
350
5C
  3
C1
350
5D
  3
C2
350
5E
  3
C3
350
5F
  3
C4
350
60
  3
C5
350
61
  3
C6
350
62
  3
C7
350
63
  3
C8
350
64
  3
C9
350
65
  3
D0
350
66
  3
D1
350
67
  3
D2
350
68
  0
LAYOUT
  5
1E
102
{ACAD_REACTORS
330
1A
102
}
330
1A
100
AcDbPlotSettings
  1

  2
none_device
  4

  6

 40
0.0
 41
0.0
 42
0.0
 43
0.0
 44
0.0
 45
0.0
 46
0.0
 47
0.0
 48
0.0
 49
0.0
140
0.0
141
0.0
142
1.0
143
1.0
 70
   688
 72
     1
 73
     0
 74
     5
  7

 75
    16
147
1.0
148
0.0
149
0.0
100
AcDbLayout
  1
Layout1
 70
     1
 71
     1
 10
0.0
 20
0.0
 11
420.0
 21
297.0
 12
0.0
 22
0.0
 32
0.0
 14
1.0000000000E+20
 24
1.0000000000E+20
 34
1.0000000000E+20
 15
-1.0000000000E+20
 25
-1.0000000000E+20
 35
-1.0000000000E+20
146
0.0
 13
0.0
 23
0.0
 33
0.0
 16
1.0
 26
0.0
 36
0.0
 17
0.0
 27
1.0
 37
0.0
 76
     0
330
1B
  0
LAYOUT
  5
26
102
{ACAD_REACTORS
330
1A
102
}
330
1A
100
AcDbPlotSettings
  1

  2
none_device
  4

  6

 40
0.0
 41
0.0
 42
0.0
 43
0.0
 44
0.0
 45
0.0
 46
0.0
 47
0.0
 48
0.0
 49
0.0
140
0.0
141
0.0
142
1.0
143
1.0
 70
   688
 72
     1
 73
     0
 74
     5
  7

 75
    16
147
1.0
148
0.0
149
0.0
100
AcDbLayout
  1
Layout2
 70
     1
 71
     2
 10
0.0
 20
0.0
 11
0.0
 21
0.0
 12
0.0
 22
0.0
 32
0.0
 14
0.0
 24
0.0
 34
0.0
 15
0.0
 25
0.0
 35
0.0
146
0.0
 13
0.0
 23
0.0
 33
0.0
 16
1.0
 26
0.0
 36
0.0
 17
0.0
 27
1.0
 37
0.0
 76
     0
330
23
  0
LAYOUT
  5
22
102
{ACAD_REACTORS
330
1A
102
}
330
1A
100
AcDbPlotSettings
  1

  2
none_device
  4
Letter_(8.50_x_11.00_Inches)
  6

 40
6.35
 41
6.35
 42
6.35000508
 43
6.35000508
 44
215.9
 45
279.4
 46
0.0
 47
0.0
 48
0.0
 49
0.0
140
0.0
141
0.0
142
1.0
143
1.0
 70
  1712
 72
     1
 73
     0
 74
     0
  7

 75
     0
147
1.0
148
0.0
149
0.0
100
AcDbLayout
  1
Model
 70
     1
 71
     0
 10
0.0
 20
0.0
 11
431.8
 21
279.4
 12
0.0
 22
0.0
 32
0.0
 14
0.0
 24
0.0
 34
0.0
 15
431.8
 25
279.4
 35
0.0
146
0.0
 13
0.0
 23
0.0
 33
0.0
 16
1.0
 26
0.0
 36
0.0
 17
0.0
 27
1.0
 37
0.0
 76
     0
330
1F
331
29
  0
MLINESTYLE
  5
18
102
{ACAD_REACTORS
330
17
102
}
330
17
100
AcDbMlineStyle
  2
Standard
 70
     0
  3

 62
   256
 51
90.0
 52
90.0
 71
     2
 49
0.5
 62
   256
  6
BYLAYER
 49
-0.5
 62
   256
  6
BYLAYER
  0
ACDBPLACEHOLDER
  5
F
102
{ACAD_REACTORS
330
E
102
}
330
E
  0
SCALE
  5
48
102
{ACAD_REACTORS
330
47
102
}
330
47
100
AcDbScale
 70
     0
300
1:1
140
1.0
141
1.0
290
     1
  0
SCALE
  5
49
102
{ACAD_REACTORS
330
47
102
}
330
47
100
AcDbScale
 70
     0
300
1:2
140
1.0
141
2.0
290
     0
  0
SCALE
  5
4A
102
{ACAD_REACTORS
330
47
102
}
330
47
100
AcDbScale
 70
     0
300
1:4
140
1.0
141
4.0
290
     0
  0
SCALE
  5
4B
102
{ACAD_REACTORS
330
47
102
}
330
47
100
AcDbScale
 70
     0
300
1:5
140
1.0
141
5.0
290
     0
  0
SCALE
  5
4C
102
{ACAD_REACTORS
330
47
102
}
330
47
100
AcDbScale
 70
     0
300
1:8
140
1.0
141
8.0
290
     0
  0
SCALE
  5
4D
102
{ACAD_REACTORS
330
47
102
}
330
47
100
AcDbScale
 70
     0
300
1:10
140
1.0
141
10.0
290
     0
  0
SCALE
  5
4E
102
{ACAD_REACTORS
330
47
102
}
330
47
100
AcDbScale
 70
     0
300
1:16
140
1.0
141
16.0
290
     0
  0
SCALE
  5
4F
102
{ACAD_REACTORS
330
47
102
}
330
47
100
AcDbScale
 70
     0
300
1:20
140
1.0
141
20.0
290
     0
  0
SCALE
  5
50
102
{ACAD_REACTORS
330
47
102
}
330
47
100
AcDbScale
 70
     0
300
1:30
140
1.0
141
30.0
290
     0
  0
SCALE
  5
51
102
{ACAD_REACTORS
330
47
102
}
330
47
100
AcDbScale
 70
     0
300
1:40
140
1.0
141
40.0
290
     0
  0
SCALE
  5
52
102
{ACAD_REACTORS
330
47
102
}
330
47
100
AcDbScale
 70
     0
300
1:50
140
1.0
141
50.0
290
     0
  0
SCALE
  5
53
102
{ACAD_REACTORS
330
47
102
}
330
47
100
AcDbScale
 70
     0
300
1:100
140
1.0
141
100.0
290
     0
  0
SCALE
  5
54
102
{ACAD_REACTORS
330
47
102
}
330
47
100
AcDbScale
 70
     0
300
2:1
140
2.0
141
1.0
290
     0
  0
SCALE
  5
55
102
{ACAD_REACTORS
330
47
102
}
330
47
100
AcDbScale
 70
     0
300
4:1
140
4.0
141
1.0
290
     0
  0
SCALE
  5
56
102
{ACAD_REACTORS
330
47
102
}
330
47
100
AcDbScale
 70
     0
300
8:1
140
8.0
141
1.0
290
     0
  0
SCALE
  5
57
102
{ACAD_REACTORS
330
47
102
}
330
47
100
AcDbScale
 70
     0
300
10:1
140
10.0
141
1.0
290
     0
  0
SCALE
  5
58
102
{ACAD_REACTORS
330
47
102
}
330
47
100
AcDbScale
 70
     0
300
100:1
140
100.0
141
1.0
290
     0
  0
SCALE
  5
59
102
{ACAD_REACTORS
330
47
102
}
330
47
100
AcDbScale
 70
     0
300
1/128" = 1'-0"
140
0.0078125
141
12.0
290
     0
  0
SCALE
  5
5A
102
{ACAD_REACTORS
330
47
102
}
330
47
100
AcDbScale
 70
     0
300
1/64" = 1'-0"
140
0.015625
141
12.0
290
     0
  0
SCALE
  5
5B
102
{ACAD_REACTORS
330
47
102
}
330
47
100
AcDbScale
 70
     0
300
1/32" = 1'-0"
140
0.03125
141
12.0
290
     0
  0
SCALE
  5
5C
102
{ACAD_REACTORS
330
47
102
}
330
47
100
AcDbScale
 70
     0
300
1/16" = 1'-0"
140
0.0625
141
12.0
290
     0
  0
SCALE
  5
5D
102
{ACAD_REACTORS
330
47
102
}
330
47
100
AcDbScale
 70
     0
300
3/32" = 1'-0"
140
0.09375
141
12.0
290
     0
  0
SCALE
  5
5E
102
{ACAD_REACTORS
330
47
102
}
330
47
100
AcDbScale
 70
     0
300
1/8" = 1'-0"
140
0.125
141
12.0
290
     0
  0
SCALE
  5
5F
102
{ACAD_REACTORS
330
47
102
}
330
47
100
AcDbScale
 70
     0
300
3/16" = 1'-0"
140
0.1875
141
12.0
290
     0
  0
SCALE
  5
60
102
{ACAD_REACTORS
330
47
102
}
330
47
100
AcDbScale
 70
     0
300
1/4" = 1'-0"
140
0.25
141
12.0
290
     0
  0
SCALE
  5
61
102
{ACAD_REACTORS
330
47
102
}
330
47
100
AcDbScale
 70
     0
300
3/8" = 1'-0"
140
0.375
141
12.0
290
     0
  0
SCALE
  5
62
102
{ACAD_REACTORS
330
47
102
}
330
47
100
AcDbScale
 70
     0
300
1/2" = 1'-0"
140
0.5
141
12.0
290
     0
  0
SCALE
  5
63
102
{ACAD_REACTORS
330
47
102
}
330
47
100
AcDbScale
 70
     0
300
3/4" = 1'-0"
140
0.75
141
12.0
290
     0
  0
SCALE
  5
64
102
{ACAD_REACTORS
330
47
102
}
330
47
100
AcDbScale
 70
     0
300
1" = 1'-0"
140
1.0
141
12.0
290
     0
  0
SCALE
  5
65
102
{ACAD_REACTORS
330
47
102
}
330
47
100
AcDbScale
 70
     0
300
1-1/2" = 1'-0"
140
1.5
141
12.0
290
     0
  0
SCALE
  5
66
102
{ACAD_REACTORS
330
47
102
}
330
47
100
AcDbScale
 70
     0
300
3" = 1'-0"
140
3.0
141
12.0
290
     0
  0
SCALE
  5
67
102
{ACAD_REACTORS
330
47
102
}
330
47
100
AcDbScale
 70
     0
300
6" = 1'-0"
140
6.0
141
12.0
290
     0
  0
SCALE
  5
68
102
{ACAD_REACTORS
330
47
102
}
330
47
100
AcDbScale
 70
     0
300
1'-0" = 1'-0"
140
12.0
141
12.0
290
     0
  0
ENDSEC
  0
EOF
