  0
SECTION
  2
HEADER
  9
$ACADVER
  1
AC1015
  9
$ACADMAINTVER
 70
     6
  9
$DWGCODEPAGE
  3
DOS932
  9
$INSBASE
 10
0.0
 20
0.0
 30
0.0
  9
$EXTMIN
 10
0.0
 20
0.0
 30
0.0
  9
$EXTMAX
 10
431.8
 20
279.4
 30
0.0
  9
$LIMMIN
 10
0.0
 20
0.0
  9
$LIMMAX
 10
431.8
 20
279.4
  9
$ORTHOMODE
 70
     0
  9
$REGENMODE
 70
     1
  9
$FILLMODE
 70
     1
  9
$QTEXTMODE
 70
     0
  9
$MIRRTEXT
 70
     1
  9
$LTSCALE
 40
1.0
  9
$ATTMODE
 70
     1
  9
$TEXTSIZE
 40
3.5
  9
$TRACEWID
 40
1.0
  9
$TEXTSTYLE
  7
Standard
  9
$CLAYER
  8
0
  9
$CELTYPE
  6
ByLayer
  9
$CECOLOR
 62
   256
  9
$CELTSCALE
 40
1.0
  9
$DISPSILH
 70
     0
  9
$DIMSCALE
 40
1.0
  9
$DIMASZ
 40
3.302
  9
$DIMEXO
 40
1.0
  9
$DIMDLI
 40
3.75
  9
$DIMRND
 40
0.0
  9
$DIMDLE
 40
0.0
  9
$DIMEXE
 40
1.0
  9
$DIMTP
 40
0.0
  9
$DIMTM
 40
0.0
  9
$DIMTXT
 40
3.5
  9
$DIMCEN
 40
2.5
  9
$DIMTSZ
 40
0.0
  9
$DIMTOL
 70
     0
  9
$DIMLIM
 70
     0
  9
$DIMTIH
 70
     1
  9
$DIMTOH
 70
     1
  9
$DIMSE1
 70
     0
  9
$DIMSE2
 70
     0
  9
$DIMTAD
 70
     1
  9
$DIMZIN
 70
     1
  9
$DIMBLK
  1

  9
$DIMASO
 70
     1
  9
$DIMSHO
 70
     1
  9
$DIMPOST
  1

  9
$DIMAPOST
  1

  9
$DIMALT
 70
     0
  9
$DIMALTD
 70
     3
  9
$DIMALTF
 40
0.0393700787
  9
$DIMLFAC
 40
1.0
  9
$DIMTOFL
 70
     1
  9
$DIMTVP
 40
0.0
  9
$DIMTIX
 70
     0
  9
$DIMSOXD
 70
     0
  9
$DIMSAH
 70
     0
  9
$DIMBLK1
  1

  9
$DIMBLK2
  1

  9
$DIMSTYLE
  2
ISO-25
  9
$DIMCLRD
 70
     0
  9
$DIMCLRE
 70
     0
  9
$DIMCLRT
 70
     0
  9
$DIMTFAC
 40
1.0
  9
$DIMGAP
 40
1.524
  9
$DIMJUST
 70
     0
  9
$DIMSD1
 70
     0
  9
$DIMSD2
 70
     0
  9
$DIMTOLJ
 70
     0
  9
$DIMTZIN
 70
     1
  9
$DIMALTZ
 70
     0
  9
$DIMALTTZ
 70
     0
  9
$DIMUPT
 70
     0
  9
$DIMDEC
 70
     2
  9
$DIMTDEC
 70
     2
  9
$DIMALTU
 70
     2
  9
$DIMALTTD
 70
     3
  9
$DIMTXSTY
  7
Standard
  9
$DIMAUNIT
 70
     0
  9
$DIMADEC
 70
     2
  9
$DIMALTRND
 40
0.0
  9
$DIMAZIN
 70
     0
  9
$DIMDSEP
 70
    44
  9
$DIMATFIT
 70
     3
  9
$DIMFRAC
 70
     0
  9
$DIMLDRBLK
  1

  9
$DIMLUNIT
 70
     2
  9
$DIMLWD
 70
    -2
  9
$DIMLWE
 70
    -2
  9
$DIMTMOVE
 70
     0
  9
$LUNITS
 70
     2
  9
$LUPREC
 70
     2
  9
$SKETCHINC
 40
1.0
  9
$FILLETRAD
 40
10.0
  9
$AUNITS
 70
     0
  9
$AUPREC
 70
     2
  9
$MENU
  1
.
  9
$ELEVATION
 40
0.0
  9
$PELEVATION
 40
0.0
  9
$THICKNESS
 40
0.0
  9
$LIMCHECK
 70
     0
  9
$CHAMFERA
 40
0.0
  9
$CHAMFERB
 40
0.0
  9
$CHAMFERC
 40
0.0
  9
$CHAMFERD
 40
0.0
  9
$SKPOLY
 70
     0
  9
$TDCREATE
 40
2459229.384827581
  9
$TDUCREATE
 40
2459229.009827581
  9
$TDUPDATE
 40
2459229.384828299
  9
$TDUUPDATE
 40
2459229.009828299
  9
$TDINDWG
 40
0.0000000116
  9
$TDUSRTIMER
 40
0.0000000116
  9
$USRTIMER
 70
     1
  9
$ANGBASE
 50
0.0
  9
$ANGDIR
 70
     0
  9
$PDMODE
 70
     0
  9
$PDSIZE
 40
-1.0
  9
$PLINEWID
 40
0.0
  9
$SPLFRAME
 70
     0
  9
$SPLINETYPE
 70
     6
  9
$SPLINESEGS
 70
     8
  9
$HANDSEED
  5
1DE
  9
$SURFTAB1
 70
     6
  9
$SURFTAB2
 70
     6
  9
$SURFTYPE
 70
     6
  9
$SURFU
 70
     6
  9
$SURFV
 70
     6
  9
$UCSBASE
  2

  9
$UCSNAME
  2

  9
$UCSORG
 10
0.0
 20
0.0
 30
0.0
  9
$UCSXDIR
 10
1.0
 20
0.0
 30
0.0
  9
$UCSYDIR
 10
0.0
 20
1.0
 30
0.0
  9
$UCSORTHOREF
  2

  9
$UCSORTHOVIEW
 70
     0
  9
$UCSORGTOP
 10
0.0
 20
0.0
 30
0.0
  9
$UCSORGBOTTOM
 10
0.0
 20
0.0
 30
0.0
  9
$UCSORGLEFT
 10
0.0
 20
0.0
 30
0.0
  9
$UCSORGRIGHT
 10
0.0
 20
0.0
 30
0.0
  9
$UCSORGFRONT
 10
0.0
 20
0.0
 30
0.0
  9
$UCSORGBACK
 10
0.0
 20
0.0
 30
0.0
  9
$PUCSBASE
  2

  9
$PUCSNAME
  2

  9
$PUCSORG
 10
0.0
 20
0.0
 30
0.0
  9
$PUCSXDIR
 10
1.0
 20
0.0
 30
0.0
  9
$PUCSYDIR
 10
0.0
 20
1.0
 30
0.0
  9
$PUCSORTHOREF
  2

  9
$PUCSORTHOVIEW
 70
     0
  9
$PUCSORGTOP
 10
0.0
 20
0.0
 30
0.0
  9
$PUCSORGBOTTOM
 10
0.0
 20
0.0
 30
0.0
  9
$PUCSORGLEFT
 10
0.0
 20
0.0
 30
0.0
  9
$PUCSORGRIGHT
 10
0.0
 20
0.0
 30
0.0
  9
$PUCSORGFRONT
 10
0.0
 20
0.0
 30
0.0
  9
$PUCSORGBACK
 10
0.0
 20
0.0
 30
0.0
  9
$USERI1
 70
     0
  9
$USERI2
 70
     0
  9
$USERI3
 70
     0
  9
$USERI4
 70
     0
  9
$USERI5
 70
     0
  9
$USERR1
 40
0.0
  9
$USERR2
 40
0.0
  9
$USERR3
 40
0.0
  9
$USERR4
 40
0.0
  9
$USERR5
 40
0.0
  9
$WORLDVIEW
 70
     1
  9
$SHADEDGE
 70
     3
  9
$SHADEDIF
 70
    70
  9
$TILEMODE
 70
     1
  9
$MAXACTVP
 70
    64
  9
$PINSBASE
 10
0.0
 20
0.0
 30
0.0
  9
$PLIMCHECK
 70
     0
  9
$PEXTMIN
 10
1.0000000000E+20
 20
1.0000000000E+20
 30
1.0000000000E+20
  9
$PEXTMAX
 10
-1.0000000000E+20
 20
-1.0000000000E+20
 30
-1.0000000000E+20
  9
$PLIMMIN
 10
0.0
 20
0.0
  9
$PLIMMAX
 10
420.0
 20
297.0
  9
$UNITMODE
 70
     0
  9
$VISRETAIN
 70
     1
  9
$PLINEGEN
 70
     0
  9
$PSLTSCALE
 70
     1
  9
$TREEDEPTH
 70
  3020
  9
$CMLSTYLE
  2
Standard
  9
$CMLJUST
 70
     0
  9
$CMLSCALE
 40
20.0
  9
$PROXYGRAPHICS
 70
     1
  9
$MEASUREMENT
 70
     1
  9
$CELWEIGHT
370
    -1
  9
$ENDCAPS
280
     0
  9
$JOINSTYLE
280
     0
  9
$LWDISPLAY
290
     1
  9
$INSUNITS
 70
     4
  9
$HYPERLINKBASE
  1

  9
$STYLESHEET
  1

  9
$XEDIT
290
     1
  9
$CEPSNTYPE
380
     0
  9
$PSTYLEMODE
290
     1
  9
$FINGERPRINTGUID
  2
{17E6E538-5997-493B-A1F8-F9ECF8BE1382}
  9
$VERSIONGUID
  2
{FAEB1C32-E019-11D5-929B-00C0DF256EC4}
  9
$EXTNAMES
290
     1
  9
$PSVPSCALE
 40
0.0
  9
$OLESTARTUP
290
     0
  0
ENDSEC
  0
SECTION
  2
CLASSES
  0
CLASS
  1
ACDBDICTIONARYWDFLT
  2
AcDbDictionaryWithDefault
  3
ObjectDBX Classes
 90
        0
280
     0
281
     0
  0
CLASS
  1
VISUALSTYLE
  2
AcDbVisualStyle
  3
ObjectDBX Classes
 90
     4095
280
     0
281
     0
  0
CLASS
  1
MATERIAL
  2
AcDbMaterial
  3
ObjectDBX Classes
 90
     1153
280
     0
281
     0
  0
CLASS
  1
SCALE
  2
AcDbScale
  3
ObjectDBX Classes
 90
     1153
280
     0
281
     0
  0
CLASS
  1
TABLESTYLE
  2
AcDbTableStyle
  3
ObjectDBX Classes
 90
     4095
280
     0
281
     0
  0
CLASS
  1
MLEADERSTYLE
  2
AcDbMLeaderStyle
  3
ACDB_MLEADERSTYLE_CLASS
 90
     4095
280
     0
281
     0
  0
CLASS
  1
SUN
  2
AcDbSun
  3
SCENEOE
 90
     1153
280
     0
281
     0
  0
CLASS
  1
ACDBPLACEHOLDER
  2
AcDbPlaceHolder
  3
ObjectDBX Classes
 90
        0
280
     0
281
     0
  0
CLASS
  1
LAYOUT
  2
AcDbLayout
  3
ObjectDBX Classes
 90
        0
280
     0
281
     0
  0
ENDSEC
  0
SECTION
  2
TABLES
  0
TABLE
  2
VPORT
  5
8
330
0
100
AcDbSymbolTable
 70
     1
  0
VPORT
  5
29
330
8
100
AcDbSymbolTableRecord
100
AcDbViewportTableRecord
  2
*Active
 70
     0
 10
0.0
 20
0.0
 11
1.0
 21
1.0
 12
215.9
 22
139.7
 13
0.0
 23
0.0
 14
10.0
 24
10.0
 15
10.0
 25
10.0
 16
0.0
 26
0.0
 36
1.0
 17
0.0
 27
0.0
 37
0.0
 40
279.4
 41
1.5454545455
 42
50.0
 43
0.0
 44
0.0
 50
0.0
 51
0.0
 71
     0
 72
  2000
 73
     1
 74
     3
 75
     0
 76
     0
 77
     0
 78
     0
281
     0
 65
     1
110
0.0
120
0.0
130
0.0
111
1.0
121
0.0
131
0.0
112
0.0
122
1.0
132
0.0
 79
     0
146
0.0
  0
ENDTAB
  0
TABLE
  2
LTYPE
  5
5
330
0
100
AcDbSymbolTable
 70
     6
  0
LTYPE
  5
14
330
5
100
AcDbSymbolTableRecord
100
AcDbLinetypeTableRecord
  2
ByBlock
 70
     0
  3

 72
    65
 73
     0
 40
0.0
  0
LTYPE
  5
15
330
5
100
AcDbSymbolTableRecord
100
AcDbLinetypeTableRecord
  2
ByLayer
 70
     0
  3

 72
    65
 73
     0
 40
0.0
  0
LTYPE
  5
16
330
5
100
AcDbSymbolTableRecord
100
AcDbLinetypeTableRecord
  2
Continuous
 70
     0
  3
Solid line
 72
    65
 73
     0
 40
0.0
  0
LTYPE
  5
6E
330
5
100
AcDbSymbolTableRecord
100
AcDbLinetypeTableRecord
  2
HIDDEN
 70
     0
  3
Hidden __ __ __ __ __ __ __ __ __ __ __ __ __ __
 72
    65
 73
     2
 40
1.905
 49
1.27
 74
     0
 49
-0.635
 74
     0
  0
LTYPE
  5
6F
330
5
100
AcDbSymbolTableRecord
100
AcDbLinetypeTableRecord
  2
PHANTOM
 70
     0
  3
Phantom ______  __  __  ______  __  __  ______
 72
    65
 73
     6
 40
12.7
 49
6.35
 74
     0
 49
-1.27
 74
     0
 49
1.27
 74
     0
 49
-1.27
 74
     0
 49
1.27
 74
     0
 49
-1.27
 74
     0
  0
LTYPE
  5
70
330
5
100
AcDbSymbolTableRecord
100
AcDbLinetypeTableRecord
  2
CENTER
 70
     0
  3
Center ____ _ ____ _ ____ _ ____ _ ____ _ ____
 72
    65
 73
     4
 40
10.16
 49
6.35
 74
     0
 49
-1.27
 74
     0
 49
1.27
 74
     0
 49
-1.27
 74
     0
  0
LTYPE
  5
71
330
5
100
AcDbSymbolTableRecord
100
AcDbLinetypeTableRecord
  2
CENTERX2
 70
     0
  3
Center (2x) ________  __  ________  __  _____
 72
    65
 73
     4
 40
20.32
 49
12.7
 74
     0
 49
-2.54
 74
     0
 49
2.54
 74
     0
 49
-2.54
 74
     0
  0
LTYPE
  5
72
330
5
100
AcDbSymbolTableRecord
100
AcDbLinetypeTableRecord
  2
DOT2
 70
     0
  3
Dot (.5x) ........................................
 72
    65
 73
     2
 40
0.635
 49
0.0
 74
     0
 49
-0.635
 74
     0
  0
ENDTAB
  0
TABLE
  2
LAYER
  5
2
330
0
100
AcDbSymbolTable
 70
     1
  0
LAYER
  5
10
330
2
100
AcDbSymbolTableRecord
100
AcDbLayerTableRecord
  2
0
 70
     0
 62
     7
  6
Continuous
370
    -3
390
F
  0
ENDTAB
  0
TABLE
  2
STYLE
  5
3
330
0
100
AcDbSymbolTable
 70
     2
  0
STYLE
  5
11
330
3
100
AcDbSymbolTableRecord
100
AcDbTextStyleTableRecord
  2
Standard
 70
     0
 40
0.0
 41
1.0
 50
0.0
 71
     0
 42
3.5
  3
txt
  4
bigfont
  0
STYLE
  5
73
330
3
100
AcDbSymbolTableRecord
100
AcDbTextStyleTableRecord
  2
SLDTEXTSTYLE0
 70
     0
 40
0.0
 41
0.7
 50
0.0
 71
     0
 42
3.5
  3
TXT
  4
bigfont
  0
ENDTAB
  0
TABLE
  2
VIEW
  5
6
330
0
100
AcDbSymbolTable
 70
     0
  0
ENDTAB
  0
TABLE
  2
UCS
  5
7
330
0
100
AcDbSymbolTable
 70
     0
  0
ENDTAB
  0
TABLE
  2
APPID
  5
9
330
0
100
AcDbSymbolTable
 70
     1
  0
APPID
  5
12
330
9
100
AcDbSymbolTableRecord
100
AcDbRegAppTableRecord
  2
ACAD
 70
     0
  0
ENDTAB
  0
TABLE
  2
DIMSTYLE
  5
A
330
0
100
AcDbSymbolTable
 70
     1
100
AcDbDimStyleTable
  0
DIMSTYLE
105
27
330
A
100
AcDbSymbolTableRecord
100
AcDbDimStyleTableRecord
  2
ISO-25
 70
     0
 41
2.5
 42
0.625
 43
3.75
 44
1.25
 73
     0
 74
     0
 77
     1
 78
     8
140
2.5
141
2.5
143
0.0393700787
147
0.625
171
     3
172
     1
178
     0
271
     2
272
     2
274
     3
278
    44
283
     0
284
     8
340
11
  0
ENDTAB
  0
TABLE
  2
BLOCK_RECORD
  5
1
330
0
100
AcDbSymbolTable
 70
     3
  0
BLOCK_RECORD
  5
1F
330
1
100
AcDbSymbolTableRecord
100
AcDbBlockTableRecord
  2
*Model_Space
340
22
  0
BLOCK_RECORD
  5
1B
330
1
100
AcDbSymbolTableRecord
100
AcDbBlockTableRecord
  2
*Paper_Space
340
1E
  0
BLOCK_RECORD
  5
23
330
1
100
AcDbSymbolTableRecord
100
AcDbBlockTableRecord
  2
*Paper_Space0
340
26
  0
BLOCK_RECORD
  5
161
330
1
100
AcDbSymbolTableRecord
100
AcDbBlockTableRecord
  2
SW_CENTERMARKSYMBOL_0
340
0
102
{BLKREFS
331
16C
102
}
  0
BLOCK_RECORD
  5
1D1
330
1
100
AcDbSymbolTableRecord
100
AcDbBlockTableRecord
  2
SW_CENTERMARKSYMBOL_1
340
0
102
{BLKREFS
331
1DC
102
}
  0
ENDTAB
  0
ENDSEC
  0
SECTION
  2
BLOCKS
  0
BLOCK
  5
20
330
1F
100
AcDbEntity
  8
0
100
AcDbBlockBegin
  2
*Model_Space
 70
     0
 10
0.0
 20
0.0
 30
0.0
  3
*Model_Space
  1

  0
ENDBLK
  5
21
330
1F
100
AcDbEntity
  8
0
100
AcDbBlockEnd
  0
BLOCK
  5
1C
330
1B
100
AcDbEntity
 67
     1
  8
0
100
AcDbBlockBegin
  2
*Paper_Space
 70
     0
 10
0.0
 20
0.0
 30
0.0
  3
*Paper_Space
  1

  0
ENDBLK
  5
1D
330
1B
100
AcDbEntity
 67
     1
  8
0
100
AcDbBlockEnd
  0
BLOCK
  5
24
330
23
100
AcDbEntity
  8
0
100
AcDbBlockBegin
  2
*Paper_Space0
 70
     0
 10
0.0
 20
0.0
 30
0.0
  3
*Paper_Space0
  1

  0
ENDBLK
  5
25
330
23
100
AcDbEntity
  8
0
100
AcDbBlockEnd
  0
BLOCK
  5
162
330
161
100
AcDbEntity
  8
0
100
AcDbBlockBegin
  2
SW_CENTERMARKSYMBOL_0
 70
     0
 10
0.0
 20
0.0
 30
0.0
  3
SW_CENTERMARKSYMBOL_0
  1

  0
LINE
  5
164
330
161
100
AcDbEntity
  8
0
  6
Continuous
 62
     0
370
    18
100
AcDbLine
 10
0.0
 20
0.0
 30
0.0
 11
0.0
 21
2.5
 31
0.0
  0
LINE
  5
165
330
161
100
AcDbEntity
  8
0
  6
Continuous
 62
     0
370
    18
100
AcDbLine
 10
0.0
 20
0.0
 30
0.0
 11
-2.5
 21
0.0
 31
0.0
  0
LINE
  5
166
330
161
100
AcDbEntity
  8
0
  6
Continuous
 62
     0
370
    18
100
AcDbLine
 10
0.0
 20
0.0
 30
0.0
 11
0.0
 21
-2.5
 31
0.0
  0
LINE
  5
167
330
161
100
AcDbEntity
  8
0
  6
Continuous
 62
     0
370
    18
100
AcDbLine
 10
0.0
 20
0.0
 30
0.0
 11
2.5
 21
0.0
 31
0.0
  0
LINE
  5
168
330
161
100
AcDbEntity
  8
0
  6
Continuous
 62
     0
370
    18
100
AcDbLine
 10
0.0
 20
5.0
 30
0.0
 11
0.0
 21
32.5251041996
 31
0.0
  0
LINE
  5
169
330
161
100
AcDbEntity
  8
0
  6
Continuous
 62
     0
370
    18
100
AcDbLine
 10
-5.0
 20
0.0
 30
0.0
 11
-13.75
 21
0.0
 31
0.0
  0
LINE
  5
16A
330
161
100
AcDbEntity
  8
0
  6
Continuous
 62
     0
370
    18
100
AcDbLine
 10
0.0
 20
-5.0
 30
0.0
 11
0.0
 21
-13.75
 31
0.0
  0
LINE
  5
16B
330
161
100
AcDbEntity
  8
0
  6
Continuous
 62
     0
370
    18
100
AcDbLine
 10
5.0
 20
0.0
 30
0.0
 11
13.75
 21
0.0
 31
0.0
  0
ENDBLK
  5
163
330
161
100
AcDbEntity
  8
0
100
AcDbBlockEnd
  0
BLOCK
  5
1D2
330
1D1
100
AcDbEntity
  8
0
100
AcDbBlockBegin
  2
SW_CENTERMARKSYMBOL_1
 70
     0
 10
0.0
 20
0.0
 30
0.0
  3
SW_CENTERMARKSYMBOL_1
  1

  0
LINE
  5
1D4
330
1D1
100
AcDbEntity
  8
0
  6
Continuous
 62
     0
370
    18
100
AcDbLine
 10
0.0
 20
0.0
 30
0.0
 11
0.0
 21
2.5
 31
0.0
  0
LINE
  5
1D5
330
1D1
100
AcDbEntity
  8
0
  6
Continuous
 62
     0
370
    18
100
AcDbLine
 10
0.0
 20
0.0
 30
0.0
 11
-2.5
 21
0.0
 31
0.0
  0
LINE
  5
1D6
330
1D1
100
AcDbEntity
  8
0
  6
Continuous
 62
     0
370
    18
100
AcDbLine
 10
0.0
 20
0.0
 30
0.0
 11
0.0
 21
-2.5
 31
0.0
  0
LINE
  5
1D7
330
1D1
100
AcDbEntity
  8
0
  6
Continuous
 62
     0
370
    18
100
AcDbLine
 10
0.0
 20
0.0
 30
0.0
 11
2.5
 21
0.0
 31
0.0
  0
LINE
  5
1D8
330
1D1
100
AcDbEntity
  8
0
  6
Continuous
 62
     0
370
    18
100
AcDbLine
 10
0.0
 20
5.0
 30
0.0
 11
0.0
 21
13.75
 31
0.0
  0
LINE
  5
1D9
330
1D1
100
AcDbEntity
  8
0
  6
Continuous
 62
     0
370
    18
100
AcDbLine
 10
-5.0
 20
0.0
 30
0.0
 11
-30.5554374913
 21
0.0
 31
0.0
  0
LINE
  5
1DA
330
1D1
100
AcDbEntity
  8
0
  6
Continuous
 62
     0
370
    18
100
AcDbLine
 10
0.0
 20
-5.0
 30
0.0
 11
0.0
 21
-13.75
 31
0.0
  0
LINE
  5
1DB
330
1D1
100
AcDbEntity
  8
0
  6
Continuous
 62
     0
370
    18
100
AcDbLine
 10
5.0
 20
0.0
 30
0.0
 11
30.7634400584
 21
0.0
 31
0.0
  0
ENDBLK
  5
1D3
330
1D1
100
AcDbEntity
  8
0
100
AcDbBlockEnd
  0
ENDSEC
  0
SECTION
  2
ENTITIES
  0
MTEXT
  5
74
330
1F
100
AcDbEntity
  8
0
  6
Continuous
 62
     7
370
     0
100
AcDbMText
 10
157.4510607108
 20
124.5826017488
 30
0.0
 40
5.2916666667
 41
0.0
 71
     1
 72
     1
  1
5R-TF1332
  7
SLDTEXTSTYLE0
 73
     1
 44
1.0
  0
LINE
  5
75
330
1F
100
AcDbEntity
  8
0
  6
Continuous
 62
     7
370
    25
100
AcDbLine
 10
154.7751906248
 20
89.3167524348
 30
0.0
 11
142.2751913698
 21
89.3167524348
 31
0.0
  0
LINE
  5
76
330
1F
100
AcDbEntity
  8
0
  6
Continuous
 62
     7
370
    25
100
AcDbLine
 10
142.2751913698
 20
66.8167515407
 30
0.0
 11
154.7751906248
 21
66.8167515407
 31
0.0
  0
LINE
  5
77
330
1F
100
AcDbEntity
  8
0
  6
Continuous
 62
     7
370
    25
100
AcDbLine
 10
115.0251901629
 20
106.5667520026
 30
0.0
 11
115.0251901629
 21
94.0667527477
 31
0.0
  0
LINE
  5
78
330
1F
100
AcDbEntity
  8
0
  6
Continuous
 62
     7
370
    25
100
AcDbLine
 10
137.5251910569
 20
94.0667527477
 30
0.0
 11
137.5251910569
 21
106.5667520026
 31
0.0
  0
LINE
  5
79
330
1F
100
AcDbEntity
  8
0
  6
Continuous
 62
     7
370
    25
100
AcDbLine
 10
97.775190595
 20
66.8167515407
 30
0.0
 11
110.2751898499
 21
66.8167515407
 31
0.0
  0
LINE
  5
7A
330
1F
100
AcDbEntity
  8
0
  6
Continuous
 62
     7
370
    25
100
AcDbLine
 10
110.2751898499
 20
89.3167524348
 30
0.0
 11
97.775190595
 21
89.3167524348
 31
0.0
  0
ARC
  5
7B
330
1F
100
AcDbEntity
  8
0
  6
Continuous
 62
     7
370
    25
100
AcDbCircle
 10
116.0251906099
 20
94.0667519877
 30
0.0
 40
1.0
100
AcDbArc
 50
180.0
 51
270.0
  0
ARC
  5
7C
330
1F
100
AcDbEntity
  8
0
  6
Continuous
 62
     7
370
    25
100
AcDbCircle
 10
136.5251906099
 20
94.0667519877
 30
0.0
 40
1.0
100
AcDbArc
 50
270.0
 51
0.0
  0
LINE
  5
7D
330
1F
100
AcDbEntity
  8
0
  6
Continuous
 62
     7
370
    25
100
AcDbLine
 10
137.5251910569
 20
106.5667520026
 30
0.0
 11
137.025190975
 21
107.0667511533
 31
0.0
  0
LINE
  5
7E
330
1F
100
AcDbEntity
  8
0
  6
Continuous
 62
     7
370
    25
100
AcDbLine
 10
115.5251902448
 20
107.0667511533
 30
0.0
 11
115.0251901629
 21
106.5667520026
 31
0.0
  0
ARC
  5
7F
330
1F
100
AcDbEntity
  8
0
  6
Continuous
 62
     7
370
    25
100
AcDbCircle
 10
142.2751906099
 20
88.3167519877
 30
0.0
 40
1.0
100
AcDbArc
 50
90.0
 51
180.0
  0
ARC
  5
80
330
1F
100
AcDbEntity
  8
0
  6
Continuous
 62
     7
370
    25
100
AcDbCircle
 10
142.2751906099
 20
67.8167519877
 30
0.0
 40
1.0
100
AcDbArc
 50
180.0
 51
270.0
  0
LINE
  5
81
330
1F
100
AcDbEntity
  8
0
  6
Continuous
 62
     7
370
    25
100
AcDbLine
 10
154.7751906248
 20
66.8167515407
 30
0.0
 11
155.2751897754
 21
67.3167516227
 31
0.0
  0
LINE
  5
82
330
1F
100
AcDbEntity
  8
0
  6
Continuous
 62
     7
370
    25
100
AcDbLine
 10
155.2751897754
 20
88.8167523528
 30
0.0
 11
154.7751906248
 21
89.3167524348
 31
0.0
  0
ARC
  5
83
330
1F
100
AcDbEntity
  8
0
  6
Continuous
 62
     7
370
    25
100
AcDbCircle
 10
110.2751906099
 20
67.8167519877
 30
0.0
 40
1.0
100
AcDbArc
 50
270.0
 51
0.0
  0
ARC
  5
84
330
1F
100
AcDbEntity
  8
0
  6
Continuous
 62
     7
370
    25
100
AcDbCircle
 10
110.2751906099
 20
88.3167519877
 30
0.0
 40
1.0
100
AcDbArc
 50
0.0
 51
90.0
  0
LINE
  5
85
330
1F
100
AcDbEntity
  8
0
  6
Continuous
 62
     7
370
    25
100
AcDbLine
 10
97.775190595
 20
89.3167524348
 30
0.0
 11
97.2751914444
 21
88.8167523528
 31
0.0
  0
LINE
  5
86
330
1F
100
AcDbEntity
  8
0
  6
Continuous
 62
     7
370
    25
100
AcDbLine
 10
97.2751914444
 20
67.3167516227
 30
0.0
 11
97.775190595
 21
66.8167515407
 31
0.0
  0
ARC
  5
87
330
1F
100
AcDbEntity
  8
0
  6
Continuous
 62
     7
370
    25
100
AcDbCircle
 10
140.2751906099
 20
87.5667519877
 30
0.0
 40
1.0
100
AcDbArc
 50
270.0
 51
0.0
  0
ARC
  5
88
330
1F
100
AcDbEntity
  8
0
  6
Continuous
 62
     7
370
    25
100
AcDbCircle
 10
140.2751906099
 20
68.5667519877
 30
0.0
 40
1.0
100
AcDbArc
 50
0.0
 51
90.0
  0
ARC
  5
89
330
1F
100
AcDbEntity
  8
0
  6
Continuous
 62
     7
370
    25
100
AcDbCircle
 10
116.7751906099
 20
92.0667519877
 30
0.0
 40
1.0
100
AcDbArc
 50
0.0
 51
90.0
  0
ARC
  5
8A
330
1F
100
AcDbEntity
  8
0
  6
Continuous
 62
     7
370
    25
100
AcDbCircle
 10
135.7751906099
 20
92.0667519877
 30
0.0
 40
1.0
100
AcDbArc
 50
90.0
 51
180.0
  0
ARC
  5
8B
330
1F
100
AcDbEntity
  8
0
  6
Continuous
 62
     7
370
    25
100
AcDbCircle
 10
112.2751906099
 20
68.5667519877
 30
0.0
 40
1.0
100
AcDbArc
 50
90.0
 51
180.0
  0
ARC
  5
8C
330
1F
100
AcDbEntity
  8
0
  6
Continuous
 62
     7
370
    25
100
AcDbCircle
 10
112.2751906099
 20
87.5667519877
 30
0.0
 40
1.0
100
AcDbArc
 50
180.0
 51
270.0
  0
LINE
  5
8D
330
1F
100
AcDbEntity
  8
0
  6
Continuous
 62
     7
370
    25
100
AcDbLine
 10
134.7751910718
 20
87.0667516003
 30
0.0
 11
134.7751910718
 21
92.0667524199
 31
0.0
  0
LINE
  5
8E
330
1F
100
AcDbEntity
  8
0
  6
Continuous
 62
     7
370
    25
100
AcDbLine
 10
117.7751901479
 20
92.0667524199
 30
0.0
 11
117.7751901479
 21
87.0667516003
 31
0.0
  0
LINE
  5
8F
330
1F
100
AcDbEntity
  8
0
  6
Continuous
 62
     7
370
    25
100
AcDbLine
 10
117.2751909973
 20
86.5667524497
 30
0.0
 11
112.2751901778
 21
86.5667524497
 31
0.0
  0
LINE
  5
90
330
1F
100
AcDbEntity
  8
0
  6
Continuous
 62
     7
370
    25
100
AcDbLine
 10
140.275191042
 20
86.5667524497
 30
0.0
 11
135.2751902225
 21
86.5667524497
 31
0.0
  0
LINE
  5
91
330
1F
100
AcDbEntity
  8
0
  6
Continuous
 62
     7
370
    25
100
AcDbLine
 10
112.2751901778
 20
69.5667515258
 30
0.0
 11
140.275191042
 21
69.5667515258
 31
0.0
  0
ARC
  5
92
330
1F
100
AcDbEntity
  8
0
  6
Continuous
 62
     7
370
    25
100
AcDbCircle
 10
135.2751906099
 20
87.0667519877
 30
0.0
 40
0.5000000000000019
100
AcDbArc
 50
181.6119871608
 51
268.2801185035
  0
ARC
  5
93
330
1F
100
AcDbEntity
  8
0
  6
Continuous
 62
     7
370
    25
100
AcDbCircle
 10
117.2751906099
 20
87.0667519877
 30
0.0
 40
0.5000000000000019
100
AcDbArc
 50
271.6119871608
 51
358.2801185035
  0
LINE
  5
94
330
1F
100
AcDbEntity
  8
0
  6
Continuous
 62
     7
370
    25
100
AcDbLine
 10
154.7751906248
 20
66.8167515407
 30
0.0
 11
154.7751906248
 21
89.3167524348
 31
0.0
  0
LINE
  5
95
330
1F
100
AcDbEntity
  8
0
  6
Continuous
 62
     7
370
    25
100
AcDbLine
 10
137.5251910569
 20
106.5667520026
 30
0.0
 11
115.0251901629
 21
106.5667520026
 31
0.0
  0
LINE
  5
96
330
1F
100
AcDbEntity
  8
0
  6
Continuous
 62
     7
370
    25
100
AcDbLine
 10
97.775190595
 20
78.0667519877
 30
0.0
 11
97.775190595
 21
66.8167515407
 31
0.0
  0
LINE
  5
97
330
1F
100
AcDbEntity
  8
0
  6
Continuous
 62
     7
370
    25
100
AcDbLine
 10
97.775190595
 20
89.3167524348
 30
0.0
 11
97.775190595
 21
78.0667519877
 31
0.0
  0
LINE
  5
98
330
1F
100
AcDbEntity
  8
0
  6
Continuous
 62
     7
370
    25
100
AcDbLine
 10
136.525190893
 20
93.0667516525
 30
0.0
 11
116.0251903268
 21
93.0667516525
 31
0.0
  0
LINE
  5
99
330
1F
100
AcDbEntity
  8
0
  6
Continuous
 62
     7
370
    25
100
AcDbLine
 10
115.5251902448
 20
107.0667511533
 30
0.0
 11
137.025190975
 21
107.0667511533
 31
0.0
  0
LINE
  5
9A
330
1F
100
AcDbEntity
  8
0
  6
Continuous
 62
     7
370
    25
100
AcDbLine
 10
141.2751902746
 20
67.8167517046
 30
0.0
 11
141.2751902746
 21
88.3167522709
 31
0.0
  0
LINE
  5
9B
330
1F
100
AcDbEntity
  8
0
  6
Continuous
 62
     7
370
    25
100
AcDbLine
 10
155.2751897754
 20
88.8167523528
 30
0.0
 11
155.2751897754
 21
67.3167516227
 31
0.0
  0
LINE
  5
9C
330
1F
100
AcDbEntity
  8
0
  6
Continuous
 62
     7
370
    25
100
AcDbLine
 10
111.2751909452
 20
78.0667519877
 30
0.0
 11
111.2751909452
 21
67.8167517046
 31
0.0
  0
LINE
  5
9D
330
1F
100
AcDbEntity
  8
0
  6
Continuous
 62
     7
370
    25
100
AcDbLine
 10
111.2751909452
 20
88.3167522709
 30
0.0
 11
111.2751909452
 21
78.0667519877
 31
0.0
  0
LINE
  5
9E
330
1F
100
AcDbEntity
  8
0
  6
Continuous
 62
     7
370
    25
100
AcDbLine
 10
97.2751914444
 20
78.0667519877
 30
0.0
 11
97.2751914444
 21
88.8167523528
 31
0.0
  0
LINE
  5
9F
330
1F
100
AcDbEntity
  8
0
  6
Continuous
 62
     7
370
    25
100
AcDbLine
 10
97.2751914444
 20
67.3167516227
 30
0.0
 11
97.2751914444
 21
78.0667519877
 31
0.0
  0
SPLINE
  5
A0
330
1F
100
AcDbEntity
  8
0
  6
Continuous
 62
     7
370
    25
100
AcDbSpline
210
0.0
220
0.0
230
1.0
 70
     8
 71
     3
 72
    16
 73
    12
 74
     0
 42
0.000000001
 43
0.00000001
 40
0.0
 40
0.0
 40
0.0
 40
0.0
 40
0.2500000000000001
 40
0.2500000000000001
 40
0.5000000000000001
 40
0.5000000000000001
 40
0.7500000000000002
 40
0.7500000000000002
 40
0.8750000000000001
 40
0.8750000000000001
 40
1.0
 40
1.0
 40
1.0
 40
1.0
 10
134.2751906098855
 20
75.19447066446246
 30
0.0
 10
134.2751906098855
 20
75.44076599672627
 30
0.0
 10
134.2951223955726
 20
75.68428593150024
 30
0.0
 10
134.3557289421762
 20
76.16697190487551
 30
0.0
 10
134.3968394496214
 20
76.4064123736502
 30
0.0
 10
134.4912159060206
 20
76.88315345331328
 30
0.0
 10
134.5445812678769
 20
77.1204365634402
 30
0.0
 10
134.6288884278115
 20
77.47561144875496
 30
0.0
 10
134.6577133046533
 20
77.59387588918901
 30
0.0
 10
134.7160723832188
 20
77.8302798996901
 30
0.0
 10
134.7453235044369
 20
77.94728237124654
 30
0.0
 10
134.7751906098855
 20
78.06675198773146
 30
0.0
  0
SPLINE
  5
A1
330
1F
100
AcDbEntity
  8
0
  6
Continuous
 62
     7
370
    25
100
AcDbSpline
210
0.0
220
0.0
230
1.0
 70
     8
 71
     3
 72
    12
 73
     8
 74
     0
 42
0.000000001
 43
0.00000001
 40
0.0
 40
0.0
 40
0.0
 40
0.0
 40
0.2500000000000002
 40
0.2500000000000002
 40
0.5000000000000001
 40
0.5000000000000001
 40
1.0
 40
1.0
 40
1.0
 40
1.0
 10
134.6993889343328
 20
75.19447066446254
 30
0.0
 10
134.6771220921789
 20
75.43188322258283
 30
0.0
 10
134.6700840595245
 20
75.66999323674943
 30
0.0
 10
134.6692089380401
 20
76.14769136401146
 30
0.0
 10
134.6758729319891
 20
76.38731422062807
 30
0.0
 10
134.7065252814074
 20
77.10602997476407
 30
0.0
 10
134.7411339642582
 20
77.58684693940297
 30
0.0
 10
134.7751906098855
 20
78.06675198773146
 30
0.0
  0
LINE
  5
A2
330
1F
100
AcDbEntity
  8
0
  6
Continuous
 62
     7
370
    25
100
AcDbLine
 10
134.6993888648
 20
75.1944707456
 30
0.0
 11
134.2751909899
 21
75.1944707456
 31
0.0
  0
ARC
  5
A3
330
1F
100
AcDbEntity
  8
0
  6
Continuous
 62
     7
370
    25
100
AcDbCircle
 10
135.2918805301
 20
74.2630339871
 30
0.0
 40
1.103911594455069
100
AcDbArc
 50
98.7690151238
 51
122.4606473444
  0
SPLINE
  5
A4
330
1F
100
AcDbEntity
  8
0
  6
Continuous
 62
     7
370
    25
100
AcDbSpline
210
0.0
220
0.0
230
1.0
 70
     8
 71
     3
 72
    12
 73
     8
 74
     0
 42
0.000000001
 43
0.00000001
 40
0.0
 40
0.0
 40
0.0
 40
0.0
 40
0.2499999999999999
 40
0.2499999999999999
 40
0.5
 40
0.5
 40
1.0
 40
1.0
 40
1.0
 40
1.0
 10
135.1235872587802
 20
75.3540418490886
 30
0.0
 10
135.0754791501358
 20
75.57027943362684
 30
0.0
 10
135.0392660926716
 20
75.79004502902048
 30
0.0
 10
134.9741618830187
 20
76.23448801513717
 30
0.0
 10
134.9459217027304
 20
76.45924803911342
 30
0.0
 10
134.8666568714574
 20
77.1402119442116
 30
0.0
 10
134.8207914882597
 20
77.60659487130587
 30
0.0
 10
134.7751906098855
 20
78.06675198773146
 30
0.0
  0
ARC
  5
A5
330
1F
100
AcDbEntity
  8
0
  6
Continuous
 62
     7
370
    25
100
AcDbCircle
 10
117.2585006897
 20
81.8704699883
 30
0.0
 40
1.103911594455077
100
AcDbArc
 50
278.7690151238
 51
302.4606473444
  0
SPLINE
  5
A6
330
1F
100
AcDbEntity
  8
0
  6
Continuous
 62
     7
370
    25
100
AcDbSpline
210
0.0
220
0.0
230
1.0
 70
     8
 71
     3
 72
    12
 73
     8
 74
     0
 42
0.000000001
 43
0.00000001
 40
0.0
 40
0.0
 40
0.0
 40
0.0
 40
0.2500000000000002
 40
0.2500000000000002
 40
0.5000000000000001
 40
0.5000000000000001
 40
1.0
 40
1.0
 40
1.0
 40
1.0
 10
117.8509922854381
 20
80.9390333110004
 30
0.0
 10
117.873259127592
 20
80.70162075288019
 30
0.0
 10
117.8802971602465
 20
80.46351073871367
 30
0.0
 10
117.8811722817309
 20
79.98581261145176
 30
0.0
 10
117.8745082877818
 20
79.74618975483523
 30
0.0
 10
117.8438559383636
 20
79.02747400069947
 30
0.0
 10
117.8092472552391
 20
78.54665703607925
 30
0.0
 10
117.7751906098855
 20
78.06675198773146
 30
0.0
  0
SPLINE
  5
A7
330
1F
100
AcDbEntity
  8
0
  6
Continuous
 62
     7
370
    25
100
AcDbSpline
210
0.0
220
0.0
230
1.0
 70
     8
 71
     3
 72
    12
 73
     8
 74
     0
 42
0.000000001
 43
0.00000001
 40
0.0
 40
0.0
 40
0.0
 40
0.0
 40
0.2499999999999998
 40
0.2499999999999998
 40
0.4999999999999999
 40
0.4999999999999999
 40
1.0
 40
1.0
 40
1.0
 40
1.0
 10
117.4267939609908
 20
80.77946212637433
 30
0.0
 10
117.4747915328297
 20
80.56372138555912
 30
0.0
 10
117.5110301067288
 20
80.34401556528375
 30
0.0
 10
117.5762350619551
 20
79.89893236936797
 30
0.0
 10
117.6046021192153
 20
79.67313102067978
 30
0.0
 10
117.6840588947047
 20
78.99021640920074
 30
0.0
 10
117.7295048745552
 20
78.52776541651096
 30
0.0
 10
117.7751906098855
 20
78.06675198773146
 30
0.0
  0
SPLINE
  5
A8
330
1F
100
AcDbEntity
  8
0
  6
Continuous
 62
     7
370
    25
100
AcDbSpline
210
0.0
220
0.0
230
1.0
 70
     8
 71
     3
 72
    16
 73
    12
 74
     0
 42
0.000000001
 43
0.00000001
 40
0.0
 40
0.0
 40
0.0
 40
0.0
 40
0.2499999999999999
 40
0.2499999999999999
 40
0.5
 40
0.5
 40
0.7500000000000001
 40
0.7500000000000001
 40
0.875
 40
0.875
 40
1.0
 40
1.0
 40
1.0
 40
1.0
 10
118.2751906098855
 20
80.93903331100049
 30
0.0
 10
118.2751906098855
 20
80.69273797873672
 30
0.0
 10
118.2552588241983
 20
80.44921804396269
 30
0.0
 10
118.1946522775948
 20
79.96653207058742
 30
0.0
 10
118.1535417701496
 20
79.72709160181273
 30
0.0
 10
118.0591653137504
 20
79.25035052214965
 30
0.0
 10
118.0057999518941
 20
79.01306741202272
 30
0.0
 10
117.9214927919595
 20
78.65789252670798
 30
0.0
 10
117.8926679151176
 20
78.53962808627394
 30
0.0
 10
117.8343088365521
 20
78.30322407577283
 30
0.0
 10
117.8050577153341
 20
78.18622160421637
 30
0.0
 10
117.7751906098855
 20
78.06675198773146
 30
0.0
  0
LINE
  5
A9
330
1F
100
AcDbEntity
  8
0
  6
Continuous
 62
     7
370
    25
100
AcDbLine
 10
117.8509923549
 20
80.9390332299
 30
0.0
 11
118.2751902299
 21
80.9390332299
 31
0.0
  0
ARC
  5
AA
330
1F
100
AcDbEntity
  8
0
  6
Continuous
 62
     7
370
    25
100
AcDbCircle
 10
130.0789196338
 20
86.5834459726
 30
0.0
 40
1.103923121047342
100
AcDbArc
 50
188.7691406047
 51
212.4605218635
  0
SPLINE
  5
AB
330
1F
100
AcDbEntity
  8
0
  6
Continuous
 62
     7
370
    25
100
AcDbSpline
210
0.0
220
0.0
230
1.0
 70
     8
 71
     3
 72
    12
 73
     8
 74
     0
 42
0.000000001
 43
0.00000001
 40
0.0
 40
0.0
 40
0.0
 40
0.0
 40
0.2500000000000002
 40
0.2500000000000002
 40
0.5000000000000001
 40
0.5000000000000001
 40
1.0
 40
1.0
 40
1.0
 40
1.0
 10
129.1474719331545
 20
85.99095031217884
 30
0.0
 10
128.9100593750343
 20
85.96868347002493
 30
0.0
 10
128.6719493608678
 20
85.9616454373705
 30
0.0
 10
128.1942512336058
 20
85.96077031588607
 30
0.0
 10
127.9546283769893
 20
85.96743430983513
 30
0.0
 10
127.2359126228535
 20
85.99808665925336
 30
0.0
 10
126.7550956582333
 20
86.03269534237778
 30
0.0
 10
126.2751906098855
 20
86.06675198773148
 30
0.0
  0
SPLINE
  5
AC
330
1F
100
AcDbEntity
  8
0
  6
Continuous
 62
     7
370
    25
100
AcDbSpline
210
0.0
220
0.0
230
1.0
 70
     8
 71
     3
 72
    12
 73
     8
 74
     0
 42
0.000000001
 43
0.00000001
 40
0.0
 40
0.0
 40
0.0
 40
0.0
 40
0.2500000000000002
 40
0.2500000000000002
 40
0.5000000000000001
 40
0.5000000000000001
 40
1.0
 40
1.0
 40
1.0
 40
1.0
 10
128.9879007485284
 20
86.41514863662623
 30
0.0
 10
128.7721600077132
 20
86.36715106478724
 30
0.0
 10
128.5524541874379
 20
86.33091249088814
 30
0.0
 10
128.1073709915221
 20
86.26570753566183
 30
0.0
 10
127.8815696428338
 20
86.23734047840169
 30
0.0
 10
127.1986550313548
 20
86.15788370291229
 30
0.0
 10
126.736204038665
 20
86.11243772306197
 30
0.0
 10
126.2751906098855
 20
86.06675198773148
 30
0.0
  0
SPLINE
  5
AD
330
1F
100
AcDbEntity
  8
0
  6
Continuous
 62
     7
370
    25
100
AcDbSpline
210
0.0
220
0.0
230
1.0
 70
     8
 71
     3
 72
    16
 73
    12
 74
     0
 42
0.000000001
 43
0.00000001
 40
0.0
 40
0.0
 40
0.0
 40
0.0
 40
0.2500000000000002
 40
0.2500000000000002
 40
0.5000000000000002
 40
0.5000000000000002
 40
0.7500000000000002
 40
0.7500000000000002
 40
0.8750000000000001
 40
0.8750000000000001
 40
1.0
 40
1.0
 40
1.0
 40
1.0
 10
129.1474719331545
 20
85.56675198773148
 30
0.0
 10
128.9011766008907
 20
85.56675198773148
 30
0.0
 10
128.6576566661167
 20
85.58668377341863
 30
0.0
 10
128.1749706927414
 20
85.64729032002221
 30
0.0
 10
127.9355302239668
 20
85.68840082746738
 30
0.0
 10
127.4587891443036
 20
85.78277728386658
 30
0.0
 10
127.2215060341768
 20
85.83614264572287
 30
0.0
 10
126.866331148862
 20
85.92044980565747
 30
0.0
 10
126.7480667084279
 20
85.94927468249931
 30
0.0
 10
126.5116626979269
 20
86.00763376106482
 30
0.0
 10
126.3946602263704
 20
86.03688488228289
 30
0.0
 10
126.2751906098855
 20
86.06675198773148
 30
0.0
  0
LINE
  5
AE
330
1F
100
AcDbEntity
  8
0
  6
Continuous
 62
     7
370
    25
100
AcDbLine
 10
129.147471852
 20
85.5667518201
 30
0.0
 11
129.147471852
 21
85.9909501607
 31
0.0
  0
ARC
  5
AF
330
1F
100
AcDbEntity
  8
0
  6
Continuous
 62
     7
370
    25
100
AcDbCircle
 10
122.471461586
 20
86.5834459726
 30
0.0
 40
1.103923121047326
100
AcDbArc
 50
327.5394781365
 51
351.2308593953
  0
SPLINE
  5
B0
330
1F
100
AcDbEntity
  8
0
  6
Continuous
 62
     7
370
    25
100
AcDbSpline
210
0.0
220
0.0
230
1.0
 70
     8
 71
     3
 72
    12
 73
     8
 74
     0
 42
0.000000001
 43
0.00000001
 40
0.0
 40
0.0
 40
0.0
 40
0.0
 40
0.2499999999999999
 40
0.2499999999999999
 40
0.4999999999999998
 40
0.4999999999999998
 40
1.0
 40
1.0
 40
1.0
 40
1.0
 10
123.5624804712427
 20
86.41514863662621
 30
0.0
 10
123.7787180557076
 20
86.36704052799811
 30
0.0
 10
123.9984836510256
 20
86.33082747054272
 30
0.0
 10
124.4429266369883
 20
86.26572326090577
 30
0.0
 10
124.6676866608859
 20
86.23748308062386
 30
0.0
 10
125.3486505657442
 20
86.1582182493697
 30
0.0
 10
125.8150334936214
 20
86.11235286607796
 30
0.0
 10
126.2751906098855
 20
86.06675198773148
 30
0.0
  0
SPLINE
  5
B1
330
1F
100
AcDbEntity
  8
0
  6
Continuous
 62
     7
370
    25
100
AcDbSpline
210
0.0
220
0.0
230
1.0
 70
     8
 71
     3
 72
    12
 73
     8
 74
     0
 42
0.000000001
 43
0.00000001
 40
0.0
 40
0.0
 40
0.0
 40
0.0
 40
0.2500000000000001
 40
0.2500000000000001
 40
0.5000000000000002
 40
0.5000000000000002
 40
1.0
 40
1.0
 40
1.0
 40
1.0
 10
123.4029092866165
 20
85.99095031217884
 30
0.0
 10
123.6403218447189
 20
85.96868347002659
 30
0.0
 10
123.8784318588676
 20
85.96164543737166
 30
0.0
 10
124.3561299860934
 20
85.96077031588509
 30
0.0
 10
124.595752842692
 20
85.96743430983241
 30
0.0
 10
125.3144685967737
 20
85.99808665924499
 30
0.0
 10
125.795285561577
 20
86.03269534235672
 30
0.0
 10
126.2751906098855
 20
86.06675198773148
 30
0.0
  0
LINE
  5
B2
330
1F
100
AcDbEntity
  8
0
  6
Continuous
 62
     7
370
    25
100
AcDbLine
 10
123.4029093677
 20
85.5667518201
 30
0.0
 11
123.4029093677
 21
85.9909501607
 31
0.0
  0
SPLINE
  5
B3
330
1F
100
AcDbEntity
  8
0
  6
Continuous
 62
     7
370
    25
100
AcDbSpline
210
0.0
220
0.0
230
1.0
 70
     8
 71
     3
 72
    16
 73
    12
 74
     0
 42
0.000000001
 43
0.00000001
 40
0.0
 40
0.0
 40
0.0
 40
0.0
 40
0.2500000000000003
 40
0.2500000000000003
 40
0.5000000000000006
 40
0.5000000000000006
 40
0.7500000000000006
 40
0.7500000000000006
 40
0.8750000000000003
 40
0.8750000000000003
 40
1.0
 40
1.0
 40
1.0
 40
1.0
 10
123.4029092866165
 20
85.56675198773148
 30
0.0
 10
123.6492046188803
 20
85.56675198773148
 30
0.0
 10
123.8927245536543
 20
85.58668377341863
 30
0.0
 10
124.3754105270295
 20
85.6472903200222
 30
0.0
 10
124.6148509958042
 20
85.68840082746738
 30
0.0
 10
125.0915920754673
 20
85.78277728386658
 30
0.0
 10
125.3288751855942
 20
85.83614264572287
 30
0.0
 10
125.684050070909
 20
85.92044980565747
 30
0.0
 10
125.802314511343
 20
85.94927468249931
 30
0.0
 10
126.0387185218441
 20
86.00763376106482
 30
0.0
 10
126.1557209934005
 20
86.0368848822829
 30
0.0
 10
126.2751906098855
 20
86.06675198773148
 30
0.0
  0
ARC
  5
B4
330
1F
100
AcDbEntity
  8
0
  6
Continuous
 62
     7
370
    25
100
AcDbCircle
 10
117.2585006897
 20
74.2630339871
 30
0.0
 40
1.103911594455077
100
AcDbArc
 50
57.5393526556
 51
81.2309848762
  0
SPLINE
  5
B5
330
1F
100
AcDbEntity
  8
0
  6
Continuous
 62
     7
370
    25
100
AcDbSpline
210
0.0
220
0.0
230
1.0
 70
     8
 71
     3
 72
    12
 73
     8
 74
     0
 42
0.000000001
 43
0.00000001
 40
0.0
 40
0.0
 40
0.0
 40
0.0
 40
0.2499999999999999
 40
0.2499999999999999
 40
0.4999999999999998
 40
0.4999999999999998
 40
1.0
 40
1.0
 40
1.0
 40
1.0
 10
117.4267939609908
 20
75.35404184908862
 30
0.0
 10
117.4749020696188
 20
75.57027943355357
 30
0.0
 10
117.5111151270742
 20
75.79004502887163
 30
0.0
 10
117.5762193367112
 20
76.23448801483424
 30
0.0
 10
117.6044595169931
 20
76.4592480387319
 30
0.0
 10
117.6837243482473
 20
77.14021194359017
 30
0.0
 10
117.729589731539
 20
77.60659487146734
 30
0.0
 10
117.7751906098855
 20
78.06675198773146
 30
0.0
  0
SPLINE
  5
B6
330
1F
100
AcDbEntity
  8
0
  6
Continuous
 62
     7
370
    25
100
AcDbSpline
210
0.0
220
0.0
230
1.0
 70
     8
 71
     3
 72
    12
 73
     8
 74
     0
 42
0.000000001
 43
0.00000001
 40
0.0
 40
0.0
 40
0.0
 40
0.0
 40
0.2500000000000001
 40
0.2500000000000001
 40
0.5000000000000001
 40
0.5000000000000001
 40
1.0
 40
1.0
 40
1.0
 40
1.0
 10
117.8509922854381
 20
75.19447066446249
 30
0.0
 10
117.8732591275904
 20
75.43188322256492
 30
0.0
 10
117.8802971602453
 20
75.66999323671354
 30
0.0
 10
117.8811722817319
 20
76.14769136393943
 30
0.0
 10
117.8745082877845
 20
76.38731422053795
 30
0.0
 10
117.843855938372
 20
77.1060299746197
 30
0.0
 10
117.8092472552602
 20
77.58684693942294
 30
0.0
 10
117.7751906098855
 20
78.06675198773146
 30
0.0
  0
ARC
  5
B7
330
1F
100
AcDbEntity
  8
0
  6
Continuous
 62
     7
370
    25
100
AcDbCircle
 10
135.2918805301
 20
81.8704699883
 30
0.0
 40
1.103911594455069
100
AcDbArc
 50
237.5393526556
 51
261.2309848762
  0
SPLINE
  5
B8
330
1F
100
AcDbEntity
  8
0
  6
Continuous
 62
     7
370
    25
100
AcDbSpline
210
0.0
220
0.0
230
1.0
 70
     8
 71
     3
 72
    12
 73
     8
 74
     0
 42
0.000000001
 43
0.00000001
 40
0.0
 40
0.0
 40
0.0
 40
0.0
 40
0.2499999999999999
 40
0.2499999999999999
 40
0.5
 40
0.5
 40
1.0
 40
1.0
 40
1.0
 40
1.0
 10
135.1235872587802
 20
80.7794621263744
 30
0.0
 10
135.0756291031084
 20
80.5638985543779
 30
0.0
 10
135.0393466880141
 20
80.34402854275615
 30
0.0
 10
134.974024810978
 20
79.89806080114185
 30
0.0
 10
134.9456642950235
 20
79.67216757526793
 30
0.0
 10
134.8664078884614
 20
78.99090517645247
 30
0.0
 10
134.8209371113344
 20
78.52837860578197
 30
0.0
 10
134.7751906098855
 20
78.06675198773146
 30
0.0
  0
SPLINE
  5
B9
330
1F
100
AcDbEntity
  8
0
  6
Continuous
 62
     7
370
    25
100
AcDbSpline
210
0.0
220
0.0
230
1.0
 70
     8
 71
     3
 72
    12
 73
     8
 74
     0
 42
0.000000001
 43
0.00000001
 40
0.0
 40
0.0
 40
0.0
 40
0.0
 40
0.25
 40
0.25
 40
0.5
 40
0.5
 40
1.0
 40
1.0
 40
1.0
 40
1.0
 10
134.6993889343329
 20
80.93903331100047
 30
0.0
 10
134.6771220921806
 20
80.70162075289805
 30
0.0
 10
134.6700840595257
 20
80.46351073874943
 30
0.0
 10
134.6692089380391
 20
79.9858126115236
 30
0.0
 10
134.6758729319864
 20
79.74618975492524
 30
0.0
 10
134.706525281399
 20
79.02747400084408
 30
0.0
 10
134.7411339642491
 20
78.54665703602139
 30
0.0
 10
134.7751906098855
 20
78.06675198773146
 30
0.0
  0
LINE
  5
BA
330
1F
100
AcDbEntity
  8
0
  6
Continuous
 62
     7
370
    25
100
AcDbLine
 10
134.2751909899
 20
80.9390332299
 30
0.0
 11
134.6993888648
 21
80.9390332299
 31
0.0
  0
SPLINE
  5
BB
330
1F
100
AcDbEntity
  8
0
  6
Continuous
 62
     7
370
    25
100
AcDbSpline
210
0.0
220
0.0
230
1.0
 70
     8
 71
     3
 72
    16
 73
    12
 74
     0
 42
0.000000001
 43
0.00000001
 40
0.0
 40
0.0
 40
0.0
 40
0.0
 40
0.2500000000000002
 40
0.2500000000000002
 40
0.5000000000000002
 40
0.5000000000000002
 40
0.7500000000000002
 40
0.7500000000000002
 40
0.8750000000000001
 40
0.8750000000000001
 40
1.0
 40
1.0
 40
1.0
 40
1.0
 10
134.2751906098855
 20
80.93903331100049
 30
0.0
 10
134.2751906098855
 20
80.69273797873672
 30
0.0
 10
134.2951223955726
 20
80.4492180439627
 30
0.0
 10
134.3557289421762
 20
79.96653207058742
 30
0.0
 10
134.3968394496214
 20
79.72709160181273
 30
0.0
 10
134.4912159060206
 20
79.25035052214965
 30
0.0
 10
134.5445812678769
 20
79.01306741202274
 30
0.0
 10
134.6288884278115
 20
78.65789252670798
 30
0.0
 10
134.6577133046534
 20
78.53962808627394
 30
0.0
 10
134.7160723832188
 20
78.30322407577283
 30
0.0
 10
134.7453235044369
 20
78.18622160421637
 30
0.0
 10
134.7751906098855
 20
78.06675198773146
 30
0.0
  0
LINE
  5
BC
330
1F
100
AcDbEntity
  8
0
  6
Continuous
 62
     7
370
    25
100
AcDbLine
 10
118.2751902299
 20
75.1944707456
 30
0.0
 11
117.8509923549
 21
75.1944707456
 31
0.0
  0
SPLINE
  5
BD
330
1F
100
AcDbEntity
  8
0
  6
Continuous
 62
     7
370
    25
100
AcDbSpline
210
0.0
220
0.0
230
1.0
 70
     8
 71
     3
 72
    16
 73
    12
 74
     0
 42
0.000000001
 43
0.00000001
 40
0.0
 40
0.0
 40
0.0
 40
0.0
 40
0.2500000000000001
 40
0.2500000000000001
 40
0.5000000000000001
 40
0.5000000000000001
 40
0.7500000000000002
 40
0.7500000000000002
 40
0.8750000000000001
 40
0.8750000000000001
 40
1.0
 40
1.0
 40
1.0
 40
1.0
 10
118.2751906098855
 20
75.19447066446246
 30
0.0
 10
118.2751906098855
 20
75.44076599672627
 30
0.0
 10
118.2552588241983
 20
75.68428593150024
 30
0.0
 10
118.1946522775948
 20
76.16697190487551
 30
0.0
 10
118.1535417701496
 20
76.4064123736502
 30
0.0
 10
118.0591653137504
 20
76.88315345331328
 30
0.0
 10
118.0057999518941
 20
77.1204365634402
 30
0.0
 10
117.9214927919595
 20
77.47561144875496
 30
0.0
 10
117.8926679151176
 20
77.59387588918901
 30
0.0
 10
117.8343088365521
 20
77.8302798996901
 30
0.0
 10
117.805057715334
 20
77.94728237124654
 30
0.0
 10
117.7751906098855
 20
78.06675198773146
 30
0.0
  0
SPLINE
  5
BE
330
1F
100
AcDbEntity
  8
0
  6
Continuous
 62
     7
370
    25
100
AcDbSpline
210
0.0
220
0.0
230
1.0
 70
     8
 71
     3
 72
     8
 73
     4
 74
     0
 42
0.000000001
 43
0.00000001
 40
0.0
 40
0.0
 40
0.0
 40
0.0
 40
1.0
 40
1.0
 40
1.0
 40
1.0
 10
122.3811464079132
 20
86.56675198773148
 30
0.0
 10
122.7676374475143
 20
86.56675198773148
 30
0.0
 10
123.1604615889352
 20
86.50458899968079
 30
0.0
 10
123.5624804712427
 20
86.41514863662621
 30
0.0
  0
LINE
  5
BF
330
1F
100
AcDbEntity
  8
0
  6
Continuous
 62
     7
370
    25
100
AcDbLine
 10
119.1918570468
 20
86.5667524497
 30
0.0
 11
122.3811465235
 21
86.5667524497
 31
0.0
  0
LINE
  5
C0
330
1F
100
AcDbEntity
  8
0
  6
Continuous
 62
     7
370
    25
100
AcDbLine
 10
119.1918570468
 20
85.5667518201
 30
0.0
 11
119.1918570468
 21
86.5667524497
 31
0.0
  0
LINE
  5
C1
330
1F
100
AcDbEntity
  8
0
  6
Continuous
 62
     7
370
    25
100
AcDbLine
 10
133.3585241729
 20
86.5667524497
 30
0.0
 11
133.3585241729
 21
85.5667518201
 31
0.0
  0
LINE
  5
C2
330
1F
100
AcDbEntity
  8
0
  6
Continuous
 62
     7
370
    25
100
AcDbLine
 10
130.1692346962
 20
86.5667524497
 30
0.0
 11
133.3585241729
 21
86.5667524497
 31
0.0
  0
SPLINE
  5
C3
330
1F
100
AcDbEntity
  8
0
  6
Continuous
 62
     7
370
    25
100
AcDbSpline
210
0.0
220
0.0
230
1.0
 70
     8
 71
     3
 72
     8
 73
     4
 74
     0
 42
0.000000001
 43
0.00000001
 40
0.0
 40
0.0
 40
0.0
 40
0.0
 40
1.0
 40
1.0
 40
1.0
 40
1.0
 10
128.9879007485284
 20
86.41514863662623
 30
0.0
 10
129.3899196308358
 20
86.5045889996808
 30
0.0
 10
129.7827437722567
 20
86.56675198773148
 30
0.0
 10
130.1692348118577
 20
86.56675198773148
 30
0.0
  0
LWPOLYLINE
  5
C4
330
1F
100
AcDbEntity
  8
0
  6
Continuous
 62
     7
370
    25
100
AcDbPolyline
 90
        9
 70
   128
 43
0.0
 10
134.2751909899
 20
71.5667518536
 10
134.3727358537
 20
71.4692069898
 10
134.4665321441
 20
71.3754102337
 10
134.5529756429
 20
71.288966735
 10
134.6287443223
 20
71.2131985212
 10
134.6909250053
 20
71.1510173726
 10
134.7371307122
 20
71.1048121313
 10
134.7655835481
 20
71.0763592953
 10
134.7751910718
 20
71.0667517717
  0
LINE
  5
C5
330
1F
100
AcDbEntity
  8
0
  6
Continuous
 62
     7
370
    25
100
AcDbLine
 10
134.2751909899
 20
71.5667518536
 30
0.0
 11
134.2751909899
 21
75.1944707456
 31
0.0
  0
SPLINE
  5
C6
330
1F
100
AcDbEntity
  8
0
  6
Continuous
 62
     7
370
    25
100
AcDbSpline
210
0.0
220
0.0
230
1.0
 70
     8
 71
     3
 72
     8
 73
     4
 74
     0
 42
0.000000001
 43
0.00000001
 40
0.0
 40
0.0
 40
0.0
 40
0.0
 40
1.0
 40
1.0
 40
1.0
 40
1.0
 10
134.7751906098855
 20
73.94364636211381
 30
0.0
 10
134.7751906098855
 20
74.35783529459621
 30
0.0
 10
134.743442847601
 20
74.77514545738933
 30
0.0
 10
134.6993889343435
 20
75.19447066446307
 30
0.0
  0
LINE
  5
C7
330
1F
100
AcDbEntity
  8
0
  6
Continuous
 62
     7
370
    25
100
AcDbLine
 10
134.7751910718
 20
73.9436463202
 30
0.0
 11
134.7751910718
 21
71.0667517717
 31
0.0
  0
LWPOLYLINE
  5
C8
330
1F
100
AcDbEntity
  8
0
  6
Continuous
 62
     7
370
    25
100
AcDbPolyline
 90
        9
 70
   128
 43
0.0
 10
117.7751901479
 20
84.5667521218
 10
117.7847976716
 20
84.5571445982
 10
117.8132505076
 20
84.5286917622
 10
117.8594562145
 20
84.4824869866
 10
117.9216368975
 20
84.4203053723
 10
117.9974055769
 20
84.3445371586
 10
118.0838490756
 20
84.2580936598
 10
118.1776453661
 20
84.1642973694
 10
118.2751902299
 20
84.0667520399
  0
LINE
  5
C9
330
1F
100
AcDbEntity
  8
0
  6
Continuous
 62
     7
370
    25
100
AcDbLine
 10
118.2751902299
 20
84.0667520399
 30
0.0
 11
118.2751902299
 21
80.9390332299
 31
0.0
  0
SPLINE
  5
CA
330
1F
100
AcDbEntity
  8
0
  6
Continuous
 62
     7
370
    25
100
AcDbSpline
210
0.0
220
0.0
230
1.0
 70
     8
 71
     3
 72
     8
 73
     4
 74
     0
 42
0.000000001
 43
0.00000001
 40
0.0
 40
0.0
 40
0.0
 40
0.0
 40
1.0
 40
1.0
 40
1.0
 40
1.0
 10
117.7751906098855
 20
82.18985761334915
 30
0.0
 10
117.7751906098855
 20
81.77566868086672
 30
0.0
 10
117.80693837217
 20
81.35835851807363
 30
0.0
 10
117.8509922854275
 20
80.93903331099989
 30
0.0
  0
LINE
  5
CB
330
1F
100
AcDbEntity
  8
0
  6
Continuous
 62
     7
370
    25
100
AcDbLine
 10
117.7751901479
 20
82.1898576553
 30
0.0
 11
117.7751901479
 21
84.5667521218
 31
0.0
  0
SPLINE
  5
CC
330
1F
100
AcDbEntity
  8
0
  6
Continuous
 62
     7
370
    25
100
AcDbSpline
210
0.0
220
0.0
230
1.0
 70
     8
 71
     3
 72
     8
 73
     4
 74
     0
 42
0.000000001
 43
0.00000001
 40
0.0
 40
0.0
 40
0.0
 40
0.0
 40
1.0
 40
1.0
 40
1.0
 40
1.0
 10
135.2751906098855
 20
81.96079618970371
 30
0.0
 10
135.2751906098855
 20
81.57430515010266
 30
0.0
 10
135.2130276218348
 20
81.1814810086818
 30
0.0
 10
135.1235872587802
 20
80.7794621263744
 30
0.0
  0
LINE
  5
CD
330
1F
100
AcDbEntity
  8
0
  6
Continuous
 62
     7
370
    25
100
AcDbLine
 10
135.2751902225
 20
84.6778630959
 30
0.0
 11
135.2751902225
 21
81.9607960741
 31
0.0
  0
LINE
  5
CE
330
1F
100
AcDbEntity
  8
0
  6
Continuous
 62
     7
370
    25
100
AcDbLine
 10
134.2751909899
 20
84.6778630959
 30
0.0
 11
135.2751902225
 21
84.6778630959
 31
0.0
  0
SPLINE
  5
CF
330
1F
100
AcDbEntity
  8
0
  6
Continuous
 62
     7
370
    25
100
AcDbSpline
210
0.0
220
0.0
230
1.0
 70
     8
 71
     3
 72
    14
 73
    10
 74
     0
 42
0.000000001
 43
0.00000001
 40
0.0
 40
0.0
 40
0.0
 40
0.0
 40
0.2499999999999995
 40
0.2499999999999995
 40
0.499999999999999
 40
0.499999999999999
 40
0.7499999999999984
 40
0.7499999999999984
 40
1.0
 40
1.0
 40
1.0
 40
1.0
 10
133.7751906098855
 20
85.1500853210648
 30
0.0
 10
133.7751906098855
 20
85.10213397853775
 30
0.0
 10
133.7827214998835
 20
85.05362015696468
 30
0.0
 10
133.8162020275158
 20
84.95586978642876
 30
0.0
 10
133.8423112304408
 20
84.90657661606136
 30
0.0
 10
133.9186022180829
 20
84.81390156707896
 30
0.0
 10
133.9695392988754
 20
84.76946875321455
 30
0.0
 10
134.1038278958993
 20
84.70063374474024
 30
0.0
 10
134.1873948235588
 20
84.67786309884258
 30
0.0
 10
134.2751906098855
 20
84.6778630988426
 30
0.0
  0
SPLINE
  5
D0
330
1F
100
AcDbEntity
  8
0
  6
Continuous
 62
     7
370
    25
100
AcDbSpline
210
0.0
220
0.0
230
1.0
 70
     8
 71
     3
 72
    14
 73
    10
 74
     0
 42
0.000000001
 43
0.00000001
 40
0.0
 40
0.0
 40
0.0
 40
0.0
 40
0.25
 40
0.25
 40
0.5
 40
0.5
 40
0.75
 40
0.75
 40
1.0
 40
1.0
 40
1.0
 40
1.0
 10
118.2751906098855
 20
84.67786309884258
 30
0.0
 10
118.3629863962122
 20
84.67786309884258
 30
0.0
 10
118.4465533238717
 20
84.70063374474024
 30
0.0
 10
118.5808419208956
 20
84.76946875321455
 30
0.0
 10
118.6317790016881
 20
84.81390156707896
 30
0.0
 10
118.7080699893302
 20
84.90657661606136
 30
0.0
 10
118.7341791922552
 20
84.95586978642876
 30
0.0
 10
118.7676597198875
 20
85.05362015696468
 30
0.0
 10
118.7751906098855
 20
85.10213397853775
 30
0.0
 10
118.7751906098855
 20
85.15008532106481
 30
0.0
  0
LINE
  5
D1
330
1F
100
AcDbEntity
  8
0
  6
Continuous
 62
     7
370
    25
100
AcDbLine
 10
117.2751909973
 20
84.6778630959
 30
0.0
 11
118.2751902299
 21
84.6778630959
 31
0.0
  0
LINE
  5
D2
330
1F
100
AcDbEntity
  8
0
  6
Continuous
 62
     7
370
    25
100
AcDbLine
 10
117.2751909973
 20
81.9607960741
 30
0.0
 11
117.2751909973
 21
84.6778630959
 31
0.0
  0
SPLINE
  5
D3
330
1F
100
AcDbEntity
  8
0
  6
Continuous
 62
     7
370
    25
100
AcDbSpline
210
0.0
220
0.0
230
1.0
 70
     8
 71
     3
 72
     8
 73
     4
 74
     0
 42
0.000000001
 43
0.00000001
 40
0.0
 40
0.0
 40
0.0
 40
0.0
 40
1.0
 40
1.0
 40
1.0
 40
1.0
 10
117.4267939609908
 20
80.77946212637433
 30
0.0
 10
117.3373535979362
 20
81.18148100868174
 30
0.0
 10
117.2751906098855
 20
81.57430515010265
 30
0.0
 10
117.2751906098855
 20
81.96079618970371
 30
0.0
  0
SPLINE
  5
D4
330
1F
100
AcDbEntity
  8
0
  6
Continuous
 62
     7
370
    25
100
AcDbSpline
210
0.0
220
0.0
230
1.0
 70
     8
 71
     3
 72
     8
 73
     4
 74
     0
 42
0.000000001
 43
0.00000001
 40
0.0
 40
0.0
 40
0.0
 40
0.0
 40
1.0
 40
1.0
 40
1.0
 40
1.0
 10
117.2751906098855
 20
74.17270778575924
 30
0.0
 10
117.2751906098855
 20
74.5591988253603
 30
0.0
 10
117.3373535979362
 20
74.95202296678119
 30
0.0
 10
117.4267939609908
 20
75.35404184908862
 30
0.0
  0
LINE
  5
D5
330
1F
100
AcDbEntity
  8
0
  6
Continuous
 62
     7
370
    25
100
AcDbLine
 10
117.2751909973
 20
70.9834184247
 30
0.0
 11
117.2751909973
 21
74.1727079014
 31
0.0
  0
LINE
  5
D6
330
1F
100
AcDbEntity
  8
0
  6
Continuous
 62
     7
370
    25
100
AcDbLine
 10
135.2751902225
 20
70.9834184247
 30
0.0
 11
117.2751909973
 21
70.9834184247
 31
0.0
  0
LINE
  5
D7
330
1F
100
AcDbEntity
  8
0
  6
Continuous
 62
     7
370
    25
100
AcDbLine
 10
135.2751902225
 20
74.1727079014
 30
0.0
 11
135.2751902225
 21
70.9834184247
 31
0.0
  0
SPLINE
  5
D8
330
1F
100
AcDbEntity
  8
0
  6
Continuous
 62
     7
370
    25
100
AcDbSpline
210
0.0
220
0.0
230
1.0
 70
     8
 71
     3
 72
     8
 73
     4
 74
     0
 42
0.000000001
 43
0.00000001
 40
0.0
 40
0.0
 40
0.0
 40
0.0
 40
1.0
 40
1.0
 40
1.0
 40
1.0
 10
135.1235872587802
 20
75.3540418490886
 30
0.0
 10
135.2130276218348
 20
74.95202296678117
 30
0.0
 10
135.2751906098855
 20
74.55919882536028
 30
0.0
 10
135.2751906098855
 20
74.17270778575924
 30
0.0
  0
LINE
  5
D9
330
1F
100
AcDbEntity
  8
0
  6
Continuous
 62
     7
370
    25
100
AcDbLine
 10
118.2751902299
 20
84.0667520399
 30
0.0
 11
118.2751902299
 21
84.5667521218
 31
0.0
  0
LINE
  5
DA
330
1F
100
AcDbEntity
  8
0
  6
Continuous
 62
     7
370
    25
100
AcDbLine
 10
117.7751901479
 20
84.5667521218
 30
0.0
 11
118.2751902299
 21
84.5667521218
 31
0.0
  0
LINE
  5
DB
330
1F
100
AcDbEntity
  8
0
  6
Continuous
 62
     7
370
    25
100
AcDbLine
 10
118.2751902299
 20
71.5667518536
 30
0.0
 11
134.2751909899
 21
71.5667518536
 31
0.0
  0
LINE
  5
DC
330
1F
100
AcDbEntity
  8
0
  6
Continuous
 62
     7
370
    25
100
AcDbLine
 10
134.7751910718
 20
71.0667517717
 30
0.0
 11
117.7751901479
 21
71.0667517717
 31
0.0
  0
LWPOLYLINE
  5
DD
330
1F
100
AcDbEntity
  8
0
  6
Continuous
 62
     7
370
    25
100
AcDbPolyline
 90
        9
 70
   128
 43
0.0
 10
118.2751902299
 20
71.5667518536
 10
118.1776453661
 20
71.4692069898
 10
118.0838490756
 20
71.3754102337
 10
117.9974055769
 20
71.288966735
 10
117.9216368975
 20
71.2131985212
 10
117.8594562145
 20
71.1510173726
 10
117.8132505076
 20
71.1048121313
 10
117.7847976716
 20
71.0763592953
 10
117.7751901479
 20
71.0667517717
  0
ARC
  5
DE
330
1F
100
AcDbEntity
  8
0
  6
Continuous
 62
     7
370
    25
100
AcDbCircle
 10
118.2751906099
 20
85.5667519877
 30
0.0
 40
1.5
100
AcDbArc
 50
270.0
 51
0.0
  0
ARC
  5
DF
330
1F
100
AcDbEntity
  8
0
  6
Continuous
 62
     7
370
    25
100
AcDbCircle
 10
118.2751906099
 20
85.5667519877
 30
0.0
 40
1.0
100
AcDbArc
 50
270.0
 51
0.0
  0
LINE
  5
E0
330
1F
100
AcDbEntity
  8
0
  6
Continuous
 62
     7
370
    25
100
AcDbLine
 10
119.7751904758
 20
85.5667518201
 30
0.0
 11
119.2751903938
 21
85.5667518201
 31
0.0
  0
LWPOLYLINE
  5
E1
330
1F
100
AcDbEntity
  8
0
  6
Continuous
 62
     7
370
    25
100
AcDbPolyline
 90
        9
 70
   128
 43
0.0
 10
132.775190744
 20
85.5667518201
 10
132.8727356078
 20
85.6642971496
 10
132.9665323639
 20
85.7580939057
 10
133.0529758627
 20
85.8445369388
 10
133.1287440764
 20
85.9203056181
 10
133.1909252251
 20
85.9824872325
 10
133.2371304663
 20
86.0286920081
 10
133.2655833023
 20
86.057144844
 10
133.275190826
 20
86.0667523677
  0
LINE
  5
E2
330
1F
100
AcDbEntity
  8
0
  6
Continuous
 62
     7
370
    25
100
AcDbLine
 10
132.775190744
 20
85.5667518201
 30
0.0
 11
129.147471852
 21
85.5667518201
 31
0.0
  0
SPLINE
  5
E3
330
1F
100
AcDbEntity
  8
0
  6
Continuous
 62
     7
370
    25
100
AcDbSpline
210
0.0
220
0.0
230
1.0
 70
     8
 71
     3
 72
     8
 73
     4
 74
     0
 42
0.000000001
 43
0.00000001
 40
0.0
 40
0.0
 40
0.0
 40
0.0
 40
1.0
 40
1.0
 40
1.0
 40
1.0
 10
130.3982962355032
 20
86.06675198773148
 30
0.0
 10
129.9841073030207
 20
86.06675198773148
 30
0.0
 10
129.5667971402277
 20
86.03500422544701
 30
0.0
 10
129.147471933154
 20
85.99095031218953
 30
0.0
  0
LINE
  5
E4
330
1F
100
AcDbEntity
  8
0
  6
Continuous
 62
     7
370
    25
100
AcDbLine
 10
130.3982962774
 20
86.0667523677
 30
0.0
 11
133.275190826
 21
86.0667523677
 31
0.0
  0
LINE
  5
E5
330
1F
100
AcDbEntity
  8
0
  6
Continuous
 62
     7
370
    25
100
AcDbLine
 10
119.2751903938
 20
85.5667518201
 30
0.0
 11
119.2751903938
 21
86.0667523677
 31
0.0
  0
LWPOLYLINE
  5
E6
330
1F
100
AcDbEntity
  8
0
  6
Continuous
 62
     7
370
    25
100
AcDbPolyline
 90
        9
 70
   128
 43
0.0
 10
119.7751904758
 20
85.5667518201
 10
119.677645612
 20
85.6642971496
 10
119.5838488558
 20
85.7580939057
 10
119.4974053571
 20
85.8445369388
 10
119.4216371434
 20
85.9203056181
 10
119.3594559947
 20
85.9824872325
 10
119.3132507535
 20
86.0286920081
 10
119.2847979175
 20
86.057144844
 10
119.2751903938
 20
86.0667523677
  0
LINE
  5
E7
330
1F
100
AcDbEntity
  8
0
  6
Continuous
 62
     7
370
    25
100
AcDbLine
 10
134.2751909899
 20
84.0667520399
 30
0.0
 11
134.2751909899
 21
84.5667521218
 31
0.0
  0
LINE
  5
E8
330
1F
100
AcDbEntity
  8
0
  6
Continuous
 62
     7
370
    25
100
AcDbLine
 10
134.2751909899
 20
84.5667521218
 30
0.0
 11
134.7751910718
 21
84.5667521218
 31
0.0
  0
LWPOLYLINE
  5
E9
330
1F
100
AcDbEntity
  8
0
  6
Continuous
 62
     7
370
    25
100
AcDbPolyline
 90
        9
 70
   128
 43
0.0
 10
134.2751909899
 20
84.0667520399
 10
134.3727358537
 20
84.1642973694
 10
134.4665321441
 20
84.2580936598
 10
134.5529756429
 20
84.3445371586
 10
134.6287443223
 20
84.4203053723
 10
134.6909250053
 20
84.4824869866
 10
134.7371307122
 20
84.5286917622
 10
134.7655835481
 20
84.5571445982
 10
134.7751910718
 20
84.5667521218
  0
ARC
  5
EA
330
1F
100
AcDbEntity
  8
0
  6
Continuous
 62
     7
370
    25
100
AcDbCircle
 10
134.2751906099
 20
85.5667519877
 30
0.0
 40
1.5
100
AcDbArc
 50
180.0
 51
270.0
  0
LINE
  5
EB
330
1F
100
AcDbEntity
  8
0
  6
Continuous
 62
     7
370
    25
100
AcDbLine
 10
132.775190744
 20
85.5667518201
 30
0.0
 11
133.275190826
 21
85.5667518201
 31
0.0
  0
ARC
  5
EC
330
1F
100
AcDbEntity
  8
0
  6
Continuous
 62
     7
370
    25
100
AcDbCircle
 10
134.2751906099
 20
85.5667519877
 30
0.0
 40
1.0
100
AcDbArc
 50
180.0
 51
270.0
  0
LINE
  5
ED
330
1F
100
AcDbEntity
  8
0
  6
Continuous
 62
     7
370
    25
100
AcDbLine
 10
133.275190826
 20
86.0667523677
 30
0.0
 11
133.275190826
 21
85.5667518201
 31
0.0
  0
LINE
  5
EE
330
1F
100
AcDbEntity
  8
0
  6
Continuous
 62
     7
370
    25
100
AcDbLine
 10
118.2751902299
 20
75.1944707456
 30
0.0
 11
118.2751902299
 21
71.5667518536
 31
0.0
  0
LINE
  5
EF
330
1F
100
AcDbEntity
  8
0
  6
Continuous
 62
     7
370
    25
100
AcDbLine
 10
123.4029093677
 20
85.5667518201
 30
0.0
 11
119.7751904758
 21
85.5667518201
 31
0.0
  0
LINE
  5
F0
330
1F
100
AcDbEntity
  8
0
  6
Continuous
 62
     7
370
    25
100
AcDbLine
 10
134.2751909899
 20
80.9390332299
 30
0.0
 11
134.2751909899
 21
84.0667520399
 31
0.0
  0
LINE
  5
F1
330
1F
100
AcDbEntity
  8
0
  6
Continuous
 62
     7
370
    25
100
AcDbLine
 10
132.6280608693
 20
74.4431865616
 30
0.0
 11
132.5913644316
 21
74.4222159712
 31
0.0
  0
ELLIPSE
  5
F2
330
1F
100
AcDbEntity
  8
0
  6
Continuous
 62
     7
370
    25
100
AcDbEllipse
 10
132.2840137857
 20
74.910852744
 30
0.0
 11
-0.5977206589648176
 21
-1.563194018672220E-13
 31
0.0
210
0.0
220
0.0
230
1.0
 40
0.9531667975
 41
0.3285531705514227
 42
2.110876526947259
  0
LINE
  5
F3
330
1F
100
AcDbEntity
  8
0
  6
Continuous
 62
     7
370
    25
100
AcDbLine
 10
131.7182648847
 20
74.7270164295
 30
0.0
 11
130.6084371092
 21
77.8300463728
 31
0.0
  0
LINE
  5
F4
330
1F
100
AcDbEntity
  8
0
  6
Continuous
 62
     7
370
    25
100
AcDbLine
 10
127.5474353381
 20
74.4431865616
 30
0.0
 11
128.2489935322
 21
73.1057824316
 31
0.0
  0
LINE
  5
F5
330
1F
100
AcDbEntity
  8
0
  6
Continuous
 62
     7
370
    25
100
AcDbLine
 10
129.5670589818
 20
77.8300463728
 30
0.0
 11
128.4574898811
 21
74.7277396015
 31
0.0
  0
ELLIPSE
  5
F6
330
1F
100
AcDbEntity
  8
0
  6
Continuous
 62
     7
370
    25
100
AcDbEllipse
 10
130.0877481207
 20
77.5989426705
 30
0.0
 11
0.5743721957241519
 21
1.250555214937776E-12
 31
0.0
210
0.0
220
0.0
230
1.0
 40
0.9531667975
 41
0.4357918987530105
 42
2.705800754832477
  0
ELLIPSE
  5
F7
330
1F
100
AcDbEntity
  8
0
  6
Continuous
 62
     7
370
    25
100
AcDbEllipse
 10
131.8596754297
 20
73.1376311127
 30
0.0
 11
0.07471508237063063
 21
2.842170943040401E-14
 31
0.0
210
0.0
220
0.0
230
1.0
 40
0.9531667976
 41
3.962594650565465
 42
5.819537698169127
  0
LINE
  5
F8
330
1F
100
AcDbEntity
  8
0
  6
Continuous
 62
     7
370
    25
100
AcDbLine
 10
127.5928807365
 20
74.4181772909
 30
0.0
 11
127.5474353381
 21
74.4431865616
 31
0.0
  0
LINE
  5
F9
330
1F
100
AcDbEntity
  8
0
  6
Continuous
 62
     7
370
    25
100
AcDbLine
 10
131.9265025588
 20
73.1057824316
 30
0.0
 11
132.6280608693
 21
74.4431865616
 31
0.0
  0
ELLIPSE
  5
FA
330
1F
100
AcDbEntity
  8
0
  6
Continuous
 62
     7
370
    25
100
AcDbEllipse
 10
127.8917410862
 20
74.9115758636
 30
0.0
 11
-0.5977206589639081
 21
5.684341886080801E-14
 31
0.0
210
0.0
220
0.0
230
1.0
 40
0.9531667975
 41
1.047197551195631
 42
2.813039483037407
  0
ELLIPSE
  5
FB
330
1F
100
AcDbEntity
  8
0
  6
Continuous
 62
     7
370
    25
100
AcDbEllipse
 10
130.0877481207
 20
71.3239285281
 30
0.0
 11
2.525369784127093
 21
-1.705302565824240E-13
 31
0.0
210
0.0
220
0.0
230
1.0
 40
0.9531667975
 41
0.8210019969639312
 42
2.320590656625496
  0
ELLIPSE
  5
FC
330
1F
100
AcDbEntity
  8
0
  6
Continuous
 62
     7
370
    25
100
AcDbEllipse
 10
128.3158208117
 20
73.1376311127
 30
0.0
 11
0.07471508237065905
 21
0.0
 31
0.0
210
0.0
220
0.0
230
1.0
 40
0.9531667975
 41
3.605240262591804
 42
5.462183310213709
  0
LINE
  5
FD
330
1F
100
AcDbEntity
  8
0
  6
Continuous
 62
     7
370
    25
100
AcDbLine
 10
134.7751910718
 20
84.5667521218
 30
0.0
 11
134.7751910718
 21
82.1898576553
 31
0.0
  0
SPLINE
  5
FE
330
1F
100
AcDbEntity
  8
0
  6
Continuous
 62
     7
370
    25
100
AcDbSpline
210
0.0
220
0.0
230
1.0
 70
     8
 71
     3
 72
     8
 73
     4
 74
     0
 42
0.000000001
 43
0.00000001
 40
0.0
 40
0.0
 40
0.0
 40
0.0
 40
1.0
 40
1.0
 40
1.0
 40
1.0
 10
134.6993889343329
 20
80.93903331100047
 30
0.0
 10
134.743435087122
 20
81.3582846503948
 30
0.0
 10
134.7751906098855
 20
81.77580761415587
 30
0.0
 10
134.7751906098855
 20
82.18985761334915
 30
0.0
  0
LINE
  5
FF
330
1F
100
AcDbEntity
  8
0
  6
Continuous
 62
     7
370
    25
100
AcDbLine
 10
117.7751901479
 20
71.0667517717
 30
0.0
 11
117.7751901479
 21
73.9436463202
 31
0.0
  0
SPLINE
  5
100
330
1F
100
AcDbEntity
  8
0
  6
Continuous
 62
     7
370
    25
100
AcDbSpline
210
0.0
220
0.0
230
1.0
 70
     8
 71
     3
 72
     8
 73
     4
 74
     0
 42
0.000000001
 43
0.00000001
 40
0.0
 40
0.0
 40
0.0
 40
0.0
 40
1.0
 40
1.0
 40
1.0
 40
1.0
 10
117.8509922854381
 20
75.19447066446249
 30
0.0
 10
117.806946132649
 20
74.77521932506815
 30
0.0
 10
117.7751906098855
 20
74.35769636130706
 30
0.0
 10
117.7751906098855
 20
73.94364636211381
 30
0.0
  0
LINE
  5
101
330
1F
100
AcDbEntity
  8
0
  6
Continuous
 62
     7
370
    25
100
AcDbLine
 10
119.2751903938
 20
86.0667523677
 30
0.0
 11
122.1520849424
 21
86.0667523677
 31
0.0
  0
SPLINE
  5
102
330
1F
100
AcDbEntity
  8
0
  6
Continuous
 62
     7
370
    25
100
AcDbSpline
210
0.0
220
0.0
230
1.0
 70
     8
 71
     3
 72
     8
 73
     4
 74
     0
 42
0.000000001
 43
0.00000001
 40
0.0
 40
0.0
 40
0.0
 40
0.0
 40
1.0
 40
1.0
 40
1.0
 40
1.0
 10
123.4029092866165
 20
85.99095031217885
 30
0.0
 10
122.9836579472222
 20
86.03499646496792
 30
0.0
 10
122.5661349834611
 20
86.06675198773148
 30
0.0
 10
122.1520849842678
 20
86.06675198773148
 30
0.0
  0
LINE
  5
103
330
1F
100
AcDbEntity
  8
0
  6
Continuous
 62
     7
370
    25
100
AcDbLine
 10
130.0173858101
 20
75.5372856958
 30
0.0
 11
129.7498315027
 21
74.8232187918
 31
0.0
  0
ELLIPSE
  5
104
330
1F
100
AcDbEntity
  8
0
  6
Continuous
 62
     7
370
    25
100
AcDbEllipse
 10
130.0877481225
 20
75.5133331605
 30
0.0
 11
0.07471508237068747
 21
0.0
 31
0.0
210
0.0
220
0.0
230
1.0
 40
0.9531667975
 41
0.3430239404209861
 42
2.798568713168619
  0
LINE
  5
105
330
1F
100
AcDbEntity
  8
0
  6
Continuous
 62
     7
370
    25
100
AcDbLine
 10
130.4256645883
 20
74.8232187918
 30
0.0
 11
130.1581105137
 21
75.5372856958
 31
0.0
  0
ELLIPSE
  5
106
330
1F
100
AcDbEntity
  8
0
  6
Continuous
 62
     7
370
    25
100
AcDbEllipse
 10
129.8201937778
 20
74.7992661947
 30
0.0
 11
-0.07471508237068747
 21
0.0
 31
0.0
210
0.0
220
0.0
230
1.0
 40
0.9531667975
 41
5.94016136489802
 42
7.853981633974483
  0
ELLIPSE
  5
107
330
1F
100
AcDbEntity
  8
0
  6
Continuous
 62
     7
370
    25
100
AcDbEllipse
 10
130.355302464
 20
74.7992661947
 30
0.0
 11
0.07471508237063063
 21
2.842170943040401E-14
 31
0.0
210
0.0
220
0.0
230
1.0
 40
0.9531667975
 41
4.712388980384341
 42
6.626209245754612
  0
LINE
  5
108
330
1F
100
AcDbEntity
  8
0
  6
Continuous
 62
     7
370
    25
100
AcDbLine
 10
129.8201938545
 20
74.7280501975
 30
0.0
 11
130.3553022364
 21
74.7280501975
 31
0.0
  0
LWPOLYLINE
  5
109
330
1F
100
AcDbEntity
  8
0
  6
Continuous
 62
     7
370
    25
100
AcDbPolyline
 90
        9
 70
   128
 43
0.0
 10
135.2751902225
 20
74.1727079014
 10
135.1776453586
 20
74.1683064709
 10
135.0838490682
 20
74.1552716802
 10
134.9974055694
 20
74.134104115
 10
134.9216368901
 20
74.1056172858
 10
134.8594562071
 20
74.0709059621
 10
134.8132505002
 20
74.0313042636
 10
134.7847976642
 20
73.9883339713
 10
134.7751910718
 20
73.9436463202
  0
LWPOLYLINE
  5
10A
330
1F
100
AcDbEntity
  8
0
  6
Continuous
 62
     7
370
    25
100
AcDbPolyline
 90
        9
 70
   128
 43
0.0
 10
117.2751909973
 20
81.9607960741
 10
117.3727358611
 20
81.9651975046
 10
117.4665321516
 20
81.9782322953
 10
117.5529756503
 20
81.9993998604
 10
117.6287443297
 20
82.0278866897
 10
117.6909250127
 20
82.0625980134
 10
117.7371307196
 20
82.1021997119
 10
117.7655835556
 20
82.1451700042
 10
117.7751901479
 20
82.1898576553
  0
LWPOLYLINE
  5
10B
330
1F
100
AcDbEntity
  8
0
  6
Continuous
 62
     7
370
    25
100
AcDbPolyline
 90
        9
 70
   128
 43
0.0
 10
130.1692346962
 20
86.5667524497
 10
130.1736361267
 20
86.4692066545
 10
130.1866709175
 20
86.3754103641
 10
130.2078384826
 20
86.2889668653
 10
130.2363253119
 20
86.213198186
 10
130.2710366355
 20
86.1510175029
 10
130.310638334
 20
86.104811796
 10
130.3536086263
 20
86.0763589601
 10
130.3982962774
 20
86.0667523677
  0
LWPOLYLINE
  5
10C
330
1F
100
AcDbEntity
  8
0
  6
Continuous
 62
     7
370
    25
100
AcDbPolyline
 90
        9
 70
   128
 43
0.0
 10
134.7751910718
 20
82.1898576553
 10
134.7847976642
 20
82.1451700042
 10
134.8132505002
 20
82.1021997119
 10
134.8594562071
 20
82.0625980134
 10
134.9216368901
 20
82.0278866897
 10
134.9974055694
 20
81.9993998604
 10
135.0838490682
 20
81.9782322953
 10
135.1776453586
 20
81.9651975046
 10
135.2751902225
 20
81.9607960741
  0
LWPOLYLINE
  5
10D
330
1F
100
AcDbEntity
  8
0
  6
Continuous
 62
     7
370
    25
100
AcDbPolyline
 90
        9
 70
   128
 43
0.0
 10
122.1520849424
 20
86.0667523677
 10
122.1967725935
 20
86.0763589601
 10
122.2397428857
 20
86.104811796
 10
122.2793445842
 20
86.1510175029
 10
122.3140559079
 20
86.213198186
 10
122.3425427372
 20
86.2889668653
 10
122.3637103023
 20
86.3754103641
 10
122.3767450931
 20
86.4692066545
 10
122.3811465235
 20
86.5667524497
  0
LWPOLYLINE
  5
10E
330
1F
100
AcDbEntity
  8
0
  6
Continuous
 62
     7
370
    25
100
AcDbPolyline
 90
        9
 70
   128
 43
0.0
 10
117.2751909973
 20
74.1727079014
 10
117.3727358611
 20
74.1683064709
 10
117.4665321516
 20
74.1552716802
 10
117.5529756503
 20
74.134104115
 10
117.6287443297
 20
74.1056172858
 10
117.6909250127
 20
74.0709059621
 10
117.7371307196
 20
74.0313042636
 10
117.7655835556
 20
73.9883339713
 10
117.7751901479
 20
73.9436463202
  0
SPLINE
  5
10F
330
1F
100
AcDbEntity
  8
0
  6
Continuous
 62
     7
370
    25
100
AcDbSpline
210
0.0
220
0.0
230
1.0
 70
     8
 71
     3
 72
     8
 73
     4
 74
     0
 42
0.000000001
 43
0.00000001
 40
0.0
 40
0.0
 40
0.0
 40
0.0
 40
1.0
 40
1.0
 40
1.0
 40
1.0
 10
117.5581682341939
 20
71.06675198773148
 30
0.0
 10
117.4700443767352
 20
71.06675198773148
 30
0.0
 10
117.3721069040331
 20
71.03548179412941
 30
0.0
 10
117.2751906098855
 20
70.98341865439814
 30
0.0
  0
SPLINE
  5
110
330
1F
100
AcDbEntity
  8
0
  6
Continuous
 62
     7
370
    25
100
AcDbSpline
210
0.0
220
0.0
230
1.0
 70
    24
 71
     3
 72
    10
 73
     6
 74
     0
 42
0.000000001
 43
0.00000001
 40
0.0
 40
0.0
 40
0.0
 40
0.0
 40
0.5
 40
0.5
 40
1.0
 40
1.0
 40
1.0
 40
1.0
 10
117.7751906098855
 20
71.06675198773135
 30
0.0
 10
117.7751906098855
 20
71.06675198773135
 30
0.0
 10
117.7583455943316
 20
71.06675198773146
 30
0.0
 10
117.688985876704
 20
71.06675198773148
 30
0.0
 10
117.6377863906509
 20
71.06675198773148
 30
0.0
 10
117.558168234194
 20
71.06675198773148
 30
0.0
  0
SPLINE
  5
111
330
1F
100
AcDbEntity
  8
0
  6
Continuous
 62
     7
370
    25
100
AcDbSpline
210
0.0
220
0.0
230
1.0
 70
     8
 71
     3
 72
     8
 73
     4
 74
     0
 42
0.000000001
 43
0.00000001
 40
0.0
 40
0.0
 40
0.0
 40
0.0
 40
1.0
 40
1.0
 40
1.0
 40
1.0
 10
133.2751906098855
 20
86.28377436342306
 30
0.0
 10
133.2751906098855
 20
86.37189822088175
 30
0.0
 10
133.306460803489
 20
86.46983569358115
 30
0.0
 10
133.3585239432188
 20
86.56675198773148
 30
0.0
  0
SPLINE
  5
112
330
1F
100
AcDbEntity
  8
0
  6
Continuous
 62
     7
370
    25
100
AcDbSpline
210
0.0
220
0.0
230
1.0
 70
    24
 71
     3
 72
    10
 73
     6
 74
     0
 42
0.000000001
 43
0.00000001
 40
0.0
 40
0.0
 40
0.0
 40
0.0
 40
0.5
 40
0.5
 40
1.0
 40
1.0
 40
1.0
 40
1.0
 10
133.2751906098855
 20
86.28377436342306
 30
0.0
 10
133.2751906098855
 20
86.20443720100151
 30
0.0
 10
133.2751906098855
 20
86.15294189249055
 30
0.0
 10
133.2751906098855
 20
86.08383955120502
 30
0.0
 10
133.2751906098855
 20
86.06675198773152
 30
0.0
 10
133.2751906098855
 20
86.06675198773148
 30
0.0
  0
SPLINE
  5
113
330
1F
100
AcDbEntity
  8
0
  6
Continuous
 62
     7
370
    25
100
AcDbSpline
210
0.0
220
0.0
230
1.0
 70
     8
 71
     3
 72
     8
 73
     4
 74
     0
 42
0.000000001
 43
0.00000001
 40
0.0
 40
0.0
 40
0.0
 40
0.0
 40
1.0
 40
1.0
 40
1.0
 40
1.0
 10
134.9539563394118
 20
84.56675198773148
 30
0.0
 10
135.0508800759043
 20
84.56675198773148
 30
0.0
 10
135.1638855639942
 20
84.60987454612707
 30
0.0
 10
135.2751906098855
 20
84.67786309884258
 30
0.0
  0
SPLINE
  5
114
330
1F
100
AcDbEntity
  8
0
  6
Continuous
 62
     7
370
    25
100
AcDbSpline
210
0.0
220
0.0
230
1.0
 70
    24
 71
     3
 72
    10
 73
     6
 74
     0
 42
0.000000001
 43
0.00000001
 40
0.0
 40
0.0
 40
0.0
 40
0.0
 40
0.5
 40
0.5
 40
1.0
 40
1.0
 40
1.0
 40
1.0
 10
134.7751906098855
 20
84.56675198773267
 30
0.0
 10
134.7751906098855
 20
84.56675198773267
 30
0.0
 10
134.7894085796013
 20
84.56675198773148
 30
0.0
 10
134.8475850943922
 20
84.56675198773148
 30
0.0
 10
134.8909064517309
 20
84.56675198773148
 30
0.0
 10
134.9539563394118
 20
84.56675198773148
 30
0.0
  0
SPLINE
  5
115
330
1F
100
AcDbEntity
  8
0
  6
Continuous
 62
     7
370
    25
100
AcDbSpline
210
0.0
220
0.0
230
1.0
 70
     8
 71
     3
 72
     8
 73
     4
 74
     0
 42
0.000000001
 43
0.00000001
 40
0.0
 40
0.0
 40
0.0
 40
0.0
 40
1.0
 40
1.0
 40
1.0
 40
1.0
 10
134.9922129855771
 20
71.06675198773148
 30
0.0
 10
135.0803368430358
 20
71.06675198773148
 30
0.0
 10
135.1782743157378
 20
71.03548179412941
 30
0.0
 10
135.2751906098855
 20
70.98341865439814
 30
0.0
  0
SPLINE
  5
116
330
1F
100
AcDbEntity
  8
0
  6
Continuous
 62
     7
370
    25
100
AcDbSpline
210
0.0
220
0.0
230
1.0
 70
    24
 71
     3
 72
    10
 73
     6
 74
     0
 42
0.000000001
 43
0.00000001
 40
0.0
 40
0.0
 40
0.0
 40
0.0
 40
0.5
 40
0.5
 40
1.0
 40
1.0
 40
1.0
 40
1.0
 10
134.9922129855771
 20
71.06675198773148
 30
0.0
 10
134.9128758231555
 20
71.06675198773148
 30
0.0
 10
134.8613805146446
 20
71.06675198773146
 30
0.0
 10
134.792278173359
 20
71.06675198773148
 30
0.0
 10
134.7751906098855
 20
71.06675198773148
 30
0.0
 10
134.7751906098855
 20
71.06675198773148
 30
0.0
  0
SPLINE
  5
117
330
1F
100
AcDbEntity
  8
0
  6
Continuous
 62
     7
370
    25
100
AcDbSpline
210
0.0
220
0.0
230
1.0
 70
     8
 71
     3
 72
     8
 73
     4
 74
     0
 42
0.000000001
 43
0.00000001
 40
0.0
 40
0.0
 40
0.0
 40
0.0
 40
1.0
 40
1.0
 40
1.0
 40
1.0
 10
119.2751906098855
 20
86.28377436342309
 30
0.0
 10
119.2751906098855
 20
86.37189822088177
 30
0.0
 10
119.2439204162817
 20
86.46983569358078
 30
0.0
 10
119.1918572765521
 20
86.56675198773148
 30
0.0
  0
SPLINE
  5
118
330
1F
100
AcDbEntity
  8
0
  6
Continuous
 62
     7
370
    25
100
AcDbSpline
210
0.0
220
0.0
230
1.0
 70
    24
 71
     3
 72
    10
 73
     6
 74
     0
 42
0.000000001
 43
0.00000001
 40
0.0
 40
0.0
 40
0.0
 40
0.0
 40
0.5
 40
0.5
 40
1.0
 40
1.0
 40
1.0
 40
1.0
 10
119.2751906098854
 20
86.06675198773148
 30
0.0
 10
119.2751906098854
 20
86.06675198773148
 30
0.0
 10
119.2751906098855
 20
86.08359700328539
 30
0.0
 10
119.2751906098855
 20
86.15295672091298
 30
0.0
 10
119.2751906098855
 20
86.20415620696608
 30
0.0
 10
119.2751906098855
 20
86.28377436342298
 30
0.0
  0
SPLINE
  5
119
330
1F
100
AcDbEntity
  8
0
  6
Continuous
 62
     7
370
    25
100
AcDbSpline
210
0.0
220
0.0
230
1.0
 70
     8
 71
     3
 72
     8
 73
     4
 74
     0
 42
0.000000001
 43
0.00000001
 40
0.0
 40
0.0
 40
0.0
 40
0.0
 40
1.0
 40
1.0
 40
1.0
 40
1.0
 10
117.5964248803592
 20
84.56675198773148
 30
0.0
 10
117.4995011438667
 20
84.56675198773148
 30
0.0
 10
117.3864956557768
 20
84.60987454612707
 30
0.0
 10
117.2751906098855
 20
84.67786309884258
 30
0.0
  0
SPLINE
  5
11A
330
1F
100
AcDbEntity
  8
0
  6
Continuous
 62
     7
370
    25
100
AcDbSpline
210
0.0
220
0.0
230
1.0
 70
    24
 71
     3
 72
    10
 73
     6
 74
     0
 42
0.000000001
 43
0.00000001
 40
0.0
 40
0.0
 40
0.0
 40
0.0
 40
0.5
 40
0.5
 40
1.0
 40
1.0
 40
1.0
 40
1.0
 10
117.5964248803592
 20
84.56675198773148
 30
0.0
 10
117.6594749028943
 20
84.56675198773148
 30
0.0
 10
117.7027821272002
 20
84.56675198773148
 30
0.0
 10
117.7609733028625
 20
84.56675198773148
 30
0.0
 10
117.7751906098855
 20
84.56675198773148
 30
0.0
 10
117.7751906098855
 20
84.56675198773148
 30
0.0
  0
ARC
  5
11B
330
1F
100
AcDbEntity
  8
0
  6
Continuous
 62
     7
370
    25
100
AcDbCircle
 10
118.8133858382
 20
85.6125844297
 30
0.0
 40
0.4640733516230594
100
AcDbArc
 50
265.2789919347
 51
354.3321397526
  0
LINE
  5
11C
330
1F
100
AcDbEntity
  8
0
  6
Continuous
 62
     7
370
    25
100
AcDbLine
 10
118.2751902299
 20
84.6778630959
 30
0.0
 11
118.2751902299
 21
84.5667521218
 31
0.0
  0
ARC
  5
11D
330
1F
100
AcDbEntity
  8
0
  6
Continuous
 62
     7
370
    25
100
AcDbCircle
 10
133.7369953816
 20
85.6125844297
 30
0.0
 40
0.4640733516230594
100
AcDbArc
 50
185.6678602474
 51
274.7210080653
  0
LINE
  5
11E
330
1F
100
AcDbEntity
  8
0
  6
Continuous
 62
     7
370
    25
100
AcDbLine
 10
134.2751909899
 20
84.5667521218
 30
0.0
 11
134.2751909899
 21
84.6778630959
 31
0.0
  0
LINE
  5
11F
330
1F
100
AcDbEntity
  8
0
  6
Continuous
 62
     7
370
    25
100
AcDbLine
 10
133.3585241729
 20
85.5667518201
 30
0.0
 11
133.275190826
 21
85.5667518201
 31
0.0
  0
ARC
  5
120
330
1F
100
AcDbEntity
  8
0
  6
Continuous
 62
     7
370
    25
100
AcDbCircle
 10
133.9765880255
 20
85.7681494034
 30
0.0
 40
0.6500491615196141
100
AcDbArc
 50
198.0483231264
 51
251.9516768736
  0
ARC
  5
121
330
1F
100
AcDbEntity
  8
0
  6
Continuous
 62
     7
370
    25
100
AcDbCircle
 10
118.5737931943
 20
85.7681494034
 30
0.0
 40
0.6500491615196006
100
AcDbArc
 50
288.0483231264
 51
341.9516768736
  0
LINE
  5
122
330
1F
100
AcDbEntity
  8
0
  6
Continuous
 62
     7
370
    25
100
AcDbLine
 10
119.2751903938
 20
85.5667518201
 30
0.0
 11
119.1918570468
 21
85.5667518201
 31
0.0
  0
LINE
  5
123
330
1F
100
AcDbEntity
  8
0
  6
Continuous
 62
     8
370
    25
100
AcDbLine
 10
142.2751913698
 20
89.3167524348
 30
0.0
 11
142.2751913698
 21
66.8167515407
 31
0.0
  0
LINE
  5
124
330
1F
100
AcDbEntity
  8
0
  6
Continuous
 62
     8
370
    25
100
AcDbLine
 10
115.0251901629
 20
94.0667527477
 30
0.0
 11
137.5251910569
 21
94.0667527477
 31
0.0
  0
LINE
  5
125
330
1F
100
AcDbEntity
  8
0
  6
Continuous
 62
     8
370
    25
100
AcDbLine
 10
110.2751898499
 20
78.0667519877
 30
0.0
 11
110.2751898499
 21
89.3167524348
 31
0.0
  0
LINE
  5
126
330
1F
100
AcDbEntity
  8
0
  6
Continuous
 62
     8
370
    25
100
AcDbLine
 10
110.2751898499
 20
66.8167515407
 30
0.0
 11
110.2751898499
 21
78.0667519877
 31
0.0
  0
LINE
  5
127
330
1F
100
AcDbEntity
  8
0
  6
Continuous
 62
     8
370
    25
100
AcDbLine
 10
140.275191042
 20
69.5667515258
 30
0.0
 11
140.275191042
 21
86.5667524497
 31
0.0
  0
LINE
  5
128
330
1F
100
AcDbEntity
  8
0
  6
Continuous
 62
     8
370
    25
100
AcDbLine
 10
134.7751910718
 20
92.0667524199
 30
0.0
 11
117.7751901479
 21
92.0667524199
 31
0.0
  0
LINE
  5
129
330
1F
100
AcDbEntity
  8
0
  6
Continuous
 62
     8
370
    25
100
AcDbLine
 10
112.2751901778
 20
78.0667519877
 30
0.0
 11
112.2751901778
 21
69.5667515258
 31
0.0
  0
LINE
  5
12A
330
1F
100
AcDbEntity
  8
0
  6
Continuous
 62
     8
370
    25
100
AcDbLine
 10
112.2751901778
 20
86.5667524497
 30
0.0
 11
112.2751901778
 21
78.0667519877
 31
0.0
  0
LWPOLYLINE
  5
12B
330
1F
100
AcDbEntity
  8
0
  6
Continuous
 62
     8
370
    25
100
AcDbPolyline
 90
       10
 70
   128
 43
0.0
 10
117.7751901479
 20
87.0667516003
 10
117.7931823688
 20
87.047701397
 10
117.8470826628
 20
86.990630881
 10
117.9366619246
 20
86.895782196
 10
118.0615420373
 20
86.7635567422
 10
118.2211940097
 20
86.594513313
 10
118.4149417015
 20
86.3893690268
 10
118.6419646176
 20
86.148990945
 10
118.9013025643
 20
85.8743979345
 10
119.1918570468
 20
85.5667518201
  0
LWPOLYLINE
  5
12C
330
1F
100
AcDbEntity
  8
0
  6
Continuous
 62
     8
370
    25
100
AcDbPolyline
 90
       10
 70
   128
 43
0.0
 10
133.3585241729
 20
85.5667518201
 10
133.6490786554
 20
85.8743979345
 10
133.9084166022
 20
86.148990945
 10
134.1354395183
 20
86.3893690268
 10
134.3291872101
 20
86.594513313
 10
134.4888391824
 20
86.7635567422
 10
134.6137192952
 20
86.895782196
 10
134.703298557
 20
86.990630881
 10
134.757198851
 20
87.047701397
 10
134.7751910718
 20
87.0667516003
  0
LWPOLYLINE
  5
12D
330
1F
100
AcDbEntity
  8
0
  6
Continuous
 62
     8
370
    25
100
AcDbPolyline
 90
       10
 70
   128
 43
0.0
 10
135.2751902225
 20
86.5667524497
 10
135.2561400192
 20
86.5487602288
 10
135.1990695031
 20
86.4948599348
 10
135.1042208182
 20
86.405280673
 10
134.9719953643
 20
86.2804005603
 10
134.8029519351
 20
86.1207485879
 10
134.597807649
 20
85.9270008961
 10
134.3574295672
 20
85.6999779801
 10
134.0828365566
 20
85.4406400333
 10
133.7751904422
 20
85.1500855508
  0
LWPOLYLINE
  5
12E
330
1F
100
AcDbEntity
  8
0
  6
Continuous
 62
     8
370
    25
100
AcDbPolyline
 90
       10
 70
   128
 43
0.0
 10
118.7751907775
 20
85.1500855508
 10
118.4675446631
 20
85.4406400333
 10
118.1929516526
 20
85.6999779801
 10
117.9525735708
 20
85.9270008961
 10
117.7474292846
 20
86.1207485879
 10
117.5783858554
 20
86.2804005603
 10
117.4461604016
 20
86.405280673
 10
117.3513117166
 20
86.4948599348
 10
117.2942412006
 20
86.5487602288
 10
117.2751909973
 20
86.5667524497
  0
LINE
  5
12F
330
1F
100
AcDbEntity
  8
0
  6
CENTERX2
 62
     7
370
    18
100
AcDbLine
 10
126.2751906099
 20
67.4458232027
 30
0.0
 11
126.2751906099
 21
108.5667519877
 31
0.0
  0
LINE
  5
130
330
1F
100
AcDbEntity
  8
0
  6
CENTERX2
 62
     7
370
    18
100
AcDbLine
 10
95.7751906099
 20
78.0667519877
 30
0.0
 11
156.7751906099
 21
78.0667519877
 31
0.0
  0
LINE
  5
131
330
1F
100
AcDbEntity
  8
0
  6
Continuous
 62
     7
370
    25
100
AcDbLine
 10
185.7990031745
 20
106.5667520026
 30
0.0
 11
185.7990031745
 21
94.0667527477
 31
0.0
  0
LINE
  5
132
330
1F
100
AcDbEntity
  8
0
  6
Continuous
 62
     7
370
    25
100
AcDbLine
 10
208.2990040686
 20
94.0667527477
 30
0.0
 11
208.2990040686
 21
106.5667520026
 31
0.0
  0
LINE
  5
133
330
1F
100
AcDbEntity
  8
0
  6
Continuous
 62
     7
370
    25
100
AcDbLine
 10
208.2990040686
 20
106.5667520026
 30
0.0
 11
207.7990039866
 21
107.0667511533
 31
0.0
  0
LINE
  5
134
330
1F
100
AcDbEntity
  8
0
  6
Continuous
 62
     7
370
    25
100
AcDbLine
 10
186.2990032565
 20
107.0667511533
 30
0.0
 11
185.7990031745
 21
106.5667520026
 31
0.0
  0
ARC
  5
135
330
1F
100
AcDbEntity
  8
0
  6
Continuous
 62
     7
370
    25
100
AcDbCircle
 10
186.7990036216
 20
94.0667519877
 30
0.0
 40
1.0
100
AcDbArc
 50
180.0
 51
270.0
  0
ARC
  5
136
330
1F
100
AcDbEntity
  8
0
  6
Continuous
 62
     7
370
    25
100
AcDbCircle
 10
207.2990036216
 20
94.0667519877
 30
0.0
 40
1.0
100
AcDbArc
 50
270.0
 51
0.0
  0
ARC
  5
137
330
1F
100
AcDbEntity
  8
0
  6
Continuous
 62
     7
370
    25
100
AcDbCircle
 10
187.5490036216
 20
92.0667519877
 30
0.0
 40
1.0
100
AcDbArc
 50
0.0
 51
90.0
  0
ARC
  5
138
330
1F
100
AcDbEntity
  8
0
  6
Continuous
 62
     7
370
    25
100
AcDbCircle
 10
206.5490036216
 20
92.0667519877
 30
0.0
 40
1.0
100
AcDbArc
 50
90.0
 51
180.0
  0
LINE
  5
139
330
1F
100
AcDbEntity
  8
0
  6
Continuous
 62
     7
370
    25
100
AcDbLine
 10
205.5490040835
 20
86.0667523677
 30
0.0
 11
205.5490040835
 21
92.0667524199
 31
0.0
  0
LINE
  5
13A
330
1F
100
AcDbEntity
  8
0
  6
Continuous
 62
     7
370
    25
100
AcDbLine
 10
188.5490031596
 20
92.0667524199
 30
0.0
 11
188.5490031596
 21
86.0667523677
 31
0.0
  0
CIRCLE
  5
13B
330
1F
100
AcDbEntity
  8
0
  6
Continuous
 62
     7
370
    25
100
AcDbCircle
 10
197.0490036216
 20
78.0667519877
 30
0.0
 40
10.75
  0
CIRCLE
  5
13C
330
1F
100
AcDbEntity
  8
0
  6
Continuous
 62
     7
370
    25
100
AcDbCircle
 10
197.0490036216
 20
78.0667519877
 30
0.0
 40
11.25
  0
CIRCLE
  5
13D
330
1F
100
AcDbEntity
  8
0
  6
Continuous
 62
     7
370
    25
100
AcDbCircle
 10
197.0490036216
 20
78.0667519877
 30
0.0
 40
8.500000000000028
  0
CIRCLE
  5
13E
330
1F
100
AcDbEntity
  8
0
  6
Continuous
 62
     7
370
    25
100
AcDbCircle
 10
197.0490036216
 20
78.0667519877
 30
0.0
 40
7.872175816270357
  0
CIRCLE
  5
13F
330
1F
100
AcDbEntity
  8
0
  6
Continuous
 62
     7
370
    25
100
AcDbCircle
 10
197.0490036216
 20
78.0667519877
 30
0.0
 40
7.547130357748898
  0
CIRCLE
  5
140
330
1F
100
AcDbEntity
  8
0
  6
Continuous
 62
     7
370
    25
100
AcDbCircle
 10
197.0490036216
 20
78.0667519877
 30
0.0
 40
7.474999999999994
  0
CIRCLE
  5
141
330
1F
100
AcDbEntity
  8
0
  6
Continuous
 62
     7
370
    25
100
AcDbCircle
 10
197.0490036216
 20
78.0667519877
 30
0.0
 40
4.999999999999972
  0
LINE
  5
142
330
1F
100
AcDbEntity
  8
0
  6
Continuous
 62
     7
370
    25
100
AcDbLine
 10
208.2990040686
 20
106.5667520026
 30
0.0
 11
185.7990031745
 21
106.5667520026
 31
0.0
  0
LINE
  5
143
330
1F
100
AcDbEntity
  8
0
  6
Continuous
 62
     7
370
    25
100
AcDbLine
 10
186.2990032565
 20
107.0667511533
 30
0.0
 11
207.7990039866
 21
107.0667511533
 31
0.0
  0
LINE
  5
144
330
1F
100
AcDbEntity
  8
0
  6
Continuous
 62
     7
370
    25
100
AcDbLine
 10
207.2990039047
 20
93.0667516525
 30
0.0
 11
186.7990033384
 21
93.0667516525
 31
0.0
  0
SPLINE
  5
145
330
1F
100
AcDbEntity
  8
0
  6
Continuous
 62
     7
370
    25
100
AcDbSpline
210
0.0
220
0.0
230
1.0
 70
     8
 71
     3
 72
    12
 73
     8
 74
     0
 42
0.000000001
 43
0.00000001
 40
0.0
 40
0.0
 40
0.0
 40
0.0
 40
0.2499999999999999
 40
0.2499999999999999
 40
0.4999999999999999
 40
0.4999999999999999
 40
1.0
 40
1.0
 40
1.0
 40
1.0
 10
205.1045112842571
 20
86.41514863662621
 30
0.0
 10
205.1773297722401
 20
86.36704052798181
 30
0.0
 10
205.2416254106985
 20
86.33082747051759
 30
0.0
 10
205.3523315742814
 20
86.2657232608647
 30
0.0
 10
205.3987850865229
 20
86.23748308057641
 30
0.0
 10
205.5108711091414
 20
86.15821824930343
 30
0.0
 10
205.5490036215642
 20
86.11235286610778
 30
0.0
 10
205.5490036215642
 20
86.06675198773148
 30
0.0
  0
SPLINE
  5
146
330
1F
100
AcDbEntity
  8
0
  6
Continuous
 62
     7
370
    25
100
AcDbSpline
210
0.0
220
0.0
230
1.0
 70
     8
 71
     3
 72
     8
 73
     4
 74
     0
 42
0.000000001
 43
0.00000001
 40
0.0
 40
0.0
 40
0.0
 40
0.0
 40
1.0
 40
1.0
 40
1.0
 40
1.0
 10
204.6045591771198
 20
86.56675198773148
 30
0.0
 10
204.8037520995735
 20
86.56675198773148
 30
0.0
 10
204.9691305306627
 20
86.50458899968079
 30
0.0
 10
205.1045112842571
 20
86.41514863662621
 30
0.0
  0
SPLINE
  5
147
330
1F
100
AcDbEntity
  8
0
  6
Continuous
 62
     7
370
    25
100
AcDbSpline
210
0.0
220
0.0
230
1.0
 70
     8
 71
     3
 72
     8
 73
     4
 74
     0
 42
0.000000001
 43
0.00000001
 40
0.0
 40
0.0
 40
0.0
 40
0.0
 40
1.0
 40
1.0
 40
1.0
 40
1.0
 10
188.9934959588713
 20
86.41514863662623
 30
0.0
 10
189.1288767124658
 20
86.5045889996808
 30
0.0
 10
189.2942551435549
 20
86.56675198773148
 30
0.0
 10
189.4934480660087
 20
86.56675198773148
 30
0.0
  0
SPLINE
  5
148
330
1F
100
AcDbEntity
  8
0
  6
Continuous
 62
     7
370
    25
100
AcDbSpline
210
0.0
220
0.0
230
1.0
 70
     8
 71
     3
 72
    12
 73
     8
 74
     0
 42
0.000000001
 43
0.00000001
 40
0.0
 40
0.0
 40
0.0
 40
0.0
 40
0.2500000000000002
 40
0.2500000000000002
 40
0.5000000000000001
 40
0.5000000000000001
 40
1.0
 40
1.0
 40
1.0
 40
1.0
 10
188.9934959588713
 20
86.41514863662623
 30
0.0
 10
188.9208447841182
 20
86.36715106478724
 30
0.0
 10
188.856527261527
 20
86.33091249088814
 30
0.0
 10
188.7456480733198
 20
86.26570753566183
 30
0.0
 10
188.6989877067716
 20
86.23734047840169
 30
0.0
 10
188.5867290478206
 20
86.15788370291229
 30
0.0
 10
188.5490036215642
 20
86.11243772306197
 30
0.0
 10
188.5490036215642
 20
86.06675198773148
 30
0.0
  0
LINE
  5
149
330
1F
100
AcDbEntity
  8
0
  6
Continuous
 62
     7
370
    25
100
AcDbLine
 10
205.5490040835
 20
85.5667518201
 30
0.0
 11
205.5490040835
 21
85.4364532726
 31
0.0
  0
LINE
  5
14A
330
1F
100
AcDbEntity
  8
0
  6
Continuous
 62
     7
370
    25
100
AcDbLine
 10
188.5490031596
 20
85.4364532726
 30
0.0
 11
188.5490031596
 21
85.5667518201
 31
0.0
  0
ARC
  5
14B
330
1F
100
AcDbEntity
  8
0
  6
Continuous
 62
     7
370
    25
100
AcDbCircle
 10
205.0490036216
 20
85.5667519877
 30
0.0
 40
0.5
100
AcDbArc
 50
0.0
 51
90.0
  0
LINE
  5
14C
330
1F
100
AcDbEntity
  8
0
  6
Continuous
 62
     7
370
    25
100
AcDbLine
 10
204.9586498793
 20
86.0667523677
 30
0.0
 11
205.0490040015
 21
86.0667523677
 31
0.0
  0
LINE
  5
14D
330
1F
100
AcDbEntity
  8
0
  6
Continuous
 62
     7
370
    25
100
AcDbLine
 10
189.0490032416
 20
86.0667523677
 30
0.0
 11
189.1393573638
 21
86.0667523677
 31
0.0
  0
ARC
  5
14E
330
1F
100
AcDbEntity
  8
0
  6
Continuous
 62
     7
370
    25
100
AcDbCircle
 10
189.0490036216
 20
85.5667519877
 30
0.0
 40
0.5
100
AcDbArc
 50
90.0
 51
180.0
  0
ARC
  5
14F
330
1F
100
AcDbEntity
  8
0
  6
Continuous
 62
     7
370
    25
100
AcDbCircle
 10
205.5630244559
 20
86.3775716158
 30
0.0
 40
0.4600508724523238
100
AcDbArc
 50
175.314811797
 51
237.181165302
  0
ARC
  5
150
330
1F
100
AcDbEntity
  8
0
  6
Continuous
 62
     7
370
    25
100
AcDbCircle
 10
188.5349827872
 20
86.3775716158
 30
0.0
 40
0.4600508724523379
100
AcDbArc
 50
302.818834698
 51
4.685188203
  0
SPLINE
  5
151
330
1F
100
AcDbEntity
  8
0
  6
Continuous
 62
     7
370
    25
100
AcDbSpline
210
0.0
220
0.0
230
1.0
 70
     8
 71
     3
 72
    12
 73
     8
 74
     0
 42
0.000000001
 43
0.00000001
 40
0.0
 40
0.0
 40
0.0
 40
0.0
 40
0.2500000000000002
 40
0.2500000000000002
 40
0.5000000000000001
 40
0.5000000000000001
 40
1.0
 40
1.0
 40
1.0
 40
1.0
 10
205.3136841488723
 20
85.99095031217884
 30
0.0
 10
205.349370782976
 20
85.96868347002491
 30
0.0
 10
205.3829296592754
 20
85.96164543737049
 30
0.0
 10
205.4415734043306
 20
85.96077031588607
 30
0.0
 10
205.4668003202924
 20
85.96743430983514
 30
0.0
 10
205.5278341337929
 20
85.99808665925339
 30
0.0
 10
205.5490036215642
 20
86.0326953423779
 30
0.0
 10
205.5490036215642
 20
86.06675198773148
 30
0.0
  0
SPLINE
  5
152
330
1F
100
AcDbEntity
  8
0
  6
Continuous
 62
     7
370
    25
100
AcDbSpline
210
0.0
220
0.0
230
1.0
 70
    24
 71
     3
 72
    16
 73
    12
 74
     0
 42
0.000000001
 43
0.00000001
 40
0.0
 40
0.0
 40
0.0
 40
0.0
 40
0.2500000000000002
 40
0.2500000000000002
 40
0.5000000000000003
 40
0.5000000000000003
 40
0.7500000000000004
 40
0.7500000000000004
 40
0.8750000000000002
 40
0.8750000000000002
 40
1.0
 40
1.0
 40
1.0
 40
1.0
 10
205.5490036215642
 20
85.56675198773148
 30
0.0
 10
205.5490036215642
 20
85.56675198773148
 30
0.0
 10
205.5490036215642
 20
85.58668377341861
 30
0.0
 10
205.5490036215642
 20
85.6472903200222
 30
0.0
 10
205.5490036215642
 20
85.68840082746738
 30
0.0
 10
205.5490036215642
 20
85.78277728386658
 30
0.0
 10
205.5490036215642
 20
85.83614264572287
 30
0.0
 10
205.5490036215642
 20
85.92044980565747
 30
0.0
 10
205.5490036215642
 20
85.94927468249931
 30
0.0
 10
205.5490036215642
 20
86.00763376106482
 30
0.0
 10
205.5490036215642
 20
86.0368848822829
 30
0.0
 10
205.5490036215642
 20
86.06675198773148
 30
0.0
  0
SPLINE
  5
153
330
1F
100
AcDbEntity
  8
0
  6
Continuous
 62
     7
370
    25
100
AcDbSpline
210
0.0
220
0.0
230
1.0
 70
     8
 71
     3
 72
    12
 73
     8
 74
     0
 42
0.000000001
 43
0.00000001
 40
0.0
 40
0.0
 40
0.0
 40
0.0
 40
0.2500000000000002
 40
0.2500000000000002
 40
0.5000000000000001
 40
0.5000000000000001
 40
1.0
 40
1.0
 40
1.0
 40
1.0
 10
188.7843230942562
 20
85.99095031217884
 30
0.0
 10
188.7486364601525
 20
85.96868347002493
 30
0.0
 10
188.7150775838531
 20
85.9616454373705
 30
0.0
 10
188.6564338387979
 20
85.96077031588607
 30
0.0
 10
188.6312069228361
 20
85.96743430983513
 30
0.0
 10
188.5701731093356
 20
85.99808665925336
 30
0.0
 10
188.5490036215642
 20
86.03269534237778
 30
0.0
 10
188.5490036215642
 20
86.06675198773148
 30
0.0
  0
SPLINE
  5
154
330
1F
100
AcDbEntity
  8
0
  6
Continuous
 62
     7
370
    25
100
AcDbSpline
210
0.0
220
0.0
230
1.0
 70
    24
 71
     3
 72
    16
 73
    12
 74
     0
 42
0.000000001
 43
0.00000001
 40
0.0
 40
0.0
 40
0.0
 40
0.0
 40
0.2500000000000002
 40
0.2500000000000002
 40
0.5000000000000002
 40
0.5000000000000002
 40
0.7500000000000002
 40
0.7500000000000002
 40
0.8750000000000001
 40
0.8750000000000001
 40
1.0
 40
1.0
 40
1.0
 40
1.0
 10
188.5490036215642
 20
85.56675198773148
 30
0.0
 10
188.5490036215642
 20
85.56675198773148
 30
0.0
 10
188.5490036215642
 20
85.58668377341863
 30
0.0
 10
188.5490036215642
 20
85.64729032002221
 30
0.0
 10
188.5490036215642
 20
85.68840082746738
 30
0.0
 10
188.5490036215642
 20
85.78277728386658
 30
0.0
 10
188.5490036215642
 20
85.83614264572287
 30
0.0
 10
188.5490036215642
 20
85.92044980565747
 30
0.0
 10
188.5490036215642
 20
85.94927468249931
 30
0.0
 10
188.5490036215642
 20
86.00763376106482
 30
0.0
 10
188.5490036215642
 20
86.03688488228289
 30
0.0
 10
188.5490036215642
 20
86.06675198773148
 30
0.0
  0
LINE
  5
155
330
1F
100
AcDbEntity
  8
0
  6
Continuous
 62
     8
370
    25
100
AcDbLine
 10
185.7990031745
 20
94.0667527477
 30
0.0
 11
208.2990040686
 21
94.0667527477
 31
0.0
  0
LINE
  5
156
330
1F
100
AcDbEntity
  8
0
  6
Continuous
 62
     8
370
    25
100
AcDbLine
 10
205.5490040835
 20
92.0667524199
 30
0.0
 11
188.5490031596
 21
92.0667524199
 31
0.0
  0
LINE
  5
157
330
1F
100
AcDbEntity
  8
0
  6
Continuous
 62
     8
370
    25
100
AcDbLine
 10
204.4187049065
 20
86.5667524497
 30
0.0
 11
204.6045591738
 21
86.5667524497
 31
0.0
  0
LINE
  5
158
330
1F
100
AcDbEntity
  8
0
  6
Continuous
 62
     8
370
    25
100
AcDbLine
 10
189.4934480693
 20
86.5667524497
 30
0.0
 11
189.6793023366
 21
86.5667524497
 31
0.0
  0
LINE
  5
159
330
1F
100
AcDbEntity
  8
0
  6
Continuous
 62
     8
370
    25
100
AcDbLine
 10
205.5490040835
 20
85.5667518201
 30
0.0
 11
205.434258623
 21
85.5667518201
 31
0.0
  0
LINE
  5
15A
330
1F
100
AcDbEntity
  8
0
  6
Continuous
 62
     8
370
    25
100
AcDbLine
 10
188.5490031596
 20
85.5667518201
 30
0.0
 11
188.6637486201
 21
85.5667518201
 31
0.0
  0
LWPOLYLINE
  5
15B
330
1F
100
AcDbEntity
  8
0
  6
Continuous
 62
     8
370
    25
100
AcDbPolyline
 90
        3
 70
   128
 43
0.0
 10
205.0490040015
 20
86.0667523677
 10
204.9622969385
 20
86.0763589601
 10
204.9444248583
 20
86.0807911242
  0
ARC
  5
15C
330
1F
100
AcDbEntity
  8
0
  6
Continuous
 62
     8
370
    25
100
AcDbCircle
 10
205.1561735672
 20
86.5656390076
 30
0.0
 40
0.5516155171801901
100
AcDbArc
 50
179.884347748
 51
200.8856234909
  0
ARC
  5
15D
330
1F
100
AcDbEntity
  8
0
  6
Continuous
 62
     8
370
    25
100
AcDbCircle
 10
188.9418336759
 20
86.5656390076
 30
0.0
 40
0.5516155171801901
100
AcDbArc
 50
339.1143765091
 51
0.115652252
  0
LWPOLYLINE
  5
15E
330
1F
100
AcDbEntity
  8
0
  6
Continuous
 62
     8
370
    25
100
AcDbPolyline
 90
        3
 70
   128
 43
0.0
 10
189.1535823848
 20
86.0807911242
 10
189.1357103046
 20
86.0763589601
 10
189.0490032416
 20
86.0667523677
  0
LINE
  5
15F
330
1F
100
AcDbEntity
  8
0
  6
Continuous
 62
     8
370
    25
100
AcDbLine
 10
205.0490040015
 20
85.9763982455
 30
0.0
 11
205.0490040015
 21
86.0667523677
 31
0.0
  0
LINE
  5
160
330
1F
100
AcDbEntity
  8
0
  6
Continuous
 62
     8
370
    25
100
AcDbLine
 10
189.0490032416
 20
86.0667523677
 30
0.0
 11
189.0490032416
 21
85.9763982455
 31
0.0
  0
INSERT
  5
16C
330
1F
100
AcDbEntity
  8
0
  6
Continuous
 62
     7
370
    18
100
AcDbBlockReference
  2
SW_CENTERMARKSYMBOL_0
 10
197.0490036216
 20
78.0667519877
 30
0.0
  0
ARC
  5
16D
330
1F
100
AcDbEntity
  8
0
  6
Continuous
 62
     7
370
    18
100
AcDbCircle
 10
197.0490036216
 20
78.0667519877
 30
0.0
 40
8.334121500000009
100
AcDbArc
 50
75.0
 51
345.0
  0
ARC
  5
16E
330
1F
100
AcDbEntity
  8
0
  6
Continuous
 62
     7
370
    18
100
AcDbCircle
 10
197.0490036216
 20
78.0667519877
 30
0.0
 40
8.334121500000009
100
AcDbArc
 50
75.0
 51
345.0
  0
LINE
  5
16F
330
1F
100
AcDbEntity
  8
0
  6
Continuous
 62
     7
370
    25
100
AcDbLine
 10
154.7751906248
 20
158.1503431272
 30
0.0
 11
142.2751913698
 21
158.1503431272
 31
0.0
  0
LINE
  5
170
330
1F
100
AcDbEntity
  8
0
  6
Continuous
 62
     7
370
    25
100
AcDbLine
 10
142.2751913698
 20
135.6503422332
 30
0.0
 11
154.7751906248
 21
135.6503422332
 31
0.0
  0
LINE
  5
171
330
1F
100
AcDbEntity
  8
0
  6
Continuous
 62
     7
370
    25
100
AcDbLine
 10
154.7751906248
 20
135.6503422332
 30
0.0
 11
155.2751897754
 21
136.1503423151
 31
0.0
  0
LINE
  5
172
330
1F
100
AcDbEntity
  8
0
  6
Continuous
 62
     7
370
    25
100
AcDbLine
 10
155.2751897754
 20
157.6503430453
 30
0.0
 11
154.7751906248
 21
158.1503431272
 31
0.0
  0
LINE
  5
173
330
1F
100
AcDbEntity
  8
0
  6
Continuous
 62
     7
370
    25
100
AcDbLine
 10
97.775190595
 20
158.1503431272
 30
0.0
 11
97.2751914444
 21
157.6503430453
 31
0.0
  0
LINE
  5
174
330
1F
100
AcDbEntity
  8
0
  6
Continuous
 62
     7
370
    25
100
AcDbLine
 10
97.2751914444
 20
136.1503423151
 30
0.0
 11
97.775190595
 21
135.6503422332
 31
0.0
  0
ARC
  5
175
330
1F
100
AcDbEntity
  8
0
  6
Continuous
 62
     7
370
    25
100
AcDbCircle
 10
142.2751906099
 20
157.1503426802
 30
0.0
 40
1.0
100
AcDbArc
 50
90.0
 51
180.0
  0
ARC
  5
176
330
1F
100
AcDbEntity
  8
0
  6
Continuous
 62
     7
370
    25
100
AcDbCircle
 10
142.2751906099
 20
136.6503426802
 30
0.0
 40
1.0
100
AcDbArc
 50
180.0
 51
270.0
  0
LINE
  5
177
330
1F
100
AcDbEntity
  8
0
  6
Continuous
 62
     7
370
    25
100
AcDbLine
 10
97.775190595
 20
135.6503422332
 30
0.0
 11
110.2751898499
 21
135.6503422332
 31
0.0
  0
LINE
  5
178
330
1F
100
AcDbEntity
  8
0
  6
Continuous
 62
     7
370
    25
100
AcDbLine
 10
110.2751898499
 20
158.1503431272
 30
0.0
 11
97.775190595
 21
158.1503431272
 31
0.0
  0
ARC
  5
179
330
1F
100
AcDbEntity
  8
0
  6
Continuous
 62
     7
370
    25
100
AcDbCircle
 10
110.2751906099
 20
136.6503426802
 30
0.0
 40
1.0
100
AcDbArc
 50
270.0
 51
0.0
  0
ARC
  5
17A
330
1F
100
AcDbEntity
  8
0
  6
Continuous
 62
     7
370
    25
100
AcDbCircle
 10
110.2751906099
 20
157.1503426802
 30
0.0
 40
1.0
100
AcDbArc
 50
0.0
 51
90.0
  0
ARC
  5
17B
330
1F
100
AcDbEntity
  8
0
  6
Continuous
 62
     7
370
    25
100
AcDbCircle
 10
112.2751906099
 20
137.4003426802
 30
0.0
 40
1.0
100
AcDbArc
 50
90.0
 51
180.0
  0
ARC
  5
17C
330
1F
100
AcDbEntity
  8
0
  6
Continuous
 62
     7
370
    25
100
AcDbCircle
 10
112.2751906099
 20
156.4003426802
 30
0.0
 40
1.0
100
AcDbArc
 50
180.0
 51
270.0
  0
ARC
  5
17D
330
1F
100
AcDbEntity
  8
0
  6
Continuous
 62
     7
370
    25
100
AcDbCircle
 10
140.2751906099
 20
156.4003426802
 30
0.0
 40
1.0
100
AcDbArc
 50
270.0
 51
0.0
  0
ARC
  5
17E
330
1F
100
AcDbEntity
  8
0
  6
Continuous
 62
     7
370
    25
100
AcDbCircle
 10
140.2751906099
 20
137.4003426802
 30
0.0
 40
1.0
100
AcDbArc
 50
0.0
 51
90.0
  0
LINE
  5
17F
330
1F
100
AcDbEntity
  8
0
  6
Continuous
 62
     7
370
    25
100
AcDbLine
 10
117.7751901479
 20
155.4003431421
 30
0.0
 11
112.2751901778
 21
155.4003431421
 31
0.0
  0
LINE
  5
180
330
1F
100
AcDbEntity
  8
0
  6
Continuous
 62
     7
370
    25
100
AcDbLine
 10
140.275191042
 20
155.4003431421
 30
0.0
 11
136.525190893
 21
155.4003431421
 31
0.0
  0
LINE
  5
181
330
1F
100
AcDbEntity
  8
0
  6
Continuous
 62
     7
370
    25
100
AcDbLine
 10
135.0251906471
 20
155.4003431421
 30
0.0
 11
134.7751910718
 21
155.4003431421
 31
0.0
  0
LINE
  5
182
330
1F
100
AcDbEntity
  8
0
  6
Continuous
 62
     7
370
    25
100
AcDbLine
 10
134.7751910718
 20
138.4003422183
 30
0.0
 11
140.275191042
 21
138.4003422183
 31
0.0
  0
LINE
  5
183
330
1F
100
AcDbEntity
  8
0
  6
Continuous
 62
     7
370
    25
100
AcDbLine
 10
112.2751901778
 20
138.4003422183
 30
0.0
 11
117.7751901479
 21
138.4003422183
 31
0.0
  0
ARC
  5
184
330
1F
100
AcDbEntity
  8
0
  6
Continuous
 62
     7
370
    25
100
AcDbCircle
 10
136.0669330404
 20
155.2003426802
 30
0.0
 40
0.500000000000022
100
AcDbArc
 50
23.5781784782
 51
90.0
  0
ARC
  5
185
330
1F
100
AcDbEntity
  8
0
  6
Continuous
 62
     7
370
    25
100
AcDbCircle
 10
135.4834481794
 20
155.2003426802
 30
0.0
 40
0.5
100
AcDbArc
 50
90.0
 51
156.4218215218
  0
CIRCLE
  5
186
330
1F
100
AcDbEntity
  8
0
  6
Continuous
 62
     7
370
    25
100
AcDbCircle
 10
126.2751906099
 20
146.9003426802
 30
0.0
 40
6.749999999999986
  0
CIRCLE
  5
187
330
1F
100
AcDbEntity
  8
0
  6
Continuous
 62
     7
370
    25
100
AcDbCircle
 10
126.2751906099
 20
146.9003426802
 30
0.0
 40
10.75000000000001
  0
CIRCLE
  5
188
330
1F
100
AcDbEntity
  8
0
  6
Continuous
 62
     7
370
    25
100
AcDbCircle
 10
126.2751906099
 20
146.9003426802
 30
0.0
 40
11.24999999999999
  0
CIRCLE
  5
189
330
1F
100
AcDbEntity
  8
0
  6
Continuous
 62
     7
370
    25
100
AcDbCircle
 10
126.2751906099
 20
146.9003426802
 30
0.0
 40
6.103432381750451
  0
CIRCLE
  5
18A
330
1F
100
AcDbEntity
  8
0
  6
Continuous
 62
     7
370
    25
100
AcDbCircle
 10
126.2751906099
 20
146.9003426802
 30
0.0
 40
5.81061697881421
  0
CIRCLE
  5
18B
330
1F
100
AcDbEntity
  8
0
  6
Continuous
 62
     7
370
    25
100
AcDbCircle
 10
126.2751906099
 20
146.9003426802
 30
0.0
 40
5.722499999999997
  0
CIRCLE
  5
18C
330
1F
100
AcDbEntity
  8
0
  6
Continuous
 62
     7
370
    25
100
AcDbCircle
 10
126.2751906099
 20
146.9003426802
 30
0.0
 40
4.000000000000014
  0
LINE
  5
18D
330
1F
100
AcDbEntity
  8
0
  6
Continuous
 62
     7
370
    25
100
AcDbLine
 10
154.7751906248
 20
135.6503422332
 30
0.0
 11
154.7751906248
 21
158.1503431272
 31
0.0
  0
LINE
  5
18E
330
1F
100
AcDbEntity
  8
0
  6
Continuous
 62
     7
370
    25
100
AcDbLine
 10
155.2751897754
 20
157.6503430453
 30
0.0
 11
155.2751897754
 21
136.1503423151
 31
0.0
  0
LINE
  5
18F
330
1F
100
AcDbEntity
  8
0
  6
Continuous
 62
     7
370
    25
100
AcDbLine
 10
97.775190595
 20
158.1503431272
 30
0.0
 11
97.775190595
 21
135.6503422332
 31
0.0
  0
LINE
  5
190
330
1F
100
AcDbEntity
  8
0
  6
Continuous
 62
     7
370
    25
100
AcDbLine
 10
97.2751914444
 20
136.1503423151
 30
0.0
 11
97.2751914444
 21
157.6503430453
 31
0.0
  0
LINE
  5
191
330
1F
100
AcDbEntity
  8
0
  6
Continuous
 62
     7
370
    25
100
AcDbLine
 10
141.2751902746
 20
136.6503423971
 30
0.0
 11
141.2751902746
 21
157.1503429633
 31
0.0
  0
LINE
  5
192
330
1F
100
AcDbEntity
  8
0
  6
Continuous
 62
     7
370
    25
100
AcDbLine
 10
111.2751909452
 20
157.1503429633
 30
0.0
 11
111.2751909452
 21
136.6503423971
 31
0.0
  0
SPLINE
  5
193
330
1F
100
AcDbEntity
  8
0
  6
Continuous
 62
     7
370
    25
100
AcDbSpline
210
0.0
220
0.0
230
1.0
 70
     8
 71
     3
 72
    12
 73
     8
 74
     0
 42
0.000000001
 43
0.00000001
 40
0.0
 40
0.0
 40
0.0
 40
0.0
 40
0.2499999999999999
 40
0.2499999999999999
 40
0.5
 40
0.5
 40
1.0
 40
1.0
 40
1.0
 40
1.0
 10
135.1235872587802
 20
138.8448350175006
 30
0.0
 10
135.0756291031084
 20
138.7722435047416
 30
0.0
 10
135.0393466880141
 20
138.7078572388515
 30
0.0
 10
134.974024810978
 20
138.5967823447355
 30
0.0
 10
134.9456642950235
 20
138.5501569272969
 30
0.0
 10
134.8664078884614
 20
138.4382042890948
 30
0.0
 10
134.8209371113344
 20
138.4003426801935
 30
0.0
 10
134.7751906098855
 20
138.4003426801935
 30
0.0
  0
SPLINE
  5
194
330
1F
100
AcDbEntity
  8
0
  6
Continuous
 62
     7
370
    25
100
AcDbSpline
210
0.0
220
0.0
230
1.0
 70
     8
 71
     3
 72
     8
 73
     4
 74
     0
 42
0.000000001
 43
0.00000001
 40
0.0
 40
0.0
 40
0.0
 40
0.0
 40
1.0
 40
1.0
 40
1.0
 40
1.0
 10
135.2751906098855
 20
139.3447871246379
 30
0.0
 10
135.2751906098855
 20
139.1455942021842
 30
0.0
 10
135.2130276218348
 20
138.9802157710951
 30
0.0
 10
135.1235872587802
 20
138.8448350175006
 30
0.0
  0
SPLINE
  5
195
330
1F
100
AcDbEntity
  8
0
  6
Continuous
 62
     7
370
    25
100
AcDbSpline
210
0.0
220
0.0
230
1.0
 70
     8
 71
     3
 72
     8
 73
     4
 74
     0
 42
0.000000001
 43
0.00000001
 40
0.0
 40
0.0
 40
0.0
 40
0.0
 40
1.0
 40
1.0
 40
1.0
 40
1.0
 10
135.1235872587802
 20
154.9558503428864
 30
0.0
 10
135.2130276218348
 20
154.8204695892919
 30
0.0
 10
135.2751906098855
 20
154.6550911582028
 30
0.0
 10
135.2751906098855
 20
154.4558982357491
 30
0.0
  0
SPLINE
  5
196
330
1F
100
AcDbEntity
  8
0
  6
Continuous
 62
     7
370
    25
100
AcDbSpline
210
0.0
220
0.0
230
1.0
 70
     8
 71
     3
 72
    12
 73
     8
 74
     0
 42
0.000000001
 43
0.00000001
 40
0.0
 40
0.0
 40
0.0
 40
0.0
 40
0.2499999999999999
 40
0.2499999999999999
 40
0.4999999999999998
 40
0.4999999999999998
 40
1.0
 40
1.0
 40
1.0
 40
1.0
 10
135.1235872587802
 20
154.9558503428864
 30
0.0
 10
135.0754791501521
 20
155.0286688308447
 30
0.0
 10
135.0392660926967
 20
155.0929644692842
 30
0.0
 10
134.9741618830598
 20
155.2036706328416
 30
0.0
 10
134.9459217027779
 20
155.2501241450765
 30
0.0
 10
134.8666568715237
 20
155.362210167694
 30
0.0
 10
134.8207914882335
 20
155.4003426801935
 30
0.0
 10
134.7751906098855
 20
155.4003426801935
 30
0.0
  0
SPLINE
  5
197
330
1F
100
AcDbEntity
  8
0
  6
Continuous
 62
     7
370
    25
100
AcDbSpline
210
0.0
220
0.0
230
1.0
 70
     8
 71
     3
 72
    12
 73
     8
 74
     0
 42
0.000000001
 43
0.00000001
 40
0.0
 40
0.0
 40
0.0
 40
0.0
 40
0.25
 40
0.25
 40
0.4999999999999998
 40
0.4999999999999998
 40
1.0
 40
1.0
 40
1.0
 40
1.0
 10
117.4267939609908
 20
154.9558503428864
 30
0.0
 10
117.4749020696351
 20
155.0286688308694
 30
0.0
 10
117.5111151270994
 20
155.0929644693278
 30
0.0
 10
117.5762193367522
 20
155.2036706329106
 30
0.0
 10
117.6044595170405
 20
155.2501241451522
 30
0.0
 10
117.6837243483135
 20
155.3622101677707
 30
0.0
 10
117.7295897315093
 20
155.4003426801935
 30
0.0
 10
117.7751906098855
 20
155.4003426801935
 30
0.0
  0
SPLINE
  5
198
330
1F
100
AcDbEntity
  8
0
  6
Continuous
 62
     7
370
    25
100
AcDbSpline
210
0.0
220
0.0
230
1.0
 70
     8
 71
     3
 72
     8
 73
     4
 74
     0
 42
0.000000001
 43
0.00000001
 40
0.0
 40
0.0
 40
0.0
 40
0.0
 40
1.0
 40
1.0
 40
1.0
 40
1.0
 10
117.2751906098855
 20
154.4558982357491
 30
0.0
 10
117.2751906098855
 20
154.6550911582028
 30
0.0
 10
117.3373535979362
 20
154.820469589292
 30
0.0
 10
117.4267939609908
 20
154.9558503428864
 30
0.0
  0
SPLINE
  5
199
330
1F
100
AcDbEntity
  8
0
  6
Continuous
 62
     7
370
    25
100
AcDbSpline
210
0.0
220
0.0
230
1.0
 70
     8
 71
     3
 72
     8
 73
     4
 74
     0
 42
0.000000001
 43
0.00000001
 40
0.0
 40
0.0
 40
0.0
 40
0.0
 40
1.0
 40
1.0
 40
1.0
 40
1.0
 10
117.4267939609908
 20
138.8448350175006
 30
0.0
 10
117.3373535979362
 20
138.980215771095
 30
0.0
 10
117.2751906098855
 20
139.1455942021842
 30
0.0
 10
117.2751906098855
 20
139.3447871246379
 30
0.0
  0
SPLINE
  5
19A
330
1F
100
AcDbEntity
  8
0
  6
Continuous
 62
     7
370
    25
100
AcDbSpline
210
0.0
220
0.0
230
1.0
 70
     8
 71
     3
 72
    12
 73
     8
 74
     0
 42
0.000000001
 43
0.00000001
 40
0.0
 40
0.0
 40
0.0
 40
0.0
 40
0.2499999999999998
 40
0.2499999999999998
 40
0.4999999999999999
 40
0.4999999999999999
 40
1.0
 40
1.0
 40
1.0
 40
1.0
 10
117.4267939609908
 20
138.8448350175006
 30
0.0
 10
117.4747915328297
 20
138.7721838427474
 30
0.0
 10
117.5110301067288
 20
138.7078663201562
 30
0.0
 10
117.5762350619551
 20
138.596987131949
 30
0.0
 10
117.6046021192153
 20
138.5503267654008
 30
0.0
 10
117.6840588947047
 20
138.4380681064499
 30
0.0
 10
117.7295048745552
 20
138.4003426801935
 30
0.0
 10
117.7751906098855
 20
138.4003426801935
 30
0.0
  0
LINE
  5
19B
330
1F
100
AcDbEntity
  8
0
  6
Continuous
 62
     7
370
    25
100
AcDbLine
 10
118.2751902299
 20
155.4003431421
 30
0.0
 11
118.2751902299
 21
154.9003430602
 31
0.0
  0
LINE
  5
19C
330
1F
100
AcDbEntity
  8
0
  6
Continuous
 62
     7
370
    25
100
AcDbLine
 10
118.2751902299
 20
155.4003431421
 30
0.0
 11
118.905489325
 21
155.4003431421
 31
0.0
  0
LINE
  5
19D
330
1F
100
AcDbEntity
  8
0
  6
Continuous
 62
     7
370
    25
100
AcDbLine
 10
134.2751909899
 20
155.4003431421
 30
0.0
 11
134.2751909899
 21
154.9003430602
 31
0.0
  0
LINE
  5
19E
330
1F
100
AcDbEntity
  8
0
  6
Continuous
 62
     7
370
    25
100
AcDbLine
 10
133.6448918948
 20
155.4003431421
 30
0.0
 11
134.2751909899
 21
155.4003431421
 31
0.0
  0
LINE
  5
19F
330
1F
100
AcDbEntity
  8
0
  6
Continuous
 62
     7
370
    25
100
AcDbLine
 10
118.2751902299
 20
138.4003422183
 30
0.0
 11
118.2751902299
 21
138.9003423002
 31
0.0
  0
LINE
  5
1A0
330
1F
100
AcDbEntity
  8
0
  6
Continuous
 62
     7
370
    25
100
AcDbLine
 10
118.905489325
 20
138.4003422183
 30
0.0
 11
118.2751902299
 21
138.4003422183
 31
0.0
  0
LINE
  5
1A1
330
1F
100
AcDbEntity
  8
0
  6
Continuous
 62
     7
370
    25
100
AcDbLine
 10
134.2751909899
 20
138.4003422183
 30
0.0
 11
134.2751909899
 21
138.9003423002
 31
0.0
  0
LINE
  5
1A2
330
1F
100
AcDbEntity
  8
0
  6
Continuous
 62
     7
370
    25
100
AcDbLine
 10
134.2751909899
 20
138.4003422183
 30
0.0
 11
133.6448918948
 21
138.4003422183
 31
0.0
  0
ARC
  5
1A3
330
1F
100
AcDbEntity
  8
0
  6
Continuous
 62
     7
370
    25
100
AcDbCircle
 10
135.2489550292
 20
154.9298549314
 30
0.0
 40
0.4746822493593837
100
AcDbArc
 50
183.5644831647
 51
273.1682924318
  0
ARC
  5
1A4
330
1F
100
AcDbEntity
  8
0
  6
Continuous
 62
     7
370
    25
100
AcDbCircle
 10
117.3014261906
 20
154.9298549314
 30
0.0
 40
0.4746822493593837
100
AcDbArc
 50
266.8317075682
 51
356.4355168353
  0
ARC
  5
1A5
330
1F
100
AcDbEntity
  8
0
  6
Continuous
 62
     7
370
    25
100
AcDbCircle
 10
117.3014261906
 20
138.870830429
 30
0.0
 40
0.4746822493593837
100
AcDbArc
 50
3.5644831647
 51
93.1682924318
  0
ARC
  5
1A6
330
1F
100
AcDbEntity
  8
0
  6
Continuous
 62
     7
370
    25
100
AcDbCircle
 10
135.2489550292
 20
138.870830429
 30
0.0
 40
0.4746822493593837
100
AcDbArc
 50
86.8317075682
 51
176.4355168353
  0
ARC
  5
1A7
330
1F
100
AcDbEntity
  8
0
  6
Continuous
 62
     7
370
    25
100
AcDbCircle
 10
134.2751906099
 20
154.9003426802
 30
0.0
 40
0.5
100
AcDbArc
 50
0.0
 51
90.0
  0
LINE
  5
1A8
330
1F
100
AcDbEntity
  8
0
  6
Continuous
 62
     7
370
    25
100
AcDbLine
 10
134.7751910718
 20
154.9003430602
 30
0.0
 11
134.2751909899
 21
154.9003430602
 31
0.0
  0
LINE
  5
1A9
330
1F
100
AcDbEntity
  8
0
  6
Continuous
 62
     7
370
    25
100
AcDbLine
 10
118.2751902299
 20
154.9003430602
 30
0.0
 11
117.7751901479
 21
154.9003430602
 31
0.0
  0
ARC
  5
1AA
330
1F
100
AcDbEntity
  8
0
  6
Continuous
 62
     7
370
    25
100
AcDbCircle
 10
118.2751906099
 20
154.9003426802
 30
0.0
 40
0.5000000000000142
100
AcDbArc
 50
90.0
 51
180.0
  0
LINE
  5
1AB
330
1F
100
AcDbEntity
  8
0
  6
Continuous
 62
     7
370
    25
100
AcDbLine
 10
134.7751910718
 20
154.2700439651
 30
0.0
 11
134.7751910718
 21
154.9003430602
 31
0.0
  0
LINE
  5
1AC
330
1F
100
AcDbEntity
  8
0
  6
Continuous
 62
     7
370
    25
100
AcDbLine
 10
117.7751901479
 20
154.2700439651
 30
0.0
 11
117.7751901479
 21
154.9003430602
 31
0.0
  0
LINE
  5
1AD
330
1F
100
AcDbEntity
  8
0
  6
Continuous
 62
     7
370
    25
100
AcDbLine
 10
134.7751910718
 20
138.9003423002
 30
0.0
 11
134.7751910718
 21
139.5306413953
 31
0.0
  0
LINE
  5
1AE
330
1F
100
AcDbEntity
  8
0
  6
Continuous
 62
     7
370
    25
100
AcDbLine
 10
134.2751909899
 20
138.9003423002
 30
0.0
 11
134.7751910718
 21
138.9003423002
 31
0.0
  0
LINE
  5
1AF
330
1F
100
AcDbEntity
  8
0
  6
Continuous
 62
     7
370
    25
100
AcDbLine
 10
117.7751901479
 20
138.9003423002
 30
0.0
 11
118.2751902299
 21
138.9003423002
 31
0.0
  0
LINE
  5
1B0
330
1F
100
AcDbEntity
  8
0
  6
Continuous
 62
     7
370
    25
100
AcDbLine
 10
117.7751901479
 20
138.9003423002
 30
0.0
 11
117.7751901479
 21
139.5306413953
 31
0.0
  0
ARC
  5
1B1
330
1F
100
AcDbEntity
  8
0
  6
Continuous
 62
     7
370
    25
100
AcDbCircle
 10
134.2751906099
 20
138.9003426802
 30
0.0
 40
0.5
100
AcDbArc
 50
270.0
 51
0.0
  0
ARC
  5
1B2
330
1F
100
AcDbEntity
  8
0
  6
Continuous
 62
     7
370
    25
100
AcDbCircle
 10
118.2751906099
 20
138.9003426802
 30
0.0
 40
0.5000000000000142
100
AcDbArc
 50
180.0
 51
270.0
  0
ARC
  5
1B3
330
1F
100
AcDbEntity
  8
0
  6
Continuous
 62
     7
370
    25
100
AcDbCircle
 10
117.4643715944
 20
155.4143621059
 30
0.0
 40
0.4600495252436775
100
AcDbArc
 50
265.3147112477
 51
327.1812658513
  0
ARC
  5
1B4
330
1F
100
AcDbEntity
  8
0
  6
Continuous
 62
     7
370
    25
100
AcDbCircle
 10
135.0860096253
 20
155.4143621059
 30
0.0
 40
0.4600495252436775
100
AcDbArc
 50
212.8187341487
 51
274.6852887523
  0
ARC
  5
1B5
330
1F
100
AcDbEntity
  8
0
  6
Continuous
 62
     7
370
    25
100
AcDbCircle
 10
135.0860096253
 20
138.3863232545
 30
0.0
 40
0.4600495252436775
100
AcDbArc
 50
85.3147112477
 51
147.1812658513
  0
ARC
  5
1B6
330
1F
100
AcDbEntity
  8
0
  6
Continuous
 62
     7
370
    25
100
AcDbCircle
 10
117.4643715944
 20
138.3863232545
 30
0.0
 40
0.4600495252436775
100
AcDbArc
 50
32.8187341487
 51
94.6852887523
  0
SPLINE
  5
1B7
330
1F
100
AcDbEntity
  8
0
  6
Continuous
 62
     7
370
    25
100
AcDbSpline
210
0.0
220
0.0
230
1.0
 70
     8
 71
     3
 72
    12
 73
     8
 74
     0
 42
0.000000001
 43
0.00000001
 40
0.0
 40
0.0
 40
0.0
 40
0.0
 40
0.2499999999999998
 40
0.2499999999999998
 40
0.4999999999999998
 40
0.4999999999999998
 40
1.0
 40
1.0
 40
1.0
 40
1.0
 10
117.8509922854381
 20
155.1650232075015
 30
0.0
 10
117.873259127592
 20
155.2007098416053
 30
0.0
 10
117.8802971602465
 20
155.2342687179047
 30
0.0
 10
117.8811722817309
 20
155.2929124629599
 30
0.0
 10
117.8745082877818
 20
155.3181393789217
 30
0.0
 10
117.8438559383636
 20
155.3791731924221
 30
0.0
 10
117.8092472552392
 20
155.4003426801935
 30
0.0
 10
117.7751906098855
 20
155.4003426801935
 30
0.0
  0
SPLINE
  5
1B8
330
1F
100
AcDbEntity
  8
0
  6
Continuous
 62
     7
370
    25
100
AcDbSpline
210
0.0
220
0.0
230
1.0
 70
    24
 71
     3
 72
    16
 73
    12
 74
     0
 42
0.000000001
 43
0.00000001
 40
0.0
 40
0.0
 40
0.0
 40
0.0
 40
0.2500000000000002
 40
0.2500000000000002
 40
0.5000000000000004
 40
0.5000000000000004
 40
0.7500000000000004
 40
0.7500000000000004
 40
0.8750000000000002
 40
0.8750000000000002
 40
1.0
 40
1.0
 40
1.0
 40
1.0
 10
118.2751906098855
 20
155.4003426801935
 30
0.0
 10
118.2751906098855
 20
155.4003426801935
 30
0.0
 10
118.2552588241983
 20
155.4003426801935
 30
0.0
 10
118.1946522775948
 20
155.4003426801935
 30
0.0
 10
118.1535417701496
 20
155.4003426801935
 30
0.0
 10
118.0591653137504
 20
155.4003426801935
 30
0.0
 10
118.0057999518941
 20
155.4003426801935
 30
0.0
 10
117.9214927919595
 20
155.4003426801935
 30
0.0
 10
117.8926679151176
 20
155.4003426801935
 30
0.0
 10
117.8343088365521
 20
155.4003426801935
 30
0.0
 10
117.805057715334
 20
155.4003426801935
 30
0.0
 10
117.7751906098855
 20
155.4003426801935
 30
0.0
  0
SPLINE
  5
1B9
330
1F
100
AcDbEntity
  8
0
  6
Continuous
 62
     7
370
    25
100
AcDbSpline
210
0.0
220
0.0
230
1.0
 70
     8
 71
     3
 72
    12
 73
     8
 74
     0
 42
0.000000001
 43
0.00000001
 40
0.0
 40
0.0
 40
0.0
 40
0.0
 40
0.2500000000000001
 40
0.2500000000000001
 40
0.5
 40
0.5
 40
1.0
 40
1.0
 40
1.0
 40
1.0
 10
134.6993889343329
 20
155.1650232075015
 30
0.0
 10
134.6771220921806
 20
155.2007098416026
 30
0.0
 10
134.6700840595257
 20
155.2342687178996
 30
0.0
 10
134.6692089380391
 20
155.2929124629517
 30
0.0
 10
134.6758729319864
 20
155.3181393789125
 30
0.0
 10
134.706525281399
 20
155.3791731924128
 30
0.0
 10
134.7411339642493
 20
155.4003426801935
 30
0.0
 10
134.7751906098855
 20
155.4003426801935
 30
0.0
  0
SPLINE
  5
1BA
330
1F
100
AcDbEntity
  8
0
  6
Continuous
 62
     7
370
    25
100
AcDbSpline
210
0.0
220
0.0
230
1.0
 70
    24
 71
     3
 72
    16
 73
    12
 74
     0
 42
0.000000001
 43
0.00000001
 40
0.0
 40
0.0
 40
0.0
 40
0.0
 40
0.2500000000000002
 40
0.2500000000000002
 40
0.5000000000000004
 40
0.5000000000000004
 40
0.7500000000000004
 40
0.7500000000000004
 40
0.8750000000000002
 40
0.8750000000000002
 40
1.0
 40
1.0
 40
1.0
 40
1.0
 10
134.2751906098855
 20
155.4003426801935
 30
0.0
 10
134.2751906098855
 20
155.4003426801935
 30
0.0
 10
134.2951223955726
 20
155.4003426801935
 30
0.0
 10
134.3557289421762
 20
155.4003426801935
 30
0.0
 10
134.3968394496214
 20
155.4003426801935
 30
0.0
 10
134.4912159060206
 20
155.4003426801935
 30
0.0
 10
134.5445812678769
 20
155.4003426801935
 30
0.0
 10
134.6288884278115
 20
155.4003426801935
 30
0.0
 10
134.6577133046533
 20
155.4003426801935
 30
0.0
 10
134.7160723832188
 20
155.4003426801935
 30
0.0
 10
134.7453235044369
 20
155.4003426801935
 30
0.0
 10
134.7751906098855
 20
155.4003426801935
 30
0.0
  0
SPLINE
  5
1BB
330
1F
100
AcDbEntity
  8
0
  6
Continuous
 62
     7
370
    25
100
AcDbSpline
210
0.0
220
0.0
230
1.0
 70
     8
 71
     3
 72
    12
 73
     8
 74
     0
 42
0.000000001
 43
0.00000001
 40
0.0
 40
0.0
 40
0.0
 40
0.0
 40
0.25
 40
0.25
 40
0.5
 40
0.5
 40
1.0
 40
1.0
 40
1.0
 40
1.0
 10
134.6993889343329
 20
138.6356621528855
 30
0.0
 10
134.6771220921806
 20
138.5999755187844
 30
0.0
 10
134.6700840595257
 20
138.5664166424874
 30
0.0
 10
134.6692089380391
 20
138.5077728974354
 30
0.0
 10
134.6758729319864
 20
138.4825459814745
 30
0.0
 10
134.706525281399
 20
138.4215121679743
 30
0.0
 10
134.7411339642491
 20
138.4003426801935
 30
0.0
 10
134.7751906098855
 20
138.4003426801935
 30
0.0
  0
SPLINE
  5
1BC
330
1F
100
AcDbEntity
  8
0
  6
Continuous
 62
     7
370
    25
100
AcDbSpline
210
0.0
220
0.0
230
1.0
 70
    24
 71
     3
 72
    16
 73
    12
 74
     0
 42
0.000000001
 43
0.00000001
 40
0.0
 40
0.0
 40
0.0
 40
0.0
 40
0.2500000000000002
 40
0.2500000000000002
 40
0.5000000000000002
 40
0.5000000000000002
 40
0.7500000000000002
 40
0.7500000000000002
 40
0.8750000000000001
 40
0.8750000000000001
 40
1.0
 40
1.0
 40
1.0
 40
1.0
 10
134.2751906098855
 20
138.4003426801935
 30
0.0
 10
134.2751906098855
 20
138.4003426801935
 30
0.0
 10
134.2951223955726
 20
138.4003426801935
 30
0.0
 10
134.3557289421762
 20
138.4003426801935
 30
0.0
 10
134.3968394496214
 20
138.4003426801935
 30
0.0
 10
134.4912159060206
 20
138.4003426801935
 30
0.0
 10
134.5445812678769
 20
138.4003426801935
 30
0.0
 10
134.6288884278115
 20
138.4003426801935
 30
0.0
 10
134.6577133046534
 20
138.4003426801935
 30
0.0
 10
134.7160723832188
 20
138.4003426801935
 30
0.0
 10
134.7453235044369
 20
138.4003426801935
 30
0.0
 10
134.7751906098855
 20
138.4003426801935
 30
0.0
  0
SPLINE
  5
1BD
330
1F
100
AcDbEntity
  8
0
  6
Continuous
 62
     7
370
    25
100
AcDbSpline
210
0.0
220
0.0
230
1.0
 70
     8
 71
     3
 72
    12
 73
     8
 74
     0
 42
0.000000001
 43
0.00000001
 40
0.0
 40
0.0
 40
0.0
 40
0.0
 40
0.2500000000000002
 40
0.2500000000000002
 40
0.5000000000000001
 40
0.5000000000000001
 40
1.0
 40
1.0
 40
1.0
 40
1.0
 10
117.8509922854381
 20
138.6356621528855
 30
0.0
 10
117.873259127592
 20
138.5999755187817
 30
0.0
 10
117.8802971602465
 20
138.5664166424824
 30
0.0
 10
117.8811722817309
 20
138.5077728974271
 30
0.0
 10
117.8745082877818
 20
138.4825459814654
 30
0.0
 10
117.8438559383636
 20
138.4215121679649
 30
0.0
 10
117.8092472552391
 20
138.4003426801935
 30
0.0
 10
117.7751906098855
 20
138.4003426801935
 30
0.0
  0
SPLINE
  5
1BE
330
1F
100
AcDbEntity
  8
0
  6
Continuous
 62
     7
370
    25
100
AcDbSpline
210
0.0
220
0.0
230
1.0
 70
    24
 71
     3
 72
    16
 73
    12
 74
     0
 42
0.000000001
 43
0.00000001
 40
0.0
 40
0.0
 40
0.0
 40
0.0
 40
0.2499999999999999
 40
0.2499999999999999
 40
0.5
 40
0.5
 40
0.7500000000000001
 40
0.7500000000000001
 40
0.875
 40
0.875
 40
1.0
 40
1.0
 40
1.0
 40
1.0
 10
118.2751906098855
 20
138.4003426801935
 30
0.0
 10
118.2751906098855
 20
138.4003426801935
 30
0.0
 10
118.2552588241983
 20
138.4003426801935
 30
0.0
 10
118.1946522775948
 20
138.4003426801935
 30
0.0
 10
118.1535417701496
 20
138.4003426801935
 30
0.0
 10
118.0591653137504
 20
138.4003426801935
 30
0.0
 10
118.0057999518941
 20
138.4003426801935
 30
0.0
 10
117.9214927919595
 20
138.4003426801935
 30
0.0
 10
117.8926679151176
 20
138.4003426801935
 30
0.0
 10
117.8343088365521
 20
138.4003426801935
 30
0.0
 10
117.8050577153341
 20
138.4003426801935
 30
0.0
 10
117.7751906098855
 20
138.4003426801935
 30
0.0
  0
LINE
  5
1BF
330
1F
100
AcDbEntity
  8
0
  6
Continuous
 62
     7
370
    25
100
AcDbLine
 10
135.48344792
 20
155.7003426325
 30
0.0
 11
136.0669326888
 21
155.7003426325
 31
0.0
  0
LINE
  5
1C0
330
1F
100
AcDbEntity
  8
0
  6
Continuous
 62
     7
370
    25
100
AcDbLine
 10
135.0251906471
 20
155.4003431421
 30
0.0
 11
136.525190893
 21
155.4003431421
 31
0.0
  0
LINE
  5
1C1
330
1F
100
AcDbEntity
  8
0
  6
Continuous
 62
     8
370
    25
100
AcDbLine
 10
142.2751913698
 20
158.1503431272
 30
0.0
 11
142.2751913698
 21
135.6503422332
 31
0.0
  0
LINE
  5
1C2
330
1F
100
AcDbEntity
  8
0
  6
Continuous
 62
     8
370
    25
100
AcDbLine
 10
110.2751898499
 20
135.6503422332
 30
0.0
 11
110.2751898499
 21
158.1503431272
 31
0.0
  0
LINE
  5
1C3
330
1F
100
AcDbEntity
  8
0
  6
Continuous
 62
     8
370
    25
100
AcDbLine
 10
112.2751901778
 20
155.4003431421
 30
0.0
 11
112.2751901778
 21
138.4003422183
 31
0.0
  0
LINE
  5
1C4
330
1F
100
AcDbEntity
  8
0
  6
Continuous
 62
     8
370
    25
100
AcDbLine
 10
140.275191042
 20
138.4003422183
 30
0.0
 11
140.275191042
 21
155.4003431421
 31
0.0
  0
LINE
  5
1C5
330
1F
100
AcDbEntity
  8
0
  6
Continuous
 62
     8
370
    25
100
AcDbLine
 10
135.2751902225
 20
140.1503425051
 30
0.0
 11
135.2751902225
 21
139.3447871279
 31
0.0
  0
LINE
  5
1C6
330
1F
100
AcDbEntity
  8
0
  6
Continuous
 62
     8
370
    25
100
AcDbLine
 10
135.2751902225
 20
154.4558982324
 30
0.0
 11
135.2751902225
 21
153.6503428553
 31
0.0
  0
LINE
  5
1C7
330
1F
100
AcDbEntity
  8
0
  6
Continuous
 62
     8
370
    25
100
AcDbLine
 10
117.2751909973
 20
153.6503428553
 30
0.0
 11
117.2751909973
 21
154.4558982324
 31
0.0
  0
LINE
  5
1C8
330
1F
100
AcDbEntity
  8
0
  6
Continuous
 62
     8
370
    25
100
AcDbLine
 10
117.2751909973
 20
139.3447871279
 30
0.0
 11
117.2751909973
 21
140.1503425051
 31
0.0
  0
LINE
  5
1C9
330
1F
100
AcDbEntity
  8
0
  6
Continuous
 62
     8
370
    25
100
AcDbLine
 10
134.2751909899
 20
154.9003430602
 30
0.0
 11
134.1848368676
 21
154.9003430602
 31
0.0
  0
LINE
  5
1CA
330
1F
100
AcDbEntity
  8
0
  6
Continuous
 62
     8
370
    25
100
AcDbLine
 10
134.2751909899
 20
154.809988938
 30
0.0
 11
134.2751909899
 21
154.9003430602
 31
0.0
  0
LINE
  5
1CB
330
1F
100
AcDbEntity
  8
0
  6
Continuous
 62
     8
370
    25
100
AcDbLine
 10
118.2751902299
 20
138.9003423002
 30
0.0
 11
118.3655443521
 21
138.9003423002
 31
0.0
  0
LINE
  5
1CC
330
1F
100
AcDbEntity
  8
0
  6
Continuous
 62
     8
370
    25
100
AcDbLine
 10
118.2751902299
 20
138.9003423002
 30
0.0
 11
118.2751902299
 21
138.9906964224
 31
0.0
  0
LINE
  5
1CD
330
1F
100
AcDbEntity
  8
0
  6
Continuous
 62
     8
370
    25
100
AcDbLine
 10
118.3655443521
 20
154.9003430602
 30
0.0
 11
118.2751902299
 21
154.9003430602
 31
0.0
  0
LINE
  5
1CE
330
1F
100
AcDbEntity
  8
0
  6
Continuous
 62
     8
370
    25
100
AcDbLine
 10
118.2751902299
 20
154.809988938
 30
0.0
 11
118.2751902299
 21
154.9003430602
 31
0.0
  0
LINE
  5
1CF
330
1F
100
AcDbEntity
  8
0
  6
Continuous
 62
     8
370
    25
100
AcDbLine
 10
134.1848368676
 20
138.9003423002
 30
0.0
 11
134.2751909899
 21
138.9003423002
 31
0.0
  0
LINE
  5
1D0
330
1F
100
AcDbEntity
  8
0
  6
Continuous
 62
     8
370
    25
100
AcDbLine
 10
134.2751909899
 20
138.9003423002
 30
0.0
 11
134.2751909899
 21
138.9906964224
 31
0.0
  0
INSERT
  5
1DC
330
1F
100
AcDbEntity
  8
0
  6
Continuous
 62
     7
370
    18
100
AcDbBlockReference
  2
SW_CENTERMARKSYMBOL_1
 10
126.2751906099
 20
146.9003426802
 30
0.0
  0
ARC
  5
1DD
330
1F
100
AcDbEntity
  8
0
  6
Continuous
 62
     7
370
    18
100
AcDbCircle
 10
126.2751906099
 20
146.9003426802
 30
0.0
 40
6.562891500000006
100
AcDbArc
 50
75.0
 51
345.0
  0
ENDSEC
  0
SECTION
  2
OBJECTS
  0
DICTIONARY
  5
C
330
0
100
AcDbDictionary
281
     1
  3
ACAD_GROUP
350
D
  3
ACAD_LAYOUT
350
1A
  3
ACAD_MLINESTYLE
350
17
  3
ACAD_PLOTSETTINGS
350
19
  3
ACAD_PLOTSTYLENAME
350
E
  3
ACAD_SCALELIST
350
47
  0
DICTIONARY
  5
D
102
{ACAD_REACTORS
330
C
102
}
330
C
100
AcDbDictionary
281
     1
  0
DICTIONARY
  5
1A
102
{ACAD_REACTORS
330
C
102
}
330
C
100
AcDbDictionary
281
     1
  3
Layout1
350
1E
  3
Layout2
350
26
  3
Model
350
22
  0
DICTIONARY
  5
17
102
{ACAD_REACTORS
330
C
102
}
330
C
100
AcDbDictionary
281
     1
  3
Standard
350
18
  0
DICTIONARY
  5
19
102
{ACAD_REACTORS
330
C
102
}
330
C
100
AcDbDictionary
281
     1
  0
ACDBDICTIONARYWDFLT
  5
E
102
{ACAD_REACTORS
330
C
102
}
330
C
100
AcDbDictionary
281
     1
  3
Normal
350
F
100
AcDbDictionaryWithDefault
340
F
  0
DICTIONARY
  5
47
102
{ACAD_REACTORS
330
C
102
}
330
C
100
AcDbDictionary
281
     1
  3
A0
350
48
  3
A1
350
49
  3
A2
350
4A
  3
A3
350
4B
  3
A4
350
4C
  3
A5
350
4D
  3
A6
350
4E
  3
A7
350
4F
  3
A8
350
50
  3
A9
350
51
  3
B0
350
52
  3
B1
350
53
  3
B2
350
54
  3
B3
350
55
  3
B4
350
56
  3
B5
350
57
  3
B6
350
58
  3
B7
350
59
  3
B8
350
5A
  3
B9
350
5B
  3
C0
350
5C
  3
C1
350
5D
  3
C2
350
5E
  3
C3
350
5F
  3
C4
350
60
  3
C5
350
61
  3
C6
350
62
  3
C7
350
63
  3
C8
350
64
  3
C9
350
65
  3
D0
350
66
  3
D1
350
67
  3
D2
350
68
  0
LAYOUT
  5
1E
102
{ACAD_REACTORS
330
1A
102
}
330
1A
100
AcDbPlotSettings
  1

  2
none_device
  4

  6

 40
0.0
 41
0.0
 42
0.0
 43
0.0
 44
0.0
 45
0.0
 46
0.0
 47
0.0
 48
0.0
 49
0.0
140
0.0
141
0.0
142
1.0
143
1.0
 70
   688
 72
     1
 73
     0
 74
     5
  7

 75
    16
147
1.0
148
0.0
149
0.0
100
AcDbLayout
  1
Layout1
 70
     1
 71
     1
 10
0.0
 20
0.0
 11
420.0
 21
297.0
 12
0.0
 22
0.0
 32
0.0
 14
1.0000000000E+20
 24
1.0000000000E+20
 34
1.0000000000E+20
 15
-1.0000000000E+20
 25
-1.0000000000E+20
 35
-1.0000000000E+20
146
0.0
 13
0.0
 23
0.0
 33
0.0
 16
1.0
 26
0.0
 36
0.0
 17
0.0
 27
1.0
 37
0.0
 76
     0
330
1B
  0
LAYOUT
  5
26
102
{ACAD_REACTORS
330
1A
102
}
330
1A
100
AcDbPlotSettings
  1

  2
none_device
  4

  6

 40
0.0
 41
0.0
 42
0.0
 43
0.0
 44
0.0
 45
0.0
 46
0.0
 47
0.0
 48
0.0
 49
0.0
140
0.0
141
0.0
142
1.0
143
1.0
 70
   688
 72
     1
 73
     0
 74
     5
  7

 75
    16
147
1.0
148
0.0
149
0.0
100
AcDbLayout
  1
Layout2
 70
     1
 71
     2
 10
0.0
 20
0.0
 11
0.0
 21
0.0
 12
0.0
 22
0.0
 32
0.0
 14
0.0
 24
0.0
 34
0.0
 15
0.0
 25
0.0
 35
0.0
146
0.0
 13
0.0
 23
0.0
 33
0.0
 16
1.0
 26
0.0
 36
0.0
 17
0.0
 27
1.0
 37
0.0
 76
     0
330
23
  0
LAYOUT
  5
22
102
{ACAD_REACTORS
330
1A
102
}
330
1A
100
AcDbPlotSettings
  1

  2
none_device
  4
Letter_(8.50_x_11.00_Inches)
  6

 40
6.35
 41
6.35
 42
6.35000508
 43
6.35000508
 44
215.9
 45
279.4
 46
0.0
 47
0.0
 48
0.0
 49
0.0
140
0.0
141
0.0
142
1.0
143
1.0
 70
  1712
 72
     1
 73
     0
 74
     0
  7

 75
     0
147
1.0
148
0.0
149
0.0
100
AcDbLayout
  1
Model
 70
     1
 71
     0
 10
0.0
 20
0.0
 11
431.8
 21
279.4
 12
0.0
 22
0.0
 32
0.0
 14
0.0
 24
0.0
 34
0.0
 15
431.8
 25
279.4
 35
0.0
146
0.0
 13
0.0
 23
0.0
 33
0.0
 16
1.0
 26
0.0
 36
0.0
 17
0.0
 27
1.0
 37
0.0
 76
     0
330
1F
331
29
  0
MLINESTYLE
  5
18
102
{ACAD_REACTORS
330
17
102
}
330
17
100
AcDbMlineStyle
  2
Standard
 70
     0
  3

 62
   256
 51
90.0
 52
90.0
 71
     2
 49
0.5
 62
   256
  6
BYLAYER
 49
-0.5
 62
   256
  6
BYLAYER
  0
ACDBPLACEHOLDER
  5
F
102
{ACAD_REACTORS
330
E
102
}
330
E
  0
SCALE
  5
48
102
{ACAD_REACTORS
330
47
102
}
330
47
100
AcDbScale
 70
     0
300
1:1
140
1.0
141
1.0
290
     1
  0
SCALE
  5
49
102
{ACAD_REACTORS
330
47
102
}
330
47
100
AcDbScale
 70
     0
300
1:2
140
1.0
141
2.0
290
     0
  0
SCALE
  5
4A
102
{ACAD_REACTORS
330
47
102
}
330
47
100
AcDbScale
 70
     0
300
1:4
140
1.0
141
4.0
290
     0
  0
SCALE
  5
4B
102
{ACAD_REACTORS
330
47
102
}
330
47
100
AcDbScale
 70
     0
300
1:5
140
1.0
141
5.0
290
     0
  0
SCALE
  5
4C
102
{ACAD_REACTORS
330
47
102
}
330
47
100
AcDbScale
 70
     0
300
1:8
140
1.0
141
8.0
290
     0
  0
SCALE
  5
4D
102
{ACAD_REACTORS
330
47
102
}
330
47
100
AcDbScale
 70
     0
300
1:10
140
1.0
141
10.0
290
     0
  0
SCALE
  5
4E
102
{ACAD_REACTORS
330
47
102
}
330
47
100
AcDbScale
 70
     0
300
1:16
140
1.0
141
16.0
290
     0
  0
SCALE
  5
4F
102
{ACAD_REACTORS
330
47
102
}
330
47
100
AcDbScale
 70
     0
300
1:20
140
1.0
141
20.0
290
     0
  0
SCALE
  5
50
102
{ACAD_REACTORS
330
47
102
}
330
47
100
AcDbScale
 70
     0
300
1:30
140
1.0
141
30.0
290
     0
  0
SCALE
  5
51
102
{ACAD_REACTORS
330
47
102
}
330
47
100
AcDbScale
 70
     0
300
1:40
140
1.0
141
40.0
290
     0
  0
SCALE
  5
52
102
{ACAD_REACTORS
330
47
102
}
330
47
100
AcDbScale
 70
     0
300
1:50
140
1.0
141
50.0
290
     0
  0
SCALE
  5
53
102
{ACAD_REACTORS
330
47
102
}
330
47
100
AcDbScale
 70
     0
300
1:100
140
1.0
141
100.0
290
     0
  0
SCALE
  5
54
102
{ACAD_REACTORS
330
47
102
}
330
47
100
AcDbScale
 70
     0
300
2:1
140
2.0
141
1.0
290
     0
  0
SCALE
  5
55
102
{ACAD_REACTORS
330
47
102
}
330
47
100
AcDbScale
 70
     0
300
4:1
140
4.0
141
1.0
290
     0
  0
SCALE
  5
56
102
{ACAD_REACTORS
330
47
102
}
330
47
100
AcDbScale
 70
     0
300
8:1
140
8.0
141
1.0
290
     0
  0
SCALE
  5
57
102
{ACAD_REACTORS
330
47
102
}
330
47
100
AcDbScale
 70
     0
300
10:1
140
10.0
141
1.0
290
     0
  0
SCALE
  5
58
102
{ACAD_REACTORS
330
47
102
}
330
47
100
AcDbScale
 70
     0
300
100:1
140
100.0
141
1.0
290
     0
  0
SCALE
  5
59
102
{ACAD_REACTORS
330
47
102
}
330
47
100
AcDbScale
 70
     0
300
1/128" = 1'-0"
140
0.0078125
141
12.0
290
     0
  0
SCALE
  5
5A
102
{ACAD_REACTORS
330
47
102
}
330
47
100
AcDbScale
 70
     0
300
1/64" = 1'-0"
140
0.015625
141
12.0
290
     0
  0
SCALE
  5
5B
102
{ACAD_REACTORS
330
47
102
}
330
47
100
AcDbScale
 70
     0
300
1/32" = 1'-0"
140
0.03125
141
12.0
290
     0
  0
SCALE
  5
5C
102
{ACAD_REACTORS
330
47
102
}
330
47
100
AcDbScale
 70
     0
300
1/16" = 1'-0"
140
0.0625
141
12.0
290
     0
  0
SCALE
  5
5D
102
{ACAD_REACTORS
330
47
102
}
330
47
100
AcDbScale
 70
     0
300
3/32" = 1'-0"
140
0.09375
141
12.0
290
     0
  0
SCALE
  5
5E
102
{ACAD_REACTORS
330
47
102
}
330
47
100
AcDbScale
 70
     0
300
1/8" = 1'-0"
140
0.125
141
12.0
290
     0
  0
SCALE
  5
5F
102
{ACAD_REACTORS
330
47
102
}
330
47
100
AcDbScale
 70
     0
300
3/16" = 1'-0"
140
0.1875
141
12.0
290
     0
  0
SCALE
  5
60
102
{ACAD_REACTORS
330
47
102
}
330
47
100
AcDbScale
 70
     0
300
1/4" = 1'-0"
140
0.25
141
12.0
290
     0
  0
SCALE
  5
61
102
{ACAD_REACTORS
330
47
102
}
330
47
100
AcDbScale
 70
     0
300
3/8" = 1'-0"
140
0.375
141
12.0
290
     0
  0
SCALE
  5
62
102
{ACAD_REACTORS
330
47
102
}
330
47
100
AcDbScale
 70
     0
300
1/2" = 1'-0"
140
0.5
141
12.0
290
     0
  0
SCALE
  5
63
102
{ACAD_REACTORS
330
47
102
}
330
47
100
AcDbScale
 70
     0
300
3/4" = 1'-0"
140
0.75
141
12.0
290
     0
  0
SCALE
  5
64
102
{ACAD_REACTORS
330
47
102
}
330
47
100
AcDbScale
 70
     0
300
1" = 1'-0"
140
1.0
141
12.0
290
     0
  0
SCALE
  5
65
102
{ACAD_REACTORS
330
47
102
}
330
47
100
AcDbScale
 70
     0
300
1-1/2" = 1'-0"
140
1.5
141
12.0
290
     0
  0
SCALE
  5
66
102
{ACAD_REACTORS
330
47
102
}
330
47
100
AcDbScale
 70
     0
300
3" = 1'-0"
140
3.0
141
12.0
290
     0
  0
SCALE
  5
67
102
{ACAD_REACTORS
330
47
102
}
330
47
100
AcDbScale
 70
     0
300
6" = 1'-0"
140
6.0
141
12.0
290
     0
  0
SCALE
  5
68
102
{ACAD_REACTORS
330
47
102
}
330
47
100
AcDbScale
 70
     0
300
1'-0" = 1'-0"
140
12.0
141
12.0
290
     0
  0
ENDSEC
  0
EOF
