  0
SECTION
  2
HEADER
  9
$ACADVER
  1
AC1015
  9
$ACADMAINTVER
 70
     6
  9
$DWGCODEPAGE
  3
DOS932
  9
$INSBASE
 10
0.0
 20
0.0
 30
0.0
  9
$EXTMIN
 10
0.0
 20
0.0
 30
0.0
  9
$EXTMAX
 10
431.8
 20
279.4
 30
0.0
  9
$LIMMIN
 10
0.0
 20
0.0
  9
$LIMMAX
 10
431.8
 20
279.4
  9
$ORTHOMODE
 70
     0
  9
$REGENMODE
 70
     1
  9
$FILLMODE
 70
     1
  9
$QTEXTMODE
 70
     0
  9
$MIRRTEXT
 70
     1
  9
$LTSCALE
 40
1.0
  9
$ATTMODE
 70
     1
  9
$TEXTSIZE
 40
3.5
  9
$TRACEWID
 40
1.0
  9
$TEXTSTYLE
  7
Standard
  9
$CLAYER
  8
0
  9
$CELTYPE
  6
ByLayer
  9
$CECOLOR
 62
   256
  9
$CELTSCALE
 40
1.0
  9
$DISPSILH
 70
     0
  9
$DIMSCALE
 40
1.0
  9
$DIMASZ
 40
3.302
  9
$DIMEXO
 40
1.0
  9
$DIMDLI
 40
3.75
  9
$DIMRND
 40
0.0
  9
$DIMDLE
 40
0.0
  9
$DIMEXE
 40
1.0
  9
$DIMTP
 40
0.0
  9
$DIMTM
 40
0.0
  9
$DIMTXT
 40
3.5
  9
$DIMCEN
 40
2.5
  9
$DIMTSZ
 40
0.0
  9
$DIMTOL
 70
     0
  9
$DIMLIM
 70
     0
  9
$DIMTIH
 70
     1
  9
$DIMTOH
 70
     1
  9
$DIMSE1
 70
     0
  9
$DIMSE2
 70
     0
  9
$DIMTAD
 70
     1
  9
$DIMZIN
 70
     1
  9
$DIMBLK
  1

  9
$DIMASO
 70
     1
  9
$DIMSHO
 70
     1
  9
$DIMPOST
  1

  9
$DIMAPOST
  1

  9
$DIMALT
 70
     0
  9
$DIMALTD
 70
     3
  9
$DIMALTF
 40
0.0393700787
  9
$DIMLFAC
 40
1.0
  9
$DIMTOFL
 70
     1
  9
$DIMTVP
 40
0.0
  9
$DIMTIX
 70
     0
  9
$DIMSOXD
 70
     0
  9
$DIMSAH
 70
     0
  9
$DIMBLK1
  1

  9
$DIMBLK2
  1

  9
$DIMSTYLE
  2
ISO-25
  9
$DIMCLRD
 70
     0
  9
$DIMCLRE
 70
     0
  9
$DIMCLRT
 70
     0
  9
$DIMTFAC
 40
1.0
  9
$DIMGAP
 40
1.524
  9
$DIMJUST
 70
     0
  9
$DIMSD1
 70
     0
  9
$DIMSD2
 70
     0
  9
$DIMTOLJ
 70
     0
  9
$DIMTZIN
 70
     1
  9
$DIMALTZ
 70
     0
  9
$DIMALTTZ
 70
     0
  9
$DIMUPT
 70
     0
  9
$DIMDEC
 70
     2
  9
$DIMTDEC
 70
     2
  9
$DIMALTU
 70
     2
  9
$DIMALTTD
 70
     3
  9
$DIMTXSTY
  7
Standard
  9
$DIMAUNIT
 70
     0
  9
$DIMADEC
 70
     2
  9
$DIMALTRND
 40
0.0
  9
$DIMAZIN
 70
     0
  9
$DIMDSEP
 70
    44
  9
$DIMATFIT
 70
     3
  9
$DIMFRAC
 70
     0
  9
$DIMLDRBLK
  1

  9
$DIMLUNIT
 70
     2
  9
$DIMLWD
 70
    -2
  9
$DIMLWE
 70
    -2
  9
$DIMTMOVE
 70
     0
  9
$LUNITS
 70
     2
  9
$LUPREC
 70
     2
  9
$SKETCHINC
 40
1.0
  9
$FILLETRAD
 40
10.0
  9
$AUNITS
 70
     0
  9
$AUPREC
 70
     2
  9
$MENU
  1
.
  9
$ELEVATION
 40
0.0
  9
$PELEVATION
 40
0.0
  9
$THICKNESS
 40
0.0
  9
$LIMCHECK
 70
     0
  9
$CHAMFERA
 40
0.0
  9
$CHAMFERB
 40
0.0
  9
$CHAMFERC
 40
0.0
  9
$CHAMFERD
 40
0.0
  9
$SKPOLY
 70
     0
  9
$TDCREATE
 40
2459229.381507188
  9
$TDUCREATE
 40
2459229.006507188
  9
$TDUPDATE
 40
2459229.381508102
  9
$TDUUPDATE
 40
2459229.006508102
  9
$TDINDWG
 40
0.0000000116
  9
$TDUSRTIMER
 40
0.0000000116
  9
$USRTIMER
 70
     1
  9
$ANGBASE
 50
0.0
  9
$ANGDIR
 70
     0
  9
$PDMODE
 70
     0
  9
$PDSIZE
 40
-1.0
  9
$PLINEWID
 40
0.0
  9
$SPLFRAME
 70
     0
  9
$SPLINETYPE
 70
     6
  9
$SPLINESEGS
 70
     8
  9
$HANDSEED
  5
21E
  9
$SURFTAB1
 70
     6
  9
$SURFTAB2
 70
     6
  9
$SURFTYPE
 70
     6
  9
$SURFU
 70
     6
  9
$SURFV
 70
     6
  9
$UCSBASE
  2

  9
$UCSNAME
  2

  9
$UCSORG
 10
0.0
 20
0.0
 30
0.0
  9
$UCSXDIR
 10
1.0
 20
0.0
 30
0.0
  9
$UCSYDIR
 10
0.0
 20
1.0
 30
0.0
  9
$UCSORTHOREF
  2

  9
$UCSORTHOVIEW
 70
     0
  9
$UCSORGTOP
 10
0.0
 20
0.0
 30
0.0
  9
$UCSORGBOTTOM
 10
0.0
 20
0.0
 30
0.0
  9
$UCSORGLEFT
 10
0.0
 20
0.0
 30
0.0
  9
$UCSORGRIGHT
 10
0.0
 20
0.0
 30
0.0
  9
$UCSORGFRONT
 10
0.0
 20
0.0
 30
0.0
  9
$UCSORGBACK
 10
0.0
 20
0.0
 30
0.0
  9
$PUCSBASE
  2

  9
$PUCSNAME
  2

  9
$PUCSORG
 10
0.0
 20
0.0
 30
0.0
  9
$PUCSXDIR
 10
1.0
 20
0.0
 30
0.0
  9
$PUCSYDIR
 10
0.0
 20
1.0
 30
0.0
  9
$PUCSORTHOREF
  2

  9
$PUCSORTHOVIEW
 70
     0
  9
$PUCSORGTOP
 10
0.0
 20
0.0
 30
0.0
  9
$PUCSORGBOTTOM
 10
0.0
 20
0.0
 30
0.0
  9
$PUCSORGLEFT
 10
0.0
 20
0.0
 30
0.0
  9
$PUCSORGRIGHT
 10
0.0
 20
0.0
 30
0.0
  9
$PUCSORGFRONT
 10
0.0
 20
0.0
 30
0.0
  9
$PUCSORGBACK
 10
0.0
 20
0.0
 30
0.0
  9
$USERI1
 70
     0
  9
$USERI2
 70
     0
  9
$USERI3
 70
     0
  9
$USERI4
 70
     0
  9
$USERI5
 70
     0
  9
$USERR1
 40
0.0
  9
$USERR2
 40
0.0
  9
$USERR3
 40
0.0
  9
$USERR4
 40
0.0
  9
$USERR5
 40
0.0
  9
$WORLDVIEW
 70
     1
  9
$SHADEDGE
 70
     3
  9
$SHADEDIF
 70
    70
  9
$TILEMODE
 70
     1
  9
$MAXACTVP
 70
    64
  9
$PINSBASE
 10
0.0
 20
0.0
 30
0.0
  9
$PLIMCHECK
 70
     0
  9
$PEXTMIN
 10
1.0000000000E+20
 20
1.0000000000E+20
 30
1.0000000000E+20
  9
$PEXTMAX
 10
-1.0000000000E+20
 20
-1.0000000000E+20
 30
-1.0000000000E+20
  9
$PLIMMIN
 10
0.0
 20
0.0
  9
$PLIMMAX
 10
420.0
 20
297.0
  9
$UNITMODE
 70
     0
  9
$VISRETAIN
 70
     1
  9
$PLINEGEN
 70
     0
  9
$PSLTSCALE
 70
     1
  9
$TREEDEPTH
 70
  3020
  9
$CMLSTYLE
  2
Standard
  9
$CMLJUST
 70
     0
  9
$CMLSCALE
 40
20.0
  9
$PROXYGRAPHICS
 70
     1
  9
$MEASUREMENT
 70
     1
  9
$CELWEIGHT
370
    -1
  9
$ENDCAPS
280
     0
  9
$JOINSTYLE
280
     0
  9
$LWDISPLAY
290
     1
  9
$INSUNITS
 70
     4
  9
$HYPERLINKBASE
  1

  9
$STYLESHEET
  1

  9
$XEDIT
290
     1
  9
$CEPSNTYPE
380
     0
  9
$PSTYLEMODE
290
     1
  9
$FINGERPRINTGUID
  2
{B79199C6-87CF-4A57-930F-9390249F7B9C}
  9
$VERSIONGUID
  2
{FAEB1C32-E019-11D5-929B-00C0DF256EC4}
  9
$EXTNAMES
290
     1
  9
$PSVPSCALE
 40
0.0
  9
$OLESTARTUP
290
     0
  0
ENDSEC
  0
SECTION
  2
CLASSES
  0
CLASS
  1
ACDBDICTIONARYWDFLT
  2
AcDbDictionaryWithDefault
  3
ObjectDBX Classes
 90
        0
280
     0
281
     0
  0
CLASS
  1
VISUALSTYLE
  2
AcDbVisualStyle
  3
ObjectDBX Classes
 90
     4095
280
     0
281
     0
  0
CLASS
  1
MATERIAL
  2
AcDbMaterial
  3
ObjectDBX Classes
 90
     1153
280
     0
281
     0
  0
CLASS
  1
SCALE
  2
AcDbScale
  3
ObjectDBX Classes
 90
     1153
280
     0
281
     0
  0
CLASS
  1
TABLESTYLE
  2
AcDbTableStyle
  3
ObjectDBX Classes
 90
     4095
280
     0
281
     0
  0
CLASS
  1
MLEADERSTYLE
  2
AcDbMLeaderStyle
  3
ACDB_MLEADERSTYLE_CLASS
 90
     4095
280
     0
281
     0
  0
CLASS
  1
SUN
  2
AcDbSun
  3
SCENEOE
 90
     1153
280
     0
281
     0
  0
CLASS
  1
ACDBPLACEHOLDER
  2
AcDbPlaceHolder
  3
ObjectDBX Classes
 90
        0
280
     0
281
     0
  0
CLASS
  1
LAYOUT
  2
AcDbLayout
  3
ObjectDBX Classes
 90
        0
280
     0
281
     0
  0
ENDSEC
  0
SECTION
  2
TABLES
  0
TABLE
  2
VPORT
  5
8
330
0
100
AcDbSymbolTable
 70
     1
  0
VPORT
  5
29
330
8
100
AcDbSymbolTableRecord
100
AcDbViewportTableRecord
  2
*Active
 70
     0
 10
0.0
 20
0.0
 11
1.0
 21
1.0
 12
215.9
 22
139.7
 13
0.0
 23
0.0
 14
10.0
 24
10.0
 15
10.0
 25
10.0
 16
0.0
 26
0.0
 36
1.0
 17
0.0
 27
0.0
 37
0.0
 40
279.4
 41
1.5454545455
 42
50.0
 43
0.0
 44
0.0
 50
0.0
 51
0.0
 71
     0
 72
  2000
 73
     1
 74
     3
 75
     0
 76
     0
 77
     0
 78
     0
281
     0
 65
     1
110
0.0
120
0.0
130
0.0
111
1.0
121
0.0
131
0.0
112
0.0
122
1.0
132
0.0
 79
     0
146
0.0
  0
ENDTAB
  0
TABLE
  2
LTYPE
  5
5
330
0
100
AcDbSymbolTable
 70
     6
  0
LTYPE
  5
14
330
5
100
AcDbSymbolTableRecord
100
AcDbLinetypeTableRecord
  2
ByBlock
 70
     0
  3

 72
    65
 73
     0
 40
0.0
  0
LTYPE
  5
15
330
5
100
AcDbSymbolTableRecord
100
AcDbLinetypeTableRecord
  2
ByLayer
 70
     0
  3

 72
    65
 73
     0
 40
0.0
  0
LTYPE
  5
16
330
5
100
AcDbSymbolTableRecord
100
AcDbLinetypeTableRecord
  2
Continuous
 70
     0
  3
Solid line
 72
    65
 73
     0
 40
0.0
  0
LTYPE
  5
6E
330
5
100
AcDbSymbolTableRecord
100
AcDbLinetypeTableRecord
  2
HIDDEN
 70
     0
  3
Hidden __ __ __ __ __ __ __ __ __ __ __ __ __ __
 72
    65
 73
     2
 40
1.905
 49
1.27
 74
     0
 49
-0.635
 74
     0
  0
LTYPE
  5
6F
330
5
100
AcDbSymbolTableRecord
100
AcDbLinetypeTableRecord
  2
PHANTOM
 70
     0
  3
Phantom ______  __  __  ______  __  __  ______
 72
    65
 73
     6
 40
12.7
 49
6.35
 74
     0
 49
-1.27
 74
     0
 49
1.27
 74
     0
 49
-1.27
 74
     0
 49
1.27
 74
     0
 49
-1.27
 74
     0
  0
LTYPE
  5
70
330
5
100
AcDbSymbolTableRecord
100
AcDbLinetypeTableRecord
  2
CENTER
 70
     0
  3
Center ____ _ ____ _ ____ _ ____ _ ____ _ ____
 72
    65
 73
     4
 40
10.16
 49
6.35
 74
     0
 49
-1.27
 74
     0
 49
1.27
 74
     0
 49
-1.27
 74
     0
  0
LTYPE
  5
71
330
5
100
AcDbSymbolTableRecord
100
AcDbLinetypeTableRecord
  2
CENTERX2
 70
     0
  3
Center (2x) ________  __  ________  __  _____
 72
    65
 73
     4
 40
20.32
 49
12.7
 74
     0
 49
-2.54
 74
     0
 49
2.54
 74
     0
 49
-2.54
 74
     0
  0
LTYPE
  5
72
330
5
100
AcDbSymbolTableRecord
100
AcDbLinetypeTableRecord
  2
DOT2
 70
     0
  3
Dot (.5x) ........................................
 72
    65
 73
     2
 40
0.635
 49
0.0
 74
     0
 49
-0.635
 74
     0
  0
ENDTAB
  0
TABLE
  2
LAYER
  5
2
330
0
100
AcDbSymbolTable
 70
     1
  0
LAYER
  5
10
330
2
100
AcDbSymbolTableRecord
100
AcDbLayerTableRecord
  2
0
 70
     0
 62
     7
  6
Continuous
370
    -3
390
F
  0
ENDTAB
  0
TABLE
  2
STYLE
  5
3
330
0
100
AcDbSymbolTable
 70
     2
  0
STYLE
  5
11
330
3
100
AcDbSymbolTableRecord
100
AcDbTextStyleTableRecord
  2
Standard
 70
     0
 40
0.0
 41
1.0
 50
0.0
 71
     0
 42
3.5
  3
txt
  4
bigfont
  0
STYLE
  5
73
330
3
100
AcDbSymbolTableRecord
100
AcDbTextStyleTableRecord
  2
SLDTEXTSTYLE0
 70
     0
 40
0.0
 41
0.7
 50
0.0
 71
     0
 42
3.5
  3
TXT
  4
bigfont
  0
ENDTAB
  0
TABLE
  2
VIEW
  5
6
330
0
100
AcDbSymbolTable
 70
     0
  0
ENDTAB
  0
TABLE
  2
UCS
  5
7
330
0
100
AcDbSymbolTable
 70
     0
  0
ENDTAB
  0
TABLE
  2
APPID
  5
9
330
0
100
AcDbSymbolTable
 70
     1
  0
APPID
  5
12
330
9
100
AcDbSymbolTableRecord
100
AcDbRegAppTableRecord
  2
ACAD
 70
     0
  0
ENDTAB
  0
TABLE
  2
DIMSTYLE
  5
A
330
0
100
AcDbSymbolTable
 70
     1
100
AcDbDimStyleTable
  0
DIMSTYLE
105
27
330
A
100
AcDbSymbolTableRecord
100
AcDbDimStyleTableRecord
  2
ISO-25
 70
     0
 41
2.5
 42
0.625
 43
3.75
 44
1.25
 73
     0
 74
     0
 77
     1
 78
     8
140
2.5
141
2.5
143
0.0393700787
147
0.625
171
     3
172
     1
178
     0
271
     2
272
     2
274
     3
278
    44
283
     0
284
     8
340
11
  0
ENDTAB
  0
TABLE
  2
BLOCK_RECORD
  5
1
330
0
100
AcDbSymbolTable
 70
     3
  0
BLOCK_RECORD
  5
1F
330
1
100
AcDbSymbolTableRecord
100
AcDbBlockTableRecord
  2
*Model_Space
340
22
  0
BLOCK_RECORD
  5
1B
330
1
100
AcDbSymbolTableRecord
100
AcDbBlockTableRecord
  2
*Paper_Space
340
1E
  0
BLOCK_RECORD
  5
23
330
1
100
AcDbSymbolTableRecord
100
AcDbBlockTableRecord
  2
*Paper_Space0
340
26
  0
BLOCK_RECORD
  5
187
330
1
100
AcDbSymbolTableRecord
100
AcDbBlockTableRecord
  2
SW_CENTERMARKSYMBOL_0
340
0
102
{BLKREFS
331
192
102
}
  0
BLOCK_RECORD
  5
211
330
1
100
AcDbSymbolTableRecord
100
AcDbBlockTableRecord
  2
SW_CENTERMARKSYMBOL_1
340
0
102
{BLKREFS
331
21C
102
}
  0
ENDTAB
  0
ENDSEC
  0
SECTION
  2
BLOCKS
  0
BLOCK
  5
20
330
1F
100
AcDbEntity
  8
0
100
AcDbBlockBegin
  2
*Model_Space
 70
     0
 10
0.0
 20
0.0
 30
0.0
  3
*Model_Space
  1

  0
ENDBLK
  5
21
330
1F
100
AcDbEntity
  8
0
100
AcDbBlockEnd
  0
BLOCK
  5
1C
330
1B
100
AcDbEntity
 67
     1
  8
0
100
AcDbBlockBegin
  2
*Paper_Space
 70
     0
 10
0.0
 20
0.0
 30
0.0
  3
*Paper_Space
  1

  0
ENDBLK
  5
1D
330
1B
100
AcDbEntity
 67
     1
  8
0
100
AcDbBlockEnd
  0
BLOCK
  5
24
330
23
100
AcDbEntity
  8
0
100
AcDbBlockBegin
  2
*Paper_Space0
 70
     0
 10
0.0
 20
0.0
 30
0.0
  3
*Paper_Space0
  1

  0
ENDBLK
  5
25
330
23
100
AcDbEntity
  8
0
100
AcDbBlockEnd
  0
BLOCK
  5
188
330
187
100
AcDbEntity
  8
0
100
AcDbBlockBegin
  2
SW_CENTERMARKSYMBOL_0
 70
     0
 10
0.0
 20
0.0
 30
0.0
  3
SW_CENTERMARKSYMBOL_0
  1

  0
LINE
  5
18A
330
187
100
AcDbEntity
  8
0
  6
Continuous
 62
     0
370
    18
100
AcDbLine
 10
0.0
 20
0.0
 30
0.0
 11
0.0
 21
2.5
 31
0.0
  0
LINE
  5
18B
330
187
100
AcDbEntity
  8
0
  6
Continuous
 62
     0
370
    18
100
AcDbLine
 10
0.0
 20
0.0
 30
0.0
 11
-2.5
 21
0.0
 31
0.0
  0
LINE
  5
18C
330
187
100
AcDbEntity
  8
0
  6
Continuous
 62
     0
370
    18
100
AcDbLine
 10
0.0
 20
0.0
 30
0.0
 11
0.0
 21
-2.5
 31
0.0
  0
LINE
  5
18D
330
187
100
AcDbEntity
  8
0
  6
Continuous
 62
     0
370
    18
100
AcDbLine
 10
0.0
 20
0.0
 30
0.0
 11
2.5
 21
0.0
 31
0.0
  0
LINE
  5
18E
330
187
100
AcDbEntity
  8
0
  6
Continuous
 62
     0
370
    18
100
AcDbLine
 10
0.0
 20
5.0
 30
0.0
 11
0.0
 21
26.4660717563
 31
0.0
  0
LINE
  5
18F
330
187
100
AcDbEntity
  8
0
  6
Continuous
 62
     0
370
    18
100
AcDbLine
 10
-5.0
 20
0.0
 30
0.0
 11
-11.5
 21
0.0
 31
0.0
  0
LINE
  5
190
330
187
100
AcDbEntity
  8
0
  6
Continuous
 62
     0
370
    18
100
AcDbLine
 10
0.0
 20
-5.0
 30
0.0
 11
0.0
 21
-11.5
 31
0.0
  0
LINE
  5
191
330
187
100
AcDbEntity
  8
0
  6
Continuous
 62
     0
370
    18
100
AcDbLine
 10
5.0
 20
0.0
 30
0.0
 11
11.5
 21
0.0
 31
0.0
  0
ENDBLK
  5
189
330
187
100
AcDbEntity
  8
0
100
AcDbBlockEnd
  0
BLOCK
  5
212
330
211
100
AcDbEntity
  8
0
100
AcDbBlockBegin
  2
SW_CENTERMARKSYMBOL_1
 70
     0
 10
0.0
 20
0.0
 30
0.0
  3
SW_CENTERMARKSYMBOL_1
  1

  0
LINE
  5
214
330
211
100
AcDbEntity
  8
0
  6
Continuous
 62
     0
370
    18
100
AcDbLine
 10
0.0
 20
0.0
 30
0.0
 11
0.0
 21
2.5
 31
0.0
  0
LINE
  5
215
330
211
100
AcDbEntity
  8
0
  6
Continuous
 62
     0
370
    18
100
AcDbLine
 10
0.0
 20
0.0
 30
0.0
 11
-2.5
 21
0.0
 31
0.0
  0
LINE
  5
216
330
211
100
AcDbEntity
  8
0
  6
Continuous
 62
     0
370
    18
100
AcDbLine
 10
0.0
 20
0.0
 30
0.0
 11
0.0
 21
-2.5
 31
0.0
  0
LINE
  5
217
330
211
100
AcDbEntity
  8
0
  6
Continuous
 62
     0
370
    18
100
AcDbLine
 10
0.0
 20
0.0
 30
0.0
 11
2.5
 21
0.0
 31
0.0
  0
LINE
  5
218
330
211
100
AcDbEntity
  8
0
  6
Continuous
 62
     0
370
    18
100
AcDbLine
 10
0.0
 20
5.0
 30
0.0
 11
0.0
 21
11.5
 31
0.0
  0
LINE
  5
219
330
211
100
AcDbEntity
  8
0
  6
Continuous
 62
     0
370
    18
100
AcDbLine
 10
-5.0
 20
0.0
 30
0.0
 11
-26.3773720777
 21
0.0
 31
0.0
  0
LINE
  5
21A
330
211
100
AcDbEntity
  8
0
  6
Continuous
 62
     0
370
    18
100
AcDbLine
 10
0.0
 20
-5.0
 30
0.0
 11
0.0
 21
-11.5
 31
0.0
  0
LINE
  5
21B
330
211
100
AcDbEntity
  8
0
  6
Continuous
 62
     0
370
    18
100
AcDbLine
 10
5.0
 20
0.0
 30
0.0
 11
26.2644313523
 21
0.0
 31
0.0
  0
ENDBLK
  5
213
330
211
100
AcDbEntity
  8
0
100
AcDbBlockEnd
  0
ENDSEC
  0
SECTION
  2
ENTITIES
  0
MTEXT
  5
74
330
1F
100
AcDbEntity
  8
0
  6
Continuous
 62
     7
370
     0
100
AcDbMText
 10
162.9703038892
 20
128.0684395457
 30
0.0
 40
5.2916666667
 41
0.0
 71
     1
 72
     1
  1
5R-TF1221
  7
SLDTEXTSTYLE0
 73
     1
 44
1.0
  0
LINE
  5
75
330
1F
100
AcDbEntity
  8
0
  6
Continuous
 62
     7
370
    25
100
AcDbLine
 10
159.6814326766
 20
77.5706843801
 30
0.0
 11
160.1814336899
 21
78.0706835308
 31
0.0
  0
LINE
  5
76
330
1F
100
AcDbEntity
  8
0
  6
Continuous
 62
     7
370
    25
100
AcDbLine
 10
160.1814336899
 20
95.0706844547
 30
0.0
 11
159.6814326766
 21
95.5706836053
 31
0.0
  0
LINE
  5
77
330
1F
100
AcDbEntity
  8
0
  6
Continuous
 62
     7
370
    25
100
AcDbLine
 10
144.1814329299
 20
100.0706843429
 30
0.0
 11
144.1814329299
 21
111.070683352
 31
0.0
  0
LINE
  5
78
330
1F
100
AcDbEntity
  8
0
  6
Continuous
 62
     7
370
    25
100
AcDbLine
 10
126.1814337048
 20
111.070683352
 30
0.0
 11
126.1814337048
 21
100.0706843429
 31
0.0
  0
LINE
  5
79
330
1F
100
AcDbEntity
  8
0
  6
Continuous
 62
     7
370
    25
100
AcDbLine
 10
148.6814336675
 20
77.5706843801
 30
0.0
 11
159.6814326766
 21
77.5706843801
 31
0.0
  0
LINE
  5
7A
330
1F
100
AcDbEntity
  8
0
  6
Continuous
 62
     7
370
    25
100
AcDbLine
 10
159.6814326766
 20
95.5706836053
 30
0.0
 11
148.6814336675
 21
95.5706836053
 31
0.0
  0
LINE
  5
7B
330
1F
100
AcDbEntity
  8
0
  6
Continuous
 62
     7
370
    25
100
AcDbLine
 10
121.6814329672
 20
95.5706836053
 30
0.0
 11
110.6814339581
 21
95.5706836053
 31
0.0
  0
LINE
  5
7C
330
1F
100
AcDbEntity
  8
0
  6
Continuous
 62
     7
370
    25
100
AcDbLine
 10
110.6814339581
 20
77.5706843801
 30
0.0
 11
121.6814329672
 21
77.5706843801
 31
0.0
  0
LINE
  5
7D
330
1F
100
AcDbEntity
  8
0
  6
Continuous
 62
     7
370
    25
100
AcDbLine
 10
110.6814339581
 20
95.5706836053
 30
0.0
 11
110.1814329448
 21
95.0706844547
 31
0.0
  0
LINE
  5
7E
330
1F
100
AcDbEntity
  8
0
  6
Continuous
 62
     7
370
    25
100
AcDbLine
 10
110.1814329448
 20
78.0706835308
 30
0.0
 11
110.6814339581
 21
77.5706843801
 31
0.0
  0
LINE
  5
7F
330
1F
100
AcDbEntity
  8
0
  6
Continuous
 62
     7
370
    25
100
AcDbLine
 10
144.1814329299
 20
111.070683352
 30
0.0
 11
143.6814337793
 21
111.5706843652
 31
0.0
  0
LINE
  5
80
330
1F
100
AcDbEntity
  8
0
  6
Continuous
 62
     7
370
    25
100
AcDbLine
 10
126.6814328554
 20
111.5706843652
 30
0.0
 11
126.1814337048
 21
111.070683352
 31
0.0
  0
ARC
  5
81
330
1F
100
AcDbEntity
  8
0
  6
Continuous
 62
     7
370
    25
100
AcDbCircle
 10
121.6814333174
 20
94.0706839927
 30
0.0
 40
1.500000000000001
100
AcDbArc
 50
11.5369590328
 51
90.0
  0
ARC
  5
82
330
1F
100
AcDbEntity
  8
0
  6
Continuous
 62
     7
370
    25
100
AcDbCircle
 10
121.6814333174
 20
79.0706839927
 30
0.0
 40
1.500000000000001
100
AcDbArc
 50
270.0
 51
348.4630409672
  0
ARC
  5
83
330
1F
100
AcDbEntity
  8
0
  6
Continuous
 62
     7
370
    25
100
AcDbCircle
 10
148.6814333174
 20
94.0706839927
 30
0.0
 40
1.500000000000015
100
AcDbArc
 50
90.0
 51
168.4630409672
  0
ARC
  5
84
330
1F
100
AcDbEntity
  8
0
  6
Continuous
 62
     7
370
    25
100
AcDbCircle
 10
148.6814333174
 20
79.0706839927
 30
0.0
 40
1.500000000000015
100
AcDbArc
 50
191.5369590328
 51
270.0
  0
ARC
  5
85
330
1F
100
AcDbEntity
  8
0
  6
Continuous
 62
     7
370
    25
100
AcDbCircle
 10
127.6814333174
 20
100.0706839927
 30
0.0
 40
1.500000000000015
100
AcDbArc
 50
180.0
 51
258.4630409672
  0
ARC
  5
86
330
1F
100
AcDbEntity
  8
0
  6
Continuous
 62
     7
370
    25
100
AcDbCircle
 10
142.6814333174
 20
100.0706839927
 30
0.0
 40
1.500000000000018
100
AcDbArc
 50
281.5369590328
 51
0.0
  0
ARC
  5
87
330
1F
100
AcDbEntity
  8
0
  6
Continuous
 62
     7
370
    25
100
AcDbCircle
 10
124.1309230601
 20
94.5706839927
 30
0.0
 40
1.000000000000006
100
AcDbArc
 50
191.5369590328
 51
270.0
  0
ARC
  5
88
330
1F
100
AcDbEntity
  8
0
  6
Continuous
 62
     7
370
    25
100
AcDbCircle
 10
124.1309230601
 20
78.5706839927
 30
0.0
 40
1.000000000000006
100
AcDbArc
 50
90.0
 51
168.4630409672
  0
ARC
  5
89
330
1F
100
AcDbEntity
  8
0
  6
Continuous
 62
     7
370
    25
100
AcDbCircle
 10
146.2319435746
 20
94.5706839927
 30
0.0
 40
1.00000000000002
100
AcDbArc
 50
270.0
 51
348.4630409672
  0
ARC
  5
8A
330
1F
100
AcDbEntity
  8
0
  6
Continuous
 62
     7
370
    25
100
AcDbCircle
 10
146.2319435746
 20
78.5706839927
 30
0.0
 40
1.00000000000002
100
AcDbArc
 50
11.5369590328
 51
90.0
  0
ARC
  5
8B
330
1F
100
AcDbEntity
  8
0
  6
Continuous
 62
     7
370
    25
100
AcDbCircle
 10
127.1814333174
 20
97.6211942499
 30
0.0
 40
1.0
100
AcDbArc
 50
0.0
 51
78.4630409672
  0
ARC
  5
8C
330
1F
100
AcDbEntity
  8
0
  6
Continuous
 62
     7
370
    25
100
AcDbCircle
 10
143.1814333174
 20
97.6211942499
 30
0.0
 40
1.0
100
AcDbArc
 50
101.5369590328
 51
180.0
  0
LINE
  5
8D
330
1F
100
AcDbEntity
  8
0
  6
Continuous
 62
     7
370
    25
100
AcDbLine
 10
127.681433485
 20
93.5706842088
 30
0.0
 11
124.1309230971
 21
93.5706842088
 31
0.0
  0
LINE
  5
8E
330
1F
100
AcDbEntity
  8
0
  6
Continuous
 62
     7
370
    25
100
AcDbLine
 10
146.2319435376
 20
93.5706842088
 30
0.0
 11
142.6814331497
 21
93.5706842088
 31
0.0
  0
LINE
  5
8F
330
1F
100
AcDbEntity
  8
0
  6
Continuous
 62
     7
370
    25
100
AcDbLine
 10
124.1309230971
 20
79.5706837766
 30
0.0
 11
146.2319435376
 21
79.5706837766
 31
0.0
  0
LINE
  5
90
330
1F
100
AcDbEntity
  8
0
  6
Continuous
 62
     7
370
    25
100
AcDbLine
 10
128.1814331013
 20
97.6211942129
 30
0.0
 11
128.1814331013
 21
94.0706838251
 31
0.0
  0
LINE
  5
91
330
1F
100
AcDbEntity
  8
0
  6
Continuous
 62
     7
370
    25
100
AcDbLine
 10
142.1814335334
 20
94.0706838251
 30
0.0
 11
142.1814335334
 21
97.6211942129
 31
0.0
  0
SPLINE
  5
92
330
1F
100
AcDbEntity
  8
0
  6
Continuous
 62
     7
370
    25
100
AcDbSpline
210
0.0
220
0.0
230
1.0
 70
     8
 71
     3
 72
    11
 73
     7
 74
     0
 42
0.000000001
 43
0.00000001
 40
0.0
 40
0.0
 40
0.0
 40
0.0
 40
0.2501293618956914
 40
0.5
 40
0.7498706381043087
 40
1.0
 40
1.0
 40
1.0
 40
1.0
 10
142.6813777360274
 20
93.5706320547183
 30
0.0
 10
142.6159257984062
 20
93.57837057888261
 30
0.0
 10
142.4850896240259
 20
93.59383962279188
 30
0.0
 10
142.3192752722322
 20
93.70852594758921
 30
0.0
 10
142.2045889474349
 20
93.87434029938281
 30
0.0
 10
142.1891199035256
 20
94.00517647376314
 30
0.0
 10
142.1813813793613
 20
94.07062841138439
 30
0.0
  0
SPLINE
  5
93
330
1F
100
AcDbEntity
  8
0
  6
Continuous
 62
     7
370
    25
100
AcDbSpline
210
0.0
220
0.0
230
1.0
 70
     8
 71
     3
 72
    11
 73
     7
 74
     0
 42
0.000000001
 43
0.00000001
 40
0.0
 40
0.0
 40
0.0
 40
0.0
 40
0.2501293618956914
 40
0.5
 40
0.7498706381043087
 40
1.0
 40
1.0
 40
1.0
 40
1.0
 10
128.181485255356
 20
94.07062841138439
 30
0.0
 10
128.1737467311917
 20
94.00517647376314
 30
0.0
 10
128.1582776872825
 20
93.87434029938282
 30
0.0
 10
128.0435913624851
 20
93.70852594758921
 30
0.0
 10
127.8777770106915
 20
93.59383962279188
 30
0.0
 10
127.7469408363112
 20
93.57837057888261
 30
0.0
 10
127.6814888986899
 20
93.5706320547183
 30
0.0
  0
LINE
  5
94
330
1F
100
AcDbEntity
  8
0
  6
Continuous
 62
     7
370
    25
100
AcDbLine
 10
159.6814326766
 20
77.5706843801
 30
0.0
 11
159.6814326766
 21
95.5706836053
 31
0.0
  0
LINE
  5
95
330
1F
100
AcDbEntity
  8
0
  6
Continuous
 62
     7
370
    25
100
AcDbLine
 10
160.1814336899
 20
95.0706844547
 30
0.0
 11
160.1814336899
 21
78.0706835308
 31
0.0
  0
LINE
  5
96
330
1F
100
AcDbEntity
  8
0
  6
Continuous
 62
     7
370
    25
100
AcDbLine
 10
144.1814329299
 20
111.070683352
 30
0.0
 11
126.1814337048
 21
111.070683352
 31
0.0
  0
LINE
  5
97
330
1F
100
AcDbEntity
  8
0
  6
Continuous
 62
     7
370
    25
100
AcDbLine
 10
110.6814339581
 20
86.5706839927
 30
0.0
 11
110.6814339581
 21
77.5706843801
 31
0.0
  0
LINE
  5
98
330
1F
100
AcDbEntity
  8
0
  6
Continuous
 62
     7
370
    25
100
AcDbLine
 10
110.6814339581
 20
95.5706836053
 30
0.0
 11
110.6814339581
 21
86.5706839927
 31
0.0
  0
LINE
  5
99
330
1F
100
AcDbEntity
  8
0
  6
Continuous
 62
     7
370
    25
100
AcDbLine
 10
110.1814329448
 20
86.5706839927
 30
0.0
 11
110.1814329448
 21
95.0706844547
 31
0.0
  0
LINE
  5
9A
330
1F
100
AcDbEntity
  8
0
  6
Continuous
 62
     7
370
    25
100
AcDbLine
 10
110.1814329448
 20
78.0706835308
 30
0.0
 11
110.1814329448
 21
86.5706839927
 31
0.0
  0
LINE
  5
9B
330
1F
100
AcDbEntity
  8
0
  6
Continuous
 62
     7
370
    25
100
AcDbLine
 10
126.6814328554
 20
111.5706843652
 30
0.0
 11
143.6814337793
 21
111.5706843652
 31
0.0
  0
LINE
  5
9C
330
1F
100
AcDbEntity
  8
0
  6
Continuous
 62
     7
370
    25
100
AcDbLine
 10
136.6811254119
 20
82.9257738174
 30
0.0
 11
137.370343349
 21
81.6118946627
 31
0.0
  0
ARC
  5
9D
330
1F
100
AcDbEntity
  8
0
  6
Continuous
 62
     7
370
    25
100
AcDbCircle
 10
137.4371950969
 20
81.6469627762
 30
0.0
 40
0.0754912582857716
100
AcDbArc
 50
207.6800279694
 51
311.070386533
  0
ARC
  5
9E
330
1F
100
AcDbEntity
  8
0
  6
Continuous
 62
     7
370
    25
100
AcDbCircle
 10
139.1814333174
 20
79.6454175766
 30
0.0
 40
2.579419315655421
100
AcDbArc
 50
48.929613467
 51
131.070386533
  0
ARC
  5
9F
330
1F
100
AcDbEntity
  8
0
  6
Continuous
 62
     7
370
    25
100
AcDbCircle
 10
140.9256715378
 20
81.6469627762
 30
0.0
 40
0.0754912582857603
100
AcDbArc
 50
228.929613467
 51
332.3199720306
  0
LINE
  5
A0
330
1F
100
AcDbEntity
  8
0
  6
Continuous
 62
     7
370
    25
100
AcDbLine
 10
140.9925234328
 20
81.6118946627
 30
0.0
 11
141.6817412536
 21
82.9257738174
 31
0.0
  0
LINE
  5
A1
330
1F
100
AcDbEntity
  8
0
  6
Continuous
 62
     7
370
    25
100
AcDbLine
 10
141.6817412536
 20
82.9257738174
 30
0.0
 11
141.6419262822
 21
82.9030211412
 31
0.0
  0
ARC
  5
A2
330
1F
100
AcDbEntity
  8
0
  6
Continuous
 62
     7
370
    25
100
AcDbCircle
 10
141.3446275432
 20
83.4232646573
 30
0.0
 40
0.5991992501208473
100
AcDbArc
 50
199.6800689411
 51
299.7462530425
  0
LINE
  5
A3
330
1F
100
AcDbEntity
  8
0
  6
Continuous
 62
     7
370
    25
100
AcDbLine
 10
140.7804286863
 20
83.2214736242
 30
0.0
 11
139.693922625
 21
86.2592973667
 31
0.0
  0
SPLINE
  5
A4
330
1F
100
AcDbEntity
  8
0
  6
Continuous
 62
     7
370
    25
100
AcDbSpline
210
0.0
220
0.0
230
1.0
 70
     8
 71
     3
 72
    16
 73
    12
 74
     0
 42
0.000000001
 43
0.00000001
 40
0.0
 40
0.0
 40
0.0
 40
0.0
 40
0.1113160552874951
 40
0.2221777142163596
 40
0.333357231917414
 40
0.4444842326561919
 40
0.5552113451997907
 40
0.6662702792617305
 40
0.7776772343596836
 40
0.888683744007764
 40
1.0
 40
1.0
 40
1.0
 40
1.0
 10
139.6939225869178
 20
86.25929737544855
 30
0.0
 10
139.6700586437798
 20
86.29981957750128
 30
0.0
 10
139.6224281710247
 20
86.3806985684414
 30
0.0
 10
139.5146957389588
 20
86.47375197825465
 30
0.0
 10
139.3895821278257
 20
86.53881308913412
 30
0.0
 10
139.2521812798954
 20
86.57196998488178
 30
0.0
 10
139.1110878274793
 20
86.57203325779078
 30
0.0
 10
138.9735897232231
 20
86.53897705913958
 30
0.0
 10
138.8483463298309
 20
86.47387944260828
 30
0.0
 10
138.7404488440531
 20
86.38076793567882
 30
0.0
 10
138.6928011079405
 20
86.29982515278084
 30
0.0
 10
138.6689440477996
 20
86.25929737544844
 30
0.0
  0
LINE
  5
A5
330
1F
100
AcDbEntity
  8
0
  6
Continuous
 62
     7
370
    25
100
AcDbLine
 10
138.6689441568
 20
86.2592973667
 30
0.0
 11
137.5827158625
 21
83.2222512786
 31
0.0
  0
ARC
  5
A6
330
1F
100
AcDbEntity
  8
0
  6
Continuous
 62
     7
370
    25
100
AcDbCircle
 10
137.0185171826
 20
83.4240421876
 30
0.0
 40
0.5991992501208415
100
AcDbArc
 50
241.1755227373
 51
340.3199310589
  0
LINE
  5
A7
330
1F
100
AcDbEntity
  8
0
  6
Continuous
 62
     7
370
    25
100
AcDbLine
 10
136.7296264797
 20
82.8990832765
 30
0.0
 11
136.6811254119
 21
82.9257738174
 31
0.0
  0
SPLINE
  5
A8
330
1F
100
AcDbEntity
  8
0
  6
Continuous
 62
     7
370
    25
100
AcDbSpline
210
0.0
220
0.0
230
1.0
 70
     8
 71
     3
 72
    16
 73
    12
 74
     0
 42
0.000000001
 43
0.00000001
 40
0.0
 40
0.0
 40
0.0
 40
0.0
 40
0.0739298478380645
 40
0.1513677900875573
 40
0.2324450724520033
 40
0.3172760505712285
 40
0.4059605604870915
 40
0.4985859785248051
 40
0.6141264807254729
 40
0.7496239523722917
 40
1.0
 40
1.0
 40
1.0
 40
1.0
 10
128.1814333173587
 20
83.97260778136233
 30
0.0
 10
128.180518012066
 20
84.03801941585726
 30
0.0
 10
128.1786439687199
 20
84.17194657584817
 30
0.0
 10
128.1642692171596
 20
84.37718855138343
 30
0.0
 10
128.1415758716664
 20
84.59131611895378
 30
0.0
 10
128.109613312441
 20
84.81433120633154
 30
0.0
 10
128.0686705312712
 20
85.04624152173814
 30
0.0
 10
128.015202840531
 20
85.3034092224816
 30
0.0
 10
127.9446001800454
 20
85.59918334558938
 30
0.0
 10
127.8320934775779
 20
86.02831070102164
 30
0.0
 10
127.74072089477
 20
86.35725000678093
 30
0.0
 10
127.6814333173587
 20
86.57068399271564
 30
0.0
  0
SPLINE
  5
A9
330
1F
100
AcDbEntity
  8
0
  6
Continuous
 62
     7
370
    25
100
AcDbSpline
210
0.0
220
0.0
230
1.0
 70
     8
 71
     3
 72
    14
 73
    10
 74
     0
 42
0.000000001
 43
0.00000001
 40
0.0
 40
0.0
 40
0.0
 40
0.0
 40
0.2503818975769405
 40
0.3853960642454612
 40
0.5014219062737861
 40
0.6386745024418747
 40
0.7672919706928744
 40
0.8876008223903926
 40
1.0
 40
1.0
 40
1.0
 40
1.0
 10
127.6814333173587
 20
86.57068399271564
 30
0.0
 10
127.7409664010885
 20
86.78405370041173
 30
0.0
 10
127.8326016845651
 20
87.11247938282355
 30
0.0
 10
127.9451277387427
 20
87.54161227539757
 30
0.0
 10
128.024785948426
 20
87.87581017242861
 30
0.0
 10
128.0914564142233
 20
88.20717304226524
 30
0.0
 10
128.142478718065
 20
88.54508528933628
 30
0.0
 10
128.1749940100854
 20
88.8634013498038
 30
0.0
 10
128.1793360767697
 20
89.06930680695838
 30
0.0
 10
128.1814333173587
 20
89.16876020406897
 30
0.0
  0
LINE
  5
AA
330
1F
100
AcDbEntity
  8
0
  6
Continuous
 62
     7
370
    25
100
AcDbLine
 10
128.1814331013
 20
89.1687601202
 30
0.0
 11
128.1814331013
 21
92.0707300634
 31
0.0
  0
SPLINE
  5
AB
330
1F
100
AcDbEntity
  8
0
  6
Continuous
 62
     7
370
    25
100
AcDbSpline
210
0.0
220
0.0
230
1.0
 70
     8
 71
     3
 72
    19
 73
    15
 74
     0
 42
0.000000001
 43
0.00000001
 40
0.0
 40
0.0
 40
0.0
 40
0.0
 40
0.0504323727095946
 40
0.1003565609002702
 40
0.1500822900422585
 40
0.199922985600534
 40
0.250189922563005
 40
0.3750855037481943
 40
0.5000544104077007
 40
0.6247887185113573
 40
0.7499189120354086
 40
0.8333029051587477
 40
0.9161791203953933
 40
1.0
 40
1.0
 40
1.0
 40
1.0
 10
129.6813872493135
 20
93.57068399271564
 30
0.0
 10
129.6804984660212
 20
93.53110302401117
 30
0.0
 10
129.6787298553093
 20
93.45233992636446
 30
0.0
 10
129.6644905015189
 20
93.33525948411027
 30
0.0
 10
129.6417290646744
 20
93.22009607525416
 30
0.0
 10
129.609629897277
 20
93.1068493595948
 30
0.0
 10
129.5483255087718
 20
92.94116767387477
 30
0.0
 10
129.4370903167964
 20
92.73166786996163
 30
0.0
 10
129.2488780258287
 20
92.50349876551208
 30
0.0
 10
129.0205932223736
 20
92.31514908981598
 30
0.0
 10
128.7880604660815
 20
92.1915222361882
 30
0.0
 10
128.5712032799577
 20
92.11772350672686
 30
0.0
 10
128.3781419820825
 20
92.07799245851152
 30
0.0
 10
128.2472501248731
 20
92.07315998846902
 30
0.0
 10
128.1814333173587
 20
92.07073006076085
 30
0.0
  0
LINE
  5
AC
330
1F
100
AcDbEntity
  8
0
  6
Continuous
 62
     7
370
    25
100
AcDbLine
 10
129.6813872467
 20
93.5706842088
 30
0.0
 11
132.5833571899
 21
93.5706842088
 31
0.0
  0
SPLINE
  5
AD
330
1F
100
AcDbEntity
  8
0
  6
Continuous
 62
     7
370
    25
100
AcDbSpline
210
0.0
220
0.0
230
1.0
 70
     8
 71
     3
 72
    10
 73
     6
 74
     0
 42
0.000000001
 43
0.00000001
 40
-0.796694357225795
 40
-0.796694357225795
 40
-0.796694357225795
 40
-0.796694357225795
 40
-0.533073702210409
 40
-0.533073702210409
 40
-0.532116113157305
 40
-0.532116113157305
 40
-0.532116113157305
 40
-0.532116113157305
 10
132.5833571060054
 20
93.57068399272289
 30
0.0
 10
133.4620926227218
 20
93.57068399272008
 30
0.0
 10
134.3243805586567
 20
93.83715139578011
 30
0.0
 10
135.1752843590167
 20
94.06896792474332
 30
0.0
 10
135.1783574643567
 20
94.06983090458378
 30
0.0
 10
135.1814333173587
 20
94.07068399271564
 30
0.0
  0
SPLINE
  5
AE
330
1F
100
AcDbEntity
  8
0
  6
Continuous
 62
     7
370
    25
100
AcDbSpline
210
0.0
220
0.0
230
1.0
 70
     8
 71
     3
 72
    10
 73
     6
 74
     0
 42
0.000000001
 43
0.00000001
 40
-0.263620655015386
 40
-0.263620655015386
 40
-0.263620655015386
 40
-0.263620655015386
 40
-0.2626630659468851
 40
-0.2626630659468851
 40
0.0009575890685009
 40
0.0009575890685009
 40
0.0009575890685009
 40
0.0009575890685009
 10
135.1814333173587
 20
94.07068399271564
 30
0.0
 10
135.1845091704101
 20
94.06983090457005
 30
0.0
 10
135.1875831687156
 20
94.06897145929798
 30
0.0
 10
136.0381355342243
 20
93.83577071032846
 30
0.0
 10
136.9007740119941
 20
93.57068399271564
 30
0.0
 10
137.779509528712
 20
93.57068399271564
 30
0.0
  0
LINE
  5
AF
330
1F
100
AcDbEntity
  8
0
  6
Continuous
 62
     7
370
    25
100
AcDbLine
 10
137.7795094448
 20
93.5706842088
 30
0.0
 11
140.681479388
 21
93.5706842088
 31
0.0
  0
SPLINE
  5
B0
330
1F
100
AcDbEntity
  8
0
  6
Continuous
 62
     7
370
    25
100
AcDbSpline
210
0.0
220
0.0
230
1.0
 70
     8
 71
     3
 72
    19
 73
    15
 74
     0
 42
0.000000001
 43
0.00000001
 40
0.0
 40
0.0
 40
0.0
 40
0.0
 40
0.0504323727096602
 40
0.1003565609003688
 40
0.1500822900423565
 40
0.199922985600599
 40
0.2501899225630071
 40
0.3750855037480327
 40
0.5000544104076973
 40
0.624788718511343
 40
0.7499189120354135
 40
0.8333029051590075
 40
0.916179120395655
 40
1.0
 40
1.0
 40
1.0
 40
1.0
 10
142.1814333173587
 20
92.07073006076084
 30
0.0
 10
142.1418523486542
 20
92.07161884405313
 30
0.0
 10
142.0630892510074
 20
92.07338745476507
 30
0.0
 10
141.9460088087531
 20
92.08762680855543
 30
0.0
 10
141.830845399897
 20
92.11038824539992
 30
0.0
 10
141.7175986842377
 20
92.14248741279735
 30
0.0
 10
141.5519169985179
 20
92.20379180130249
 30
0.0
 10
141.342417194605
 20
92.3150269932781
 30
0.0
 10
141.1142480901553
 20
92.5032392842455
 30
0.0
 10
140.9258984144588
 20
92.73152408770045
 30
0.0
 10
140.8022715608312
 20
92.96405684399288
 30
0.0
 10
140.72847283137
 20
93.18091403011691
 30
0.0
 10
140.6887417831545
 20
93.3739753279921
 30
0.0
 10
140.683909313112
 20
93.5048671852013
 30
0.0
 10
140.6814793854039
 20
93.57068399271549
 30
0.0
  0
LINE
  5
B1
330
1F
100
AcDbEntity
  8
0
  6
Continuous
 62
     7
370
    25
100
AcDbLine
 10
142.1814335334
 20
92.0707300634
 30
0.0
 11
142.1814335334
 21
89.1687601202
 31
0.0
  0
SPLINE
  5
B2
330
1F
100
AcDbEntity
  8
0
  6
Continuous
 62
     7
370
    25
100
AcDbSpline
210
0.0
220
0.0
230
1.0
 70
     8
 71
     3
 72
    16
 73
    12
 74
     0
 42
0.000000001
 43
0.00000001
 40
0.0
 40
0.0
 40
0.0
 40
0.0
 40
0.0739298478317502
 40
0.1513677900738161
 40
0.2324450724296886
 40
0.3172760505391666
 40
0.4059605604440887
 40
0.4985859784696513
 40
0.6141264806631028
 40
0.7496239522892343
 40
1.0
 40
1.0
 40
1.0
 40
1.0
 10
142.1814333173587
 20
89.16876020406897
 30
0.0
 10
142.1823486226512
 20
89.10334856957962
 30
0.0
 10
142.1842226659968
 20
88.96942140960086
 30
0.0
 10
142.1985974175543
 20
88.76417943408521
 30
0.0
 10
142.221290763043
 20
88.55005186653729
 30
0.0
 10
142.2532533222623
 20
88.3270367791848
 30
0.0
 10
142.294196103424
 20
88.09512646380628
 30
0.0
 10
142.3476637941554
 20
87.8379587630884
 30
0.0
 10
142.4182664546286
 20
87.54218464001409
 30
0.0
 10
142.530773157104
 20
87.1130572845334
 30
0.0
 10
142.6221457399273
 20
86.78411797872107
 30
0.0
 10
142.6814333173587
 20
86.57068399271564
 30
0.0
  0
SPLINE
  5
B3
330
1F
100
AcDbEntity
  8
0
  6
Continuous
 62
     7
370
    25
100
AcDbSpline
210
0.0
220
0.0
230
1.0
 70
     8
 71
     3
 72
    14
 73
    10
 74
     0
 42
0.000000001
 43
0.00000001
 40
0.0
 40
0.0
 40
0.0
 40
0.0
 40
0.250381897495202
 40
0.3853960641816825
 40
0.5014219062198584
 40
0.6386745024049088
 40
0.7672919706705007
 40
0.8876008223803089
 40
0.9999999999999999
 40
0.9999999999999999
 40
0.9999999999999999
 40
0.9999999999999999
 10
142.6814333173587
 20
86.57068399271564
 30
0.0
 10
142.6219002336487
 20
86.35731428508913
 30
0.0
 10
142.5302649501878
 20
86.02888860273151
 30
0.0
 10
142.4177388960174
 20
85.59975571020499
 30
0.0
 10
142.3380806863204
 20
85.2655578131365
 30
0.0
 10
142.2714102205114
 20
84.93419494326483
 30
0.0
 10
142.22038791666
 20
84.59628269615601
 30
0.0
 10
142.1878726246333
 20
84.27796663565623
 30
0.0
 10
142.1835305579481
 20
84.07206117848185
 30
0.0
 10
142.1814333173587
 20
83.97260778136233
 30
0.0
  0
LINE
  5
B4
330
1F
100
AcDbEntity
  8
0
  6
Continuous
 62
     7
370
    25
100
AcDbLine
 10
142.1814335334
 20
83.9726078652
 30
0.0
 11
142.1814335334
 21
81.0706840225
 31
0.0
  0
LINE
  5
B5
330
1F
100
AcDbEntity
  8
0
  6
Continuous
 62
     7
370
    25
100
AcDbLine
 10
128.1814331013
 20
81.0706840225
 30
0.0
 11
142.1814335334
 21
81.0706840225
 31
0.0
  0
LINE
  5
B6
330
1F
100
AcDbEntity
  8
0
  6
Continuous
 62
     7
370
    25
100
AcDbLine
 10
128.1814331013
 20
81.0706840225
 30
0.0
 11
128.1814331013
 21
83.9726078652
 31
0.0
  0
SPLINE
  5
B7
330
1F
100
AcDbEntity
  8
0
  6
Continuous
 62
     7
370
    25
100
AcDbSpline
210
0.0
220
0.0
230
1.0
 70
     8
 71
     3
 72
    13
 73
     9
 74
     0
 42
0.000000001
 43
0.00000001
 40
0.0
 40
0.0
 40
0.0
 40
0.0
 40
0.1856794033212272
 40
0.3634611737568169
 40
0.533542336720674
 40
0.6961479207300177
 40
0.8515354443703902
 40
1.0
 40
1.0
 40
1.0
 40
1.0
 10
127.336976499901
 20
88.99555512329766
 30
0.0
 10
127.3206481940578
 20
89.06287792046612
 30
0.0
 10
127.2886860857084
 20
89.1946600268374
 30
0.0
 10
127.2499672324765
 20
89.3867524435435
 30
0.0
 10
127.2194131533887
 20
89.56933952571521
 30
0.0
 10
127.1977964164796
 20
89.74241336449496
 30
0.0
 10
127.1840887219909
 20
89.90637336538235
 30
0.0
 10
127.1823049047342
 20
90.01152138870971
 30
0.0
 10
127.1814333173587
 20
90.06289755370466
 30
0.0
  0
SPLINE
  5
B8
330
1F
100
AcDbEntity
  8
0
  6
Continuous
 62
     7
370
    25
100
AcDbSpline
210
0.0
220
0.0
230
1.0
 70
     8
 71
     3
 72
    17
 73
    13
 74
     0
 42
0.000000001
 43
0.00000001
 40
0.0
 40
0.0
 40
0.0
 40
0.0
 40
0.1130667886658668
 40
0.2142471894553318
 40
0.3035410226158834
 40
0.3809482842621089
 40
0.4464692357998273
 40
0.5001045924259258
 40
0.6375226532033567
 40
0.75004211245356
 40
0.8820380142920121
 40
1.0
 40
1.0
 40
1.0
 40
1.0
 10
127.6814333173587
 20
86.57068399271564
 30
0.0
 10
127.6712036912547
 20
86.66440146397757
 30
0.0
 10
127.6518198503602
 20
86.8419841569827
 30
0.0
 10
127.6239256058024
 20
87.0931434780148
 30
0.0
 10
127.5989327981049
 20
87.31418219973582
 30
0.0
 10
127.5768034005708
 20
87.50512920265403
 30
0.0
 10
127.5576035738445
 20
87.66614565049824
 30
0.0
 10
127.5314218084915
 20
87.87546775756886
 30
0.0
 10
127.4984402669005
 20
88.12145070643395
 30
0.0
 10
127.4528459924863
 20
88.42710087740697
 30
0.0
 10
127.4029373358074
 20
88.71323792550744
 30
0.0
 10
127.3581247763277
 20
88.90503895477362
 30
0.0
 10
127.336976499901
 20
88.99555512329766
 30
0.0
  0
SPLINE
  5
B9
330
1F
100
AcDbEntity
  8
0
  6
Continuous
 62
     7
370
    25
100
AcDbSpline
210
0.0
220
0.0
230
1.0
 70
     8
 71
     3
 72
    14
 73
    10
 74
     0
 42
0.000000001
 43
0.00000001
 40
0.0
 40
0.0
 40
0.0
 40
0.0
 40
0.0771019312675692
 40
0.1604220743863116
 40
0.2500134455674957
 40
0.3625277428666271
 40
0.4999872826714505
 40
0.6965319275930101
 40
1.0
 40
1.0
 40
1.0
 40
1.0
 10
127.336976499901
 20
84.14581286213362
 30
0.0
 10
127.3511057768042
 20
84.20480632300692
 30
0.0
 10
127.3805038459981
 20
84.32755102230219
 30
0.0
 10
127.4190217422091
 20
84.52264249935517
 30
0.0
 10
127.4580842686982
 20
84.74810077621217
 30
0.0
 10
127.4983647751004
 20
85.01993928281462
 30
0.0
 10
127.5470234696489
 20
85.38161333934167
 30
0.0
 10
127.6084583091847
 20
85.90450729998163
 30
0.0
 10
127.6538712581939
 20
86.31907454615627
 30
0.0
 10
127.6814333173587
 20
86.57068399271564
 30
0.0
  0
SPLINE
  5
BA
330
1F
100
AcDbEntity
  8
0
  6
Continuous
 62
     7
370
    25
100
AcDbSpline
210
0.0
220
0.0
230
1.0
 70
     8
 71
     3
 72
    13
 73
     9
 74
     0
 42
0.000000001
 43
0.00000001
 40
0.0
 40
0.0
 40
0.0
 40
0.0
 40
0.1484645556296105
 40
0.303852079269983
 40
0.4664576632793263
 40
0.6365388262431836
 40
0.8143205966787732
 40
1.0
 40
1.0
 40
1.0
 40
1.0
 10
127.1814333173587
 20
83.07847043172664
 30
0.0
 10
127.1823049047342
 20
83.12984659672158
 30
0.0
 10
127.1840887219909
 20
83.23499462004895
 30
0.0
 10
127.1977964164796
 20
83.39895462093632
 30
0.0
 10
127.2194131533887
 20
83.57202845971611
 30
0.0
 10
127.2499672324765
 20
83.75461554188782
 30
0.0
 10
127.2886860857084
 20
83.94670795859389
 30
0.0
 10
127.3206481940578
 20
84.07849006496518
 30
0.0
 10
127.336976499901
 20
84.14581286213362
 30
0.0
  0
LINE
  5
BB
330
1F
100
AcDbEntity
  8
0
  6
Continuous
 62
     7
370
    25
100
AcDbLine
 10
127.1814329374
 20
80.5040175424
 30
0.0
 11
127.1814329374
 21
83.0784704399
 31
0.0
  0
LINE
  5
BC
330
1F
100
AcDbEntity
  8
0
  6
Continuous
 62
     7
370
    25
100
AcDbLine
 10
143.1814336973
 20
80.5040175424
 30
0.0
 11
127.1814329374
 21
80.5040175424
 31
0.0
  0
LINE
  5
BD
330
1F
100
AcDbEntity
  8
0
  6
Continuous
 62
     7
370
    25
100
AcDbLine
 10
143.1814336973
 20
83.0784704399
 30
0.0
 11
143.1814336973
 21
80.5040175424
 31
0.0
  0
SPLINE
  5
BE
330
1F
100
AcDbEntity
  8
0
  6
Continuous
 62
     7
370
    25
100
AcDbSpline
210
0.0
220
0.0
230
1.0
 70
     8
 71
     3
 72
    13
 73
     9
 74
     0
 42
0.000000001
 43
0.00000001
 40
0.0
 40
0.0
 40
0.0
 40
0.0
 40
0.1856794033212448
 40
0.3634611737568449
 40
0.5335423367206995
 40
0.6961479207300406
 40
0.8515354443704051
 40
0.9999999999999999
 40
0.9999999999999999
 40
0.9999999999999999
 40
0.9999999999999999
 10
143.0258901348164
 20
84.14581286213362
 30
0.0
 10
143.0422184406595
 20
84.07849006496518
 30
0.0
 10
143.074180549009
 20
83.94670795859388
 30
0.0
 10
143.1128994022409
 20
83.75461554188779
 30
0.0
 10
143.1434534813286
 20
83.57202845971607
 30
0.0
 10
143.1650702182378
 20
83.3989546209363
 30
0.0
 10
143.1787779127265
 20
83.23499462004894
 30
0.0
 10
143.1805617299831
 20
83.12984659672156
 30
0.0
 10
143.1814333173587
 20
83.07847043172664
 30
0.0
  0
SPLINE
  5
BF
330
1F
100
AcDbEntity
  8
0
  6
Continuous
 62
     7
370
    25
100
AcDbSpline
210
0.0
220
0.0
230
1.0
 70
     8
 71
     3
 72
    16
 73
    12
 74
     0
 42
0.000000001
 43
0.00000001
 40
0.0
 40
0.0
 40
0.0
 40
0.0
 40
0.1113707256031287
 40
0.2115306859456111
 40
0.3004797843893181
 40
0.3782180970979205
 40
0.444745959733242
 40
0.5000641419851813
 40
0.7004020768438615
 40
0.8669907153098478
 40
1.0
 40
1.0
 40
1.0
 40
1.0
 10
142.6814333173587
 20
86.57068399271564
 30
0.0
 10
142.6915109963724
 20
86.47838029359943
 30
0.0
 10
142.7106519182166
 20
86.30306434155159
 30
0.0
 10
142.7382976362624
 20
86.05445169350361
 30
0.0
 10
142.7632464247706
 20
85.83426990443206
 30
0.0
 10
142.7855275579001
 20
85.64250329051168
 30
0.0
 10
142.8051066803836
 20
85.47901789021138
 30
0.0
 10
142.8379944004418
 20
85.21616519601685
 30
0.0
 10
142.8858730575178
 20
84.8751048802239
 30
0.0
 10
142.9503864166675
 20
84.47837862702275
 30
0.0
 10
143.0026757838756
 20
84.24806343424164
 30
0.0
 10
143.0258901348164
 20
84.14581286213362
 30
0.0
  0
SPLINE
  5
C0
330
1F
100
AcDbEntity
  8
0
  6
Continuous
 62
     7
370
    25
100
AcDbSpline
210
0.0
220
0.0
230
1.0
 70
     8
 71
     3
 72
    14
 73
    10
 74
     0
 42
0.000000001
 43
0.00000001
 40
0.0
 40
0.0
 40
0.0
 40
0.0
 40
0.0771019312872794
 40
0.1604220744063169
 40
0.2500134455684252
 40
0.3625277428809286
 40
0.4999872826729911
 40
0.6965319256112464
 40
1.0
 40
1.0
 40
1.0
 40
1.0
 10
143.0258901348164
 20
88.99555512329766
 30
0.0
 10
143.0117608579093
 20
88.93656166240942
 30
0.0
 10
142.9823627887111
 20
88.81381696309911
 30
0.0
 10
142.9438448924987
 20
88.61872548604553
 30
0.0
 10
142.9047823660138
 20
88.3932672091924
 30
0.0
 10
142.8645018596202
 20
88.12142870260432
 30
0.0
 10
142.8158431652624
 20
87.75975464768618
 30
0.0
 10
142.7544083258121
 20
87.23686068708614
 30
0.0
 10
142.708995376741
 20
86.82229344091611
 30
0.0
 10
142.6814333173587
 20
86.57068399271564
 30
0.0
  0
SPLINE
  5
C1
330
1F
100
AcDbEntity
  8
0
  6
Continuous
 62
     7
370
    25
100
AcDbSpline
210
0.0
220
0.0
230
1.0
 70
     8
 71
     3
 72
    13
 73
     9
 74
     0
 42
0.000000001
 43
0.00000001
 40
0.0
 40
0.0
 40
0.0
 40
0.0
 40
0.1484645556295969
 40
0.303852079269964
 40
0.4664576632793
 40
0.6365388262431574
 40
0.814320596678755
 40
1.0
 40
1.0
 40
1.0
 40
1.0
 10
143.1814333173587
 20
90.06289755370466
 30
0.0
 10
143.1805617299831
 20
90.01152138870972
 30
0.0
 10
143.1787779127265
 20
89.90637336538236
 30
0.0
 10
143.1650702182378
 20
89.742413364495
 30
0.0
 10
143.1434534813286
 20
89.56933952571522
 30
0.0
 10
143.1128994022409
 20
89.38675244354351
 30
0.0
 10
143.074180549009
 20
89.19466002683741
 30
0.0
 10
143.0422184406595
 20
89.06287792046612
 30
0.0
 10
143.0258901348164
 20
88.99555512329766
 30
0.0
  0
LINE
  5
C2
330
1F
100
AcDbEntity
  8
0
  6
Continuous
 62
     7
370
    25
100
AcDbLine
 10
143.1814336973
 20
91.704017143
 30
0.0
 11
143.1814336973
 21
90.0628975455
 31
0.0
  0
SPLINE
  5
C3
330
1F
100
AcDbEntity
  8
0
  6
Continuous
 62
     7
370
    25
100
AcDbSpline
210
0.0
220
0.0
230
1.0
 70
     8
 71
     3
 72
    13
 73
     9
 74
     0
 42
0.000000001
 43
0.00000001
 40
0.0
 40
0.0
 40
0.0
 40
0.0
 40
0.1257153360577753
 40
0.250986709269415
 40
0.3762164861937409
 40
0.5018074329537138
 40
0.7521854029755236
 40
1.0
 40
1.0
 40
1.0
 40
1.0
 10
142.9630776908031
 20
92.28616005920972
 30
0.0
 10
142.9802719679745
 20
92.26507421935904
 30
0.0
 10
143.0145998008454
 20
92.22297700415628
 30
0.0
 10
143.0581693490805
 20
92.1560642883244
 30
0.0
 10
143.0957771527252
 20
92.08654903667295
 30
0.0
 10
143.1368004303063
 20
91.99021559934717
 30
0.0
 10
143.173328985061
 20
91.86438178380592
 30
0.0
 10
143.1787411557559
 20
91.75728846792278
 30
0.0
 10
143.1814333173587
 20
91.70401732604898
 30
0.0
  0
SPLINE
  5
C4
330
1F
100
AcDbEntity
  8
0
  6
Continuous
 62
     7
370
    25
100
AcDbSpline
210
0.0
220
0.0
230
1.0
 70
     8
 71
     3
 72
    16
 73
    12
 74
     0
 42
0.000000001
 43
0.00000001
 40
0.0
 40
0.0
 40
0.0
 40
0.0
 40
0.065953468215878
 40
0.1324870475734065
 40
0.2006767984510681
 40
0.2715233530653123
 40
0.3459202143274948
 40
0.4246400792148715
 40
0.5083359903947017
 40
0.7405135829365557
 40
1.0
 40
1.0
 40
1.0
 40
1.0
 10
142.1814333173587
 20
92.6373506593823
 30
0.0
 10
142.2049453697857
 20
92.6368986340217
 30
0.0
 10
142.2521762811041
 20
92.6359906073921
 30
0.0
 10
142.3224943673982
 20
92.62875768472975
 30
0.0
 10
142.3921534820709
 20
92.61718972329257
 30
0.0
 10
142.4611298125527
 20
92.60080233759568
 30
0.0
 10
142.5294211866955
 20
92.57962930046392
 30
0.0
 10
142.5970482709358
 20
92.55351210347985
 30
0.0
 10
142.7020497405855
 20
92.50458905514859
 30
0.0
 10
142.8358333881228
 20
92.42040662097388
 30
0.0
 10
142.9191208919757
 20
92.33253580244103
 30
0.0
 10
142.9630776908031
 20
92.28616005920972
 30
0.0
  0
SPLINE
  5
C5
330
1F
100
AcDbEntity
  8
0
  6
Continuous
 62
     7
370
    25
100
AcDbSpline
210
0.0
220
0.0
230
1.0
 70
     8
 71
     3
 72
    13
 73
     9
 74
     0
 42
0.000000001
 43
0.00000001
 40
0.0
 40
0.0
 40
0.0
 40
0.0
 40
0.1759205118839867
 40
0.3391896075500394
 40
0.4921931780779421
 40
0.6738397335242767
 40
0.8395017852842264
 40
1.0
 40
1.0
 40
1.0
 40
1.0
 10
141.8278799267654
 20
92.77403416149525
 30
0.0
 10
141.840978471312
 20
92.76250898409808
 30
0.0
 10
141.866233571679
 20
92.74028746850315
 30
0.0
 10
141.9120766382593
 20
92.70988384920963
 30
0.0
 10
141.9659676196887
 20
92.68168013676078
 30
0.0
 10
142.0293155409521
 20
92.65775420851492
 30
0.0
 10
142.1038697368496
 20
92.6406279615222
 30
0.0
 10
142.1558531278012
 20
92.63843150182699
 30
0.0
 10
142.1814333173587
 20
92.6373506593823
 30
0.0
  0
SPLINE
  5
C6
330
1F
100
AcDbEntity
  8
0
  6
Continuous
 62
     7
370
    25
100
AcDbSpline
210
0.0
220
0.0
230
1.0
 70
     8
 71
     3
 72
    14
 73
    10
 74
     0
 42
0.000000001
 43
0.00000001
 40
0.0
 40
0.0
 40
0.0
 40
0.0
 40
0.0960186407856747
 40
0.1924368822044046
 40
0.2917857869559113
 40
0.3963838799166358
 40
0.5082236945494524
 40
0.7392053714339348
 40
1.0
 40
1.0
 40
1.0
 40
1.0
 10
128.1814333173587
 20
92.63735065938232
 30
0.0
 10
128.1967138243006
 20
92.63774874727697
 30
0.0
 10
128.2273384310472
 20
92.63854657978808
 30
0.0
 10
128.2724633521371
 20
92.64455310231448
 30
0.0
 10
128.316386429497
 20
92.65403076124483
 30
0.0
 10
128.3590826966685
 20
92.66723958898496
 30
0.0
 10
128.4140951758206
 20
92.68940434462662
 30
0.0
 10
128.4777500932786
 20
92.72477545042085
 30
0.0
 10
128.5151520305954
 20
92.75696413303997
 30
0.0
 10
128.534986707952
 20
92.77403416149525
 30
0.0
  0
SPLINE
  5
C7
330
1F
100
AcDbEntity
  8
0
  6
Continuous
 62
     7
370
    25
100
AcDbSpline
210
0.0
220
0.0
230
1.0
 70
     8
 71
     3
 72
    15
 73
    11
 74
     0
 42
0.000000001
 43
0.00000001
 40
0.0
 40
0.0
 40
0.0
 40
0.0
 40
0.1336726496021612
 40
0.2596519444552429
 40
0.3787836139818168
 40
0.4920668899310182
 40
0.6351830136473593
 40
0.7645526196418757
 40
0.8844004131119898
 40
1.0
 40
1.0
 40
1.0
 40
1.0
 10
127.3997889439142
 20
92.28616005920972
 30
0.0
 10
127.4216844343508
 20
92.31040509756117
 30
0.0
 10
127.4642152488712
 20
92.35749978274981
 30
0.0
 10
127.537411107014
 20
92.42050462675837
 30
0.0
 10
127.6151871865836
 20
92.47559686895687
 30
0.0
 10
127.7068256297081
 20
92.52749786562848
 30
0.0
 10
127.8121540108899
 20
92.57382241028353
 30
0.0
 10
127.9327028931971
 20
92.61030024706547
 30
0.0
 10
128.0561223518665
 20
92.63311528839493
 30
0.0
 10
128.1401684804707
 20
92.63595595388094
 30
0.0
 10
128.1814333173587
 20
92.63735065938232
 30
0.0
  0
SPLINE
  5
C8
330
1F
100
AcDbEntity
  8
0
  6
Continuous
 62
     7
370
    25
100
AcDbSpline
210
0.0
220
0.0
230
1.0
 70
     8
 71
     3
 72
    13
 73
     9
 74
     0
 42
0.000000001
 43
0.00000001
 40
0.0
 40
0.0
 40
0.0
 40
0.0
 40
0.123835855545221
 40
0.2479006248871513
 40
0.3726202178325717
 40
0.4984138930967346
 40
0.7490996844582696
 40
1.0
 40
1.0
 40
1.0
 40
1.0
 10
127.1814333173587
 20
91.70401732604898
 30
0.0
 10
127.182104848675
 20
91.7307689908382
 30
0.0
 10
127.1834491526509
 20
91.7843217715641
 30
0.0
 10
127.1943511363013
 20
91.86263847411335
 30
0.0
 10
127.2117128199137
 20
91.93943810514578
 30
0.0
 10
127.2444004613468
 20
92.03896474082045
 30
0.0
 10
127.3002852622713
 20
92.15812786467492
 30
0.0
 10
127.3666115942942
 20
92.2434704942553
 30
0.0
 10
127.3997889439142
 20
92.28616005920972
 30
0.0
  0
LINE
  5
C9
330
1F
100
AcDbEntity
  8
0
  6
Continuous
 62
     7
370
    25
100
AcDbLine
 10
127.1814329374
 20
90.0628975455
 30
0.0
 11
127.1814329374
 21
91.704017143
 31
0.0
  0
LINE
  5
CA
330
1F
100
AcDbEntity
  8
0
  6
Continuous
 62
     7
370
    25
100
AcDbLine
 10
131.439775956
 20
94.0706838251
 30
0.0
 11
129.6814333472
 21
94.0706838251
 31
0.0
  0
SPLINE
  5
CB
330
1F
100
AcDbEntity
  8
0
  6
Continuous
 62
     7
370
    25
100
AcDbSpline
210
0.0
220
0.0
230
1.0
 70
     8
 71
     3
 72
     8
 73
     4
 74
     0
 42
0.000000001
 43
0.00000001
 40
0.0000000000000001
 40
0.0000000000000001
 40
0.0000000000000001
 40
0.0000000000000001
 40
0.127234597098751
 40
0.127234597098751
 40
0.127234597098751
 40
0.127234597098751
 10
131.4397759305847
 20
94.07068399271564
 30
0.0
 10
131.8073425444256
 20
94.07068399271564
 30
0.0
 10
132.1947711113044
 20
94.0384205037027
 30
0.0
 10
132.5833571060178
 20
93.99291240144484
 30
0.0
  0
SPLINE
  5
CC
330
1F
100
AcDbEntity
  8
0
  6
Continuous
 62
     7
370
    25
100
AcDbSpline
210
0.0
220
0.0
230
1.0
 70
    24
 71
     3
 72
    10
 73
     6
 74
     0
 42
0.000000001
 43
0.00000001
 40
0.0
 40
0.0
 40
0.0
 40
0.0
 40
0.5
 40
0.5
 40
1.0
 40
1.0
 40
1.0
 40
1.0
 10
132.5833571060054
 20
93.57068399271564
 30
0.0
 10
132.5833571060054
 20
93.65447984626194
 30
0.0
 10
132.5833571060054
 20
93.7381875269874
 30
0.0
 10
132.5833571060054
 20
93.88503954586426
 30
0.0
 10
132.5833571060054
 20
93.94802936137285
 30
0.0
 10
132.5833571060054
 20
93.9929124014445
 30
0.0
  0
SPLINE
  5
CD
330
1F
100
AcDbEntity
  8
0
  6
Continuous
 62
     7
370
    25
100
AcDbSpline
210
0.0
220
0.0
230
1.0
 70
     8
 71
     3
 72
    14
 73
    10
 74
     0
 42
0.000000001
 43
0.00000001
 40
0.0
 40
0.0
 40
0.0
 40
0.0
 40
0.1488603597576148
 40
0.3150273328471772
 40
0.4987646698883385
 40
0.5951853465608922
 40
0.7494349165377944
 40
0.8793203508289453
 40
1.0
 40
1.0
 40
1.0
 40
1.0
 10
129.3164165325597
 20
93.91238963623798
 30
0.0
 10
129.332894915474
 20
93.89717887882627
 30
0.0
 10
129.3677674700452
 20
93.86498895032013
 30
0.0
 10
129.4269178457753
 20
93.81036491921583
 30
0.0
 10
129.481494369226
 20
93.75965925676658
 30
0.0
 10
129.5360505094249
 20
93.70964261718363
 30
0.0
 10
129.5842162738163
 20
93.6649689216725
 30
0.0
 10
129.6353054814014
 20
93.61639165919264
 30
0.0
 10
129.6664075577624
 20
93.58554207599603
 30
0.0
 10
129.6813872493135
 20
93.57068399271564
 30
0.0
  0
ARC
  5
CE
330
1F
100
AcDbEntity
  8
0
  6
Continuous
 62
     7
370
    25
100
AcDbCircle
 10
129.6814333174
 20
93.5706839927
 30
0.0
 40
0.5
100
AcDbArc
 50
90.0
 51
136.8892083855
  0
LINE
  5
CF
330
1F
100
AcDbEntity
  8
0
  6
Continuous
 62
     7
370
    25
100
AcDbLine
 10
142.6814331497
 20
92.0706839629
 30
0.0
 11
142.6814331497
 21
90.3123413541
 31
0.0
  0
SPLINE
  5
D0
330
1F
100
AcDbEntity
  8
0
  6
Continuous
 62
     7
370
    25
100
AcDbSpline
210
0.0
220
0.0
230
1.0
 70
     8
 71
     3
 72
    11
 73
     7
 74
     0
 42
0.000000001
 43
0.00000001
 40
0.0
 40
0.0
 40
0.0
 40
0.0
 40
0.2815942436633383
 40
0.5420860673673156
 40
0.7815308548566234
 40
1.0
 40
1.0
 40
1.0
 40
1.0
 10
142.6036617260875
 20
89.16876020406008
 30
0.0
 10
142.6157055830821
 20
89.27672453774298
 30
0.0
 10
142.6388907412343
 20
89.4845624548137
 30
0.0
 10
142.6630184252654
 20
89.78305314048237
 30
0.0
 10
142.6784268437085
 20
90.05656337067047
 30
0.0
 10
142.6804622378775
 20
90.2297260616775
 30
0.0
 10
142.6814333173587
 20
90.31234137948958
 30
0.0
  0
SPLINE
  5
D1
330
1F
100
AcDbEntity
  8
0
  6
Continuous
 62
     7
370
    25
100
AcDbSpline
210
0.0
220
0.0
230
1.0
 70
    24
 71
     3
 72
    10
 73
     6
 74
     0
 42
0.000000001
 43
0.00000001
 40
0.0
 40
0.0
 40
0.0
 40
0.0
 40
0.5
 40
0.5
 40
1.0
 40
1.0
 40
1.0
 40
1.0
 10
142.1814333173587
 20
89.16876020406897
 30
0.0
 10
142.265229170905
 20
89.16876020406897
 30
0.0
 10
142.3489368516304
 20
89.16876020406897
 30
0.0
 10
142.4957888705073
 20
89.16876020406897
 30
0.0
 10
142.5587786860159
 20
89.16876020406897
 30
0.0
 10
142.6036617260875
 20
89.16876020406897
 30
0.0
  0
SPLINE
  5
D2
330
1F
100
AcDbEntity
  8
0
  6
Continuous
 62
     7
370
    25
100
AcDbSpline
210
0.0
220
0.0
230
1.0
 70
     8
 71
     3
 72
    14
 73
    10
 74
     0
 42
0.000000001
 43
0.00000001
 40
0.0
 40
0.0
 40
0.0
 40
0.0
 40
0.1488603598374869
 40
0.3150273329269794
 40
0.4987646698885773
 40
0.5951853465829806
 40
0.7494349165379153
 40
0.8793203509512854
 40
1.0
 40
1.0
 40
1.0
 40
1.0
 10
142.523138960881
 20
92.43570077751463
 30
0.0
 10
142.5079282034607
 20
92.41922239459178
 30
0.0
 10
142.4757382749454
 20
92.38434984001245
 30
0.0
 10
142.4211142438376
 20
92.32519946428339
 30
0.0
 10
142.3704085813978
 20
92.27062294083585
 30
0.0
 10
142.3203919418254
 20
92.21606680064538
 30
0.0
 10
142.2757182462983
 20
92.16790103624012
 30
0.0
 10
142.2271409838207
 20
92.11681182865759
 30
0.0
 10
142.196291400624
 20
92.0857097522967
 30
0.0
 10
142.1814333173587
 20
92.07073006076084
 30
0.0
  0
ARC
  5
D3
330
1F
100
AcDbEntity
  8
0
  6
Continuous
 62
     7
370
    25
100
AcDbCircle
 10
142.1814333174
 20
92.0706839927
 30
0.0
 40
0.5
100
AcDbArc
 50
0.0
 51
46.8892083855
  0
SPLINE
  5
D4
330
1F
100
AcDbEntity
  8
0
  6
Continuous
 62
     7
370
    25
100
AcDbSpline
210
0.0
220
0.0
230
1.0
 70
     8
 71
     3
 72
    11
 73
     7
 74
     0
 42
0.000000001
 43
0.00000001
 40
0.0
 40
0.0
 40
0.0
 40
0.0
 40
0.2815942436632133
 40
0.5420860673671491
 40
0.7815308548564992
 40
1.0
 40
1.0
 40
1.0
 40
1.0
 10
127.7592049086298
 20
83.97260778137122
 30
0.0
 10
127.7471610516353
 20
83.86464344768838
 30
0.0
 10
127.7239758934831
 20
83.6568055306177
 30
0.0
 10
127.699848209452
 20
83.35831484494909
 30
0.0
 10
127.6844397910088
 20
83.08480461476096
 30
0.0
 10
127.6824043968399
 20
82.91164192375385
 30
0.0
 10
127.6814333173587
 20
82.82902660594172
 30
0.0
  0
SPLINE
  5
D5
330
1F
100
AcDbEntity
  8
0
  6
Continuous
 62
     7
370
    25
100
AcDbSpline
210
0.0
220
0.0
230
1.0
 70
    24
 71
     3
 72
    10
 73
     6
 74
     0
 42
0.000000001
 43
0.00000001
 40
0.0
 40
0.0
 40
0.0
 40
0.0
 40
0.5
 40
0.5
 40
1.0
 40
1.0
 40
1.0
 40
1.0
 10
128.1814333173587
 20
83.97260778136233
 30
0.0
 10
128.0976374638124
 20
83.97260778136233
 30
0.0
 10
128.0139297830869
 20
83.97260778136233
 30
0.0
 10
127.8670777642101
 20
83.97260778136233
 30
0.0
 10
127.8040879487015
 20
83.97260778136233
 30
0.0
 10
127.7592049086298
 20
83.97260778136233
 30
0.0
  0
LINE
  5
D6
330
1F
100
AcDbEntity
  8
0
  6
Continuous
 62
     7
370
    25
100
AcDbLine
 10
127.681433485
 20
81.0706840225
 30
0.0
 11
128.1814331013
 21
81.0706840225
 31
0.0
  0
LINE
  5
D7
330
1F
100
AcDbEntity
  8
0
  6
Continuous
 62
     7
370
    25
100
AcDbLine
 10
127.681433485
 20
81.0706840225
 30
0.0
 11
127.681433485
 21
82.8290266313
 31
0.0
  0
SPLINE
  5
D8
330
1F
100
AcDbEntity
  8
0
  6
Continuous
 62
     7
370
    25
100
AcDbSpline
210
0.0
220
0.0
230
1.0
 70
     8
 71
     3
 72
    14
 73
    10
 74
     0
 42
0.000000001
 43
0.00000001
 40
0.0
 40
0.0
 40
0.0
 40
0.0
 40
0.096021547728022
 40
0.1924412985067401
 40
0.2917902771809186
 40
0.396387075314727
 40
0.508224361229722
 40
0.7392002680930558
 40
1.0
 40
1.0
 40
1.0
 40
1.0
 10
141.2480999840253
 20
93.57068399271564
 30
0.0
 10
141.248498057949
 20
93.55540297823185
 30
0.0
 10
141.2492958566158
 20
93.52477757862789
 30
0.0
 10
141.2553022305755
 20
93.47965171005896
 30
0.0
 10
141.2647797016054
 20
93.43572824987346
 30
0.0
 10
141.2779882895101
 20
93.39303219537346
 30
0.0
 10
141.3001526681007
 20
93.33802072290388
 30
0.0
 10
141.3355242136897
 20
93.27436715268972
 30
0.0
 10
141.3677130297441
 20
93.23696552846313
 30
0.0
 10
141.3847834861383
 20
93.21713060212238
 30
0.0
  0
SPLINE
  5
D9
330
1F
100
AcDbEntity
  8
0
  6
Continuous
 62
     7
370
    25
100
AcDbSpline
210
0.0
220
0.0
230
1.0
 70
     8
 71
     3
 72
    15
 73
    11
 74
     0
 42
0.000000001
 43
0.00000001
 40
0.0
 40
0.0
 40
0.0
 40
0.0
 40
0.1307681764282987
 40
0.2557775964014054
 40
0.375854271439311
 40
0.4919295877812418
 40
0.6226338248371327
 40
0.7437286717850853
 40
0.8761291708518495
 40
1.0
 40
1.0
 40
1.0
 40
1.0
 10
140.8969093838528
 20
94.35232836616011
 30
0.0
 10
140.9206087095233
 20
94.33088250747971
 30
0.0
 10
140.9669636922256
 20
94.28893522079375
 30
0.0
 10
141.0294121787014
 20
94.21609494856195
 30
0.0
 10
141.0848934307091
 20
94.13766797796957
 30
0.0
 10
141.1359214224989
 20
94.04889375609842
 30
0.0
 10
141.1807397482563
 20
93.94951882090483
 30
0.0
 10
141.2173094661945
 20
93.83263376118836
 30
0.0
 10
141.2428642351247
 20
93.70630086574369
 30
0.0
 10
141.2463938944876
 20
93.61487528847982
 30
0.0
 10
141.2480999840253
 20
93.57068399271564
 30
0.0
  0
SPLINE
  5
DA
330
1F
100
AcDbEntity
  8
0
  6
Continuous
 62
     7
370
    25
100
AcDbSpline
210
0.0
220
0.0
230
1.0
 70
     8
 71
     3
 72
    13
 73
     9
 74
     0
 42
0.000000001
 43
0.00000001
 40
0.0
 40
0.0
 40
0.0
 40
0.0
 40
0.1238371160455669
 40
0.247902303023111
 40
0.3726214666345126
 40
0.4984138700895143
 40
0.7490979627897995
 40
1.0
 40
1.0
 40
1.0
 40
1.0
 10
140.314766650692
 20
94.57068399271564
 30
0.0
 10
140.3415185911196
 20
94.57001247512336
 30
0.0
 10
140.3950717410484
 20
94.56866820320423
 30
0.0
 10
140.4733887123483
 20
94.5577663931782
 30
0.0
 10
140.5501880936744
 20
94.54040495575603
 30
0.0
 10
140.6497140817771
 20
94.50771767038894
 30
0.0
 10
140.7688769300765
 20
94.45183254290903
 30
0.0
 10
140.8542195385036
 20
94.38550603160137
 30
0.0
 10
140.8969093838528
 20
94.35232836616011
 30
0.0
  0
LINE
  5
DB
330
1F
100
AcDbEntity
  8
0
  6
Continuous
 62
     7
370
    25
100
AcDbLine
 10
138.6736468702
 20
94.5706843727
 30
0.0
 11
140.3147664677
 21
94.5706843727
 31
0.0
  0
SPLINE
  5
DC
330
1F
100
AcDbEntity
  8
0
  6
Continuous
 62
     7
370
    25
100
AcDbSpline
210
0.0
220
0.0
230
1.0
 70
     8
 71
     3
 72
    13
 73
     9
 74
     0
 42
0.000000001
 43
0.00000001
 40
0.0
 40
0.0
 40
0.0
 40
0.0
 40
0.1856794033212454
 40
0.3634611737568486
 40
0.5335423367207065
 40
0.6961479207300426
 40
0.8515354443704023
 40
1.0
 40
1.0
 40
1.0
 40
1.0
 10
137.6063044479407
 20
94.41514081017334
 30
0.0
 10
137.6736272451091
 20
94.43146911601649
 30
0.0
 10
137.8054093514804
 20
94.46343122436593
 30
0.0
 10
137.9975017681866
 20
94.50215007759789
 30
0.0
 10
138.1800888503583
 20
94.53270415668558
 30
0.0
 10
138.353162689138
 20
94.55432089359472
 30
0.0
 10
138.5171226900254
 20
94.56802858808348
 30
0.0
 10
138.6222707133527
 20
94.5698124053401
 30
0.0
 10
138.6736468783477
 20
94.57068399271564
 30
0.0
  0
SPLINE
  5
DD
330
1F
100
AcDbEntity
  8
0
  6
Continuous
 62
     7
370
    25
100
AcDbSpline
210
0.0
220
0.0
230
1.0
 70
     8
 71
     3
 72
    17
 73
    13
 74
     0
 42
0.000000001
 43
0.00000001
 40
0.0
 40
0.0
 40
0.0
 40
0.0
 40
0.1130667887614413
 40
0.214247189583317
 40
0.3035410227131065
 40
0.3809482842653933
 40
0.4464692356459874
 40
0.5001045920517729
 40
0.6375226522804812
 40
0.750042112035746
 40
0.8820380142736961
 40
0.9999999999999999
 40
0.9999999999999999
 40
0.9999999999999999
 40
0.9999999999999999
 10
135.1814333173587
 20
94.07068399271564
 30
0.0
 10
135.2751507886993
 20
94.08091361883095
 30
0.0
 10
135.4527334818097
 20
94.10029745974214
 30
0.0
 10
135.7038928029206
 20
94.12819170431338
 30
0.0
 10
135.924931524564
 20
94.15318451200439
 30
0.0
 10
136.1158785272496
 20
94.17531390951159
 30
0.0
 10
136.2768949747079
 20
94.19451373619121
 30
0.0
 10
136.486217081026
 20
94.22069550144847
 30
0.0
 10
136.7322000296841
 20
94.25367704303629
 30
0.0
 10
137.0378502009564
 20
94.29927131751577
 30
0.0
 10
137.3239872498081
 20
94.34917997422474
 30
0.0
 10
137.5157882794001
 20
94.39399253375484
 30
0.0
 10
137.6063044479407
 20
94.41514081017334
 30
0.0
  0
SPLINE
  5
DE
330
1F
100
AcDbEntity
  8
0
  6
Continuous
 62
     7
370
    25
100
AcDbSpline
210
0.0
220
0.0
230
1.0
 70
     8
 71
     3
 72
    14
 73
    10
 74
     0
 42
0.000000001
 43
0.00000001
 40
0.0
 40
0.0
 40
0.0
 40
0.0
 40
0.0771019312304826
 40
0.1604220744887596
 40
0.2500134459863516
 40
0.3625277438465788
 40
0.4999872830472304
 40
0.6965319249886696
 40
1.0
 40
1.0
 40
1.0
 40
1.0
 10
132.7565621867767
 20
94.41514081017334
 30
0.0
 10
132.8155556476225
 20
94.40101153328249
 30
0.0
 10
132.938300346998
 20
94.3716134640813
 30
0.0
 10
133.1333918243867
 20
94.33309556785325
 30
0.0
 10
133.3588501020611
 20
94.29403304128107
 30
0.0
 10
133.6306886088956
 20
94.25375253482471
 30
0.0
 10
133.9923626629834
 20
94.20509384055441
 30
0.0
 10
134.515256622788
 20
94.14365900124919
 30
0.0
 10
134.9298238686442
 20
94.09824605217631
 30
0.0
 10
135.1814333173587
 20
94.07068399271564
 30
0.0
  0
SPLINE
  5
DF
330
1F
100
AcDbEntity
  8
0
  6
Continuous
 62
     7
370
    25
100
AcDbSpline
210
0.0
220
0.0
230
1.0
 70
     8
 71
     3
 72
    13
 73
     9
 74
     0
 42
0.000000001
 43
0.00000001
 40
0.0
 40
0.0
 40
0.0
 40
0.0
 40
0.1484645556295968
 40
0.3038520792699616
 40
0.4664576632792965
 40
0.6365388262431637
 40
0.8143205966787558
 40
1.0
 40
1.0
 40
1.0
 40
1.0
 10
131.6892197563697
 20
94.57068399271564
 30
0.0
 10
131.7405959213646
 20
94.5698124053401
 30
0.0
 10
131.845743944692
 20
94.56802858808348
 30
0.0
 10
132.0097039455793
 20
94.55432089359472
 30
0.0
 10
132.1827777843591
 20
94.53270415668558
 30
0.0
 10
132.3653648665308
 20
94.50215007759788
 30
0.0
 10
132.5574572832369
 20
94.46343122436593
 30
0.0
 10
132.6892393896082
 20
94.43146911601649
 30
0.0
 10
132.7565621867767
 20
94.41514081017334
 30
0.0
  0
LINE
  5
E0
330
1F
100
AcDbEntity
  8
0
  6
Continuous
 62
     7
370
    25
100
AcDbLine
 10
130.0481001671
 20
94.5706843727
 30
0.0
 11
131.6892197645
 21
94.5706843727
 31
0.0
  0
SPLINE
  5
E1
330
1F
100
AcDbEntity
  8
0
  6
Continuous
 62
     7
370
    25
100
AcDbSpline
210
0.0
220
0.0
230
1.0
 70
     8
 71
     3
 72
    13
 73
     9
 74
     0
 42
0.000000001
 43
0.00000001
 40
0.0
 40
0.0
 40
0.0
 40
0.0
 40
0.1257153360429536
 40
0.2509867092496626
 40
0.3762164861788906
 40
0.5018074329534182
 40
0.7521854029562103
 40
1.0
 40
1.0
 40
1.0
 40
1.0
 10
129.4659572508646
 20
94.35232836616011
 30
0.0
 10
129.4870430907128
 20
94.36952264332932
 30
0.0
 10
129.5291403059123
 20
94.40385047619729
 30
0.0
 10
129.5960530217415
 20
94.44742002443009
 30
0.0
 10
129.6655682733954
 20
94.48502782807631
 30
0.0
 10
129.7619017107203
 20
94.52605110566216
 30
0.0
 10
129.8877355262642
 20
94.56257966042023
 30
0.0
 10
129.9948288421474
 20
94.56799183111349
 30
0.0
 10
130.0480999840254
 20
94.57068399271564
 30
0.0
  0
SPLINE
  5
E2
330
1F
100
AcDbEntity
  8
0
  6
Continuous
 62
     7
370
    25
100
AcDbSpline
210
0.0
220
0.0
230
1.0
 70
     8
 71
     3
 72
    16
 73
    12
 74
     0
 42
0.000000001
 43
0.00000001
 40
0.0
 40
0.0
 40
0.0
 40
0.0
 40
0.0659534682181705
 40
0.1324870475771656
 40
0.2006767984554997
 40
0.2715233530696834
 40
0.3459202143311513
 40
0.4246400792172604
 40
0.5083359903953556
 40
0.740513582944488
 40
1.0
 40
1.0
 40
1.0
 40
1.0
 10
129.114766650692
 20
93.57068399271564
 30
0.0
 10
129.1152186760526
 20
93.5941960451435
 30
0.0
 10
129.1161267026821
 20
93.64142695646332
 30
0.0
 10
129.1233596253444
 20
93.71174504275916
 30
0.0
 10
129.1349275867815
 20
93.78140415743272
 30
0.0
 10
129.1513149724784
 20
93.85038048791455
 30
0.0
 10
129.1724880096102
 20
93.91867186205658
 30
0.0
 10
129.1986052065943
 20
93.98629894629526
 30
0.0
 10
129.2475282549275
 20
94.0913004159439
 30
0.0
 10
129.3317106891022
 20
94.22508406348
 30
0.0
 10
129.4195815076348
 20
94.30837156733354
 30
0.0
 10
129.4659572508646
 20
94.35232836616011
 30
0.0
  0
SPLINE
  5
E3
330
1F
100
AcDbEntity
  8
0
  6
Continuous
 62
     7
370
    25
100
AcDbSpline
210
0.0
220
0.0
230
1.0
 70
     8
 71
     3
 72
    13
 73
     9
 74
     0
 42
0.000000001
 43
0.00000001
 40
0.0
 40
0.0
 40
0.0
 40
0.0
 40
0.1759205118839894
 40
0.33918960755005
 40
0.4921931780779566
 40
0.6738397335242725
 40
0.8395017852842178
 40
1.0
 40
1.0
 40
1.0
 40
1.0
 10
128.9780831485791
 20
93.21713060212238
 30
0.0
 10
128.9896083259763
 20
93.23022914666896
 30
0.0
 10
129.0118298415712
 20
93.25548424703592
 30
0.0
 10
129.0422334608647
 20
93.30132731361626
 30
0.0
 10
129.0704371733136
 20
93.35521829504572
 30
0.0
 10
129.0943631015594
 20
93.41856621630906
 30
0.0
 10
129.1114893485521
 20
93.49312041220662
 30
0.0
 10
129.1136858082473
 20
93.5451038031581
 30
0.0
 10
129.114766650692
 20
93.57068399271564
 30
0.0
  0
SPLINE
  5
E4
330
1F
100
AcDbEntity
  8
0
  6
Continuous
 62
     7
370
    25
100
AcDbSpline
210
0.0
220
0.0
230
1.0
 70
    24
 71
     3
 72
    10
 73
     6
 74
     0
 42
0.000000001
 43
0.00000001
 40
0.0
 40
0.0
 40
0.0
 40
0.0
 40
0.5
 40
0.5
 40
1.0
 40
1.0
 40
1.0
 40
1.0
 10
137.7795095287031
 20
93.9929124014445
 30
0.0
 10
137.7795095287031
 20
93.94802936137285
 30
0.0
 10
137.7795095287031
 20
93.88503954586426
 30
0.0
 10
137.7795095287031
 20
93.7381875269874
 30
0.0
 10
137.7795095287031
 20
93.65447984626194
 30
0.0
 10
137.7795095287031
 20
93.57068399271564
 30
0.0
  0
SPLINE
  5
E5
330
1F
100
AcDbEntity
  8
0
  6
Continuous
 62
     7
370
    25
100
AcDbSpline
210
0.0
220
0.0
230
1.0
 70
     8
 71
     3
 72
     8
 73
     4
 74
     0
 42
0.000000001
 43
0.00000001
 40
-0.0000000000002226
 40
-0.0000000000002226
 40
-0.0000000000002226
 40
-0.0000000000002226
 40
0.127234597098529
 40
0.127234597098529
 40
0.127234597098529
 40
0.127234597098529
 10
137.7795095286995
 20
93.99291240144484
 30
0.0
 10
138.168095523413
 20
94.0384205037027
 30
0.0
 10
138.5555240902917
 20
94.07068399271564
 30
0.0
 10
138.9230907041326
 20
94.07068399271564
 30
0.0
  0
LINE
  5
E6
330
1F
100
AcDbEntity
  8
0
  6
Continuous
 62
     7
370
    25
100
AcDbLine
 10
140.6814332876
 20
94.0706838251
 30
0.0
 11
138.9230906787
 21
94.0706838251
 31
0.0
  0
ARC
  5
E7
330
1F
100
AcDbEntity
  8
0
  6
Continuous
 62
     7
370
    25
100
AcDbCircle
 10
140.6814333174
 20
93.5706839927
 30
0.0
 40
0.5
100
AcDbArc
 50
43.1107916145
 51
90.0
  0
SPLINE
  5
E8
330
1F
100
AcDbEntity
  8
0
  6
Continuous
 62
     7
370
    25
100
AcDbSpline
210
0.0
220
0.0
230
1.0
 70
     8
 71
     3
 72
    13
 73
     9
 74
     0
 42
0.000000001
 43
0.00000001
 40
0.0
 40
0.0
 40
0.0
 40
0.0
 40
0.1206933106363776
 40
0.2506349558809258
 40
0.4049363551860728
 40
0.501375099440844
 40
0.7702864432344702
 40
1.0
 40
1.0
 40
1.0
 40
1.0
 10
140.6814793854039
 20
93.57068399271564
 30
0.0
 10
140.6964569349517
 20
93.58553977100746
 30
0.0
 10
140.7275597148017
 20
93.61638967741166
 30
0.0
 10
140.7786445454077
 20
93.6649648288801
 30
0.0
 10
140.8268337659088
 20
93.70965451116183
 30
0.0
 10
140.8919967788055
 20
93.76941822054924
 30
0.0
 10
140.9649211663774
 20
93.83721023372414
 30
0.0
 10
141.0207363675209
 20
93.88867850609887
 30
0.0
 10
141.0464501021576
 20
93.91238963623802
 30
0.0
  0
SPLINE
  5
E9
330
1F
100
AcDbEntity
  8
0
  6
Continuous
 62
     7
370
    25
100
AcDbSpline
210
0.0
220
0.0
230
1.0
 70
    24
 71
     3
 72
    10
 73
     6
 74
     0
 42
0.000000001
 43
0.00000001
 40
0.0
 40
0.0
 40
0.0
 40
0.0
 40
0.5
 40
0.5
 40
1.0
 40
1.0
 40
1.0
 40
1.0
 10
127.7592049086299
 20
89.16876020406008
 30
0.0
 10
127.8040879487015
 20
89.16876020406008
 30
0.0
 10
127.8670777642101
 20
89.16876020406008
 30
0.0
 10
128.0139297830869
 20
89.16876020406008
 30
0.0
 10
128.0976374638124
 20
89.16876020406008
 30
0.0
 10
128.1814333173587
 20
89.16876020406008
 30
0.0
  0
SPLINE
  5
EA
330
1F
100
AcDbEntity
  8
0
  6
Continuous
 62
     7
370
    25
100
AcDbSpline
210
0.0
220
0.0
230
1.0
 70
     8
 71
     3
 72
    12
 73
     8
 74
     0
 42
0.000000001
 43
0.00000001
 40
0.0
 40
0.0
 40
0.0
 40
0.0
 40
0.1731008601133525
 40
0.359615337634814
 40
0.5595829448172194
 40
0.773035722531595
 40
1.0
 40
1.0
 40
1.0
 40
1.0
 10
127.6814333173587
 20
90.31234137948958
 30
0.0
 10
127.6820471450473
 20
90.24690849524414
 30
0.0
 10
127.6833223660448
 20
90.11097232054843
 30
0.0
 10
127.693005671352
 20
89.89826044768871
 30
0.0
 10
127.708560954472
 20
89.66951541802091
 30
0.0
 10
127.730419854933
 20
89.42466449149107
 30
0.0
 10
127.7494156343506
 20
89.25578860724767
 30
0.0
 10
127.7592049086299
 20
89.16876020406008
 30
0.0
  0
LINE
  5
EB
330
1F
100
AcDbEntity
  8
0
  6
Continuous
 62
     7
370
    25
100
AcDbLine
 10
127.681433485
 20
90.3123413541
 30
0.0
 11
127.681433485
 21
92.0706839629
 31
0.0
  0
ARC
  5
EC
330
1F
100
AcDbEntity
  8
0
  6
Continuous
 62
     7
370
    25
100
AcDbCircle
 10
128.1814333174
 20
92.0706839927
 30
0.0
 40
0.5
100
AcDbArc
 50
133.1107916145
 51
180.0
  0
SPLINE
  5
ED
330
1F
100
AcDbEntity
  8
0
  6
Continuous
 62
     7
370
    25
100
AcDbSpline
210
0.0
220
0.0
230
1.0
 70
     8
 71
     3
 72
    13
 73
     9
 74
     0
 42
0.000000001
 43
0.00000001
 40
0.0
 40
0.0
 40
0.0
 40
0.0
 40
0.1206933098378984
 40
0.2506349558807637
 40
0.4049363563536673
 40
0.5013750994399903
 40
0.7702864430522399
 40
1.0
 40
1.0
 40
1.0
 40
1.0
 10
128.1814333173587
 20
92.07073006076084
 30
0.0
 10
128.1665775391668
 20
92.08570761021099
 30
0.0
 10
128.135727632766
 20
92.1168103900642
 30
0.0
 10
128.0871524811489
 20
92.16789522081197
 30
0.0
 10
128.0424627987636
 20
92.21608444140116
 30
0.0
 10
127.9826990894218
 20
92.28124745429082
 30
0.0
 10
127.9149070763742
 20
92.35417184171797
 30
0.0
 10
127.8634388039959
 20
92.40998704285875
 30
0.0
 10
127.8397276738363
 20
92.43570077751458
 30
0.0
  0
SPLINE
  5
EE
330
1F
100
AcDbEntity
  8
0
  6
Continuous
 62
     7
370
    25
100
AcDbSpline
210
0.0
220
0.0
230
1.0
 70
    24
 71
     3
 72
    10
 73
     6
 74
     0
 42
0.000000001
 43
0.00000001
 40
0.0
 40
0.0
 40
0.0
 40
0.0
 40
0.5
 40
0.5
 40
1.0
 40
1.0
 40
1.0
 40
1.0
 10
142.6036617260875
 20
83.97260778137122
 30
0.0
 10
142.5587786860159
 20
83.97260778137122
 30
0.0
 10
142.4957888705073
 20
83.97260778137122
 30
0.0
 10
142.3489368516304
 20
83.97260778137122
 30
0.0
 10
142.2652291709049
 20
83.97260778137122
 30
0.0
 10
142.1814333173587
 20
83.97260778137122
 30
0.0
  0
SPLINE
  5
EF
330
1F
100
AcDbEntity
  8
0
  6
Continuous
 62
     7
370
    25
100
AcDbSpline
210
0.0
220
0.0
230
1.0
 70
     8
 71
     3
 72
    12
 73
     8
 74
     0
 42
0.000000001
 43
0.00000001
 40
0.0
 40
0.0
 40
0.0
 40
0.0
 40
0.1731008601132462
 40
0.3596153376346544
 40
0.5595829448170604
 40
0.7730357225314888
 40
1.0
 40
1.0
 40
1.0
 40
1.0
 10
142.6814333173587
 20
82.82902660594172
 30
0.0
 10
142.68081948967
 20
82.89445949018712
 30
0.0
 10
142.6795442686725
 20
83.03039566488276
 30
0.0
 10
142.6698609633654
 20
83.24310753774242
 30
0.0
 10
142.6543056802454
 20
83.47185256741022
 30
0.0
 10
142.6324467797843
 20
83.71670349394013
 30
0.0
 10
142.6134510003668
 20
83.88557937818358
 30
0.0
 10
142.6036617260875
 20
83.97260778137122
 30
0.0
  0
LINE
  5
F0
330
1F
100
AcDbEntity
  8
0
  6
Continuous
 62
     7
370
    25
100
AcDbLine
 10
142.6814331497
 20
82.8290266313
 30
0.0
 11
142.6814331497
 21
81.0706840225
 31
0.0
  0
LINE
  5
F1
330
1F
100
AcDbEntity
  8
0
  6
Continuous
 62
     7
370
    25
100
AcDbLine
 10
142.1814335334
 20
81.0706840225
 30
0.0
 11
142.6814331497
 21
81.0706840225
 31
0.0
  0
SPLINE
  5
F2
330
1F
100
AcDbEntity
  8
0
  6
Continuous
 62
     7
370
    25
100
AcDbSpline
210
0.0
220
0.0
230
1.0
 70
     8
 71
     3
 72
    12
 73
     8
 74
     0
 42
0.000000001
 43
0.00000001
 40
-0.267217449764123
 40
-0.267217449764123
 40
-0.267217449764123
 40
-0.267217449764123
 40
-0.160856558527433
 40
-0.107676112909088
 40
-0.001315221672398
 40
-0.001315221672398
 40
0.0
 40
0.0
 40
0.0
 40
0.0
 10
127.7592049086298
 20
83.9726077813801
 30
0.0
 10
127.7972470954623
 20
84.34668825195867
 30
0.0
 10
127.791751223301
 20
84.86638941743504
 30
0.0
 10
127.7498546437741
 20
85.71863458606542
 30
0.0
 10
127.7087284860179
 20
86.22284602827786
 30
0.0
 10
127.6820811085045
 20
86.56238542486487
 30
0.0
 10
127.6817576068371
 20
86.56653519337475
 30
0.0
 10
127.6814333173587
 20
86.57068399271564
 30
0.0
  0
SPLINE
  5
F3
330
1F
100
AcDbEntity
  8
0
  6
Continuous
 62
     7
370
    25
100
AcDbSpline
210
0.0
220
0.0
230
1.0
 70
     8
 71
     3
 72
    12
 73
     8
 74
     0
 42
0.000000001
 43
0.00000001
 40
0.0
 40
0.0
 40
0.0
 40
0.0
 40
0.106360891224351
 40
0.159541336836527
 40
0.265902228060878
 40
0.265902228060878
 40
0.267217449764311
 40
0.267217449764311
 40
0.267217449764311
 40
0.267217449764311
 10
142.6036617260875
 20
89.1687602040512
 30
0.0
 10
142.5656195392595
 20
88.79467973351603
 30
0.0
 10
142.5711154114126
 20
88.27497856809637
 30
0.0
 10
142.6130119909294
 20
87.42273339956284
 30
0.0
 10
142.6541381486734
 20
86.91852195740827
 30
0.0
 10
142.6807855261977
 20
86.57898256076207
 30
0.0
 10
142.6811090278727
 20
86.57483279215353
 30
0.0
 10
142.6814333173587
 20
86.57068399271564
 30
0.0
  0
SPLINE
  5
F4
330
1F
100
AcDbEntity
  8
0
  6
Continuous
 62
     7
370
    25
100
AcDbSpline
210
0.0
220
0.0
230
1.0
 70
     8
 71
     3
 72
    12
 73
     8
 74
     0
 42
0.000000001
 43
0.00000001
 40
0.0
 40
0.0
 40
0.0
 40
0.0
 40
0.106360889128132
 40
0.159541333692198
 40
0.26590222282033
 40
0.26590222282033
 40
0.267217449923961
 40
0.267217449923961
 40
0.267217449923961
 40
0.267217449923961
 10
132.5833571060232
 20
93.99291240144449
 30
0.0
 10
132.9574375691857
 20
93.9548702153662
 30
0.0
 10
133.4771387266158
 20
93.96036608656522
 30
0.0
 10
134.3293838758903
 20
94.00226266413243
 30
0.0
 10
134.8335953081867
 20
94.04338882055787
 30
0.0
 10
135.1731347152392
 20
94.07003619889483
 30
0.0
 10
135.1772845008858
 20
94.0703597018984
 30
0.0
 10
135.1814333173587
 20
94.07068399271564
 30
0.0
  0
SPLINE
  5
F5
330
1F
100
AcDbEntity
  8
0
  6
Continuous
 62
     7
370
    25
100
AcDbSpline
210
0.0
220
0.0
230
1.0
 70
     8
 71
     3
 72
     8
 73
     4
 74
     0
 42
0.000000001
 43
0.00000001
 40
0.0
 40
0.0
 40
0.0
 40
0.0
 40
1.0
 40
1.0
 40
1.0
 40
1.0
 10
127.336976499901
 20
84.14581286213362
 30
0.0
 10
127.5069803797367
 20
84.11077213721536
 30
0.0
 10
127.6737848420892
 20
84.04234618629748
 30
0.0
 10
127.7592049086298
 20
83.9726077813801
 30
0.0
  0
SPLINE
  5
F6
330
1F
100
AcDbEntity
  8
0
  6
Continuous
 62
     7
370
    25
100
AcDbSpline
210
0.0
220
0.0
230
1.0
 70
     8
 71
     3
 72
     9
 73
     5
 74
     0
 42
0.000000001
 43
0.00000001
 40
0.0
 40
0.0
 40
0.0
 40
0.0
 40
0.571428571428571
 40
1.0
 40
1.0
 40
1.0
 40
1.0
 10
143.0258901348164
 20
88.99555512329766
 30
0.0
 10
142.9287450606245
 20
89.01557839467954
 30
0.0
 10
142.7590837219069
 20
89.06909671215486
 30
0.0
 10
142.6402703260335
 20
89.13887231622945
 30
0.0
 10
142.6036617260875
 20
89.1687602040512
 30
0.0
  0
SPLINE
  5
F7
330
1F
100
AcDbEntity
  8
0
  6
Continuous
 62
     7
370
    25
100
AcDbSpline
210
0.0
220
0.0
230
1.0
 70
     8
 71
     3
 72
     9
 73
     5
 74
     0
 42
0.000000001
 43
0.00000001
 40
0.0
 40
0.0
 40
0.0
 40
0.0
 40
0.5
 40
1.0
 40
1.0
 40
1.0
 40
1.0
 10
143.0258901348175
 20
84.14581286212908
 30
0.0
 10
142.9408881948994
 20
84.12829249966954
 30
0.0
 10
142.7709942766507
 20
84.07717028068708
 30
0.0
 10
142.6463717593582
 20
84.00747698383194
 30
0.0
 10
142.6036617260881
 20
83.97260778137289
 30
0.0
  0
SPLINE
  5
F8
330
1F
100
AcDbEntity
  8
0
  6
Continuous
 62
     7
370
    25
100
AcDbSpline
210
0.0
220
0.0
230
1.0
 70
     8
 71
     3
 72
    12
 73
     8
 74
     0
 42
0.000000001
 43
0.00000001
 40
-0.0013152216724614
 40
-0.0013152216724614
 40
-0.0013152216724614
 40
-0.0013152216724614
 40
0.0
 40
0.0
 40
0.159541336854997
 40
0.212721782473329
 40
0.265902228091661
 40
0.265902228091661
 40
0.265902228091661
 40
0.265902228091661
 10
142.6814333173587
 20
86.57068399271564
 30
0.0
 10
142.6811090278803
 20
86.56653519337546
 30
0.0
 10
142.6807837081498
 20
86.56238764677157
 30
0.0
 10
142.6413039581014
 20
86.05475343358879
 30
0.0
 10
142.5862360434259
 20
85.38212353321411
 30
0.0
 10
142.570423735291
 20
84.51760745643334
 30
0.0
 10
142.5846406326713
 20
84.15964801666935
 30
0.0
 10
142.6036617260875
 20
83.9726077813801
 30
0.0
  0
SPLINE
  5
F9
330
1F
100
AcDbEntity
  8
0
  6
Continuous
 62
     7
370
    25
100
AcDbSpline
210
0.0
220
0.0
230
1.0
 70
     8
 71
     3
 72
    12
 73
     8
 74
     0
 42
0.000000001
 43
0.00000001
 40
-0.265902228061387
 40
-0.265902228061387
 40
-0.265902228061387
 40
-0.265902228061387
 40
-0.2645870063584663
 40
-0.2645870063584663
 40
-0.1582261151339113
 40
-0.1050456695216343
 40
0.0013152217029208
 40
0.0013152217029208
 40
0.0013152217029208
 40
0.0013152217029208
 10
127.6814333173587
 20
86.57068399271564
 30
0.0
 10
127.6817576068445
 20
86.5748327921522
 30
0.0
 10
127.6820811085193
 20
86.57898256075886
 30
0.0
 10
127.7087284860457
 20
86.91852195740738
 30
0.0
 10
127.7498546437882
 20
87.42273339956027
 30
0.0
 10
127.7917512233055
 20
88.27497856809595
 30
0.0
 10
127.797247095458
 20
88.79467973351531
 30
0.0
 10
127.7592049086299
 20
89.1687602040512
 30
0.0
  0
SPLINE
  5
FA
330
1F
100
AcDbEntity
  8
0
  6
Continuous
 62
     7
370
    25
100
AcDbSpline
210
0.0
220
0.0
230
1.0
 70
     8
 71
     3
 72
     9
 73
     5
 74
     0
 42
0.000000001
 43
0.00000001
 40
0.0
 40
0.0
 40
0.0
 40
0.0
 40
0.5
 40
1.0
 40
1.0
 40
1.0
 40
1.0
 10
127.3369764999003
 20
88.99555512330046
 30
0.0
 10
127.4219784398183
 20
89.01307548576001
 30
0.0
 10
127.591872358067
 20
89.06419770474241
 30
0.0
 10
127.7164948753593
 20
89.1338910015975
 30
0.0
 10
127.7592049086295
 20
89.16876020405653
 30
0.0
  0
SPLINE
  5
FB
330
1F
100
AcDbEntity
  8
0
  6
Continuous
 62
     7
370
    25
100
AcDbSpline
210
0.0
220
0.0
230
1.0
 70
     8
 71
     3
 72
     9
 73
     5
 74
     0
 42
0.000000001
 43
0.00000001
 40
0.0
 40
0.0
 40
0.0
 40
0.0
 40
0.571428571428571
 40
1.0
 40
1.0
 40
1.0
 40
1.0
 10
132.7565621867767
 20
94.41514081017334
 30
0.0
 10
132.7365389153948
 20
94.31799573598151
 30
0.0
 10
132.6830205979195
 20
94.14833439726385
 30
0.0
 10
132.6132449938449
 20
94.02952100139048
 30
0.0
 10
132.5833571060232
 20
93.99291240144449
 30
0.0
  0
SPLINE
  5
FC
330
1F
100
AcDbEntity
  8
0
  6
Continuous
 62
     7
370
    25
100
AcDbSpline
210
0.0
220
0.0
230
1.0
 70
     8
 71
     3
 72
    12
 73
     8
 74
     0
 42
0.000000001
 43
0.00000001
 40
-0.0013152270871416
 40
-0.0013152270871416
 40
-0.0013152270871416
 40
-0.0013152270871416
 40
0.0
 40
0.0
 40
0.106360889134687
 40
0.159541333702031
 40
0.265902222836718
 40
0.265902222836718
 40
0.265902222836718
 40
0.265902222836718
 10
135.1814333173587
 20
94.07068399271564
 30
0.0
 10
135.1855821337798
 20
94.07035970190245
 30
0.0
 10
135.1897319193741
 20
94.07003619890297
 30
0.0
 10
135.5292713263945
 20
94.04338882056929
 30
0.0
 10
136.0334827587221
 20
94.00226266413928
 30
0.0
 10
136.8857279080481
 20
93.96036608656634
 30
0.0
 10
137.4054290655086
 20
93.95487021536384
 30
0.0
 10
137.7795095286942
 20
93.99291240144449
 30
0.0
  0
SPLINE
  5
FD
330
1F
100
AcDbEntity
  8
0
  6
Continuous
 62
     7
370
    25
100
AcDbSpline
210
0.0
220
0.0
230
1.0
 70
     8
 71
     3
 72
     9
 73
     5
 74
     0
 42
0.000000001
 43
0.00000001
 40
0.0
 40
0.0
 40
0.0
 40
0.0
 40
0.5
 40
1.0
 40
1.0
 40
1.0
 40
1.0
 10
137.6063044479454
 20
94.41514081017452
 30
0.0
 10
137.623824810405
 20
94.33013887025642
 30
0.0
 10
137.6749470293874
 20
94.16024495200763
 30
0.0
 10
137.7446403262425
 20
94.03562243471522
 30
0.0
 10
137.7795095287016
 20
93.99291240144508
 30
0.0
  0
SPLINE
  5
FE
330
1F
100
AcDbEntity
  8
0
  6
Continuous
 62
     7
370
    25
100
AcDbSpline
210
0.0
220
0.0
230
1.0
 70
     8
 71
     3
 72
    13
 73
     9
 74
     0
 42
0.000000001
 43
0.00000001
 40
0.0
 40
0.0
 40
0.0
 40
0.0
 40
0.1162222239500744
 40
0.2381780213579675
 40
0.3660917905452749
 40
0.5001580142688472
 40
0.7504239388829979
 40
1.0
 40
1.0
 40
1.0
 40
1.0
 10
141.0464501021576
 20
93.91238963623802
 30
0.0
 10
141.0574342246528
 20
93.89994162561993
 30
0.0
 10
141.0799443477026
 20
93.87443150855204
 30
0.0
 10
141.1080554748674
 20
93.83292433553534
 30
0.0
 10
141.1325794714656
 20
93.78833158483035
 30
0.0
 10
141.1579530563293
 20
93.72782550152638
 30
0.0
 10
141.1778127342019
 20
93.65242171786451
 30
0.0
 10
141.1802275672609
 20
93.59790483288201
 30
0.0
 10
141.1814333173587
 20
93.57068401148904
 30
0.0
  0
SPLINE
  5
FF
330
1F
100
AcDbEntity
  8
0
  6
Continuous
 62
     7
370
    25
100
AcDbSpline
210
0.0
220
0.0
230
1.0
 70
     8
 71
     3
 72
    10
 73
     6
 74
     0
 42
0.000000001
 43
0.00000001
 40
0.0
 40
0.0
 40
0.0
 40
0.0
 40
0.5
 40
0.5
 40
1.0
 40
1.0
 40
1.0
 40
1.0
 10
141.1814333173587
 20
93.57068399271564
 30
0.0
 10
141.1814333173587
 20
93.30888460178731
 30
0.0
 10
141.2892064164364
 20
93.0486973277892
 30
0.0
 10
141.6594466691839
 20
92.67845708199299
 30
0.0
 10
141.9196339452054
 20
92.57068398780034
 30
0.0
 10
142.1814333361338
 20
92.57068399271564
 30
0.0
  0
SPLINE
  5
100
330
1F
100
AcDbEntity
  8
0
  6
Continuous
 62
     7
370
    25
100
AcDbSpline
210
0.0
220
0.0
230
1.0
 70
     8
 71
     3
 72
    12
 73
     8
 74
     0
 42
0.000000001
 43
0.00000001
 40
0.0
 40
0.0
 40
0.0
 40
0.0
 40
0.1664616503807027
 40
0.3330491366093241
 40
0.5001938540683241
 40
0.7619811741357122
 40
1.0
 40
1.0
 40
1.0
 40
1.0
 10
142.1814333361321
 20
92.57068399271564
 30
0.0
 10
142.1994071598839
 20
92.5701416132842
 30
0.0
 10
142.2353683946091
 20
92.56905644441231
 30
0.0
 10
142.2930853236825
 20
92.55927329605245
 30
0.0
 10
142.3633700351749
 20
92.53859322427284
 30
0.0
 10
142.442712789618
 20
92.50229195485623
 30
0.0
 10
142.4971938606411
 20
92.45718277453243
 30
0.0
 10
142.523138960881
 20
92.43570077751464
 30
0.0
  0
SPLINE
  5
101
330
1F
100
AcDbEntity
  8
0
  6
Continuous
 62
     7
370
    25
100
AcDbSpline
210
0.0
220
0.0
230
1.0
 70
     8
 71
     3
 72
    13
 73
     9
 74
     0
 42
0.000000001
 43
0.00000001
 40
0.0
 40
0.0
 40
0.0
 40
0.0
 40
0.1162222239446788
 40
0.2381780213507807
 40
0.3660917905398808
 40
0.5001580142687957
 40
0.7504239388759752
 40
1.0
 40
1.0
 40
1.0
 40
1.0
 10
127.8397276738363
 20
92.43570077751458
 30
0.0
 10
127.8521756844538
 20
92.44668490000922
 30
0.0
 10
127.8776858015208
 20
92.4691950230584
 30
0.0
 10
127.9191929745367
 20
92.49730615022294
 30
0.0
 10
127.9637857252422
 20
92.52183014682177
 30
0.0
 10
128.0242918085466
 20
92.54720373168588
 30
0.0
 10
128.0996955922093
 20
92.56706340955873
 30
0.0
 10
128.1542124771916
 20
92.56947824261786
 30
0.0
 10
128.1814332985853
 20
92.57068399271564
 30
0.0
  0
SPLINE
  5
102
330
1F
100
AcDbEntity
  8
0
  6
Continuous
 62
     7
370
    25
100
AcDbSpline
210
0.0
220
0.0
230
1.0
 70
     8
 71
     3
 72
    10
 73
     6
 74
     0
 42
0.000000001
 43
0.00000001
 40
0.0
 40
0.0
 40
0.0
 40
0.0
 40
0.5
 40
0.5
 40
1.0
 40
1.0
 40
1.0
 40
1.0
 10
128.1814332985836
 20
92.57068399271564
 30
0.0
 10
128.4432326926411
 20
92.57068398780034
 30
0.0
 10
128.7034199716966
 20
92.6784570846805
 30
0.0
 10
129.0736602253938
 20
93.0486973383777
 30
0.0
 10
129.181433322274
 20
93.30888461743324
 30
0.0
 10
129.1814333173587
 20
93.57068401149075
 30
0.0
  0
SPLINE
  5
103
330
1F
100
AcDbEntity
  8
0
  6
Continuous
 62
     7
370
    25
100
AcDbSpline
210
0.0
220
0.0
230
1.0
 70
     8
 71
     3
 72
    12
 73
     8
 74
     0
 42
0.000000001
 43
0.00000001
 40
0.0
 40
0.0
 40
0.0
 40
0.0
 40
0.1664615763807151
 40
0.3330490665505926
 40
0.500193865880855
 40
0.7619811797519991
 40
1.0
 40
1.0
 40
1.0
 40
1.0
 10
129.1814333173587
 20
93.57068399271564
 30
0.0
 10
129.1819756956905
 20
93.58865780947718
 30
0.0
 10
129.1830608626164
 20
93.62461903863849
 30
0.0
 10
129.192844007929
 20
93.68233597599878
 30
0.0
 10
129.2135240813574
 20
93.75262070115245
 30
0.0
 10
129.2498253551573
 20
93.83196346475421
 30
0.0
 10
129.2949345355217
 20
93.88644453592615
 30
0.0
 10
129.3164165325597
 20
93.91238963623798
 30
0.0
  0
SPLINE
  5
104
330
1F
100
AcDbEntity
  8
0
  6
Continuous
 62
     7
370
    25
100
AcDbSpline
210
0.0
220
0.0
230
1.0
 70
     8
 71
     3
 72
    14
 73
    10
 74
     0
 42
0.000000001
 43
0.00000001
 40
0.0
 40
0.0
 40
0.0
 40
0.0
 40
0.25
 40
0.25
 40
0.5
 40
0.5
 40
0.75
 40
0.75
 40
1.0
 40
1.0
 40
1.0
 40
1.0
 10
142.1814333173587
 20
80.57068399271564
 30
0.0
 10
142.2403588824576
 20
80.57068399271564
 30
0.0
 10
142.3039321969477
 20
80.58142336212241
 30
0.0
 10
142.4270291473316
 20
80.63015632224646
 30
0.0
 10
142.4861711714831
 20
80.66831506565346
 30
0.0
 10
142.5838022444209
 20
80.76594613859129
 30
0.0
 10
142.6219609878279
 20
80.82508816274277
 30
0.0
 10
142.6706939479519
 20
80.94818511312666
 30
0.0
 10
142.6814333173587
 20
81.01175842761677
 30
0.0
 10
142.6814333173587
 20
81.07068399271564
 30
0.0
  0
SPLINE
  5
105
330
1F
100
AcDbEntity
  8
0
  6
Continuous
 62
     7
370
    25
100
AcDbSpline
210
0.0
220
0.0
230
1.0
 70
    24
 71
     3
 72
    10
 73
     6
 74
     0
 42
0.000000001
 43
0.00000001
 40
0.0
 40
0.0
 40
0.0
 40
0.0
 40
0.5
 40
0.5
 40
1.0
 40
1.0
 40
1.0
 40
1.0
 10
142.1814333173587
 20
80.57068399271564
 30
0.0
 10
142.1814333173588
 20
80.57068399271564
 30
0.0
 10
142.1814333173588
 20
80.62457054091074
 30
0.0
 10
142.1814333173588
 20
80.809690663334
 30
0.0
 10
142.1814333173587
 20
80.93978429881606
 30
0.0
 10
142.1814333173587
 20
81.07068399271564
 30
0.0
  0
SPLINE
  5
106
330
1F
100
AcDbEntity
  8
0
  6
Continuous
 62
     7
370
    25
100
AcDbSpline
210
0.0
220
0.0
230
1.0
 70
    24
 71
     3
 72
    14
 73
    10
 74
     0
 42
0.000000001
 43
0.00000001
 40
0.0
 40
0.0
 40
0.0
 40
0.0
 40
0.25
 40
0.25
 40
0.5
 40
0.5
 40
0.75
 40
0.75
 40
1.0
 40
1.0
 40
1.0
 40
1.0
 10
128.1814333173587
 20
80.57068399271564
 30
0.0
 10
128.1814333173587
 20
80.57068399271564
 30
0.0
 10
128.1814333173587
 20
80.58142336212241
 30
0.0
 10
128.1814333173587
 20
80.63015632224648
 30
0.0
 10
128.1814333173587
 20
80.66831506565347
 30
0.0
 10
128.1814333173587
 20
80.76594613859129
 30
0.0
 10
128.1814333173587
 20
80.82508816274277
 30
0.0
 10
128.1814333173587
 20
80.94818511312666
 30
0.0
 10
128.1814333173587
 20
81.01175842761677
 30
0.0
 10
128.1814333173587
 20
81.07068399271564
 30
0.0
  0
SPLINE
  5
107
330
1F
100
AcDbEntity
  8
0
  6
Continuous
 62
     7
370
    25
100
AcDbSpline
210
0.0
220
0.0
230
1.0
 70
     8
 71
     3
 72
    10
 73
     6
 74
     0
 42
0.000000001
 43
0.00000001
 40
0.0
 40
0.0
 40
0.0
 40
0.0
 40
0.5
 40
0.5
 40
1.0
 40
1.0
 40
1.0
 40
1.0
 10
128.1814333173587
 20
80.57068399271564
 30
0.0
 10
128.0505336234591
 20
80.57068399271564
 30
0.0
 10
127.920439987977
 20
80.62457054091074
 30
0.0
 10
127.7353198655538
 20
80.80969066333401
 30
0.0
 10
127.6814333173587
 20
80.93978429881606
 30
0.0
 10
127.6814333173587
 20
81.07068399271564
 30
0.0
  0
LINE
  5
108
330
1F
100
AcDbEntity
  8
0
  6
Continuous
 62
     7
370
    25
100
AcDbLine
 10
142.1814335334
 20
80.5706839406
 30
0.0
 11
128.1814331013
 21
80.5706839406
 31
0.0
  0
LINE
  5
109
330
1F
100
AcDbEntity
  8
0
  6
Continuous
 62
     7
370
    25
100
AcDbLine
 10
139.1121789637
 20
84.0026432511
 30
0.0
 11
138.8488381925
 21
83.2998213687
 31
0.0
  0
SPLINE
  5
10A
330
1F
100
AcDbEntity
  8
0
  6
Continuous
 62
     7
370
    25
100
AcDbSpline
210
0.0
220
0.0
230
1.0
 70
     8
 71
     3
 72
    31
 73
    27
 74
     0
 42
0.000000001
 43
0.00000001
 40
0.0
 40
0.0
 40
0.0
 40
0.0
 40
0.041802146707033
 40
0.0834773119907251
 40
0.1252067539465352
 40
0.1667553111646444
 40
0.208343789897431
 40
0.2500683763875439
 40
0.2917172802014936
 40
0.3332298152280506
 40
0.3749213178163661
 40
0.4166401475748497
 40
0.4581957047388333
 40
0.4998271904370101
 40
0.5415736637950209
 40
0.5832410842716478
 40
0.624816154537611
 40
0.6665619264699779
 40
0.7082962697793289
 40
0.7498773808560844
 40
0.7916005699338539
 40
0.8333637303001521
 40
0.8749600854558802
 40
0.9166279211224443
 40
0.9583871623503707
 40
1.0
 40
1.0
 40
1.0
 40
1.0
 10
139.1121790627177
 20
84.00264314122491
 30
0.0
 10
139.1131199083778
 20
84.00493147663646
 30
0.0
 10
139.1149987417127
 20
84.00950119623553
 30
0.0
 10
139.1187425837401
 20
84.01591315405693
 30
0.0
 10
139.1230707173019
 20
84.02191317648769
 30
0.0
 10
139.1280104101403
 20
84.02742053214949
 30
0.0
 10
139.133499160972
 20
84.03237726320846
 30
0.0
 10
139.1394618240106
 20
84.03676128974725
 30
0.0
 10
139.1458233724165
 20
84.04053483636523
 30
0.0
 10
139.1525301926751
 20
84.04364925754994
 30
0.0
 10
139.1595134874752
 20
84.04609131012424
 30
0.0
 10
139.1666998413447
 20
84.04785740535903
 30
0.0
 10
139.1740193875683
 20
84.04892608206609
 30
0.0
 10
139.1814098245077
 20
84.04927431392031
 30
0.0
 10
139.1888059917168
 20
84.04892080083825
 30
0.0
 10
139.1961328488213
 20
84.04786976090062
 30
0.0
 10
139.2033222506065
 20
84.04610765470574
 30
0.0
 10
139.2103098521158
 20
84.04365431738542
 30
0.0
 10
139.2170295035976
 20
84.0405396053389
 30
0.0
 10
139.2234058909528
 20
84.03677275274613
 30
0.0
 10
139.2293683769814
 20
84.03237692622058
 30
0.0
 10
139.2348612968254
 20
84.02740633669097
 30
0.0
 10
139.2398170206947
 20
84.0219005110732
 30
0.0
 10
139.2441409184227
 20
84.01589143325974
 30
0.0
 10
139.2478701419849
 20
84.00948295926389
 30
0.0
 10
139.2497495310849
 20
84.00492040991875
 30
0.0
 10
139.2506875755064
 20
84.00264314122491
 30
0.0
  0
SPLINE
  5
10B
330
1F
100
AcDbEntity
  8
0
  6
Continuous
 62
     7
370
    25
100
AcDbSpline
210
0.0
220
0.0
230
1.0
 70
     8
 71
     3
 72
    15
 73
    11
 74
     0
 42
0.000000001
 43
0.00000001
 40
0.0
 40
0.0
 40
0.0
 40
0.0
 40
0.1255482376299943
 40
0.2506612331927046
 40
0.3755698012986847
 40
0.5003109015749712
 40
0.6252467103373207
 40
0.7502075817355112
 40
0.874985997901262
 40
1.0
 40
1.0
 40
1.0
 40
1.0
 10
139.5140284628627
 20
83.29982132436194
 30
0.0
 10
139.51564350833
 20
83.29430613765894
 30
0.0
 10
139.518868000335
 20
83.28329488392602
 30
0.0
 10
139.5182104966167
 20
83.26592582465663
 30
0.0
 10
139.5134799354929
 20
83.24938098402383
 30
0.0
 10
139.5047333623598
 20
83.23452981461438
 30
0.0
 10
139.4927036572974
 20
83.22219932564991
 30
0.0
 10
139.4781257085747
 20
83.21310691815658
 30
0.0
 10
139.4618722649938
 20
83.20725524510807
 30
0.0
 10
139.4504771416283
 20
83.2065197083659
 30
0.0
 10
139.4447742064223
 20
83.20615159314258
 30
0.0
  0
LINE
  5
10C
330
1F
100
AcDbEntity
  8
0
  6
Continuous
 62
     7
370
    25
100
AcDbLine
 10
138.9180925033
 20
83.2061515052
 30
0.0
 11
139.4447742785
 21
83.2061515052
 31
0.0
  0
SPLINE
  5
10D
330
1F
100
AcDbEntity
  8
0
  6
Continuous
 62
     7
370
    25
100
AcDbSpline
210
0.0
220
0.0
230
1.0
 70
     8
 71
     3
 72
    15
 73
    11
 74
     0
 42
0.000000001
 43
0.00000001
 40
0.0
 40
0.0
 40
0.0
 40
0.0
 40
0.1247517205531464
 40
0.2498857245441838
 40
0.3745674687454417
 40
0.4993106804387823
 40
0.6244677860264319
 40
0.7493917290903895
 40
0.8741574726928457
 40
1.0
 40
1.0
 40
1.0
 40
1.0
 10
138.9180924286996
 20
83.20615159314258
 30
0.0
 10
138.9124013039099
 20
83.20651633563213
 30
0.0
 10
138.9010016147091
 20
83.20724693831131
 30
0.0
 10
138.884754817144
 20
83.21309889556997
 30
0.0
 10
138.8701868899756
 20
83.2221930863789
 30
0.0
 10
138.8581398109942
 20
83.23450161079296
 30
0.0
 10
138.849384909818
 20
83.24936534356314
 30
0.0
 10
138.8446710236509
 20
83.26591750238151
 30
0.0
 10
138.8439968827605
 20
83.28328235920945
 30
0.0
 10
138.8472197932207
 20
83.29429256702605
 30
0.0
 10
138.8488381723592
 20
83.29982132460769
 30
0.0
  0
LINE
  5
10E
330
1F
100
AcDbEntity
  8
0
  6
Continuous
 62
     7
370
    25
100
AcDbLine
 10
139.5140283565
 20
83.2998213687
 30
0.0
 11
139.2506875853
 21
84.0026432511
 31
0.0
  0
SPLINE
  5
10F
330
1F
100
AcDbEntity
  8
0
  6
Continuous
 62
     7
370
    25
100
AcDbSpline
210
0.0
220
0.0
230
1.0
 70
     8
 71
     3
 72
     9
 73
     5
 74
     0
 42
0.000000001
 43
0.00000001
 40
0.0
 40
0.0
 40
0.0
 40
0.0
 40
0.5
 40
1.0
 40
1.0
 40
1.0
 40
1.0
 10
127.1814333173587
 20
83.07847043172663
 30
0.0
 10
127.3123330112582
 20
83.07847043172663
 30
0.0
 10
127.5731494471737
 20
83.02444894602716
 30
0.0
 10
127.6814333173587
 20
82.89433084682247
 30
0.0
 10
127.6814333173587
 20
82.82902660594172
 30
0.0
  0
SPLINE
  5
110
330
1F
100
AcDbEntity
  8
0
  6
Continuous
 62
     7
370
    25
100
AcDbSpline
210
0.0
220
0.0
230
1.0
 70
     8
 71
     3
 72
     9
 73
     5
 74
     0
 42
0.000000001
 43
0.00000001
 40
0.0
 40
0.0
 40
0.0
 40
0.0
 40
0.5
 40
1.0
 40
1.0
 40
1.0
 40
1.0
 10
143.1814333173587
 20
90.06289755370466
 30
0.0
 10
143.0505336234591
 20
90.06289755370466
 30
0.0
 10
142.7897171875437
 20
90.11691903940412
 30
0.0
 10
142.6814333173587
 20
90.24703713860882
 30
0.0
 10
142.6814333173587
 20
90.31234137948958
 30
0.0
  0
SPLINE
  5
111
330
1F
100
AcDbEntity
  8
0
  6
Continuous
 62
     7
370
    25
100
AcDbSpline
210
0.0
220
0.0
230
1.0
 70
     8
 71
     3
 72
     9
 73
     5
 74
     0
 42
0.000000001
 43
0.00000001
 40
0.0
 40
0.0
 40
0.0
 40
0.0
 40
0.5
 40
1.0
 40
1.0
 40
1.0
 40
1.0
 10
131.6892197563697
 20
94.57068399271564
 30
0.0
 10
131.6892197563697
 20
94.43978429881608
 30
0.0
 10
131.6351982706702
 20
94.17896786290062
 30
0.0
 10
131.5050801714655
 20
94.07068399271564
 30
0.0
 10
131.4397759305847
 20
94.07068399271564
 30
0.0
  0
SPLINE
  5
112
330
1F
100
AcDbEntity
  8
0
  6
Continuous
 62
     7
370
    25
100
AcDbSpline
210
0.0
220
0.0
230
1.0
 70
     8
 71
     3
 72
     9
 73
     5
 74
     0
 42
0.000000001
 43
0.00000001
 40
0.0
 40
0.0
 40
0.0
 40
0.0
 40
0.5
 40
1.0
 40
1.0
 40
1.0
 40
1.0
 10
138.9230907041326
 20
94.07068399271564
 30
0.0
 10
138.8577864632519
 20
94.07068399271564
 30
0.0
 10
138.7276683640472
 20
94.17896786290062
 30
0.0
 10
138.6736468783477
 20
94.43978429881606
 30
0.0
 10
138.6736468783477
 20
94.57068399271564
 30
0.0
  0
SPLINE
  5
113
330
1F
100
AcDbEntity
  8
0
  6
Continuous
 62
     7
370
    25
100
AcDbSpline
210
0.0
220
0.0
230
1.0
 70
     8
 71
     3
 72
     9
 73
     5
 74
     0
 42
0.000000001
 43
0.00000001
 40
0.0
 40
0.0
 40
0.0
 40
0.0
 40
0.5
 40
1.0
 40
1.0
 40
1.0
 40
1.0
 10
142.6814333173587
 20
82.82902660594172
 30
0.0
 10
142.6814333173587
 20
82.89433084682247
 30
0.0
 10
142.7897171875437
 20
83.02444894602718
 30
0.0
 10
143.0505336234591
 20
83.07847043172664
 30
0.0
 10
143.1814333173587
 20
83.07847043172664
 30
0.0
  0
SPLINE
  5
114
330
1F
100
AcDbEntity
  8
0
  6
Continuous
 62
     7
370
    25
100
AcDbSpline
210
0.0
220
0.0
230
1.0
 70
     8
 71
     3
 72
     9
 73
     5
 74
     0
 42
0.000000001
 43
0.00000001
 40
0.0
 40
0.0
 40
0.0
 40
0.0
 40
0.5
 40
1.0
 40
1.0
 40
1.0
 40
1.0
 10
127.6814333173587
 20
90.31234137948958
 30
0.0
 10
127.6814333173587
 20
90.24703713860882
 30
0.0
 10
127.5731494471737
 20
90.11691903940412
 30
0.0
 10
127.3123330112583
 20
90.06289755370466
 30
0.0
 10
127.1814333173587
 20
90.06289755370466
 30
0.0
  0
LINE
  5
115
330
1F
100
AcDbEntity
  8
0
  6
Continuous
 62
     7
370
    25
100
AcDbLine
 10
127.6713118713
 20
81.0160414644
 30
0.0
 11
127.681433485
 21
81.0705904246
 31
0.0
  0
SPLINE
  5
116
330
1F
100
AcDbEntity
  8
0
  6
Continuous
 62
     7
370
    25
100
AcDbSpline
210
0.0
220
0.0
230
1.0
 70
     8
 71
     3
 72
    11
 73
     7
 74
     0
 42
0.000000001
 43
0.00000001
 40
0.0
 40
0.0
 40
0.0
 40
0.0
 40
0.2813371813345898
 40
0.4847351098322705
 40
0.7599089647777694
 40
1.0
 40
1.0
 40
1.0
 40
1.0
 10
127.1814333173587
 20
80.50401732604898
 30
0.0
 10
127.206341234788
 20
80.52839263301672
 30
0.0
 10
127.2492567926731
 20
80.57039051983762
 30
0.0
 10
127.3163834116572
 20
80.62878002743044
 30
0.0
 10
127.3803230509198
 20
80.678811707721
 30
0.0
 10
127.4254544509778
 20
80.70698563311602
 30
0.0
 10
127.4464837211022
 20
80.72011345735446
 30
0.0
  0
LINE
  5
117
330
1F
100
AcDbEntity
  8
0
  6
Continuous
 62
     7
370
    25
100
AcDbLine
 10
127.9977008524
 20
80.6057119139
 30
0.0
 11
128.181339969
 21
80.5706839406
 31
0.0
  0
SPLINE
  5
118
330
1F
100
AcDbEntity
  8
0
  6
Continuous
 62
     7
370
    25
100
AcDbSpline
210
0.0
220
0.0
230
1.0
 70
     8
 71
     3
 72
    12
 73
     8
 74
     0
 42
0.000000001
 43
0.00000001
 40
0.0
 40
0.0
 40
0.0
 40
0.0
 40
0.156133543665343
 40
0.327879147000269
 40
0.5152978781378685
 40
0.7186269797895557
 40
1.0
 40
1.0
 40
1.0
 40
1.0
 10
142.9163818268588
 20
80.72013454615598
 30
0.0
 10
142.9300333052975
 20
80.71180382528011
 30
0.0
 10
142.9587012968174
 20
80.69430938052119
 30
0.0
 10
143.0042738804762
 20
80.66162588491393
 30
0.0
 10
143.0542196472782
 20
80.62214668795323
 30
0.0
 10
143.1136061560659
 20
80.57035997472933
 30
0.0
 10
143.156520965845
 20
80.52838442844242
 30
0.0
 10
143.1814333173587
 20
80.50401732604898
 30
0.0
  0
LINE
  5
119
330
1F
100
AcDbEntity
  8
0
  6
Continuous
 62
     7
370
    25
100
AcDbLine
 10
142.6814331497
 20
81.0706546859
 30
0.0
 11
142.6997261877
 21
81.0169183046
 31
0.0
  0
SPLINE
  5
11A
330
1F
100
AcDbEntity
  8
0
  6
Continuous
 62
     7
370
    25
100
AcDbSpline
210
0.0
220
0.0
230
1.0
 70
     8
 71
     3
 72
     9
 73
     5
 74
     0
 42
0.000000001
 43
0.00000001
 40
0.0
 40
0.0
 40
0.0
 40
0.0
 40
0.5
 40
1.0
 40
1.0
 40
1.0
 40
1.0
 10
140.314766650692
 20
94.57068399271564
 30
0.0
 10
140.314766650692
 20
94.43978429881608
 30
0.0
 10
140.3941768640988
 20
94.17897064736131
 30
0.0
 10
140.585440208499
 20
94.07068399271564
 30
0.0
 10
140.6814333173587
 20
94.07068399271564
 30
0.0
  0
SPLINE
  5
11B
330
1F
100
AcDbEntity
  8
0
  6
Continuous
 62
     7
370
    25
100
AcDbSpline
210
0.0
220
0.0
230
1.0
 70
     8
 71
     3
 72
     9
 73
     5
 74
     0
 42
0.000000001
 43
0.00000001
 40
0.0
 40
0.0
 40
0.0
 40
0.0
 40
0.5
 40
1.0
 40
1.0
 40
1.0
 40
1.0
 10
127.1814333173587
 20
91.704017326049
 30
0.0
 10
127.3123330112583
 20
91.704017326049
 30
0.0
 10
127.573146662713
 20
91.7834275394558
 30
0.0
 10
127.6814333173587
 20
91.97469088385596
 30
0.0
 10
127.6814333173587
 20
92.07068399271564
 30
0.0
  0
SPLINE
  5
11C
330
1F
100
AcDbEntity
  8
0
  6
Continuous
 62
     7
370
    25
100
AcDbSpline
210
0.0
220
0.0
230
1.0
 70
     8
 71
     3
 72
     9
 73
     5
 74
     0
 42
0.000000001
 43
0.00000001
 40
0.0
 40
0.0
 40
0.0
 40
0.0
 40
0.5
 40
1.0
 40
1.0
 40
1.0
 40
1.0
 10
142.6814333173587
 20
92.07068399271564
 30
0.0
 10
142.6814333173587
 20
91.97469088385596
 30
0.0
 10
142.7897199720043
 20
91.7834275394558
 30
0.0
 10
143.0505336234591
 20
91.70401732604898
 30
0.0
 10
143.1814333173587
 20
91.70401732604898
 30
0.0
  0
SPLINE
  5
11D
330
1F
100
AcDbEntity
  8
0
  6
Continuous
 62
     7
370
    25
100
AcDbSpline
210
0.0
220
0.0
230
1.0
 70
     8
 71
     3
 72
     9
 73
     5
 74
     0
 42
0.000000001
 43
0.00000001
 40
0.0
 40
0.0
 40
0.0
 40
0.0
 40
0.5
 40
1.0
 40
1.0
 40
1.0
 40
1.0
 10
129.6814333173587
 20
94.07068399271564
 30
0.0
 10
129.7774264262184
 20
94.07068399271564
 30
0.0
 10
129.9686897706185
 20
94.17897064736131
 30
0.0
 10
130.0480999840254
 20
94.43978429881608
 30
0.0
 10
130.0480999840254
 20
94.57068399271564
 30
0.0
  0
SPLINE
  5
11E
330
1F
100
AcDbEntity
  8
0
  6
Continuous
 62
     7
370
    25
100
AcDbSpline
210
0.0
220
0.0
230
1.0
 70
     8
 71
     3
 72
     8
 73
     4
 74
     0
 42
0.000000001
 43
0.00000001
 40
0.0
 40
0.0
 40
0.0
 40
0.0
 40
1.0
 40
1.0
 40
1.0
 40
1.0
 10
140.8969093838528
 20
94.35232836616011
 30
0.0
 10
140.8551774806978
 20
94.19543450625075
 30
0.0
 10
140.8931642720287
 20
94.0414073279697
 30
0.0
 10
140.9932954958377
 20
93.96150617943788
 30
0.0
  0
SPLINE
  5
11F
330
1F
100
AcDbEntity
  8
0
  6
Continuous
 62
     7
370
    25
100
AcDbSpline
210
0.0
220
0.0
230
1.0
 70
     8
 71
     3
 72
     9
 73
     5
 74
     0
 42
0.000000001
 43
0.00000001
 40
0.0
 40
0.0
 40
0.0
 40
0.0
 40
0.5
 40
1.0
 40
1.0
 40
1.0
 40
1.0
 10
142.9630776908031
 20
92.28616005920972
 30
0.0
 10
142.8846307608484
 20
92.26529410763224
 30
0.0
 10
142.7278355397605
 20
92.26096229298169
 30
0.0
 10
142.6122060783468
 20
92.33248055929016
 30
0.0
 10
142.5722555040809
 20
92.38254617119462
 30
0.0
  0
SPLINE
  5
120
330
1F
100
AcDbEntity
  8
0
  6
Continuous
 62
     7
370
    25
100
AcDbSpline
210
0.0
220
0.0
230
1.0
 70
     8
 71
     3
 72
     9
 73
     5
 74
     0
 42
0.000000001
 43
0.00000001
 40
0.0
 40
0.0
 40
0.0
 40
0.0
 40
0.5
 40
1.0
 40
1.0
 40
1.0
 40
1.0
 10
129.4659572508646
 20
94.35232836616011
 30
0.0
 10
129.4868232024421
 20
94.27388143620543
 30
0.0
 10
129.4911550170927
 20
94.11708621511744
 30
0.0
 10
129.4196367507842
 20
94.00145675370379
 30
0.0
 10
129.3695711388797
 20
93.96150617943788
 30
0.0
  0
SPLINE
  5
121
330
1F
100
AcDbEntity
  8
0
  6
Continuous
 62
     7
370
    25
100
AcDbSpline
210
0.0
220
0.0
230
1.0
 70
     8
 71
     3
 72
     9
 73
     5
 74
     0
 42
0.000000001
 43
0.00000001
 40
0.0
 40
0.0
 40
0.0
 40
0.0
 40
0.5
 40
1.0
 40
1.0
 40
1.0
 40
1.0
 10
127.7906111306364
 20
92.38254617119462
 30
0.0
 10
127.7506605563705
 20
92.33248055929016
 30
0.0
 10
127.6350310949569
 20
92.26096229298169
 30
0.0
 10
127.4782358738689
 20
92.26529410763224
 30
0.0
 10
127.3997889439142
 20
92.28616005920972
 30
0.0
  0
SPLINE
  5
122
330
1F
100
AcDbEntity
  8
0
  6
Continuous
 62
     7
370
    25
100
AcDbSpline
210
0.0
220
0.0
230
1.0
 70
     8
 71
     3
 72
    10
 73
     6
 74
     0
 42
0.000000001
 43
0.00000001
 40
0.0
 40
0.0
 40
0.0
 40
0.0
 40
0.499999999999999
 40
0.499999999999999
 40
1.0
 40
1.0
 40
1.0
 40
1.0
 10
142.9163818268588
 20
80.72013454615598
 30
0.0
 10
142.8828023041853
 20
80.67419107273791
 30
0.0
 10
142.8409954764333
 20
80.63547383833955
 30
0.0
 10
142.749076692879
 20
80.58364196184043
 30
0.0
 10
142.6992425813367
 20
80.57068399271564
 30
0.0
 10
142.6513458296769
 20
80.57068399271564
 30
0.0
  0
SPLINE
  5
123
330
1F
100
AcDbEntity
  8
0
  6
Continuous
 62
     7
370
    25
100
AcDbSpline
210
0.0
220
0.0
230
1.0
 70
    24
 71
     3
 72
    11
 73
     7
 74
     0
 42
0.000000001
 43
0.00000001
 40
0.0
 40
0.0
 40
0.0
 40
0.0
 40
0.2767778395911417
 40
0.5553076326901417
 40
0.8530198398008104
 40
1.0
 40
1.0
 40
1.0
 40
1.0
 10
142.6513458426251
 20
80.57068394056158
 30
0.0
 10
142.5818254194982
 20
80.57068394056158
 30
0.0
 10
142.4423445215792
 20
80.57068394056158
 30
0.0
 10
142.306608517321
 20
80.5706839405616
 30
0.0
 10
142.2198081609808
 20
80.57068394056158
 30
0.0
 10
142.2074229612549
 20
80.5706839405616
 30
0.0
 10
142.203329392816
 20
80.57068394056158
 30
0.0
  0
SPLINE
  5
124
330
1F
100
AcDbEntity
  8
0
  6
Continuous
 62
     7
370
    25
100
AcDbSpline
210
0.0
220
0.0
230
1.0
 70
     8
 71
     3
 72
    10
 73
     6
 74
     0
 42
0.000000001
 43
0.00000001
 40
0.0
 40
0.0
 40
0.0
 40
0.0
 40
0.5
 40
0.5
 40
1.0
 40
1.0
 40
1.0
 40
1.0
 10
127.4464837211022
 20
80.72011345735446
 30
0.0
 10
127.4800589267071
 20
80.67417641676862
 30
0.0
 10
127.521860243409
 20
80.63546466195179
 30
0.0
 10
127.6137667745111
 20
80.58364012656288
 30
0.0
 10
127.6635941888891
 20
80.57068399271564
 30
0.0
 10
127.7114845288536
 20
80.57068399271564
 30
0.0
  0
SPLINE
  5
125
330
1F
100
AcDbEntity
  8
0
  6
Continuous
 62
     7
370
    25
100
AcDbSpline
210
0.0
220
0.0
230
1.0
 70
    24
 71
     3
 72
    11
 73
     7
 74
     0
 42
0.000000001
 43
0.00000001
 40
0.0
 40
0.0
 40
0.0
 40
0.0
 40
0.2043000103634868
 40
0.4140672716802192
 40
0.7075943768723066
 40
1.0
 40
1.0
 40
1.0
 40
1.0
 10
128.1591954465165
 20
80.57068394056158
 30
0.0
 10
128.1468116611803
 20
80.57068394056158
 30
0.0
 10
128.1217126893394
 20
80.57068394056158
 30
0.0
 10
128.040808240025
 20
80.57068394056158
 30
0.0
 10
127.9195296813046
 20
80.57068394056158
 30
0.0
 10
127.7807443285157
 20
80.57068394056158
 30
0.0
 10
127.7114844705119
 20
80.57068394056158
 30
0.0
  0
SPLINE
  5
126
330
1F
100
AcDbEntity
  8
0
  6
Continuous
 62
     7
370
    25
100
AcDbSpline
210
0.0
220
0.0
230
1.0
 70
    24
 71
     3
 72
     8
 73
     4
 74
     0
 42
0.000000001
 43
0.00000001
 40
0.0
 40
0.0
 40
0.0
 40
0.0
 40
1.0
 40
1.0
 40
1.0
 40
1.0
 10
142.1814333173587
 20
92.6373506593823
 30
0.0
 10
142.1814333173587
 20
92.59392125691049
 30
0.0
 10
142.1814333173587
 20
92.57068399271564
 30
0.0
 10
142.1814333173587
 20
92.57068399271564
 30
0.0
  0
SPLINE
  5
127
330
1F
100
AcDbEntity
  8
0
  6
Continuous
 62
     7
370
    25
100
AcDbSpline
210
0.0
220
0.0
230
1.0
 70
    24
 71
     3
 72
     8
 73
     4
 74
     0
 42
0.000000001
 43
0.00000001
 40
0.0
 40
0.0
 40
0.0
 40
0.0
 40
1.0
 40
1.0
 40
1.0
 40
1.0
 10
129.114766650692
 20
93.57068399271564
 30
0.0
 10
129.1581960531638
 20
93.57068399271564
 30
0.0
 10
129.1814333173587
 20
93.57068399271564
 30
0.0
 10
129.1814333173587
 20
93.57068399271564
 30
0.0
  0
SPLINE
  5
128
330
1F
100
AcDbEntity
  8
0
  6
Continuous
 62
     7
370
    25
100
AcDbSpline
210
0.0
220
0.0
230
1.0
 70
    24
 71
     3
 72
     8
 73
     4
 74
     0
 42
0.000000001
 43
0.00000001
 40
0.0
 40
0.0
 40
0.0
 40
0.0
 40
1.0
 40
1.0
 40
1.0
 40
1.0
 10
128.1814333173587
 20
92.57068399271564
 30
0.0
 10
128.1814333173587
 20
92.57068399271564
 30
0.0
 10
128.1814333173587
 20
92.59392125691049
 30
0.0
 10
128.1814333173587
 20
92.63735065938232
 30
0.0
  0
SPLINE
  5
129
330
1F
100
AcDbEntity
  8
0
  6
Continuous
 62
     7
370
    25
100
AcDbSpline
210
0.0
220
0.0
230
1.0
 70
    24
 71
     3
 72
     8
 73
     4
 74
     0
 42
0.000000001
 43
0.00000001
 40
0.0
 40
0.0
 40
0.0
 40
0.0
 40
1.0
 40
1.0
 40
1.0
 40
1.0
 10
141.2480999840253
 20
93.57068399271564
 30
0.0
 10
141.2046705815535
 20
93.57068399271564
 30
0.0
 10
141.1814333173587
 20
93.57068399271564
 30
0.0
 10
141.1814333173587
 20
93.57068399271564
 30
0.0
  0
SPLINE
  5
12A
330
1F
100
AcDbEntity
  8
0
  6
Continuous
 62
     7
370
    25
100
AcDbSpline
210
0.0
220
0.0
230
1.0
 70
     8
 71
     3
 72
    11
 73
     7
 74
     0
 42
0.000000001
 43
0.00000001
 40
0.0
 40
0.0
 40
0.0
 40
0.0
 40
0.2796925902103931
 40
0.4824920995717302
 40
0.7583389673489331
 40
0.9999999999999999
 40
0.9999999999999999
 40
0.9999999999999999
 40
0.9999999999999999
 10
143.1814333173587
 20
80.50401732604898
 30
0.0
 10
143.1314356557138
 20
80.51480680499328
 30
0.0
 10
143.0451856884816
 20
80.53341951956399
 30
0.0
 10
142.9102012418187
 20
80.55385067020725
 30
0.0
 10
142.7829096991041
 20
80.56779571604773
 30
0.0
 10
142.6932256526781
 20
80.56976458744005
 30
0.0
 10
142.6513458296769
 20
80.57068399271564
 30
0.0
  0
SPLINE
  5
12B
330
1F
100
AcDbEntity
  8
0
  6
Continuous
 62
     7
370
    25
100
AcDbSpline
210
0.0
220
0.0
230
1.0
 70
     8
 71
     3
 72
    12
 73
     8
 74
     0
 42
0.000000001
 43
0.00000001
 40
0.0
 40
0.0
 40
0.0
 40
0.0
 40
0.1573492972449686
 40
0.3298380470016292
 40
0.5175259235705421
 40
0.7203120516631307
 40
1.0
 40
1.0
 40
1.0
 40
1.0
 10
127.7114845288536
 20
80.57068399271564
 30
0.0
 10
127.6842774713258
 20
80.57028882926775
 30
0.0
 10
127.6272456136896
 20
80.5694604814951
 30
0.0
 10
127.5364685569324
 20
80.56286004239149
 30
0.0
 10
127.436999336207
 20
80.55156543070663
 30
0.0
 10
127.3176646414701
 20
80.53338528524219
 30
0.0
 10
127.2314256527176
 20
80.51479438392734
 30
0.0
 10
127.1814333173587
 20
80.50401732604898
 30
0.0
  0
SPLINE
  5
12C
330
1F
100
AcDbEntity
  8
0
  6
Continuous
 62
     7
370
    25
100
AcDbSpline
210
0.0
220
0.0
230
1.0
 70
     8
 71
     3
 72
     9
 73
     5
 74
     0
 42
0.000000001
 43
0.00000001
 40
0.0
 40
0.0
 40
0.0
 40
0.0
 40
0.5
 40
1.0
 40
1.0
 40
1.0
 40
1.0
 10
141.384783486135
 20
93.21713060211886
 30
0.0
 10
141.4067676338842
 20
93.11471783413883
 30
0.0
 10
141.5210380253562
 20
92.91028870071321
 30
0.0
 10
141.7254671587819
 20
92.79601830924119
 30
0.0
 10
141.8278799267619
 20
92.77403416149197
 30
0.0
  0
SPLINE
  5
12D
330
1F
100
AcDbEntity
  8
0
  6
Continuous
 62
     7
370
    25
100
AcDbSpline
210
0.0
220
0.0
230
1.0
 70
     8
 71
     3
 72
     9
 73
     5
 74
     0
 42
0.000000001
 43
0.00000001
 40
0.0
 40
0.0
 40
0.0
 40
0.0
 40
0.5
 40
1.0
 40
1.0
 40
1.0
 40
1.0
 10
128.534986707952
 20
92.77403416149524
 30
0.0
 10
128.6373994759321
 20
92.7960183092444
 30
0.0
 10
128.8418286093579
 20
92.9102887007164
 30
0.0
 10
128.9560990008299
 20
93.11471783414223
 30
0.0
 10
128.9780831485791
 20
93.21713060212237
 30
0.0
  0
LINE
  5
12E
330
1F
100
AcDbEntity
  8
0
  6
Continuous
 62
     8
370
    25
100
AcDbLine
 10
126.1814337048
 20
100.0706843429
 30
0.0
 11
144.1814329299
 21
100.0706843429
 31
0.0
  0
LINE
  5
12F
330
1F
100
AcDbEntity
  8
0
  6
Continuous
 62
     8
370
    25
100
AcDbLine
 10
148.6814336675
 20
95.5706836053
 30
0.0
 11
148.6814336675
 21
77.5706843801
 31
0.0
  0
LINE
  5
130
330
1F
100
AcDbEntity
  8
0
  6
Continuous
 62
     8
370
    25
100
AcDbLine
 10
121.6814329672
 20
86.5706839927
 30
0.0
 11
121.6814329672
 21
95.5706836053
 31
0.0
  0
LINE
  5
131
330
1F
100
AcDbEntity
  8
0
  6
Continuous
 62
     8
370
    25
100
AcDbLine
 10
121.6814329672
 20
77.5706843801
 30
0.0
 11
121.6814329672
 21
86.5706839927
 31
0.0
  0
LINE
  5
132
330
1F
100
AcDbEntity
  8
0
  6
Continuous
 62
     8
370
    25
100
AcDbLine
 10
123.1511270451
 20
78.7706842043
 30
0.0
 11
123.1511270451
 21
94.3706837811
 31
0.0
  0
LINE
  5
133
330
1F
100
AcDbEntity
  8
0
  6
Continuous
 62
     8
370
    25
100
AcDbLine
 10
147.2117395896
 20
94.3706837811
 30
0.0
 11
147.2117395896
 21
78.7706842043
 31
0.0
  0
LINE
  5
134
330
1F
100
AcDbEntity
  8
0
  6
Continuous
 62
     8
370
    25
100
AcDbLine
 10
127.381433529
 20
98.6009902649
 30
0.0
 11
142.9814331058
 21
98.6009902649
 31
0.0
  0
LINE
  5
135
330
1F
100
AcDbEntity
  8
0
  6
Continuous
 62
     8
370
    25
100
AcDbLine
 10
124.1309230971
 20
93.5706842088
 30
0.0
 11
124.1309230971
 21
79.5706837766
 31
0.0
  0
LINE
  5
136
330
1F
100
AcDbEntity
  8
0
  6
Continuous
 62
     8
370
    25
100
AcDbLine
 10
146.2319435376
 20
79.5706837766
 30
0.0
 11
146.2319435376
 21
93.5706842088
 31
0.0
  0
LINE
  5
137
330
1F
100
AcDbEntity
  8
0
  6
Continuous
 62
     8
370
    25
100
AcDbLine
 10
142.1814335334
 20
97.6211942129
 30
0.0
 11
128.1814331013
 21
97.6211942129
 31
0.0
  0
SPLINE
  5
138
330
1F
100
AcDbEntity
  8
0
  6
Continuous
 62
     8
370
    25
100
AcDbSpline
210
0.0
220
0.0
230
1.0
 70
     8
 71
     3
 72
    19
 73
    15
 74
     0
 42
0.000000001
 43
0.00000001
 40
0.0
 40
0.0
 40
0.0
 40
0.0
 40
0.0606727911926113
 40
0.1214874002643155
 40
0.1825081921994686
 40
0.2437988823923964
 40
0.3054223490615667
 40
0.3674404582586578
 40
0.4299139036293041
 40
0.4929020625848005
 40
0.6146975824539129
 40
0.7395812568283596
 40
0.8679067285909485
 40
1.0
 40
1.0
 40
1.0
 40
1.0
 10
142.6814333173603
 20
93.57068399271564
 30
0.0
 10
142.6807620157122
 20
93.57006022456169
 30
0.0
 10
142.6794178433012
 20
93.56881123024475
 30
0.0
 10
142.6685581334253
 20
93.55870436943646
 30
0.0
 10
142.6512287021865
 20
93.54255261492254
 30
0.0
 10
142.626790858452
 20
93.5197533305533
 30
0.0
 10
142.595417234912
 20
93.49046341612174
 30
0.0
 10
142.5570615025943
 20
93.45464262916789
 30
0.0
 10
142.5117378789781
 20
93.41231337867305
 30
0.0
 10
142.4433266804008
 20
93.34844022967496
 30
0.0
 10
142.3422811674489
 20
93.25418203484897
 30
0.0
 10
142.1967629194259
 20
93.11840473602874
 30
0.0
 10
142.0267107661816
 20
92.95964530086125
 30
0.0
 10
141.8947930786177
 20
92.83649844716817
 30
0.0
 10
141.8278799267654
 20
92.77403416149525
 30
0.0
  0
SPLINE
  5
139
330
1F
100
AcDbEntity
  8
0
  6
Continuous
 62
     8
370
    25
100
AcDbSpline
210
0.0
220
0.0
230
1.0
 70
     8
 71
     3
 72
    18
 73
    14
 74
     0
 42
0.000000001
 43
0.00000001
 40
0.0
 40
0.0
 40
0.0
 40
0.0
 40
0.0759716985786636
 40
0.1506710093718998
 40
0.2241554833695644
 40
0.296485571458475
 40
0.3677246633008381
 40
0.4379391034842293
 40
0.5071981812646982
 40
0.6326267587181382
 40
0.756240453292097
 40
0.8785294569467931
 40
1.0
 40
1.0
 40
1.0
 40
1.0
 10
128.534986707952
 20
92.77403416149525
 30
0.0
 10
128.4960677942993
 20
92.81036266247652
 30
0.0
 10
128.4188817880179
 20
92.88241122811637
 30
0.0
 10
128.3121887652312
 20
92.98202654315762
 30
0.0
 10
128.2134854256653
 20
93.07417085889372
 30
0.0
 10
128.123321485147
 20
93.15832416067553
 30
0.0
 10
128.0415559102299
 20
93.23461724143822
 30
0.0
 10
127.9682204797346
 20
93.30303122229874
 30
0.0
 10
127.8855192631167
 20
93.3801912880494
 30
0.0
 10
127.8026760314139
 20
93.45756367038682
 30
0.0
 10
127.7331506674508
 20
93.52249448734446
 30
0.0
 10
127.689544176558
 20
93.56315109561251
 30
0.0
 10
127.6841308784278
 20
93.56817865395104
 30
0.0
 10
127.681433317358
 20
93.57068399271564
 30
0.0
  0
SPLINE
  5
13A
330
1F
100
AcDbEntity
  8
0
  6
Continuous
 62
     8
370
    25
100
AcDbSpline
210
0.0
220
0.0
230
1.0
 70
    24
 71
     3
 72
     9
 73
     5
 74
     0
 42
0.000000001
 43
0.00000001
 40
-0.481733964059299
 40
-0.481733964059299
 40
-0.481733964059299
 40
-0.481733964059299
 40
-0.4129148263141913
 40
0.0000000001423262
 40
0.0000000001423262
 40
0.0000000001423262
 40
0.0000000001423262
 10
142.1813813777123
 20
94.07062834309447
 30
0.0
 10
142.1814079626184
 20
94.0706568269225
 30
0.0
 10
142.1428347954374
 20
94.02932843351428
 30
0.0
 10
141.831174072548
 20
93.69540623041847
 30
0.0
 10
141.384783486135
 20
93.21713060211886
 30
0.0
  0
SPLINE
  5
13B
330
1F
100
AcDbEntity
  8
0
  6
Continuous
 62
     8
370
    25
100
AcDbSpline
210
0.0
220
0.0
230
1.0
 70
    24
 71
     3
 72
     9
 73
     5
 74
     0
 42
0.000000001
 43
0.00000001
 40
-0.0000000000100284
 40
-0.0000000000100284
 40
-0.0000000000100284
 40
-0.0000000000100284
 40
0.412914826326082
 40
0.481733964058292
 40
0.481733964058292
 40
0.481733964058292
 40
0.481733964058292
 10
128.9780831485791
 20
93.21713060212237
 30
0.0
 10
128.5316925622972
 20
93.69540623028158
 30
0.0
 10
128.2200318394321
 20
94.02932843335125
 30
0.0
 10
128.1814586721203
 20
94.07065682689966
 30
0.0
 10
128.1814852570052
 20
94.07062834309441
 30
0.0
  0
SPLINE
  5
13C
330
1F
100
AcDbEntity
  8
0
  6
Continuous
 62
     8
370
    25
100
AcDbSpline
210
0.0
220
0.0
230
1.0
 70
     8
 71
     3
 72
    12
 73
     8
 74
     0
 42
0.000000001
 43
0.00000001
 40
0.0
 40
0.0
 40
0.0
 40
0.0
 40
0.1646973236447365
 40
0.341712621123571
 40
0.5400570339626277
 40
0.8380246350087188
 40
1.0
 40
1.0
 40
1.0
 40
1.0
 10
127.4464836168243
 20
80.72011325067477
 30
0.0
 10
127.4692287913647
 20
80.7348410405188
 30
0.0
 10
127.5164202880938
 20
80.76539813494868
 30
0.0
 10
127.5706687825022
 20
80.81706883930876
 30
0.0
 10
127.6236873696215
 20
80.88351037249936
 30
0.0
 10
127.6624955380579
 20
80.95068415178825
 30
0.0
 10
127.6690157035496
 20
80.99901949539264
 30
0.0
 10
127.6713118712558
 20
81.01604146442013
 30
0.0
  0
SPLINE
  5
13D
330
1F
100
AcDbEntity
  8
0
  6
Continuous
 62
     8
370
    25
100
AcDbSpline
210
0.0
220
0.0
230
1.0
 70
     8
 71
     3
 72
     9
 73
     5
 74
     0
 42
0.000000001
 43
0.00000001
 40
0.0
 40
0.0
 40
0.0
 40
0.0
 40
0.4584340749503982
 40
1.0
 40
1.0
 40
1.0
 40
1.0
 10
142.6997261877312
 20
81.01691830462413
 30
0.0
 10
142.7086981952023
 20
80.96859339076553
 30
0.0
 10
142.7282691825294
 20
80.86318038484136
 30
0.0
 10
142.8502960354346
 20
80.77038791231524
 30
0.0
 10
142.9163816209092
 20
80.72013467109399
 30
0.0
  0
SPLINE
  5
13E
330
1F
100
AcDbEntity
  8
0
  6
Continuous
 62
     8
370
    25
100
AcDbSpline
210
0.0
220
0.0
230
1.0
 70
     8
 71
     3
 72
    10
 73
     6
 74
     0
 42
0.000000001
 43
0.00000001
 40
0.0
 40
0.0
 40
0.0
 40
0.0
 40
0.248573228850268
 40
0.6467864389238261
 40
1.0
 40
1.0
 40
1.0
 40
1.0
 10
141.4073661725177
 20
92.96379018134074
 30
0.0
 10
141.3996342972011
 20
92.9825353841025
 30
0.0
 10
141.3795159919219
 20
93.03131031854437
 30
0.0
 10
141.3696547725831
 20
93.11810302226897
 30
0.0
 10
141.3799459981124
 20
93.18546597163622
 30
0.0
 10
141.3847834627284
 20
93.21713041073279
 30
0.0
  0
SPLINE
  5
13F
330
1F
100
AcDbEntity
  8
0
  6
Continuous
 62
     8
370
    25
100
AcDbSpline
210
0.0
220
0.0
230
1.0
 70
     8
 71
     3
 72
    10
 73
     6
 74
     0
 42
0.000000001
 43
0.00000001
 40
0.0
 40
0.0
 40
0.0
 40
0.0
 40
0.248573228850268
 40
0.6467864389238261
 40
1.0
 40
1.0
 40
1.0
 40
1.0
 10
128.7883271287336
 20
92.79661684787469
 30
0.0
 10
128.7695819259718
 20
92.78888497255805
 30
0.0
 10
128.72080699153
 20
92.76876666727883
 30
0.0
 10
128.6340142878053
 20
92.75890544794002
 30
0.0
 10
128.5666513384381
 20
92.76919667346931
 30
0.0
 10
128.5349868993415
 20
92.77403413808541
 30
0.0
  0
SPLINE
  5
140
330
1F
100
AcDbEntity
  8
0
  6
Continuous
 62
     8
370
    25
100
AcDbSpline
210
0.0
220
0.0
230
1.0
 70
     8
 71
     3
 72
    10
 73
     6
 74
     0
 42
0.000000001
 43
0.00000001
 40
0.0
 40
0.0
 40
0.0
 40
0.0
 40
0.3531919359855523
 40
0.7514407532050961
 40
1.0
 40
1.0
 40
1.0
 40
1.0
 10
141.8278797353758
 20
92.77403413808541
 30
0.0
 10
141.7962180537423
 20
92.7691966387092
 30
0.0
 10
141.728855593079
 20
92.75890451761437
 30
0.0
 10
141.6420634650063
 20
92.76876594621213
 30
0.0
 10
141.5932872464255
 20
92.7888835913401
 30
0.0
 10
141.5745432312741
 20
92.79661451956825
 30
0.0
  0
SPLINE
  5
141
330
1F
100
AcDbEntity
  8
0
  6
Continuous
 62
     8
370
    25
100
AcDbSpline
210
0.0
220
0.0
230
1.0
 70
     8
 71
     3
 72
    10
 73
     6
 74
     0
 42
0.000000001
 43
0.00000001
 40
0.0
 40
0.0
 40
0.0
 40
0.0
 40
0.3531919359855523
 40
0.7514407532050961
 40
1.0
 40
1.0
 40
1.0
 40
1.0
 10
128.9780831719889
 20
93.21713041073279
 30
0.0
 10
128.9829206713651
 20
93.18546872909928
 30
0.0
 10
128.99321279246
 20
93.11810626843597
 30
0.0
 10
128.9833513638622
 20
93.03131414036324
 30
0.0
 10
128.9632337187342
 20
92.98253792178247
 30
0.0
 10
128.9555027905061
 20
92.96379390663104
 30
0.0
  0
LINE
  5
142
330
1F
100
AcDbEntity
  8
0
  6
CENTERX2
 62
     7
370
    18
100
AcDbLine
 10
135.1814333174
 20
113.0706839927
 30
0.0
 11
135.1814333174
 21
78.2387493101
 31
0.0
  0
LINE
  5
143
330
1F
100
AcDbEntity
  8
0
  6
CENTERX2
 62
     7
370
    18
100
AcDbLine
 10
108.6814333174
 20
86.5706839927
 30
0.0
 11
161.6814333174
 21
86.5706839927
 31
0.0
  0
LINE
  5
144
330
1F
100
AcDbEntity
  8
0
  6
Continuous
 62
     7
370
    25
100
AcDbLine
 10
211.9182776925
 20
100.0706843429
 30
0.0
 11
211.9182776925
 21
111.070683352
 31
0.0
  0
LINE
  5
145
330
1F
100
AcDbEntity
  8
0
  6
Continuous
 62
     7
370
    25
100
AcDbLine
 10
193.9182784674
 20
111.070683352
 30
0.0
 11
193.9182784674
 21
100.0706843429
 31
0.0
  0
LINE
  5
146
330
1F
100
AcDbEntity
  8
0
  6
Continuous
 62
     7
370
    25
100
AcDbLine
 10
211.9182776925
 20
111.070683352
 30
0.0
 11
211.4182785419
 21
111.5706843652
 31
0.0
  0
LINE
  5
147
330
1F
100
AcDbEntity
  8
0
  6
Continuous
 62
     7
370
    25
100
AcDbLine
 10
194.418277618
 20
111.5706843652
 30
0.0
 11
193.9182784674
 21
111.070683352
 31
0.0
  0
ARC
  5
148
330
1F
100
AcDbEntity
  8
0
  6
Continuous
 62
     7
370
    25
100
AcDbCircle
 10
195.4182780799
 20
100.0706839927
 30
0.0
 40
1.500000000000012
100
AcDbArc
 50
180.0
 51
258.4630409672
  0
ARC
  5
149
330
1F
100
AcDbEntity
  8
0
  6
Continuous
 62
     7
370
    25
100
AcDbCircle
 10
210.4182780799
 20
100.0706839927
 30
0.0
 40
1.500000000000028
100
AcDbArc
 50
281.5369590328
 51
0.0
  0
ARC
  5
14A
330
1F
100
AcDbEntity
  8
0
  6
Continuous
 62
     7
370
    25
100
AcDbCircle
 10
194.9182780799
 20
97.6211942499
 30
0.0
 40
1.0
100
AcDbArc
 50
0.0
 51
78.4630409672
  0
ARC
  5
14B
330
1F
100
AcDbEntity
  8
0
  6
Continuous
 62
     7
370
    25
100
AcDbCircle
 10
210.9182780799
 20
97.6211942499
 30
0.0
 40
1.0
100
AcDbArc
 50
101.5369590328
 51
180.0
  0
LINE
  5
14C
330
1F
100
AcDbEntity
  8
0
  6
Continuous
 62
     7
370
    25
100
AcDbLine
 10
195.9182778639
 20
97.6211942129
 30
0.0
 11
195.9182778639
 21
94.0706838251
 31
0.0
  0
LINE
  5
14D
330
1F
100
AcDbEntity
  8
0
  6
Continuous
 62
     7
370
    25
100
AcDbLine
 10
209.918278296
 20
94.0706838251
 30
0.0
 11
209.918278296
 21
97.6211942129
 31
0.0
  0
CIRCLE
  5
14E
330
1F
100
AcDbEntity
  8
0
  6
Continuous
 62
     7
370
    25
100
AcDbCircle
 10
202.9182780799
 20
86.5706839927
 30
0.0
 40
9.000000000000028
  0
CIRCLE
  5
14F
330
1F
100
AcDbEntity
  8
0
  6
Continuous
 62
     7
370
    25
100
AcDbCircle
 10
202.9182780799
 20
86.5706839927
 30
0.0
 40
8.5
  0
CIRCLE
  5
150
330
1F
100
AcDbEntity
  8
0
  6
Continuous
 62
     7
370
    25
100
AcDbCircle
 10
202.9182780799
 20
86.5706839927
 30
0.0
 40
6.10343238175048
  0
CIRCLE
  5
151
330
1F
100
AcDbEntity
  8
0
  6
Continuous
 62
     7
370
    25
100
AcDbCircle
 10
202.9182780799
 20
86.5706839927
 30
0.0
 40
6.75
  0
CIRCLE
  5
152
330
1F
100
AcDbEntity
  8
0
  6
Continuous
 62
     7
370
    25
100
AcDbCircle
 10
202.9182780799
 20
86.5706839927
 30
0.0
 40
5.81061697881421
  0
CIRCLE
  5
153
330
1F
100
AcDbEntity
  8
0
  6
Continuous
 62
     7
370
    25
100
AcDbCircle
 10
202.9182780799
 20
86.5706839927
 30
0.0
 40
5.722499999999997
  0
CIRCLE
  5
154
330
1F
100
AcDbEntity
  8
0
  6
Continuous
 62
     7
370
    25
100
AcDbCircle
 10
202.9182780799
 20
86.5706839927
 30
0.0
 40
4.0
  0
LINE
  5
155
330
1F
100
AcDbEntity
  8
0
  6
Continuous
 62
     7
370
    25
100
AcDbLine
 10
202.9182780799
 20
111.070683352
 30
0.0
 11
193.9182784674
 21
111.070683352
 31
0.0
  0
LINE
  5
156
330
1F
100
AcDbEntity
  8
0
  6
Continuous
 62
     7
370
    25
100
AcDbLine
 10
211.9182776925
 20
111.070683352
 30
0.0
 11
202.9182780799
 21
111.070683352
 31
0.0
  0
LINE
  5
157
330
1F
100
AcDbEntity
  8
0
  6
Continuous
 62
     7
370
    25
100
AcDbLine
 10
202.9182780799
 20
111.5706843652
 30
0.0
 11
211.4182785419
 21
111.5706843652
 31
0.0
  0
LINE
  5
158
330
1F
100
AcDbEntity
  8
0
  6
Continuous
 62
     7
370
    25
100
AcDbLine
 10
194.418277618
 20
111.5706843652
 30
0.0
 11
202.9182780799
 21
111.5706843652
 31
0.0
  0
LINE
  5
159
330
1F
100
AcDbEntity
  8
0
  6
Continuous
 62
     7
370
    25
100
AcDbLine
 10
196.0532614295
 20
92.4357009449
 30
0.0
 11
196.0739894104
 21
92.414972964
 31
0.0
  0
LINE
  5
15A
330
1F
100
AcDbEntity
  8
0
  6
Continuous
 62
     7
370
    25
100
AcDbLine
 10
196.1575639699
 20
92.500701207
 30
0.0
 11
196.0532614295
 21
92.4357009449
 31
0.0
  0
LINE
  5
15B
330
1F
100
AcDbEntity
  8
0
  6
Continuous
 62
     7
370
    25
100
AcDbLine
 10
209.7832947303
 20
92.4357009449
 30
0.0
 11
209.6607298856
 21
92.5120824345
 31
0.0
  0
LINE
  5
15C
330
1F
100
AcDbEntity
  8
0
  6
Continuous
 62
     7
370
    25
100
AcDbLine
 10
209.7625667495
 20
92.414972964
 30
0.0
 11
209.7832947303
 21
92.4357009449
 31
0.0
  0
SPLINE
  5
15D
330
1F
100
AcDbEntity
  8
0
  6
Continuous
 62
     7
370
    25
100
AcDbSpline
210
0.0
220
0.0
230
1.0
 70
     8
 71
     3
 72
     9
 73
     5
 74
     0
 42
0.000000001
 43
0.00000001
 40
0.0
 40
0.0
 40
0.0
 40
0.0
 40
0.1468917263368845
 40
1.0
 40
1.0
 40
1.0
 40
1.0
 10
209.8908517775001
 20
92.22722904315786
 30
0.0
 10
209.8892548592772
 20
92.23805046276406
 30
0.0
 10
209.8783834626183
 20
92.31171982370124
 30
0.0
 10
209.8270703614746
 20
92.37862423664542
 30
0.0
 10
209.7832947303416
 20
92.43570094487268
 30
0.0
  0
SPLINE
  5
15E
330
1F
100
AcDbEntity
  8
0
  6
Continuous
 62
     7
370
    25
100
AcDbSpline
210
0.0
220
0.0
230
1.0
 70
     8
 71
     3
 72
    13
 73
     9
 74
     0
 42
0.000000001
 43
0.00000001
 40
0.0
 40
0.0
 40
0.0
 40
0.0
 40
0.1162222239500744
 40
0.2381780213579675
 40
0.3660917905452749
 40
0.5001580142688472
 40
0.7504239388829979
 40
1.0
 40
1.0
 40
1.0
 40
1.0
 10
196.0532612951342
 20
93.91238963623802
 30
0.0
 10
196.0650987534649
 20
93.89994162561993
 30
0.0
 10
196.089357645674
 20
93.87443150855204
 30
0.0
 10
196.1296438040314
 20
93.83292433553534
 30
0.0
 10
196.1738009949777
 20
93.78833158483035
 30
0.0
 10
196.2352152702717
 20
93.72782550152638
 30
0.0
 10
196.3152460722831
 20
93.65242171786451
 30
0.0
 10
196.3839656921458
 20
93.59790483288201
 30
0.0
 10
196.4182780799331
 20
93.57068401148904
 30
0.0
  0
SPLINE
  5
15F
330
1F
100
AcDbEntity
  8
0
  6
Continuous
 62
     7
370
    25
100
AcDbSpline
210
0.0
220
0.0
230
1.0
 70
     8
 71
     3
 72
    13
 73
     9
 74
     0
 42
0.000000001
 43
0.00000001
 40
0.0
 40
0.0
 40
0.0
 40
0.0
 40
0.1206933106363776
 40
0.2506349558809258
 40
0.4049363551860728
 40
0.501375099440844
 40
0.7702864432344702
 40
1.0
 40
1.0
 40
1.0
 40
1.0
 10
195.9182780799331
 20
93.57068399271564
 30
0.0
 10
195.918665794679
 20
93.58553977100746
 30
0.0
 10
195.9194709334867
 20
93.61638967741166
 30
0.0
 10
195.9264209453201
 20
93.6649648288801
 30
0.0
 10
195.9372112541296
 20
93.70965451116183
 30
0.0
 10
195.9578310395286
 20
93.76941822054924
 30
0.0
 10
195.9903387235427
 20
93.83721023372414
 30
0.0
 10
196.0334158955459
 20
93.88867850609887
 30
0.0
 10
196.0532612951342
 20
93.91238963623802
 30
0.0
  0
SPLINE
  5
160
330
1F
100
AcDbEntity
  8
0
  6
Continuous
 62
     7
370
    25
100
AcDbSpline
210
0.0
220
0.0
230
1.0
 70
    24
 71
     3
 72
    13
 73
     9
 74
     0
 42
0.000000001
 43
0.00000001
 40
0.0
 40
0.0
 40
0.0
 40
0.0
 40
0.1095019511604533
 40
0.2876456989120023
 40
0.4654550179758231
 40
0.6438284104811215
 40
0.8215625749023712
 40
1.0
 40
1.0
 40
1.0
 40
1.0
 10
195.9182778638663
 20
92.23813483050662
 30
0.0
 10
195.9182778638663
 20
92.26482057138395
 30
0.0
 10
195.9182778638663
 20
92.33492013129407
 30
0.0
 10
195.9182778638663
 20
92.50459206024341
 30
0.0
 10
195.9182778638663
 20
92.73119215377261
 30
0.0
 10
195.9182778638663
 20
92.99284395787065
 30
0.0
 10
195.9182778638663
 20
93.27583973619363
 30
0.0
 10
195.9182778638663
 20
93.47227343183224
 30
0.0
 10
195.9182778638663
 20
93.57068420878248
 30
0.0
  0
SPLINE
  5
161
330
1F
100
AcDbEntity
  8
0
  6
Continuous
 62
     7
370
    25
100
AcDbSpline
210
0.0
220
0.0
230
1.0
 70
     8
 71
     3
 72
    12
 73
     8
 74
     0
 42
0.000000001
 43
0.00000001
 40
0.0
 40
0.0
 40
0.0
 40
0.0
 40
0.1664615747826677
 40
0.3330490629245378
 40
0.50019385964186
 40
0.761981166969512
 40
1.0
 40
1.0
 40
1.0
 40
1.0
 10
209.4182780799331
 20
93.57068399271564
 30
0.0
 10
209.4412717548331
 20
93.58865780953059
 30
0.0
 10
209.4872764973008
 20
93.62461903875244
 30
0.0
 10
209.5528194600977
 20
93.68233597532053
 30
0.0
 10
209.6271856555314
 20
93.75262069831174
 30
0.0
 10
209.7064572113971
 20
93.83196346221492
 30
0.0
 10
209.7585074026114
 20
93.8864445343824
 30
0.0
 10
209.7832948647322
 20
93.91238963623785
 30
0.0
  0
SPLINE
  5
162
330
1F
100
AcDbEntity
  8
0
  6
Continuous
 62
     7
370
    25
100
AcDbSpline
210
0.0
220
0.0
230
1.0
 70
     8
 71
     3
 72
    14
 73
    10
 74
     0
 42
0.000000001
 43
0.00000001
 40
0.0
 40
0.0
 40
0.0
 40
0.0
 40
0.1488603140964728
 40
0.3150272284381161
 40
0.4987644934539461
 40
0.5951852670853452
 40
0.7494348315821825
 40
0.8793203117440467
 40
1.0
 40
1.0
 40
1.0
 40
1.0
 10
209.7832948647322
 20
93.91238963623785
 30
0.0
 10
209.7965382217985
 20
93.89717888357816
 30
0.0
 10
209.8245646175315
 20
93.86498896592335
 30
0.0
 10
209.8586341706541
 20
93.8103649552939
 30
0.0
 10
209.8821880600071
 20
93.75965929828061
 30
0.0
 10
209.8993171319362
 20
93.70964265675201
 30
0.0
 10
209.9101421724383
 20
93.66496894584446
 30
0.0
 10
209.9170834073871
 20
93.61639167441999
 30
0.0
 10
209.9178897305518
 20
93.5855420807937
 30
0.0
 10
209.9182780799331
 20
93.57068399271564
 30
0.0
  0
SPLINE
  5
163
330
1F
100
AcDbEntity
  8
0
  6
Continuous
 62
     7
370
    25
100
AcDbSpline
210
0.0
220
0.0
230
1.0
 70
    24
 71
     3
 72
    13
 73
     9
 74
     0
 42
0.000000001
 43
0.00000001
 40
0.0
 40
0.0
 40
0.0
 40
0.0
 40
0.1695817806945505
 40
0.3388103097035301
 40
0.508174029247671
 40
0.6776374365387978
 40
0.8467827107175723
 40
1.0
 40
1.0
 40
1.0
 40
1.0
 10
209.918278296
 20
93.57068420878248
 30
0.0
 10
209.918278296
 20
93.47237480834097
 30
0.0
 10
209.918278296
 20
93.27596079338053
 30
0.0
 10
209.918278296
 20
92.99305213171002
 30
0.0
 10
209.918278296
 20
92.73150892928331
 30
0.0
 10
209.918278296
 20
92.5042730426568
 30
0.0
 10
209.918278296
 20
92.31843404781516
 30
0.0
 10
209.918278296
 20
92.23702329141453
 30
0.0
 10
209.918278296
 20
92.19832917234497
 30
0.0
  0
SPLINE
  5
164
330
1F
100
AcDbEntity
  8
0
  6
Continuous
 62
     7
370
    25
100
AcDbSpline
210
0.0
220
0.0
230
1.0
 70
     8
 71
     3
 72
    14
 73
    10
 74
     0
 42
0.000000001
 43
0.00000001
 40
0.0
 40
0.0
 40
0.0
 40
0.0
 40
0.0771019312235469
 40
0.1604220744820928
 40
0.2500134459871365
 40
0.3625277437571762
 40
0.4999872830486552
 40
0.6965319223496549
 40
1.0
 40
1.0
 40
1.0
 40
1.0
 10
209.4848601436912
 20
94.41514081017334
 30
0.0
 10
209.5061248689919
 20
94.40101153328384
 30
0.0
 10
209.5503693034942
 20
94.37161346408409
 30
0.0
 10
209.6130280446849
 20
94.33309556785682
 30
0.0
 10
209.6784015684955
 20
94.2940330412916
 30
0.0
 10
209.7467468757387
 20
94.25375253484272
 30
0.0
 10
209.8204095932363
 20
94.20509384082635
 30
0.0
 10
209.8981725189516
 20
94.14365900161863
 30
0.0
 10
209.9106843751649
 20
94.09824605246504
 30
0.0
 10
209.9182780799331
 20
94.07068399271564
 30
0.0
  0
SPLINE
  5
165
330
1F
100
AcDbEntity
  8
0
  6
Continuous
 62
     7
370
    25
100
AcDbSpline
210
0.0
220
0.0
230
1.0
 70
     8
 71
     3
 72
    13
 73
     9
 74
     0
 42
0.000000001
 43
0.00000001
 40
0.0
 40
0.0
 40
0.0
 40
0.0
 40
0.1484645556295967
 40
0.3038520792699613
 40
0.4664576632792974
 40
0.6365388262431585
 40
0.814320596678755
 40
0.9999999999999999
 40
0.9999999999999999
 40
0.9999999999999999
 40
0.9999999999999999
 10
208.9849447465998
 20
94.57068399271564
 30
0.0
 10
209.0140196460334
 20
94.5698124053401
 30
0.0
 10
209.0735252203437
 20
94.56802858808348
 30
0.0
 10
209.1593619835914
 20
94.55432089359472
 30
0.0
 10
209.2445294504689
 20
94.53270415668558
 30
0.0
 10
209.3278543343875
 20
94.50215007759789
 30
0.0
 10
209.409329577236
 20
94.46343122436593
 30
0.0
 10
209.4593211995714
 20
94.43146911601649
 30
0.0
 10
209.4848601436912
 20
94.41514081017334
 30
0.0
  0
LINE
  5
166
330
1F
100
AcDbEntity
  8
0
  6
Continuous
 62
     7
370
    25
100
AcDbLine
 10
207.6773629789
 20
94.5706843727
 30
0.0
 11
208.9849445303
 21
94.5706843727
 31
0.0
  0
LINE
  5
167
330
1F
100
AcDbEntity
  8
0
  6
Continuous
 62
     7
370
    25
100
AcDbLine
 10
196.8516116296
 20
94.5706843727
 30
0.0
 11
198.159193181
 21
94.5706843727
 31
0.0
  0
SPLINE
  5
168
330
1F
100
AcDbEntity
  8
0
  6
Continuous
 62
     7
370
    25
100
AcDbSpline
210
0.0
220
0.0
230
1.0
 70
     8
 71
     3
 72
    13
 73
     9
 74
     0
 42
0.000000001
 43
0.00000001
 40
0.0
 40
0.0
 40
0.0
 40
0.0
 40
0.1856794033212454
 40
0.3634611737568486
 40
0.5335423367207065
 40
0.6961479207300426
 40
0.8515354443704023
 40
1.0
 40
1.0
 40
1.0
 40
1.0
 10
196.351696016175
 20
94.41514081017334
 30
0.0
 10
196.3772349602948
 20
94.43146911601649
 30
0.0
 10
196.4272265826303
 20
94.46343122436593
 30
0.0
 10
196.5087018254788
 20
94.50215007759789
 30
0.0
 10
196.5920267093973
 20
94.53270415668558
 30
0.0
 10
196.6771941762749
 20
94.55432089359472
 30
0.0
 10
196.7630309395225
 20
94.56802858808348
 30
0.0
 10
196.8225365138328
 20
94.5698124053401
 30
0.0
 10
196.8516114132665
 20
94.57068399271564
 30
0.0
  0
SPLINE
  5
169
330
1F
100
AcDbEntity
  8
0
  6
Continuous
 62
     7
370
    25
100
AcDbSpline
210
0.0
220
0.0
230
1.0
 70
     8
 71
     3
 72
    17
 73
    13
 74
     0
 42
0.000000001
 43
0.00000001
 40
0.0
 40
0.0
 40
0.0
 40
0.0
 40
0.1130667887614413
 40
0.214247189583317
 40
0.3035410227131065
 40
0.3809482842653933
 40
0.4464692356459874
 40
0.5001045920517729
 40
0.6375226522804812
 40
0.750042112035746
 40
0.8820380142736961
 40
0.9999999999999999
 40
0.9999999999999999
 40
0.9999999999999999
 40
0.9999999999999999
 10
195.9182780799331
 20
94.07068399271564
 30
0.0
 10
195.9193555626246
 20
94.08091361883095
 30
0.0
 10
195.9213972553358
 20
94.10029745974214
 30
0.0
 10
195.9365626770485
 20
94.12819170431338
 30
0.0
 10
195.9568239226182
 20
94.15318451200439
 30
0.0
 10
195.9801746741577
 20
94.17531390951159
 30
0.0
 10
196.003995200127
 20
94.19451373619121
 30
0.0
 10
196.0395126396207
 20
94.22069550144847
 30
0.0
 10
196.0898219323952
 20
94.25367704303629
 30
0.0
 10
196.1668084107302
 20
94.29927131751577
 30
0.0
 10
196.2512489909596
 20
94.34917997422474
 30
0.0
 10
196.319490823137
 20
94.39399253375484
 30
0.0
 10
196.351696016175
 20
94.41514081017334
 30
0.0
  0
LINE
  5
16A
330
1F
100
AcDbEntity
  8
0
  6
Continuous
 62
     7
370
    25
100
AcDbLine
 10
196.4182779458
 20
94.0706838251
 30
0.0
 11
197.8192585786
 21
94.0706838251
 31
0.0
  0
ARC
  5
16B
330
1F
100
AcDbEntity
  8
0
  6
Continuous
 62
     7
370
    25
100
AcDbCircle
 10
196.4182780799
 20
93.5706839927
 30
0.0
 40
0.5
100
AcDbArc
 50
90.0
 51
136.8892083855
  0
LINE
  5
16C
330
1F
100
AcDbEntity
  8
0
  6
Continuous
 62
     7
370
    25
100
AcDbLine
 10
208.0172975813
 20
94.0706838251
 30
0.0
 11
209.418278214
 21
94.0706838251
 31
0.0
  0
ARC
  5
16D
330
1F
100
AcDbEntity
  8
0
  6
Continuous
 62
     7
370
    25
100
AcDbCircle
 10
209.4182780799
 20
93.5706839927
 30
0.0
 40
0.500000000000003
100
AcDbArc
 50
43.1107916145
 51
90.0
  0
SPLINE
  5
16E
330
1F
100
AcDbEntity
  8
0
  6
Continuous
 62
     7
370
    25
100
AcDbSpline
210
0.0
220
0.0
230
1.0
 70
     8
 71
     3
 72
     9
 73
     5
 74
     0
 42
0.000000001
 43
0.00000001
 40
0.0
 40
0.0
 40
0.0
 40
0.0
 40
0.5
 40
1.0
 40
1.0
 40
1.0
 40
1.0
 10
198.1591932005798
 20
94.57068399271564
 30
0.0
 10
198.1591932005798
 20
94.43978429881608
 30
0.0
 10
198.0855724318999
 20
94.17897064736131
 30
0.0
 10
197.908253245476
 20
94.07068399271564
 30
0.0
 10
197.8192585663403
 20
94.07068399271564
 30
0.0
  0
SPLINE
  5
16F
330
1F
100
AcDbEntity
  8
0
  6
Continuous
 62
     7
370
    25
100
AcDbSpline
210
0.0
220
0.0
230
1.0
 70
     8
 71
     3
 72
     9
 73
     5
 74
     0
 42
0.000000001
 43
0.00000001
 40
0.0
 40
0.0
 40
0.0
 40
0.0
 40
0.5
 40
1.0
 40
1.0
 40
1.0
 40
1.0
 10
208.0172975935259
 20
94.07068399271564
 30
0.0
 10
207.9283029143903
 20
94.07068399271564
 30
0.0
 10
207.7509837279664
 20
94.17897064736131
 30
0.0
 10
207.6773629592864
 20
94.43978429881606
 30
0.0
 10
207.6773629592864
 20
94.57068399271564
 30
0.0
  0
SPLINE
  5
170
330
1F
100
AcDbEntity
  8
0
  6
Continuous
 62
     7
370
    25
100
AcDbSpline
210
0.0
220
0.0
230
1.0
 70
     8
 71
     3
 72
     9
 73
     5
 74
     0
 42
0.000000001
 43
0.00000001
 40
0.0
 40
0.0
 40
0.0
 40
0.0
 40
0.5
 40
1.0
 40
1.0
 40
1.0
 40
1.0
 10
196.4182780799331
 20
94.07068399271564
 30
0.0
 10
196.5317244813128
 20
94.07068399271564
 30
0.0
 10
196.7577653924395
 20
94.17896786290062
 30
0.0
 10
196.8516114132665
 20
94.43978429881606
 30
0.0
 10
196.8516114132665
 20
94.57068399271564
 30
0.0
  0
SPLINE
  5
171
330
1F
100
AcDbEntity
  8
0
  6
Continuous
 62
     7
370
    25
100
AcDbSpline
210
0.0
220
0.0
230
1.0
 70
     8
 71
     3
 72
     9
 73
     5
 74
     0
 42
0.000000001
 43
0.00000001
 40
0.0
 40
0.0
 40
0.0
 40
0.0
 40
0.5
 40
1.0
 40
1.0
 40
1.0
 40
1.0
 10
208.9849447465998
 20
94.57068399271564
 30
0.0
 10
208.9849447465998
 20
94.43978429881606
 30
0.0
 10
209.0787907674267
 20
94.17896786290062
 30
0.0
 10
209.3048316785535
 20
94.07068399271564
 30
0.0
 10
209.4182780799331
 20
94.07068399271564
 30
0.0
  0
SPLINE
  5
172
330
1F
100
AcDbEntity
  8
0
  6
Continuous
 62
     7
370
    25
100
AcDbSpline
210
0.0
220
0.0
230
1.0
 70
     8
 71
     3
 72
     9
 73
     5
 74
     0
 42
0.000000001
 43
0.00000001
 40
0.0
 40
0.0
 40
0.0
 40
0.0
 40
0.571428571428571
 40
1.0
 40
1.0
 40
1.0
 40
1.0
 10
209.4848601436912
 20
94.41514081017334
 30
0.0
 10
209.4774660607053
 20
94.31799573598151
 30
0.0
 10
209.5147812402834
 20
94.14833439726385
 30
0.0
 10
209.628373287787
 20
94.02952100139048
 30
0.0
 10
209.6860898998035
 20
93.9929124014445
 30
0.0
  0
SPLINE
  5
173
330
1F
100
AcDbEntity
  8
0
  6
Continuous
 62
     7
370
    25
100
AcDbSpline
210
0.0
220
0.0
230
1.0
 70
     8
 71
     3
 72
     9
 73
     5
 74
     0
 42
0.000000001
 43
0.00000001
 40
0.0
 40
0.0
 40
0.0
 40
0.0
 40
0.5
 40
1.0
 40
1.0
 40
1.0
 40
1.0
 10
196.3516960161768
 20
94.41514081017452
 30
0.0
 10
196.3581658387897
 20
94.33013887025642
 30
0.0
 10
196.3274868455836
 20
94.16024495200763
 30
0.0
 10
196.2178023074167
 20
94.03562243471522
 30
0.0
 10
196.1504662600636
 20
93.99291240144508
 30
0.0
  0
SPLINE
  5
174
330
1F
100
AcDbEntity
  8
0
  6
Continuous
 62
     7
370
    25
100
AcDbSpline
210
0.0
220
0.0
230
1.0
 70
     8
 71
     3
 72
    12
 73
     8
 74
     0
 42
0.000000001
 43
0.00000001
 40
0.0
 40
0.0
 40
0.0
 40
0.0
 40
0.106360889119859
 40
0.159541333679788
 40
0.265902222799647
 40
0.265902222799647
 40
0.267217449924086
 40
0.267217449924086
 40
0.267217449924086
 40
0.267217449924086
 10
209.6860898998035
 20
93.9929124014445
 30
0.0
 10
209.7460666838746
 20
93.95487021536916
 30
0.0
 10
209.8203573269583
 20
93.96036608656136
 30
0.0
 10
209.898588911804
 20
94.00226266412237
 30
0.0
 10
209.9179650295268
 20
94.04338882053669
 30
0.0
 10
209.9182761722654
 20
94.0700361988848
 30
0.0
 10
209.9182780799331
 20
94.07035970189341
 30
0.0
 10
209.9182780799331
 20
94.07068399271564
 30
0.0
  0
SPLINE
  5
175
330
1F
100
AcDbEntity
  8
0
  6
Continuous
 62
     7
370
    25
100
AcDbSpline
210
0.0
220
0.0
230
1.0
 70
    24
 71
     3
 72
    14
 73
    10
 74
     0
 42
0.000000001
 43
0.00000001
 40
0.0
 40
0.0
 40
0.0
 40
0.0
 40
0.2503841006840345
 40
0.3856977520239709
 40
0.5014304172375459
 40
0.6388330237075766
 40
0.767498519821732
 40
0.8877539750359934
 40
1.0
 40
1.0
 40
1.0
 40
1.0
 10
209.9182780799331
 20
94.07068399271564
 30
0.0
 10
209.9182780799331
 20
94.01139732110357
 30
0.0
 10
209.9182780799331
 20
93.9200706917238
 30
0.0
 10
209.9182780799331
 20
93.80755659837428
 30
0.0
 10
209.9182780799331
 20
93.72777003239476
 30
0.0
 10
209.9182780799331
 20
93.66097064440893
 30
0.0
 10
209.9182780799331
 20
93.60978143121206
 30
0.0
 10
209.9182780799331
 20
93.57715190790293
 30
0.0
 10
209.9182780799331
 20
93.57278987530725
 30
0.0
 10
209.9182780799331
 20
93.57068399271564
 30
0.0
  0
LINE
  5
176
330
1F
100
AcDbEntity
  8
0
  6
Continuous
 62
     7
370
    25
100
AcDbLine
 10
195.9182778639
 20
94.0706838251
 30
0.0
 11
195.9256925885
 21
94.046224966
 31
0.0
  0
SPLINE
  5
177
330
1F
100
AcDbEntity
  8
0
  6
Continuous
 62
     7
370
    25
100
AcDbSpline
210
0.0
220
0.0
230
1.0
 70
    24
 71
     3
 72
    10
 73
     6
 74
     0
 42
0.000000001
 43
0.00000001
 40
-0.263620655015386
 40
-0.263620655015386
 40
-0.263620655015386
 40
-0.263620655015386
 40
-0.2626630659468851
 40
-0.2626630659468851
 40
0.0009575890685009
 40
0.0009575890685009
 40
0.0009575890685009
 40
0.0009575890685009
 10
195.9182780799331
 20
94.07068399271564
 30
0.0
 10
195.9182780799331
 20
94.06983090457005
 30
0.0
 10
195.9182780799331
 20
94.06897145929798
 30
0.0
 10
195.9182780799329
 20
93.83577071032846
 30
0.0
 10
195.9182780799331
 20
93.57068399271564
 30
0.0
 10
195.9182780799331
 20
93.57068399271564
 30
0.0
  0
LINE
  5
178
330
1F
100
AcDbEntity
  8
0
  6
Continuous
 62
     8
370
    25
100
AcDbLine
 10
202.9182780799
 20
100.0706843429
 30
0.0
 11
211.9182776925
 21
100.0706843429
 31
0.0
  0
LINE
  5
179
330
1F
100
AcDbEntity
  8
0
  6
Continuous
 62
     8
370
    25
100
AcDbLine
 10
193.9182784674
 20
100.0706843429
 30
0.0
 11
202.9182780799
 21
100.0706843429
 31
0.0
  0
LINE
  5
17A
330
1F
100
AcDbEntity
  8
0
  6
Continuous
 62
     8
370
    25
100
AcDbLine
 10
202.9182780799
 20
98.6009902649
 30
0.0
 11
210.7182778683
 21
98.6009902649
 31
0.0
  0
LINE
  5
17B
330
1F
100
AcDbEntity
  8
0
  6
Continuous
 62
     8
370
    25
100
AcDbLine
 10
195.1182782915
 20
98.6009902649
 30
0.0
 11
202.9182780799
 21
98.6009902649
 31
0.0
  0
LINE
  5
17C
330
1F
100
AcDbEntity
  8
0
  6
Continuous
 62
     8
370
    25
100
AcDbLine
 10
202.9182780799
 20
97.6211942129
 30
0.0
 11
195.9182778639
 21
97.6211942129
 31
0.0
  0
LINE
  5
17D
330
1F
100
AcDbEntity
  8
0
  6
Continuous
 62
     8
370
    25
100
AcDbLine
 10
209.918278296
 20
97.6211942129
 30
0.0
 11
202.9182780799
 21
97.6211942129
 31
0.0
  0
SPLINE
  5
17E
330
1F
100
AcDbEntity
  8
0
  6
Continuous
 62
     8
370
    25
100
AcDbSpline
210
0.0
220
0.0
230
1.0
 70
    24
 71
     3
 72
    10
 73
     6
 74
     0
 42
0.000000001
 43
0.00000001
 40
0.0
 40
0.0
 40
0.0
 40
0.0
 40
0.414928205129049
 40
0.8298562538090092
 40
1.0
 40
1.0
 40
1.0
 40
1.0
 10
196.4182779458227
 20
93.57068420878248
 30
0.0
 10
196.4182779458227
 20
93.44128619339976
 30
0.0
 10
196.4182779458227
 20
93.18249021142398
 30
0.0
 10
196.4182779458227
 20
92.89719426196136
 30
0.0
 10
196.4182779458227
 20
92.80228794024269
 30
0.0
 10
196.4182779458227
 20
92.77468839219408
 30
0.0
  0
SPLINE
  5
17F
330
1F
100
AcDbEntity
  8
0
  6
Continuous
 62
     8
370
    25
100
AcDbSpline
210
0.0
220
0.0
230
1.0
 70
    24
 71
     3
 72
    10
 73
     6
 74
     0
 42
0.000000001
 43
0.00000001
 40
0.0
 40
0.0
 40
0.0
 40
0.0
 40
0.1548036829657409
 40
0.5774017618123293
 40
0.9999999999999999
 40
0.9999999999999999
 40
0.9999999999999999
 40
0.9999999999999999
 10
209.4182782140436
 20
92.78417018732624
 30
0.0
 10
209.4182782140436
 20
92.80896205517817
 30
0.0
 10
209.4182782140436
 20
92.90143316375958
 30
0.0
 10
209.4182782140436
 20
93.18280922682254
 30
0.0
 10
209.4182782140436
 20
93.44139253187932
 30
0.0
 10
209.4182782140436
 20
93.57068420878248
 30
0.0
  0
LINE
  5
180
330
1F
100
AcDbEntity
  8
0
  6
Continuous
 62
     8
370
    25
100
AcDbLine
 10
208.5751323295
 20
93.5706842088
 30
0.0
 11
209.418278214
 21
93.5706842088
 31
0.0
  0
LINE
  5
181
330
1F
100
AcDbEntity
  8
0
  6
Continuous
 62
     8
370
    25
100
AcDbLine
 10
196.4182779458
 20
93.5706842088
 30
0.0
 11
197.2614238304
 21
93.5706842088
 31
0.0
  0
SPLINE
  5
182
330
1F
100
AcDbEntity
  8
0
  6
Continuous
 62
     8
370
    25
100
AcDbSpline
210
0.0
220
0.0
230
1.0
 70
     8
 71
     3
 72
     9
 73
     5
 74
     0
 42
0.000000001
 43
0.00000001
 40
0.0
 40
0.0
 40
0.0
 40
0.0
 40
0.2445636372772303
 40
1.0
 40
1.0
 40
1.0
 40
1.0
 10
207.2039642636539
 20
94.4626053192337
 30
0.0
 10
207.2425389323761
 20
94.48141682014369
 30
0.0
 10
207.4002674857768
 20
94.55833545416228
 30
0.0
 10
207.5581174078925
 20
94.56537012587992
 30
0.0
 10
207.6773629789116
 20
94.57068437269525
 30
0.0
  0
SPLINE
  5
183
330
1F
100
AcDbEntity
  8
0
  6
Continuous
 62
     8
370
    25
100
AcDbSpline
210
0.0
220
0.0
230
1.0
 70
     8
 71
     3
 72
     9
 73
     5
 74
     0
 42
0.000000001
 43
0.00000001
 40
0.0
 40
0.0
 40
0.0
 40
0.0
 40
0.7519363683777341
 40
1.0
 40
1.0
 40
1.0
 40
1.0
 10
198.1591931809546
 20
94.57068437269525
 30
0.0
 10
198.2784386715824
 20
94.56530857960215
 30
0.0
 10
198.4370232216088
 20
94.55815931362805
 30
0.0
 10
198.5954856969839
 20
94.48080056006953
 30
0.0
 10
198.6347944741013
 20
94.46161066672401
 30
0.0
  0
LINE
  5
184
330
1F
100
AcDbEntity
  8
0
  6
Continuous
 62
     8
370
    25
100
AcDbLine
 10
197.9581229654
 20
94.0661114969
 30
0.0
 11
197.8192585786
 21
94.0706838251
 31
0.0
  0
LINE
  5
185
330
1F
100
AcDbEntity
  8
0
  6
Continuous
 62
     8
370
    25
100
AcDbLine
 10
208.0172975813
 20
94.0706838251
 30
0.0
 11
207.8718026434
 21
94.0640360445
 31
0.0
  0
SPLINE
  5
186
330
1F
100
AcDbEntity
  8
0
  6
Continuous
 62
     8
370
    25
100
AcDbSpline
210
0.0
220
0.0
230
1.0
 70
     8
 71
     3
 72
    11
 73
     7
 74
     0
 42
0.000000001
 43
0.00000001
 40
0.0
 40
0.0
 40
0.0
 40
0.0
 40
0.138306374567875
 40
0.4174703047224942
 40
0.7013665291882653
 40
1.0
 40
1.0
 40
1.0
 40
1.0
 10
195.9256925885441
 20
94.04622496596174
 30
0.0
 10
195.9274655976551
 20
94.03784518751104
 30
0.0
 10
195.9328173296787
 20
94.01255127987842
 30
0.0
 10
195.97392264379
 20
93.98035130489738
 30
0.0
 10
196.0469714155682
 20
93.95043310705321
 30
0.0
 10
196.1153910694021
 20
93.97851577498332
 30
0.0
 10
196.150466360605
 20
93.99291233650045
 30
0.0
  0
INSERT
  5
192
330
1F
100
AcDbEntity
  8
0
  6
Continuous
 62
     7
370
    18
100
AcDbBlockReference
  2
SW_CENTERMARKSYMBOL_0
 10
202.9182780799
 20
86.5706839927
 30
0.0
  0
ARC
  5
193
330
1F
100
AcDbEntity
  8
0
  6
Continuous
 62
     7
370
    18
100
AcDbCircle
 10
202.9182780799
 20
86.5706839927
 30
0.0
 40
6.562891500000013
100
AcDbArc
 50
75.0
 51
345.0
  0
ARC
  5
194
330
1F
100
AcDbEntity
  8
0
  6
Continuous
 62
     7
370
    18
100
AcDbCircle
 10
202.9182780799
 20
86.5706839927
 30
0.0
 40
6.562891500000013
100
AcDbArc
 50
75.0
 51
345.0
  0
LINE
  5
195
330
1F
100
AcDbEntity
  8
0
  6
Continuous
 62
     7
370
    25
100
AcDbLine
 10
110.6814339581
 20
157.5240400012
 30
0.0
 11
110.1814329448
 21
157.0240408505
 31
0.0
  0
LINE
  5
196
330
1F
100
AcDbEntity
  8
0
  6
Continuous
 62
     7
370
    25
100
AcDbLine
 10
110.1814329448
 20
140.0240399267
 30
0.0
 11
110.6814339581
 21
139.524040776
 31
0.0
  0
LINE
  5
197
330
1F
100
AcDbEntity
  8
0
  6
Continuous
 62
     7
370
    25
100
AcDbLine
 10
159.6814326766
 20
139.524040776
 30
0.0
 11
160.1814336899
 21
140.0240399267
 31
0.0
  0
LINE
  5
198
330
1F
100
AcDbEntity
  8
0
  6
Continuous
 62
     7
370
    25
100
AcDbLine
 10
160.1814336899
 20
157.0240408505
 30
0.0
 11
159.6814326766
 21
157.5240400012
 31
0.0
  0
LINE
  5
199
330
1F
100
AcDbEntity
  8
0
  6
Continuous
 62
     7
370
    25
100
AcDbLine
 10
121.6814329672
 20
157.5240400012
 30
0.0
 11
110.6814339581
 21
157.5240400012
 31
0.0
  0
LINE
  5
19A
330
1F
100
AcDbEntity
  8
0
  6
Continuous
 62
     7
370
    25
100
AcDbLine
 10
110.6814339581
 20
139.524040776
 30
0.0
 11
121.6814329672
 21
139.524040776
 31
0.0
  0
LINE
  5
19B
330
1F
100
AcDbEntity
  8
0
  6
Continuous
 62
     7
370
    25
100
AcDbLine
 10
148.6814336675
 20
139.524040776
 30
0.0
 11
159.6814326766
 21
139.524040776
 31
0.0
  0
LINE
  5
19C
330
1F
100
AcDbEntity
  8
0
  6
Continuous
 62
     7
370
    25
100
AcDbLine
 10
159.6814326766
 20
157.5240400012
 30
0.0
 11
148.6814336675
 21
157.5240400012
 31
0.0
  0
ARC
  5
19D
330
1F
100
AcDbEntity
  8
0
  6
Continuous
 62
     7
370
    25
100
AcDbCircle
 10
121.6814333174
 20
156.0240403886
 30
0.0
 40
1.500000000000004
100
AcDbArc
 50
11.5369590328
 51
90.0
  0
ARC
  5
19E
330
1F
100
AcDbEntity
  8
0
  6
Continuous
 62
     7
370
    25
100
AcDbCircle
 10
121.6814333174
 20
141.0240403886
 30
0.0
 40
1.5
100
AcDbArc
 50
270.0
 51
348.4630409672
  0
ARC
  5
19F
330
1F
100
AcDbEntity
  8
0
  6
Continuous
 62
     7
370
    25
100
AcDbCircle
 10
148.6814333174
 20
156.0240403886
 30
0.0
 40
1.500000000000018
100
AcDbArc
 50
90.0
 51
168.4630409672
  0
ARC
  5
1A0
330
1F
100
AcDbEntity
  8
0
  6
Continuous
 62
     7
370
    25
100
AcDbCircle
 10
148.6814333174
 20
141.0240403886
 30
0.0
 40
1.500000000000012
100
AcDbArc
 50
191.5369590328
 51
270.0
  0
ARC
  5
1A1
330
1F
100
AcDbEntity
  8
0
  6
Continuous
 62
     7
370
    25
100
AcDbCircle
 10
146.2319435746
 20
156.5240403886
 30
0.0
 40
1.000000000000017
100
AcDbArc
 50
270.0
 51
348.4630409672
  0
ARC
  5
1A2
330
1F
100
AcDbEntity
  8
0
  6
Continuous
 62
     7
370
    25
100
AcDbCircle
 10
146.2319435746
 20
140.5240403886
 30
0.0
 40
1.000000000000023
100
AcDbArc
 50
11.5369590328
 51
90.0
  0
ARC
  5
1A3
330
1F
100
AcDbEntity
  8
0
  6
Continuous
 62
     7
370
    25
100
AcDbCircle
 10
124.1309230601
 20
156.5240403886
 30
0.0
 40
1.000000000000004
100
AcDbArc
 50
191.5369590328
 51
270.0
  0
ARC
  5
1A4
330
1F
100
AcDbEntity
  8
0
  6
Continuous
 62
     7
370
    25
100
AcDbCircle
 10
124.1309230601
 20
140.5240403886
 30
0.0
 40
1.000000000000009
100
AcDbArc
 50
90.0
 51
168.4630409672
  0
SPLINE
  5
1A5
330
1F
100
AcDbEntity
  8
0
  6
Continuous
 62
     7
370
    25
100
AcDbSpline
210
0.0
220
0.0
230
1.0
 70
     8
 71
     3
 72
    16
 73
    12
 74
     0
 42
0.000000001
 43
0.00000001
 40
0.0
 40
0.0
 40
0.0
 40
0.0
 40
0.001558688101615
 40
0.0410302892138949
 40
0.1371775496461782
 40
0.2564358294803687
 40
0.3953632821085705
 40
0.5485297445143557
 40
0.7092896286264974
 40
0.8703572720428943
 40
1.0
 40
1.0
 40
1.0
 40
1.0
 10
140.9757405343606
 20
141.6181228446888
 30
0.0
 10
140.9751666575695
 20
141.6177123743491
 30
0.0
 10
140.9600601518559
 20
141.6069073154442
 30
0.0
 10
140.9205288810376
 20
141.5852761564898
 30
0.0
 10
140.8714942911325
 20
141.5575921894103
 30
0.0
 10
140.8599929022912
 20
141.5413084229766
 30
0.0
 10
140.9063632430356
 20
141.5313254486165
 30
0.0
 10
141.0204237247065
 20
141.5266315010178
 30
0.0
 10
141.1987463893977
 20
141.5246120201745
 30
0.0
 10
141.4110907362974
 20
141.5240621687284
 30
0.0
 10
141.5723555372353
 20
141.524056939861
 30
0.0
 10
141.6442718180968
 20
141.5240546080398
 30
0.0
  0
LINE
  5
1A6
330
1F
100
AcDbEntity
  8
0
  6
Continuous
 62
     7
370
    25
100
AcDbLine
 10
127.681433485
 20
155.5240406047
 30
0.0
 11
124.1309230971
 21
155.5240406047
 31
0.0
  0
LINE
  5
1A7
330
1F
100
AcDbEntity
  8
0
  6
Continuous
 62
     7
370
    25
100
AcDbLine
 10
146.2319435376
 20
155.5240406047
 30
0.0
 11
144.4314334366
 21
155.5240406047
 31
0.0
  0
LINE
  5
1A8
330
1F
100
AcDbEntity
  8
0
  6
Continuous
 62
     7
370
    25
100
AcDbLine
 10
142.9314331907
 20
155.5240406047
 30
0.0
 11
142.6814331497
 21
155.5240406047
 31
0.0
  0
LINE
  5
1A9
330
1F
100
AcDbEntity
  8
0
  6
Continuous
 62
     7
370
    25
100
AcDbLine
 10
142.6814331497
 20
141.5240401725
 30
0.0
 11
146.2319435376
 21
141.5240401725
 31
0.0
  0
LINE
  5
1AA
330
1F
100
AcDbEntity
  8
0
  6
Continuous
 62
     7
370
    25
100
AcDbLine
 10
124.1309230971
 20
141.5240401725
 30
0.0
 11
127.681433485
 21
141.5240401725
 31
0.0
  0
ARC
  5
1AB
330
1F
100
AcDbEntity
  8
0
  6
Continuous
 62
     7
370
    25
100
AcDbCircle
 10
143.9731757479
 20
155.3240403886
 30
0.0
 40
0.5
100
AcDbArc
 50
23.5781784782
 51
90.0
  0
ARC
  5
1AC
330
1F
100
AcDbEntity
  8
0
  6
Continuous
 62
     7
370
    25
100
AcDbCircle
 10
143.3896908869
 20
155.3240403886
 30
0.0
 40
0.5000000000000107
100
AcDbArc
 50
90.0
 51
156.4218215218
  0
CIRCLE
  5
1AD
330
1F
100
AcDbEntity
  8
0
  6
Continuous
 62
     7
370
    25
100
AcDbCircle
 10
135.1814333174
 20
148.5240403886
 30
0.0
 40
5.0
  0
CIRCLE
  5
1AE
330
1F
100
AcDbEntity
  8
0
  6
Continuous
 62
     7
370
    25
100
AcDbCircle
 10
135.1814333174
 20
148.5240403886
 30
0.0
 40
8.5
  0
CIRCLE
  5
1AF
330
1F
100
AcDbEntity
  8
0
  6
Continuous
 62
     7
370
    25
100
AcDbCircle
 10
135.1814333174
 20
148.5240403886
 30
0.0
 40
9.0
  0
CIRCLE
  5
1B0
330
1F
100
AcDbEntity
  8
0
  6
Continuous
 62
     7
370
    25
100
AcDbCircle
 10
135.1814333174
 20
148.5240403886
 30
0.0
 40
4.618423633796681
  0
CIRCLE
  5
1B1
330
1F
100
AcDbEntity
  8
0
  6
Continuous
 62
     7
370
    25
100
AcDbCircle
 10
135.1814333174
 20
148.5240403886
 30
0.0
 40
4.342497099879523
  0
CIRCLE
  5
1B2
330
1F
100
AcDbEntity
  8
0
  6
Continuous
 62
     7
370
    25
100
AcDbCircle
 10
135.1814333174
 20
148.5240403886
 30
0.0
 40
4.283000000000015
  0
CIRCLE
  5
1B3
330
1F
100
AcDbEntity
  8
0
  6
Continuous
 62
     7
370
    25
100
AcDbCircle
 10
135.1814333174
 20
148.5240403886
 30
0.0
 40
2.0
  0
LINE
  5
1B4
330
1F
100
AcDbEntity
  8
0
  6
Continuous
 62
     7
370
    25
100
AcDbLine
 10
110.6814339581
 20
157.5240400012
 30
0.0
 11
110.6814339581
 21
139.524040776
 31
0.0
  0
LINE
  5
1B5
330
1F
100
AcDbEntity
  8
0
  6
Continuous
 62
     7
370
    25
100
AcDbLine
 10
110.1814329448
 20
140.0240399267
 30
0.0
 11
110.1814329448
 21
157.0240408505
 31
0.0
  0
LINE
  5
1B6
330
1F
100
AcDbEntity
  8
0
  6
Continuous
 62
     7
370
    25
100
AcDbLine
 10
159.6814326766
 20
139.524040776
 30
0.0
 11
159.6814326766
 21
157.5240400012
 31
0.0
  0
LINE
  5
1B7
330
1F
100
AcDbEntity
  8
0
  6
Continuous
 62
     7
370
    25
100
AcDbLine
 10
160.1814336899
 20
157.0240408505
 30
0.0
 11
160.1814336899
 21
140.0240399267
 31
0.0
  0
LINE
  5
1B8
330
1F
100
AcDbEntity
  8
0
  6
Continuous
 62
     7
370
    25
100
AcDbLine
 10
129.3164163652
 20
155.389057039
 30
0.0
 11
129.2434896167
 21
155.2720354262
 31
0.0
  0
LINE
  5
1B9
330
1F
100
AcDbEntity
  8
0
  6
Continuous
 62
     7
370
    25
100
AcDbLine
 10
129.3371443461
 20
155.3683290581
 30
0.0
 11
129.3164163652
 21
155.389057039
 31
0.0
  0
LINE
  5
1BA
330
1F
100
AcDbEntity
  8
0
  6
Continuous
 62
     7
370
    25
100
AcDbLine
 10
141.0464502695
 20
155.389057039
 30
0.0
 11
141.0257222886
 21
155.3683290581
 31
0.0
  0
LINE
  5
1BB
330
1F
100
AcDbEntity
  8
0
  6
Continuous
 62
     7
370
    25
100
AcDbLine
 10
141.1311028349
 20
155.2532199162
 30
0.0
 11
141.0464502695
 21
155.389057039
 31
0.0
  0
LINE
  5
1BC
330
1F
100
AcDbEntity
  8
0
  6
Continuous
 62
     7
370
    25
100
AcDbLine
 10
141.0464502695
 20
141.6590237382
 30
0.0
 11
141.1174738604
 21
141.7729910786
 31
0.0
  0
LINE
  5
1BD
330
1F
100
AcDbEntity
  8
0
  6
Continuous
 62
     7
370
    25
100
AcDbLine
 10
141.0257222886
 20
141.6797517191
 30
0.0
 11
141.0464502695
 21
141.6590237382
 31
0.0
  0
LINE
  5
1BE
330
1F
100
AcDbEntity
  8
0
  6
Continuous
 62
     7
370
    25
100
AcDbLine
 10
129.3164163652
 20
141.6590237382
 30
0.0
 11
129.3371443461
 21
141.6797517191
 31
0.0
  0
LINE
  5
1BF
330
1F
100
AcDbEntity
  8
0
  6
Continuous
 62
     7
370
    25
100
AcDbLine
 10
129.2261856432
 20
141.8038113366
 30
0.0
 11
129.3164163652
 21
141.6590237382
 31
0.0
  0
SPLINE
  5
1C0
330
1F
100
AcDbEntity
  8
0
  6
Continuous
 62
     7
370
    25
100
AcDbSpline
210
0.0
220
0.0
230
1.0
 70
     8
 71
     3
 72
     9
 73
     5
 74
     0
 42
0.000000001
 43
0.00000001
 40
0.0
 40
0.0
 40
0.0
 40
0.0
 40
0.0530734654727561
 40
1.0
 40
1.0
 40
1.0
 40
1.0
 10
129.5030901963963
 20
155.4927942666339
 30
0.0
 10
129.4995777321477
 20
155.492213958318
 30
0.0
 10
129.4333965582357
 20
155.4812799009558
 30
0.0
 10
129.3733120142329
 20
155.4339114665002
 30
0.0
 10
129.3164163652017
 20
155.3890570390152
 30
0.0
  0
SPLINE
  5
1C1
330
1F
100
AcDbEntity
  8
0
  6
Continuous
 62
     7
370
    25
100
AcDbSpline
210
0.0
220
0.0
230
1.0
 70
     8
 71
     3
 72
     9
 73
     5
 74
     0
 42
0.000000001
 43
0.00000001
 40
0.0
 40
0.0
 40
0.0
 40
0.0
 40
0.7968510054537402
 40
1.0
 40
1.0
 40
1.0
 40
1.0
 10
129.3164163652017
 20
141.6590237381982
 30
0.0
 10
129.3736012130378
 20
141.6158952493242
 30
0.0
 10
129.4453647515724
 20
141.561771594364
 30
0.0
 10
129.5243712414882
 20
141.5509440416096
 30
0.0
 10
129.5404213304772
 20
141.5487444351541
 30
0.0
  0
SPLINE
  5
1C2
330
1F
100
AcDbEntity
  8
0
  6
Continuous
 62
     7
370
    25
100
AcDbSpline
210
0.0
220
0.0
230
1.0
 70
     8
 71
     3
 72
     9
 73
     5
 74
     0
 42
0.000000001
 43
0.00000001
 40
0.0
 40
0.0
 40
0.0
 40
0.0
 40
0.1433472084244004
 40
1.0
 40
1.0
 40
1.0
 40
1.0
 10
140.8388887356176
 20
141.5516259472
 30
0.0
 10
140.8494041870559
 20
141.553184800845
 30
0.0
 10
140.9227607006137
 20
141.5640594712496
 30
0.0
 10
140.9893803558682
 20
141.6152075735655
 30
0.0
 10
141.0464502695157
 20
141.6590237381982
 30
0.0
  0
SPLINE
  5
1C3
330
1F
100
AcDbEntity
  8
0
  6
Continuous
 62
     7
370
    25
100
AcDbSpline
210
0.0
220
0.0
230
1.0
 70
     8
 71
     3
 72
    12
 73
     8
 74
     0
 42
0.000000001
 43
0.00000001
 40
0.0
 40
0.0
 40
0.0
 40
0.0
 40
0.1664616487437876
 40
0.3330491329443992
 40
0.500193847829015
 40
0.7619811613088653
 40
1.0
 40
1.0
 40
1.0
 40
1.0
 10
128.1814332985853
 20
155.0240403886067
 30
0.0
 10
128.1634594747842
 20
155.047034073602
 30
0.0
 10
128.1274982400022
 20
155.0930388254993
 30
0.0
 10
128.06978131172
 20
155.1585817895074
 30
0.0
 10
127.9994966023934
 20
155.2329479752221
 30
0.0
 10
127.9201538476454
 20
155.3122195198506
 30
0.0
 10
127.8656727756254
 20
155.3642697112114
 30
0.0
 10
127.8397276738363
 20
155.3890571734056
 30
0.0
  0
SPLINE
  5
1C4
330
1F
100
AcDbEntity
  8
0
  6
Continuous
 62
     7
370
    25
100
AcDbSpline
210
0.0
220
0.0
230
1.0
 70
     8
 71
     3
 72
    14
 73
    10
 74
     0
 42
0.000000001
 43
0.00000001
 40
0.0
 40
0.0
 40
0.0
 40
0.0
 40
0.1488603139315083
 40
0.3150272282737267
 40
0.4987644934547347
 40
0.5951852632716568
 40
0.749434831581739
 40
0.879320313901446
 40
1.0
 40
1.0
 40
1.0
 40
1.0
 10
127.8397276738363
 20
155.3890571734057
 30
0.0
 10
127.8549384264784
 20
155.4023005304575
 30
0.0
 10
127.887128344115
 20
155.4303269261764
 30
0.0
 10
127.9417523547317
 20
155.4643964793038
 30
0.0
 10
127.992458011356
 20
155.4879503684784
 30
0.0
 10
128.042474652848
 20
155.5050794404755
 30
0.0
 10
128.0871483640279
 20
155.5159044811108
 30
0.0
 10
128.1357256359307
 20
155.5228457160868
 30
0.0
 10
128.1665752295498
 20
155.5236520392385
 30
0.0
 10
128.1814333173587
 20
155.5240403886067
 30
0.0
  0
SPLINE
  5
1C5
330
1F
100
AcDbEntity
  8
0
  6
Continuous
 62
     7
370
    25
100
AcDbSpline
210
0.0
220
0.0
230
1.0
 70
    24
 71
     3
 72
    13
 73
     9
 74
     0
 42
0.000000001
 43
0.00000001
 40
0.0
 40
0.0
 40
0.0
 40
0.0
 40
0.1847371487918729
 40
0.3690894761192522
 40
0.5535890758358414
 40
0.7381972723018706
 40
0.9224589043912812
 40
0.9999999999999999
 40
0.9999999999999999
 40
0.9999999999999999
 40
0.9999999999999999
 10
128.1814331012918
 20
155.5240406046735
 30
0.0
 10
128.2797492122417
 20
155.5240406046735
 30
0.0
 10
128.4761766342402
 20
155.5240406046735
 30
0.0
 10
128.7589848769882
 20
155.5240406046735
 30
0.0
 10
129.0209098754677
 20
155.5240406046735
 30
0.0
 10
129.2467188675913
 20
155.5240406046735
 30
0.0
 10
129.4058504708929
 20
155.5240406046735
 30
0.0
 10
129.4682625247104
 20
155.5240406046735
 30
0.0
 10
129.4867478135182
 20
155.5240406046735
 30
0.0
  0
SPLINE
  5
1C6
330
1F
100
AcDbEntity
  8
0
  6
Continuous
 62
     7
370
    25
100
AcDbSpline
210
0.0
220
0.0
230
1.0
 70
     8
 71
     3
 72
    12
 73
     8
 74
     0
 42
0.000000001
 43
0.00000001
 40
0.0
 40
0.0
 40
0.0
 40
0.0
 40
0.1664616503807027
 40
0.3330491366093241
 40
0.5001938540683241
 40
0.7619811741357122
 40
1.0
 40
1.0
 40
1.0
 40
1.0
 10
142.1814333361321
 20
142.0240403886067
 30
0.0
 10
142.1994071598839
 20
142.0010467032033
 30
0.0
 10
142.2353683946091
 20
141.9550419504357
 30
0.0
 10
142.2930853236825
 20
141.8894989856253
 30
0.0
 10
142.3633700351749
 20
141.8151327994057
 30
0.0
 10
142.442712789618
 20
141.7358612557462
 30
0.0
 10
142.4971938606411
 20
141.6838110647852
 30
0.0
 10
142.523138960881
 20
141.6590236038077
 30
0.0
  0
SPLINE
  5
1C7
330
1F
100
AcDbEntity
  8
0
  6
Continuous
 62
     7
370
    25
100
AcDbSpline
210
0.0
220
0.0
230
1.0
 70
     8
 71
     3
 72
    14
 73
    10
 74
     0
 42
0.000000001
 43
0.00000001
 40
0.0
 40
0.0
 40
0.0
 40
0.0
 40
0.1488603598374869
 40
0.3150273329269794
 40
0.4987646698885773
 40
0.5951853465829806
 40
0.7494349165379153
 40
0.8793203509512854
 40
1.0
 40
1.0
 40
1.0
 40
1.0
 10
142.523138960881
 20
141.6590236038077
 30
0.0
 10
142.5079282034607
 20
141.6457802428995
 30
0.0
 10
142.4757382749454
 20
141.6177538383518
 30
0.0
 10
142.4211142438376
 20
141.5836842771429
 30
0.0
 10
142.3704085813978
 20
141.5601303917512
 30
0.0
 10
142.3203919418254
 20
141.5430013256845
 30
0.0
 10
142.2757182462983
 20
141.5321762916786
 30
0.0
 10
142.2271409838207
 20
141.5252350603636
 30
0.0
 10
142.196291400624
 20
141.5244287377353
 30
0.0
 10
142.1814333173587
 20
141.5240403886067
 30
0.0
  0
SPLINE
  5
1C8
330
1F
100
AcDbEntity
  8
0
  6
Continuous
 62
     7
370
    25
100
AcDbSpline
210
0.0
220
0.0
230
1.0
 70
    24
 71
     3
 72
    13
 73
     9
 74
     0
 42
0.000000001
 43
0.00000001
 40
0.0
 40
0.0
 40
0.0
 40
0.0
 40
0.1685697420418679
 40
0.336788340551284
 40
0.5051413227990079
 40
0.6735933978721836
 40
0.8417292384037441
 40
0.9999999999999999
 40
0.9999999999999999
 40
0.9999999999999999
 40
0.9999999999999999
 10
142.1814335334255
 20
141.5240401725399
 30
0.0
 10
142.0831244826778
 20
141.5240401725399
 30
0.0
 10
141.8867111663765
 20
141.5240401725399
 30
0.0
 10
141.6037972717382
 20
141.5240401725399
 30
0.0
 10
141.3422739652275
 20
141.5240401725399
 30
0.0
 10
141.1149637211711
 20
141.5240401725399
 30
0.0
 10
140.9271278495821
 20
141.5240401725399
 30
0.0
 10
140.8443232675465
 20
141.5240401725399
 30
0.0
 10
140.8041722896649
 20
141.5240401725399
 30
0.0
  0
SPLINE
  5
1C9
330
1F
100
AcDbEntity
  8
0
  6
Continuous
 62
     7
370
    25
100
AcDbSpline
210
0.0
220
0.0
230
1.0
 70
     8
 71
     3
 72
    13
 73
     9
 74
     0
 42
0.000000001
 43
0.00000001
 40
0.0
 40
0.0
 40
0.0
 40
0.0
 40
0.1162222239446788
 40
0.2381780213507807
 40
0.3660917905398808
 40
0.5001580142687957
 40
0.7504239388759752
 40
1.0
 40
1.0
 40
1.0
 40
1.0
 10
127.8397276738363
 20
141.6590236038078
 30
0.0
 10
127.8521756844538
 20
141.6708610621379
 30
0.0
 10
127.8776858015208
 20
141.6951199543463
 30
0.0
 10
127.9191929745367
 20
141.7354061127033
 30
0.0
 10
127.9637857252422
 20
141.7795633036501
 30
0.0
 10
128.0242918085466
 20
141.8409775789436
 30
0.0
 10
128.0996955922093
 20
141.9210083809554
 30
0.0
 10
128.1542124771916
 20
141.9897280008183
 30
0.0
 10
128.1814332985853
 20
142.0240403886067
 30
0.0
  0
SPLINE
  5
1CA
330
1F
100
AcDbEntity
  8
0
  6
Continuous
 62
     7
370
    25
100
AcDbSpline
210
0.0
220
0.0
230
1.0
 70
     8
 71
     3
 72
    13
 73
     9
 74
     0
 42
0.000000001
 43
0.00000001
 40
0.0
 40
0.0
 40
0.0
 40
0.0
 40
0.1206933098378984
 40
0.2506349558807637
 40
0.4049363563536673
 40
0.5013750994399903
 40
0.7702864430522399
 40
1.0
 40
1.0
 40
1.0
 40
1.0
 10
128.1814333173587
 20
141.5240403886067
 30
0.0
 10
128.1665775391668
 20
141.5244281033477
 30
0.0
 10
128.135727632766
 20
141.5252332421506
 30
0.0
 10
128.0871524811489
 20
141.5321832539899
 30
0.0
 10
128.0424627987636
 20
141.5429735628454
 30
0.0
 10
127.9826990894218
 20
141.563593348257
 30
0.0
 10
127.9149070763742
 20
141.5961010322007
 30
0.0
 10
127.8634388039959
 20
141.6391782042038
 30
0.0
 10
127.8397276738363
 20
141.6590236038078
 30
0.0
  0
SPLINE
  5
1CB
330
1F
100
AcDbEntity
  8
0
  6
Continuous
 62
     7
370
    25
100
AcDbSpline
210
0.0
220
0.0
230
1.0
 70
    24
 71
     3
 72
    13
 73
     9
 74
     0
 42
0.000000001
 43
0.00000001
 40
0.0
 40
0.0
 40
0.0
 40
0.0
 40
0.1144647671590815
 40
0.291615705726434
 40
0.4684340794035635
 40
0.6458133828963049
 40
0.8225570207736255
 40
1.0
 40
1.0
 40
1.0
 40
1.0
 10
129.5183378095879
 20
141.5240401725399
 30
0.0
 10
129.4903379315089
 20
141.5240401725399
 30
0.0
 10
129.4190041542347
 20
141.5240401725399
 30
0.0
 10
129.2475994314176
 20
141.5240401725399
 30
0.0
 10
129.0209052296737
 20
141.5240401725399
 30
0.0
 10
128.7592786510901
 20
141.5240401725399
 30
0.0
 10
128.4762762450327
 20
141.5240401725399
 30
0.0
 10
128.2798434347101
 20
141.5240401725399
 30
0.0
 10
128.1814331012918
 20
141.5240401725399
 30
0.0
  0
SPLINE
  5
1CC
330
1F
100
AcDbEntity
  8
0
  6
Continuous
 62
     7
370
    25
100
AcDbSpline
210
0.0
220
0.0
230
1.0
 70
     8
 71
     3
 72
    13
 73
     9
 74
     0
 42
0.000000001
 43
0.00000001
 40
0.0
 40
0.0
 40
0.0
 40
0.0
 40
0.1162222328345675
 40
0.2381780342187649
 40
0.3660918025068102
 40
0.5001580205070525
 40
0.7504239414864089
 40
0.9999999999999999
 40
0.9999999999999999
 40
0.9999999999999999
 40
0.9999999999999999
 10
142.523138960881
 20
155.3890571734057
 30
0.0
 10
142.5106909492734
 20
155.3772197141941
 30
0.0
 10
142.4851808307504
 20
155.3529608207243
 30
0.0
 10
142.4436736560394
 20
155.3126746611326
 30
0.0
 10
142.3990809054698
 20
155.2685174703694
 30
0.0
 10
142.33857482384
 20
155.2071031955483
 30
0.0
 10
142.2631710424616
 20
155.1270723942668
 30
0.0
 10
142.208654157547
 20
155.0583527757782
 30
0.0
 10
142.1814333361321
 20
155.0240403886067
 30
0.0
  0
SPLINE
  5
1CD
330
1F
100
AcDbEntity
  8
0
  6
Continuous
 62
     7
370
    25
100
AcDbSpline
210
0.0
220
0.0
230
1.0
 70
     8
 71
     3
 72
    13
 73
     9
 74
     0
 42
0.000000001
 43
0.00000001
 40
0.0
 40
0.0
 40
0.0
 40
0.0
 40
0.1206933478353882
 40
0.25063504079335
 40
0.4049364375708385
 40
0.5013752757893005
 40
0.7702865166940487
 40
1.0
 40
1.0
 40
1.0
 40
1.0
 10
142.1814333173587
 20
155.5240403886067
 30
0.0
 10
142.1962891002162
 20
155.5236526736205
 30
0.0
 10
142.227139017045
 20
155.522847534289
 30
0.0
 10
142.2757141778305
 20
155.5158975188008
 30
0.0
 10
142.3204038757578
 20
155.505107203398
 30
0.0
 10
142.3801675833752
 20
155.4844874122112
 30
0.0
 10
142.4479595847217
 20
155.4519797251791
 30
0.0
 10
142.4994278385039
 20
155.4089025672038
 30
0.0
 10
142.523138960881
 20
155.3890571734057
 30
0.0
  0
SPLINE
  5
1CE
330
1F
100
AcDbEntity
  8
0
  6
Continuous
 62
     7
370
    25
100
AcDbSpline
210
0.0
220
0.0
230
1.0
 70
    24
 71
     3
 72
    13
 73
     9
 74
     0
 42
0.000000001
 43
0.00000001
 40
0.0
 40
0.0
 40
0.0
 40
0.0
 40
0.1262016779661141
 40
0.3010046526261732
 40
0.4754794702211407
 40
0.6505077830509483
 40
0.824908855396662
 40
0.9999999999999999
 40
0.9999999999999999
 40
0.9999999999999999
 40
0.9999999999999999
 10
140.8340323540523
 20
155.5240406046735
 30
0.0
 10
140.8651879905886
 20
155.5240406046735
 30
0.0
 10
140.9394975536949
 20
155.5240406046735
 30
0.0
 10
141.1151005737189
 20
155.5240406046735
 30
0.0
 10
141.3420061650147
 20
155.5240406046735
 30
0.0
 10
141.6035760810615
 20
155.5240406046735
 30
0.0
 10
141.8865933745952
 20
155.5240406046735
 30
0.0
 10
142.0830241962863
 20
155.5240406046735
 30
0.0
 10
142.1814335334255
 20
155.5240406046735
 30
0.0
  0
SPLINE
  5
1CF
330
1F
100
AcDbEntity
  8
0
  6
Continuous
 62
     7
370
    25
100
AcDbSpline
210
0.0
220
0.0
230
1.0
 70
     8
 71
     3
 72
    13
 73
     9
 74
     0
 42
0.000000001
 43
0.00000001
 40
0.0
 40
0.0
 40
0.0
 40
0.0
 40
0.1856794033212272
 40
0.3634611737568169
 40
0.533542336720674
 40
0.6961479207300177
 40
0.8515354443703902
 40
1.0
 40
1.0
 40
1.0
 40
1.0
 10
127.336976499901
 20
141.9574583248486
 30
0.0
 10
127.3206481940578
 20
141.9829972689684
 30
0.0
 10
127.2886860857084
 20
142.0329888913039
 30
0.0
 10
127.2499672324765
 20
142.1144641341523
 30
0.0
 10
127.2194131533887
 20
142.1977890180709
 30
0.0
 10
127.1977964164796
 20
142.2829564849485
 30
0.0
 10
127.1840887219909
 20
142.3687932481961
 30
0.0
 10
127.1823049047342
 20
142.4282988225064
 30
0.0
 10
127.1814333173587
 20
142.45737372194
 30
0.0
  0
SPLINE
  5
1D0
330
1F
100
AcDbEntity
  8
0
  6
Continuous
 62
     7
370
    25
100
AcDbSpline
210
0.0
220
0.0
230
1.0
 70
     8
 71
     3
 72
    17
 73
    13
 74
     0
 42
0.000000001
 43
0.00000001
 40
0.0
 40
0.0
 40
0.0
 40
0.0
 40
0.1130667886658668
 40
0.2142471894553318
 40
0.3035410226158834
 40
0.3809482842621089
 40
0.4464692357998273
 40
0.5001045924259258
 40
0.6375226532033567
 40
0.75004211245356
 40
0.8820380142920121
 40
1.0
 40
1.0
 40
1.0
 40
1.0
 10
127.6814333173587
 20
141.5240403886067
 30
0.0
 10
127.6712036912547
 20
141.5251178712965
 30
0.0
 10
127.6518198503602
 20
141.5271595640047
 30
0.0
 10
127.6239256058024
 20
141.5423249857024
 30
0.0
 10
127.5989327981049
 20
141.5625862312705
 30
0.0
 10
127.5768034005708
 20
141.585936982835
 30
0.0
 10
127.5576035738445
 20
141.6097575088659
 30
0.0
 10
127.5314218084915
 20
141.6452749485075
 30
0.0
 10
127.4984402669005
 20
141.6955842413834
 30
0.0
 10
127.4528459924863
 20
141.7725707197203
 30
0.0
 10
127.4029373358074
 20
141.8570112997536
 30
0.0
 10
127.3581247763277
 20
141.925253131816
 30
0.0
 10
127.336976499901
 20
141.9574583248486
 30
0.0
  0
SPLINE
  5
1D1
330
1F
100
AcDbEntity
  8
0
  6
Continuous
 62
     7
370
    25
100
AcDbSpline
210
0.0
220
0.0
230
1.0
 70
     8
 71
     3
 72
    14
 73
    10
 74
     0
 42
0.000000001
 43
0.00000001
 40
0.0
 40
0.0
 40
0.0
 40
0.0
 40
0.0771019312872794
 40
0.1604220744063169
 40
0.2500134455684252
 40
0.3625277428809286
 40
0.4999872826729911
 40
0.6965319256112464
 40
1.0
 40
1.0
 40
1.0
 40
1.0
 10
143.0258901348164
 20
141.9574583248486
 30
0.0
 10
143.0117608579093
 20
141.936193599531
 30
0.0
 10
142.9823627887111
 20
141.891949165051
 30
0.0
 10
142.9438448924987
 20
141.8292904239672
 30
0.0
 10
142.9047823660138
 20
141.7639169003537
 30
0.0
 10
142.8645018596202
 20
141.6955715931074
 30
0.0
 10
142.8158431652624
 20
141.6219088749207
 30
0.0
 10
142.7544083258121
 20
141.5441459493391
 30
0.0
 10
142.708995376741
 20
141.5316340932265
 30
0.0
 10
142.6814333173587
 20
141.5240403886067
 30
0.0
  0
SPLINE
  5
1D2
330
1F
100
AcDbEntity
  8
0
  6
Continuous
 62
     7
370
    25
100
AcDbSpline
210
0.0
220
0.0
230
1.0
 70
     8
 71
     3
 72
    13
 73
     9
 74
     0
 42
0.000000001
 43
0.00000001
 40
0.0
 40
0.0
 40
0.0
 40
0.0
 40
0.1484645556295969
 40
0.303852079269964
 40
0.4664576632793
 40
0.6365388262431574
 40
0.814320596678755
 40
1.0
 40
1.0
 40
1.0
 40
1.0
 10
143.1814333173587
 20
142.45737372194
 30
0.0
 10
143.1805617299831
 20
142.4282988225064
 30
0.0
 10
143.1787779127265
 20
142.3687932481961
 30
0.0
 10
143.1650702182378
 20
142.2829564849485
 30
0.0
 10
143.1434534813286
 20
142.1977890180709
 30
0.0
 10
143.1128994022409
 20
142.1144641341523
 30
0.0
 10
143.074180549009
 20
142.0329888913039
 30
0.0
 10
143.0422184406595
 20
141.9829972689684
 30
0.0
 10
143.0258901348164
 20
141.9574583248486
 30
0.0
  0
LINE
  5
1D3
330
1F
100
AcDbEntity
  8
0
  6
Continuous
 62
     7
370
    25
100
AcDbLine
 10
143.1814336973
 20
143.7649554896
 30
0.0
 11
143.1814336973
 21
142.4573739383
 31
0.0
  0
LINE
  5
1D4
330
1F
100
AcDbEntity
  8
0
  6
Continuous
 62
     7
370
    25
100
AcDbLine
 10
143.1814336973
 20
154.590706839
 30
0.0
 11
143.1814336973
 21
153.2831252876
 31
0.0
  0
SPLINE
  5
1D5
330
1F
100
AcDbEntity
  8
0
  6
Continuous
 62
     7
370
    25
100
AcDbSpline
210
0.0
220
0.0
230
1.0
 70
     8
 71
     3
 72
    13
 73
     9
 74
     0
 42
0.000000001
 43
0.00000001
 40
0.0
 40
0.0
 40
0.0
 40
0.0
 40
0.1856794033212442
 40
0.3634611737568403
 40
0.5335423367206995
 40
0.6961479207300372
 40
0.8515354443704025
 40
0.9999999999999999
 40
0.9999999999999999
 40
0.9999999999999999
 40
0.9999999999999999
 10
143.0258901348164
 20
155.0906224523648
 30
0.0
 10
143.0422184406595
 20
155.065083508245
 30
0.0
 10
143.074180549009
 20
155.0150918859095
 30
0.0
 10
143.1128994022409
 20
154.933616643061
 30
0.0
 10
143.1434534813286
 20
154.8502917591425
 30
0.0
 10
143.1650702182378
 20
154.7651242922649
 30
0.0
 10
143.1787779127265
 20
154.6792875290173
 30
0.0
 10
143.1805617299831
 20
154.619781954707
 30
0.0
 10
143.1814333173587
 20
154.5907070552734
 30
0.0
  0
SPLINE
  5
1D6
330
1F
100
AcDbEntity
  8
0
  6
Continuous
 62
     7
370
    25
100
AcDbSpline
210
0.0
220
0.0
230
1.0
 70
     8
 71
     3
 72
    16
 73
    12
 74
     0
 42
0.000000001
 43
0.00000001
 40
0.0
 40
0.0
 40
0.0
 40
0.0
 40
0.1113707238457123
 40
0.2115306831336734
 40
0.3004797812258395
 40
0.3782180942859685
 40
0.4447459579759641
 40
0.500064141985791
 40
0.7004020768506897
 40
0.8669907153164842
 40
1.0
 40
1.0
 40
1.0
 40
1.0
 10
142.6814333173587
 20
155.5240403886067
 30
0.0
 10
142.6915109961861
 20
155.5229947451681
 30
0.0
 10
142.7106519177242
 20
155.5210087145197
 30
0.0
 10
142.7382976354386
 20
155.5062011573301
 30
0.0
 10
142.7632464238363
 20
155.4862463483987
 30
0.0
 10
142.7855275570763
 20
155.4629998664198
 30
0.0
 10
142.8051066798978
 20
155.4389431190596
 30
0.0
 10
142.8379944002665
 20
155.3944638073832
 30
0.0
 10
142.8858730575132
 20
155.3203404140224
 30
0.0
 10
142.9503864166716
 20
155.2083264814325
 30
0.0
 10
143.0026757838774
 20
155.1268116984689
 30
0.0
 10
143.0258901348164
 20
155.0906224523648
 30
0.0
  0
SPLINE
  5
1D7
330
1F
100
AcDbEntity
  8
0
  6
Continuous
 62
     7
370
    25
100
AcDbSpline
210
0.0
220
0.0
230
1.0
 70
     8
 71
     3
 72
    14
 73
    10
 74
     0
 42
0.000000001
 43
0.00000001
 40
0.0
 40
0.0
 40
0.0
 40
0.0
 40
0.0771019312877576
 40
0.1604220744066402
 40
0.250013445567957
 40
0.3625277428349449
 40
0.4999872826724504
 40
0.6965319246666456
 40
1.0
 40
1.0
 40
1.0
 40
1.0
 10
127.336976499901
 20
155.0906224523648
 30
0.0
 10
127.3511057768083
 20
155.1118871776825
 30
0.0
 10
127.3805038460066
 20
155.1561316121626
 30
0.0
 10
127.4190217422191
 20
155.2187903532461
 30
0.0
 10
127.4580842686997
 20
155.2841638768489
 30
0.0
 10
127.4983647750893
 20
155.3525091840973
 30
0.0
 10
127.5470234693573
 20
155.4261719021306
 30
0.0
 10
127.6084583087749
 20
155.5039348277984
 30
0.0
 10
127.6538712578737
 20
155.5164466839435
 30
0.0
 10
127.6814333173587
 20
155.5240403886067
 30
0.0
  0
SPLINE
  5
1D8
330
1F
100
AcDbEntity
  8
0
  6
Continuous
 62
     7
370
    25
100
AcDbSpline
210
0.0
220
0.0
230
1.0
 70
     8
 71
     3
 72
    13
 73
     9
 74
     0
 42
0.000000001
 43
0.00000001
 40
0.0
 40
0.0
 40
0.0
 40
0.0
 40
0.1484645556296106
 40
0.3038520792699841
 40
0.4664576632793244
 40
0.6365388262431811
 40
0.8143205966787692
 40
1.0
 40
1.0
 40
1.0
 40
1.0
 10
127.1814333173587
 20
154.5907070552734
 30
0.0
 10
127.1823049047342
 20
154.619781954707
 30
0.0
 10
127.1840887219909
 20
154.6792875290173
 30
0.0
 10
127.1977964164796
 20
154.7651242922649
 30
0.0
 10
127.2194131533887
 20
154.8502917591425
 30
0.0
 10
127.2499672324765
 20
154.9336166430611
 30
0.0
 10
127.2886860857084
 20
155.0150918859095
 30
0.0
 10
127.3206481940578
 20
155.065083508245
 30
0.0
 10
127.336976499901
 20
155.0906224523648
 30
0.0
  0
LINE
  5
1D9
330
1F
100
AcDbEntity
  8
0
  6
Continuous
 62
     7
370
    25
100
AcDbLine
 10
127.1814329374
 20
153.2831252876
 30
0.0
 11
127.1814329374
 21
154.590706839
 31
0.0
  0
LINE
  5
1DA
330
1F
100
AcDbEntity
  8
0
  6
Continuous
 62
     7
370
    25
100
AcDbLine
 10
127.1814329374
 20
142.4573739383
 30
0.0
 11
127.1814329374
 21
143.7649554896
 31
0.0
  0
LINE
  5
1DB
330
1F
100
AcDbEntity
  8
0
  6
Continuous
 62
     7
370
    25
100
AcDbLine
 10
142.6814331497
 20
153.62305989
 30
0.0
 11
142.6814331497
 21
155.0240405227
 31
0.0
  0
ARC
  5
1DC
330
1F
100
AcDbEntity
  8
0
  6
Continuous
 62
     7
370
    25
100
AcDbCircle
 10
142.1814333174
 20
155.0240403886
 30
0.0
 40
0.5
100
AcDbArc
 50
0.0
 51
46.8892083855
  0
LINE
  5
1DD
330
1F
100
AcDbEntity
  8
0
  6
Continuous
 62
     7
370
    25
100
AcDbLine
 10
127.681433485
 20
143.4250208872
 30
0.0
 11
127.681433485
 21
142.0240402545
 31
0.0
  0
ARC
  5
1DE
330
1F
100
AcDbEntity
  8
0
  6
Continuous
 62
     7
370
    25
100
AcDbCircle
 10
128.1814333174
 20
142.0240403886
 30
0.0
 40
0.5
100
AcDbArc
 50
180.0
 51
226.8892083855
  0
LINE
  5
1DF
330
1F
100
AcDbEntity
  8
0
  6
Continuous
 62
     7
370
    25
100
AcDbLine
 10
127.681433485
 20
155.0240405227
 30
0.0
 11
127.681433485
 21
153.62305989
 31
0.0
  0
ARC
  5
1E0
330
1F
100
AcDbEntity
  8
0
  6
Continuous
 62
     7
370
    25
100
AcDbCircle
 10
128.1814333174
 20
155.0240403886
 30
0.0
 40
0.5000000000000159
100
AcDbArc
 50
133.1107916145
 51
180.0
  0
LINE
  5
1E1
330
1F
100
AcDbEntity
  8
0
  6
Continuous
 62
     7
370
    25
100
AcDbLine
 10
142.6814331497
 20
142.0240402545
 30
0.0
 11
142.6814331497
 21
143.4250208872
 31
0.0
  0
ARC
  5
1E2
330
1F
100
AcDbEntity
  8
0
  6
Continuous
 62
     7
370
    25
100
AcDbCircle
 10
142.1814333174
 20
142.0240403886
 30
0.0
 40
0.5
100
AcDbArc
 50
313.1107916145
 51
0.0
  0
SPLINE
  5
1E3
330
1F
100
AcDbEntity
  8
0
  6
Continuous
 62
     7
370
    25
100
AcDbSpline
210
0.0
220
0.0
230
1.0
 70
     8
 71
     3
 72
     9
 73
     5
 74
     0
 42
0.000000001
 43
0.00000001
 40
0.0
 40
0.0
 40
0.0
 40
0.0
 40
0.5
 40
1.0
 40
1.0
 40
1.0
 40
1.0
 10
127.6814333173587
 20
153.6230599021995
 30
0.0
 10
127.6814333173587
 20
153.5340652230638
 30
0.0
 10
127.573146662713
 20
153.3567460366399
 30
0.0
 10
127.3123330112583
 20
153.28312526796
 30
0.0
 10
127.1814333173587
 20
153.28312526796
 30
0.0
  0
SPLINE
  5
1E4
330
1F
100
AcDbEntity
  8
0
  6
Continuous
 62
     7
370
    25
100
AcDbSpline
210
0.0
220
0.0
230
1.0
 70
     8
 71
     3
 72
     9
 73
     5
 74
     0
 42
0.000000001
 43
0.00000001
 40
0.0
 40
0.0
 40
0.0
 40
0.0
 40
0.5
 40
1.0
 40
1.0
 40
1.0
 40
1.0
 10
143.1814333173587
 20
153.28312526796
 30
0.0
 10
143.0505336234591
 20
153.28312526796
 30
0.0
 10
142.7897199720043
 20
153.3567460366399
 30
0.0
 10
142.6814333173587
 20
153.5340652230638
 30
0.0
 10
142.6814333173587
 20
153.6230599021995
 30
0.0
  0
SPLINE
  5
1E5
330
1F
100
AcDbEntity
  8
0
  6
Continuous
 62
     7
370
    25
100
AcDbSpline
210
0.0
220
0.0
230
1.0
 70
     8
 71
     3
 72
     9
 73
     5
 74
     0
 42
0.000000001
 43
0.00000001
 40
0.0
 40
0.0
 40
0.0
 40
0.0
 40
0.5
 40
1.0
 40
1.0
 40
1.0
 40
1.0
 10
127.1814333173587
 20
143.7649555092534
 30
0.0
 10
127.3123330112583
 20
143.7649555092534
 30
0.0
 10
127.573146662713
 20
143.6913347405734
 30
0.0
 10
127.6814333173587
 20
143.5140155541496
 30
0.0
 10
127.6814333173587
 20
143.4250208750139
 30
0.0
  0
SPLINE
  5
1E6
330
1F
100
AcDbEntity
  8
0
  6
Continuous
 62
     7
370
    25
100
AcDbSpline
210
0.0
220
0.0
230
1.0
 70
     8
 71
     3
 72
     9
 73
     5
 74
     0
 42
0.000000001
 43
0.00000001
 40
0.0
 40
0.0
 40
0.0
 40
0.0
 40
0.5
 40
1.0
 40
1.0
 40
1.0
 40
1.0
 10
142.6814333173587
 20
143.4250208750139
 30
0.0
 10
142.6814333173587
 20
143.5140155541495
 30
0.0
 10
142.7897199720043
 20
143.6913347405734
 30
0.0
 10
143.0505336234591
 20
143.7649555092534
 30
0.0
 10
143.1814333173587
 20
143.7649555092534
 30
0.0
  0
SPLINE
  5
1E7
330
1F
100
AcDbEntity
  8
0
  6
Continuous
 62
     7
370
    25
100
AcDbSpline
210
0.0
220
0.0
230
1.0
 70
     8
 71
     3
 72
     9
 73
     5
 74
     0
 42
0.000000001
 43
0.00000001
 40
0.0
 40
0.0
 40
0.0
 40
0.0
 40
0.5
 40
1.0
 40
1.0
 40
1.0
 40
1.0
 10
142.6814333173587
 20
155.0240403886067
 30
0.0
 10
142.6814333173587
 20
154.9105939872271
 30
0.0
 10
142.7897171875437
 20
154.6845530761003
 30
0.0
 10
143.0505336234591
 20
154.5907070552734
 30
0.0
 10
143.1814333173587
 20
154.5907070552734
 30
0.0
  0
SPLINE
  5
1E8
330
1F
100
AcDbEntity
  8
0
  6
Continuous
 62
     7
370
    25
100
AcDbSpline
210
0.0
220
0.0
230
1.0
 70
     8
 71
     3
 72
     9
 73
     5
 74
     0
 42
0.000000001
 43
0.00000001
 40
0.0
 40
0.0
 40
0.0
 40
0.0
 40
0.5
 40
1.0
 40
1.0
 40
1.0
 40
1.0
 10
127.6814333173587
 20
142.0240403886067
 30
0.0
 10
127.6814333173587
 20
142.1374867899863
 30
0.0
 10
127.5731494471737
 20
142.3635277011131
 30
0.0
 10
127.3123330112583
 20
142.45737372194
 30
0.0
 10
127.1814333173587
 20
142.45737372194
 30
0.0
  0
SPLINE
  5
1E9
330
1F
100
AcDbEntity
  8
0
  6
Continuous
 62
     7
370
    25
100
AcDbSpline
210
0.0
220
0.0
230
1.0
 70
     8
 71
     3
 72
     9
 73
     5
 74
     0
 42
0.000000001
 43
0.00000001
 40
0.0
 40
0.0
 40
0.0
 40
0.0
 40
0.5
 40
1.0
 40
1.0
 40
1.0
 40
1.0
 10
127.1814333173587
 20
154.5907070552734
 30
0.0
 10
127.3123330112583
 20
154.5907070552734
 30
0.0
 10
127.5731494471737
 20
154.6845530761003
 30
0.0
 10
127.6814333173587
 20
154.9105939872271
 30
0.0
 10
127.6814333173587
 20
155.0240403886067
 30
0.0
  0
SPLINE
  5
1EA
330
1F
100
AcDbEntity
  8
0
  6
Continuous
 62
     7
370
    25
100
AcDbSpline
210
0.0
220
0.0
230
1.0
 70
     8
 71
     3
 72
     9
 73
     5
 74
     0
 42
0.000000001
 43
0.00000001
 40
0.0
 40
0.0
 40
0.0
 40
0.0
 40
0.5
 40
1.0
 40
1.0
 40
1.0
 40
1.0
 10
143.1814333173587
 20
142.45737372194
 30
0.0
 10
143.0505336234591
 20
142.45737372194
 30
0.0
 10
142.7897171875437
 20
142.3635277011131
 30
0.0
 10
142.6814333173587
 20
142.1374867899863
 30
0.0
 10
142.6814333173587
 20
142.0240403886067
 30
0.0
  0
SPLINE
  5
1EB
330
1F
100
AcDbEntity
  8
0
  6
Continuous
 62
     7
370
    25
100
AcDbSpline
210
0.0
220
0.0
230
1.0
 70
     8
 71
     3
 72
     8
 73
     4
 74
     0
 42
0.000000001
 43
0.00000001
 40
0.0
 40
0.0
 40
0.0
 40
0.0
 40
1.0
 40
1.0
 40
1.0
 40
1.0
 10
127.336976499901
 20
155.0906224523648
 30
0.0
 10
127.5069803797367
 20
155.0776828071394
 30
0.0
 10
127.6737848420892
 20
155.1571801137718
 30
0.0
 10
127.7592049086299
 20
155.2918522084771
 30
0.0
  0
SPLINE
  5
1EC
330
1F
100
AcDbEntity
  8
0
  6
Continuous
 62
     7
370
    25
100
AcDbSpline
210
0.0
220
0.0
230
1.0
 70
     8
 71
     3
 72
     9
 73
     5
 74
     0
 42
0.000000001
 43
0.00000001
 40
0.0
 40
0.0
 40
0.0
 40
0.0
 40
0.571428571428571
 40
1.0
 40
1.0
 40
1.0
 40
1.0
 10
143.0258901348164
 20
141.9574583248486
 30
0.0
 10
142.9287450606245
 20
141.9648524078345
 30
0.0
 10
142.7590837219069
 20
141.9275372282564
 30
0.0
 10
142.6402703260335
 20
141.8139451807529
 30
0.0
 10
142.6036617260875
 20
141.7562285687363
 30
0.0
  0
SPLINE
  5
1ED
330
1F
100
AcDbEntity
  8
0
  6
Continuous
 62
     7
370
    25
100
AcDbSpline
210
0.0
220
0.0
230
1.0
 70
     8
 71
     3
 72
     9
 73
     5
 74
     0
 42
0.000000001
 43
0.00000001
 40
0.0
 40
0.0
 40
0.0
 40
0.0
 40
0.5
 40
1.0
 40
1.0
 40
1.0
 40
1.0
 10
143.0258901348176
 20
155.0906224523631
 30
0.0
 10
142.9408881948995
 20
155.0841526297502
 30
0.0
 10
142.7709942766507
 20
155.1148316229562
 30
0.0
 10
142.6463717593583
 20
155.2245161611231
 30
0.0
 10
142.6036617260881
 20
155.2918522084762
 30
0.0
  0
SPLINE
  5
1EE
330
1F
100
AcDbEntity
  8
0
  6
Continuous
 62
     7
370
    25
100
AcDbSpline
210
0.0
220
0.0
230
1.0
 70
     8
 71
     3
 72
     9
 73
     5
 74
     0
 42
0.000000001
 43
0.00000001
 40
0.0
 40
0.0
 40
0.0
 40
0.0
 40
0.5
 40
1.0
 40
1.0
 40
1.0
 40
1.0
 10
127.3369764999003
 20
141.9574583248496
 30
0.0
 10
127.4219784398183
 20
141.9639281474625
 30
0.0
 10
127.591872358067
 20
141.9332491542566
 30
0.0
 10
127.7164948753593
 20
141.8235646160898
 30
0.0
 10
127.7592049086295
 20
141.7562285687368
 30
0.0
  0
SPLINE
  5
1EF
330
1F
100
AcDbEntity
  8
0
  6
Continuous
 62
     7
370
    25
100
AcDbSpline
210
0.0
220
0.0
230
1.0
 70
     8
 71
     3
 72
    11
 73
     7
 74
     0
 42
0.000000001
 43
0.00000001
 40
0.0
 40
0.0
 40
0.0
 40
0.0
 40
0.2876478479512965
 40
0.5611005784409707
 40
0.8299950982559509
 40
1.0
 40
1.0
 40
1.0
 40
1.0
 10
127.7592049735739
 20
155.2918521079349
 30
0.0
 10
127.7735954024305
 20
155.3269082642245
 30
0.0
 10
127.8016661076799
 20
155.3952905925197
 30
0.0
 10
127.7718337676686
 20
155.4686072549109
 30
0.0
 10
127.7376015690188
 20
155.5110807963209
 30
0.0
 10
127.7098755584793
 20
155.5165538902034
 30
0.0
 10
127.699136064495
 20
155.5186738583373
 30
0.0
  0
SPLINE
  5
1F0
330
1F
100
AcDbEntity
  8
0
  6
Continuous
 62
     7
370
    25
100
AcDbSpline
210
0.0
220
0.0
230
1.0
 70
    24
 71
     3
 72
    14
 73
    10
 74
     0
 42
0.000000001
 43
0.00000001
 40
0.0
 40
0.0
 40
0.0
 40
0.0
 40
0.250384366109634
 40
0.3856975923178703
 40
0.5014306604032173
 40
0.6388329400918317
 40
0.7674982872365089
 40
0.8877537710032762
 40
1.0
 40
1.0
 40
1.0
 40
1.0
 10
127.6814333173587
 20
155.5240403886067
 30
0.0
 10
127.7407202622441
 20
155.5240403886067
 30
0.0
 10
127.8320471779517
 20
155.5240403886067
 30
0.0
 10
127.9445615078535
 20
155.5240403886067
 30
0.0
 10
128.0243479172265
 20
155.5240403886067
 30
0.0
 10
128.0911471310829
 20
155.5240403886067
 30
0.0
 10
128.1423360947536
 20
155.5240403886067
 30
0.0
 10
128.1749654466124
 20
155.5240403886067
 30
0.0
 10
128.1793274480758
 20
155.5240403886067
 30
0.0
 10
128.1814333173587
 20
155.5240403886067
 30
0.0
  0
SPLINE
  5
1F1
330
1F
100
AcDbEntity
  8
0
  6
Continuous
 62
     7
370
    25
100
AcDbSpline
210
0.0
220
0.0
230
1.0
 70
     8
 71
     3
 72
    12
 73
     8
 74
     0
 42
0.000000001
 43
0.00000001
 40
0.0
 40
0.0
 40
0.0
 40
0.0
 40
0.106360891224351
 40
0.159541336836527
 40
0.265902228060878
 40
0.265902228060878
 40
0.267217449764311
 40
0.267217449764311
 40
0.267217449764311
 40
0.267217449764311
 10
142.6036617260875
 20
141.7562285687363
 30
0.0
 10
142.5656195392595
 20
141.6962517834785
 30
0.0
 10
142.5711154114126
 20
141.6219611394419
 30
0.0
 10
142.6130119909294
 20
141.5437295542187
 30
0.0
 10
142.6541381486734
 20
141.5243534377062
 30
0.0
 10
142.6807855261977
 20
141.5240422962587
 30
0.0
 10
142.6811090278727
 20
141.5240403886067
 30
0.0
 10
142.6814333173587
 20
141.5240403886067
 30
0.0
  0
SPLINE
  5
1F2
330
1F
100
AcDbEntity
  8
0
  6
Continuous
 62
     7
370
    25
100
AcDbSpline
210
0.0
220
0.0
230
1.0
 70
    24
 71
     3
 72
    16
 73
    12
 74
     0
 42
0.000000001
 43
0.00000001
 40
0.0
 40
0.0
 40
0.0
 40
0.0
 40
0.0739298478317502
 40
0.1513677900738161
 40
0.2324450724296886
 40
0.3172760505391666
 40
0.4059605604440887
 40
0.4985859784696513
 40
0.6141264806631028
 40
0.7496239522892343
 40
1.0
 40
1.0
 40
1.0
 40
1.0
 10
142.1814333173587
 20
141.5240403886067
 30
0.0
 10
142.1823486226512
 20
141.5240403886067
 30
0.0
 10
142.1842226659968
 20
141.5240403886067
 30
0.0
 10
142.1985974175543
 20
141.5240403886067
 30
0.0
 10
142.221290763043
 20
141.5240403886067
 30
0.0
 10
142.2532533222623
 20
141.5240403886067
 30
0.0
 10
142.294196103424
 20
141.5240403886067
 30
0.0
 10
142.3476637941554
 20
141.5240403886067
 30
0.0
 10
142.4182664546286
 20
141.5240403886067
 30
0.0
 10
142.530773157104
 20
141.5240403886067
 30
0.0
 10
142.6221457399273
 20
141.5240403886067
 30
0.0
 10
142.6814333173587
 20
141.5240403886067
 30
0.0
  0
SPLINE
  5
1F3
330
1F
100
AcDbEntity
  8
0
  6
Continuous
 62
     7
370
    25
100
AcDbSpline
210
0.0
220
0.0
230
1.0
 70
     8
 71
     3
 72
    12
 73
     8
 74
     0
 42
0.000000001
 43
0.00000001
 40
-0.265902228061387
 40
-0.265902228061387
 40
-0.265902228061387
 40
-0.265902228061387
 40
-0.2645870063584663
 40
-0.2645870063584663
 40
-0.1582261151339113
 40
-0.1050456695216343
 40
0.0013152217029208
 40
0.0013152217029208
 40
0.0013152217029208
 40
0.0013152217029208
 10
127.6814333173587
 20
141.5240403886067
 30
0.0
 10
127.6817576068445
 20
141.5240403886067
 30
0.0
 10
127.6820811085193
 20
141.5240422962587
 30
0.0
 10
127.7087284860457
 20
141.5243534377061
 30
0.0
 10
127.7498546437882
 20
141.5437295542184
 30
0.0
 10
127.7917512233055
 20
141.6219611394417
 30
0.0
 10
127.797247095458
 20
141.6962517834784
 30
0.0
 10
127.7592049086299
 20
141.7562285687363
 30
0.0
  0
SPLINE
  5
1F4
330
1F
100
AcDbEntity
  8
0
  6
Continuous
 62
     7
370
    25
100
AcDbSpline
210
0.0
220
0.0
230
1.0
 70
    24
 71
     3
 72
    14
 73
    10
 74
     0
 42
0.000000001
 43
0.00000001
 40
0.0
 40
0.0
 40
0.0
 40
0.0
 40
0.2503818975769405
 40
0.3853960642454612
 40
0.5014219062737861
 40
0.6386745024418747
 40
0.7672919706928744
 40
0.8876008223903926
 40
1.0
 40
1.0
 40
1.0
 40
1.0
 10
127.6814333173587
 20
141.5240403886067
 30
0.0
 10
127.7409664010885
 20
141.5240403886067
 30
0.0
 10
127.8326016845651
 20
141.5240403886067
 30
0.0
 10
127.9451277387427
 20
141.5240403886067
 30
0.0
 10
128.024785948426
 20
141.5240403886067
 30
0.0
 10
128.0914564142233
 20
141.5240403886067
 30
0.0
 10
128.142478718065
 20
141.5240403886067
 30
0.0
 10
128.1749940100854
 20
141.5240403886067
 30
0.0
 10
128.1793360767697
 20
141.5240403886067
 30
0.0
 10
128.1814333173587
 20
141.5240403886067
 30
0.0
  0
LINE
  5
1F5
330
1F
100
AcDbEntity
  8
0
  6
Continuous
 62
     7
370
    25
100
AcDbLine
 10
142.6814331497
 20
155.5240406047
 30
0.0
 11
142.6570627662
 21
155.5165946807
 31
0.0
  0
SPLINE
  5
1F6
330
1F
100
AcDbEntity
  8
0
  6
Continuous
 62
     7
370
    25
100
AcDbSpline
210
0.0
220
0.0
230
1.0
 70
    24
 71
     3
 72
    16
 73
    12
 74
     0
 42
0.000000001
 43
0.00000001
 40
0.0
 40
0.0
 40
0.0
 40
0.0
 40
0.0740424421768231
 40
0.1515492076760871
 40
0.2326508292781398
 40
0.3174612427217847
 40
0.4060800799075449
 40
0.4985946693164888
 40
0.6144270548830109
 40
0.7496263894763571
 40
1.0
 40
1.0
 40
1.0
 40
1.0
 10
142.1814333173587
 20
155.5240403886067
 30
0.0
 10
142.1823451151254
 20
155.5240403886067
 30
0.0
 10
142.1842113721672
 20
155.5240403886067
 30
0.0
 10
142.1985370303124
 20
155.5240403886067
 30
0.0
 10
142.2211564385734
 20
155.5240403886067
 30
0.0
 10
142.2530153161779
 20
155.5240403886067
 30
0.0
 10
142.2938266048091
 20
155.5240403886067
 30
0.0
 10
142.3472064959847
 20
155.5240403886067
 30
0.0
 10
142.4177001268456
 20
155.5240403886067
 30
0.0
 10
142.5302182241391
 20
155.5240403886067
 30
0.0
 10
142.6218995900049
 20
155.5240403886067
 30
0.0
 10
142.6814333173587
 20
155.5240403886067
 30
0.0
  0
LINE
  5
1F7
330
1F
100
AcDbEntity
  8
0
  6
Continuous
 62
     7
370
    25
100
AcDbLine
 10
143.3896904635
 20
155.8240405607
 30
0.0
 11
143.9731761637
 21
155.8240405607
 31
0.0
  0
LINE
  5
1F8
330
1F
100
AcDbEntity
  8
0
  6
Continuous
 62
     7
370
    25
100
AcDbLine
 10
142.9314331907
 20
155.5240406047
 30
0.0
 11
144.4314334366
 21
155.5240406047
 31
0.0
  0
LINE
  5
1F9
330
1F
100
AcDbEntity
  8
0
  6
Continuous
 62
     8
370
    25
100
AcDbLine
 10
121.6814329672
 20
139.524040776
 30
0.0
 11
121.6814329672
 21
157.5240400012
 31
0.0
  0
LINE
  5
1FA
330
1F
100
AcDbEntity
  8
0
  6
Continuous
 62
     8
370
    25
100
AcDbLine
 10
148.6814336675
 20
157.5240400012
 30
0.0
 11
148.6814336675
 21
139.524040776
 31
0.0
  0
LINE
  5
1FB
330
1F
100
AcDbEntity
  8
0
  6
Continuous
 62
     8
370
    25
100
AcDbLine
 10
123.1511270451
 20
140.7240406002
 30
0.0
 11
123.1511270451
 21
156.324040177
 31
0.0
  0
LINE
  5
1FC
330
1F
100
AcDbEntity
  8
0
  6
Continuous
 62
     8
370
    25
100
AcDbLine
 10
147.2117395896
 20
156.324040177
 30
0.0
 11
147.2117395896
 21
140.7240406002
 31
0.0
  0
LINE
  5
1FD
330
1F
100
AcDbEntity
  8
0
  6
Continuous
 62
     8
370
    25
100
AcDbLine
 10
146.2319435376
 20
141.5240401725
 30
0.0
 11
146.2319435376
 21
155.5240406047
 31
0.0
  0
LINE
  5
1FE
330
1F
100
AcDbEntity
  8
0
  6
Continuous
 62
     8
370
    25
100
AcDbLine
 10
124.1309230971
 20
155.5240406047
 30
0.0
 11
124.1309230971
 21
141.5240401725
 31
0.0
  0
SPLINE
  5
1FF
330
1F
100
AcDbEntity
  8
0
  6
Continuous
 62
     8
370
    25
100
AcDbSpline
210
0.0
220
0.0
230
1.0
 70
    24
 71
     3
 72
    10
 73
     6
 74
     0
 42
0.000000001
 43
0.00000001
 40
0.0
 40
0.0
 40
0.0
 40
0.0
 40
0.1854692482601167
 40
0.5927345473501382
 40
1.0
 40
1.0
 40
1.0
 40
1.0
 10
128.987258561994
 20
155.0240405227171
 30
0.0
 10
128.956770923276
 20
155.0240405227171
 30
0.0
 10
128.8593365674202
 20
155.0240405227171
 30
0.0
 10
128.5699357202024
 20
155.0240405227171
 30
0.0
 10
128.3109339905382
 20
155.0240405227171
 30
0.0
 10
128.1814331012918
 20
155.0240405227171
 30
0.0
  0
SPLINE
  5
200
330
1F
100
AcDbEntity
  8
0
  6
Continuous
 62
     8
370
    25
100
AcDbSpline
210
0.0
220
0.0
230
1.0
 70
    24
 71
     3
 72
    10
 73
     6
 74
     0
 42
0.000000001
 43
0.00000001
 40
0.0
 40
0.0
 40
0.0
 40
0.0
 40
0.1631383445646793
 40
0.5815690933974468
 40
1.0
 40
1.0
 40
1.0
 40
1.0
 10
141.3898107419862
 20
142.0240402544962
 30
0.0
 10
141.4161181973211
 20
142.0240402544962
 30
0.0
 10
141.5099011947489
 20
142.0240402544962
 30
0.0
 10
141.7933838860543
 20
142.0240402544962
 30
0.0
 10
142.0520836347113
 20
142.0240402544962
 30
0.0
 10
142.1814335334255
 20
142.0240402544962
 30
0.0
  0
SPLINE
  5
201
330
1F
100
AcDbEntity
  8
0
  6
Continuous
 62
     8
370
    25
100
AcDbSpline
210
0.0
220
0.0
230
1.0
 70
    24
 71
     3
 72
    10
 73
     6
 74
     0
 42
0.000000001
 43
0.00000001
 40
0.0
 40
0.0
 40
0.0
 40
0.0
 40
0.420022781542934
 40
0.8400454047158643
 40
0.9999999999999999
 40
0.9999999999999999
 40
0.9999999999999999
 40
0.9999999999999999
 10
128.1814331012918
 20
142.0240402544962
 30
0.0
 10
128.3107608618018
 20
142.0240402544962
 30
0.0
 10
128.5694163340585
 20
142.0240402544962
 30
0.0
 10
128.8520881693562
 20
142.0240402544962
 30
0.0
 10
128.9453665294214
 20
142.0240402544962
 30
0.0
 10
128.9710921990826
 20
142.0240402544962
 30
0.0
  0
SPLINE
  5
202
330
1F
100
AcDbEntity
  8
0
  6
Continuous
 62
     8
370
    25
100
AcDbSpline
210
0.0
220
0.0
230
1.0
 70
    24
 71
     3
 72
    10
 73
     6
 74
     0
 42
0.000000001
 43
0.00000001
 40
0.0
 40
0.0
 40
0.0
 40
0.0
 40
0.4073172865843637
 40
0.814634419589343
 40
1.0
 40
1.0
 40
1.0
 40
1.0
 10
142.1814335334255
 20
155.0240405227171
 30
0.0
 10
142.0519333143855
 20
155.0240405227171
 30
0.0
 10
141.7929329251337
 20
155.0240405227171
 30
0.0
 10
141.5035606790927
 20
155.0240405227171
 30
0.0
 10
141.4061434878069
 20
155.0240405227171
 30
0.0
 10
141.37567559361
 20
155.0240405227171
 30
0.0
  0
LINE
  5
203
330
1F
100
AcDbEntity
  8
0
  6
Continuous
 62
     8
370
    25
100
AcDbLine
 10
128.1814331013
 20
154.1808946381
 30
0.0
 11
128.1814331013
 21
155.0240405227
 31
0.0
  0
LINE
  5
204
330
1F
100
AcDbEntity
  8
0
  6
Continuous
 62
     8
370
    25
100
AcDbLine
 10
142.1814335334
 20
142.8671861391
 30
0.0
 11
142.1814335334
 21
142.0240402545
 31
0.0
  0
LINE
  5
205
330
1F
100
AcDbEntity
  8
0
  6
Continuous
 62
     8
370
    25
100
AcDbLine
 10
128.1814331013
 20
142.0240402545
 30
0.0
 11
128.1814331013
 21
142.8671861391
 31
0.0
  0
LINE
  5
206
330
1F
100
AcDbEntity
  8
0
  6
Continuous
 62
     8
370
    25
100
AcDbLine
 10
142.1814335334
 20
155.0240405227
 30
0.0
 11
142.1814335334
 21
154.1808946381
 31
0.0
  0
SPLINE
  5
207
330
1F
100
AcDbEntity
  8
0
  6
Continuous
 62
     8
370
    25
100
AcDbSpline
210
0.0
220
0.0
230
1.0
 70
     8
 71
     3
 72
     9
 73
     5
 74
     0
 42
0.000000001
 43
0.00000001
 40
0.0
 40
0.0
 40
0.0
 40
0.0
 40
0.2468662200500413
 40
1.0
 40
1.0
 40
1.0
 40
1.0
 10
143.0727008554294
 20
144.2398010145055
 30
0.0
 10
143.0917610077579
 20
144.2007441279318
 30
0.0
 10
143.1689694339436
 20
144.042533391097
 30
0.0
 10
143.1760791385978
 20
143.8842009782239
 30
0.0
 10
143.1814336973383
 20
143.7649554896282
 30
0.0
  0
SPLINE
  5
208
330
1F
100
AcDbEntity
  8
0
  6
Continuous
 62
     8
370
    25
100
AcDbSpline
210
0.0
220
0.0
230
1.0
 70
     8
 71
     3
 72
     9
 73
     5
 74
     0
 42
0.000000001
 43
0.00000001
 40
0.0
 40
0.0
 40
0.0
 40
0.0
 40
0.767158451968582
 40
1.0
 40
1.0
 40
1.0
 40
1.0
 10
143.1814336973383
 20
153.2831252875852
 30
0.0
 10
143.1763259367912
 20
153.1638793099852
 30
0.0
 10
143.1696679112763
 20
153.0084407857873
 30
0.0
 10
143.094192695565
 20
152.8531220221585
 30
0.0
 10
143.0766189295008
 20
152.8169573607968
 30
0.0
  0
SPLINE
  5
209
330
1F
100
AcDbEntity
  8
0
  6
Continuous
 62
     8
370
    25
100
AcDbSpline
210
0.0
220
0.0
230
1.0
 70
     8
 71
     3
 72
     9
 73
     5
 74
     0
 42
0.000000001
 43
0.00000001
 40
0.0
 40
0.0
 40
0.0
 40
0.0
 40
0.2421160240027969
 40
1.0
 40
1.0
 40
1.0
 40
1.0
 10
127.2888218808128
 20
152.8112548726725
 30
0.0
 10
127.2702725782036
 20
152.8493201624026
 30
0.0
 10
127.1936592987411
 20
153.0065393711968
 30
0.0
 10
127.1867041404207
 20
153.1638796280994
 30
0.0
 10
127.1814329373791
 20
153.2831252875852
 30
0.0
  0
SPLINE
  5
20A
330
1F
100
AcDbEntity
  8
0
  6
Continuous
 62
     8
370
    25
100
AcDbSpline
210
0.0
220
0.0
230
1.0
 70
     8
 71
     3
 72
     9
 73
     5
 74
     0
 42
0.000000001
 43
0.00000001
 40
0.0
 40
0.0
 40
0.0
 40
0.0
 40
0.777086530085037
 40
1.0
 40
1.0
 40
1.0
 40
1.0
 10
127.1814329373791
 20
143.7649554896282
 30
0.0
 10
127.1863666978239
 20
143.884201369598
 30
0.0
 10
127.1927157468086
 20
144.0376538814525
 30
0.0
 10
127.2670007748932
 20
144.190989387209
 30
0.0
 10
127.2835599082663
 20
144.2251699368583
 30
0.0
  0
LINE
  5
20B
330
1F
100
AcDbEntity
  8
0
  6
Continuous
 62
     8
370
    25
100
AcDbLine
 10
142.676795629
 20
153.4822215649
 30
0.0
 11
142.6814331497
 21
153.62305989
 31
0.0
  0
LINE
  5
20C
330
1F
100
AcDbEntity
  8
0
  6
Continuous
 62
     8
370
    25
100
AcDbLine
 10
127.6865487742
 20
143.5803803939
 30
0.0
 11
127.681433485
 21
143.4250208872
 31
0.0
  0
LINE
  5
20D
330
1F
100
AcDbEntity
  8
0
  6
Continuous
 62
     8
370
    25
100
AcDbLine
 10
127.681433485
 20
153.62305989
 30
0.0
 11
127.6871080334
 21
153.4988698873
 31
0.0
  0
LINE
  5
20E
330
1F
100
AcDbEntity
  8
0
  6
Continuous
 62
     8
370
    25
100
AcDbLine
 10
142.6814331497
 20
143.4250208872
 30
0.0
 11
142.6749693054
 21
143.5664845954
 31
0.0
  0
SPLINE
  5
20F
330
1F
100
AcDbEntity
  8
0
  6
Continuous
 62
     8
370
    25
100
AcDbSpline
210
0.0
220
0.0
230
1.0
 70
     8
 71
     3
 72
    11
 73
     7
 74
     0
 42
0.000000001
 43
0.00000001
 40
0.0
 40
0.0
 40
0.0
 40
0.0
 40
0.137696887866455
 40
0.4171858930680554
 40
0.7017749847908697
 40
1.0
 40
1.0
 40
1.0
 40
1.0
 10
142.6570627662494
 20
155.5165946806895
 30
0.0
 10
142.6488284435632
 20
155.5148349851124
 30
0.0
 10
142.6238805793313
 20
155.5095035634497
 30
0.0
 10
142.5911194024517
 20
155.4683135488229
 30
0.0
 10
142.5639357019875
 20
155.3957285293613
 30
0.0
 10
142.5902147273176
 20
155.3270134833849
 30
0.0
 10
142.6036616611435
 20
155.2918521079349
 30
0.0
  0
LINE
  5
210
330
1F
100
AcDbEntity
  8
0
  6
Continuous
 62
     8
370
    25
100
AcDbLine
 10
140.876075049
 20
141.5240401725
 30
0.0
 11
140.876075049
 21
141.5547463435
 31
0.0
  0
INSERT
  5
21C
330
1F
100
AcDbEntity
  8
0
  6
Continuous
 62
     7
370
    18
100
AcDbBlockReference
  2
SW_CENTERMARKSYMBOL_1
 10
135.1814333174
 20
148.5240403886
 30
0.0
  0
ARC
  5
21D
330
1F
100
AcDbEntity
  8
0
  6
Continuous
 62
     7
370
    18
100
AcDbCircle
 10
135.1814333174
 20
148.5240403886
 30
0.0
 40
4.929554999999999
100
AcDbArc
 50
75.0
 51
345.0
  0
ENDSEC
  0
SECTION
  2
OBJECTS
  0
DICTIONARY
  5
C
330
0
100
AcDbDictionary
281
     1
  3
ACAD_GROUP
350
D
  3
ACAD_LAYOUT
350
1A
  3
ACAD_MLINESTYLE
350
17
  3
ACAD_PLOTSETTINGS
350
19
  3
ACAD_PLOTSTYLENAME
350
E
  3
ACAD_SCALELIST
350
47
  0
DICTIONARY
  5
D
102
{ACAD_REACTORS
330
C
102
}
330
C
100
AcDbDictionary
281
     1
  0
DICTIONARY
  5
1A
102
{ACAD_REACTORS
330
C
102
}
330
C
100
AcDbDictionary
281
     1
  3
Layout1
350
1E
  3
Layout2
350
26
  3
Model
350
22
  0
DICTIONARY
  5
17
102
{ACAD_REACTORS
330
C
102
}
330
C
100
AcDbDictionary
281
     1
  3
Standard
350
18
  0
DICTIONARY
  5
19
102
{ACAD_REACTORS
330
C
102
}
330
C
100
AcDbDictionary
281
     1
  0
ACDBDICTIONARYWDFLT
  5
E
102
{ACAD_REACTORS
330
C
102
}
330
C
100
AcDbDictionary
281
     1
  3
Normal
350
F
100
AcDbDictionaryWithDefault
340
F
  0
DICTIONARY
  5
47
102
{ACAD_REACTORS
330
C
102
}
330
C
100
AcDbDictionary
281
     1
  3
A0
350
48
  3
A1
350
49
  3
A2
350
4A
  3
A3
350
4B
  3
A4
350
4C
  3
A5
350
4D
  3
A6
350
4E
  3
A7
350
4F
  3
A8
350
50
  3
A9
350
51
  3
B0
350
52
  3
B1
350
53
  3
B2
350
54
  3
B3
350
55
  3
B4
350
56
  3
B5
350
57
  3
B6
350
58
  3
B7
350
59
  3
B8
350
5A
  3
B9
350
5B
  3
C0
350
5C
  3
C1
350
5D
  3
C2
350
5E
  3
C3
350
5F
  3
C4
350
60
  3
C5
350
61
  3
C6
350
62
  3
C7
350
63
  3
C8
350
64
  3
C9
350
65
  3
D0
350
66
  3
D1
350
67
  3
D2
350
68
  0
LAYOUT
  5
1E
102
{ACAD_REACTORS
330
1A
102
}
330
1A
100
AcDbPlotSettings
  1

  2
none_device
  4

  6

 40
0.0
 41
0.0
 42
0.0
 43
0.0
 44
0.0
 45
0.0
 46
0.0
 47
0.0
 48
0.0
 49
0.0
140
0.0
141
0.0
142
1.0
143
1.0
 70
   688
 72
     1
 73
     0
 74
     5
  7

 75
    16
147
1.0
148
0.0
149
0.0
100
AcDbLayout
  1
Layout1
 70
     1
 71
     1
 10
0.0
 20
0.0
 11
420.0
 21
297.0
 12
0.0
 22
0.0
 32
0.0
 14
1.0000000000E+20
 24
1.0000000000E+20
 34
1.0000000000E+20
 15
-1.0000000000E+20
 25
-1.0000000000E+20
 35
-1.0000000000E+20
146
0.0
 13
0.0
 23
0.0
 33
0.0
 16
1.0
 26
0.0
 36
0.0
 17
0.0
 27
1.0
 37
0.0
 76
     0
330
1B
  0
LAYOUT
  5
26
102
{ACAD_REACTORS
330
1A
102
}
330
1A
100
AcDbPlotSettings
  1

  2
none_device
  4

  6

 40
0.0
 41
0.0
 42
0.0
 43
0.0
 44
0.0
 45
0.0
 46
0.0
 47
0.0
 48
0.0
 49
0.0
140
0.0
141
0.0
142
1.0
143
1.0
 70
   688
 72
     1
 73
     0
 74
     5
  7

 75
    16
147
1.0
148
0.0
149
0.0
100
AcDbLayout
  1
Layout2
 70
     1
 71
     2
 10
0.0
 20
0.0
 11
0.0
 21
0.0
 12
0.0
 22
0.0
 32
0.0
 14
0.0
 24
0.0
 34
0.0
 15
0.0
 25
0.0
 35
0.0
146
0.0
 13
0.0
 23
0.0
 33
0.0
 16
1.0
 26
0.0
 36
0.0
 17
0.0
 27
1.0
 37
0.0
 76
     0
330
23
  0
LAYOUT
  5
22
102
{ACAD_REACTORS
330
1A
102
}
330
1A
100
AcDbPlotSettings
  1

  2
none_device
  4
Letter_(8.50_x_11.00_Inches)
  6

 40
6.35
 41
6.35
 42
6.35000508
 43
6.35000508
 44
215.9
 45
279.4
 46
0.0
 47
0.0
 48
0.0
 49
0.0
140
0.0
141
0.0
142
1.0
143
1.0
 70
  1712
 72
     1
 73
     0
 74
     0
  7

 75
     0
147
1.0
148
0.0
149
0.0
100
AcDbLayout
  1
Model
 70
     1
 71
     0
 10
0.0
 20
0.0
 11
431.8
 21
279.4
 12
0.0
 22
0.0
 32
0.0
 14
0.0
 24
0.0
 34
0.0
 15
431.8
 25
279.4
 35
0.0
146
0.0
 13
0.0
 23
0.0
 33
0.0
 16
1.0
 26
0.0
 36
0.0
 17
0.0
 27
1.0
 37
0.0
 76
     0
330
1F
331
29
  0
MLINESTYLE
  5
18
102
{ACAD_REACTORS
330
17
102
}
330
17
100
AcDbMlineStyle
  2
Standard
 70
     0
  3

 62
   256
 51
90.0
 52
90.0
 71
     2
 49
0.5
 62
   256
  6
BYLAYER
 49
-0.5
 62
   256
  6
BYLAYER
  0
ACDBPLACEHOLDER
  5
F
102
{ACAD_REACTORS
330
E
102
}
330
E
  0
SCALE
  5
48
102
{ACAD_REACTORS
330
47
102
}
330
47
100
AcDbScale
 70
     0
300
1:1
140
1.0
141
1.0
290
     1
  0
SCALE
  5
49
102
{ACAD_REACTORS
330
47
102
}
330
47
100
AcDbScale
 70
     0
300
1:2
140
1.0
141
2.0
290
     0
  0
SCALE
  5
4A
102
{ACAD_REACTORS
330
47
102
}
330
47
100
AcDbScale
 70
     0
300
1:4
140
1.0
141
4.0
290
     0
  0
SCALE
  5
4B
102
{ACAD_REACTORS
330
47
102
}
330
47
100
AcDbScale
 70
     0
300
1:5
140
1.0
141
5.0
290
     0
  0
SCALE
  5
4C
102
{ACAD_REACTORS
330
47
102
}
330
47
100
AcDbScale
 70
     0
300
1:8
140
1.0
141
8.0
290
     0
  0
SCALE
  5
4D
102
{ACAD_REACTORS
330
47
102
}
330
47
100
AcDbScale
 70
     0
300
1:10
140
1.0
141
10.0
290
     0
  0
SCALE
  5
4E
102
{ACAD_REACTORS
330
47
102
}
330
47
100
AcDbScale
 70
     0
300
1:16
140
1.0
141
16.0
290
     0
  0
SCALE
  5
4F
102
{ACAD_REACTORS
330
47
102
}
330
47
100
AcDbScale
 70
     0
300
1:20
140
1.0
141
20.0
290
     0
  0
SCALE
  5
50
102
{ACAD_REACTORS
330
47
102
}
330
47
100
AcDbScale
 70
     0
300
1:30
140
1.0
141
30.0
290
     0
  0
SCALE
  5
51
102
{ACAD_REACTORS
330
47
102
}
330
47
100
AcDbScale
 70
     0
300
1:40
140
1.0
141
40.0
290
     0
  0
SCALE
  5
52
102
{ACAD_REACTORS
330
47
102
}
330
47
100
AcDbScale
 70
     0
300
1:50
140
1.0
141
50.0
290
     0
  0
SCALE
  5
53
102
{ACAD_REACTORS
330
47
102
}
330
47
100
AcDbScale
 70
     0
300
1:100
140
1.0
141
100.0
290
     0
  0
SCALE
  5
54
102
{ACAD_REACTORS
330
47
102
}
330
47
100
AcDbScale
 70
     0
300
2:1
140
2.0
141
1.0
290
     0
  0
SCALE
  5
55
102
{ACAD_REACTORS
330
47
102
}
330
47
100
AcDbScale
 70
     0
300
4:1
140
4.0
141
1.0
290
     0
  0
SCALE
  5
56
102
{ACAD_REACTORS
330
47
102
}
330
47
100
AcDbScale
 70
     0
300
8:1
140
8.0
141
1.0
290
     0
  0
SCALE
  5
57
102
{ACAD_REACTORS
330
47
102
}
330
47
100
AcDbScale
 70
     0
300
10:1
140
10.0
141
1.0
290
     0
  0
SCALE
  5
58
102
{ACAD_REACTORS
330
47
102
}
330
47
100
AcDbScale
 70
     0
300
100:1
140
100.0
141
1.0
290
     0
  0
SCALE
  5
59
102
{ACAD_REACTORS
330
47
102
}
330
47
100
AcDbScale
 70
     0
300
1/128" = 1'-0"
140
0.0078125
141
12.0
290
     0
  0
SCALE
  5
5A
102
{ACAD_REACTORS
330
47
102
}
330
47
100
AcDbScale
 70
     0
300
1/64" = 1'-0"
140
0.015625
141
12.0
290
     0
  0
SCALE
  5
5B
102
{ACAD_REACTORS
330
47
102
}
330
47
100
AcDbScale
 70
     0
300
1/32" = 1'-0"
140
0.03125
141
12.0
290
     0
  0
SCALE
  5
5C
102
{ACAD_REACTORS
330
47
102
}
330
47
100
AcDbScale
 70
     0
300
1/16" = 1'-0"
140
0.0625
141
12.0
290
     0
  0
SCALE
  5
5D
102
{ACAD_REACTORS
330
47
102
}
330
47
100
AcDbScale
 70
     0
300
3/32" = 1'-0"
140
0.09375
141
12.0
290
     0
  0
SCALE
  5
5E
102
{ACAD_REACTORS
330
47
102
}
330
47
100
AcDbScale
 70
     0
300
1/8" = 1'-0"
140
0.125
141
12.0
290
     0
  0
SCALE
  5
5F
102
{ACAD_REACTORS
330
47
102
}
330
47
100
AcDbScale
 70
     0
300
3/16" = 1'-0"
140
0.1875
141
12.0
290
     0
  0
SCALE
  5
60
102
{ACAD_REACTORS
330
47
102
}
330
47
100
AcDbScale
 70
     0
300
1/4" = 1'-0"
140
0.25
141
12.0
290
     0
  0
SCALE
  5
61
102
{ACAD_REACTORS
330
47
102
}
330
47
100
AcDbScale
 70
     0
300
3/8" = 1'-0"
140
0.375
141
12.0
290
     0
  0
SCALE
  5
62
102
{ACAD_REACTORS
330
47
102
}
330
47
100
AcDbScale
 70
     0
300
1/2" = 1'-0"
140
0.5
141
12.0
290
     0
  0
SCALE
  5
63
102
{ACAD_REACTORS
330
47
102
}
330
47
100
AcDbScale
 70
     0
300
3/4" = 1'-0"
140
0.75
141
12.0
290
     0
  0
SCALE
  5
64
102
{ACAD_REACTORS
330
47
102
}
330
47
100
AcDbScale
 70
     0
300
1" = 1'-0"
140
1.0
141
12.0
290
     0
  0
SCALE
  5
65
102
{ACAD_REACTORS
330
47
102
}
330
47
100
AcDbScale
 70
     0
300
1-1/2" = 1'-0"
140
1.5
141
12.0
290
     0
  0
SCALE
  5
66
102
{ACAD_REACTORS
330
47
102
}
330
47
100
AcDbScale
 70
     0
300
3" = 1'-0"
140
3.0
141
12.0
290
     0
  0
SCALE
  5
67
102
{ACAD_REACTORS
330
47
102
}
330
47
100
AcDbScale
 70
     0
300
6" = 1'-0"
140
6.0
141
12.0
290
     0
  0
SCALE
  5
68
102
{ACAD_REACTORS
330
47
102
}
330
47
100
AcDbScale
 70
     0
300
1'-0" = 1'-0"
140
12.0
141
12.0
290
     0
  0
ENDSEC
  0
EOF
