  0
SECTION
  2
HEADER
  9
$ACADVER
  1
AC1015
  9
$ACADMAINTVER
 70
     6
  9
$DWGCODEPAGE
  3
DOS932
  9
$INSBASE
 10
0.0
 20
0.0
 30
0.0
  9
$EXTMIN
 10
0.0
 20
0.0
 30
0.0
  9
$EXTMAX
 10
431.8
 20
279.4
 30
0.0
  9
$LIMMIN
 10
0.0
 20
0.0
  9
$LIMMAX
 10
431.8
 20
279.4
  9
$ORTHOMODE
 70
     0
  9
$REGENMODE
 70
     1
  9
$FILLMODE
 70
     1
  9
$QTEXTMODE
 70
     0
  9
$MIRRTEXT
 70
     1
  9
$LTSCALE
 40
1.0
  9
$ATTMODE
 70
     1
  9
$TEXTSIZE
 40
3.5
  9
$TRACEWID
 40
1.0
  9
$TEXTSTYLE
  7
Standard
  9
$CLAYER
  8
0
  9
$CELTYPE
  6
ByLayer
  9
$CECOLOR
 62
   256
  9
$CELTSCALE
 40
1.0
  9
$DISPSILH
 70
     0
  9
$DIMSCALE
 40
1.0
  9
$DIMASZ
 40
3.302
  9
$DIMEXO
 40
1.0
  9
$DIMDLI
 40
3.75
  9
$DIMRND
 40
0.0
  9
$DIMDLE
 40
0.0
  9
$DIMEXE
 40
1.0
  9
$DIMTP
 40
0.0
  9
$DIMTM
 40
0.0
  9
$DIMTXT
 40
3.5
  9
$DIMCEN
 40
2.5
  9
$DIMTSZ
 40
0.0
  9
$DIMTOL
 70
     0
  9
$DIMLIM
 70
     0
  9
$DIMTIH
 70
     1
  9
$DIMTOH
 70
     1
  9
$DIMSE1
 70
     0
  9
$DIMSE2
 70
     0
  9
$DIMTAD
 70
     1
  9
$DIMZIN
 70
     1
  9
$DIMBLK
  1

  9
$DIMASO
 70
     1
  9
$DIMSHO
 70
     1
  9
$DIMPOST
  1

  9
$DIMAPOST
  1

  9
$DIMALT
 70
     0
  9
$DIMALTD
 70
     3
  9
$DIMALTF
 40
0.0393700787
  9
$DIMLFAC
 40
1.0
  9
$DIMTOFL
 70
     1
  9
$DIMTVP
 40
0.0
  9
$DIMTIX
 70
     0
  9
$DIMSOXD
 70
     0
  9
$DIMSAH
 70
     0
  9
$DIMBLK1
  1

  9
$DIMBLK2
  1

  9
$DIMSTYLE
  2
ISO-25
  9
$DIMCLRD
 70
     0
  9
$DIMCLRE
 70
     0
  9
$DIMCLRT
 70
     0
  9
$DIMTFAC
 40
1.0
  9
$DIMGAP
 40
1.524
  9
$DIMJUST
 70
     0
  9
$DIMSD1
 70
     0
  9
$DIMSD2
 70
     0
  9
$DIMTOLJ
 70
     0
  9
$DIMTZIN
 70
     1
  9
$DIMALTZ
 70
     0
  9
$DIMALTTZ
 70
     0
  9
$DIMUPT
 70
     0
  9
$DIMDEC
 70
     2
  9
$DIMTDEC
 70
     2
  9
$DIMALTU
 70
     2
  9
$DIMALTTD
 70
     3
  9
$DIMTXSTY
  7
Standard
  9
$DIMAUNIT
 70
     0
  9
$DIMADEC
 70
     2
  9
$DIMALTRND
 40
0.0
  9
$DIMAZIN
 70
     0
  9
$DIMDSEP
 70
    44
  9
$DIMATFIT
 70
     3
  9
$DIMFRAC
 70
     0
  9
$DIMLDRBLK
  1

  9
$DIMLUNIT
 70
     2
  9
$DIMLWD
 70
    -2
  9
$DIMLWE
 70
    -2
  9
$DIMTMOVE
 70
     0
  9
$LUNITS
 70
     2
  9
$LUPREC
 70
     2
  9
$SKETCHINC
 40
1.0
  9
$FILLETRAD
 40
10.0
  9
$AUNITS
 70
     0
  9
$AUPREC
 70
     2
  9
$MENU
  1
.
  9
$ELEVATION
 40
0.0
  9
$PELEVATION
 40
0.0
  9
$THICKNESS
 40
0.0
  9
$LIMCHECK
 70
     0
  9
$CHAMFERA
 40
0.0
  9
$CHAMFERB
 40
0.0
  9
$CHAMFERC
 40
0.0
  9
$CHAMFERD
 40
0.0
  9
$SKPOLY
 70
     0
  9
$TDCREATE
 40
2459229.380223542
  9
$TDUCREATE
 40
2459229.005223542
  9
$TDUPDATE
 40
2459229.38022463
  9
$TDUUPDATE
 40
2459229.00522463
  9
$TDINDWG
 40
0.0000000116
  9
$TDUSRTIMER
 40
0.0000000116
  9
$USRTIMER
 70
     1
  9
$ANGBASE
 50
0.0
  9
$ANGDIR
 70
     0
  9
$PDMODE
 70
     0
  9
$PDSIZE
 40
-1.0
  9
$PLINEWID
 40
0.0
  9
$SPLFRAME
 70
     0
  9
$SPLINETYPE
 70
     6
  9
$SPLINESEGS
 70
     8
  9
$HANDSEED
  5
220
  9
$SURFTAB1
 70
     6
  9
$SURFTAB2
 70
     6
  9
$SURFTYPE
 70
     6
  9
$SURFU
 70
     6
  9
$SURFV
 70
     6
  9
$UCSBASE
  2

  9
$UCSNAME
  2

  9
$UCSORG
 10
0.0
 20
0.0
 30
0.0
  9
$UCSXDIR
 10
1.0
 20
0.0
 30
0.0
  9
$UCSYDIR
 10
0.0
 20
1.0
 30
0.0
  9
$UCSORTHOREF
  2

  9
$UCSORTHOVIEW
 70
     0
  9
$UCSORGTOP
 10
0.0
 20
0.0
 30
0.0
  9
$UCSORGBOTTOM
 10
0.0
 20
0.0
 30
0.0
  9
$UCSORGLEFT
 10
0.0
 20
0.0
 30
0.0
  9
$UCSORGRIGHT
 10
0.0
 20
0.0
 30
0.0
  9
$UCSORGFRONT
 10
0.0
 20
0.0
 30
0.0
  9
$UCSORGBACK
 10
0.0
 20
0.0
 30
0.0
  9
$PUCSBASE
  2

  9
$PUCSNAME
  2

  9
$PUCSORG
 10
0.0
 20
0.0
 30
0.0
  9
$PUCSXDIR
 10
1.0
 20
0.0
 30
0.0
  9
$PUCSYDIR
 10
0.0
 20
1.0
 30
0.0
  9
$PUCSORTHOREF
  2

  9
$PUCSORTHOVIEW
 70
     0
  9
$PUCSORGTOP
 10
0.0
 20
0.0
 30
0.0
  9
$PUCSORGBOTTOM
 10
0.0
 20
0.0
 30
0.0
  9
$PUCSORGLEFT
 10
0.0
 20
0.0
 30
0.0
  9
$PUCSORGRIGHT
 10
0.0
 20
0.0
 30
0.0
  9
$PUCSORGFRONT
 10
0.0
 20
0.0
 30
0.0
  9
$PUCSORGBACK
 10
0.0
 20
0.0
 30
0.0
  9
$USERI1
 70
     0
  9
$USERI2
 70
     0
  9
$USERI3
 70
     0
  9
$USERI4
 70
     0
  9
$USERI5
 70
     0
  9
$USERR1
 40
0.0
  9
$USERR2
 40
0.0
  9
$USERR3
 40
0.0
  9
$USERR4
 40
0.0
  9
$USERR5
 40
0.0
  9
$WORLDVIEW
 70
     1
  9
$SHADEDGE
 70
     3
  9
$SHADEDIF
 70
    70
  9
$TILEMODE
 70
     1
  9
$MAXACTVP
 70
    64
  9
$PINSBASE
 10
0.0
 20
0.0
 30
0.0
  9
$PLIMCHECK
 70
     0
  9
$PEXTMIN
 10
1.0000000000E+20
 20
1.0000000000E+20
 30
1.0000000000E+20
  9
$PEXTMAX
 10
-1.0000000000E+20
 20
-1.0000000000E+20
 30
-1.0000000000E+20
  9
$PLIMMIN
 10
0.0
 20
0.0
  9
$PLIMMAX
 10
420.0
 20
297.0
  9
$UNITMODE
 70
     0
  9
$VISRETAIN
 70
     1
  9
$PLINEGEN
 70
     0
  9
$PSLTSCALE
 70
     1
  9
$TREEDEPTH
 70
  3020
  9
$CMLSTYLE
  2
Standard
  9
$CMLJUST
 70
     0
  9
$CMLSCALE
 40
20.0
  9
$PROXYGRAPHICS
 70
     1
  9
$MEASUREMENT
 70
     1
  9
$CELWEIGHT
370
    -1
  9
$ENDCAPS
280
     0
  9
$JOINSTYLE
280
     0
  9
$LWDISPLAY
290
     1
  9
$INSUNITS
 70
     4
  9
$HYPERLINKBASE
  1

  9
$STYLESHEET
  1

  9
$XEDIT
290
     1
  9
$CEPSNTYPE
380
     0
  9
$PSTYLEMODE
290
     1
  9
$FINGERPRINTGUID
  2
{FDCB0101-360E-4824-8561-9443EC7F939B}
  9
$VERSIONGUID
  2
{FAEB1C32-E019-11D5-929B-00C0DF256EC4}
  9
$EXTNAMES
290
     1
  9
$PSVPSCALE
 40
0.0
  9
$OLESTARTUP
290
     0
  0
ENDSEC
  0
SECTION
  2
CLASSES
  0
CLASS
  1
ACDBDICTIONARYWDFLT
  2
AcDbDictionaryWithDefault
  3
ObjectDBX Classes
 90
        0
280
     0
281
     0
  0
CLASS
  1
VISUALSTYLE
  2
AcDbVisualStyle
  3
ObjectDBX Classes
 90
     4095
280
     0
281
     0
  0
CLASS
  1
MATERIAL
  2
AcDbMaterial
  3
ObjectDBX Classes
 90
     1153
280
     0
281
     0
  0
CLASS
  1
SCALE
  2
AcDbScale
  3
ObjectDBX Classes
 90
     1153
280
     0
281
     0
  0
CLASS
  1
TABLESTYLE
  2
AcDbTableStyle
  3
ObjectDBX Classes
 90
     4095
280
     0
281
     0
  0
CLASS
  1
MLEADERSTYLE
  2
AcDbMLeaderStyle
  3
ACDB_MLEADERSTYLE_CLASS
 90
     4095
280
     0
281
     0
  0
CLASS
  1
SUN
  2
AcDbSun
  3
SCENEOE
 90
     1153
280
     0
281
     0
  0
CLASS
  1
ACDBPLACEHOLDER
  2
AcDbPlaceHolder
  3
ObjectDBX Classes
 90
        0
280
     0
281
     0
  0
CLASS
  1
LAYOUT
  2
AcDbLayout
  3
ObjectDBX Classes
 90
        0
280
     0
281
     0
  0
ENDSEC
  0
SECTION
  2
TABLES
  0
TABLE
  2
VPORT
  5
8
330
0
100
AcDbSymbolTable
 70
     1
  0
VPORT
  5
29
330
8
100
AcDbSymbolTableRecord
100
AcDbViewportTableRecord
  2
*Active
 70
     0
 10
0.0
 20
0.0
 11
1.0
 21
1.0
 12
215.9
 22
139.7
 13
0.0
 23
0.0
 14
10.0
 24
10.0
 15
10.0
 25
10.0
 16
0.0
 26
0.0
 36
1.0
 17
0.0
 27
0.0
 37
0.0
 40
279.4
 41
1.5454545455
 42
50.0
 43
0.0
 44
0.0
 50
0.0
 51
0.0
 71
     0
 72
  2000
 73
     1
 74
     3
 75
     0
 76
     0
 77
     0
 78
     0
281
     0
 65
     1
110
0.0
120
0.0
130
0.0
111
1.0
121
0.0
131
0.0
112
0.0
122
1.0
132
0.0
 79
     0
146
0.0
  0
ENDTAB
  0
TABLE
  2
LTYPE
  5
5
330
0
100
AcDbSymbolTable
 70
     6
  0
LTYPE
  5
14
330
5
100
AcDbSymbolTableRecord
100
AcDbLinetypeTableRecord
  2
ByBlock
 70
     0
  3

 72
    65
 73
     0
 40
0.0
  0
LTYPE
  5
15
330
5
100
AcDbSymbolTableRecord
100
AcDbLinetypeTableRecord
  2
ByLayer
 70
     0
  3

 72
    65
 73
     0
 40
0.0
  0
LTYPE
  5
16
330
5
100
AcDbSymbolTableRecord
100
AcDbLinetypeTableRecord
  2
Continuous
 70
     0
  3
Solid line
 72
    65
 73
     0
 40
0.0
  0
LTYPE
  5
6E
330
5
100
AcDbSymbolTableRecord
100
AcDbLinetypeTableRecord
  2
HIDDEN
 70
     0
  3
Hidden __ __ __ __ __ __ __ __ __ __ __ __ __ __
 72
    65
 73
     2
 40
1.905
 49
1.27
 74
     0
 49
-0.635
 74
     0
  0
LTYPE
  5
6F
330
5
100
AcDbSymbolTableRecord
100
AcDbLinetypeTableRecord
  2
PHANTOM
 70
     0
  3
Phantom ______  __  __  ______  __  __  ______
 72
    65
 73
     6
 40
12.7
 49
6.35
 74
     0
 49
-1.27
 74
     0
 49
1.27
 74
     0
 49
-1.27
 74
     0
 49
1.27
 74
     0
 49
-1.27
 74
     0
  0
LTYPE
  5
70
330
5
100
AcDbSymbolTableRecord
100
AcDbLinetypeTableRecord
  2
CENTER
 70
     0
  3
Center ____ _ ____ _ ____ _ ____ _ ____ _ ____
 72
    65
 73
     4
 40
10.16
 49
6.35
 74
     0
 49
-1.27
 74
     0
 49
1.27
 74
     0
 49
-1.27
 74
     0
  0
LTYPE
  5
71
330
5
100
AcDbSymbolTableRecord
100
AcDbLinetypeTableRecord
  2
CENTERX2
 70
     0
  3
Center (2x) ________  __  ________  __  _____
 72
    65
 73
     4
 40
20.32
 49
12.7
 74
     0
 49
-2.54
 74
     0
 49
2.54
 74
     0
 49
-2.54
 74
     0
  0
LTYPE
  5
72
330
5
100
AcDbSymbolTableRecord
100
AcDbLinetypeTableRecord
  2
DOT2
 70
     0
  3
Dot (.5x) ........................................
 72
    65
 73
     2
 40
0.635
 49
0.0
 74
     0
 49
-0.635
 74
     0
  0
ENDTAB
  0
TABLE
  2
LAYER
  5
2
330
0
100
AcDbSymbolTable
 70
     1
  0
LAYER
  5
10
330
2
100
AcDbSymbolTableRecord
100
AcDbLayerTableRecord
  2
0
 70
     0
 62
     7
  6
Continuous
370
    -3
390
F
  0
ENDTAB
  0
TABLE
  2
STYLE
  5
3
330
0
100
AcDbSymbolTable
 70
     2
  0
STYLE
  5
11
330
3
100
AcDbSymbolTableRecord
100
AcDbTextStyleTableRecord
  2
Standard
 70
     0
 40
0.0
 41
1.0
 50
0.0
 71
     0
 42
3.5
  3
txt
  4
bigfont
  0
STYLE
  5
73
330
3
100
AcDbSymbolTableRecord
100
AcDbTextStyleTableRecord
  2
SLDTEXTSTYLE0
 70
     0
 40
0.0
 41
0.7
 50
0.0
 71
     0
 42
3.5
  3
TXT
  4
bigfont
  0
ENDTAB
  0
TABLE
  2
VIEW
  5
6
330
0
100
AcDbSymbolTable
 70
     0
  0
ENDTAB
  0
TABLE
  2
UCS
  5
7
330
0
100
AcDbSymbolTable
 70
     0
  0
ENDTAB
  0
TABLE
  2
APPID
  5
9
330
0
100
AcDbSymbolTable
 70
     1
  0
APPID
  5
12
330
9
100
AcDbSymbolTableRecord
100
AcDbRegAppTableRecord
  2
ACAD
 70
     0
  0
ENDTAB
  0
TABLE
  2
DIMSTYLE
  5
A
330
0
100
AcDbSymbolTable
 70
     1
100
AcDbDimStyleTable
  0
DIMSTYLE
105
27
330
A
100
AcDbSymbolTableRecord
100
AcDbDimStyleTableRecord
  2
ISO-25
 70
     0
 41
2.5
 42
0.625
 43
3.75
 44
1.25
 73
     0
 74
     0
 77
     1
 78
     8
140
2.5
141
2.5
143
0.0393700787
147
0.625
171
     3
172
     1
178
     0
271
     2
272
     2
274
     3
278
    44
283
     0
284
     8
340
11
  0
ENDTAB
  0
TABLE
  2
BLOCK_RECORD
  5
1
330
0
100
AcDbSymbolTable
 70
     3
  0
BLOCK_RECORD
  5
1F
330
1
100
AcDbSymbolTableRecord
100
AcDbBlockTableRecord
  2
*Model_Space
340
22
  0
BLOCK_RECORD
  5
1B
330
1
100
AcDbSymbolTableRecord
100
AcDbBlockTableRecord
  2
*Paper_Space
340
1E
  0
BLOCK_RECORD
  5
23
330
1
100
AcDbSymbolTableRecord
100
AcDbBlockTableRecord
  2
*Paper_Space0
340
26
  0
BLOCK_RECORD
  5
187
330
1
100
AcDbSymbolTableRecord
100
AcDbBlockTableRecord
  2
SW_CENTERMARKSYMBOL_0
340
0
102
{BLKREFS
331
192
102
}
  0
BLOCK_RECORD
  5
213
330
1
100
AcDbSymbolTableRecord
100
AcDbBlockTableRecord
  2
SW_CENTERMARKSYMBOL_1
340
0
102
{BLKREFS
331
21E
102
}
  0
ENDTAB
  0
ENDSEC
  0
SECTION
  2
BLOCKS
  0
BLOCK
  5
20
330
1F
100
AcDbEntity
  8
0
100
AcDbBlockBegin
  2
*Model_Space
 70
     0
 10
0.0
 20
0.0
 30
0.0
  3
*Model_Space
  1

  0
ENDBLK
  5
21
330
1F
100
AcDbEntity
  8
0
100
AcDbBlockEnd
  0
BLOCK
  5
1C
330
1B
100
AcDbEntity
 67
     1
  8
0
100
AcDbBlockBegin
  2
*Paper_Space
 70
     0
 10
0.0
 20
0.0
 30
0.0
  3
*Paper_Space
  1

  0
ENDBLK
  5
1D
330
1B
100
AcDbEntity
 67
     1
  8
0
100
AcDbBlockEnd
  0
BLOCK
  5
24
330
23
100
AcDbEntity
  8
0
100
AcDbBlockBegin
  2
*Paper_Space0
 70
     0
 10
0.0
 20
0.0
 30
0.0
  3
*Paper_Space0
  1

  0
ENDBLK
  5
25
330
23
100
AcDbEntity
  8
0
100
AcDbBlockEnd
  0
BLOCK
  5
188
330
187
100
AcDbEntity
  8
0
100
AcDbBlockBegin
  2
SW_CENTERMARKSYMBOL_0
 70
     0
 10
0.0
 20
0.0
 30
0.0
  3
SW_CENTERMARKSYMBOL_0
  1

  0
LINE
  5
18A
330
187
100
AcDbEntity
  8
0
  6
Continuous
 62
     0
370
    18
100
AcDbLine
 10
0.0
 20
0.0
 30
0.0
 11
0.0
 21
2.5
 31
0.0
  0
LINE
  5
18B
330
187
100
AcDbEntity
  8
0
  6
Continuous
 62
     0
370
    18
100
AcDbLine
 10
0.0
 20
0.0
 30
0.0
 11
-2.5
 21
0.0
 31
0.0
  0
LINE
  5
18C
330
187
100
AcDbEntity
  8
0
  6
Continuous
 62
     0
370
    18
100
AcDbLine
 10
0.0
 20
0.0
 30
0.0
 11
0.0
 21
-2.5
 31
0.0
  0
LINE
  5
18D
330
187
100
AcDbEntity
  8
0
  6
Continuous
 62
     0
370
    18
100
AcDbLine
 10
0.0
 20
0.0
 30
0.0
 11
2.5
 21
0.0
 31
0.0
  0
LINE
  5
18E
330
187
100
AcDbEntity
  8
0
  6
Continuous
 62
     0
370
    18
100
AcDbLine
 10
0.0
 20
5.0
 30
0.0
 11
0.0
 21
26.3524904044
 31
0.0
  0
LINE
  5
18F
330
187
100
AcDbEntity
  8
0
  6
Continuous
 62
     0
370
    18
100
AcDbLine
 10
-5.0
 20
0.0
 30
0.0
 11
-11.5
 21
0.0
 31
0.0
  0
LINE
  5
190
330
187
100
AcDbEntity
  8
0
  6
Continuous
 62
     0
370
    18
100
AcDbLine
 10
0.0
 20
-5.0
 30
0.0
 11
0.0
 21
-11.5
 31
0.0
  0
LINE
  5
191
330
187
100
AcDbEntity
  8
0
  6
Continuous
 62
     0
370
    18
100
AcDbLine
 10
5.0
 20
0.0
 30
0.0
 11
11.5
 21
0.0
 31
0.0
  0
ENDBLK
  5
189
330
187
100
AcDbEntity
  8
0
100
AcDbBlockEnd
  0
BLOCK
  5
214
330
213
100
AcDbEntity
  8
0
100
AcDbBlockBegin
  2
SW_CENTERMARKSYMBOL_1
 70
     0
 10
0.0
 20
0.0
 30
0.0
  3
SW_CENTERMARKSYMBOL_1
  1

  0
LINE
  5
216
330
213
100
AcDbEntity
  8
0
  6
Continuous
 62
     0
370
    18
100
AcDbLine
 10
0.0
 20
0.0
 30
0.0
 11
0.0
 21
2.5
 31
0.0
  0
LINE
  5
217
330
213
100
AcDbEntity
  8
0
  6
Continuous
 62
     0
370
    18
100
AcDbLine
 10
0.0
 20
0.0
 30
0.0
 11
-2.5
 21
0.0
 31
0.0
  0
LINE
  5
218
330
213
100
AcDbEntity
  8
0
  6
Continuous
 62
     0
370
    18
100
AcDbLine
 10
0.0
 20
0.0
 30
0.0
 11
0.0
 21
-2.5
 31
0.0
  0
LINE
  5
219
330
213
100
AcDbEntity
  8
0
  6
Continuous
 62
     0
370
    18
100
AcDbLine
 10
0.0
 20
0.0
 30
0.0
 11
2.5
 21
0.0
 31
0.0
  0
LINE
  5
21A
330
213
100
AcDbEntity
  8
0
  6
Continuous
 62
     0
370
    18
100
AcDbLine
 10
0.0
 20
5.0
 30
0.0
 11
0.0
 21
11.5
 31
0.0
  0
LINE
  5
21B
330
213
100
AcDbEntity
  8
0
  6
Continuous
 62
     0
370
    18
100
AcDbLine
 10
-5.0
 20
0.0
 30
0.0
 11
-26.0338550033
 21
0.0
 31
0.0
  0
LINE
  5
21C
330
213
100
AcDbEntity
  8
0
  6
Continuous
 62
     0
370
    18
100
AcDbLine
 10
0.0
 20
-5.0
 30
0.0
 11
0.0
 21
-11.5
 31
0.0
  0
LINE
  5
21D
330
213
100
AcDbEntity
  8
0
  6
Continuous
 62
     0
370
    18
100
AcDbLine
 10
5.0
 20
0.0
 30
0.0
 11
26.3968724657
 21
0.0
 31
0.0
  0
ENDBLK
  5
215
330
213
100
AcDbEntity
  8
0
100
AcDbBlockEnd
  0
ENDSEC
  0
SECTION
  2
ENTITIES
  0
MTEXT
  5
74
330
1F
100
AcDbEntity
  8
0
  6
Continuous
 62
     7
370
     0
100
AcDbMText
 10
163.9552346209
 20
129.7099907652
 30
0.0
 40
5.2916666667
 41
0.0
 71
     1
 72
     1
  1
5R-TF1112
  7
SLDTEXTSTYLE0
 73
     1
 44
1.0
  0
LINE
  5
75
330
1F
100
AcDbEntity
  8
0
  6
Continuous
 62
     7
370
    25
100
AcDbLine
 10
121.5161221932
 20
93.7511094392
 30
0.0
 11
110.5161231841
 21
93.7511094392
 31
0.0
  0
LINE
  5
76
330
1F
100
AcDbEntity
  8
0
  6
Continuous
 62
     7
370
    25
100
AcDbLine
 10
110.5161231841
 20
75.751110214
 30
0.0
 11
121.5161221932
 21
75.751110214
 31
0.0
  0
LINE
  5
77
330
1F
100
AcDbEntity
  8
0
  6
Continuous
 62
     7
370
    25
100
AcDbLine
 10
144.0161221559
 20
98.2511101768
 30
0.0
 11
144.0161221559
 21
109.2511091858
 31
0.0
  0
LINE
  5
78
330
1F
100
AcDbEntity
  8
0
  6
Continuous
 62
     7
370
    25
100
AcDbLine
 10
126.0161229308
 20
109.2511091858
 30
0.0
 11
126.0161229308
 21
98.2511101768
 31
0.0
  0
LINE
  5
79
330
1F
100
AcDbEntity
  8
0
  6
Continuous
 62
     7
370
    25
100
AcDbLine
 10
148.5161228935
 20
75.751110214
 30
0.0
 11
159.5161219026
 21
75.751110214
 31
0.0
  0
LINE
  5
7A
330
1F
100
AcDbEntity
  8
0
  6
Continuous
 62
     7
370
    25
100
AcDbLine
 10
159.5161219026
 20
93.7511094392
 30
0.0
 11
148.5161228935
 21
93.7511094392
 31
0.0
  0
LINE
  5
7B
330
1F
100
AcDbEntity
  8
0
  6
Continuous
 62
     7
370
    25
100
AcDbLine
 10
144.0161221559
 20
109.2511091858
 30
0.0
 11
143.5161230053
 21
109.7511101991
 31
0.0
  0
LINE
  5
7C
330
1F
100
AcDbEntity
  8
0
  6
Continuous
 62
     7
370
    25
100
AcDbLine
 10
126.5161220814
 20
109.7511101991
 30
0.0
 11
126.0161229308
 21
109.2511091858
 31
0.0
  0
LINE
  5
7D
330
1F
100
AcDbEntity
  8
0
  6
Continuous
 62
     7
370
    25
100
AcDbLine
 10
110.5161231841
 20
93.7511094392
 30
0.0
 11
110.0161221708
 21
93.2511102885
 31
0.0
  0
LINE
  5
7E
330
1F
100
AcDbEntity
  8
0
  6
Continuous
 62
     7
370
    25
100
AcDbLine
 10
110.0161221708
 20
76.2511093647
 30
0.0
 11
110.5161231841
 21
75.751110214
 31
0.0
  0
LINE
  5
7F
330
1F
100
AcDbEntity
  8
0
  6
Continuous
 62
     7
370
    25
100
AcDbLine
 10
159.5161219026
 20
75.751110214
 30
0.0
 11
160.0161229159
 21
76.2511093647
 31
0.0
  0
LINE
  5
80
330
1F
100
AcDbEntity
  8
0
  6
Continuous
 62
     7
370
    25
100
AcDbLine
 10
160.0161229159
 20
93.2511102885
 30
0.0
 11
159.5161219026
 21
93.7511094392
 31
0.0
  0
ARC
  5
81
330
1F
100
AcDbEntity
  8
0
  6
Continuous
 62
     7
370
    25
100
AcDbCircle
 10
121.5161225434
 20
92.2511098266
 30
0.0
 40
1.5
100
AcDbArc
 50
11.5369590328
 51
90.0
  0
ARC
  5
82
330
1F
100
AcDbEntity
  8
0
  6
Continuous
 62
     7
370
    25
100
AcDbCircle
 10
121.5161225434
 20
77.2511098266
 30
0.0
 40
1.5
100
AcDbArc
 50
270.0
 51
348.4630409672
  0
ARC
  5
83
330
1F
100
AcDbEntity
  8
0
  6
Continuous
 62
     7
370
    25
100
AcDbCircle
 10
148.5161225434
 20
92.2511098266
 30
0.0
 40
1.500000000000015
100
AcDbArc
 50
90.0
 51
168.4630409672
  0
ARC
  5
84
330
1F
100
AcDbEntity
  8
0
  6
Continuous
 62
     7
370
    25
100
AcDbCircle
 10
148.5161225434
 20
77.2511098266
 30
0.0
 40
1.500000000000018
100
AcDbArc
 50
191.5369590328
 51
270.0
  0
ARC
  5
85
330
1F
100
AcDbEntity
  8
0
  6
Continuous
 62
     7
370
    25
100
AcDbCircle
 10
127.5161225434
 20
98.2511098266
 30
0.0
 40
1.500000000000001
100
AcDbArc
 50
180.0
 51
258.4630409672
  0
ARC
  5
86
330
1F
100
AcDbEntity
  8
0
  6
Continuous
 62
     7
370
    25
100
AcDbCircle
 10
142.5161225434
 20
98.2511098266
 30
0.0
 40
1.5
100
AcDbArc
 50
281.5369590328
 51
0.0
  0
ARC
  5
87
330
1F
100
AcDbEntity
  8
0
  6
Continuous
 62
     7
370
    25
100
AcDbCircle
 10
123.9656122861
 20
92.7511098266
 30
0.0
 40
1.000000000000006
100
AcDbArc
 50
191.5369590328
 51
270.0
  0
ARC
  5
88
330
1F
100
AcDbEntity
  8
0
  6
Continuous
 62
     7
370
    25
100
AcDbCircle
 10
123.9656122861
 20
76.7511098266
 30
0.0
 40
1.000000000000004
100
AcDbArc
 50
90.0
 51
168.4630409672
  0
ARC
  5
89
330
1F
100
AcDbEntity
  8
0
  6
Continuous
 62
     7
370
    25
100
AcDbCircle
 10
146.0666328006
 20
92.7511098266
 30
0.0
 40
1.00000000000002
100
AcDbArc
 50
270.0
 51
348.4630409672
  0
ARC
  5
8A
330
1F
100
AcDbEntity
  8
0
  6
Continuous
 62
     7
370
    25
100
AcDbCircle
 10
146.0666328006
 20
76.7511098266
 30
0.0
 40
1.000000000000017
100
AcDbArc
 50
11.5369590328
 51
90.0
  0
ARC
  5
8B
330
1F
100
AcDbEntity
  8
0
  6
Continuous
 62
     7
370
    25
100
AcDbCircle
 10
127.0161225434
 20
95.8016200838
 30
0.0
 40
1.0
100
AcDbArc
 50
0.0
 51
78.4630409672
  0
ARC
  5
8C
330
1F
100
AcDbEntity
  8
0
  6
Continuous
 62
     7
370
    25
100
AcDbCircle
 10
143.0161225434
 20
95.8016200838
 30
0.0
 40
1.000000000000028
100
AcDbArc
 50
101.5369590328
 51
180.0
  0
LINE
  5
8D
330
1F
100
AcDbEntity
  8
0
  6
Continuous
 62
     7
370
    25
100
AcDbLine
 10
127.516122711
 20
91.7511100427
 30
0.0
 11
123.9656123231
 21
91.7511100427
 31
0.0
  0
LINE
  5
8E
330
1F
100
AcDbEntity
  8
0
  6
Continuous
 62
     7
370
    25
100
AcDbLine
 10
146.0666327636
 20
91.7511100427
 30
0.0
 11
142.5161223757
 21
91.7511100427
 31
0.0
  0
LINE
  5
8F
330
1F
100
AcDbEntity
  8
0
  6
Continuous
 62
     7
370
    25
100
AcDbLine
 10
123.9656123231
 20
77.7511096105
 30
0.0
 11
146.0666327636
 21
77.7511096105
 31
0.0
  0
LINE
  5
90
330
1F
100
AcDbEntity
  8
0
  6
Continuous
 62
     7
370
    25
100
AcDbLine
 10
128.0161223273
 20
95.8016200468
 30
0.0
 11
128.0161223273
 21
92.251109659
 31
0.0
  0
LINE
  5
91
330
1F
100
AcDbEntity
  8
0
  6
Continuous
 62
     7
370
    25
100
AcDbLine
 10
142.0161227594
 20
92.251109659
 30
0.0
 11
142.0161227594
 21
95.8016200468
 31
0.0
  0
SPLINE
  5
92
330
1F
100
AcDbEntity
  8
0
  6
Continuous
 62
     7
370
    25
100
AcDbSpline
210
0.0
220
0.0
230
1.0
 70
     8
 71
     3
 72
    11
 73
     7
 74
     0
 42
0.000000001
 43
0.00000001
 40
0.0
 40
0.0
 40
0.0
 40
0.0
 40
0.2501293618956914
 40
0.5
 40
0.7498706381043087
 40
1.0
 40
1.0
 40
1.0
 40
1.0
 10
142.5160669620213
 20
91.75105788859229
 30
0.0
 10
142.4506150244001
 20
91.7587964127566
 30
0.0
 10
142.3197788500198
 20
91.77426545666586
 30
0.0
 10
142.1539644982261
 20
91.88895178146318
 30
0.0
 10
142.0392781734288
 20
92.05476613325679
 30
0.0
 10
142.0238091295195
 20
92.18560230763713
 30
0.0
 10
142.0160706053552
 20
92.25105424525837
 30
0.0
  0
SPLINE
  5
93
330
1F
100
AcDbEntity
  8
0
  6
Continuous
 62
     7
370
    25
100
AcDbSpline
210
0.0
220
0.0
230
1.0
 70
     8
 71
     3
 72
    11
 73
     7
 74
     0
 42
0.000000001
 43
0.00000001
 40
0.0
 40
0.0
 40
0.0
 40
0.0
 40
0.2501293618956914
 40
0.5
 40
0.7498706381043087
 40
1.0
 40
1.0
 40
1.0
 40
1.0
 10
128.0161744813499
 20
92.25105424525837
 30
0.0
 10
128.0084359571856
 20
92.18560230763713
 30
0.0
 10
127.9929669132764
 20
92.0547661332568
 30
0.0
 10
127.878280588479
 20
91.88895178146318
 30
0.0
 10
127.7124662366854
 20
91.77426545666586
 30
0.0
 10
127.5816300623051
 20
91.7587964127566
 30
0.0
 10
127.5161781246838
 20
91.75105788859229
 30
0.0
  0
LINE
  5
94
330
1F
100
AcDbEntity
  8
0
  6
Continuous
 62
     7
370
    25
100
AcDbLine
 10
110.5161231841
 20
84.7511098266
 30
0.0
 11
110.5161231841
 21
75.751110214
 31
0.0
  0
LINE
  5
95
330
1F
100
AcDbEntity
  8
0
  6
Continuous
 62
     7
370
    25
100
AcDbLine
 10
110.5161231841
 20
93.7511094392
 30
0.0
 11
110.5161231841
 21
84.7511098266
 31
0.0
  0
LINE
  5
96
330
1F
100
AcDbEntity
  8
0
  6
Continuous
 62
     7
370
    25
100
AcDbLine
 10
144.0161221559
 20
109.2511091858
 30
0.0
 11
126.0161229308
 21
109.2511091858
 31
0.0
  0
LINE
  5
97
330
1F
100
AcDbEntity
  8
0
  6
Continuous
 62
     7
370
    25
100
AcDbLine
 10
159.5161219026
 20
75.751110214
 30
0.0
 11
159.5161219026
 21
93.7511094392
 31
0.0
  0
LINE
  5
98
330
1F
100
AcDbEntity
  8
0
  6
Continuous
 62
     7
370
    25
100
AcDbLine
 10
126.5161220814
 20
109.7511101991
 30
0.0
 11
143.5161230053
 21
109.7511101991
 31
0.0
  0
LINE
  5
99
330
1F
100
AcDbEntity
  8
0
  6
Continuous
 62
     7
370
    25
100
AcDbLine
 10
110.0161221708
 20
84.7511098266
 30
0.0
 11
110.0161221708
 21
93.2511102885
 31
0.0
  0
LINE
  5
9A
330
1F
100
AcDbEntity
  8
0
  6
Continuous
 62
     7
370
    25
100
AcDbLine
 10
110.0161221708
 20
76.2511093647
 30
0.0
 11
110.0161221708
 21
84.7511098266
 31
0.0
  0
LINE
  5
9B
330
1F
100
AcDbEntity
  8
0
  6
Continuous
 62
     7
370
    25
100
AcDbLine
 10
160.0161229159
 20
93.2511102885
 30
0.0
 11
160.0161229159
 21
76.2511093647
 31
0.0
  0
SPLINE
  5
9C
330
1F
100
AcDbEntity
  8
0
  6
Continuous
 62
     7
370
    25
100
AcDbSpline
210
0.0
220
0.0
230
1.0
 70
     8
 71
     3
 72
    13
 73
     9
 74
     0
 42
0.000000001
 43
0.00000001
 40
0.0
 40
0.0
 40
0.0
 40
0.0
 40
0.1856794033212272
 40
0.3634611737568169
 40
0.533542336720674
 40
0.6961479207300177
 40
0.8515354443703902
 40
1.0
 40
1.0
 40
1.0
 40
1.0
 10
127.1716657258949
 20
87.17598095717165
 30
0.0
 10
127.1553374200517
 20
87.2433037543401
 30
0.0
 10
127.1233753117023
 20
87.37508586071138
 30
0.0
 10
127.0846564584703
 20
87.56717827741747
 30
0.0
 10
127.0541023793826
 20
87.74976535958919
 30
0.0
 10
127.0324856424735
 20
87.92283919836895
 30
0.0
 10
127.0187779479847
 20
88.08679919925633
 30
0.0
 10
127.0169941307281
 20
88.19194722258369
 30
0.0
 10
127.0161225433526
 20
88.24332338757864
 30
0.0
  0
SPLINE
  5
9D
330
1F
100
AcDbEntity
  8
0
  6
Continuous
 62
     7
370
    25
100
AcDbSpline
210
0.0
220
0.0
230
1.0
 70
     8
 71
     3
 72
    17
 73
    13
 74
     0
 42
0.000000001
 43
0.00000001
 40
0.0
 40
0.0
 40
0.0
 40
0.0
 40
0.1130667886658668
 40
0.2142471894553318
 40
0.3035410226158834
 40
0.3809482842621089
 40
0.4464692357998273
 40
0.5001045924259258
 40
0.6375226532033567
 40
0.75004211245356
 40
0.8820380142920121
 40
1.0
 40
1.0
 40
1.0
 40
1.0
 10
127.5161225433526
 20
84.75110982658963
 30
0.0
 10
127.5058929172486
 20
84.84482729785155
 30
0.0
 10
127.4865090763541
 20
85.02240999085669
 30
0.0
 10
127.4586148317963
 20
85.27356931188878
 30
0.0
 10
127.4336220240988
 20
85.49460803360981
 30
0.0
 10
127.4114926265647
 20
85.68555503652802
 30
0.0
 10
127.3922927998384
 20
85.84657148437222
 30
0.0
 10
127.3661110344854
 20
86.05589359144284
 30
0.0
 10
127.3331294928944
 20
86.30187654030793
 30
0.0
 10
127.2875352184802
 20
86.60752671128095
 30
0.0
 10
127.2376265618013
 20
86.89366375938143
 30
0.0
 10
127.1928140023216
 20
87.0854647886476
 30
0.0
 10
127.1716657258949
 20
87.17598095717165
 30
0.0
  0
SPLINE
  5
9E
330
1F
100
AcDbEntity
  8
0
  6
Continuous
 62
     7
370
    25
100
AcDbSpline
210
0.0
220
0.0
230
1.0
 70
     8
 71
     3
 72
    14
 73
    10
 74
     0
 42
0.000000001
 43
0.00000001
 40
0.0
 40
0.0
 40
0.0
 40
0.0
 40
0.0771019312675692
 40
0.1604220743863116
 40
0.2500134455674957
 40
0.3625277428666271
 40
0.4999872826714505
 40
0.6965319275930101
 40
1.0
 40
1.0
 40
1.0
 40
1.0
 10
127.1716657258949
 20
82.32623869600761
 30
0.0
 10
127.1857950027981
 20
82.3852321568809
 30
0.0
 10
127.215193071992
 20
82.50797685617617
 30
0.0
 10
127.253710968203
 20
82.70306833322915
 30
0.0
 10
127.2927734946921
 20
82.92852661008615
 30
0.0
 10
127.3330540010943
 20
83.2003651166886
 30
0.0
 10
127.3817126956428
 20
83.56203917321565
 30
0.0
 10
127.4431475351786
 20
84.08493313385561
 30
0.0
 10
127.4885604841878
 20
84.49950038003026
 30
0.0
 10
127.5161225433526
 20
84.75110982658963
 30
0.0
  0
SPLINE
  5
9F
330
1F
100
AcDbEntity
  8
0
  6
Continuous
 62
     7
370
    25
100
AcDbSpline
210
0.0
220
0.0
230
1.0
 70
     8
 71
     3
 72
    13
 73
     9
 74
     0
 42
0.000000001
 43
0.00000001
 40
0.0
 40
0.0
 40
0.0
 40
0.0
 40
0.1484645556296105
 40
0.303852079269983
 40
0.4664576632793263
 40
0.6365388262431836
 40
0.8143205966787732
 40
1.0
 40
1.0
 40
1.0
 40
1.0
 10
127.0161225433526
 20
81.25889626560063
 30
0.0
 10
127.0169941307281
 20
81.31027243059556
 30
0.0
 10
127.0187779479847
 20
81.41542045392293
 30
0.0
 10
127.0324856424735
 20
81.5793804548103
 30
0.0
 10
127.0541023793826
 20
81.75245429359009
 30
0.0
 10
127.0846564584703
 20
81.9350413757618
 30
0.0
 10
127.1233753117023
 20
82.12713379246787
 30
0.0
 10
127.1553374200517
 20
82.25891589883916
 30
0.0
 10
127.1716657258949
 20
82.32623869600761
 30
0.0
  0
LINE
  5
A0
330
1F
100
AcDbEntity
  8
0
  6
Continuous
 62
     7
370
    25
100
AcDbLine
 10
127.0161221634
 20
78.6844433762
 30
0.0
 11
127.0161221634
 21
81.2588962738
 31
0.0
  0
LINE
  5
A1
330
1F
100
AcDbEntity
  8
0
  6
Continuous
 62
     7
370
    25
100
AcDbLine
 10
143.0161229233
 20
78.6844433762
 30
0.0
 11
127.0161221634
 21
78.6844433762
 31
0.0
  0
LINE
  5
A2
330
1F
100
AcDbEntity
  8
0
  6
Continuous
 62
     7
370
    25
100
AcDbLine
 10
143.0161229233
 20
81.2588962738
 30
0.0
 11
143.0161229233
 21
78.6844433762
 31
0.0
  0
SPLINE
  5
A3
330
1F
100
AcDbEntity
  8
0
  6
Continuous
 62
     7
370
    25
100
AcDbSpline
210
0.0
220
0.0
230
1.0
 70
     8
 71
     3
 72
    13
 73
     9
 74
     0
 42
0.000000001
 43
0.00000001
 40
0.0
 40
0.0
 40
0.0
 40
0.0
 40
0.1856794033212448
 40
0.3634611737568449
 40
0.5335423367206995
 40
0.6961479207300406
 40
0.8515354443704051
 40
0.9999999999999999
 40
0.9999999999999999
 40
0.9999999999999999
 40
0.9999999999999999
 10
142.8605793608102
 20
82.32623869600761
 30
0.0
 10
142.8769076666534
 20
82.25891589883916
 30
0.0
 10
142.9088697750029
 20
82.12713379246786
 30
0.0
 10
142.9475886282348
 20
81.93504137576177
 30
0.0
 10
142.9781427073225
 20
81.75245429359005
 30
0.0
 10
142.9997594442316
 20
81.57938045481028
 30
0.0
 10
143.0134671387204
 20
81.41542045392292
 30
0.0
 10
143.015250955977
 20
81.31027243059555
 30
0.0
 10
143.0161225433526
 20
81.25889626560063
 30
0.0
  0
SPLINE
  5
A4
330
1F
100
AcDbEntity
  8
0
  6
Continuous
 62
     7
370
    25
100
AcDbSpline
210
0.0
220
0.0
230
1.0
 70
     8
 71
     3
 72
    16
 73
    12
 74
     0
 42
0.000000001
 43
0.00000001
 40
0.0
 40
0.0
 40
0.0
 40
0.0
 40
0.1113707256031287
 40
0.2115306859456111
 40
0.3004797843893181
 40
0.3782180970979205
 40
0.444745959733242
 40
0.5000641419851813
 40
0.7004020768438615
 40
0.8669907153098478
 40
1.0
 40
1.0
 40
1.0
 40
1.0
 10
142.5161225433526
 20
84.75110982658963
 30
0.0
 10
142.5262002223662
 20
84.65880612747341
 30
0.0
 10
142.5453411442105
 20
84.48349017542557
 30
0.0
 10
142.5729868622563
 20
84.23487752737759
 30
0.0
 10
142.5979356507645
 20
84.01469573830605
 30
0.0
 10
142.620216783894
 20
83.82292912438565
 30
0.0
 10
142.6397959063775
 20
83.65944372408536
 30
0.0
 10
142.6726836264357
 20
83.39659102989083
 30
0.0
 10
142.7205622835117
 20
83.05553071409788
 30
0.0
 10
142.7850756426614
 20
82.65880446089673
 30
0.0
 10
142.8373650098695
 20
82.42848926811563
 30
0.0
 10
142.8605793608102
 20
82.32623869600761
 30
0.0
  0
SPLINE
  5
A5
330
1F
100
AcDbEntity
  8
0
  6
Continuous
 62
     7
370
    25
100
AcDbSpline
210
0.0
220
0.0
230
1.0
 70
     8
 71
     3
 72
    14
 73
    10
 74
     0
 42
0.000000001
 43
0.00000001
 40
0.0
 40
0.0
 40
0.0
 40
0.0
 40
0.0771019312872794
 40
0.1604220744063169
 40
0.2500134455684252
 40
0.3625277428809286
 40
0.4999872826729911
 40
0.6965319256112464
 40
1.0
 40
1.0
 40
1.0
 40
1.0
 10
142.8605793608102
 20
87.17598095717165
 30
0.0
 10
142.8464500839031
 20
87.1169874962834
 30
0.0
 10
142.817052014705
 20
86.9942427969731
 30
0.0
 10
142.7785341184926
 20
86.79915131991952
 30
0.0
 10
142.7394715920077
 20
86.57369304306637
 30
0.0
 10
142.6991910856141
 20
86.3018545364783
 30
0.0
 10
142.6505323912563
 20
85.94018048156016
 30
0.0
 10
142.5890975518059
 20
85.41728652096012
 30
0.0
 10
142.5436846027349
 20
85.0027192747901
 30
0.0
 10
142.5161225433526
 20
84.75110982658963
 30
0.0
  0
SPLINE
  5
A6
330
1F
100
AcDbEntity
  8
0
  6
Continuous
 62
     7
370
    25
100
AcDbSpline
210
0.0
220
0.0
230
1.0
 70
     8
 71
     3
 72
    13
 73
     9
 74
     0
 42
0.000000001
 43
0.00000001
 40
0.0
 40
0.0
 40
0.0
 40
0.0
 40
0.1484645556295969
 40
0.303852079269964
 40
0.4664576632793
 40
0.6365388262431574
 40
0.814320596678755
 40
1.0
 40
1.0
 40
1.0
 40
1.0
 10
143.0161225433526
 20
88.24332338757864
 30
0.0
 10
143.015250955977
 20
88.1919472225837
 30
0.0
 10
143.0134671387204
 20
88.08679919925635
 30
0.0
 10
142.9997594442316
 20
87.92283919836898
 30
0.0
 10
142.9781427073225
 20
87.7497653595892
 30
0.0
 10
142.9475886282348
 20
87.56717827741748
 30
0.0
 10
142.9088697750029
 20
87.3750858607114
 30
0.0
 10
142.8769076666534
 20
87.2433037543401
 30
0.0
 10
142.8605793608102
 20
87.17598095717165
 30
0.0
  0
LINE
  5
A7
330
1F
100
AcDbEntity
  8
0
  6
Continuous
 62
     7
370
    25
100
AcDbLine
 10
143.0161229233
 20
89.8844429769
 30
0.0
 11
143.0161229233
 21
88.2433233794
 31
0.0
  0
SPLINE
  5
A8
330
1F
100
AcDbEntity
  8
0
  6
Continuous
 62
     7
370
    25
100
AcDbSpline
210
0.0
220
0.0
230
1.0
 70
     8
 71
     3
 72
    13
 73
     9
 74
     0
 42
0.000000001
 43
0.00000001
 40
0.0
 40
0.0
 40
0.0
 40
0.0
 40
0.1257153360577753
 40
0.250986709269415
 40
0.3762164861937409
 40
0.5018074329537138
 40
0.7521854029755236
 40
1.0
 40
1.0
 40
1.0
 40
1.0
 10
142.7977669167971
 20
90.4665858930837
 30
0.0
 10
142.8149611939684
 20
90.44550005323302
 30
0.0
 10
142.8492890268393
 20
90.40340283803026
 30
0.0
 10
142.8928585750745
 20
90.33649012219838
 30
0.0
 10
142.9304663787191
 20
90.26697487054693
 30
0.0
 10
142.9714896563002
 20
90.17064143322115
 30
0.0
 10
143.0080182110549
 20
90.0448076176799
 30
0.0
 10
143.0134303817498
 20
89.93771430179676
 30
0.0
 10
143.0161225433526
 20
89.88444315992295
 30
0.0
  0
SPLINE
  5
A9
330
1F
100
AcDbEntity
  8
0
  6
Continuous
 62
     7
370
    25
100
AcDbSpline
210
0.0
220
0.0
230
1.0
 70
     8
 71
     3
 72
    16
 73
    12
 74
     0
 42
0.000000001
 43
0.00000001
 40
0.0
 40
0.0
 40
0.0
 40
0.0
 40
0.065953468215878
 40
0.1324870475734065
 40
0.2006767984510681
 40
0.2715233530653123
 40
0.3459202143274948
 40
0.4246400792148715
 40
0.5083359903947017
 40
0.7405135829365557
 40
1.0
 40
1.0
 40
1.0
 40
1.0
 10
142.0161225433526
 20
90.81777649325629
 30
0.0
 10
142.0396345957796
 20
90.81732446789569
 30
0.0
 10
142.086865507098
 20
90.81641644126607
 30
0.0
 10
142.1571835933921
 20
90.80918351860373
 30
0.0
 10
142.2268427080648
 20
90.79761555716655
 30
0.0
 10
142.2958190385466
 20
90.78122817146966
 30
0.0
 10
142.3641104126894
 20
90.7600551343379
 30
0.0
 10
142.4317374969297
 20
90.73393793735382
 30
0.0
 10
142.5367389665794
 20
90.68501488902257
 30
0.0
 10
142.6705226141167
 20
90.60083245484786
 30
0.0
 10
142.7538101179696
 20
90.512961636315
 30
0.0
 10
142.7977669167971
 20
90.4665858930837
 30
0.0
  0
SPLINE
  5
AA
330
1F
100
AcDbEntity
  8
0
  6
Continuous
 62
     7
370
    25
100
AcDbSpline
210
0.0
220
0.0
230
1.0
 70
     8
 71
     3
 72
    13
 73
     9
 74
     0
 42
0.000000001
 43
0.00000001
 40
0.0
 40
0.0
 40
0.0
 40
0.0
 40
0.1759205118839867
 40
0.3391896075500394
 40
0.4921931780779421
 40
0.6738397335242767
 40
0.8395017852842264
 40
1.0
 40
1.0
 40
1.0
 40
1.0
 10
141.6625691527593
 20
90.95445999536923
 30
0.0
 10
141.6756676973059
 20
90.94293481797206
 30
0.0
 10
141.7009227976729
 20
90.92071330237714
 30
0.0
 10
141.7467658642532
 20
90.8903096830836
 30
0.0
 10
141.8006568456826
 20
90.86210597063476
 30
0.0
 10
141.864004766946
 20
90.8381800423889
 30
0.0
 10
141.9385589628436
 20
90.82105379539618
 30
0.0
 10
141.990542353795
 20
90.81885733570097
 30
0.0
 10
142.0161225433526
 20
90.81777649325629
 30
0.0
  0
SPLINE
  5
AB
330
1F
100
AcDbEntity
  8
0
  6
Continuous
 62
     7
370
    25
100
AcDbSpline
210
0.0
220
0.0
230
1.0
 70
     8
 71
     3
 72
    14
 73
    10
 74
     0
 42
0.000000001
 43
0.00000001
 40
0.0
 40
0.0
 40
0.0
 40
0.0
 40
0.0960186407856747
 40
0.1924368822044046
 40
0.2917857869559113
 40
0.3963838799166358
 40
0.5082236945494524
 40
0.7392053714339348
 40
1.0
 40
1.0
 40
1.0
 40
1.0
 10
128.0161225433526
 20
90.8177764932563
 30
0.0
 10
128.0314030502945
 20
90.81817458115094
 30
0.0
 10
128.0620276570411
 20
90.81897241366207
 30
0.0
 10
128.107152578131
 20
90.82497893618846
 30
0.0
 10
128.1510756554909
 20
90.83445659511881
 30
0.0
 10
128.1937719226624
 20
90.84766542285894
 30
0.0
 10
128.2487844018144
 20
90.8698301785006
 30
0.0
 10
128.3124393192725
 20
90.90520128429483
 30
0.0
 10
128.3498412565893
 20
90.93738996691394
 30
0.0
 10
128.3696759339458
 20
90.95445999536923
 30
0.0
  0
SPLINE
  5
AC
330
1F
100
AcDbEntity
  8
0
  6
Continuous
 62
     7
370
    25
100
AcDbSpline
210
0.0
220
0.0
230
1.0
 70
     8
 71
     3
 72
    15
 73
    11
 74
     0
 42
0.000000001
 43
0.00000001
 40
0.0
 40
0.0
 40
0.0
 40
0.0
 40
0.1336726496021612
 40
0.2596519444552429
 40
0.3787836139818168
 40
0.4920668899310182
 40
0.6351830136473593
 40
0.7645526196418757
 40
0.8844004131119898
 40
1.0
 40
1.0
 40
1.0
 40
1.0
 10
127.2344781699081
 20
90.4665858930837
 30
0.0
 10
127.2563736603447
 20
90.49083093143516
 30
0.0
 10
127.2989044748651
 20
90.5379256166238
 30
0.0
 10
127.3721003330079
 20
90.60093046063234
 30
0.0
 10
127.4498764125775
 20
90.65602270283085
 30
0.0
 10
127.5415148557019
 20
90.70792369950246
 30
0.0
 10
127.6468432368838
 20
90.75424824415751
 30
0.0
 10
127.767392119191
 20
90.79072608093945
 30
0.0
 10
127.8908115778604
 20
90.81354112226892
 30
0.0
 10
127.9748577064646
 20
90.81638178775492
 30
0.0
 10
128.0161225433526
 20
90.8177764932563
 30
0.0
  0
SPLINE
  5
AD
330
1F
100
AcDbEntity
  8
0
  6
Continuous
 62
     7
370
    25
100
AcDbSpline
210
0.0
220
0.0
230
1.0
 70
     8
 71
     3
 72
    13
 73
     9
 74
     0
 42
0.000000001
 43
0.00000001
 40
0.0
 40
0.0
 40
0.0
 40
0.0
 40
0.123835855545221
 40
0.2479006248871513
 40
0.3726202178325717
 40
0.4984138930967346
 40
0.7490996844582696
 40
1.0
 40
1.0
 40
1.0
 40
1.0
 10
127.0161225433526
 20
89.88444315992295
 30
0.0
 10
127.0167940746689
 20
89.91119482471217
 30
0.0
 10
127.0181383786448
 20
89.96474760543808
 30
0.0
 10
127.0290403622952
 20
90.04306430798734
 30
0.0
 10
127.0464020459076
 20
90.11986393901977
 30
0.0
 10
127.0790896873407
 20
90.21939057469443
 30
0.0
 10
127.1349744882652
 20
90.3385536985489
 30
0.0
 10
127.2013008202881
 20
90.42389632812929
 30
0.0
 10
127.2344781699081
 20
90.4665858930837
 30
0.0
  0
LINE
  5
AE
330
1F
100
AcDbEntity
  8
0
  6
Continuous
 62
     7
370
    25
100
AcDbLine
 10
127.0161221634
 20
88.2433233794
 30
0.0
 11
127.0161221634
 21
89.8844429769
 31
0.0
  0
LINE
  5
AF
330
1F
100
AcDbEntity
  8
0
  6
Continuous
 62
     7
370
    25
100
AcDbLine
 10
136.5158146379
 20
81.1061996512
 30
0.0
 11
137.205032575
 21
79.7923204966
 31
0.0
  0
ARC
  5
B0
330
1F
100
AcDbEntity
  8
0
  6
Continuous
 62
     7
370
    25
100
AcDbCircle
 10
137.2718843229
 20
79.8273886101
 30
0.0
 40
0.0754912582857967
100
AcDbArc
 50
207.6800279694
 51
311.070386533
  0
ARC
  5
B1
330
1F
100
AcDbEntity
  8
0
  6
Continuous
 62
     7
370
    25
100
AcDbCircle
 10
139.0161225434
 20
77.8258434105
 30
0.0
 40
2.579419315655421
100
AcDbArc
 50
48.929613467
 51
131.070386533
  0
ARC
  5
B2
330
1F
100
AcDbEntity
  8
0
  6
Continuous
 62
     7
370
    25
100
AcDbCircle
 10
140.7603607638
 20
79.8273886101
 30
0.0
 40
0.0754912582857603
100
AcDbArc
 50
228.929613467
 51
332.3199720306
  0
LINE
  5
B3
330
1F
100
AcDbEntity
  8
0
  6
Continuous
 62
     7
370
    25
100
AcDbLine
 10
140.8272126588
 20
79.7923204966
 30
0.0
 11
141.5164304796
 21
81.1061996512
 31
0.0
  0
LINE
  5
B4
330
1F
100
AcDbEntity
  8
0
  6
Continuous
 62
     7
370
    25
100
AcDbLine
 10
141.5164304796
 20
81.1061996512
 30
0.0
 11
141.4766155082
 21
81.0834469751
 31
0.0
  0
ARC
  5
B5
330
1F
100
AcDbEntity
  8
0
  6
Continuous
 62
     7
370
    25
100
AcDbCircle
 10
141.1793167692
 20
81.6036904912
 30
0.0
 40
0.5991992501208521
100
AcDbArc
 50
199.6800689411
 51
299.7462530425
  0
LINE
  5
B6
330
1F
100
AcDbEntity
  8
0
  6
Continuous
 62
     7
370
    25
100
AcDbLine
 10
140.6151179123
 20
81.4018994581
 30
0.0
 11
139.528611851
 21
84.4397232006
 31
0.0
  0
SPLINE
  5
B7
330
1F
100
AcDbEntity
  8
0
  6
Continuous
 62
     7
370
    25
100
AcDbSpline
210
0.0
220
0.0
230
1.0
 70
     8
 71
     3
 72
    16
 73
    12
 74
     0
 42
0.000000001
 43
0.00000001
 40
0.0
 40
0.0
 40
0.0
 40
0.0
 40
0.1113160552874951
 40
0.2221777142163596
 40
0.333357231917414
 40
0.4444842326561919
 40
0.5552113451997907
 40
0.6662702792617305
 40
0.7776772343596836
 40
0.888683744007764
 40
1.0
 40
1.0
 40
1.0
 40
1.0
 10
139.5286118129117
 20
84.43972320932254
 30
0.0
 10
139.5047478697737
 20
84.48024541137526
 30
0.0
 10
139.4571173970186
 20
84.56112440231537
 30
0.0
 10
139.3493849649527
 20
84.65417781212864
 30
0.0
 10
139.2242713538195
 20
84.7192389230081
 30
0.0
 10
139.0868705058892
 20
84.75239581875576
 30
0.0
 10
138.9457770534732
 20
84.75245909166476
 30
0.0
 10
138.8082789492169
 20
84.71940289301357
 30
0.0
 10
138.6830355558248
 20
84.65430527648225
 30
0.0
 10
138.575138070047
 20
84.5611937695528
 30
0.0
 10
138.5274903339344
 20
84.48025098665482
 30
0.0
 10
138.5036332737935
 20
84.43972320932241
 30
0.0
  0
LINE
  5
B8
330
1F
100
AcDbEntity
  8
0
  6
Continuous
 62
     7
370
    25
100
AcDbLine
 10
138.5036333828
 20
84.4397232006
 30
0.0
 11
137.4174050885
 21
81.4026771125
 31
0.0
  0
ARC
  5
B9
330
1F
100
AcDbEntity
  8
0
  6
Continuous
 62
     7
370
    25
100
AcDbCircle
 10
136.8532064086
 20
81.6044680215
 30
0.0
 40
0.5991992501208415
100
AcDbArc
 50
241.1755227374
 51
340.3199310589
  0
LINE
  5
BA
330
1F
100
AcDbEntity
  8
0
  6
Continuous
 62
     7
370
    25
100
AcDbLine
 10
136.5643157057
 20
81.0795091104
 30
0.0
 11
136.5158146379
 21
81.1061996512
 31
0.0
  0
SPLINE
  5
BB
330
1F
100
AcDbEntity
  8
0
  6
Continuous
 62
     7
370
    25
100
AcDbSpline
210
0.0
220
0.0
230
1.0
 70
     8
 71
     3
 72
    16
 73
    12
 74
     0
 42
0.000000001
 43
0.00000001
 40
0.0
 40
0.0
 40
0.0
 40
0.0
 40
0.0739298478380645
 40
0.1513677900875573
 40
0.2324450724520033
 40
0.3172760505712285
 40
0.4059605604870915
 40
0.4985859785248051
 40
0.6141264807254729
 40
0.7496239523722917
 40
1.0
 40
1.0
 40
1.0
 40
1.0
 10
128.0161225433526
 20
82.15303361523631
 30
0.0
 10
128.0152072380599
 20
82.21844524973123
 30
0.0
 10
128.0133331947138
 20
82.35237240972215
 30
0.0
 10
127.9989584431535
 20
82.55761438525741
 30
0.0
 10
127.9762650976603
 20
82.77174195282777
 30
0.0
 10
127.9443025384349
 20
82.99475704020553
 30
0.0
 10
127.9033597572651
 20
83.22666735561211
 30
0.0
 10
127.8498920665249
 20
83.48383505635557
 30
0.0
 10
127.7792894060393
 20
83.77960917946336
 30
0.0
 10
127.6667827035718
 20
84.20873653489562
 30
0.0
 10
127.5754101207639
 20
84.53767584065491
 30
0.0
 10
127.5161225433526
 20
84.75110982658963
 30
0.0
  0
SPLINE
  5
BC
330
1F
100
AcDbEntity
  8
0
  6
Continuous
 62
     7
370
    25
100
AcDbSpline
210
0.0
220
0.0
230
1.0
 70
     8
 71
     3
 72
    14
 73
    10
 74
     0
 42
0.000000001
 43
0.00000001
 40
0.0
 40
0.0
 40
0.0
 40
0.0
 40
0.2503818975769405
 40
0.3853960642454612
 40
0.5014219062737861
 40
0.6386745024418747
 40
0.7672919706928744
 40
0.8876008223903926
 40
1.0
 40
1.0
 40
1.0
 40
1.0
 10
127.5161225433526
 20
84.75110982658963
 30
0.0
 10
127.5756556270824
 20
84.96447953428572
 30
0.0
 10
127.667290910559
 20
85.29290521669753
 30
0.0
 10
127.7798169647366
 20
85.72203810927155
 30
0.0
 10
127.8594751744199
 20
86.0562360063026
 30
0.0
 10
127.9261456402172
 20
86.38759887613921
 30
0.0
 10
127.9771679440589
 20
86.72551112321027
 30
0.0
 10
128.0096832360792
 20
87.04382718367778
 30
0.0
 10
128.0140253027636
 20
87.24973264083235
 30
0.0
 10
128.0161225433526
 20
87.34918603794296
 30
0.0
  0
LINE
  5
BD
330
1F
100
AcDbEntity
  8
0
  6
Continuous
 62
     7
370
    25
100
AcDbLine
 10
128.0161223273
 20
87.3491859541
 30
0.0
 11
128.0161223273
 21
90.2511558973
 31
0.0
  0
SPLINE
  5
BE
330
1F
100
AcDbEntity
  8
0
  6
Continuous
 62
     7
370
    25
100
AcDbSpline
210
0.0
220
0.0
230
1.0
 70
     8
 71
     3
 72
    19
 73
    15
 74
     0
 42
0.000000001
 43
0.00000001
 40
0.0
 40
0.0
 40
0.0
 40
0.0
 40
0.0504323727095946
 40
0.1003565609002702
 40
0.1500822900422585
 40
0.199922985600534
 40
0.250189922563005
 40
0.3750855037481943
 40
0.5000544104077007
 40
0.6247887185113573
 40
0.7499189120354086
 40
0.8333029051587477
 40
0.9161791203953933
 40
1.0
 40
1.0
 40
1.0
 40
1.0
 10
129.5160764753074
 20
91.75110982658963
 30
0.0
 10
129.5151876920151
 20
91.71152885788516
 30
0.0
 10
129.5134190813031
 20
91.63276576023843
 30
0.0
 10
129.4991797275128
 20
91.51568531798425
 30
0.0
 10
129.4764182906683
 20
91.40052190912814
 30
0.0
 10
129.4443191232709
 20
91.28727519346879
 30
0.0
 10
129.3830147347657
 20
91.12159350774874
 30
0.0
 10
129.2717795427903
 20
90.9120937038356
 30
0.0
 10
129.0835672518226
 20
90.68392459938606
 30
0.0
 10
128.8552824483675
 20
90.49557492368996
 30
0.0
 10
128.6227496920754
 20
90.37194807006219
 30
0.0
 10
128.4058925059516
 20
90.29814934060084
 30
0.0
 10
128.2128312080764
 20
90.2584182923855
 30
0.0
 10
128.0819393508669
 20
90.253585822343
 30
0.0
 10
128.0161225433526
 20
90.25115589463483
 30
0.0
  0
LINE
  5
BF
330
1F
100
AcDbEntity
  8
0
  6
Continuous
 62
     7
370
    25
100
AcDbLine
 10
129.5160764727
 20
91.7511100427
 30
0.0
 11
132.4180464159
 21
91.7511100427
 31
0.0
  0
SPLINE
  5
C0
330
1F
100
AcDbEntity
  8
0
  6
Continuous
 62
     7
370
    25
100
AcDbSpline
210
0.0
220
0.0
230
1.0
 70
     8
 71
     3
 72
    10
 73
     6
 74
     0
 42
0.000000001
 43
0.00000001
 40
-0.796694357225795
 40
-0.796694357225795
 40
-0.796694357225795
 40
-0.796694357225795
 40
-0.533073702210409
 40
-0.533073702210409
 40
-0.532116113157305
 40
-0.532116113157305
 40
-0.532116113157305
 40
-0.532116113157305
 10
132.4180463319992
 20
91.75110982659687
 30
0.0
 10
133.2967818487157
 20
91.75110982659406
 30
0.0
 10
134.1590697846506
 20
92.0175772296541
 30
0.0
 10
135.0099735850106
 20
92.24939375861729
 30
0.0
 10
135.0130466903506
 20
92.25025673845775
 30
0.0
 10
135.0161225433526
 20
92.25110982658963
 30
0.0
  0
SPLINE
  5
C1
330
1F
100
AcDbEntity
  8
0
  6
Continuous
 62
     7
370
    25
100
AcDbSpline
210
0.0
220
0.0
230
1.0
 70
     8
 71
     3
 72
    10
 73
     6
 74
     0
 42
0.000000001
 43
0.00000001
 40
-0.263620655015386
 40
-0.263620655015386
 40
-0.263620655015386
 40
-0.263620655015386
 40
-0.2626630659468851
 40
-0.2626630659468851
 40
0.0009575890685009
 40
0.0009575890685009
 40
0.0009575890685009
 40
0.0009575890685009
 10
135.0161225433526
 20
92.25110982658963
 30
0.0
 10
135.019198396404
 20
92.25025673844404
 30
0.0
 10
135.0222723947095
 20
92.24939729317197
 30
0.0
 10
135.8728247602182
 20
92.01619654420244
 30
0.0
 10
136.7354632379879
 20
91.75110982658963
 30
0.0
 10
137.6141987547059
 20
91.75110982658963
 30
0.0
  0
LINE
  5
C2
330
1F
100
AcDbEntity
  8
0
  6
Continuous
 62
     7
370
    25
100
AcDbLine
 10
137.6141986708
 20
91.7511100427
 30
0.0
 11
140.516168614
 21
91.7511100427
 31
0.0
  0
SPLINE
  5
C3
330
1F
100
AcDbEntity
  8
0
  6
Continuous
 62
     7
370
    25
100
AcDbSpline
210
0.0
220
0.0
230
1.0
 70
     8
 71
     3
 72
    19
 73
    15
 74
     0
 42
0.000000001
 43
0.00000001
 40
0.0
 40
0.0
 40
0.0
 40
0.0
 40
0.0504323727096602
 40
0.1003565609003688
 40
0.1500822900423565
 40
0.199922985600599
 40
0.2501899225630071
 40
0.3750855037480327
 40
0.5000544104076973
 40
0.624788718511343
 40
0.7499189120354135
 40
0.8333029051590075
 40
0.916179120395655
 40
1.0
 40
1.0
 40
1.0
 40
1.0
 10
142.0161225433526
 20
90.2511558946348
 30
0.0
 10
141.9765415746481
 20
90.25204467792712
 30
0.0
 10
141.8977784770013
 20
90.25381328863905
 30
0.0
 10
141.780698034747
 20
90.2680526424294
 30
0.0
 10
141.6655346258909
 20
90.2908140792739
 30
0.0
 10
141.5522879102316
 20
90.32291324667133
 30
0.0
 10
141.3866062245118
 20
90.38421763517647
 30
0.0
 10
141.1771064205988
 20
90.49545282715208
 30
0.0
 10
140.9489373161492
 20
90.68366511811946
 30
0.0
 10
140.7605876404527
 20
90.91194992157443
 30
0.0
 10
140.6369607868251
 20
91.14448267786686
 30
0.0
 10
140.5631620573639
 20
91.36133986399089
 30
0.0
 10
140.5234310091484
 20
91.55440116186608
 30
0.0
 10
140.5185985391059
 20
91.68529301907529
 30
0.0
 10
140.5161686113978
 20
91.75110982658946
 30
0.0
  0
LINE
  5
C4
330
1F
100
AcDbEntity
  8
0
  6
Continuous
 62
     7
370
    25
100
AcDbLine
 10
142.0161227594
 20
90.2511558973
 30
0.0
 11
142.0161227594
 21
87.3491859541
 31
0.0
  0
SPLINE
  5
C5
330
1F
100
AcDbEntity
  8
0
  6
Continuous
 62
     7
370
    25
100
AcDbSpline
210
0.0
220
0.0
230
1.0
 70
     8
 71
     3
 72
    16
 73
    12
 74
     0
 42
0.000000001
 43
0.00000001
 40
0.0
 40
0.0
 40
0.0
 40
0.0
 40
0.0739298478317502
 40
0.1513677900738161
 40
0.2324450724296886
 40
0.3172760505391666
 40
0.4059605604440887
 40
0.4985859784696513
 40
0.6141264806631028
 40
0.7496239522892343
 40
1.0
 40
1.0
 40
1.0
 40
1.0
 10
142.0161225433526
 20
87.34918603794296
 30
0.0
 10
142.0170378486451
 20
87.28377440345359
 30
0.0
 10
142.0189118919907
 20
87.14984724347484
 30
0.0
 10
142.0332866435482
 20
86.94460526795919
 30
0.0
 10
142.0559799890369
 20
86.73047770041127
 30
0.0
 10
142.0879425482561
 20
86.50746261305878
 30
0.0
 10
142.1288853294179
 20
86.27555229768026
 30
0.0
 10
142.1823530201493
 20
86.01838459696238
 30
0.0
 10
142.2529556806225
 20
85.72261047388805
 30
0.0
 10
142.3654623830979
 20
85.29348311840737
 30
0.0
 10
142.4568349659212
 20
84.96454381259505
 30
0.0
 10
142.5161225433526
 20
84.75110982658963
 30
0.0
  0
SPLINE
  5
C6
330
1F
100
AcDbEntity
  8
0
  6
Continuous
 62
     7
370
    25
100
AcDbSpline
210
0.0
220
0.0
230
1.0
 70
     8
 71
     3
 72
    14
 73
    10
 74
     0
 42
0.000000001
 43
0.00000001
 40
0.0
 40
0.0
 40
0.0
 40
0.0
 40
0.250381897495202
 40
0.3853960641816825
 40
0.5014219062198584
 40
0.6386745024049088
 40
0.7672919706705007
 40
0.8876008223803089
 40
0.9999999999999999
 40
0.9999999999999999
 40
0.9999999999999999
 40
0.9999999999999999
 10
142.5161225433526
 20
84.75110982658963
 30
0.0
 10
142.4565894596426
 20
84.53774011896311
 30
0.0
 10
142.3649541761817
 20
84.2093144366055
 30
0.0
 10
142.2524281220113
 20
83.78018154407897
 30
0.0
 10
142.1727699123143
 20
83.44598364701048
 30
0.0
 10
142.1060994465053
 20
83.11462077713881
 30
0.0
 10
142.0550771426539
 20
82.77670853002999
 30
0.0
 10
142.0225618506272
 20
82.45839246953021
 30
0.0
 10
142.018219783942
 20
82.25248701235583
 30
0.0
 10
142.0161225433526
 20
82.15303361523631
 30
0.0
  0
LINE
  5
C7
330
1F
100
AcDbEntity
  8
0
  6
Continuous
 62
     7
370
    25
100
AcDbLine
 10
142.0161227594
 20
82.1530336991
 30
0.0
 11
142.0161227594
 21
79.2511098564
 31
0.0
  0
LINE
  5
C8
330
1F
100
AcDbEntity
  8
0
  6
Continuous
 62
     7
370
    25
100
AcDbLine
 10
128.0161223273
 20
79.2511098564
 30
0.0
 11
142.0161227594
 21
79.2511098564
 31
0.0
  0
LINE
  5
C9
330
1F
100
AcDbEntity
  8
0
  6
Continuous
 62
     7
370
    25
100
AcDbLine
 10
128.0161223273
 20
79.2511098564
 30
0.0
 11
128.0161223273
 21
82.1530336991
 31
0.0
  0
LINE
  5
CA
330
1F
100
AcDbEntity
  8
0
  6
Continuous
 62
     7
370
    25
100
AcDbLine
 10
131.274465182
 20
92.251109659
 30
0.0
 11
129.5161225732
 21
92.251109659
 31
0.0
  0
SPLINE
  5
CB
330
1F
100
AcDbEntity
  8
0
  6
Continuous
 62
     7
370
    25
100
AcDbSpline
210
0.0
220
0.0
230
1.0
 70
     8
 71
     3
 72
     8
 73
     4
 74
     0
 42
0.000000001
 43
0.00000001
 40
0.0000000000000001
 40
0.0000000000000001
 40
0.0000000000000001
 40
0.0000000000000001
 40
0.127234597098751
 40
0.127234597098751
 40
0.127234597098751
 40
0.127234597098751
 10
131.2744651565787
 20
92.25110982658963
 30
0.0
 10
131.6420317704195
 20
92.25110982658963
 30
0.0
 10
132.0294603372983
 20
92.21884633757668
 30
0.0
 10
132.4180463320117
 20
92.17333823531881
 30
0.0
  0
SPLINE
  5
CC
330
1F
100
AcDbEntity
  8
0
  6
Continuous
 62
     7
370
    25
100
AcDbSpline
210
0.0
220
0.0
230
1.0
 70
    24
 71
     3
 72
    10
 73
     6
 74
     0
 42
0.000000001
 43
0.00000001
 40
0.0
 40
0.0
 40
0.0
 40
0.0
 40
0.5
 40
0.5
 40
1.0
 40
1.0
 40
1.0
 40
1.0
 10
132.4180463319992
 20
91.75110982658963
 30
0.0
 10
132.4180463319992
 20
91.83490568013592
 30
0.0
 10
132.4180463319992
 20
91.91861336086137
 30
0.0
 10
132.4180463319992
 20
92.06546537973824
 30
0.0
 10
132.4180463319992
 20
92.12845519524683
 30
0.0
 10
132.4180463319992
 20
92.17333823531848
 30
0.0
  0
SPLINE
  5
CD
330
1F
100
AcDbEntity
  8
0
  6
Continuous
 62
     7
370
    25
100
AcDbSpline
210
0.0
220
0.0
230
1.0
 70
     8
 71
     3
 72
    14
 73
    10
 74
     0
 42
0.000000001
 43
0.00000001
 40
0.0
 40
0.0
 40
0.0
 40
0.0
 40
0.1488603597576148
 40
0.3150273328471772
 40
0.4987646698883385
 40
0.5951853465608922
 40
0.7494349165377944
 40
0.8793203508289453
 40
1.0
 40
1.0
 40
1.0
 40
1.0
 10
129.1511057585536
 20
92.09281547011196
 30
0.0
 10
129.1675841414679
 20
92.07760471270025
 30
0.0
 10
129.2024566960391
 20
92.04541478419411
 30
0.0
 10
129.2616070717692
 20
91.99079075308981
 30
0.0
 10
129.3161835952199
 20
91.94008509064057
 30
0.0
 10
129.3707397354188
 20
91.89006845105762
 30
0.0
 10
129.4189054998101
 20
91.84539475554647
 30
0.0
 10
129.4699947073953
 20
91.79681749306661
 30
0.0
 10
129.5010967837563
 20
91.76596790987001
 30
0.0
 10
129.5160764753074
 20
91.75110982658963
 30
0.0
  0
ARC
  5
CE
330
1F
100
AcDbEntity
  8
0
  6
Continuous
 62
     7
370
    25
100
AcDbCircle
 10
129.5161225434
 20
91.7511098266
 30
0.0
 40
0.5
100
AcDbArc
 50
90.0
 51
136.8892083855
  0
LINE
  5
CF
330
1F
100
AcDbEntity
  8
0
  6
Continuous
 62
     7
370
    25
100
AcDbLine
 10
142.5161223757
 20
90.2511097968
 30
0.0
 11
142.5161223757
 21
88.492767188
 31
0.0
  0
SPLINE
  5
D0
330
1F
100
AcDbEntity
  8
0
  6
Continuous
 62
     7
370
    25
100
AcDbSpline
210
0.0
220
0.0
230
1.0
 70
     8
 71
     3
 72
    11
 73
     7
 74
     0
 42
0.000000001
 43
0.00000001
 40
0.0
 40
0.0
 40
0.0
 40
0.0
 40
0.2815942436633383
 40
0.5420860673673156
 40
0.7815308548566234
 40
1.0
 40
1.0
 40
1.0
 40
1.0
 10
142.4383509520814
 20
87.34918603793406
 30
0.0
 10
142.450394809076
 20
87.45715037161696
 30
0.0
 10
142.4735799672282
 20
87.66498828868768
 30
0.0
 10
142.4977076512593
 20
87.96347897435635
 30
0.0
 10
142.5131160697024
 20
88.23698920454446
 30
0.0
 10
142.5151514638714
 20
88.41015189555148
 30
0.0
 10
142.5161225433526
 20
88.49276721336356
 30
0.0
  0
SPLINE
  5
D1
330
1F
100
AcDbEntity
  8
0
  6
Continuous
 62
     7
370
    25
100
AcDbSpline
210
0.0
220
0.0
230
1.0
 70
    24
 71
     3
 72
    10
 73
     6
 74
     0
 42
0.000000001
 43
0.00000001
 40
0.0
 40
0.0
 40
0.0
 40
0.0
 40
0.5
 40
0.5
 40
1.0
 40
1.0
 40
1.0
 40
1.0
 10
142.0161225433526
 20
87.34918603794296
 30
0.0
 10
142.0999183968989
 20
87.34918603794296
 30
0.0
 10
142.1836260776243
 20
87.34918603794296
 30
0.0
 10
142.3304780965012
 20
87.34918603794296
 30
0.0
 10
142.3934679120098
 20
87.34918603794296
 30
0.0
 10
142.4383509520814
 20
87.34918603794296
 30
0.0
  0
SPLINE
  5
D2
330
1F
100
AcDbEntity
  8
0
  6
Continuous
 62
     7
370
    25
100
AcDbSpline
210
0.0
220
0.0
230
1.0
 70
     8
 71
     3
 72
    14
 73
    10
 74
     0
 42
0.000000001
 43
0.00000001
 40
0.0
 40
0.0
 40
0.0
 40
0.0
 40
0.1488603598374869
 40
0.3150273329269794
 40
0.4987646698885773
 40
0.5951853465829806
 40
0.7494349165379153
 40
0.8793203509512854
 40
1.0
 40
1.0
 40
1.0
 40
1.0
 10
142.3578281868749
 20
90.61612661138861
 30
0.0
 10
142.3426174294545
 20
90.59964822846577
 30
0.0
 10
142.3104275009393
 20
90.56477567388643
 30
0.0
 10
142.2558034698315
 20
90.50562529815737
 30
0.0
 10
142.2050978073917
 20
90.45104877470983
 30
0.0
 10
142.1550811678193
 20
90.39649263451936
 30
0.0
 10
142.1104074722922
 20
90.3483268701141
 30
0.0
 10
142.0618302098146
 20
90.29723766253157
 30
0.0
 10
142.0309806266179
 20
90.26613558617068
 30
0.0
 10
142.0161225433526
 20
90.2511558946348
 30
0.0
  0
ARC
  5
D3
330
1F
100
AcDbEntity
  8
0
  6
Continuous
 62
     7
370
    25
100
AcDbCircle
 10
142.0161225434
 20
90.2511098266
 30
0.0
 40
0.5000000000000284
100
AcDbArc
 50
0.0
 51
46.8892083855
  0
SPLINE
  5
D4
330
1F
100
AcDbEntity
  8
0
  6
Continuous
 62
     7
370
    25
100
AcDbSpline
210
0.0
220
0.0
230
1.0
 70
     8
 71
     3
 72
    11
 73
     7
 74
     0
 42
0.000000001
 43
0.00000001
 40
0.0
 40
0.0
 40
0.0
 40
0.0
 40
0.2815942436632133
 40
0.5420860673671491
 40
0.7815308548564992
 40
1.0
 40
1.0
 40
1.0
 40
1.0
 10
127.5938941346237
 20
82.1530336152452
 30
0.0
 10
127.5818502776292
 20
82.04506928156235
 30
0.0
 10
127.558665119477
 20
81.83723136449169
 30
0.0
 10
127.5345374354459
 20
81.53874067882306
 30
0.0
 10
127.5191290170027
 20
81.26523044863492
 30
0.0
 10
127.5170936228338
 20
81.09206775762783
 30
0.0
 10
127.5161225433526
 20
81.00945243981569
 30
0.0
  0
SPLINE
  5
D5
330
1F
100
AcDbEntity
  8
0
  6
Continuous
 62
     7
370
    25
100
AcDbSpline
210
0.0
220
0.0
230
1.0
 70
    24
 71
     3
 72
    10
 73
     6
 74
     0
 42
0.000000001
 43
0.00000001
 40
0.0
 40
0.0
 40
0.0
 40
0.0
 40
0.5
 40
0.5
 40
1.0
 40
1.0
 40
1.0
 40
1.0
 10
128.0161225433526
 20
82.15303361523631
 30
0.0
 10
127.9323266898063
 20
82.15303361523631
 30
0.0
 10
127.8486190090808
 20
82.15303361523631
 30
0.0
 10
127.701766990204
 20
82.15303361523631
 30
0.0
 10
127.6387771746954
 20
82.15303361523631
 30
0.0
 10
127.5938941346237
 20
82.15303361523631
 30
0.0
  0
LINE
  5
D6
330
1F
100
AcDbEntity
  8
0
  6
Continuous
 62
     7
370
    25
100
AcDbLine
 10
127.516122711
 20
79.2511098564
 30
0.0
 11
128.0161223273
 21
79.2511098564
 31
0.0
  0
LINE
  5
D7
330
1F
100
AcDbEntity
  8
0
  6
Continuous
 62
     7
370
    25
100
AcDbLine
 10
127.516122711
 20
79.2511098564
 30
0.0
 11
127.516122711
 21
81.0094524652
 31
0.0
  0
SPLINE
  5
D8
330
1F
100
AcDbEntity
  8
0
  6
Continuous
 62
     7
370
    25
100
AcDbSpline
210
0.0
220
0.0
230
1.0
 70
     8
 71
     3
 72
    14
 73
    10
 74
     0
 42
0.000000001
 43
0.00000001
 40
0.0
 40
0.0
 40
0.0
 40
0.0
 40
0.096021547728022
 40
0.1924412985067401
 40
0.2917902771809186
 40
0.396387075314727
 40
0.508224361229722
 40
0.7392002680930558
 40
1.0
 40
1.0
 40
1.0
 40
1.0
 10
141.0827892100192
 20
91.75110982658963
 30
0.0
 10
141.0831872839429
 20
91.73582881210584
 30
0.0
 10
141.0839850826097
 20
91.70520341250186
 30
0.0
 10
141.0899914565694
 20
91.66007754393293
 30
0.0
 10
141.0994689275993
 20
91.61615408374745
 30
0.0
 10
141.112677515504
 20
91.57345802924745
 30
0.0
 10
141.1348418940946
 20
91.51844655677786
 30
0.0
 10
141.1702134396836
 20
91.4547929865637
 30
0.0
 10
141.202402255738
 20
91.4173913623371
 30
0.0
 10
141.2194727121322
 20
91.39755643599635
 30
0.0
  0
SPLINE
  5
D9
330
1F
100
AcDbEntity
  8
0
  6
Continuous
 62
     7
370
    25
100
AcDbSpline
210
0.0
220
0.0
230
1.0
 70
     8
 71
     3
 72
    15
 73
    11
 74
     0
 42
0.000000001
 43
0.00000001
 40
0.0
 40
0.0
 40
0.0
 40
0.0
 40
0.1307681764282987
 40
0.2557775964014054
 40
0.375854271439311
 40
0.4919295877812418
 40
0.6226338248371327
 40
0.7437286717850853
 40
0.8761291708518495
 40
1.0
 40
1.0
 40
1.0
 40
1.0
 10
140.7315986098467
 20
92.53275420003409
 30
0.0
 10
140.7552979355172
 20
92.5113083413537
 30
0.0
 10
140.8016529182194
 20
92.46936105466773
 30
0.0
 10
140.8641014046953
 20
92.39652078243593
 30
0.0
 10
140.919582656703
 20
92.31809381184355
 30
0.0
 10
140.9706106484928
 20
92.2293195899724
 30
0.0
 10
141.0154289742502
 20
92.12994465477881
 30
0.0
 10
141.0519986921884
 20
92.01305959506234
 30
0.0
 10
141.0775534611186
 20
91.88672669961767
 30
0.0
 10
141.0810831204815
 20
91.7953011223538
 30
0.0
 10
141.0827892100192
 20
91.75110982658963
 30
0.0
  0
SPLINE
  5
DA
330
1F
100
AcDbEntity
  8
0
  6
Continuous
 62
     7
370
    25
100
AcDbSpline
210
0.0
220
0.0
230
1.0
 70
     8
 71
     3
 72
    13
 73
     9
 74
     0
 42
0.000000001
 43
0.00000001
 40
0.0
 40
0.0
 40
0.0
 40
0.0
 40
0.1238371160455669
 40
0.247902303023111
 40
0.3726214666345126
 40
0.4984138700895143
 40
0.7490979627897995
 40
1.0
 40
1.0
 40
1.0
 40
1.0
 10
140.1494558766859
 20
92.75110982658963
 30
0.0
 10
140.1762078171135
 20
92.75043830899735
 30
0.0
 10
140.2297609670423
 20
92.74909403707821
 30
0.0
 10
140.3080779383423
 20
92.73819222705218
 30
0.0
 10
140.3848773196683
 20
92.72083078963001
 30
0.0
 10
140.484403307771
 20
92.68814350426292
 30
0.0
 10
140.6035661560704
 20
92.63225837678301
 30
0.0
 10
140.6889087644975
 20
92.56593186547535
 30
0.0
 10
140.7315986098467
 20
92.53275420003409
 30
0.0
  0
LINE
  5
DB
330
1F
100
AcDbEntity
  8
0
  6
Continuous
 62
     7
370
    25
100
AcDbLine
 10
138.5083360962
 20
92.7511102066
 30
0.0
 11
140.1494556936
 21
92.7511102066
 31
0.0
  0
SPLINE
  5
DC
330
1F
100
AcDbEntity
  8
0
  6
Continuous
 62
     7
370
    25
100
AcDbSpline
210
0.0
220
0.0
230
1.0
 70
     8
 71
     3
 72
    13
 73
     9
 74
     0
 42
0.000000001
 43
0.00000001
 40
0.0
 40
0.0
 40
0.0
 40
0.0
 40
0.1856794033212454
 40
0.3634611737568486
 40
0.5335423367207065
 40
0.6961479207300426
 40
0.8515354443704023
 40
1.0
 40
1.0
 40
1.0
 40
1.0
 10
137.4409936739346
 20
92.59556664404732
 30
0.0
 10
137.508316471103
 20
92.61189494989047
 30
0.0
 10
137.6400985774743
 20
92.6438570582399
 30
0.0
 10
137.8321909941805
 20
92.68257591147187
 30
0.0
 10
138.0147780763521
 20
92.71312999055955
 30
0.0
 10
138.1878519151319
 20
92.7347467274687
 30
0.0
 10
138.3518119160193
 20
92.74845442195746
 30
0.0
 10
138.4569599393467
 20
92.75023823921408
 30
0.0
 10
138.5083361043416
 20
92.75110982658963
 30
0.0
  0
SPLINE
  5
DD
330
1F
100
AcDbEntity
  8
0
  6
Continuous
 62
     7
370
    25
100
AcDbSpline
210
0.0
220
0.0
230
1.0
 70
     8
 71
     3
 72
    17
 73
    13
 74
     0
 42
0.000000001
 43
0.00000001
 40
0.0
 40
0.0
 40
0.0
 40
0.0
 40
0.1130667887614413
 40
0.214247189583317
 40
0.3035410227131065
 40
0.3809482842653933
 40
0.4464692356459874
 40
0.5001045920517729
 40
0.6375226522804812
 40
0.750042112035746
 40
0.8820380142736961
 40
0.9999999999999999
 40
0.9999999999999999
 40
0.9999999999999999
 40
0.9999999999999999
 10
135.0161225433526
 20
92.25110982658963
 30
0.0
 10
135.1098400146932
 20
92.26133945270493
 30
0.0
 10
135.2874227078036
 20
92.2807232936161
 30
0.0
 10
135.5385820289145
 20
92.30861753818736
 30
0.0
 10
135.7596207505579
 20
92.33361034587837
 30
0.0
 10
135.9505677532435
 20
92.35573974338557
 30
0.0
 10
136.1115842007018
 20
92.3749395700652
 30
0.0
 10
136.3209063070199
 20
92.40112133532246
 30
0.0
 10
136.566889255678
 20
92.43410287691027
 30
0.0
 10
136.8725394269503
 20
92.47969715138976
 30
0.0
 10
137.158676475802
 20
92.52960580809871
 30
0.0
 10
137.350477505394
 20
92.57441836762882
 30
0.0
 10
137.4409936739346
 20
92.59556664404732
 30
0.0
  0
SPLINE
  5
DE
330
1F
100
AcDbEntity
  8
0
  6
Continuous
 62
     7
370
    25
100
AcDbSpline
210
0.0
220
0.0
230
1.0
 70
     8
 71
     3
 72
    14
 73
    10
 74
     0
 42
0.000000001
 43
0.00000001
 40
0.0
 40
0.0
 40
0.0
 40
0.0
 40
0.0771019312304826
 40
0.1604220744887596
 40
0.2500134459863516
 40
0.3625277438465788
 40
0.4999872830472304
 40
0.6965319249886696
 40
1.0
 40
1.0
 40
1.0
 40
1.0
 10
132.5912514127706
 20
92.59556664404732
 30
0.0
 10
132.6502448736164
 20
92.58143736715645
 30
0.0
 10
132.7729895729919
 20
92.55203929795529
 30
0.0
 10
132.9680810503806
 20
92.51352140172722
 30
0.0
 10
133.193539328055
 20
92.47445887515504
 30
0.0
 10
133.4653778348894
 20
92.43417836869868
 30
0.0
 10
133.8270518889773
 20
92.3855196744284
 30
0.0
 10
134.3499458487819
 20
92.32408483512316
 30
0.0
 10
134.7645130946381
 20
92.27867188605028
 30
0.0
 10
135.0161225433526
 20
92.25110982658963
 30
0.0
  0
SPLINE
  5
DF
330
1F
100
AcDbEntity
  8
0
  6
Continuous
 62
     7
370
    25
100
AcDbSpline
210
0.0
220
0.0
230
1.0
 70
     8
 71
     3
 72
    13
 73
     9
 74
     0
 42
0.000000001
 43
0.00000001
 40
0.0
 40
0.0
 40
0.0
 40
0.0
 40
0.1484645556295968
 40
0.3038520792699616
 40
0.4664576632792965
 40
0.6365388262431637
 40
0.8143205966787558
 40
1.0
 40
1.0
 40
1.0
 40
1.0
 10
131.5239089823635
 20
92.75110982658963
 30
0.0
 10
131.5752851473585
 20
92.75023823921408
 30
0.0
 10
131.6804331706859
 20
92.74845442195746
 30
0.0
 10
131.8443931715732
 20
92.7347467274687
 30
0.0
 10
132.017467010353
 20
92.71312999055955
 30
0.0
 10
132.2000540925247
 20
92.68257591147186
 30
0.0
 10
132.3921465092308
 20
92.6438570582399
 30
0.0
 10
132.5239286156021
 20
92.61189494989047
 30
0.0
 10
132.5912514127706
 20
92.59556664404732
 30
0.0
  0
LINE
  5
E0
330
1F
100
AcDbEntity
  8
0
  6
Continuous
 62
     7
370
    25
100
AcDbLine
 10
129.8827893931
 20
92.7511102066
 30
0.0
 11
131.5239089905
 21
92.7511102066
 31
0.0
  0
SPLINE
  5
E1
330
1F
100
AcDbEntity
  8
0
  6
Continuous
 62
     7
370
    25
100
AcDbSpline
210
0.0
220
0.0
230
1.0
 70
     8
 71
     3
 72
    13
 73
     9
 74
     0
 42
0.000000001
 43
0.00000001
 40
0.0
 40
0.0
 40
0.0
 40
0.0
 40
0.1257153360429536
 40
0.2509867092496626
 40
0.3762164861788906
 40
0.5018074329534182
 40
0.7521854029562103
 40
1.0
 40
1.0
 40
1.0
 40
1.0
 10
129.3006464768585
 20
92.53275420003409
 30
0.0
 10
129.3217323167067
 20
92.5499484772033
 30
0.0
 10
129.3638295319062
 20
92.58427631007126
 30
0.0
 10
129.4307422477354
 20
92.62784585830407
 30
0.0
 10
129.5002574993893
 20
92.6654536619503
 30
0.0
 10
129.5965909367142
 20
92.70647693953615
 30
0.0
 10
129.7224247522581
 20
92.74300549429421
 30
0.0
 10
129.8295180681413
 20
92.74841766498747
 30
0.0
 10
129.8827892100192
 20
92.75110982658963
 30
0.0
  0
SPLINE
  5
E2
330
1F
100
AcDbEntity
  8
0
  6
Continuous
 62
     7
370
    25
100
AcDbSpline
210
0.0
220
0.0
230
1.0
 70
     8
 71
     3
 72
    16
 73
    12
 74
     0
 42
0.000000001
 43
0.00000001
 40
0.0
 40
0.0
 40
0.0
 40
0.0
 40
0.0659534682181705
 40
0.1324870475771656
 40
0.2006767984554997
 40
0.2715233530696834
 40
0.3459202143311513
 40
0.4246400792172604
 40
0.5083359903953556
 40
0.740513582944488
 40
1.0
 40
1.0
 40
1.0
 40
1.0
 10
128.9494558766859
 20
91.75110982658963
 30
0.0
 10
128.9499079020465
 20
91.77462187901749
 30
0.0
 10
128.950815928676
 20
91.8218527903373
 30
0.0
 10
128.9580488513383
 20
91.89217087663313
 30
0.0
 10
128.9696168127754
 20
91.9618299913067
 30
0.0
 10
128.9860041984722
 20
92.03080632178853
 30
0.0
 10
129.0071772356041
 20
92.09909769593057
 30
0.0
 10
129.0332944325882
 20
92.16672478016925
 30
0.0
 10
129.0822174809213
 20
92.27172624981789
 30
0.0
 10
129.166399915096
 20
92.40550989735398
 30
0.0
 10
129.2542707336287
 20
92.48879740120752
 30
0.0
 10
129.3006464768585
 20
92.53275420003409
 30
0.0
  0
SPLINE
  5
E3
330
1F
100
AcDbEntity
  8
0
  6
Continuous
 62
     7
370
    25
100
AcDbSpline
210
0.0
220
0.0
230
1.0
 70
     8
 71
     3
 72
    13
 73
     9
 74
     0
 42
0.000000001
 43
0.00000001
 40
0.0
 40
0.0
 40
0.0
 40
0.0
 40
0.1759205118839894
 40
0.33918960755005
 40
0.4921931780779566
 40
0.6738397335242725
 40
0.8395017852842178
 40
1.0
 40
1.0
 40
1.0
 40
1.0
 10
128.8127723745729
 20
91.39755643599635
 30
0.0
 10
128.8242975519701
 20
91.41065498054294
 30
0.0
 10
128.8465190675651
 20
91.4359100809099
 30
0.0
 10
128.8769226868586
 20
91.48175314749024
 30
0.0
 10
128.9051263993074
 20
91.5356441289197
 30
0.0
 10
128.9290523275533
 20
91.59899205018304
 30
0.0
 10
128.946178574546
 20
91.67354624608059
 30
0.0
 10
128.9483750342412
 20
91.72552963703208
 30
0.0
 10
128.9494558766859
 20
91.75110982658963
 30
0.0
  0
SPLINE
  5
E4
330
1F
100
AcDbEntity
  8
0
  6
Continuous
 62
     7
370
    25
100
AcDbSpline
210
0.0
220
0.0
230
1.0
 70
    24
 71
     3
 72
    10
 73
     6
 74
     0
 42
0.000000001
 43
0.00000001
 40
0.0
 40
0.0
 40
0.0
 40
0.0
 40
0.5
 40
0.5
 40
1.0
 40
1.0
 40
1.0
 40
1.0
 10
127.5938941346237
 20
87.34918603793406
 30
0.0
 10
127.6387771746954
 20
87.34918603793406
 30
0.0
 10
127.701766990204
 20
87.34918603793406
 30
0.0
 10
127.8486190090808
 20
87.34918603793406
 30
0.0
 10
127.9323266898063
 20
87.34918603793406
 30
0.0
 10
128.0161225433526
 20
87.34918603793406
 30
0.0
  0
SPLINE
  5
E5
330
1F
100
AcDbEntity
  8
0
  6
Continuous
 62
     7
370
    25
100
AcDbSpline
210
0.0
220
0.0
230
1.0
 70
     8
 71
     3
 72
    12
 73
     8
 74
     0
 42
0.000000001
 43
0.00000001
 40
0.0
 40
0.0
 40
0.0
 40
0.0
 40
0.1731008601133525
 40
0.359615337634814
 40
0.5595829448172194
 40
0.773035722531595
 40
1.0
 40
1.0
 40
1.0
 40
1.0
 10
127.5161225433526
 20
88.49276721336356
 30
0.0
 10
127.5167363710412
 20
88.42733432911812
 30
0.0
 10
127.5180115920387
 20
88.29139815442241
 30
0.0
 10
127.5276948973459
 20
88.0786862815627
 30
0.0
 10
127.5432501804659
 20
87.84994125189488
 30
0.0
 10
127.5651090809269
 20
87.60509032536505
 30
0.0
 10
127.5841048603445
 20
87.43621444112165
 30
0.0
 10
127.5938941346237
 20
87.34918603793406
 30
0.0
  0
LINE
  5
E6
330
1F
100
AcDbEntity
  8
0
  6
Continuous
 62
     7
370
    25
100
AcDbLine
 10
127.516122711
 20
88.492767188
 30
0.0
 11
127.516122711
 21
90.2511097968
 31
0.0
  0
ARC
  5
E7
330
1F
100
AcDbEntity
  8
0
  6
Continuous
 62
     7
370
    25
100
AcDbCircle
 10
128.0161225434
 20
90.2511098266
 30
0.0
 40
0.5
100
AcDbArc
 50
133.1107916145
 51
180.0
  0
SPLINE
  5
E8
330
1F
100
AcDbEntity
  8
0
  6
Continuous
 62
     7
370
    25
100
AcDbSpline
210
0.0
220
0.0
230
1.0
 70
     8
 71
     3
 72
    13
 73
     9
 74
     0
 42
0.000000001
 43
0.00000001
 40
0.0
 40
0.0
 40
0.0
 40
0.0
 40
0.1206933098378984
 40
0.2506349558807637
 40
0.4049363563536673
 40
0.5013750994399903
 40
0.7702864430522399
 40
1.0
 40
1.0
 40
1.0
 40
1.0
 10
128.0161225433526
 20
90.25115589463482
 30
0.0
 10
128.0012667651607
 20
90.26613344408497
 30
0.0
 10
127.9704168587599
 20
90.29723622393817
 30
0.0
 10
127.9218417071428
 20
90.34832105468594
 30
0.0
 10
127.8771520247575
 20
90.39651027527515
 30
0.0
 10
127.8173883154157
 20
90.4616732881648
 30
0.0
 10
127.7495963023681
 20
90.53459767559195
 30
0.0
 10
127.6981280299898
 20
90.59041287673273
 30
0.0
 10
127.6744168998302
 20
90.61612661138857
 30
0.0
  0
SPLINE
  5
E9
330
1F
100
AcDbEntity
  8
0
  6
Continuous
 62
     7
370
    25
100
AcDbSpline
210
0.0
220
0.0
230
1.0
 70
    24
 71
     3
 72
    10
 73
     6
 74
     0
 42
0.000000001
 43
0.00000001
 40
0.0
 40
0.0
 40
0.0
 40
0.0
 40
0.5
 40
0.5
 40
1.0
 40
1.0
 40
1.0
 40
1.0
 10
137.614198754697
 20
92.17333823531848
 30
0.0
 10
137.614198754697
 20
92.12845519524683
 30
0.0
 10
137.614198754697
 20
92.06546537973824
 30
0.0
 10
137.614198754697
 20
91.91861336086137
 30
0.0
 10
137.614198754697
 20
91.83490568013592
 30
0.0
 10
137.614198754697
 20
91.75110982658963
 30
0.0
  0
SPLINE
  5
EA
330
1F
100
AcDbEntity
  8
0
  6
Continuous
 62
     7
370
    25
100
AcDbSpline
210
0.0
220
0.0
230
1.0
 70
     8
 71
     3
 72
     8
 73
     4
 74
     0
 42
0.000000001
 43
0.00000001
 40
-0.0000000000002226
 40
-0.0000000000002226
 40
-0.0000000000002226
 40
-0.0000000000002226
 40
0.127234597098529
 40
0.127234597098529
 40
0.127234597098529
 40
0.127234597098529
 10
137.6141987546934
 20
92.17333823531881
 30
0.0
 10
138.0027847494069
 20
92.21884633757668
 30
0.0
 10
138.3902133162856
 20
92.25110982658963
 30
0.0
 10
138.7577799301265
 20
92.25110982658963
 30
0.0
  0
LINE
  5
EB
330
1F
100
AcDbEntity
  8
0
  6
Continuous
 62
     7
370
    25
100
AcDbLine
 10
140.5161225136
 20
92.251109659
 30
0.0
 11
138.7577799047
 21
92.251109659
 31
0.0
  0
ARC
  5
EC
330
1F
100
AcDbEntity
  8
0
  6
Continuous
 62
     7
370
    25
100
AcDbCircle
 10
140.5161225434
 20
91.7511098266
 30
0.0
 40
0.5000000000000159
100
AcDbArc
 50
43.1107916145
 51
90.0
  0
SPLINE
  5
ED
330
1F
100
AcDbEntity
  8
0
  6
Continuous
 62
     7
370
    25
100
AcDbSpline
210
0.0
220
0.0
230
1.0
 70
     8
 71
     3
 72
    13
 73
     9
 74
     0
 42
0.000000001
 43
0.00000001
 40
0.0
 40
0.0
 40
0.0
 40
0.0
 40
0.1206933106363776
 40
0.2506349558809258
 40
0.4049363551860728
 40
0.501375099440844
 40
0.7702864432344702
 40
1.0
 40
1.0
 40
1.0
 40
1.0
 10
140.5161686113978
 20
91.75110982658963
 30
0.0
 10
140.5311461609456
 20
91.76596560488144
 30
0.0
 10
140.5622489407956
 20
91.79681551128564
 30
0.0
 10
140.6133337714016
 20
91.84539066275408
 30
0.0
 10
140.6615229919026
 20
91.8900803450358
 30
0.0
 10
140.7266860047994
 20
91.94984405442322
 30
0.0
 10
140.7996103923713
 20
92.01763606759812
 30
0.0
 10
140.8554255935148
 20
92.06910433997285
 30
0.0
 10
140.8811393281515
 20
92.092815470112
 30
0.0
  0
SPLINE
  5
EE
330
1F
100
AcDbEntity
  8
0
  6
Continuous
 62
     7
370
    25
100
AcDbSpline
210
0.0
220
0.0
230
1.0
 70
    24
 71
     3
 72
    10
 73
     6
 74
     0
 42
0.000000001
 43
0.00000001
 40
0.0
 40
0.0
 40
0.0
 40
0.0
 40
0.5
 40
0.5
 40
1.0
 40
1.0
 40
1.0
 40
1.0
 10
142.4383509520814
 20
82.1530336152452
 30
0.0
 10
142.3934679120098
 20
82.1530336152452
 30
0.0
 10
142.3304780965012
 20
82.1530336152452
 30
0.0
 10
142.1836260776243
 20
82.1530336152452
 30
0.0
 10
142.0999183968988
 20
82.1530336152452
 30
0.0
 10
142.0161225433526
 20
82.1530336152452
 30
0.0
  0
SPLINE
  5
EF
330
1F
100
AcDbEntity
  8
0
  6
Continuous
 62
     7
370
    25
100
AcDbSpline
210
0.0
220
0.0
230
1.0
 70
     8
 71
     3
 72
    12
 73
     8
 74
     0
 42
0.000000001
 43
0.00000001
 40
0.0
 40
0.0
 40
0.0
 40
0.0
 40
0.1731008601132462
 40
0.3596153376346544
 40
0.5595829448170604
 40
0.7730357225314888
 40
1.0
 40
1.0
 40
1.0
 40
1.0
 10
142.5161225433526
 20
81.00945243981569
 30
0.0
 10
142.5155087156639
 20
81.0748853240611
 30
0.0
 10
142.5142334946664
 20
81.21082149875674
 30
0.0
 10
142.5045501893593
 20
81.4235333716164
 30
0.0
 10
142.4889949062393
 20
81.6522784012842
 30
0.0
 10
142.4671360057782
 20
81.89712932781411
 30
0.0
 10
142.4481402263607
 20
82.06600521205756
 30
0.0
 10
142.4383509520814
 20
82.1530336152452
 30
0.0
  0
LINE
  5
F0
330
1F
100
AcDbEntity
  8
0
  6
Continuous
 62
     7
370
    25
100
AcDbLine
 10
142.5161223757
 20
81.0094524652
 30
0.0
 11
142.5161223757
 21
79.2511098564
 31
0.0
  0
LINE
  5
F1
330
1F
100
AcDbEntity
  8
0
  6
Continuous
 62
     7
370
    25
100
AcDbLine
 10
142.0161227594
 20
79.2511098564
 30
0.0
 11
142.5161223757
 21
79.2511098564
 31
0.0
  0
SPLINE
  5
F2
330
1F
100
AcDbEntity
  8
0
  6
Continuous
 62
     7
370
    25
100
AcDbSpline
210
0.0
220
0.0
230
1.0
 70
     8
 71
     3
 72
    12
 73
     8
 74
     0
 42
0.000000001
 43
0.00000001
 40
-0.267217449764123
 40
-0.267217449764123
 40
-0.267217449764123
 40
-0.267217449764123
 40
-0.160856558527433
 40
-0.107676112909088
 40
-0.001315221672398
 40
-0.001315221672398
 40
0.0
 40
0.0
 40
0.0
 40
0.0
 10
127.5938941346237
 20
82.15303361525409
 30
0.0
 10
127.6319363214562
 20
82.52711408583265
 30
0.0
 10
127.6264404492949
 20
83.04681525130903
 30
0.0
 10
127.584543869768
 20
83.8990604199394
 30
0.0
 10
127.5434177120118
 20
84.40327186215184
 30
0.0
 10
127.5167703344984
 20
84.74281125873885
 30
0.0
 10
127.516446832831
 20
84.74696102724873
 30
0.0
 10
127.5161225433526
 20
84.75110982658963
 30
0.0
  0
SPLINE
  5
F3
330
1F
100
AcDbEntity
  8
0
  6
Continuous
 62
     7
370
    25
100
AcDbSpline
210
0.0
220
0.0
230
1.0
 70
     8
 71
     3
 72
    12
 73
     8
 74
     0
 42
0.000000001
 43
0.00000001
 40
0.0
 40
0.0
 40
0.0
 40
0.0
 40
0.106360891224351
 40
0.159541336836527
 40
0.265902228060878
 40
0.265902228060878
 40
0.267217449764311
 40
0.267217449764311
 40
0.267217449764311
 40
0.267217449764311
 10
142.4383509520814
 20
87.34918603792518
 30
0.0
 10
142.4003087652534
 20
86.97510556739
 30
0.0
 10
142.4058046374065
 20
86.45540440197036
 30
0.0
 10
142.4477012169233
 20
85.60315923343683
 30
0.0
 10
142.4888273746673
 20
85.09894779128226
 30
0.0
 10
142.5154747521916
 20
84.75940839463605
 30
0.0
 10
142.5157982538666
 20
84.75525862602751
 30
0.0
 10
142.5161225433526
 20
84.75110982658963
 30
0.0
  0
SPLINE
  5
F4
330
1F
100
AcDbEntity
  8
0
  6
Continuous
 62
     7
370
    25
100
AcDbSpline
210
0.0
220
0.0
230
1.0
 70
     8
 71
     3
 72
    12
 73
     8
 74
     0
 42
0.000000001
 43
0.00000001
 40
0.0
 40
0.0
 40
0.0
 40
0.0
 40
0.106360889128132
 40
0.159541333692198
 40
0.26590222282033
 40
0.26590222282033
 40
0.267217449923961
 40
0.267217449923961
 40
0.267217449923961
 40
0.267217449923961
 10
132.418046332017
 20
92.17333823531847
 30
0.0
 10
132.7921267951796
 20
92.13529604924017
 30
0.0
 10
133.3118279526097
 20
92.1407919204392
 30
0.0
 10
134.1640731018842
 20
92.18268849800641
 30
0.0
 10
134.6682845341806
 20
92.22381465443185
 30
0.0
 10
135.0078239412331
 20
92.25046203276881
 30
0.0
 10
135.0119737268797
 20
92.25078553577237
 30
0.0
 10
135.0161225433526
 20
92.25110982658963
 30
0.0
  0
SPLINE
  5
F5
330
1F
100
AcDbEntity
  8
0
  6
Continuous
 62
     7
370
    25
100
AcDbSpline
210
0.0
220
0.0
230
1.0
 70
     8
 71
     3
 72
     8
 73
     4
 74
     0
 42
0.000000001
 43
0.00000001
 40
0.0
 40
0.0
 40
0.0
 40
0.0
 40
1.0
 40
1.0
 40
1.0
 40
1.0
 10
127.1716657258949
 20
82.32623869600761
 30
0.0
 10
127.3416696057306
 20
82.29119797108935
 30
0.0
 10
127.5084740680831
 20
82.22277202017146
 30
0.0
 10
127.5938941346237
 20
82.15303361525409
 30
0.0
  0
SPLINE
  5
F6
330
1F
100
AcDbEntity
  8
0
  6
Continuous
 62
     7
370
    25
100
AcDbSpline
210
0.0
220
0.0
230
1.0
 70
     8
 71
     3
 72
     9
 73
     5
 74
     0
 42
0.000000001
 43
0.00000001
 40
0.0
 40
0.0
 40
0.0
 40
0.0
 40
0.571428571428571
 40
1.0
 40
1.0
 40
1.0
 40
1.0
 10
142.8605793608102
 20
87.17598095717165
 30
0.0
 10
142.7634342866184
 20
87.19600422855352
 30
0.0
 10
142.5937729479008
 20
87.24952254602884
 30
0.0
 10
142.4749595520274
 20
87.31929815010344
 30
0.0
 10
142.4383509520814
 20
87.34918603792518
 30
0.0
  0
SPLINE
  5
F7
330
1F
100
AcDbEntity
  8
0
  6
Continuous
 62
     7
370
    25
100
AcDbSpline
210
0.0
220
0.0
230
1.0
 70
     8
 71
     3
 72
     9
 73
     5
 74
     0
 42
0.000000001
 43
0.00000001
 40
0.0
 40
0.0
 40
0.0
 40
0.0
 40
0.5
 40
1.0
 40
1.0
 40
1.0
 40
1.0
 10
142.8605793608114
 20
82.32623869600306
 30
0.0
 10
142.7755774208933
 20
82.30871833354351
 30
0.0
 10
142.6056835026446
 20
82.25759611456107
 30
0.0
 10
142.4810609853521
 20
82.1879028177059
 30
0.0
 10
142.438350952082
 20
82.15303361524687
 30
0.0
  0
SPLINE
  5
F8
330
1F
100
AcDbEntity
  8
0
  6
Continuous
 62
     7
370
    25
100
AcDbSpline
210
0.0
220
0.0
230
1.0
 70
     8
 71
     3
 72
    12
 73
     8
 74
     0
 42
0.000000001
 43
0.00000001
 40
-0.0013152216724614
 40
-0.0013152216724614
 40
-0.0013152216724614
 40
-0.0013152216724614
 40
0.0
 40
0.0
 40
0.159541336854997
 40
0.212721782473329
 40
0.265902228091661
 40
0.265902228091661
 40
0.265902228091661
 40
0.265902228091661
 10
142.5161225433526
 20
84.75110982658963
 30
0.0
 10
142.5157982538742
 20
84.74696102724944
 30
0.0
 10
142.5154729341437
 20
84.74281348064555
 30
0.0
 10
142.4759931840953
 20
84.23517926746277
 30
0.0
 10
142.4209252694198
 20
83.5625493670881
 30
0.0
 10
142.4051129612849
 20
82.69803329030732
 30
0.0
 10
142.4193298586652
 20
82.34007385054333
 30
0.0
 10
142.4383509520814
 20
82.15303361525409
 30
0.0
  0
SPLINE
  5
F9
330
1F
100
AcDbEntity
  8
0
  6
Continuous
 62
     7
370
    25
100
AcDbSpline
210
0.0
220
0.0
230
1.0
 70
     8
 71
     3
 72
    12
 73
     8
 74
     0
 42
0.000000001
 43
0.00000001
 40
-0.265902228061387
 40
-0.265902228061387
 40
-0.265902228061387
 40
-0.265902228061387
 40
-0.2645870063584663
 40
-0.2645870063584663
 40
-0.1582261151339113
 40
-0.1050456695216343
 40
0.0013152217029208
 40
0.0013152217029208
 40
0.0013152217029208
 40
0.0013152217029208
 10
127.5161225433526
 20
84.75110982658963
 30
0.0
 10
127.5164468328384
 20
84.75525862602618
 30
0.0
 10
127.5167703345132
 20
84.75940839463283
 30
0.0
 10
127.5434177120396
 20
85.09894779128135
 30
0.0
 10
127.5845438697821
 20
85.60315923343425
 30
0.0
 10
127.6264404492994
 20
86.45540440196993
 30
0.0
 10
127.6319363214519
 20
86.97510556738929
 30
0.0
 10
127.5938941346237
 20
87.34918603792518
 30
0.0
  0
SPLINE
  5
FA
330
1F
100
AcDbEntity
  8
0
  6
Continuous
 62
     7
370
    25
100
AcDbSpline
210
0.0
220
0.0
230
1.0
 70
     8
 71
     3
 72
     9
 73
     5
 74
     0
 42
0.000000001
 43
0.00000001
 40
0.0
 40
0.0
 40
0.0
 40
0.0
 40
0.5
 40
1.0
 40
1.0
 40
1.0
 40
1.0
 10
127.1716657258942
 20
87.17598095717443
 30
0.0
 10
127.2566676658122
 20
87.193501319634
 30
0.0
 10
127.4265615840608
 20
87.2446235386164
 30
0.0
 10
127.5511841013532
 20
87.31431683547149
 30
0.0
 10
127.5938941346234
 20
87.34918603793051
 30
0.0
  0
SPLINE
  5
FB
330
1F
100
AcDbEntity
  8
0
  6
Continuous
 62
     7
370
    25
100
AcDbSpline
210
0.0
220
0.0
230
1.0
 70
     8
 71
     3
 72
     9
 73
     5
 74
     0
 42
0.000000001
 43
0.00000001
 40
0.0
 40
0.0
 40
0.0
 40
0.0
 40
0.571428571428571
 40
1.0
 40
1.0
 40
1.0
 40
1.0
 10
132.5912514127706
 20
92.59556664404732
 30
0.0
 10
132.5712281413887
 20
92.4984215698555
 30
0.0
 10
132.5177098239134
 20
92.32876023113782
 30
0.0
 10
132.4479342198388
 20
92.20994683526446
 30
0.0
 10
132.418046332017
 20
92.17333823531847
 30
0.0
  0
SPLINE
  5
FC
330
1F
100
AcDbEntity
  8
0
  6
Continuous
 62
     7
370
    25
100
AcDbSpline
210
0.0
220
0.0
230
1.0
 70
     8
 71
     3
 72
    12
 73
     8
 74
     0
 42
0.000000001
 43
0.00000001
 40
-0.0013152270871416
 40
-0.0013152270871416
 40
-0.0013152270871416
 40
-0.0013152270871416
 40
0.0
 40
0.0
 40
0.106360889134687
 40
0.159541333702031
 40
0.265902222836718
 40
0.265902222836718
 40
0.265902222836718
 40
0.265902222836718
 10
135.0161225433526
 20
92.25110982658963
 30
0.0
 10
135.0202713597737
 20
92.25078553577643
 30
0.0
 10
135.024421145368
 20
92.25046203277695
 30
0.0
 10
135.3639605523884
 20
92.22381465444326
 30
0.0
 10
135.868171984716
 20
92.18268849801325
 30
0.0
 10
136.720417134042
 20
92.14079192044032
 30
0.0
 10
137.2401182915025
 20
92.13529604923781
 30
0.0
 10
137.6141987546881
 20
92.17333823531847
 30
0.0
  0
SPLINE
  5
FD
330
1F
100
AcDbEntity
  8
0
  6
Continuous
 62
     7
370
    25
100
AcDbSpline
210
0.0
220
0.0
230
1.0
 70
     8
 71
     3
 72
     9
 73
     5
 74
     0
 42
0.000000001
 43
0.00000001
 40
0.0
 40
0.0
 40
0.0
 40
0.0
 40
0.5
 40
1.0
 40
1.0
 40
1.0
 40
1.0
 10
137.4409936739393
 20
92.5955666440485
 30
0.0
 10
137.4585140363988
 20
92.5105647041304
 30
0.0
 10
137.5096362553813
 20
92.34067078588161
 30
0.0
 10
137.5793295522364
 20
92.2160482685892
 30
0.0
 10
137.6141987546955
 20
92.17333823531906
 30
0.0
  0
SPLINE
  5
FE
330
1F
100
AcDbEntity
  8
0
  6
Continuous
 62
     7
370
    25
100
AcDbSpline
210
0.0
220
0.0
230
1.0
 70
     8
 71
     3
 72
    13
 73
     9
 74
     0
 42
0.000000001
 43
0.00000001
 40
0.0
 40
0.0
 40
0.0
 40
0.0
 40
0.1162222239500744
 40
0.2381780213579675
 40
0.3660917905452749
 40
0.5001580142688472
 40
0.7504239388829979
 40
1.0
 40
1.0
 40
1.0
 40
1.0
 10
140.8811393281515
 20
92.092815470112
 30
0.0
 10
140.8921234506467
 20
92.08036745949391
 30
0.0
 10
140.9146335736965
 20
92.05485734242602
 30
0.0
 10
140.9427447008613
 20
92.0133501694093
 30
0.0
 10
140.9672686974595
 20
91.96875741870431
 30
0.0
 10
140.9926422823233
 20
91.90825133540035
 30
0.0
 10
141.0125019601957
 20
91.8328475517385
 30
0.0
 10
141.0149167932548
 20
91.77833066675599
 30
0.0
 10
141.0161225433526
 20
91.75110984536302
 30
0.0
  0
SPLINE
  5
FF
330
1F
100
AcDbEntity
  8
0
  6
Continuous
 62
     7
370
    25
100
AcDbSpline
210
0.0
220
0.0
230
1.0
 70
     8
 71
     3
 72
    10
 73
     6
 74
     0
 42
0.000000001
 43
0.00000001
 40
0.0
 40
0.0
 40
0.0
 40
0.0
 40
0.5
 40
0.5
 40
1.0
 40
1.0
 40
1.0
 40
1.0
 10
141.0161225433526
 20
91.75110982658963
 30
0.0
 10
141.0161225433526
 20
91.4893104356613
 30
0.0
 10
141.1238956424303
 20
91.22912316166318
 30
0.0
 10
141.4941358951778
 20
90.85888291586697
 30
0.0
 10
141.7543231711994
 20
90.75110982167432
 30
0.0
 10
142.0161225621277
 20
90.75110982658963
 30
0.0
  0
SPLINE
  5
100
330
1F
100
AcDbEntity
  8
0
  6
Continuous
 62
     7
370
    25
100
AcDbSpline
210
0.0
220
0.0
230
1.0
 70
     8
 71
     3
 72
    12
 73
     8
 74
     0
 42
0.000000001
 43
0.00000001
 40
0.0
 40
0.0
 40
0.0
 40
0.0
 40
0.1664616503807027
 40
0.3330491366093241
 40
0.5001938540683241
 40
0.7619811741357122
 40
1.0
 40
1.0
 40
1.0
 40
1.0
 10
142.016122562126
 20
90.75110982658963
 30
0.0
 10
142.0340963858777
 20
90.75056744715819
 30
0.0
 10
142.0700576206031
 20
90.7494822782863
 30
0.0
 10
142.1277745496764
 20
90.73969912992644
 30
0.0
 10
142.1980592611688
 20
90.71901905814681
 30
0.0
 10
142.2774020156119
 20
90.68271778873022
 30
0.0
 10
142.3318830866349
 20
90.63760860840641
 30
0.0
 10
142.3578281868749
 20
90.61612661138862
 30
0.0
  0
SPLINE
  5
101
330
1F
100
AcDbEntity
  8
0
  6
Continuous
 62
     7
370
    25
100
AcDbSpline
210
0.0
220
0.0
230
1.0
 70
     8
 71
     3
 72
    13
 73
     9
 74
     0
 42
0.000000001
 43
0.00000001
 40
0.0
 40
0.0
 40
0.0
 40
0.0
 40
0.1162222239446788
 40
0.2381780213507807
 40
0.3660917905398808
 40
0.5001580142687957
 40
0.7504239388759752
 40
1.0
 40
1.0
 40
1.0
 40
1.0
 10
127.6744168998302
 20
90.61612661138857
 30
0.0
 10
127.6868649104477
 20
90.6271107338832
 30
0.0
 10
127.7123750275147
 20
90.64962085693239
 30
0.0
 10
127.7538822005306
 20
90.67773198409692
 30
0.0
 10
127.7984749512361
 20
90.70225598069575
 30
0.0
 10
127.8589810345405
 20
90.72762956555987
 30
0.0
 10
127.9343848182032
 20
90.74748924343271
 30
0.0
 10
127.9889017031855
 20
90.74990407649184
 30
0.0
 10
128.0161225245792
 20
90.75110982658963
 30
0.0
  0
SPLINE
  5
102
330
1F
100
AcDbEntity
  8
0
  6
Continuous
 62
     7
370
    25
100
AcDbSpline
210
0.0
220
0.0
230
1.0
 70
     8
 71
     3
 72
    10
 73
     6
 74
     0
 42
0.000000001
 43
0.00000001
 40
0.0
 40
0.0
 40
0.0
 40
0.0
 40
0.5
 40
0.5
 40
1.0
 40
1.0
 40
1.0
 40
1.0
 10
128.0161225245775
 20
90.75110982658963
 30
0.0
 10
128.277921918635
 20
90.75110982167432
 30
0.0
 10
128.5381091976905
 20
90.85888291855449
 30
0.0
 10
128.9083494513877
 20
91.22912317225168
 30
0.0
 10
129.0161225482679
 20
91.48931045130722
 30
0.0
 10
129.0161225433526
 20
91.75110984536474
 30
0.0
  0
SPLINE
  5
103
330
1F
100
AcDbEntity
  8
0
  6
Continuous
 62
     7
370
    25
100
AcDbSpline
210
0.0
220
0.0
230
1.0
 70
     8
 71
     3
 72
    12
 73
     8
 74
     0
 42
0.000000001
 43
0.00000001
 40
0.0
 40
0.0
 40
0.0
 40
0.0
 40
0.1664615763807151
 40
0.3330490665505926
 40
0.500193865880855
 40
0.7619811797519991
 40
1.0
 40
1.0
 40
1.0
 40
1.0
 10
129.0161225433526
 20
91.75110982658963
 30
0.0
 10
129.0166649216844
 20
91.76908364335117
 30
0.0
 10
129.0177500886103
 20
91.80504487251247
 30
0.0
 10
129.0275332339229
 20
91.86276180987277
 30
0.0
 10
129.0482133073513
 20
91.93304653502643
 30
0.0
 10
129.0845145811512
 20
92.0123892986282
 30
0.0
 10
129.1296237615156
 20
92.06687036980013
 30
0.0
 10
129.1511057585536
 20
92.09281547011196
 30
0.0
  0
LINE
  5
104
330
1F
100
AcDbEntity
  8
0
  6
Continuous
 62
     7
370
    25
100
AcDbLine
 10
142.0161227594
 20
78.7511097744
 30
0.0
 11
128.0161223273
 21
78.7511097744
 31
0.0
  0
SPLINE
  5
105
330
1F
100
AcDbEntity
  8
0
  6
Continuous
 62
     7
370
    25
100
AcDbSpline
210
0.0
220
0.0
230
1.0
 70
    24
 71
     3
 72
    14
 73
    10
 74
     0
 42
0.000000001
 43
0.00000001
 40
0.0
 40
0.0
 40
0.0
 40
0.0
 40
0.25
 40
0.25
 40
0.5
 40
0.5
 40
0.75
 40
0.75
 40
1.0
 40
1.0
 40
1.0
 40
1.0
 10
128.0161225433526
 20
78.75110982658963
 30
0.0
 10
128.0161225433526
 20
78.75110982658963
 30
0.0
 10
128.0161225433526
 20
78.76184919599638
 30
0.0
 10
128.0161225433526
 20
78.81058215612046
 30
0.0
 10
128.0161225433526
 20
78.84874089952746
 30
0.0
 10
128.0161225433526
 20
78.94637197246526
 30
0.0
 10
128.0161225433526
 20
79.00551399661674
 30
0.0
 10
128.0161225433526
 20
79.12861094700064
 30
0.0
 10
128.0161225433526
 20
79.19218426149074
 30
0.0
 10
128.0161225433526
 20
79.25110982658963
 30
0.0
  0
SPLINE
  5
106
330
1F
100
AcDbEntity
  8
0
  6
Continuous
 62
     7
370
    25
100
AcDbSpline
210
0.0
220
0.0
230
1.0
 70
    24
 71
     3
 72
    10
 73
     6
 74
     0
 42
0.000000001
 43
0.00000001
 40
0.0
 40
0.0
 40
0.0
 40
0.0
 40
0.5
 40
0.5
 40
1.0
 40
1.0
 40
1.0
 40
1.0
 10
142.0161225433526
 20
78.75110982658963
 30
0.0
 10
142.0161225433527
 20
78.75110982658963
 30
0.0
 10
142.0161225433527
 20
78.80499637478472
 30
0.0
 10
142.0161225433527
 20
78.99011649720798
 30
0.0
 10
142.0161225433526
 20
79.12021013269005
 30
0.0
 10
142.0161225433526
 20
79.25110982658963
 30
0.0
  0
SPLINE
  5
107
330
1F
100
AcDbEntity
  8
0
  6
Continuous
 62
     7
370
    25
100
AcDbSpline
210
0.0
220
0.0
230
1.0
 70
     8
 71
     3
 72
    10
 73
     6
 74
     0
 42
0.000000001
 43
0.00000001
 40
0.0
 40
0.0
 40
0.0
 40
0.0
 40
0.5
 40
0.5
 40
1.0
 40
1.0
 40
1.0
 40
1.0
 10
128.0161225433526
 20
78.75110982658963
 30
0.0
 10
127.885222849453
 20
78.75110982658963
 30
0.0
 10
127.7551292139709
 20
78.80499637478472
 30
0.0
 10
127.5700090915477
 20
78.99011649720799
 30
0.0
 10
127.5161225433526
 20
79.12021013269005
 30
0.0
 10
127.5161225433526
 20
79.25110982658963
 30
0.0
  0
SPLINE
  5
108
330
1F
100
AcDbEntity
  8
0
  6
Continuous
 62
     7
370
    25
100
AcDbSpline
210
0.0
220
0.0
230
1.0
 70
     8
 71
     3
 72
    14
 73
    10
 74
     0
 42
0.000000001
 43
0.00000001
 40
0.0
 40
0.0
 40
0.0
 40
0.0
 40
0.25
 40
0.25
 40
0.5
 40
0.5
 40
0.75
 40
0.75
 40
1.0
 40
1.0
 40
1.0
 40
1.0
 10
142.0161225433526
 20
78.75110982658963
 30
0.0
 10
142.0750481084515
 20
78.75110982658963
 30
0.0
 10
142.1386214229416
 20
78.76184919599638
 30
0.0
 10
142.2617183733255
 20
78.81058215612045
 30
0.0
 10
142.3208603974769
 20
78.84874089952744
 30
0.0
 10
142.4184914704148
 20
78.94637197246526
 30
0.0
 10
142.4566502138217
 20
79.00551399661674
 30
0.0
 10
142.5053831739458
 20
79.12861094700064
 30
0.0
 10
142.5161225433526
 20
79.19218426149074
 30
0.0
 10
142.5161225433526
 20
79.25110982658963
 30
0.0
  0
LINE
  5
109
330
1F
100
AcDbEntity
  8
0
  6
Continuous
 62
     7
370
    25
100
AcDbLine
 10
138.9468681897
 20
82.183069085
 30
0.0
 11
138.6835274185
 21
81.4802472025
 31
0.0
  0
SPLINE
  5
10A
330
1F
100
AcDbEntity
  8
0
  6
Continuous
 62
     7
370
    25
100
AcDbSpline
210
0.0
220
0.0
230
1.0
 70
     8
 71
     3
 72
    31
 73
    27
 74
     0
 42
0.000000001
 43
0.00000001
 40
0.0
 40
0.0
 40
0.0
 40
0.0
 40
0.041802146707033
 40
0.0834773119907251
 40
0.1252067539465352
 40
0.1667553111646444
 40
0.208343789897431
 40
0.2500683763875439
 40
0.2917172802014936
 40
0.3332298152280506
 40
0.3749213178163661
 40
0.4166401475748497
 40
0.4581957047388333
 40
0.4998271904370101
 40
0.5415736637950209
 40
0.5832410842716478
 40
0.624816154537611
 40
0.6665619264699779
 40
0.7082962697793289
 40
0.7498773808560844
 40
0.7916005699338539
 40
0.8333637303001521
 40
0.8749600854558802
 40
0.9166279211224443
 40
0.9583871623503707
 40
1.0
 40
1.0
 40
1.0
 40
1.0
 10
138.9468682887116
 20
82.18306897509889
 30
0.0
 10
138.9478091343717
 20
82.18535731051044
 30
0.0
 10
138.9496879677066
 20
82.1899270301095
 30
0.0
 10
138.953431809734
 20
82.19633898793091
 30
0.0
 10
138.9577599432958
 20
82.20233901036167
 30
0.0
 10
138.9626996361342
 20
82.20784636602347
 30
0.0
 10
138.9681883869659
 20
82.21280309708244
 30
0.0
 10
138.9741510500045
 20
82.21718712362122
 30
0.0
 10
138.9805125984104
 20
82.22096067023921
 30
0.0
 10
138.987219418669
 20
82.22407509142391
 30
0.0
 10
138.9942027134691
 20
82.22651714399821
 30
0.0
 10
139.0013890673386
 20
82.22828323923301
 30
0.0
 10
139.0087086135622
 20
82.22935191594007
 30
0.0
 10
139.0160990505015
 20
82.22970014779429
 30
0.0
 10
139.0234952177107
 20
82.22934663471223
 30
0.0
 10
139.0308220748151
 20
82.2282955947746
 30
0.0
 10
139.0380114766004
 20
82.22653348857972
 30
0.0
 10
139.0449990781097
 20
82.2240801512594
 30
0.0
 10
139.0517187295914
 20
82.22096543921288
 30
0.0
 10
139.0580951169467
 20
82.2171985866201
 30
0.0
 10
139.0640576029753
 20
82.21280276009456
 30
0.0
 10
139.0695505228193
 20
82.20783217056496
 30
0.0
 10
139.0745062466886
 20
82.20232634494718
 30
0.0
 10
139.0788301444165
 20
82.19631726713372
 30
0.0
 10
139.0825593679788
 20
82.18990879313786
 30
0.0
 10
139.0844387570788
 20
82.18534624379272
 30
0.0
 10
139.0853768015003
 20
82.18306897509889
 30
0.0
  0
LINE
  5
10B
330
1F
100
AcDbEntity
  8
0
  6
Continuous
 62
     7
370
    25
100
AcDbLine
 10
139.3487175825
 20
81.4802472025
 30
0.0
 11
139.0853768113
 21
82.183069085
 31
0.0
  0
SPLINE
  5
10C
330
1F
100
AcDbEntity
  8
0
  6
Continuous
 62
     7
370
    25
100
AcDbSpline
210
0.0
220
0.0
230
1.0
 70
     8
 71
     3
 72
    15
 73
    11
 74
     0
 42
0.000000001
 43
0.00000001
 40
0.0
 40
0.0
 40
0.0
 40
0.0
 40
0.1255482376299943
 40
0.2506612331927046
 40
0.3755698012986847
 40
0.5003109015749712
 40
0.6252467103373207
 40
0.7502075817355112
 40
0.874985997901262
 40
1.0
 40
1.0
 40
1.0
 40
1.0
 10
139.3487176888566
 20
81.48024715823593
 30
0.0
 10
139.3503327343238
 20
81.47473197153292
 30
0.0
 10
139.3535572263289
 20
81.4637207178
 30
0.0
 10
139.3528997226106
 20
81.44635165853062
 30
0.0
 10
139.3481691614868
 20
81.42980681789781
 30
0.0
 10
139.3394225883537
 20
81.41495564848836
 30
0.0
 10
139.3273928832913
 20
81.4026251595239
 30
0.0
 10
139.3128149345685
 20
81.39353275203057
 30
0.0
 10
139.2965614909876
 20
81.38768107898204
 30
0.0
 10
139.2851663676222
 20
81.38694554223989
 30
0.0
 10
139.2794634324162
 20
81.38657742701656
 30
0.0
  0
SPLINE
  5
10D
330
1F
100
AcDbEntity
  8
0
  6
Continuous
 62
     7
370
    25
100
AcDbSpline
210
0.0
220
0.0
230
1.0
 70
     8
 71
     3
 72
    15
 73
    11
 74
     0
 42
0.000000001
 43
0.00000001
 40
0.0
 40
0.0
 40
0.0
 40
0.0
 40
0.1247517205531464
 40
0.2498857245441838
 40
0.3745674687454417
 40
0.4993106804387823
 40
0.6244677860264319
 40
0.7493917290903895
 40
0.8741574726928457
 40
1.0
 40
1.0
 40
1.0
 40
1.0
 10
138.7527816546935
 20
81.38657742701656
 30
0.0
 10
138.7470905299037
 20
81.38694216950611
 30
0.0
 10
138.7356908407029
 20
81.3876727721853
 30
0.0
 10
138.7194440431379
 20
81.39352472944394
 30
0.0
 10
138.7048761159695
 20
81.40261892025288
 30
0.0
 10
138.6928290369881
 20
81.41492744466694
 30
0.0
 10
138.6840741358119
 20
81.42979117743712
 30
0.0
 10
138.6793602496448
 20
81.44634333625548
 30
0.0
 10
138.6786861087544
 20
81.46370819308343
 30
0.0
 10
138.6819090192145
 20
81.47471840090002
 30
0.0
 10
138.6835273983531
 20
81.48024715848167
 30
0.0
  0
LINE
  5
10E
330
1F
100
AcDbEntity
  8
0
  6
Continuous
 62
     7
370
    25
100
AcDbLine
 10
138.7527817293
 20
81.3865773391
 30
0.0
 11
139.2794635045
 21
81.3865773391
 31
0.0
  0
SPLINE
  5
10F
330
1F
100
AcDbEntity
  8
0
  6
Continuous
 62
     7
370
    25
100
AcDbSpline
210
0.0
220
0.0
230
1.0
 70
     8
 71
     3
 72
     9
 73
     5
 74
     0
 42
0.000000001
 43
0.00000001
 40
0.0
 40
0.0
 40
0.0
 40
0.0
 40
0.5
 40
1.0
 40
1.0
 40
1.0
 40
1.0
 10
127.0161225433526
 20
81.25889626560061
 30
0.0
 10
127.1470222372521
 20
81.25889626560061
 30
0.0
 10
127.4078386731676
 20
81.20487477990115
 30
0.0
 10
127.5161225433526
 20
81.07475668069645
 30
0.0
 10
127.5161225433526
 20
81.00945243981569
 30
0.0
  0
SPLINE
  5
110
330
1F
100
AcDbEntity
  8
0
  6
Continuous
 62
     7
370
    25
100
AcDbSpline
210
0.0
220
0.0
230
1.0
 70
     8
 71
     3
 72
     9
 73
     5
 74
     0
 42
0.000000001
 43
0.00000001
 40
0.0
 40
0.0
 40
0.0
 40
0.0
 40
0.5
 40
1.0
 40
1.0
 40
1.0
 40
1.0
 10
143.0161225433526
 20
88.24332338757864
 30
0.0
 10
142.885222849453
 20
88.24332338757864
 30
0.0
 10
142.6244064135375
 20
88.2973448732781
 30
0.0
 10
142.5161225433526
 20
88.4274629724828
 30
0.0
 10
142.5161225433526
 20
88.49276721336356
 30
0.0
  0
SPLINE
  5
111
330
1F
100
AcDbEntity
  8
0
  6
Continuous
 62
     7
370
    25
100
AcDbSpline
210
0.0
220
0.0
230
1.0
 70
     8
 71
     3
 72
     9
 73
     5
 74
     0
 42
0.000000001
 43
0.00000001
 40
0.0
 40
0.0
 40
0.0
 40
0.0
 40
0.5
 40
1.0
 40
1.0
 40
1.0
 40
1.0
 10
131.5239089823636
 20
92.75110982658963
 30
0.0
 10
131.5239089823636
 20
92.62021013269006
 30
0.0
 10
131.4698874966641
 20
92.35939369677459
 30
0.0
 10
131.3397693974594
 20
92.25110982658963
 30
0.0
 10
131.2744651565787
 20
92.25110982658963
 30
0.0
  0
SPLINE
  5
112
330
1F
100
AcDbEntity
  8
0
  6
Continuous
 62
     7
370
    25
100
AcDbSpline
210
0.0
220
0.0
230
1.0
 70
     8
 71
     3
 72
     9
 73
     5
 74
     0
 42
0.000000001
 43
0.00000001
 40
0.0
 40
0.0
 40
0.0
 40
0.0
 40
0.5
 40
1.0
 40
1.0
 40
1.0
 40
1.0
 10
138.7577799301265
 20
92.25110982658963
 30
0.0
 10
138.6924756892458
 20
92.25110982658963
 30
0.0
 10
138.562357590041
 20
92.35939369677459
 30
0.0
 10
138.5083361043416
 20
92.62021013269005
 30
0.0
 10
138.5083361043416
 20
92.75110982658963
 30
0.0
  0
SPLINE
  5
113
330
1F
100
AcDbEntity
  8
0
  6
Continuous
 62
     7
370
    25
100
AcDbSpline
210
0.0
220
0.0
230
1.0
 70
     8
 71
     3
 72
     9
 73
     5
 74
     0
 42
0.000000001
 43
0.00000001
 40
0.0
 40
0.0
 40
0.0
 40
0.0
 40
0.5
 40
1.0
 40
1.0
 40
1.0
 40
1.0
 10
142.5161225433526
 20
81.00945243981569
 30
0.0
 10
142.5161225433526
 20
81.07475668069645
 30
0.0
 10
142.6244064135375
 20
81.20487477990116
 30
0.0
 10
142.885222849453
 20
81.25889626560063
 30
0.0
 10
143.0161225433526
 20
81.25889626560063
 30
0.0
  0
SPLINE
  5
114
330
1F
100
AcDbEntity
  8
0
  6
Continuous
 62
     7
370
    25
100
AcDbSpline
210
0.0
220
0.0
230
1.0
 70
     8
 71
     3
 72
     9
 73
     5
 74
     0
 42
0.000000001
 43
0.00000001
 40
0.0
 40
0.0
 40
0.0
 40
0.0
 40
0.5
 40
1.0
 40
1.0
 40
1.0
 40
1.0
 10
127.5161225433526
 20
88.49276721336356
 30
0.0
 10
127.5161225433526
 20
88.4274629724828
 30
0.0
 10
127.4078386731676
 20
88.2973448732781
 30
0.0
 10
127.1470222372522
 20
88.24332338757864
 30
0.0
 10
127.0161225433526
 20
88.24332338757864
 30
0.0
  0
LINE
  5
115
330
1F
100
AcDbEntity
  8
0
  6
Continuous
 62
     7
370
    25
100
AcDbLine
 10
127.5060010972
 20
79.1964672983
 30
0.0
 11
127.516122711
 21
79.2510162585
 31
0.0
  0
SPLINE
  5
116
330
1F
100
AcDbEntity
  8
0
  6
Continuous
 62
     7
370
    25
100
AcDbSpline
210
0.0
220
0.0
230
1.0
 70
     8
 71
     3
 72
    11
 73
     7
 74
     0
 42
0.000000001
 43
0.00000001
 40
0.0
 40
0.0
 40
0.0
 40
0.0
 40
0.2813371813345898
 40
0.4847351098322705
 40
0.7599089647777694
 40
1.0
 40
1.0
 40
1.0
 40
1.0
 10
127.0161225433526
 20
78.68444315992295
 30
0.0
 10
127.0410304607819
 20
78.7088184668907
 30
0.0
 10
127.083946018667
 20
78.7508163537116
 30
0.0
 10
127.1510726376511
 20
78.80920586130442
 30
0.0
 10
127.2150122769137
 20
78.85923754159498
 30
0.0
 10
127.2601436769717
 20
78.88741146698999
 30
0.0
 10
127.2811729470961
 20
78.90053929122844
 30
0.0
  0
LINE
  5
117
330
1F
100
AcDbEntity
  8
0
  6
Continuous
 62
     7
370
    25
100
AcDbLine
 10
127.8323900784
 20
78.7861377478
 30
0.0
 11
128.016029195
 21
78.7511097744
 31
0.0
  0
SPLINE
  5
118
330
1F
100
AcDbEntity
  8
0
  6
Continuous
 62
     7
370
    25
100
AcDbSpline
210
0.0
220
0.0
230
1.0
 70
     8
 71
     3
 72
    12
 73
     8
 74
     0
 42
0.000000001
 43
0.00000001
 40
0.0
 40
0.0
 40
0.0
 40
0.0
 40
0.156133543665343
 40
0.327879147000269
 40
0.5152978781378685
 40
0.7186269797895557
 40
1.0
 40
1.0
 40
1.0
 40
1.0
 10
142.7510710528527
 20
78.90056038002996
 30
0.0
 10
142.7647225312913
 20
78.8922296591541
 30
0.0
 10
142.7933905228113
 20
78.87473521439517
 30
0.0
 10
142.8389631064701
 20
78.84205171878791
 30
0.0
 10
142.8889088732721
 20
78.8025725218272
 30
0.0
 10
142.9482953820598
 20
78.75078580860331
 30
0.0
 10
142.9912101918389
 20
78.7088102623164
 30
0.0
 10
143.0161225433526
 20
78.68444315992295
 30
0.0
  0
LINE
  5
119
330
1F
100
AcDbEntity
  8
0
  6
Continuous
 62
     7
370
    25
100
AcDbLine
 10
142.5161223757
 20
79.2510805197
 30
0.0
 11
142.5344154137
 21
79.1973441385
 31
0.0
  0
SPLINE
  5
11A
330
1F
100
AcDbEntity
  8
0
  6
Continuous
 62
     7
370
    25
100
AcDbSpline
210
0.0
220
0.0
230
1.0
 70
     8
 71
     3
 72
     9
 73
     5
 74
     0
 42
0.000000001
 43
0.00000001
 40
0.0
 40
0.0
 40
0.0
 40
0.0
 40
0.5
 40
1.0
 40
1.0
 40
1.0
 40
1.0
 10
140.1494558766859
 20
92.75110982658963
 30
0.0
 10
140.1494558766859
 20
92.62021013269006
 30
0.0
 10
140.2288660900927
 20
92.35939648123528
 30
0.0
 10
140.4201294344929
 20
92.25110982658963
 30
0.0
 10
140.5161225433526
 20
92.25110982658963
 30
0.0
  0
SPLINE
  5
11B
330
1F
100
AcDbEntity
  8
0
  6
Continuous
 62
     7
370
    25
100
AcDbSpline
210
0.0
220
0.0
230
1.0
 70
     8
 71
     3
 72
     9
 73
     5
 74
     0
 42
0.000000001
 43
0.00000001
 40
0.0
 40
0.0
 40
0.0
 40
0.0
 40
0.5
 40
1.0
 40
1.0
 40
1.0
 40
1.0
 10
127.0161225433526
 20
89.88444315992297
 30
0.0
 10
127.1470222372522
 20
89.88444315992297
 30
0.0
 10
127.4078358887069
 20
89.96385337332978
 30
0.0
 10
127.5161225433526
 20
90.15511671772994
 30
0.0
 10
127.5161225433526
 20
90.25110982658963
 30
0.0
  0
SPLINE
  5
11C
330
1F
100
AcDbEntity
  8
0
  6
Continuous
 62
     7
370
    25
100
AcDbSpline
210
0.0
220
0.0
230
1.0
 70
     8
 71
     3
 72
     9
 73
     5
 74
     0
 42
0.000000001
 43
0.00000001
 40
0.0
 40
0.0
 40
0.0
 40
0.0
 40
0.5
 40
1.0
 40
1.0
 40
1.0
 40
1.0
 10
142.5161225433526
 20
90.25110982658963
 30
0.0
 10
142.5161225433526
 20
90.15511671772994
 30
0.0
 10
142.6244091979982
 20
89.96385337332978
 30
0.0
 10
142.885222849453
 20
89.88444315992295
 30
0.0
 10
143.0161225433526
 20
89.88444315992295
 30
0.0
  0
SPLINE
  5
11D
330
1F
100
AcDbEntity
  8
0
  6
Continuous
 62
     7
370
    25
100
AcDbSpline
210
0.0
220
0.0
230
1.0
 70
     8
 71
     3
 72
     9
 73
     5
 74
     0
 42
0.000000001
 43
0.00000001
 40
0.0
 40
0.0
 40
0.0
 40
0.0
 40
0.5
 40
1.0
 40
1.0
 40
1.0
 40
1.0
 10
129.5161225433526
 20
92.25110982658963
 30
0.0
 10
129.6121156522123
 20
92.25110982658963
 30
0.0
 10
129.8033789966124
 20
92.35939648123528
 30
0.0
 10
129.8827892100192
 20
92.62021013269006
 30
0.0
 10
129.8827892100192
 20
92.75110982658963
 30
0.0
  0
SPLINE
  5
11E
330
1F
100
AcDbEntity
  8
0
  6
Continuous
 62
     7
370
    25
100
AcDbSpline
210
0.0
220
0.0
230
1.0
 70
     8
 71
     3
 72
     8
 73
     4
 74
     0
 42
0.000000001
 43
0.00000001
 40
0.0
 40
0.0
 40
0.0
 40
0.0
 40
1.0
 40
1.0
 40
1.0
 40
1.0
 10
140.7315986098467
 20
92.53275420003409
 30
0.0
 10
140.6898667066917
 20
92.37586034012472
 30
0.0
 10
140.7278534980226
 20
92.22183316184366
 30
0.0
 10
140.8279847218316
 20
92.14193201331186
 30
0.0
  0
SPLINE
  5
11F
330
1F
100
AcDbEntity
  8
0
  6
Continuous
 62
     7
370
    25
100
AcDbSpline
210
0.0
220
0.0
230
1.0
 70
     8
 71
     3
 72
     9
 73
     5
 74
     0
 42
0.000000001
 43
0.00000001
 40
0.0
 40
0.0
 40
0.0
 40
0.0
 40
0.5
 40
1.0
 40
1.0
 40
1.0
 40
1.0
 10
142.7977669167971
 20
90.4665858930837
 30
0.0
 10
142.7193199868424
 20
90.44571994150623
 30
0.0
 10
142.5625247657544
 20
90.44138812685566
 30
0.0
 10
142.4468953043407
 20
90.51290639316414
 30
0.0
 10
142.4069447300748
 20
90.5629720050686
 30
0.0
  0
SPLINE
  5
120
330
1F
100
AcDbEntity
  8
0
  6
Continuous
 62
     7
370
    25
100
AcDbSpline
210
0.0
220
0.0
230
1.0
 70
     8
 71
     3
 72
     9
 73
     5
 74
     0
 42
0.000000001
 43
0.00000001
 40
0.0
 40
0.0
 40
0.0
 40
0.0
 40
0.5
 40
1.0
 40
1.0
 40
1.0
 40
1.0
 10
129.3006464768585
 20
92.53275420003409
 30
0.0
 10
129.321512428436
 20
92.4543072700794
 30
0.0
 10
129.3258442430866
 20
92.29751204899142
 30
0.0
 10
129.2543259767781
 20
92.18188258757777
 30
0.0
 10
129.2042603648736
 20
92.14193201331186
 30
0.0
  0
SPLINE
  5
121
330
1F
100
AcDbEntity
  8
0
  6
Continuous
 62
     7
370
    25
100
AcDbSpline
210
0.0
220
0.0
230
1.0
 70
     8
 71
     3
 72
     9
 73
     5
 74
     0
 42
0.000000001
 43
0.00000001
 40
0.0
 40
0.0
 40
0.0
 40
0.0
 40
0.5
 40
1.0
 40
1.0
 40
1.0
 40
1.0
 10
127.6253003566303
 20
90.5629720050686
 30
0.0
 10
127.5853497823644
 20
90.51290639316414
 30
0.0
 10
127.4697203209508
 20
90.44138812685566
 30
0.0
 10
127.3129250998628
 20
90.44571994150623
 30
0.0
 10
127.2344781699081
 20
90.4665858930837
 30
0.0
  0
SPLINE
  5
122
330
1F
100
AcDbEntity
  8
0
  6
Continuous
 62
     7
370
    25
100
AcDbSpline
210
0.0
220
0.0
230
1.0
 70
     8
 71
     3
 72
    10
 73
     6
 74
     0
 42
0.000000001
 43
0.00000001
 40
0.0
 40
0.0
 40
0.0
 40
0.0
 40
0.499999999999999
 40
0.499999999999999
 40
1.0
 40
1.0
 40
1.0
 40
1.0
 10
142.7510710528527
 20
78.90056038002996
 30
0.0
 10
142.7174915301792
 20
78.8546169066119
 30
0.0
 10
142.6756847024272
 20
78.81589967221353
 30
0.0
 10
142.5837659188729
 20
78.76406779571441
 30
0.0
 10
142.5339318073306
 20
78.75110982658963
 30
0.0
 10
142.4860350556708
 20
78.75110982658963
 30
0.0
  0
SPLINE
  5
123
330
1F
100
AcDbEntity
  8
0
  6
Continuous
 62
     7
370
    25
100
AcDbSpline
210
0.0
220
0.0
230
1.0
 70
    24
 71
     3
 72
    11
 73
     7
 74
     0
 42
0.000000001
 43
0.00000001
 40
0.0
 40
0.0
 40
0.0
 40
0.0
 40
0.2767778395911417
 40
0.5553076326901417
 40
0.8530198398008104
 40
1.0
 40
1.0
 40
1.0
 40
1.0
 10
142.486035068619
 20
78.75110977443556
 30
0.0
 10
142.416514645492
 20
78.75110977443556
 30
0.0
 10
142.2770337475731
 20
78.75110977443556
 30
0.0
 10
142.1412977433149
 20
78.75110977443558
 30
0.0
 10
142.0544973869747
 20
78.75110977443556
 30
0.0
 10
142.0421121872488
 20
78.75110977443558
 30
0.0
 10
142.0380186188099
 20
78.75110977443556
 30
0.0
  0
SPLINE
  5
124
330
1F
100
AcDbEntity
  8
0
  6
Continuous
 62
     7
370
    25
100
AcDbSpline
210
0.0
220
0.0
230
1.0
 70
     8
 71
     3
 72
    10
 73
     6
 74
     0
 42
0.000000001
 43
0.00000001
 40
0.0
 40
0.0
 40
0.0
 40
0.0
 40
0.5
 40
0.5
 40
1.0
 40
1.0
 40
1.0
 40
1.0
 10
127.2811729470961
 20
78.90053929122844
 30
0.0
 10
127.314748152701
 20
78.8546022506426
 30
0.0
 10
127.3565494694029
 20
78.81589049582577
 30
0.0
 10
127.448456000505
 20
78.76406596043687
 30
0.0
 10
127.4982834148829
 20
78.75110982658963
 30
0.0
 10
127.5461737548475
 20
78.75110982658963
 30
0.0
  0
SPLINE
  5
125
330
1F
100
AcDbEntity
  8
0
  6
Continuous
 62
     7
370
    25
100
AcDbSpline
210
0.0
220
0.0
230
1.0
 70
    24
 71
     3
 72
    11
 73
     7
 74
     0
 42
0.000000001
 43
0.00000001
 40
0.0
 40
0.0
 40
0.0
 40
0.0
 40
0.2043000103634868
 40
0.4140672716802192
 40
0.7075943768723066
 40
1.0
 40
1.0
 40
1.0
 40
1.0
 10
127.9938846725104
 20
78.75110977443556
 30
0.0
 10
127.9815008871742
 20
78.75110977443556
 30
0.0
 10
127.9564019153333
 20
78.75110977443556
 30
0.0
 10
127.8754974660189
 20
78.75110977443556
 30
0.0
 10
127.7542189072985
 20
78.75110977443556
 30
0.0
 10
127.6154335545096
 20
78.75110977443556
 30
0.0
 10
127.5461736965058
 20
78.75110977443556
 30
0.0
  0
SPLINE
  5
126
330
1F
100
AcDbEntity
  8
0
  6
Continuous
 62
     7
370
    25
100
AcDbSpline
210
0.0
220
0.0
230
1.0
 70
    24
 71
     3
 72
     8
 73
     4
 74
     0
 42
0.000000001
 43
0.00000001
 40
0.0
 40
0.0
 40
0.0
 40
0.0
 40
1.0
 40
1.0
 40
1.0
 40
1.0
 10
142.0161225433526
 20
90.81777649325629
 30
0.0
 10
142.0161225433526
 20
90.77434709078447
 30
0.0
 10
142.0161225433526
 20
90.75110982658963
 30
0.0
 10
142.0161225433526
 20
90.75110982658963
 30
0.0
  0
SPLINE
  5
127
330
1F
100
AcDbEntity
  8
0
  6
Continuous
 62
     7
370
    25
100
AcDbSpline
210
0.0
220
0.0
230
1.0
 70
    24
 71
     3
 72
     8
 73
     4
 74
     0
 42
0.000000001
 43
0.00000001
 40
0.0
 40
0.0
 40
0.0
 40
0.0
 40
1.0
 40
1.0
 40
1.0
 40
1.0
 10
128.9494558766859
 20
91.75110982658963
 30
0.0
 10
128.9928852791577
 20
91.75110982658963
 30
0.0
 10
129.0161225433526
 20
91.75110982658963
 30
0.0
 10
129.0161225433526
 20
91.75110982658963
 30
0.0
  0
SPLINE
  5
128
330
1F
100
AcDbEntity
  8
0
  6
Continuous
 62
     7
370
    25
100
AcDbSpline
210
0.0
220
0.0
230
1.0
 70
    24
 71
     3
 72
     8
 73
     4
 74
     0
 42
0.000000001
 43
0.00000001
 40
0.0
 40
0.0
 40
0.0
 40
0.0
 40
1.0
 40
1.0
 40
1.0
 40
1.0
 10
128.0161225433526
 20
90.75110982658963
 30
0.0
 10
128.0161225433526
 20
90.75110982658963
 30
0.0
 10
128.0161225433526
 20
90.77434709078447
 30
0.0
 10
128.0161225433526
 20
90.8177764932563
 30
0.0
  0
SPLINE
  5
129
330
1F
100
AcDbEntity
  8
0
  6
Continuous
 62
     7
370
    25
100
AcDbSpline
210
0.0
220
0.0
230
1.0
 70
    24
 71
     3
 72
     8
 73
     4
 74
     0
 42
0.000000001
 43
0.00000001
 40
0.0
 40
0.0
 40
0.0
 40
0.0
 40
1.0
 40
1.0
 40
1.0
 40
1.0
 10
141.0827892100192
 20
91.75110982658963
 30
0.0
 10
141.0393598075474
 20
91.75110982658963
 30
0.0
 10
141.0161225433526
 20
91.75110982658963
 30
0.0
 10
141.0161225433526
 20
91.75110982658963
 30
0.0
  0
SPLINE
  5
12A
330
1F
100
AcDbEntity
  8
0
  6
Continuous
 62
     7
370
    25
100
AcDbSpline
210
0.0
220
0.0
230
1.0
 70
     8
 71
     3
 72
    11
 73
     7
 74
     0
 42
0.000000001
 43
0.00000001
 40
0.0
 40
0.0
 40
0.0
 40
0.0
 40
0.2796925902103931
 40
0.4824920995717302
 40
0.7583389673489331
 40
0.9999999999999999
 40
0.9999999999999999
 40
0.9999999999999999
 40
0.9999999999999999
 10
143.0161225433526
 20
78.68444315992295
 30
0.0
 10
142.9661248817077
 20
78.69523263886727
 30
0.0
 10
142.8798749144755
 20
78.71384535343797
 30
0.0
 10
142.7448904678126
 20
78.73427650408122
 30
0.0
 10
142.617598925098
 20
78.74822154992171
 30
0.0
 10
142.527914878672
 20
78.75019042131402
 30
0.0
 10
142.4860350556708
 20
78.75110982658963
 30
0.0
  0
SPLINE
  5
12B
330
1F
100
AcDbEntity
  8
0
  6
Continuous
 62
     7
370
    25
100
AcDbSpline
210
0.0
220
0.0
230
1.0
 70
     8
 71
     3
 72
    12
 73
     8
 74
     0
 42
0.000000001
 43
0.00000001
 40
0.0
 40
0.0
 40
0.0
 40
0.0
 40
0.1573492972449686
 40
0.3298380470016292
 40
0.5175259235705421
 40
0.7203120516631307
 40
1.0
 40
1.0
 40
1.0
 40
1.0
 10
127.5461737548474
 20
78.75110982658963
 30
0.0
 10
127.5189666973197
 20
78.75071466314174
 30
0.0
 10
127.4619348396835
 20
78.74988631536908
 30
0.0
 10
127.3711577829263
 20
78.74328587626547
 30
0.0
 10
127.2716885622009
 20
78.73199126458061
 30
0.0
 10
127.152353867464
 20
78.71381111911617
 30
0.0
 10
127.0661148787115
 20
78.69522021780132
 30
0.0
 10
127.0161225433526
 20
78.68444315992295
 30
0.0
  0
SPLINE
  5
12C
330
1F
100
AcDbEntity
  8
0
  6
Continuous
 62
     7
370
    25
100
AcDbSpline
210
0.0
220
0.0
230
1.0
 70
     8
 71
     3
 72
     9
 73
     5
 74
     0
 42
0.000000001
 43
0.00000001
 40
0.0
 40
0.0
 40
0.0
 40
0.0
 40
0.5
 40
1.0
 40
1.0
 40
1.0
 40
1.0
 10
141.2194727121289
 20
91.39755643599283
 30
0.0
 10
141.2414568598781
 20
91.29514366801281
 30
0.0
 10
141.3557272513501
 20
91.09071453458718
 30
0.0
 10
141.5601563847758
 20
90.97644414311517
 30
0.0
 10
141.6625691527558
 20
90.95445999536594
 30
0.0
  0
SPLINE
  5
12D
330
1F
100
AcDbEntity
  8
0
  6
Continuous
 62
     7
370
    25
100
AcDbSpline
210
0.0
220
0.0
230
1.0
 70
     8
 71
     3
 72
     9
 73
     5
 74
     0
 42
0.000000001
 43
0.00000001
 40
0.0
 40
0.0
 40
0.0
 40
0.0
 40
0.5
 40
1.0
 40
1.0
 40
1.0
 40
1.0
 10
128.3696759339458
 20
90.95445999536922
 30
0.0
 10
128.472088701926
 20
90.97644414311839
 30
0.0
 10
128.6765178353518
 20
91.09071453459038
 30
0.0
 10
128.7907882268238
 20
91.29514366801621
 30
0.0
 10
128.812772374573
 20
91.39755643599634
 30
0.0
  0
LINE
  5
12E
330
1F
100
AcDbEntity
  8
0
  6
Continuous
 62
     8
370
    25
100
AcDbLine
 10
121.5161221932
 20
84.7511098266
 30
0.0
 11
121.5161221932
 21
93.7511094392
 31
0.0
  0
LINE
  5
12F
330
1F
100
AcDbEntity
  8
0
  6
Continuous
 62
     8
370
    25
100
AcDbLine
 10
121.5161221932
 20
75.751110214
 30
0.0
 11
121.5161221932
 21
84.7511098266
 31
0.0
  0
LINE
  5
130
330
1F
100
AcDbEntity
  8
0
  6
Continuous
 62
     8
370
    25
100
AcDbLine
 10
126.0161229308
 20
98.2511101768
 30
0.0
 11
144.0161221559
 21
98.2511101768
 31
0.0
  0
LINE
  5
131
330
1F
100
AcDbEntity
  8
0
  6
Continuous
 62
     8
370
    25
100
AcDbLine
 10
148.5161228935
 20
93.7511094392
 30
0.0
 11
148.5161228935
 21
75.751110214
 31
0.0
  0
LINE
  5
132
330
1F
100
AcDbEntity
  8
0
  6
Continuous
 62
     8
370
    25
100
AcDbLine
 10
122.9858162711
 20
76.9511100382
 30
0.0
 11
122.9858162711
 21
92.551109615
 31
0.0
  0
LINE
  5
133
330
1F
100
AcDbEntity
  8
0
  6
Continuous
 62
     8
370
    25
100
AcDbLine
 10
147.0464288156
 20
92.551109615
 30
0.0
 11
147.0464288156
 21
76.9511100382
 31
0.0
  0
LINE
  5
134
330
1F
100
AcDbEntity
  8
0
  6
Continuous
 62
     8
370
    25
100
AcDbLine
 10
127.2161227549
 20
96.7814160988
 30
0.0
 11
142.8161223318
 21
96.7814160988
 31
0.0
  0
LINE
  5
135
330
1F
100
AcDbEntity
  8
0
  6
Continuous
 62
     8
370
    25
100
AcDbLine
 10
123.9656123231
 20
91.7511100427
 30
0.0
 11
123.9656123231
 21
77.7511096105
 31
0.0
  0
LINE
  5
136
330
1F
100
AcDbEntity
  8
0
  6
Continuous
 62
     8
370
    25
100
AcDbLine
 10
146.0666327636
 20
77.7511096105
 30
0.0
 11
146.0666327636
 21
91.7511100427
 31
0.0
  0
LINE
  5
137
330
1F
100
AcDbEntity
  8
0
  6
Continuous
 62
     8
370
    25
100
AcDbLine
 10
142.0161227594
 20
95.8016200468
 30
0.0
 11
128.0161223273
 21
95.8016200468
 31
0.0
  0
SPLINE
  5
138
330
1F
100
AcDbEntity
  8
0
  6
Continuous
 62
     8
370
    25
100
AcDbSpline
210
0.0
220
0.0
230
1.0
 70
     8
 71
     3
 72
    19
 73
    15
 74
     0
 42
0.000000001
 43
0.00000001
 40
0.0
 40
0.0
 40
0.0
 40
0.0
 40
0.0606727911926113
 40
0.1214874002643155
 40
0.1825081921994686
 40
0.2437988823923964
 40
0.3054223490615667
 40
0.3674404582586578
 40
0.4299139036293041
 40
0.4929020625848005
 40
0.6146975824539129
 40
0.7395812568283596
 40
0.8679067285909485
 40
1.0
 40
1.0
 40
1.0
 40
1.0
 10
142.5161225433542
 20
91.75110982658963
 30
0.0
 10
142.515451241706
 20
91.75048605843567
 30
0.0
 10
142.5141070692951
 20
91.74923706411872
 30
0.0
 10
142.5032473594192
 20
91.73913020331044
 30
0.0
 10
142.4859179281804
 20
91.72297844879652
 30
0.0
 10
142.4614800844459
 20
91.70017916442728
 30
0.0
 10
142.4301064609059
 20
91.67088924999572
 30
0.0
 10
142.3917507285881
 20
91.63506846304188
 30
0.0
 10
142.346427104972
 20
91.59273921254703
 30
0.0
 10
142.2780159063948
 20
91.52886606354895
 30
0.0
 10
142.1769703934428
 20
91.43460786872294
 30
0.0
 10
142.0314521454198
 20
91.29883056990272
 30
0.0
 10
141.8613999921755
 20
91.14007113473524
 30
0.0
 10
141.7294823046116
 20
91.01692428104215
 30
0.0
 10
141.6625691527593
 20
90.95445999536923
 30
0.0
  0
SPLINE
  5
139
330
1F
100
AcDbEntity
  8
0
  6
Continuous
 62
     8
370
    25
100
AcDbSpline
210
0.0
220
0.0
230
1.0
 70
     8
 71
     3
 72
    18
 73
    14
 74
     0
 42
0.000000001
 43
0.00000001
 40
0.0
 40
0.0
 40
0.0
 40
0.0
 40
0.0759716985786636
 40
0.1506710093718998
 40
0.2241554833695644
 40
0.296485571458475
 40
0.3677246633008381
 40
0.4379391034842293
 40
0.5071981812646982
 40
0.6326267587181382
 40
0.756240453292097
 40
0.8785294569467931
 40
1.0
 40
1.0
 40
1.0
 40
1.0
 10
128.3696759339458
 20
90.95445999536923
 30
0.0
 10
128.3307570202932
 20
90.9907884963505
 30
0.0
 10
128.2535710140118
 20
91.06283706199035
 30
0.0
 10
128.1468779912251
 20
91.16245237703158
 30
0.0
 10
128.0481746516592
 20
91.25459669276769
 30
0.0
 10
127.9580107111409
 20
91.3387499945495
 30
0.0
 10
127.8762451362238
 20
91.41504307531218
 30
0.0
 10
127.8029097057285
 20
91.48345705617272
 30
0.0
 10
127.7202084891106
 20
91.56061712192339
 30
0.0
 10
127.6373652574078
 20
91.6379895042608
 30
0.0
 10
127.5678398934447
 20
91.70292032121843
 30
0.0
 10
127.5242334025519
 20
91.7435769294865
 30
0.0
 10
127.5188201044217
 20
91.74860448782502
 30
0.0
 10
127.5161225433519
 20
91.75110982658963
 30
0.0
  0
SPLINE
  5
13A
330
1F
100
AcDbEntity
  8
0
  6
Continuous
 62
     8
370
    25
100
AcDbSpline
210
0.0
220
0.0
230
1.0
 70
    24
 71
     3
 72
     9
 73
     5
 74
     0
 42
0.000000001
 43
0.00000001
 40
-0.481733964059299
 40
-0.481733964059299
 40
-0.481733964059299
 40
-0.481733964059299
 40
-0.4129148263141913
 40
0.0000000001423262
 40
0.0000000001423262
 40
0.0000000001423262
 40
0.0000000001423262
 10
142.0160706037061
 20
92.25105417696845
 30
0.0
 10
142.0160971886123
 20
92.25108266079648
 30
0.0
 10
141.9775240214313
 20
92.20975426738825
 30
0.0
 10
141.6658632985419
 20
91.87583206429245
 30
0.0
 10
141.2194727121289
 20
91.39755643599283
 30
0.0
  0
SPLINE
  5
13B
330
1F
100
AcDbEntity
  8
0
  6
Continuous
 62
     8
370
    25
100
AcDbSpline
210
0.0
220
0.0
230
1.0
 70
    24
 71
     3
 72
     9
 73
     5
 74
     0
 42
0.000000001
 43
0.00000001
 40
-0.0000000000100284
 40
-0.0000000000100284
 40
-0.0000000000100284
 40
-0.0000000000100284
 40
0.412914826326082
 40
0.481733964058292
 40
0.481733964058292
 40
0.481733964058292
 40
0.481733964058292
 10
128.812772374573
 20
91.39755643599634
 30
0.0
 10
128.3663817882911
 20
91.87583206415556
 30
0.0
 10
128.054721065426
 20
92.20975426722524
 30
0.0
 10
128.0161478981142
 20
92.25108266077365
 30
0.0
 10
128.016174482999
 20
92.2510541769684
 30
0.0
  0
SPLINE
  5
13C
330
1F
100
AcDbEntity
  8
0
  6
Continuous
 62
     8
370
    25
100
AcDbSpline
210
0.0
220
0.0
230
1.0
 70
     8
 71
     3
 72
    12
 73
     8
 74
     0
 42
0.000000001
 43
0.00000001
 40
0.0
 40
0.0
 40
0.0
 40
0.0
 40
0.1646973236447365
 40
0.341712621123571
 40
0.5400570339626277
 40
0.8380246350087188
 40
1.0
 40
1.0
 40
1.0
 40
1.0
 10
127.2811728428182
 20
78.90053908454875
 30
0.0
 10
127.3039180173585
 20
78.91526687439278
 30
0.0
 10
127.3511095140877
 20
78.94582396882267
 30
0.0
 10
127.4053580084961
 20
78.99749467318273
 30
0.0
 10
127.4583765956153
 20
79.06393620637334
 30
0.0
 10
127.4971847640518
 20
79.13110998566223
 30
0.0
 10
127.5037049295435
 20
79.17944532926663
 30
0.0
 10
127.5060010972497
 20
79.19646729829411
 30
0.0
  0
SPLINE
  5
13D
330
1F
100
AcDbEntity
  8
0
  6
Continuous
 62
     8
370
    25
100
AcDbSpline
210
0.0
220
0.0
230
1.0
 70
     8
 71
     3
 72
     9
 73
     5
 74
     0
 42
0.000000001
 43
0.00000001
 40
0.0
 40
0.0
 40
0.0
 40
0.0
 40
0.4584340749503982
 40
1.0
 40
1.0
 40
1.0
 40
1.0
 10
142.5344154137251
 20
79.19734413849811
 30
0.0
 10
142.5433874211962
 20
79.14901922463952
 30
0.0
 10
142.5629584085233
 20
79.04360621871534
 30
0.0
 10
142.6849852614285
 20
78.95081374618923
 30
0.0
 10
142.751070846903
 20
78.90056050496797
 30
0.0
  0
SPLINE
  5
13E
330
1F
100
AcDbEntity
  8
0
  6
Continuous
 62
     8
370
    25
100
AcDbSpline
210
0.0
220
0.0
230
1.0
 70
     8
 71
     3
 72
    10
 73
     6
 74
     0
 42
0.000000001
 43
0.00000001
 40
0.0
 40
0.0
 40
0.0
 40
0.0
 40
0.248573228850268
 40
0.6467864389238261
 40
1.0
 40
1.0
 40
1.0
 40
1.0
 10
141.2420553985116
 20
91.14421601521472
 30
0.0
 10
141.234323523195
 20
91.16296121797649
 30
0.0
 10
141.2142052179157
 20
91.21173615241835
 30
0.0
 10
141.2043439985769
 20
91.29852885614295
 30
0.0
 10
141.2146352241062
 20
91.3658918055102
 30
0.0
 10
141.2194726887223
 20
91.39755624460678
 30
0.0
  0
SPLINE
  5
13F
330
1F
100
AcDbEntity
  8
0
  6
Continuous
 62
     8
370
    25
100
AcDbSpline
210
0.0
220
0.0
230
1.0
 70
     8
 71
     3
 72
    10
 73
     6
 74
     0
 42
0.000000001
 43
0.00000001
 40
0.0
 40
0.0
 40
0.0
 40
0.0
 40
0.248573228850268
 40
0.6467864389238261
 40
1.0
 40
1.0
 40
1.0
 40
1.0
 10
128.6230163547275
 20
90.97704268174867
 30
0.0
 10
128.6042711519657
 20
90.96931080643203
 30
0.0
 10
128.5554962175239
 20
90.94919250115281
 30
0.0
 10
128.4687035137993
 20
90.939331281814
 30
0.0
 10
128.401340564432
 20
90.94962250734329
 30
0.0
 10
128.3696761253354
 20
90.9544599719594
 30
0.0
  0
SPLINE
  5
140
330
1F
100
AcDbEntity
  8
0
  6
Continuous
 62
     8
370
    25
100
AcDbSpline
210
0.0
220
0.0
230
1.0
 70
     8
 71
     3
 72
    10
 73
     6
 74
     0
 42
0.000000001
 43
0.00000001
 40
0.0
 40
0.0
 40
0.0
 40
0.0
 40
0.3531919359855523
 40
0.7514407532050961
 40
1.0
 40
1.0
 40
1.0
 40
1.0
 10
141.6625689613697
 20
90.9544599719594
 30
0.0
 10
141.6309072797362
 20
90.94962247258319
 30
0.0
 10
141.5635448190729
 20
90.93933035148835
 30
0.0
 10
141.4767526910001
 20
90.94919178008611
 30
0.0
 10
141.4279764724194
 20
90.96930942521406
 30
0.0
 10
141.409232457268
 20
90.97704035344223
 30
0.0
  0
SPLINE
  5
141
330
1F
100
AcDbEntity
  8
0
  6
Continuous
 62
     8
370
    25
100
AcDbSpline
210
0.0
220
0.0
230
1.0
 70
     8
 71
     3
 72
    10
 73
     6
 74
     0
 42
0.000000001
 43
0.00000001
 40
0.0
 40
0.0
 40
0.0
 40
0.0
 40
0.3531919359855523
 40
0.7514407532050961
 40
1.0
 40
1.0
 40
1.0
 40
1.0
 10
128.8127723979828
 20
91.39755624460678
 30
0.0
 10
128.817609897359
 20
91.36589456297327
 30
0.0
 10
128.8279020184538
 20
91.29853210230993
 30
0.0
 10
128.8180405898561
 20
91.21173997423722
 30
0.0
 10
128.7979229447281
 20
91.16296375565643
 30
0.0
 10
128.7901920165
 20
91.14421974050502
 30
0.0
  0
LINE
  5
142
330
1F
100
AcDbEntity
  8
0
  6
CENTERX2
 62
     7
370
    18
100
AcDbLine
 10
135.0161225434
 20
111.2511098266
 30
0.0
 11
135.0161225434
 21
76.733970427
 31
0.0
  0
LINE
  5
143
330
1F
100
AcDbEntity
  8
0
  6
CENTERX2
 62
     7
370
    18
100
AcDbLine
 10
108.5161225434
 20
84.7511098266
 30
0.0
 11
161.5161225434
 21
84.7511098266
 31
0.0
  0
LINE
  5
144
330
1F
100
AcDbEntity
  8
0
  6
Continuous
 62
     7
370
    25
100
AcDbLine
 10
208.9209036588
 20
109.2511091858
 30
0.0
 11
208.4209045082
 21
109.7511101991
 31
0.0
  0
LINE
  5
145
330
1F
100
AcDbEntity
  8
0
  6
Continuous
 62
     7
370
    25
100
AcDbLine
 10
191.4209035843
 20
109.7511101991
 30
0.0
 11
190.9209044337
 21
109.2511091858
 31
0.0
  0
LINE
  5
146
330
1F
100
AcDbEntity
  8
0
  6
Continuous
 62
     7
370
    25
100
AcDbLine
 10
208.9209036588
 20
98.2511101768
 30
0.0
 11
208.9209036588
 21
109.2511091858
 31
0.0
  0
LINE
  5
147
330
1F
100
AcDbEntity
  8
0
  6
Continuous
 62
     7
370
    25
100
AcDbLine
 10
190.9209044337
 20
109.2511091858
 30
0.0
 11
190.9209044337
 21
98.2511101768
 31
0.0
  0
ARC
  5
148
330
1F
100
AcDbEntity
  8
0
  6
Continuous
 62
     7
370
    25
100
AcDbCircle
 10
192.4209040462
 20
98.2511098266
 30
0.0
 40
1.5
100
AcDbArc
 50
180.0
 51
258.4630409672
  0
ARC
  5
149
330
1F
100
AcDbEntity
  8
0
  6
Continuous
 62
     7
370
    25
100
AcDbCircle
 10
207.4209040462
 20
98.2511098266
 30
0.0
 40
1.5
100
AcDbArc
 50
281.5369590328
 51
0.0
  0
ARC
  5
14A
330
1F
100
AcDbEntity
  8
0
  6
Continuous
 62
     7
370
    25
100
AcDbCircle
 10
191.9209040462
 20
95.8016200838
 30
0.0
 40
1.0
100
AcDbArc
 50
0.0
 51
78.4630409672
  0
ARC
  5
14B
330
1F
100
AcDbEntity
  8
0
  6
Continuous
 62
     7
370
    25
100
AcDbCircle
 10
207.9209040462
 20
95.8016200838
 30
0.0
 40
1.0
100
AcDbArc
 50
101.5369590328
 51
180.0
  0
LINE
  5
14C
330
1F
100
AcDbEntity
  8
0
  6
Continuous
 62
     7
370
    25
100
AcDbLine
 10
192.9209038302
 20
95.8016200468
 30
0.0
 11
192.9209038302
 21
92.251109659
 31
0.0
  0
LINE
  5
14D
330
1F
100
AcDbEntity
  8
0
  6
Continuous
 62
     7
370
    25
100
AcDbLine
 10
206.9209042623
 20
92.251109659
 30
0.0
 11
206.9209042623
 21
95.8016200468
 31
0.0
  0
CIRCLE
  5
14E
330
1F
100
AcDbEntity
  8
0
  6
Continuous
 62
     7
370
    25
100
AcDbCircle
 10
199.9209040462
 20
84.7511098266
 30
0.0
 40
4.618423633796652
  0
CIRCLE
  5
14F
330
1F
100
AcDbEntity
  8
0
  6
Continuous
 62
     7
370
    25
100
AcDbCircle
 10
199.9209040462
 20
84.7511098266
 30
0.0
 40
5.0
  0
CIRCLE
  5
150
330
1F
100
AcDbEntity
  8
0
  6
Continuous
 62
     7
370
    25
100
AcDbCircle
 10
199.9209040462
 20
84.7511098266
 30
0.0
 40
8.5
  0
CIRCLE
  5
151
330
1F
100
AcDbEntity
  8
0
  6
Continuous
 62
     7
370
    25
100
AcDbCircle
 10
199.9209040462
 20
84.7511098266
 30
0.0
 40
9.0
  0
CIRCLE
  5
152
330
1F
100
AcDbEntity
  8
0
  6
Continuous
 62
     7
370
    25
100
AcDbCircle
 10
199.9209040462
 20
84.7511098266
 30
0.0
 40
4.342497099879523
  0
CIRCLE
  5
153
330
1F
100
AcDbEntity
  8
0
  6
Continuous
 62
     7
370
    25
100
AcDbCircle
 10
199.9209040462
 20
84.7511098266
 30
0.0
 40
4.282999999999987
  0
CIRCLE
  5
154
330
1F
100
AcDbEntity
  8
0
  6
Continuous
 62
     7
370
    25
100
AcDbCircle
 10
199.9209040462
 20
84.7511098266
 30
0.0
 40
2.000000000000028
  0
LINE
  5
155
330
1F
100
AcDbEntity
  8
0
  6
Continuous
 62
     7
370
    25
100
AcDbLine
 10
199.9209040462
 20
109.2511091858
 30
0.0
 11
190.9209044337
 21
109.2511091858
 31
0.0
  0
LINE
  5
156
330
1F
100
AcDbEntity
  8
0
  6
Continuous
 62
     7
370
    25
100
AcDbLine
 10
208.9209036588
 20
109.2511091858
 30
0.0
 11
199.9209040462
 21
109.2511091858
 31
0.0
  0
LINE
  5
157
330
1F
100
AcDbEntity
  8
0
  6
Continuous
 62
     7
370
    25
100
AcDbLine
 10
199.9209040462
 20
109.7511101991
 30
0.0
 11
208.4209045082
 21
109.7511101991
 31
0.0
  0
LINE
  5
158
330
1F
100
AcDbEntity
  8
0
  6
Continuous
 62
     7
370
    25
100
AcDbLine
 10
191.4209035843
 20
109.7511101991
 30
0.0
 11
199.9209040462
 21
109.7511101991
 31
0.0
  0
LINE
  5
159
330
1F
100
AcDbEntity
  8
0
  6
Continuous
 62
     7
370
    25
100
AcDbLine
 10
193.0558873958
 20
90.6161267787
 30
0.0
 11
193.0766153767
 21
90.5953987979
 31
0.0
  0
LINE
  5
15A
330
1F
100
AcDbEntity
  8
0
  6
Continuous
 62
     7
370
    25
100
AcDbLine
 10
193.1601899363
 20
90.6811270409
 30
0.0
 11
193.0558873958
 21
90.6161267787
 31
0.0
  0
LINE
  5
15B
330
1F
100
AcDbEntity
  8
0
  6
Continuous
 62
     7
370
    25
100
AcDbLine
 10
206.7859206967
 20
90.6161267787
 30
0.0
 11
206.6633558519
 21
90.6925082684
 31
0.0
  0
LINE
  5
15C
330
1F
100
AcDbEntity
  8
0
  6
Continuous
 62
     7
370
    25
100
AcDbLine
 10
206.7651927158
 20
90.5953987979
 30
0.0
 11
206.7859206967
 21
90.6161267787
 31
0.0
  0
SPLINE
  5
15D
330
1F
100
AcDbEntity
  8
0
  6
Continuous
 62
     7
370
    25
100
AcDbSpline
210
0.0
220
0.0
230
1.0
 70
     8
 71
     3
 72
     9
 73
     5
 74
     0
 42
0.000000001
 43
0.00000001
 40
0.0
 40
0.0
 40
0.0
 40
0.0
 40
0.1468917263368845
 40
1.0
 40
1.0
 40
1.0
 40
1.0
 10
206.8934777438098
 20
90.40765487703185
 30
0.0
 10
206.8918808255869
 20
90.41847629663805
 30
0.0
 10
206.881009428928
 20
90.49214565757521
 30
0.0
 10
206.8296963277843
 20
90.5590500705194
 30
0.0
 10
206.7859206966513
 20
90.61612677874666
 30
0.0
  0
SPLINE
  5
15E
330
1F
100
AcDbEntity
  8
0
  6
Continuous
 62
     7
370
    25
100
AcDbSpline
210
0.0
220
0.0
230
1.0
 70
     8
 71
     3
 72
    13
 73
     9
 74
     0
 42
0.000000001
 43
0.00000001
 40
0.0
 40
0.0
 40
0.0
 40
0.0
 40
0.1162222239500744
 40
0.2381780213579675
 40
0.3660917905452749
 40
0.5001580142688472
 40
0.7504239388829979
 40
1.0
 40
1.0
 40
1.0
 40
1.0
 10
193.0558872614438
 20
92.092815470112
 30
0.0
 10
193.0677247197745
 20
92.08036745949391
 30
0.0
 10
193.0919836119837
 20
92.05485734242602
 30
0.0
 10
193.1322697703411
 20
92.0133501694093
 30
0.0
 10
193.1764269612873
 20
91.96875741870431
 30
0.0
 10
193.2378412365813
 20
91.90825133540035
 30
0.0
 10
193.3178720385928
 20
91.8328475517385
 30
0.0
 10
193.3865916584554
 20
91.77833066675599
 30
0.0
 10
193.4209040462428
 20
91.75110984536302
 30
0.0
  0
SPLINE
  5
15F
330
1F
100
AcDbEntity
  8
0
  6
Continuous
 62
     7
370
    25
100
AcDbSpline
210
0.0
220
0.0
230
1.0
 70
     8
 71
     3
 72
    13
 73
     9
 74
     0
 42
0.000000001
 43
0.00000001
 40
0.0
 40
0.0
 40
0.0
 40
0.0
 40
0.1206933106363776
 40
0.2506349558809258
 40
0.4049363551860728
 40
0.501375099440844
 40
0.7702864432344702
 40
1.0
 40
1.0
 40
1.0
 40
1.0
 10
192.9209040462428
 20
91.75110982658963
 30
0.0
 10
192.9212917609887
 20
91.76596560488144
 30
0.0
 10
192.9220968997964
 20
91.79681551128564
 30
0.0
 10
192.9290469116298
 20
91.84539066275408
 30
0.0
 10
192.9398372204393
 20
91.8900803450358
 30
0.0
 10
192.9604570058383
 20
91.94984405442322
 30
0.0
 10
192.9929646898524
 20
92.01763606759812
 30
0.0
 10
193.0360418618556
 20
92.06910433997285
 30
0.0
 10
193.0558872614438
 20
92.092815470112
 30
0.0
  0
SPLINE
  5
160
330
1F
100
AcDbEntity
  8
0
  6
Continuous
 62
     7
370
    25
100
AcDbSpline
210
0.0
220
0.0
230
1.0
 70
    24
 71
     3
 72
    13
 73
     9
 74
     0
 42
0.000000001
 43
0.00000001
 40
0.0
 40
0.0
 40
0.0
 40
0.0
 40
0.1144647671590815
 40
0.291615705726434
 40
0.4684340794035635
 40
0.6458133828963049
 40
0.8225570207736255
 40
1.0
 40
1.0
 40
1.0
 40
1.0
 10
192.920903830176
 20
90.4142053343604
 30
0.0
 10
192.920903830176
 20
90.4422052124394
 30
0.0
 10
192.920903830176
 20
90.51353898971358
 30
0.0
 10
192.920903830176
 20
90.68494371253074
 30
0.0
 10
192.920903830176
 20
90.9116379142746
 30
0.0
 10
192.920903830176
 20
91.17326449285824
 30
0.0
 10
192.920903830176
 20
91.45626689891564
 30
0.0
 10
192.920903830176
 20
91.65269970923823
 30
0.0
 10
192.920903830176
 20
91.75111004265646
 30
0.0
  0
SPLINE
  5
161
330
1F
100
AcDbEntity
  8
0
  6
Continuous
 62
     7
370
    25
100
AcDbSpline
210
0.0
220
0.0
230
1.0
 70
     8
 71
     3
 72
    12
 73
     8
 74
     0
 42
0.000000001
 43
0.00000001
 40
0.0
 40
0.0
 40
0.0
 40
0.0
 40
0.1664615747826677
 40
0.3330490629245378
 40
0.50019385964186
 40
0.761981166969512
 40
1.0
 40
1.0
 40
1.0
 40
1.0
 10
206.4209040462428
 20
91.75110982658963
 30
0.0
 10
206.4438977211428
 20
91.76908364340457
 30
0.0
 10
206.4899024636105
 20
91.80504487262641
 30
0.0
 10
206.5554454264073
 20
91.86276180919451
 30
0.0
 10
206.629811621841
 20
91.93304653218573
 30
0.0
 10
206.7090831777068
 20
92.01238929608888
 30
0.0
 10
206.7611333689211
 20
92.06687036825639
 30
0.0
 10
206.7859208310419
 20
92.09281547011183
 30
0.0
  0
SPLINE
  5
162
330
1F
100
AcDbEntity
  8
0
  6
Continuous
 62
     7
370
    25
100
AcDbSpline
210
0.0
220
0.0
230
1.0
 70
     8
 71
     3
 72
    14
 73
    10
 74
     0
 42
0.000000001
 43
0.00000001
 40
0.0
 40
0.0
 40
0.0
 40
0.0
 40
0.1488603140964728
 40
0.3150272284381161
 40
0.4987644934539461
 40
0.5951852670853452
 40
0.7494348315821825
 40
0.8793203117440467
 40
1.0
 40
1.0
 40
1.0
 40
1.0
 10
206.7859208310419
 20
92.09281547011183
 30
0.0
 10
206.7991641881082
 20
92.07760471745215
 30
0.0
 10
206.8271905838412
 20
92.04541479979733
 30
0.0
 10
206.8612601369638
 20
91.99079078916789
 30
0.0
 10
206.8848140263167
 20
91.94008513215458
 30
0.0
 10
206.9019430982459
 20
91.89006849062599
 30
0.0
 10
206.912768138748
 20
91.84539477971843
 30
0.0
 10
206.9197093736967
 20
91.79681750829397
 30
0.0
 10
206.9205156968614
 20
91.76596791466768
 30
0.0
 10
206.9209040462428
 20
91.75110982658963
 30
0.0
  0
SPLINE
  5
163
330
1F
100
AcDbEntity
  8
0
  6
Continuous
 62
     7
370
    25
100
AcDbSpline
210
0.0
220
0.0
230
1.0
 70
    24
 71
     3
 72
    13
 73
     9
 74
     0
 42
0.000000001
 43
0.00000001
 40
0.0
 40
0.0
 40
0.0
 40
0.0
 40
0.1695817806945505
 40
0.3388103097035301
 40
0.508174029247671
 40
0.6776374365387978
 40
0.8467827107175723
 40
1.0
 40
1.0
 40
1.0
 40
1.0
 10
206.9209042623096
 20
91.75111004265646
 30
0.0
 10
206.9209042623096
 20
91.65280064221496
 30
0.0
 10
206.9209042623096
 20
91.45638662725452
 30
0.0
 10
206.9209042623096
 20
91.17347796558398
 30
0.0
 10
206.9209042623096
 20
90.91193476315729
 30
0.0
 10
206.9209042623096
 20
90.68469887653079
 30
0.0
 10
206.9209042623096
 20
90.49885988168914
 30
0.0
 10
206.9209042623096
 20
90.41744912528851
 30
0.0
 10
206.9209042623096
 20
90.37875500621895
 30
0.0
  0
SPLINE
  5
164
330
1F
100
AcDbEntity
  8
0
  6
Continuous
 62
     7
370
    25
100
AcDbSpline
210
0.0
220
0.0
230
1.0
 70
     8
 71
     3
 72
    14
 73
    10
 74
     0
 42
0.000000001
 43
0.00000001
 40
0.0
 40
0.0
 40
0.0
 40
0.0
 40
0.0771019312235469
 40
0.1604220744820928
 40
0.2500134459871365
 40
0.3625277437571762
 40
0.4999872830486552
 40
0.6965319223496549
 40
1.0
 40
1.0
 40
1.0
 40
1.0
 10
206.4874861100009
 20
92.59556664404732
 30
0.0
 10
206.5087508353016
 20
92.58143736715782
 30
0.0
 10
206.5529952698038
 20
92.55203929795807
 30
0.0
 10
206.6156540109946
 20
92.5135214017308
 30
0.0
 10
206.6810275348052
 20
92.47445887516558
 30
0.0
 10
206.7493728420484
 20
92.4341783687167
 30
0.0
 10
206.8230355595459
 20
92.38551967470033
 30
0.0
 10
206.9007984852613
 20
92.32408483549261
 30
0.0
 10
206.9133103414746
 20
92.27867188633903
 30
0.0
 10
206.9209040462428
 20
92.25110982658963
 30
0.0
  0
SPLINE
  5
165
330
1F
100
AcDbEntity
  8
0
  6
Continuous
 62
     7
370
    25
100
AcDbSpline
210
0.0
220
0.0
230
1.0
 70
     8
 71
     3
 72
    13
 73
     9
 74
     0
 42
0.000000001
 43
0.00000001
 40
0.0
 40
0.0
 40
0.0
 40
0.0
 40
0.1484645556295967
 40
0.3038520792699613
 40
0.4664576632792974
 40
0.6365388262431585
 40
0.814320596678755
 40
0.9999999999999999
 40
0.9999999999999999
 40
0.9999999999999999
 40
0.9999999999999999
 10
205.9875707129095
 20
92.75110982658963
 30
0.0
 10
206.0166456123431
 20
92.75023823921408
 30
0.0
 10
206.0761511866534
 20
92.74845442195746
 30
0.0
 10
206.161987949901
 20
92.7347467274687
 30
0.0
 10
206.2471554167786
 20
92.71312999055955
 30
0.0
 10
206.3304803006971
 20
92.68257591147187
 30
0.0
 10
206.4119555435456
 20
92.6438570582399
 30
0.0
 10
206.4619471658811
 20
92.61189494989047
 30
0.0
 10
206.4874861100009
 20
92.59556664404732
 30
0.0
  0
LINE
  5
166
330
1F
100
AcDbEntity
  8
0
  6
Continuous
 62
     7
370
    25
100
AcDbLine
 10
204.6799889452
 20
92.7511102066
 30
0.0
 11
205.9875704966
 21
92.7511102066
 31
0.0
  0
LINE
  5
167
330
1F
100
AcDbEntity
  8
0
  6
Continuous
 62
     7
370
    25
100
AcDbLine
 10
193.8542375959
 20
92.7511102066
 30
0.0
 11
195.1618191473
 21
92.7511102066
 31
0.0
  0
SPLINE
  5
168
330
1F
100
AcDbEntity
  8
0
  6
Continuous
 62
     7
370
    25
100
AcDbSpline
210
0.0
220
0.0
230
1.0
 70
     8
 71
     3
 72
    13
 73
     9
 74
     0
 42
0.000000001
 43
0.00000001
 40
0.0
 40
0.0
 40
0.0
 40
0.0
 40
0.1856794033212454
 40
0.3634611737568486
 40
0.5335423367207065
 40
0.6961479207300426
 40
0.8515354443704023
 40
1.0
 40
1.0
 40
1.0
 40
1.0
 10
193.3543219824847
 20
92.59556664404732
 30
0.0
 10
193.3798609266045
 20
92.61189494989047
 30
0.0
 10
193.4298525489399
 20
92.6438570582399
 30
0.0
 10
193.5113277917885
 20
92.68257591147187
 30
0.0
 10
193.594652675707
 20
92.71312999055955
 30
0.0
 10
193.6798201425846
 20
92.7347467274687
 30
0.0
 10
193.7656569058322
 20
92.74845442195746
 30
0.0
 10
193.8251624801425
 20
92.75023823921408
 30
0.0
 10
193.8542373795761
 20
92.75110982658963
 30
0.0
  0
SPLINE
  5
169
330
1F
100
AcDbEntity
  8
0
  6
Continuous
 62
     7
370
    25
100
AcDbSpline
210
0.0
220
0.0
230
1.0
 70
     8
 71
     3
 72
    17
 73
    13
 74
     0
 42
0.000000001
 43
0.00000001
 40
0.0
 40
0.0
 40
0.0
 40
0.0
 40
0.1130667887614413
 40
0.214247189583317
 40
0.3035410227131065
 40
0.3809482842653933
 40
0.4464692356459874
 40
0.5001045920517729
 40
0.6375226522804812
 40
0.750042112035746
 40
0.8820380142736961
 40
0.9999999999999999
 40
0.9999999999999999
 40
0.9999999999999999
 40
0.9999999999999999
 10
192.9209040462428
 20
92.25110982658963
 30
0.0
 10
192.9219815289343
 20
92.26133945270493
 30
0.0
 10
192.9240232216454
 20
92.2807232936161
 30
0.0
 10
192.9391886433582
 20
92.30861753818736
 30
0.0
 10
192.9594498889279
 20
92.33361034587837
 30
0.0
 10
192.9828006404673
 20
92.35573974338557
 30
0.0
 10
193.0066211664367
 20
92.3749395700652
 30
0.0
 10
193.0421386059303
 20
92.40112133532246
 30
0.0
 10
193.0924478987048
 20
92.43410287691027
 30
0.0
 10
193.1694343770399
 20
92.47969715138976
 30
0.0
 10
193.2538749572693
 20
92.52960580809871
 30
0.0
 10
193.3221167894467
 20
92.57441836762882
 30
0.0
 10
193.3543219824847
 20
92.59556664404732
 30
0.0
  0
LINE
  5
16A
330
1F
100
AcDbEntity
  8
0
  6
Continuous
 62
     7
370
    25
100
AcDbLine
 10
193.4209039121
 20
92.251109659
 30
0.0
 11
194.8218845449
 21
92.251109659
 31
0.0
  0
ARC
  5
16B
330
1F
100
AcDbEntity
  8
0
  6
Continuous
 62
     7
370
    25
100
AcDbCircle
 10
193.4209040462
 20
91.7511098266
 30
0.0
 40
0.5
100
AcDbArc
 50
90.0
 51
136.8892083855
  0
LINE
  5
16C
330
1F
100
AcDbEntity
  8
0
  6
Continuous
 62
     7
370
    25
100
AcDbLine
 10
205.0199235476
 20
92.251109659
 30
0.0
 11
206.4209041804
 21
92.251109659
 31
0.0
  0
ARC
  5
16D
330
1F
100
AcDbEntity
  8
0
  6
Continuous
 62
     7
370
    25
100
AcDbCircle
 10
206.4209040462
 20
91.7511098266
 30
0.0
 40
0.500000000000003
100
AcDbArc
 50
43.1107916145
 51
90.0
  0
SPLINE
  5
16E
330
1F
100
AcDbEntity
  8
0
  6
Continuous
 62
     7
370
    25
100
AcDbSpline
210
0.0
220
0.0
230
1.0
 70
     8
 71
     3
 72
     9
 73
     5
 74
     0
 42
0.000000001
 43
0.00000001
 40
0.0
 40
0.0
 40
0.0
 40
0.0
 40
0.5
 40
1.0
 40
1.0
 40
1.0
 40
1.0
 10
205.0199235598356
 20
92.25110982658963
 30
0.0
 10
204.9309288807
 20
92.25110982658963
 30
0.0
 10
204.7536096942761
 20
92.35939648123528
 30
0.0
 10
204.6799889255961
 20
92.62021013269005
 30
0.0
 10
204.6799889255961
 20
92.75110982658963
 30
0.0
  0
SPLINE
  5
16F
330
1F
100
AcDbEntity
  8
0
  6
Continuous
 62
     7
370
    25
100
AcDbSpline
210
0.0
220
0.0
230
1.0
 70
     8
 71
     3
 72
     9
 73
     5
 74
     0
 42
0.000000001
 43
0.00000001
 40
0.0
 40
0.0
 40
0.0
 40
0.0
 40
0.5
 40
1.0
 40
1.0
 40
1.0
 40
1.0
 10
195.1618191668895
 20
92.75110982658963
 30
0.0
 10
195.1618191668895
 20
92.62021013269006
 30
0.0
 10
195.0881983982095
 20
92.35939648123528
 30
0.0
 10
194.9108792117856
 20
92.25110982658963
 30
0.0
 10
194.82188453265
 20
92.25110982658963
 30
0.0
  0
SPLINE
  5
170
330
1F
100
AcDbEntity
  8
0
  6
Continuous
 62
     7
370
    25
100
AcDbSpline
210
0.0
220
0.0
230
1.0
 70
     8
 71
     3
 72
     9
 73
     5
 74
     0
 42
0.000000001
 43
0.00000001
 40
0.0
 40
0.0
 40
0.0
 40
0.0
 40
0.5
 40
1.0
 40
1.0
 40
1.0
 40
1.0
 10
193.4209040462428
 20
92.25110982658963
 30
0.0
 10
193.5343504476224
 20
92.25110982658963
 30
0.0
 10
193.7603913587492
 20
92.35939369677459
 30
0.0
 10
193.8542373795761
 20
92.62021013269005
 30
0.0
 10
193.8542373795761
 20
92.75110982658963
 30
0.0
  0
SPLINE
  5
171
330
1F
100
AcDbEntity
  8
0
  6
Continuous
 62
     7
370
    25
100
AcDbSpline
210
0.0
220
0.0
230
1.0
 70
     8
 71
     3
 72
     9
 73
     5
 74
     0
 42
0.000000001
 43
0.00000001
 40
0.0
 40
0.0
 40
0.0
 40
0.0
 40
0.5
 40
1.0
 40
1.0
 40
1.0
 40
1.0
 10
205.9875707129095
 20
92.75110982658963
 30
0.0
 10
205.9875707129095
 20
92.62021013269005
 30
0.0
 10
206.0814167337364
 20
92.35939369677459
 30
0.0
 10
206.3074576448631
 20
92.25110982658963
 30
0.0
 10
206.4209040462428
 20
92.25110982658963
 30
0.0
  0
SPLINE
  5
172
330
1F
100
AcDbEntity
  8
0
  6
Continuous
 62
     7
370
    25
100
AcDbSpline
210
0.0
220
0.0
230
1.0
 70
     8
 71
     3
 72
     9
 73
     5
 74
     0
 42
0.000000001
 43
0.00000001
 40
0.0
 40
0.0
 40
0.0
 40
0.0
 40
0.571428571428571
 40
1.0
 40
1.0
 40
1.0
 40
1.0
 10
206.4874861100009
 20
92.59556664404732
 30
0.0
 10
206.480092027015
 20
92.4984215698555
 30
0.0
 10
206.5174072065931
 20
92.32876023113782
 30
0.0
 10
206.6309992540967
 20
92.20994683526446
 30
0.0
 10
206.6887158661132
 20
92.17333823531848
 30
0.0
  0
SPLINE
  5
173
330
1F
100
AcDbEntity
  8
0
  6
Continuous
 62
     7
370
    25
100
AcDbSpline
210
0.0
220
0.0
230
1.0
 70
     8
 71
     3
 72
     9
 73
     5
 74
     0
 42
0.000000001
 43
0.00000001
 40
0.0
 40
0.0
 40
0.0
 40
0.0
 40
0.5
 40
1.0
 40
1.0
 40
1.0
 40
1.0
 10
193.3543219824864
 20
92.5955666440485
 30
0.0
 10
193.3607918050993
 20
92.5105647041304
 30
0.0
 10
193.3301128118933
 20
92.34067078588161
 30
0.0
 10
193.2204282737264
 20
92.2160482685892
 30
0.0
 10
193.1530922263733
 20
92.17333823531906
 30
0.0
  0
SPLINE
  5
174
330
1F
100
AcDbEntity
  8
0
  6
Continuous
 62
     7
370
    25
100
AcDbSpline
210
0.0
220
0.0
230
1.0
 70
     8
 71
     3
 72
    12
 73
     8
 74
     0
 42
0.000000001
 43
0.00000001
 40
0.0
 40
0.0
 40
0.0
 40
0.0
 40
0.106360889119859
 40
0.159541333679788
 40
0.265902222799647
 40
0.265902222799647
 40
0.267217449924086
 40
0.267217449924086
 40
0.267217449924086
 40
0.267217449924086
 10
206.6887158661132
 20
92.17333823531848
 30
0.0
 10
206.7486926501842
 20
92.13529604924312
 30
0.0
 10
206.822983293268
 20
92.14079192043533
 30
0.0
 10
206.9012148781137
 20
92.18268849799635
 30
0.0
 10
206.9205909958365
 20
92.22381465441066
 30
0.0
 10
206.9209021385751
 20
92.25046203275878
 30
0.0
 10
206.9209040462428
 20
92.25078553576739
 30
0.0
 10
206.9209040462428
 20
92.25110982658963
 30
0.0
  0
SPLINE
  5
175
330
1F
100
AcDbEntity
  8
0
  6
Continuous
 62
     7
370
    25
100
AcDbSpline
210
0.0
220
0.0
230
1.0
 70
    24
 71
     3
 72
    14
 73
    10
 74
     0
 42
0.000000001
 43
0.00000001
 40
0.0
 40
0.0
 40
0.0
 40
0.0
 40
0.2503841006840345
 40
0.3856977520239709
 40
0.5014304172375459
 40
0.6388330237075766
 40
0.767498519821732
 40
0.8877539750359934
 40
1.0
 40
1.0
 40
1.0
 40
1.0
 10
206.9209040462428
 20
92.25110982658963
 30
0.0
 10
206.9209040462428
 20
92.19182315497756
 30
0.0
 10
206.9209040462428
 20
92.10049652559778
 30
0.0
 10
206.9209040462428
 20
91.98798243224826
 30
0.0
 10
206.9209040462428
 20
91.90819586626874
 30
0.0
 10
206.9209040462428
 20
91.84139647828292
 30
0.0
 10
206.9209040462428
 20
91.79020726508604
 30
0.0
 10
206.9209040462428
 20
91.75757774177691
 30
0.0
 10
206.9209040462428
 20
91.75321570918123
 30
0.0
 10
206.9209040462428
 20
91.75110982658963
 30
0.0
  0
LINE
  5
176
330
1F
100
AcDbEntity
  8
0
  6
Continuous
 62
     7
370
    25
100
AcDbLine
 10
192.9209038302
 20
92.251109659
 30
0.0
 11
192.9283185549
 21
92.2266507998
 31
0.0
  0
SPLINE
  5
177
330
1F
100
AcDbEntity
  8
0
  6
Continuous
 62
     7
370
    25
100
AcDbSpline
210
0.0
220
0.0
230
1.0
 70
    24
 71
     3
 72
    10
 73
     6
 74
     0
 42
0.000000001
 43
0.00000001
 40
-0.263620655015386
 40
-0.263620655015386
 40
-0.263620655015386
 40
-0.263620655015386
 40
-0.2626630659468851
 40
-0.2626630659468851
 40
0.0009575890685009
 40
0.0009575890685009
 40
0.0009575890685009
 40
0.0009575890685009
 10
192.9209040462428
 20
92.25110982658963
 30
0.0
 10
192.9209040462428
 20
92.25025673844404
 30
0.0
 10
192.9209040462428
 20
92.24939729317197
 30
0.0
 10
192.9209040462426
 20
92.01619654420244
 30
0.0
 10
192.9209040462428
 20
91.75110982658963
 30
0.0
 10
192.9209040462428
 20
91.75110982658963
 30
0.0
  0
LINE
  5
178
330
1F
100
AcDbEntity
  8
0
  6
Continuous
 62
     8
370
    25
100
AcDbLine
 10
199.9209040462
 20
98.2511101768
 30
0.0
 11
208.9209036588
 21
98.2511101768
 31
0.0
  0
LINE
  5
179
330
1F
100
AcDbEntity
  8
0
  6
Continuous
 62
     8
370
    25
100
AcDbLine
 10
190.9209044337
 20
98.2511101768
 30
0.0
 11
199.9209040462
 21
98.2511101768
 31
0.0
  0
LINE
  5
17A
330
1F
100
AcDbEntity
  8
0
  6
Continuous
 62
     8
370
    25
100
AcDbLine
 10
199.9209040462
 20
96.7814160988
 30
0.0
 11
207.7209038346
 21
96.7814160988
 31
0.0
  0
LINE
  5
17B
330
1F
100
AcDbEntity
  8
0
  6
Continuous
 62
     8
370
    25
100
AcDbLine
 10
192.1209042578
 20
96.7814160988
 30
0.0
 11
199.9209040462
 21
96.7814160988
 31
0.0
  0
LINE
  5
17C
330
1F
100
AcDbEntity
  8
0
  6
Continuous
 62
     8
370
    25
100
AcDbLine
 10
199.9209040462
 20
95.8016200468
 30
0.0
 11
192.9209038302
 21
95.8016200468
 31
0.0
  0
LINE
  5
17D
330
1F
100
AcDbEntity
  8
0
  6
Continuous
 62
     8
370
    25
100
AcDbLine
 10
206.9209042623
 20
95.8016200468
 30
0.0
 11
199.9209040462
 21
95.8016200468
 31
0.0
  0
SPLINE
  5
17E
330
1F
100
AcDbEntity
  8
0
  6
Continuous
 62
     8
370
    25
100
AcDbSpline
210
0.0
220
0.0
230
1.0
 70
    24
 71
     3
 72
    10
 73
     6
 74
     0
 42
0.000000001
 43
0.00000001
 40
0.0
 40
0.0
 40
0.0
 40
0.0
 40
0.414928205129049
 40
0.8298562538090092
 40
1.0
 40
1.0
 40
1.0
 40
1.0
 10
193.4209039121324
 20
91.75111004265646
 30
0.0
 10
193.4209039121324
 20
91.62171202727374
 30
0.0
 10
193.4209039121324
 20
91.36291604529796
 30
0.0
 10
193.4209039121324
 20
91.07762009583534
 30
0.0
 10
193.4209039121324
 20
90.98271377411666
 30
0.0
 10
193.4209039121324
 20
90.95511422606806
 30
0.0
  0
SPLINE
  5
17F
330
1F
100
AcDbEntity
  8
0
  6
Continuous
 62
     8
370
    25
100
AcDbSpline
210
0.0
220
0.0
230
1.0
 70
    24
 71
     3
 72
    10
 73
     6
 74
     0
 42
0.000000001
 43
0.00000001
 40
0.0
 40
0.0
 40
0.0
 40
0.0
 40
0.1548036829657409
 40
0.5774017618123293
 40
0.9999999999999999
 40
0.9999999999999999
 40
0.9999999999999999
 40
0.9999999999999999
 10
206.4209041803533
 20
90.96459602120022
 30
0.0
 10
206.4209041803533
 20
90.98938788905215
 30
0.0
 10
206.4209041803533
 20
91.08185899763356
 30
0.0
 10
206.4209041803533
 20
91.36323506069652
 30
0.0
 10
206.4209041803533
 20
91.6218183657533
 30
0.0
 10
206.4209041803533
 20
91.75111004265646
 30
0.0
  0
LINE
  5
180
330
1F
100
AcDbEntity
  8
0
  6
Continuous
 62
     8
370
    25
100
AcDbLine
 10
205.5777582958
 20
91.7511100427
 30
0.0
 11
206.4209041804
 21
91.7511100427
 31
0.0
  0
LINE
  5
181
330
1F
100
AcDbEntity
  8
0
  6
Continuous
 62
     8
370
    25
100
AcDbLine
 10
193.4209039121
 20
91.7511100427
 30
0.0
 11
194.2640497967
 21
91.7511100427
 31
0.0
  0
SPLINE
  5
182
330
1F
100
AcDbEntity
  8
0
  6
Continuous
 62
     8
370
    25
100
AcDbSpline
210
0.0
220
0.0
230
1.0
 70
     8
 71
     3
 72
     9
 73
     5
 74
     0
 42
0.000000001
 43
0.00000001
 40
0.0
 40
0.0
 40
0.0
 40
0.0
 40
0.2445636372772303
 40
1.0
 40
1.0
 40
1.0
 40
1.0
 10
204.2065902299636
 20
92.64303115310769
 30
0.0
 10
204.2451648986858
 20
92.66184265401766
 30
0.0
 10
204.4028934520865
 20
92.73876128803624
 30
0.0
 10
204.5607433742021
 20
92.7457959597539
 30
0.0
 10
204.6799889452213
 20
92.75111020656924
 30
0.0
  0
SPLINE
  5
183
330
1F
100
AcDbEntity
  8
0
  6
Continuous
 62
     8
370
    25
100
AcDbSpline
210
0.0
220
0.0
230
1.0
 70
     8
 71
     3
 72
     9
 73
     5
 74
     0
 42
0.000000001
 43
0.00000001
 40
0.0
 40
0.0
 40
0.0
 40
0.0
 40
0.7519363683777341
 40
1.0
 40
1.0
 40
1.0
 40
1.0
 10
195.1618191472643
 20
92.75111020656924
 30
0.0
 10
195.2810646378921
 20
92.74573441347613
 30
0.0
 10
195.4396491879185
 20
92.73858514750204
 30
0.0
 10
195.5981116632935
 20
92.66122639394351
 30
0.0
 10
195.6374204404109
 20
92.642036500598
 30
0.0
  0
LINE
  5
184
330
1F
100
AcDbEntity
  8
0
  6
Continuous
 62
     8
370
    25
100
AcDbLine
 10
194.9607489317
 20
92.2465373308
 30
0.0
 11
194.8218845449
 21
92.251109659
 31
0.0
  0
LINE
  5
185
330
1F
100
AcDbEntity
  8
0
  6
Continuous
 62
     8
370
    25
100
AcDbLine
 10
205.0199235476
 20
92.251109659
 30
0.0
 11
204.8744286097
 21
92.2444618784
 31
0.0
  0
SPLINE
  5
186
330
1F
100
AcDbEntity
  8
0
  6
Continuous
 62
     8
370
    25
100
AcDbSpline
210
0.0
220
0.0
230
1.0
 70
     8
 71
     3
 72
    11
 73
     7
 74
     0
 42
0.000000001
 43
0.00000001
 40
0.0
 40
0.0
 40
0.0
 40
0.0
 40
0.138306374567875
 40
0.4174703047224942
 40
0.7013665291882653
 40
1.0
 40
1.0
 40
1.0
 40
1.0
 10
192.9283185548538
 20
92.22665079983572
 30
0.0
 10
192.9300915639648
 20
92.21827102138502
 30
0.0
 10
192.9354432959884
 20
92.1929771137524
 30
0.0
 10
192.9765486100996
 20
92.16077713877137
 30
0.0
 10
193.0495973818779
 20
92.1308589409272
 30
0.0
 10
193.1180170357118
 20
92.1589416088573
 30
0.0
 10
193.1530923269146
 20
92.17333817037444
 30
0.0
  0
INSERT
  5
192
330
1F
100
AcDbEntity
  8
0
  6
Continuous
 62
     7
370
    18
100
AcDbBlockReference
  2
SW_CENTERMARKSYMBOL_0
 10
199.9209040462
 20
84.7511098266
 30
0.0
  0
ARC
  5
193
330
1F
100
AcDbEntity
  8
0
  6
Continuous
 62
     7
370
    18
100
AcDbCircle
 10
199.9209040462
 20
84.7511098266
 30
0.0
 40
4.929554999999977
100
AcDbArc
 50
75.0
 51
345.0
  0
ARC
  5
194
330
1F
100
AcDbEntity
  8
0
  6
Continuous
 62
     7
370
    18
100
AcDbCircle
 10
199.9209040462
 20
84.7511098266
 30
0.0
 40
4.929554999999977
100
AcDbArc
 50
75.0
 51
345.0
  0
LINE
  5
195
330
1F
100
AcDbEntity
  8
0
  6
Continuous
 62
     7
370
    25
100
AcDbLine
 10
110.5161231841
 20
161.7139025027
 30
0.0
 11
110.0161221708
 21
161.2139033521
 31
0.0
  0
LINE
  5
196
330
1F
100
AcDbEntity
  8
0
  6
Continuous
 62
     7
370
    25
100
AcDbLine
 10
110.0161221708
 20
144.2139024282
 30
0.0
 11
110.5161231841
 21
143.7139032776
 31
0.0
  0
LINE
  5
197
330
1F
100
AcDbEntity
  8
0
  6
Continuous
 62
     7
370
    25
100
AcDbLine
 10
148.5161228935
 20
143.7139032776
 30
0.0
 11
159.5161219026
 21
143.7139032776
 31
0.0
  0
LINE
  5
198
330
1F
100
AcDbEntity
  8
0
  6
Continuous
 62
     7
370
    25
100
AcDbLine
 10
159.5161219026
 20
161.7139025027
 30
0.0
 11
148.5161228935
 21
161.7139025027
 31
0.0
  0
LINE
  5
199
330
1F
100
AcDbEntity
  8
0
  6
Continuous
 62
     7
370
    25
100
AcDbLine
 10
121.5161221932
 20
161.7139025027
 30
0.0
 11
110.5161231841
 21
161.7139025027
 31
0.0
  0
LINE
  5
19A
330
1F
100
AcDbEntity
  8
0
  6
Continuous
 62
     7
370
    25
100
AcDbLine
 10
110.5161231841
 20
143.7139032776
 30
0.0
 11
121.5161221932
 21
143.7139032776
 31
0.0
  0
LINE
  5
19B
330
1F
100
AcDbEntity
  8
0
  6
Continuous
 62
     7
370
    25
100
AcDbLine
 10
159.5161219026
 20
143.7139032776
 30
0.0
 11
160.0161229159
 21
144.2139024282
 31
0.0
  0
LINE
  5
19C
330
1F
100
AcDbEntity
  8
0
  6
Continuous
 62
     7
370
    25
100
AcDbLine
 10
160.0161229159
 20
161.2139033521
 30
0.0
 11
159.5161219026
 21
161.7139025027
 31
0.0
  0
ARC
  5
19D
330
1F
100
AcDbEntity
  8
0
  6
Continuous
 62
     7
370
    25
100
AcDbCircle
 10
148.5161225434
 20
160.2139028902
 30
0.0
 40
1.500000000000018
100
AcDbArc
 50
90.0
 51
168.4630409672
  0
ARC
  5
19E
330
1F
100
AcDbEntity
  8
0
  6
Continuous
 62
     7
370
    25
100
AcDbCircle
 10
148.5161225434
 20
145.2139028902
 30
0.0
 40
1.500000000000018
100
AcDbArc
 50
191.5369590328
 51
270.0
  0
ARC
  5
19F
330
1F
100
AcDbEntity
  8
0
  6
Continuous
 62
     7
370
    25
100
AcDbCircle
 10
121.5161225434
 20
160.2139028902
 30
0.0
 40
1.5
100
AcDbArc
 50
11.5369590328
 51
90.0
  0
ARC
  5
1A0
330
1F
100
AcDbEntity
  8
0
  6
Continuous
 62
     7
370
    25
100
AcDbCircle
 10
121.5161225434
 20
145.2139028902
 30
0.0
 40
1.5
100
AcDbArc
 50
270.0
 51
348.4630409672
  0
ARC
  5
1A1
330
1F
100
AcDbEntity
  8
0
  6
Continuous
 62
     7
370
    25
100
AcDbCircle
 10
123.9656122861
 20
160.7139028902
 30
0.0
 40
1.000000000000004
100
AcDbArc
 50
191.5369590328
 51
270.0
  0
ARC
  5
1A2
330
1F
100
AcDbEntity
  8
0
  6
Continuous
 62
     7
370
    25
100
AcDbCircle
 10
123.9656122861
 20
144.7139028902
 30
0.0
 40
1.000000000000004
100
AcDbArc
 50
90.0
 51
168.4630409672
  0
ARC
  5
1A3
330
1F
100
AcDbEntity
  8
0
  6
Continuous
 62
     7
370
    25
100
AcDbCircle
 10
146.0666328006
 20
160.7139028902
 30
0.0
 40
1.000000000000017
100
AcDbArc
 50
270.0
 51
348.4630409672
  0
ARC
  5
1A4
330
1F
100
AcDbEntity
  8
0
  6
Continuous
 62
     7
370
    25
100
AcDbCircle
 10
146.0666328006
 20
144.7139028902
 30
0.0
 40
1.000000000000017
100
AcDbArc
 50
11.5369590328
 51
90.0
  0
SPLINE
  5
1A5
330
1F
100
AcDbEntity
  8
0
  6
Continuous
 62
     7
370
    25
100
AcDbSpline
210
0.0
220
0.0
230
1.0
 70
     8
 71
     3
 72
    16
 73
    12
 74
     0
 42
0.000000001
 43
0.00000001
 40
0.0
 40
0.0
 40
0.0
 40
0.0
 40
0.001558688101615
 40
0.0410302892138949
 40
0.1371775496461782
 40
0.2564358294803687
 40
0.3953632821085705
 40
0.5485297445143557
 40
0.7092896286264974
 40
0.8703572720428943
 40
1.0
 40
1.0
 40
1.0
 40
1.0
 10
140.8104297603545
 20
145.8079853462556
 30
0.0
 10
140.8098558835634
 20
145.8075748759159
 30
0.0
 10
140.7947493778498
 20
145.796769817011
 30
0.0
 10
140.7552181070315
 20
145.7751386580566
 30
0.0
 10
140.7061835171264
 20
145.7474546909771
 30
0.0
 10
140.6946821282851
 20
145.7311709245434
 30
0.0
 10
140.7410524690295
 20
145.7211879501833
 30
0.0
 10
140.8551129507004
 20
145.7164940025846
 30
0.0
 10
141.0334356153917
 20
145.7144745217413
 30
0.0
 10
141.2457799622913
 20
145.7139246702952
 30
0.0
 10
141.4070447632292
 20
145.7139194414278
 30
0.0
 10
141.4789610440907
 20
145.7139171096066
 30
0.0
  0
LINE
  5
1A6
330
1F
100
AcDbEntity
  8
0
  6
Continuous
 62
     7
370
    25
100
AcDbLine
 10
127.516122711
 20
159.7139031062
 30
0.0
 11
123.9656123231
 21
159.7139031062
 31
0.0
  0
LINE
  5
1A7
330
1F
100
AcDbEntity
  8
0
  6
Continuous
 62
     7
370
    25
100
AcDbLine
 10
146.0666327636
 20
159.7139031062
 30
0.0
 11
144.2661226626
 21
159.7139031062
 31
0.0
  0
LINE
  5
1A8
330
1F
100
AcDbEntity
  8
0
  6
Continuous
 62
     7
370
    25
100
AcDbLine
 10
142.7661224167
 20
159.7139031062
 30
0.0
 11
142.5161223757
 21
159.7139031062
 31
0.0
  0
LINE
  5
1A9
330
1F
100
AcDbEntity
  8
0
  6
Continuous
 62
     7
370
    25
100
AcDbLine
 10
142.5161223757
 20
145.7139026741
 30
0.0
 11
146.0666327636
 21
145.7139026741
 31
0.0
  0
LINE
  5
1AA
330
1F
100
AcDbEntity
  8
0
  6
Continuous
 62
     7
370
    25
100
AcDbLine
 10
123.9656123231
 20
145.7139026741
 30
0.0
 11
127.516122711
 21
145.7139026741
 31
0.0
  0
ARC
  5
1AB
330
1F
100
AcDbEntity
  8
0
  6
Continuous
 62
     7
370
    25
100
AcDbCircle
 10
143.8078649739
 20
159.5139028902
 30
0.0
 40
0.5000000000000107
100
AcDbArc
 50
23.5781784782
 51
90.0
  0
ARC
  5
1AC
330
1F
100
AcDbEntity
  8
0
  6
Continuous
 62
     7
370
    25
100
AcDbCircle
 10
143.2243801128
 20
159.5139028902
 30
0.0
 40
0.5
100
AcDbArc
 50
90.0
 51
156.4218215218
  0
CIRCLE
  5
1AD
330
1F
100
AcDbEntity
  8
0
  6
Continuous
 62
     7
370
    25
100
AcDbCircle
 10
135.0161225434
 20
152.7139028902
 30
0.0
 40
9.000000000000028
  0
CIRCLE
  5
1AE
330
1F
100
AcDbEntity
  8
0
  6
Continuous
 62
     7
370
    25
100
AcDbCircle
 10
135.0161225434
 20
152.7139028902
 30
0.0
 40
8.500000000000028
  0
CIRCLE
  5
1AF
330
1F
100
AcDbEntity
  8
0
  6
Continuous
 62
     7
370
    25
100
AcDbCircle
 10
135.0161225434
 20
152.7139028902
 30
0.0
 40
6.75
  0
CIRCLE
  5
1B0
330
1F
100
AcDbEntity
  8
0
  6
Continuous
 62
     7
370
    25
100
AcDbCircle
 10
135.0161225434
 20
152.7139028902
 30
0.0
 40
6.10343238175048
  0
CIRCLE
  5
1B1
330
1F
100
AcDbEntity
  8
0
  6
Continuous
 62
     7
370
    25
100
AcDbCircle
 10
135.0161225434
 20
152.7139028902
 30
0.0
 40
5.81061697881421
  0
CIRCLE
  5
1B2
330
1F
100
AcDbEntity
  8
0
  6
Continuous
 62
     7
370
    25
100
AcDbCircle
 10
135.0161225434
 20
152.7139028902
 30
0.0
 40
5.722499999999997
  0
CIRCLE
  5
1B3
330
1F
100
AcDbEntity
  8
0
  6
Continuous
 62
     7
370
    25
100
AcDbCircle
 10
135.0161225434
 20
152.7139028902
 30
0.0
 40
4.0
  0
LINE
  5
1B4
330
1F
100
AcDbEntity
  8
0
  6
Continuous
 62
     7
370
    25
100
AcDbLine
 10
110.5161231841
 20
161.7139025027
 30
0.0
 11
110.5161231841
 21
143.7139032776
 31
0.0
  0
LINE
  5
1B5
330
1F
100
AcDbEntity
  8
0
  6
Continuous
 62
     7
370
    25
100
AcDbLine
 10
110.0161221708
 20
144.2139024282
 30
0.0
 11
110.0161221708
 21
161.2139033521
 31
0.0
  0
LINE
  5
1B6
330
1F
100
AcDbEntity
  8
0
  6
Continuous
 62
     7
370
    25
100
AcDbLine
 10
159.5161219026
 20
143.7139032776
 30
0.0
 11
159.5161219026
 21
161.7139025027
 31
0.0
  0
LINE
  5
1B7
330
1F
100
AcDbEntity
  8
0
  6
Continuous
 62
     7
370
    25
100
AcDbLine
 10
160.0161229159
 20
161.2139033521
 30
0.0
 11
160.0161229159
 21
144.2139024282
 31
0.0
  0
LINE
  5
1B8
330
1F
100
AcDbEntity
  8
0
  6
Continuous
 62
     7
370
    25
100
AcDbLine
 10
129.1511055912
 20
159.5789195406
 30
0.0
 11
129.0781788427
 21
159.4618979278
 31
0.0
  0
LINE
  5
1B9
330
1F
100
AcDbEntity
  8
0
  6
Continuous
 62
     7
370
    25
100
AcDbLine
 10
129.1718335721
 20
159.5581915597
 30
0.0
 11
129.1511055912
 21
159.5789195406
 31
0.0
  0
LINE
  5
1BA
330
1F
100
AcDbEntity
  8
0
  6
Continuous
 62
     7
370
    25
100
AcDbLine
 10
140.8811394955
 20
159.5789195406
 30
0.0
 11
140.8604115146
 21
159.5581915597
 31
0.0
  0
LINE
  5
1BB
330
1F
100
AcDbEntity
  8
0
  6
Continuous
 62
     7
370
    25
100
AcDbLine
 10
140.9657920609
 20
159.4430824178
 30
0.0
 11
140.8811394955
 21
159.5789195406
 31
0.0
  0
LINE
  5
1BC
330
1F
100
AcDbEntity
  8
0
  6
Continuous
 62
     7
370
    25
100
AcDbLine
 10
140.8811394955
 20
145.8488862398
 30
0.0
 11
140.9521630864
 21
145.9628535802
 31
0.0
  0
LINE
  5
1BD
330
1F
100
AcDbEntity
  8
0
  6
Continuous
 62
     7
370
    25
100
AcDbLine
 10
140.8604115146
 20
145.8696142206
 30
0.0
 11
140.8811394955
 21
145.8488862398
 31
0.0
  0
LINE
  5
1BE
330
1F
100
AcDbEntity
  8
0
  6
Continuous
 62
     7
370
    25
100
AcDbLine
 10
129.1511055912
 20
145.8488862398
 30
0.0
 11
129.1718335721
 21
145.8696142206
 31
0.0
  0
LINE
  5
1BF
330
1F
100
AcDbEntity
  8
0
  6
Continuous
 62
     7
370
    25
100
AcDbLine
 10
129.0608748692
 20
145.9936738382
 30
0.0
 11
129.1511055912
 21
145.8488862398
 31
0.0
  0
SPLINE
  5
1C0
330
1F
100
AcDbEntity
  8
0
  6
Continuous
 62
     7
370
    25
100
AcDbSpline
210
0.0
220
0.0
230
1.0
 70
     8
 71
     3
 72
     9
 73
     5
 74
     0
 42
0.000000001
 43
0.00000001
 40
0.0
 40
0.0
 40
0.0
 40
0.0
 40
0.0530734654727561
 40
1.0
 40
1.0
 40
1.0
 40
1.0
 10
129.3377794223902
 20
159.6826567682007
 30
0.0
 10
129.3342669581416
 20
159.6820764598848
 30
0.0
 10
129.2680857842296
 20
159.6711424025226
 30
0.0
 10
129.2080012402268
 20
159.623773968067
 30
0.0
 10
129.1511055911955
 20
159.578919540582
 30
0.0
  0
SPLINE
  5
1C1
330
1F
100
AcDbEntity
  8
0
  6
Continuous
 62
     7
370
    25
100
AcDbSpline
210
0.0
220
0.0
230
1.0
 70
     8
 71
     3
 72
     9
 73
     5
 74
     0
 42
0.000000001
 43
0.00000001
 40
0.0
 40
0.0
 40
0.0
 40
0.0
 40
0.7968510054537402
 40
1.0
 40
1.0
 40
1.0
 40
1.0
 10
129.1511055911955
 20
145.848886239765
 30
0.0
 10
129.2082904390317
 20
145.805757750891
 30
0.0
 10
129.2800539775663
 20
145.7516340959308
 30
0.0
 10
129.359060467482
 20
145.7408065431764
 30
0.0
 10
129.3751105564711
 20
145.7386069367209
 30
0.0
  0
SPLINE
  5
1C2
330
1F
100
AcDbEntity
  8
0
  6
Continuous
 62
     7
370
    25
100
AcDbSpline
210
0.0
220
0.0
230
1.0
 70
     8
 71
     3
 72
     9
 73
     5
 74
     0
 42
0.000000001
 43
0.00000001
 40
0.0
 40
0.0
 40
0.0
 40
0.0
 40
0.1433472084244004
 40
1.0
 40
1.0
 40
1.0
 40
1.0
 10
140.6735779616115
 20
145.7414884487668
 30
0.0
 10
140.6840934130497
 20
145.7430473024118
 30
0.0
 10
140.7574499266076
 20
145.7539219728164
 30
0.0
 10
140.8240695818621
 20
145.8050700751323
 30
0.0
 10
140.8811394955096
 20
145.848886239765
 30
0.0
  0
SPLINE
  5
1C3
330
1F
100
AcDbEntity
  8
0
  6
Continuous
 62
     7
370
    25
100
AcDbSpline
210
0.0
220
0.0
230
1.0
 70
     8
 71
     3
 72
    12
 73
     8
 74
     0
 42
0.000000001
 43
0.00000001
 40
0.0
 40
0.0
 40
0.0
 40
0.0
 40
0.1664616487437876
 40
0.3330491329443992
 40
0.500193847829015
 40
0.7619811613088653
 40
1.0
 40
1.0
 40
1.0
 40
1.0
 10
128.0161225245792
 20
159.2139028901735
 30
0.0
 10
127.998148700778
 20
159.2368965751688
 30
0.0
 10
127.9621874659961
 20
159.2829013270662
 30
0.0
 10
127.9044705377139
 20
159.3484442910742
 30
0.0
 10
127.8341858283873
 20
159.4228104767889
 30
0.0
 10
127.7548430736393
 20
159.5020820214174
 30
0.0
 10
127.7003620016192
 20
159.5541322127783
 30
0.0
 10
127.6744168998302
 20
159.5789196749724
 30
0.0
  0
SPLINE
  5
1C4
330
1F
100
AcDbEntity
  8
0
  6
Continuous
 62
     7
370
    25
100
AcDbSpline
210
0.0
220
0.0
230
1.0
 70
     8
 71
     3
 72
    14
 73
    10
 74
     0
 42
0.000000001
 43
0.00000001
 40
0.0
 40
0.0
 40
0.0
 40
0.0
 40
0.1488603139315083
 40
0.3150272282737267
 40
0.4987644934547347
 40
0.5951852632716568
 40
0.749434831581739
 40
0.879320313901446
 40
1.0
 40
1.0
 40
1.0
 40
1.0
 10
127.6744168998302
 20
159.5789196749724
 30
0.0
 10
127.6896276524723
 20
159.5921630320243
 30
0.0
 10
127.7218175701089
 20
159.6201894277432
 30
0.0
 10
127.7764415807256
 20
159.6542589808705
 30
0.0
 10
127.8271472373498
 20
159.6778128700452
 30
0.0
 10
127.8771638788419
 20
159.6949419420423
 30
0.0
 10
127.9218375900217
 20
159.7057669826776
 30
0.0
 10
127.9704148619246
 20
159.7127082176536
 30
0.0
 10
128.0012644555437
 20
159.7135145408053
 30
0.0
 10
128.0161225433526
 20
159.7139028901735
 30
0.0
  0
SPLINE
  5
1C5
330
1F
100
AcDbEntity
  8
0
  6
Continuous
 62
     7
370
    25
100
AcDbSpline
210
0.0
220
0.0
230
1.0
 70
    24
 71
     3
 72
    13
 73
     9
 74
     0
 42
0.000000001
 43
0.00000001
 40
0.0
 40
0.0
 40
0.0
 40
0.0
 40
0.1847371487918729
 40
0.3690894761192522
 40
0.5535890758358414
 40
0.7381972723018706
 40
0.9224589043912812
 40
0.9999999999999999
 40
0.9999999999999999
 40
0.9999999999999999
 40
0.9999999999999999
 10
128.0161223272857
 20
159.7139031062403
 30
0.0
 10
128.1144384382356
 20
159.7139031062403
 30
0.0
 10
128.3108658602341
 20
159.7139031062403
 30
0.0
 10
128.593674102982
 20
159.7139031062403
 30
0.0
 10
128.8555991014616
 20
159.7139031062403
 30
0.0
 10
129.0814080935851
 20
159.7139031062403
 30
0.0
 10
129.2405396968868
 20
159.7139031062403
 30
0.0
 10
129.3029517507042
 20
159.7139031062403
 30
0.0
 10
129.3214370395121
 20
159.7139031062403
 30
0.0
  0
SPLINE
  5
1C6
330
1F
100
AcDbEntity
  8
0
  6
Continuous
 62
     7
370
    25
100
AcDbSpline
210
0.0
220
0.0
230
1.0
 70
     8
 71
     3
 72
    12
 73
     8
 74
     0
 42
0.000000001
 43
0.00000001
 40
0.0
 40
0.0
 40
0.0
 40
0.0
 40
0.1664616503807027
 40
0.3330491366093241
 40
0.5001938540683241
 40
0.7619811741357122
 40
1.0
 40
1.0
 40
1.0
 40
1.0
 10
142.016122562126
 20
146.2139028901735
 30
0.0
 10
142.0340963858777
 20
146.1909092047701
 30
0.0
 10
142.0700576206031
 20
146.1449044520025
 30
0.0
 10
142.1277745496764
 20
146.0793614871921
 30
0.0
 10
142.1980592611688
 20
146.0049953009726
 30
0.0
 10
142.2774020156119
 20
145.925723757313
 30
0.0
 10
142.3318830866349
 20
145.873673566352
 30
0.0
 10
142.3578281868749
 20
145.8488861053745
 30
0.0
  0
SPLINE
  5
1C7
330
1F
100
AcDbEntity
  8
0
  6
Continuous
 62
     7
370
    25
100
AcDbSpline
210
0.0
220
0.0
230
1.0
 70
     8
 71
     3
 72
    14
 73
    10
 74
     0
 42
0.000000001
 43
0.00000001
 40
0.0
 40
0.0
 40
0.0
 40
0.0
 40
0.1488603598374869
 40
0.3150273329269794
 40
0.4987646698885773
 40
0.5951853465829806
 40
0.7494349165379153
 40
0.8793203509512854
 40
1.0
 40
1.0
 40
1.0
 40
1.0
 10
142.3578281868749
 20
145.8488861053745
 30
0.0
 10
142.3426174294545
 20
145.8356427444662
 30
0.0
 10
142.3104275009393
 20
145.8076163399186
 30
0.0
 10
142.2558034698315
 20
145.7735467787097
 30
0.0
 10
142.2050978073917
 20
145.7499928933181
 30
0.0
 10
142.1550811678193
 20
145.7328638272513
 30
0.0
 10
142.1104074722922
 20
145.7220387932454
 30
0.0
 10
142.0618302098146
 20
145.7150975619304
 30
0.0
 10
142.0309806266179
 20
145.7142912393021
 30
0.0
 10
142.0161225433526
 20
145.7139028901735
 30
0.0
  0
SPLINE
  5
1C8
330
1F
100
AcDbEntity
  8
0
  6
Continuous
 62
     7
370
    25
100
AcDbSpline
210
0.0
220
0.0
230
1.0
 70
    24
 71
     3
 72
    13
 73
     9
 74
     0
 42
0.000000001
 43
0.00000001
 40
0.0
 40
0.0
 40
0.0
 40
0.0
 40
0.1685697420418679
 40
0.336788340551284
 40
0.5051413227990079
 40
0.6735933978721836
 40
0.8417292384037441
 40
0.9999999999999999
 40
0.9999999999999999
 40
0.9999999999999999
 40
0.9999999999999999
 10
142.0161227594194
 20
145.7139026741067
 30
0.0
 10
141.9178137086717
 20
145.7139026741067
 30
0.0
 10
141.7214003923704
 20
145.7139026741067
 30
0.0
 10
141.4384864977321
 20
145.7139026741067
 30
0.0
 10
141.1769631912214
 20
145.7139026741067
 30
0.0
 10
140.949652947165
 20
145.7139026741067
 30
0.0
 10
140.761817075576
 20
145.7139026741067
 30
0.0
 10
140.6790124935404
 20
145.7139026741067
 30
0.0
 10
140.6388615156588
 20
145.7139026741067
 30
0.0
  0
SPLINE
  5
1C9
330
1F
100
AcDbEntity
  8
0
  6
Continuous
 62
     7
370
    25
100
AcDbSpline
210
0.0
220
0.0
230
1.0
 70
     8
 71
     3
 72
    13
 73
     9
 74
     0
 42
0.000000001
 43
0.00000001
 40
0.0
 40
0.0
 40
0.0
 40
0.0
 40
0.1162222239446788
 40
0.2381780213507807
 40
0.3660917905398808
 40
0.5001580142687957
 40
0.7504239388759752
 40
1.0
 40
1.0
 40
1.0
 40
1.0
 10
127.6744168998302
 20
145.8488861053746
 30
0.0
 10
127.6868649104477
 20
145.8607235637047
 30
0.0
 10
127.7123750275147
 20
145.8849824559131
 30
0.0
 10
127.7538822005306
 20
145.9252686142701
 30
0.0
 10
127.7984749512361
 20
145.9694258052169
 30
0.0
 10
127.8589810345405
 20
146.0308400805104
 30
0.0
 10
127.9343848182032
 20
146.1108708825222
 30
0.0
 10
127.9889017031855
 20
146.1795905023851
 30
0.0
 10
128.0161225245792
 20
146.2139028901735
 30
0.0
  0
SPLINE
  5
1CA
330
1F
100
AcDbEntity
  8
0
  6
Continuous
 62
     7
370
    25
100
AcDbSpline
210
0.0
220
0.0
230
1.0
 70
     8
 71
     3
 72
    13
 73
     9
 74
     0
 42
0.000000001
 43
0.00000001
 40
0.0
 40
0.0
 40
0.0
 40
0.0
 40
0.1206933098378984
 40
0.2506349558807637
 40
0.4049363563536673
 40
0.5013750994399903
 40
0.7702864430522399
 40
1.0
 40
1.0
 40
1.0
 40
1.0
 10
128.0161225433526
 20
145.7139028901735
 30
0.0
 10
128.0012667651607
 20
145.7142906049145
 30
0.0
 10
127.9704168587599
 20
145.7150957437174
 30
0.0
 10
127.9218417071428
 20
145.7220457555567
 30
0.0
 10
127.8771520247575
 20
145.7328360644122
 30
0.0
 10
127.8173883154157
 20
145.7534558498238
 30
0.0
 10
127.7495963023681
 20
145.7859635337675
 30
0.0
 10
127.6981280299898
 20
145.8290407057706
 30
0.0
 10
127.6744168998302
 20
145.8488861053746
 30
0.0
  0
SPLINE
  5
1CB
330
1F
100
AcDbEntity
  8
0
  6
Continuous
 62
     7
370
    25
100
AcDbSpline
210
0.0
220
0.0
230
1.0
 70
    24
 71
     3
 72
    13
 73
     9
 74
     0
 42
0.000000001
 43
0.00000001
 40
0.0
 40
0.0
 40
0.0
 40
0.0
 40
0.1144647671590815
 40
0.291615705726434
 40
0.4684340794035635
 40
0.6458133828963049
 40
0.8225570207736255
 40
1.0
 40
1.0
 40
1.0
 40
1.0
 10
129.3530270355818
 20
145.7139026741067
 30
0.0
 10
129.3250271575028
 20
145.7139026741067
 30
0.0
 10
129.2536933802286
 20
145.7139026741067
 30
0.0
 10
129.0822886574115
 20
145.7139026741067
 30
0.0
 10
128.8555944556676
 20
145.7139026741067
 30
0.0
 10
128.593967877084
 20
145.7139026741067
 30
0.0
 10
128.3109654710265
 20
145.7139026741067
 30
0.0
 10
128.114532660704
 20
145.7139026741067
 30
0.0
 10
128.0161223272857
 20
145.7139026741067
 30
0.0
  0
SPLINE
  5
1CC
330
1F
100
AcDbEntity
  8
0
  6
Continuous
 62
     7
370
    25
100
AcDbSpline
210
0.0
220
0.0
230
1.0
 70
     8
 71
     3
 72
    13
 73
     9
 74
     0
 42
0.000000001
 43
0.00000001
 40
0.0
 40
0.0
 40
0.0
 40
0.0
 40
0.1162222328345675
 40
0.2381780342187649
 40
0.3660918025068102
 40
0.5001580205070525
 40
0.7504239414864089
 40
0.9999999999999999
 40
0.9999999999999999
 40
0.9999999999999999
 40
0.9999999999999999
 10
142.3578281868749
 20
159.5789196749725
 30
0.0
 10
142.3453801752673
 20
159.5670822157609
 30
0.0
 10
142.3198700567443
 20
159.5428233222912
 30
0.0
 10
142.2783628820333
 20
159.5025371626994
 30
0.0
 10
142.2337701314637
 20
159.4583799719362
 30
0.0
 10
142.1732640498338
 20
159.3969656971151
 30
0.0
 10
142.0978602684555
 20
159.3169348958336
 30
0.0
 10
142.0433433835408
 20
159.248215277345
 30
0.0
 10
142.016122562126
 20
159.2139028901735
 30
0.0
  0
SPLINE
  5
1CD
330
1F
100
AcDbEntity
  8
0
  6
Continuous
 62
     7
370
    25
100
AcDbSpline
210
0.0
220
0.0
230
1.0
 70
     8
 71
     3
 72
    13
 73
     9
 74
     0
 42
0.000000001
 43
0.00000001
 40
0.0
 40
0.0
 40
0.0
 40
0.0
 40
0.1206933478353882
 40
0.25063504079335
 40
0.4049364375708385
 40
0.5013752757893005
 40
0.7702865166940487
 40
1.0
 40
1.0
 40
1.0
 40
1.0
 10
142.0161225433526
 20
159.7139028901735
 30
0.0
 10
142.0309783262101
 20
159.7135151751873
 30
0.0
 10
142.0618282430389
 20
159.7127100358558
 30
0.0
 10
142.1104034038243
 20
159.7057600203676
 30
0.0
 10
142.1550931017517
 20
159.6949697049648
 30
0.0
 10
142.2148568093691
 20
159.674349913778
 30
0.0
 10
142.2826488107156
 20
159.6418422267458
 30
0.0
 10
142.3341170644978
 20
159.5987650687706
 30
0.0
 10
142.3578281868749
 20
159.5789196749725
 30
0.0
  0
SPLINE
  5
1CE
330
1F
100
AcDbEntity
  8
0
  6
Continuous
 62
     7
370
    25
100
AcDbSpline
210
0.0
220
0.0
230
1.0
 70
    24
 71
     3
 72
    13
 73
     9
 74
     0
 42
0.000000001
 43
0.00000001
 40
0.0
 40
0.0
 40
0.0
 40
0.0
 40
0.1262016779661141
 40
0.3010046526261732
 40
0.4754794702211407
 40
0.6505077830509483
 40
0.824908855396662
 40
0.9999999999999999
 40
0.9999999999999999
 40
0.9999999999999999
 40
0.9999999999999999
 10
140.6687215800461
 20
159.7139031062403
 30
0.0
 10
140.6998772165825
 20
159.7139031062403
 30
0.0
 10
140.7741867796888
 20
159.7139031062403
 30
0.0
 10
140.9497897997128
 20
159.7139031062403
 30
0.0
 10
141.1766953910086
 20
159.7139031062403
 30
0.0
 10
141.4382653070554
 20
159.7139031062403
 30
0.0
 10
141.721282600589
 20
159.7139031062403
 30
0.0
 10
141.9177134222802
 20
159.7139031062403
 30
0.0
 10
142.0161227594194
 20
159.7139031062403
 30
0.0
  0
SPLINE
  5
1CF
330
1F
100
AcDbEntity
  8
0
  6
Continuous
 62
     7
370
    25
100
AcDbSpline
210
0.0
220
0.0
230
1.0
 70
     8
 71
     3
 72
    13
 73
     9
 74
     0
 42
0.000000001
 43
0.00000001
 40
0.0
 40
0.0
 40
0.0
 40
0.0
 40
0.1856794033212272
 40
0.3634611737568169
 40
0.533542336720674
 40
0.6961479207300177
 40
0.8515354443703902
 40
1.0
 40
1.0
 40
1.0
 40
1.0
 10
127.1716657258949
 20
146.1473208264154
 30
0.0
 10
127.1553374200517
 20
146.1728597705352
 30
0.0
 10
127.1233753117023
 20
146.2228513928707
 30
0.0
 10
127.0846564584703
 20
146.3043266357191
 30
0.0
 10
127.0541023793826
 20
146.3876515196377
 30
0.0
 10
127.0324856424735
 20
146.4728189865153
 30
0.0
 10
127.0187779479847
 20
146.5586557497629
 30
0.0
 10
127.0169941307281
 20
146.6181613240732
 30
0.0
 10
127.0161225433526
 20
146.6472362235068
 30
0.0
  0
SPLINE
  5
1D0
330
1F
100
AcDbEntity
  8
0
  6
Continuous
 62
     7
370
    25
100
AcDbSpline
210
0.0
220
0.0
230
1.0
 70
     8
 71
     3
 72
    17
 73
    13
 74
     0
 42
0.000000001
 43
0.00000001
 40
0.0
 40
0.0
 40
0.0
 40
0.0
 40
0.1130667886658668
 40
0.2142471894553318
 40
0.3035410226158834
 40
0.3809482842621089
 40
0.4464692357998273
 40
0.5001045924259258
 40
0.6375226532033567
 40
0.75004211245356
 40
0.8820380142920121
 40
1.0
 40
1.0
 40
1.0
 40
1.0
 10
127.5161225433526
 20
145.7139028901735
 30
0.0
 10
127.5058929172486
 20
145.7149803728633
 30
0.0
 10
127.4865090763541
 20
145.7170220655715
 30
0.0
 10
127.4586148317963
 20
145.7321874872692
 30
0.0
 10
127.4336220240988
 20
145.7524487328373
 30
0.0
 10
127.4114926265647
 20
145.7757994844018
 30
0.0
 10
127.3922927998384
 20
145.7996200104327
 30
0.0
 10
127.3661110344854
 20
145.8351374500743
 30
0.0
 10
127.3331294928944
 20
145.8854467429502
 30
0.0
 10
127.2875352184802
 20
145.9624332212871
 30
0.0
 10
127.2376265618013
 20
146.0468738013204
 30
0.0
 10
127.1928140023216
 20
146.1151156333828
 30
0.0
 10
127.1716657258949
 20
146.1473208264154
 30
0.0
  0
SPLINE
  5
1D1
330
1F
100
AcDbEntity
  8
0
  6
Continuous
 62
     7
370
    25
100
AcDbSpline
210
0.0
220
0.0
230
1.0
 70
     8
 71
     3
 72
    14
 73
    10
 74
     0
 42
0.000000001
 43
0.00000001
 40
0.0
 40
0.0
 40
0.0
 40
0.0
 40
0.0771019312872794
 40
0.1604220744063169
 40
0.2500134455684252
 40
0.3625277428809286
 40
0.4999872826729911
 40
0.6965319256112464
 40
1.0
 40
1.0
 40
1.0
 40
1.0
 10
142.8605793608102
 20
146.1473208264154
 30
0.0
 10
142.8464500839031
 20
146.1260561010978
 30
0.0
 10
142.817052014705
 20
146.0818116666178
 30
0.0
 10
142.7785341184926
 20
146.019152925534
 30
0.0
 10
142.7394715920077
 20
145.9537794019205
 30
0.0
 10
142.6991910856141
 20
145.8854340946742
 30
0.0
 10
142.6505323912563
 20
145.8117713764875
 30
0.0
 10
142.5890975518059
 20
145.7340084509059
 30
0.0
 10
142.5436846027349
 20
145.7214965947933
 30
0.0
 10
142.5161225433526
 20
145.7139028901735
 30
0.0
  0
SPLINE
  5
1D2
330
1F
100
AcDbEntity
  8
0
  6
Continuous
 62
     7
370
    25
100
AcDbSpline
210
0.0
220
0.0
230
1.0
 70
     8
 71
     3
 72
    13
 73
     9
 74
     0
 42
0.000000001
 43
0.00000001
 40
0.0
 40
0.0
 40
0.0
 40
0.0
 40
0.1484645556295969
 40
0.303852079269964
 40
0.4664576632793
 40
0.6365388262431574
 40
0.814320596678755
 40
1.0
 40
1.0
 40
1.0
 40
1.0
 10
143.0161225433526
 20
146.6472362235068
 30
0.0
 10
143.015250955977
 20
146.6181613240732
 30
0.0
 10
143.0134671387204
 20
146.5586557497629
 30
0.0
 10
142.9997594442316
 20
146.4728189865153
 30
0.0
 10
142.9781427073225
 20
146.3876515196377
 30
0.0
 10
142.9475886282348
 20
146.3043266357191
 30
0.0
 10
142.9088697750029
 20
146.2228513928707
 30
0.0
 10
142.8769076666534
 20
146.1728597705352
 30
0.0
 10
142.8605793608102
 20
146.1473208264154
 30
0.0
  0
LINE
  5
1D3
330
1F
100
AcDbEntity
  8
0
  6
Continuous
 62
     7
370
    25
100
AcDbLine
 10
143.0161229233
 20
147.9548179912
 30
0.0
 11
143.0161229233
 21
146.6472364398
 31
0.0
  0
LINE
  5
1D4
330
1F
100
AcDbEntity
  8
0
  6
Continuous
 62
     7
370
    25
100
AcDbLine
 10
143.0161229233
 20
158.7805693405
 30
0.0
 11
143.0161229233
 21
157.4729877892
 31
0.0
  0
SPLINE
  5
1D5
330
1F
100
AcDbEntity
  8
0
  6
Continuous
 62
     7
370
    25
100
AcDbSpline
210
0.0
220
0.0
230
1.0
 70
     8
 71
     3
 72
    13
 73
     9
 74
     0
 42
0.000000001
 43
0.00000001
 40
0.0
 40
0.0
 40
0.0
 40
0.0
 40
0.1856794033212442
 40
0.3634611737568403
 40
0.5335423367206995
 40
0.6961479207300372
 40
0.8515354443704025
 40
0.9999999999999999
 40
0.9999999999999999
 40
0.9999999999999999
 40
0.9999999999999999
 10
142.8605793608102
 20
159.2804849539316
 30
0.0
 10
142.8769076666534
 20
159.2549460098118
 30
0.0
 10
142.9088697750029
 20
159.2049543874763
 30
0.0
 10
142.9475886282348
 20
159.1234791446279
 30
0.0
 10
142.9781427073225
 20
159.0401542607093
 30
0.0
 10
142.9997594442316
 20
158.9549867938318
 30
0.0
 10
143.0134671387204
 20
158.8691500305841
 30
0.0
 10
143.015250955977
 20
158.8096444562738
 30
0.0
 10
143.0161225433526
 20
158.7805695568402
 30
0.0
  0
SPLINE
  5
1D6
330
1F
100
AcDbEntity
  8
0
  6
Continuous
 62
     7
370
    25
100
AcDbSpline
210
0.0
220
0.0
230
1.0
 70
     8
 71
     3
 72
    16
 73
    12
 74
     0
 42
0.000000001
 43
0.00000001
 40
0.0
 40
0.0
 40
0.0
 40
0.0
 40
0.1113707238457123
 40
0.2115306831336734
 40
0.3004797812258395
 40
0.3782180942859685
 40
0.4447459579759641
 40
0.500064141985791
 40
0.7004020768506897
 40
0.8669907153164842
 40
1.0
 40
1.0
 40
1.0
 40
1.0
 10
142.5161225433526
 20
159.7139028901735
 30
0.0
 10
142.52620022218
 20
159.7128572467349
 30
0.0
 10
142.545341143718
 20
159.7108712160865
 30
0.0
 10
142.5729868614325
 20
159.6960636588969
 30
0.0
 10
142.5979356498302
 20
159.6761088499656
 30
0.0
 10
142.6202167830702
 20
159.6528623679866
 30
0.0
 10
142.6397959058917
 20
159.6288056206265
 30
0.0
 10
142.6726836262604
 20
159.58432630895
 30
0.0
 10
142.7205622835071
 20
159.5102029155892
 30
0.0
 10
142.7850756426655
 20
159.3981889829993
 30
0.0
 10
142.8373650098713
 20
159.3166742000357
 30
0.0
 10
142.8605793608102
 20
159.2804849539316
 30
0.0
  0
SPLINE
  5
1D7
330
1F
100
AcDbEntity
  8
0
  6
Continuous
 62
     7
370
    25
100
AcDbSpline
210
0.0
220
0.0
230
1.0
 70
     8
 71
     3
 72
    14
 73
    10
 74
     0
 42
0.000000001
 43
0.00000001
 40
0.0
 40
0.0
 40
0.0
 40
0.0
 40
0.0771019312877576
 40
0.1604220744066402
 40
0.250013445567957
 40
0.3625277428349449
 40
0.4999872826724504
 40
0.6965319246666456
 40
1.0
 40
1.0
 40
1.0
 40
1.0
 10
127.1716657258949
 20
159.2804849539316
 30
0.0
 10
127.1857950028021
 20
159.3017496792493
 30
0.0
 10
127.2151930720005
 20
159.3459941137294
 30
0.0
 10
127.253710968213
 20
159.4086528548129
 30
0.0
 10
127.2927734946936
 20
159.4740263784157
 30
0.0
 10
127.3330540010832
 20
159.5423716856641
 30
0.0
 10
127.3817126953512
 20
159.6160344036974
 30
0.0
 10
127.4431475347688
 20
159.6937973293653
 30
0.0
 10
127.4885604838676
 20
159.7063091855104
 30
0.0
 10
127.5161225433526
 20
159.7139028901735
 30
0.0
  0
SPLINE
  5
1D8
330
1F
100
AcDbEntity
  8
0
  6
Continuous
 62
     7
370
    25
100
AcDbSpline
210
0.0
220
0.0
230
1.0
 70
     8
 71
     3
 72
    13
 73
     9
 74
     0
 42
0.000000001
 43
0.00000001
 40
0.0
 40
0.0
 40
0.0
 40
0.0
 40
0.1484645556296106
 40
0.3038520792699841
 40
0.4664576632793244
 40
0.6365388262431811
 40
0.8143205966787692
 40
1.0
 40
1.0
 40
1.0
 40
1.0
 10
127.0161225433526
 20
158.7805695568402
 30
0.0
 10
127.0169941307281
 20
158.8096444562738
 30
0.0
 10
127.0187779479847
 20
158.8691500305841
 30
0.0
 10
127.0324856424735
 20
158.9549867938318
 30
0.0
 10
127.0541023793826
 20
159.0401542607093
 30
0.0
 10
127.0846564584703
 20
159.1234791446279
 30
0.0
 10
127.1233753117023
 20
159.2049543874763
 30
0.0
 10
127.1553374200517
 20
159.2549460098118
 30
0.0
 10
127.1716657258949
 20
159.2804849539316
 30
0.0
  0
LINE
  5
1D9
330
1F
100
AcDbEntity
  8
0
  6
Continuous
 62
     7
370
    25
100
AcDbLine
 10
127.0161221634
 20
157.4729877892
 30
0.0
 11
127.0161221634
 21
158.7805693405
 31
0.0
  0
LINE
  5
1DA
330
1F
100
AcDbEntity
  8
0
  6
Continuous
 62
     7
370
    25
100
AcDbLine
 10
127.0161221634
 20
146.6472364398
 30
0.0
 11
127.0161221634
 21
147.9548179912
 31
0.0
  0
LINE
  5
1DB
330
1F
100
AcDbEntity
  8
0
  6
Continuous
 62
     7
370
    25
100
AcDbLine
 10
142.5161223757
 20
157.8129223915
 30
0.0
 11
142.5161223757
 21
159.2139030243
 31
0.0
  0
ARC
  5
1DC
330
1F
100
AcDbEntity
  8
0
  6
Continuous
 62
     7
370
    25
100
AcDbCircle
 10
142.0161225434
 20
159.2139028902
 30
0.0
 40
0.5000000000000284
100
AcDbArc
 50
0.0
 51
46.8892083855
  0
LINE
  5
1DD
330
1F
100
AcDbEntity
  8
0
  6
Continuous
 62
     7
370
    25
100
AcDbLine
 10
127.516122711
 20
147.6148833888
 30
0.0
 11
127.516122711
 21
146.2139027561
 31
0.0
  0
ARC
  5
1DE
330
1F
100
AcDbEntity
  8
0
  6
Continuous
 62
     7
370
    25
100
AcDbCircle
 10
128.0161225434
 20
146.2139028902
 30
0.0
 40
0.5
100
AcDbArc
 50
180.0
 51
226.8892083855
  0
LINE
  5
1DF
330
1F
100
AcDbEntity
  8
0
  6
Continuous
 62
     7
370
    25
100
AcDbLine
 10
127.516122711
 20
159.2139030243
 30
0.0
 11
127.516122711
 21
157.8129223915
 31
0.0
  0
ARC
  5
1E0
330
1F
100
AcDbEntity
  8
0
  6
Continuous
 62
     7
370
    25
100
AcDbCircle
 10
128.0161225434
 20
159.2139028902
 30
0.0
 40
0.5
100
AcDbArc
 50
133.1107916145
 51
180.0
  0
LINE
  5
1E1
330
1F
100
AcDbEntity
  8
0
  6
Continuous
 62
     7
370
    25
100
AcDbLine
 10
142.5161223757
 20
146.2139027561
 30
0.0
 11
142.5161223757
 21
147.6148833888
 31
0.0
  0
ARC
  5
1E2
330
1F
100
AcDbEntity
  8
0
  6
Continuous
 62
     7
370
    25
100
AcDbCircle
 10
142.0161225434
 20
146.2139028902
 30
0.0
 40
0.5000000000000284
100
AcDbArc
 50
313.1107916145
 51
0.0
  0
SPLINE
  5
1E3
330
1F
100
AcDbEntity
  8
0
  6
Continuous
 62
     7
370
    25
100
AcDbSpline
210
0.0
220
0.0
230
1.0
 70
     8
 71
     3
 72
     9
 73
     5
 74
     0
 42
0.000000001
 43
0.00000001
 40
0.0
 40
0.0
 40
0.0
 40
0.0
 40
0.5
 40
1.0
 40
1.0
 40
1.0
 40
1.0
 10
127.5161225433526
 20
157.8129224037663
 30
0.0
 10
127.5161225433526
 20
157.7239277246306
 30
0.0
 10
127.4078358887069
 20
157.5466085382068
 30
0.0
 10
127.1470222372522
 20
157.4729877695268
 30
0.0
 10
127.0161225433526
 20
157.4729877695268
 30
0.0
  0
SPLINE
  5
1E4
330
1F
100
AcDbEntity
  8
0
  6
Continuous
 62
     7
370
    25
100
AcDbSpline
210
0.0
220
0.0
230
1.0
 70
     8
 71
     3
 72
     9
 73
     5
 74
     0
 42
0.000000001
 43
0.00000001
 40
0.0
 40
0.0
 40
0.0
 40
0.0
 40
0.5
 40
1.0
 40
1.0
 40
1.0
 40
1.0
 10
143.0161225433526
 20
157.4729877695268
 30
0.0
 10
142.885222849453
 20
157.4729877695268
 30
0.0
 10
142.6244091979982
 20
157.5466085382068
 30
0.0
 10
142.5161225433526
 20
157.7239277246306
 30
0.0
 10
142.5161225433526
 20
157.8129224037663
 30
0.0
  0
SPLINE
  5
1E5
330
1F
100
AcDbEntity
  8
0
  6
Continuous
 62
     7
370
    25
100
AcDbSpline
210
0.0
220
0.0
230
1.0
 70
     8
 71
     3
 72
     9
 73
     5
 74
     0
 42
0.000000001
 43
0.00000001
 40
0.0
 40
0.0
 40
0.0
 40
0.0
 40
0.5
 40
1.0
 40
1.0
 40
1.0
 40
1.0
 10
127.0161225433526
 20
147.9548180108202
 30
0.0
 10
127.1470222372522
 20
147.9548180108202
 30
0.0
 10
127.4078358887069
 20
147.8811972421402
 30
0.0
 10
127.5161225433526
 20
147.7038780557164
 30
0.0
 10
127.5161225433526
 20
147.6148833765807
 30
0.0
  0
SPLINE
  5
1E6
330
1F
100
AcDbEntity
  8
0
  6
Continuous
 62
     7
370
    25
100
AcDbSpline
210
0.0
220
0.0
230
1.0
 70
     8
 71
     3
 72
     9
 73
     5
 74
     0
 42
0.000000001
 43
0.00000001
 40
0.0
 40
0.0
 40
0.0
 40
0.0
 40
0.5
 40
1.0
 40
1.0
 40
1.0
 40
1.0
 10
142.5161225433526
 20
147.6148833765807
 30
0.0
 10
142.5161225433526
 20
147.7038780557163
 30
0.0
 10
142.6244091979982
 20
147.8811972421402
 30
0.0
 10
142.885222849453
 20
147.9548180108202
 30
0.0
 10
143.0161225433526
 20
147.9548180108202
 30
0.0
  0
SPLINE
  5
1E7
330
1F
100
AcDbEntity
  8
0
  6
Continuous
 62
     7
370
    25
100
AcDbSpline
210
0.0
220
0.0
230
1.0
 70
     8
 71
     3
 72
     9
 73
     5
 74
     0
 42
0.000000001
 43
0.00000001
 40
0.0
 40
0.0
 40
0.0
 40
0.0
 40
0.5
 40
1.0
 40
1.0
 40
1.0
 40
1.0
 10
142.5161225433526
 20
159.2139028901735
 30
0.0
 10
142.5161225433526
 20
159.1004564887939
 30
0.0
 10
142.6244064135375
 20
158.8744155776671
 30
0.0
 10
142.885222849453
 20
158.7805695568402
 30
0.0
 10
143.0161225433526
 20
158.7805695568402
 30
0.0
  0
SPLINE
  5
1E8
330
1F
100
AcDbEntity
  8
0
  6
Continuous
 62
     7
370
    25
100
AcDbSpline
210
0.0
220
0.0
230
1.0
 70
     8
 71
     3
 72
     9
 73
     5
 74
     0
 42
0.000000001
 43
0.00000001
 40
0.0
 40
0.0
 40
0.0
 40
0.0
 40
0.5
 40
1.0
 40
1.0
 40
1.0
 40
1.0
 10
127.5161225433526
 20
146.2139028901735
 30
0.0
 10
127.5161225433526
 20
146.3273492915531
 30
0.0
 10
127.4078386731676
 20
146.5533902026799
 30
0.0
 10
127.1470222372522
 20
146.6472362235068
 30
0.0
 10
127.0161225433526
 20
146.6472362235068
 30
0.0
  0
SPLINE
  5
1E9
330
1F
100
AcDbEntity
  8
0
  6
Continuous
 62
     7
370
    25
100
AcDbSpline
210
0.0
220
0.0
230
1.0
 70
     8
 71
     3
 72
     9
 73
     5
 74
     0
 42
0.000000001
 43
0.00000001
 40
0.0
 40
0.0
 40
0.0
 40
0.0
 40
0.5
 40
1.0
 40
1.0
 40
1.0
 40
1.0
 10
127.0161225433526
 20
158.7805695568402
 30
0.0
 10
127.1470222372522
 20
158.7805695568402
 30
0.0
 10
127.4078386731676
 20
158.8744155776671
 30
0.0
 10
127.5161225433526
 20
159.1004564887939
 30
0.0
 10
127.5161225433526
 20
159.2139028901735
 30
0.0
  0
SPLINE
  5
1EA
330
1F
100
AcDbEntity
  8
0
  6
Continuous
 62
     7
370
    25
100
AcDbSpline
210
0.0
220
0.0
230
1.0
 70
     8
 71
     3
 72
     9
 73
     5
 74
     0
 42
0.000000001
 43
0.00000001
 40
0.0
 40
0.0
 40
0.0
 40
0.0
 40
0.5
 40
1.0
 40
1.0
 40
1.0
 40
1.0
 10
143.0161225433526
 20
146.6472362235068
 30
0.0
 10
142.885222849453
 20
146.6472362235068
 30
0.0
 10
142.6244064135375
 20
146.5533902026799
 30
0.0
 10
142.5161225433526
 20
146.3273492915531
 30
0.0
 10
142.5161225433526
 20
146.2139028901735
 30
0.0
  0
SPLINE
  5
1EB
330
1F
100
AcDbEntity
  8
0
  6
Continuous
 62
     7
370
    25
100
AcDbSpline
210
0.0
220
0.0
230
1.0
 70
     8
 71
     3
 72
     8
 73
     4
 74
     0
 42
0.000000001
 43
0.00000001
 40
0.0
 40
0.0
 40
0.0
 40
0.0
 40
1.0
 40
1.0
 40
1.0
 40
1.0
 10
127.1716657258949
 20
159.2804849539316
 30
0.0
 10
127.3416696057306
 20
159.2675453087062
 30
0.0
 10
127.5084740680831
 20
159.3470426153386
 30
0.0
 10
127.5938941346237
 20
159.4817147100439
 30
0.0
  0
SPLINE
  5
1EC
330
1F
100
AcDbEntity
  8
0
  6
Continuous
 62
     7
370
    25
100
AcDbSpline
210
0.0
220
0.0
230
1.0
 70
     8
 71
     3
 72
     9
 73
     5
 74
     0
 42
0.000000001
 43
0.00000001
 40
0.0
 40
0.0
 40
0.0
 40
0.0
 40
0.571428571428571
 40
1.0
 40
1.0
 40
1.0
 40
1.0
 10
142.8605793608102
 20
146.1473208264154
 30
0.0
 10
142.7634342866184
 20
146.1547149094013
 30
0.0
 10
142.5937729479008
 20
146.1173997298232
 30
0.0
 10
142.4749595520274
 20
146.0038076823197
 30
0.0
 10
142.4383509520814
 20
145.9460910703031
 30
0.0
  0
SPLINE
  5
1ED
330
1F
100
AcDbEntity
  8
0
  6
Continuous
 62
     7
370
    25
100
AcDbSpline
210
0.0
220
0.0
230
1.0
 70
     8
 71
     3
 72
     9
 73
     5
 74
     0
 42
0.000000001
 43
0.00000001
 40
0.0
 40
0.0
 40
0.0
 40
0.0
 40
0.5
 40
1.0
 40
1.0
 40
1.0
 40
1.0
 10
142.8605793608114
 20
159.2804849539299
 30
0.0
 10
142.7755774208933
 20
159.274015131317
 30
0.0
 10
142.6056835026446
 20
159.304694124523
 30
0.0
 10
142.4810609853521
 20
159.41437866269
 30
0.0
 10
142.438350952082
 20
159.481714710043
 30
0.0
  0
SPLINE
  5
1EE
330
1F
100
AcDbEntity
  8
0
  6
Continuous
 62
     7
370
    25
100
AcDbSpline
210
0.0
220
0.0
230
1.0
 70
     8
 71
     3
 72
     9
 73
     5
 74
     0
 42
0.000000001
 43
0.00000001
 40
0.0
 40
0.0
 40
0.0
 40
0.0
 40
0.5
 40
1.0
 40
1.0
 40
1.0
 40
1.0
 10
127.1716657258942
 20
146.1473208264164
 30
0.0
 10
127.2566676658122
 20
146.1537906490293
 30
0.0
 10
127.4265615840608
 20
146.1231116558234
 30
0.0
 10
127.5511841013532
 20
146.0134271176566
 30
0.0
 10
127.5938941346234
 20
145.9460910703036
 30
0.0
  0
SPLINE
  5
1EF
330
1F
100
AcDbEntity
  8
0
  6
Continuous
 62
     7
370
    25
100
AcDbSpline
210
0.0
220
0.0
230
1.0
 70
     8
 71
     3
 72
    11
 73
     7
 74
     0
 42
0.000000001
 43
0.00000001
 40
0.0
 40
0.0
 40
0.0
 40
0.0
 40
0.2876478479512965
 40
0.5611005784409707
 40
0.8299950982559509
 40
1.0
 40
1.0
 40
1.0
 40
1.0
 10
127.5938941995678
 20
159.4817146095017
 30
0.0
 10
127.6082846284244
 20
159.5167707657913
 30
0.0
 10
127.6363553336738
 20
159.5851530940865
 30
0.0
 10
127.6065229936625
 20
159.6584697564777
 30
0.0
 10
127.5722907950126
 20
159.7009432978877
 30
0.0
 10
127.5445647844732
 20
159.7064163917701
 30
0.0
 10
127.5338252904889
 20
159.7085363599041
 30
0.0
  0
SPLINE
  5
1F0
330
1F
100
AcDbEntity
  8
0
  6
Continuous
 62
     7
370
    25
100
AcDbSpline
210
0.0
220
0.0
230
1.0
 70
    24
 71
     3
 72
    14
 73
    10
 74
     0
 42
0.000000001
 43
0.00000001
 40
0.0
 40
0.0
 40
0.0
 40
0.0
 40
0.250384366109634
 40
0.3856975923178703
 40
0.5014306604032173
 40
0.6388329400918317
 40
0.7674982872365089
 40
0.8877537710032762
 40
1.0
 40
1.0
 40
1.0
 40
1.0
 10
127.5161225433526
 20
159.7139028901735
 30
0.0
 10
127.575409488238
 20
159.7139028901735
 30
0.0
 10
127.6667364039456
 20
159.7139028901735
 30
0.0
 10
127.7792507338474
 20
159.7139028901735
 30
0.0
 10
127.8590371432204
 20
159.7139028901735
 30
0.0
 10
127.9258363570768
 20
159.7139028901735
 30
0.0
 10
127.9770253207475
 20
159.7139028901735
 30
0.0
 10
128.0096546726063
 20
159.7139028901735
 30
0.0
 10
128.0140166740696
 20
159.7139028901735
 30
0.0
 10
128.0161225433526
 20
159.7139028901735
 30
0.0
  0
SPLINE
  5
1F1
330
1F
100
AcDbEntity
  8
0
  6
Continuous
 62
     7
370
    25
100
AcDbSpline
210
0.0
220
0.0
230
1.0
 70
     8
 71
     3
 72
    12
 73
     8
 74
     0
 42
0.000000001
 43
0.00000001
 40
0.0
 40
0.0
 40
0.0
 40
0.0
 40
0.106360891224351
 40
0.159541336836527
 40
0.265902228060878
 40
0.265902228060878
 40
0.267217449764311
 40
0.267217449764311
 40
0.267217449764311
 40
0.267217449764311
 10
142.4383509520814
 20
145.9460910703031
 30
0.0
 10
142.4003087652534
 20
145.8861142850453
 30
0.0
 10
142.4058046374065
 20
145.8118236410087
 30
0.0
 10
142.4477012169233
 20
145.7335920557855
 30
0.0
 10
142.4888273746673
 20
145.714215939273
 30
0.0
 10
142.5154747521916
 20
145.7139047978255
 30
0.0
 10
142.5157982538666
 20
145.7139028901735
 30
0.0
 10
142.5161225433526
 20
145.7139028901735
 30
0.0
  0
SPLINE
  5
1F2
330
1F
100
AcDbEntity
  8
0
  6
Continuous
 62
     7
370
    25
100
AcDbSpline
210
0.0
220
0.0
230
1.0
 70
    24
 71
     3
 72
    16
 73
    12
 74
     0
 42
0.000000001
 43
0.00000001
 40
0.0
 40
0.0
 40
0.0
 40
0.0
 40
0.0739298478317502
 40
0.1513677900738161
 40
0.2324450724296886
 40
0.3172760505391666
 40
0.4059605604440887
 40
0.4985859784696513
 40
0.6141264806631028
 40
0.7496239522892343
 40
1.0
 40
1.0
 40
1.0
 40
1.0
 10
142.0161225433526
 20
145.7139028901735
 30
0.0
 10
142.0170378486451
 20
145.7139028901735
 30
0.0
 10
142.0189118919907
 20
145.7139028901735
 30
0.0
 10
142.0332866435482
 20
145.7139028901735
 30
0.0
 10
142.0559799890369
 20
145.7139028901735
 30
0.0
 10
142.0879425482561
 20
145.7139028901735
 30
0.0
 10
142.1288853294179
 20
145.7139028901735
 30
0.0
 10
142.1823530201493
 20
145.7139028901735
 30
0.0
 10
142.2529556806225
 20
145.7139028901735
 30
0.0
 10
142.3654623830979
 20
145.7139028901735
 30
0.0
 10
142.4568349659212
 20
145.7139028901735
 30
0.0
 10
142.5161225433526
 20
145.7139028901735
 30
0.0
  0
SPLINE
  5
1F3
330
1F
100
AcDbEntity
  8
0
  6
Continuous
 62
     7
370
    25
100
AcDbSpline
210
0.0
220
0.0
230
1.0
 70
     8
 71
     3
 72
    12
 73
     8
 74
     0
 42
0.000000001
 43
0.00000001
 40
-0.265902228061387
 40
-0.265902228061387
 40
-0.265902228061387
 40
-0.265902228061387
 40
-0.2645870063584663
 40
-0.2645870063584663
 40
-0.1582261151339113
 40
-0.1050456695216343
 40
0.0013152217029208
 40
0.0013152217029208
 40
0.0013152217029208
 40
0.0013152217029208
 10
127.5161225433526
 20
145.7139028901735
 30
0.0
 10
127.5164468328384
 20
145.7139028901735
 30
0.0
 10
127.5167703345132
 20
145.7139047978255
 30
0.0
 10
127.5434177120396
 20
145.7142159392729
 30
0.0
 10
127.5845438697821
 20
145.7335920557852
 30
0.0
 10
127.6264404492994
 20
145.8118236410085
 30
0.0
 10
127.6319363214519
 20
145.8861142850452
 30
0.0
 10
127.5938941346237
 20
145.9460910703031
 30
0.0
  0
SPLINE
  5
1F4
330
1F
100
AcDbEntity
  8
0
  6
Continuous
 62
     7
370
    25
100
AcDbSpline
210
0.0
220
0.0
230
1.0
 70
    24
 71
     3
 72
    14
 73
    10
 74
     0
 42
0.000000001
 43
0.00000001
 40
0.0
 40
0.0
 40
0.0
 40
0.0
 40
0.2503818975769405
 40
0.3853960642454612
 40
0.5014219062737861
 40
0.6386745024418747
 40
0.7672919706928744
 40
0.8876008223903926
 40
1.0
 40
1.0
 40
1.0
 40
1.0
 10
127.5161225433526
 20
145.7139028901735
 30
0.0
 10
127.5756556270824
 20
145.7139028901735
 30
0.0
 10
127.667290910559
 20
145.7139028901735
 30
0.0
 10
127.7798169647366
 20
145.7139028901735
 30
0.0
 10
127.8594751744199
 20
145.7139028901735
 30
0.0
 10
127.9261456402172
 20
145.7139028901735
 30
0.0
 10
127.9771679440589
 20
145.7139028901735
 30
0.0
 10
128.0096832360792
 20
145.7139028901735
 30
0.0
 10
128.0140253027636
 20
145.7139028901735
 30
0.0
 10
128.0161225433526
 20
145.7139028901735
 30
0.0
  0
LINE
  5
1F5
330
1F
100
AcDbEntity
  8
0
  6
Continuous
 62
     7
370
    25
100
AcDbLine
 10
142.5161223757
 20
159.7139031062
 30
0.0
 11
142.4917519922
 21
159.7064571823
 31
0.0
  0
SPLINE
  5
1F6
330
1F
100
AcDbEntity
  8
0
  6
Continuous
 62
     7
370
    25
100
AcDbSpline
210
0.0
220
0.0
230
1.0
 70
    24
 71
     3
 72
    16
 73
    12
 74
     0
 42
0.000000001
 43
0.00000001
 40
0.0
 40
0.0
 40
0.0
 40
0.0
 40
0.0740424421768231
 40
0.1515492076760871
 40
0.2326508292781398
 40
0.3174612427217847
 40
0.4060800799075449
 40
0.4985946693164888
 40
0.6144270548830109
 40
0.7496263894763571
 40
1.0
 40
1.0
 40
1.0
 40
1.0
 10
142.0161225433526
 20
159.7139028901735
 30
0.0
 10
142.0170343411193
 20
159.7139028901735
 30
0.0
 10
142.0189005981611
 20
159.7139028901735
 30
0.0
 10
142.0332262563063
 20
159.7139028901735
 30
0.0
 10
142.0558456645673
 20
159.7139028901735
 30
0.0
 10
142.0877045421718
 20
159.7139028901735
 30
0.0
 10
142.128515830803
 20
159.7139028901735
 30
0.0
 10
142.1818957219786
 20
159.7139028901735
 30
0.0
 10
142.2523893528395
 20
159.7139028901735
 30
0.0
 10
142.364907450133
 20
159.7139028901735
 30
0.0
 10
142.4565888159988
 20
159.7139028901735
 30
0.0
 10
142.5161225433526
 20
159.7139028901735
 30
0.0
  0
SPLINE
  5
1F7
330
1F
100
AcDbEntity
  8
0
  6
Continuous
 62
     7
370
    25
100
AcDbSpline
210
0.0
220
0.0
230
1.0
 70
     8
 71
     3
 72
    26
 73
    22
 74
     0
 42
0.000000001
 43
0.00000001
 40
0.0
 40
0.0
 40
0.0
 40
0.0
 40
0.125
 40
0.125
 40
0.2500000000000001
 40
0.2500000000000001
 40
0.3125000000000001
 40
0.3125000000000001
 40
0.3750000000000001
 40
0.3750000000000001
 40
0.5
 40
0.5
 40
0.5625
 40
0.5625
 40
0.625
 40
0.625
 40
0.75
 40
0.75
 40
0.8750000000000001
 40
0.8750000000000001
 40
1.0
 40
1.0
 40
1.0
 40
1.0
 10
131.410571267886
 20
154.4459536977433
 30
0.0
 10
131.5818174576475
 20
154.3829397434273
 30
0.0
 10
131.7466850612107
 20
154.3067295463137
 30
0.0
 10
132.0565278445534
 20
154.1131521108692
 30
0.0
 10
132.20086684963
 20
153.9954230211463
 30
0.0
 10
132.3806864316657
 20
153.7775499257875
 30
0.0
 10
132.4348936476109
 20
153.697159722533
 30
0.0
 10
132.5259511281382
 20
153.526281374402
 30
0.0
 10
132.5635083146548
 20
153.4350974971372
 30
0.0
 10
132.6531497755162
 20
153.1427776390323
 30
0.0
 10
132.6802651984624
 20
152.929821622368
 30
0.0
 10
132.6804696883769
 20
152.6083049312784
 30
0.0
 10
132.6737537664787
 20
152.5025923401695
 30
0.0
 10
132.6457366385839
 20
152.2940956219658
 30
0.0
 10
132.6239820181006
 20
152.1906634665441
 30
0.0
 10
132.5353829152536
 20
151.8995291156785
 30
0.0
 10
132.4414865528804
 20
151.7242989387123
 30
0.0
 10
132.2023702297345
 20
151.4338315749126
 30
0.0
 10
132.0576538253176
 20
151.3155784584966
 30
0.0
 10
131.7492739837619
 20
151.1224750172393
 30
0.0
 10
131.582635426653
 20
151.0451670273337
 30
0.0
 10
131.4105712678886
 20
150.9818520826046
 30
0.0
  0
SPLINE
  5
1F8
330
1F
100
AcDbEntity
  8
0
  6
Continuous
 62
     7
370
    25
100
AcDbSpline
210
0.0
220
0.0
230
1.0
 70
     8
 71
     3
 72
    26
 73
    22
 74
     0
 42
0.000000001
 43
0.00000001
 40
0.0
 40
0.0
 40
0.0
 40
0.0
 40
0.1250000000000001
 40
0.1250000000000001
 40
0.2500000000000001
 40
0.2500000000000001
 40
0.3125000000000001
 40
0.3125000000000001
 40
0.3750000000000002
 40
0.3750000000000002
 40
0.5000000000000001
 40
0.5000000000000001
 40
0.5625000000000001
 40
0.5625000000000001
 40
0.6250000000000001
 40
0.6250000000000001
 40
0.7500000000000001
 40
0.7500000000000001
 40
0.875
 40
0.875
 40
1.0
 40
1.0
 40
1.0
 40
1.0
 10
138.6216738188191
 20
150.9818520826037
 30
0.0
 10
138.4504276290577
 20
151.0448660369197
 30
0.0
 10
138.2855600254945
 20
151.1210762340333
 30
0.0
 10
137.9757172421518
 20
151.3146536694778
 30
0.0
 10
137.8313782370752
 20
151.4323827592007
 30
0.0
 10
137.6515586550395
 20
151.6502558545595
 30
0.0
 10
137.5973514390942
 20
151.730646057814
 30
0.0
 10
137.5062939585669
 20
151.901524405945
 30
0.0
 10
137.4687367720503
 20
151.9927082832098
 30
0.0
 10
137.3790953111889
 20
152.2850281413148
 30
0.0
 10
137.3519798882427
 20
152.497984157979
 30
0.0
 10
137.3517753983282
 20
152.8195008490686
 30
0.0
 10
137.3584913202264
 20
152.9252134401775
 30
0.0
 10
137.3865084481213
 20
153.1337101583812
 30
0.0
 10
137.4082630686046
 20
153.237142313803
 30
0.0
 10
137.4968621714515
 20
153.5282766646685
 30
0.0
 10
137.5907585338248
 20
153.7035068416347
 30
0.0
 10
137.8298748569707
 20
153.9939742054344
 30
0.0
 10
137.9745912613875
 20
154.1122273218504
 30
0.0
 10
138.2829711029433
 20
154.3053307631077
 30
0.0
 10
138.4496096600522
 20
154.3826387530133
 30
0.0
 10
138.6216738188165
 20
154.4459536977425
 30
0.0
  0
LINE
  5
1F9
330
1F
100
AcDbEntity
  8
0
  6
Continuous
 62
     7
370
    25
100
AcDbLine
 10
143.2243796895
 20
160.0139030623
 30
0.0
 11
143.8078653897
 21
160.0139030623
 31
0.0
  0
LINE
  5
1FA
330
1F
100
AcDbEntity
  8
0
  6
Continuous
 62
     7
370
    25
100
AcDbLine
 10
142.7661224167
 20
159.7139031062
 30
0.0
 11
144.2661226626
 21
159.7139031062
 31
0.0
  0
LINE
  5
1FB
330
1F
100
AcDbEntity
  8
0
  6
Continuous
 62
     8
370
    25
100
AcDbLine
 10
148.5161228935
 20
161.7139025027
 30
0.0
 11
148.5161228935
 21
143.7139032776
 31
0.0
  0
LINE
  5
1FC
330
1F
100
AcDbEntity
  8
0
  6
Continuous
 62
     8
370
    25
100
AcDbLine
 10
121.5161221932
 20
143.7139032776
 30
0.0
 11
121.5161221932
 21
161.7139025027
 31
0.0
  0
LINE
  5
1FD
330
1F
100
AcDbEntity
  8
0
  6
Continuous
 62
     8
370
    25
100
AcDbLine
 10
147.0464288156
 20
160.5139026786
 30
0.0
 11
147.0464288156
 21
144.9139031018
 31
0.0
  0
LINE
  5
1FE
330
1F
100
AcDbEntity
  8
0
  6
Continuous
 62
     8
370
    25
100
AcDbLine
 10
122.9858162711
 20
144.9139031018
 30
0.0
 11
122.9858162711
 21
160.5139026786
 31
0.0
  0
LINE
  5
1FF
330
1F
100
AcDbEntity
  8
0
  6
Continuous
 62
     8
370
    25
100
AcDbLine
 10
123.9656123231
 20
159.7139031062
 30
0.0
 11
123.9656123231
 21
145.7139026741
 31
0.0
  0
LINE
  5
200
330
1F
100
AcDbEntity
  8
0
  6
Continuous
 62
     8
370
    25
100
AcDbLine
 10
146.0666327636
 20
145.7139026741
 30
0.0
 11
146.0666327636
 21
159.7139031062
 31
0.0
  0
SPLINE
  5
201
330
1F
100
AcDbEntity
  8
0
  6
Continuous
 62
     8
370
    25
100
AcDbSpline
210
0.0
220
0.0
230
1.0
 70
    24
 71
     3
 72
    10
 73
     6
 74
     0
 42
0.000000001
 43
0.00000001
 40
0.0
 40
0.0
 40
0.0
 40
0.0
 40
0.1854692482601167
 40
0.5927345473501382
 40
1.0
 40
1.0
 40
1.0
 40
1.0
 10
128.8219477879879
 20
159.213903024284
 30
0.0
 10
128.7914601492699
 20
159.213903024284
 30
0.0
 10
128.6940257934141
 20
159.213903024284
 30
0.0
 10
128.4046249461963
 20
159.213903024284
 30
0.0
 10
128.1456232165321
 20
159.213903024284
 30
0.0
 10
128.0161223272857
 20
159.213903024284
 30
0.0
  0
SPLINE
  5
202
330
1F
100
AcDbEntity
  8
0
  6
Continuous
 62
     8
370
    25
100
AcDbSpline
210
0.0
220
0.0
230
1.0
 70
    24
 71
     3
 72
    10
 73
     6
 74
     0
 42
0.000000001
 43
0.00000001
 40
0.0
 40
0.0
 40
0.0
 40
0.0
 40
0.1631383445646793
 40
0.5815690933974468
 40
1.0
 40
1.0
 40
1.0
 40
1.0
 10
141.2244999679801
 20
146.213902756063
 30
0.0
 10
141.250807423315
 20
146.213902756063
 30
0.0
 10
141.3445904207429
 20
146.213902756063
 30
0.0
 10
141.6280731120482
 20
146.213902756063
 30
0.0
 10
141.8867728607052
 20
146.213902756063
 30
0.0
 10
142.0161227594194
 20
146.213902756063
 30
0.0
  0
SPLINE
  5
203
330
1F
100
AcDbEntity
  8
0
  6
Continuous
 62
     8
370
    25
100
AcDbSpline
210
0.0
220
0.0
230
1.0
 70
    24
 71
     3
 72
    10
 73
     6
 74
     0
 42
0.000000001
 43
0.00000001
 40
0.0
 40
0.0
 40
0.0
 40
0.0
 40
0.420022781542934
 40
0.8400454047158643
 40
0.9999999999999999
 40
0.9999999999999999
 40
0.9999999999999999
 40
0.9999999999999999
 10
128.0161223272857
 20
146.213902756063
 30
0.0
 10
128.1454500877957
 20
146.213902756063
 30
0.0
 10
128.4041055600524
 20
146.213902756063
 30
0.0
 10
128.68677739535
 20
146.213902756063
 30
0.0
 10
128.7800557554153
 20
146.213902756063
 30
0.0
 10
128.8057814250764
 20
146.213902756063
 30
0.0
  0
SPLINE
  5
204
330
1F
100
AcDbEntity
  8
0
  6
Continuous
 62
     8
370
    25
100
AcDbSpline
210
0.0
220
0.0
230
1.0
 70
    24
 71
     3
 72
    10
 73
     6
 74
     0
 42
0.000000001
 43
0.00000001
 40
0.0
 40
0.0
 40
0.0
 40
0.0
 40
0.4073172865843637
 40
0.814634419589343
 40
1.0
 40
1.0
 40
1.0
 40
1.0
 10
142.0161227594194
 20
159.213903024284
 30
0.0
 10
141.8866225403794
 20
159.213903024284
 30
0.0
 10
141.6276221511276
 20
159.213903024284
 30
0.0
 10
141.3382499050866
 20
159.213903024284
 30
0.0
 10
141.2408327138008
 20
159.213903024284
 30
0.0
 10
141.2103648196039
 20
159.213903024284
 30
0.0
  0
LINE
  5
205
330
1F
100
AcDbEntity
  8
0
  6
Continuous
 62
     8
370
    25
100
AcDbLine
 10
128.0161223273
 20
158.3707571397
 30
0.0
 11
128.0161223273
 21
159.2139030243
 31
0.0
  0
LINE
  5
206
330
1F
100
AcDbEntity
  8
0
  6
Continuous
 62
     8
370
    25
100
AcDbLine
 10
142.0161227594
 20
147.0570486406
 30
0.0
 11
142.0161227594
 21
146.2139027561
 31
0.0
  0
LINE
  5
207
330
1F
100
AcDbEntity
  8
0
  6
Continuous
 62
     8
370
    25
100
AcDbLine
 10
128.0161223273
 20
146.2139027561
 30
0.0
 11
128.0161223273
 21
147.0570486406
 31
0.0
  0
LINE
  5
208
330
1F
100
AcDbEntity
  8
0
  6
Continuous
 62
     8
370
    25
100
AcDbLine
 10
142.0161227594
 20
159.2139030243
 30
0.0
 11
142.0161227594
 21
158.3707571397
 31
0.0
  0
SPLINE
  5
209
330
1F
100
AcDbEntity
  8
0
  6
Continuous
 62
     8
370
    25
100
AcDbSpline
210
0.0
220
0.0
230
1.0
 70
     8
 71
     3
 72
     9
 73
     5
 74
     0
 42
0.000000001
 43
0.00000001
 40
0.0
 40
0.0
 40
0.0
 40
0.0
 40
0.2468662200500413
 40
1.0
 40
1.0
 40
1.0
 40
1.0
 10
142.9073900814232
 20
148.4296635160723
 30
0.0
 10
142.9264502337518
 20
148.3906066294986
 30
0.0
 10
143.0036586599375
 20
148.2323958926638
 30
0.0
 10
143.0107683645917
 20
148.0740634797907
 30
0.0
 10
143.0161229233322
 20
147.954817991195
 30
0.0
  0
SPLINE
  5
20A
330
1F
100
AcDbEntity
  8
0
  6
Continuous
 62
     8
370
    25
100
AcDbSpline
210
0.0
220
0.0
230
1.0
 70
     8
 71
     3
 72
     9
 73
     5
 74
     0
 42
0.000000001
 43
0.00000001
 40
0.0
 40
0.0
 40
0.0
 40
0.0
 40
0.767158451968582
 40
1.0
 40
1.0
 40
1.0
 40
1.0
 10
143.0161229233322
 20
157.472987789152
 30
0.0
 10
143.011015162785
 20
157.353741811552
 30
0.0
 10
143.0043571372702
 20
157.1983032873541
 30
0.0
 10
142.9288819215589
 20
157.0429845237253
 30
0.0
 10
142.9113081554947
 20
157.0068198623636
 30
0.0
  0
SPLINE
  5
20B
330
1F
100
AcDbEntity
  8
0
  6
Continuous
 62
     8
370
    25
100
AcDbSpline
210
0.0
220
0.0
230
1.0
 70
     8
 71
     3
 72
     9
 73
     5
 74
     0
 42
0.000000001
 43
0.00000001
 40
0.0
 40
0.0
 40
0.0
 40
0.0
 40
0.2421160240027969
 40
1.0
 40
1.0
 40
1.0
 40
1.0
 10
127.1235111068067
 20
157.0011173742393
 30
0.0
 10
127.1049618041974
 20
157.0391826639694
 30
0.0
 10
127.028348524735
 20
157.1964018727636
 30
0.0
 10
127.0213933664145
 20
157.3537421296662
 30
0.0
 10
127.016122163373
 20
157.472987789152
 30
0.0
  0
SPLINE
  5
20C
330
1F
100
AcDbEntity
  8
0
  6
Continuous
 62
     8
370
    25
100
AcDbSpline
210
0.0
220
0.0
230
1.0
 70
     8
 71
     3
 72
     9
 73
     5
 74
     0
 42
0.000000001
 43
0.00000001
 40
0.0
 40
0.0
 40
0.0
 40
0.0
 40
0.777086530085037
 40
1.0
 40
1.0
 40
1.0
 40
1.0
 10
127.016122163373
 20
147.954817991195
 30
0.0
 10
127.0210559238178
 20
148.0740638711648
 30
0.0
 10
127.0274049728025
 20
148.2275163830193
 30
0.0
 10
127.1016900008871
 20
148.3808518887758
 30
0.0
 10
127.1182491342602
 20
148.4150324384251
 30
0.0
  0
LINE
  5
20D
330
1F
100
AcDbEntity
  8
0
  6
Continuous
 62
     8
370
    25
100
AcDbLine
 10
142.511484855
 20
157.6720840665
 30
0.0
 11
142.5161223757
 21
157.8129223915
 31
0.0
  0
LINE
  5
20E
330
1F
100
AcDbEntity
  8
0
  6
Continuous
 62
     8
370
    25
100
AcDbLine
 10
127.5212380002
 20
147.7702428954
 30
0.0
 11
127.516122711
 21
147.6148833888
 31
0.0
  0
LINE
  5
20F
330
1F
100
AcDbEntity
  8
0
  6
Continuous
 62
     8
370
    25
100
AcDbLine
 10
127.516122711
 20
157.8129223915
 30
0.0
 11
127.5217972594
 21
157.6887323889
 31
0.0
  0
LINE
  5
210
330
1F
100
AcDbEntity
  8
0
  6
Continuous
 62
     8
370
    25
100
AcDbLine
 10
142.5161223757
 20
147.6148833888
 30
0.0
 11
142.5096585314
 21
147.7563470969
 31
0.0
  0
SPLINE
  5
211
330
1F
100
AcDbEntity
  8
0
  6
Continuous
 62
     8
370
    25
100
AcDbSpline
210
0.0
220
0.0
230
1.0
 70
     8
 71
     3
 72
    11
 73
     7
 74
     0
 42
0.000000001
 43
0.00000001
 40
0.0
 40
0.0
 40
0.0
 40
0.0
 40
0.137696887866455
 40
0.4171858930680554
 40
0.7017749847908697
 40
1.0
 40
1.0
 40
1.0
 40
1.0
 10
142.4917519922433
 20
159.7064571822563
 30
0.0
 10
142.483517669557
 20
159.7046974866792
 30
0.0
 10
142.4585698053251
 20
159.6993660650165
 30
0.0
 10
142.4258086284456
 20
159.6581760503897
 30
0.0
 10
142.3986249279814
 20
159.5855910309281
 30
0.0
 10
142.4249039533115
 20
159.5168759849517
 30
0.0
 10
142.4383508871374
 20
159.4817146095017
 30
0.0
  0
LINE
  5
212
330
1F
100
AcDbEntity
  8
0
  6
Continuous
 62
     8
370
    25
100
AcDbLine
 10
140.710764275
 20
145.7139026741
 30
0.0
 11
140.710764275
 21
145.7446088451
 31
0.0
  0
INSERT
  5
21E
330
1F
100
AcDbEntity
  8
0
  6
Continuous
 62
     7
370
    18
100
AcDbBlockReference
  2
SW_CENTERMARKSYMBOL_1
 10
135.0161225434
 20
152.7139028902
 30
0.0
  0
ARC
  5
21F
330
1F
100
AcDbEntity
  8
0
  6
Continuous
 62
     7
370
    18
100
AcDbCircle
 10
135.0161225434
 20
152.7139028902
 30
0.0
 40
6.56289150000002
100
AcDbArc
 50
75.0
 51
345.0
  0
ENDSEC
  0
SECTION
  2
OBJECTS
  0
DICTIONARY
  5
C
330
0
100
AcDbDictionary
281
     1
  3
ACAD_GROUP
350
D
  3
ACAD_LAYOUT
350
1A
  3
ACAD_MLINESTYLE
350
17
  3
ACAD_PLOTSETTINGS
350
19
  3
ACAD_PLOTSTYLENAME
350
E
  3
ACAD_SCALELIST
350
47
  0
DICTIONARY
  5
D
102
{ACAD_REACTORS
330
C
102
}
330
C
100
AcDbDictionary
281
     1
  0
DICTIONARY
  5
1A
102
{ACAD_REACTORS
330
C
102
}
330
C
100
AcDbDictionary
281
     1
  3
Layout1
350
1E
  3
Layout2
350
26
  3
Model
350
22
  0
DICTIONARY
  5
17
102
{ACAD_REACTORS
330
C
102
}
330
C
100
AcDbDictionary
281
     1
  3
Standard
350
18
  0
DICTIONARY
  5
19
102
{ACAD_REACTORS
330
C
102
}
330
C
100
AcDbDictionary
281
     1
  0
ACDBDICTIONARYWDFLT
  5
E
102
{ACAD_REACTORS
330
C
102
}
330
C
100
AcDbDictionary
281
     1
  3
Normal
350
F
100
AcDbDictionaryWithDefault
340
F
  0
DICTIONARY
  5
47
102
{ACAD_REACTORS
330
C
102
}
330
C
100
AcDbDictionary
281
     1
  3
A0
350
48
  3
A1
350
49
  3
A2
350
4A
  3
A3
350
4B
  3
A4
350
4C
  3
A5
350
4D
  3
A6
350
4E
  3
A7
350
4F
  3
A8
350
50
  3
A9
350
51
  3
B0
350
52
  3
B1
350
53
  3
B2
350
54
  3
B3
350
55
  3
B4
350
56
  3
B5
350
57
  3
B6
350
58
  3
B7
350
59
  3
B8
350
5A
  3
B9
350
5B
  3
C0
350
5C
  3
C1
350
5D
  3
C2
350
5E
  3
C3
350
5F
  3
C4
350
60
  3
C5
350
61
  3
C6
350
62
  3
C7
350
63
  3
C8
350
64
  3
C9
350
65
  3
D0
350
66
  3
D1
350
67
  3
D2
350
68
  0
LAYOUT
  5
1E
102
{ACAD_REACTORS
330
1A
102
}
330
1A
100
AcDbPlotSettings
  1

  2
none_device
  4

  6

 40
0.0
 41
0.0
 42
0.0
 43
0.0
 44
0.0
 45
0.0
 46
0.0
 47
0.0
 48
0.0
 49
0.0
140
0.0
141
0.0
142
1.0
143
1.0
 70
   688
 72
     1
 73
     0
 74
     5
  7

 75
    16
147
1.0
148
0.0
149
0.0
100
AcDbLayout
  1
Layout1
 70
     1
 71
     1
 10
0.0
 20
0.0
 11
420.0
 21
297.0
 12
0.0
 22
0.0
 32
0.0
 14
1.0000000000E+20
 24
1.0000000000E+20
 34
1.0000000000E+20
 15
-1.0000000000E+20
 25
-1.0000000000E+20
 35
-1.0000000000E+20
146
0.0
 13
0.0
 23
0.0
 33
0.0
 16
1.0
 26
0.0
 36
0.0
 17
0.0
 27
1.0
 37
0.0
 76
     0
330
1B
  0
LAYOUT
  5
26
102
{ACAD_REACTORS
330
1A
102
}
330
1A
100
AcDbPlotSettings
  1

  2
none_device
  4

  6

 40
0.0
 41
0.0
 42
0.0
 43
0.0
 44
0.0
 45
0.0
 46
0.0
 47
0.0
 48
0.0
 49
0.0
140
0.0
141
0.0
142
1.0
143
1.0
 70
   688
 72
     1
 73
     0
 74
     5
  7

 75
    16
147
1.0
148
0.0
149
0.0
100
AcDbLayout
  1
Layout2
 70
     1
 71
     2
 10
0.0
 20
0.0
 11
0.0
 21
0.0
 12
0.0
 22
0.0
 32
0.0
 14
0.0
 24
0.0
 34
0.0
 15
0.0
 25
0.0
 35
0.0
146
0.0
 13
0.0
 23
0.0
 33
0.0
 16
1.0
 26
0.0
 36
0.0
 17
0.0
 27
1.0
 37
0.0
 76
     0
330
23
  0
LAYOUT
  5
22
102
{ACAD_REACTORS
330
1A
102
}
330
1A
100
AcDbPlotSettings
  1

  2
none_device
  4
Letter_(8.50_x_11.00_Inches)
  6

 40
6.35
 41
6.35
 42
6.35000508
 43
6.35000508
 44
215.9
 45
279.4
 46
0.0
 47
0.0
 48
0.0
 49
0.0
140
0.0
141
0.0
142
1.0
143
1.0
 70
  1712
 72
     1
 73
     0
 74
     0
  7

 75
     0
147
1.0
148
0.0
149
0.0
100
AcDbLayout
  1
Model
 70
     1
 71
     0
 10
0.0
 20
0.0
 11
431.8
 21
279.4
 12
0.0
 22
0.0
 32
0.0
 14
0.0
 24
0.0
 34
0.0
 15
431.8
 25
279.4
 35
0.0
146
0.0
 13
0.0
 23
0.0
 33
0.0
 16
1.0
 26
0.0
 36
0.0
 17
0.0
 27
1.0
 37
0.0
 76
     0
330
1F
331
29
  0
MLINESTYLE
  5
18
102
{ACAD_REACTORS
330
17
102
}
330
17
100
AcDbMlineStyle
  2
Standard
 70
     0
  3

 62
   256
 51
90.0
 52
90.0
 71
     2
 49
0.5
 62
   256
  6
BYLAYER
 49
-0.5
 62
   256
  6
BYLAYER
  0
ACDBPLACEHOLDER
  5
F
102
{ACAD_REACTORS
330
E
102
}
330
E
  0
SCALE
  5
48
102
{ACAD_REACTORS
330
47
102
}
330
47
100
AcDbScale
 70
     0
300
1:1
140
1.0
141
1.0
290
     1
  0
SCALE
  5
49
102
{ACAD_REACTORS
330
47
102
}
330
47
100
AcDbScale
 70
     0
300
1:2
140
1.0
141
2.0
290
     0
  0
SCALE
  5
4A
102
{ACAD_REACTORS
330
47
102
}
330
47
100
AcDbScale
 70
     0
300
1:4
140
1.0
141
4.0
290
     0
  0
SCALE
  5
4B
102
{ACAD_REACTORS
330
47
102
}
330
47
100
AcDbScale
 70
     0
300
1:5
140
1.0
141
5.0
290
     0
  0
SCALE
  5
4C
102
{ACAD_REACTORS
330
47
102
}
330
47
100
AcDbScale
 70
     0
300
1:8
140
1.0
141
8.0
290
     0
  0
SCALE
  5
4D
102
{ACAD_REACTORS
330
47
102
}
330
47
100
AcDbScale
 70
     0
300
1:10
140
1.0
141
10.0
290
     0
  0
SCALE
  5
4E
102
{ACAD_REACTORS
330
47
102
}
330
47
100
AcDbScale
 70
     0
300
1:16
140
1.0
141
16.0
290
     0
  0
SCALE
  5
4F
102
{ACAD_REACTORS
330
47
102
}
330
47
100
AcDbScale
 70
     0
300
1:20
140
1.0
141
20.0
290
     0
  0
SCALE
  5
50
102
{ACAD_REACTORS
330
47
102
}
330
47
100
AcDbScale
 70
     0
300
1:30
140
1.0
141
30.0
290
     0
  0
SCALE
  5
51
102
{ACAD_REACTORS
330
47
102
}
330
47
100
AcDbScale
 70
     0
300
1:40
140
1.0
141
40.0
290
     0
  0
SCALE
  5
52
102
{ACAD_REACTORS
330
47
102
}
330
47
100
AcDbScale
 70
     0
300
1:50
140
1.0
141
50.0
290
     0
  0
SCALE
  5
53
102
{ACAD_REACTORS
330
47
102
}
330
47
100
AcDbScale
 70
     0
300
1:100
140
1.0
141
100.0
290
     0
  0
SCALE
  5
54
102
{ACAD_REACTORS
330
47
102
}
330
47
100
AcDbScale
 70
     0
300
2:1
140
2.0
141
1.0
290
     0
  0
SCALE
  5
55
102
{ACAD_REACTORS
330
47
102
}
330
47
100
AcDbScale
 70
     0
300
4:1
140
4.0
141
1.0
290
     0
  0
SCALE
  5
56
102
{ACAD_REACTORS
330
47
102
}
330
47
100
AcDbScale
 70
     0
300
8:1
140
8.0
141
1.0
290
     0
  0
SCALE
  5
57
102
{ACAD_REACTORS
330
47
102
}
330
47
100
AcDbScale
 70
     0
300
10:1
140
10.0
141
1.0
290
     0
  0
SCALE
  5
58
102
{ACAD_REACTORS
330
47
102
}
330
47
100
AcDbScale
 70
     0
300
100:1
140
100.0
141
1.0
290
     0
  0
SCALE
  5
59
102
{ACAD_REACTORS
330
47
102
}
330
47
100
AcDbScale
 70
     0
300
1/128" = 1'-0"
140
0.0078125
141
12.0
290
     0
  0
SCALE
  5
5A
102
{ACAD_REACTORS
330
47
102
}
330
47
100
AcDbScale
 70
     0
300
1/64" = 1'-0"
140
0.015625
141
12.0
290
     0
  0
SCALE
  5
5B
102
{ACAD_REACTORS
330
47
102
}
330
47
100
AcDbScale
 70
     0
300
1/32" = 1'-0"
140
0.03125
141
12.0
290
     0
  0
SCALE
  5
5C
102
{ACAD_REACTORS
330
47
102
}
330
47
100
AcDbScale
 70
     0
300
1/16" = 1'-0"
140
0.0625
141
12.0
290
     0
  0
SCALE
  5
5D
102
{ACAD_REACTORS
330
47
102
}
330
47
100
AcDbScale
 70
     0
300
3/32" = 1'-0"
140
0.09375
141
12.0
290
     0
  0
SCALE
  5
5E
102
{ACAD_REACTORS
330
47
102
}
330
47
100
AcDbScale
 70
     0
300
1/8" = 1'-0"
140
0.125
141
12.0
290
     0
  0
SCALE
  5
5F
102
{ACAD_REACTORS
330
47
102
}
330
47
100
AcDbScale
 70
     0
300
3/16" = 1'-0"
140
0.1875
141
12.0
290
     0
  0
SCALE
  5
60
102
{ACAD_REACTORS
330
47
102
}
330
47
100
AcDbScale
 70
     0
300
1/4" = 1'-0"
140
0.25
141
12.0
290
     0
  0
SCALE
  5
61
102
{ACAD_REACTORS
330
47
102
}
330
47
100
AcDbScale
 70
     0
300
3/8" = 1'-0"
140
0.375
141
12.0
290
     0
  0
SCALE
  5
62
102
{ACAD_REACTORS
330
47
102
}
330
47
100
AcDbScale
 70
     0
300
1/2" = 1'-0"
140
0.5
141
12.0
290
     0
  0
SCALE
  5
63
102
{ACAD_REACTORS
330
47
102
}
330
47
100
AcDbScale
 70
     0
300
3/4" = 1'-0"
140
0.75
141
12.0
290
     0
  0
SCALE
  5
64
102
{ACAD_REACTORS
330
47
102
}
330
47
100
AcDbScale
 70
     0
300
1" = 1'-0"
140
1.0
141
12.0
290
     0
  0
SCALE
  5
65
102
{ACAD_REACTORS
330
47
102
}
330
47
100
AcDbScale
 70
     0
300
1-1/2" = 1'-0"
140
1.5
141
12.0
290
     0
  0
SCALE
  5
66
102
{ACAD_REACTORS
330
47
102
}
330
47
100
AcDbScale
 70
     0
300
3" = 1'-0"
140
3.0
141
12.0
290
     0
  0
SCALE
  5
67
102
{ACAD_REACTORS
330
47
102
}
330
47
100
AcDbScale
 70
     0
300
6" = 1'-0"
140
6.0
141
12.0
290
     0
  0
SCALE
  5
68
102
{ACAD_REACTORS
330
47
102
}
330
47
100
AcDbScale
 70
     0
300
1'-0" = 1'-0"
140
12.0
141
12.0
290
     0
  0
ENDSEC
  0
EOF
