  0
SECTION
  2
HEADER
  9
$ACADVER
  1
AC1015
  9
$ACADMAINTVER
 70
     6
  9
$DWGCODEPAGE
  3
DOS932
  9
$INSBASE
 10
0.0
 20
0.0
 30
0.0
  9
$EXTMIN
 10
0.0
 20
0.0
 30
0.0
  9
$EXTMAX
 10
297.0
 20
210.0
 30
0.0
  9
$LIMMIN
 10
0.0
 20
0.0
  9
$LIMMAX
 10
297.0
 20
210.0
  9
$ORTHOMODE
 70
     0
  9
$REGENMODE
 70
     1
  9
$FILLMODE
 70
     1
  9
$QTEXTMODE
 70
     0
  9
$MIRRTEXT
 70
     1
  9
$LTSCALE
 40
1.0
  9
$ATTMODE
 70
     1
  9
$TEXTSIZE
 40
3.5277777778
  9
$TRACEWID
 40
1.0
  9
$TEXTSTYLE
  7
Standard
  9
$CLAYER
  8
0
  9
$CELTYPE
  6
ByLayer
  9
$CECOLOR
 62
   256
  9
$CELTSCALE
 40
1.0
  9
$DISPSILH
 70
     0
  9
$DIMSCALE
 40
1.0
  9
$DIMASZ
 40
2.728515625
  9
$DIMEXO
 40
1.0
  9
$DIMDLI
 40
3.75
  9
$DIMRND
 40
0.0
  9
$DIMDLE
 40
0.0
  9
$DIMEXE
 40
1.0
  9
$DIMTP
 40
0.0
  9
$DIMTM
 40
0.0
  9
$DIMTXT
 40
3.5277777778
  9
$DIMCEN
 40
2.5
  9
$DIMTSZ
 40
0.0
  9
$DIMTOL
 70
     0
  9
$DIMLIM
 70
     0
  9
$DIMTIH
 70
     1
  9
$DIMTOH
 70
     1
  9
$DIMSE1
 70
     0
  9
$DIMSE2
 70
     0
  9
$DIMTAD
 70
     1
  9
$DIMZIN
 70
     0
  9
$DIMBLK
  1

  9
$DIMASO
 70
     1
  9
$DIMSHO
 70
     1
  9
$DIMPOST
  1

  9
$DIMAPOST
  1

  9
$DIMALT
 70
     0
  9
$DIMALTD
 70
     3
  9
$DIMALTF
 40
0.0393700787
  9
$DIMLFAC
 40
1.0
  9
$DIMTOFL
 70
     1
  9
$DIMTVP
 40
0.0
  9
$DIMTIX
 70
     0
  9
$DIMSOXD
 70
     0
  9
$DIMSAH
 70
     0
  9
$DIMBLK1
  1

  9
$DIMBLK2
  1

  9
$DIMSTYLE
  2
ISO-25
  9
$DIMCLRD
 70
     0
  9
$DIMCLRE
 70
     0
  9
$DIMCLRT
 70
     0
  9
$DIMTFAC
 40
1.0
  9
$DIMGAP
 40
1.524
  9
$DIMJUST
 70
     0
  9
$DIMSD1
 70
     0
  9
$DIMSD2
 70
     0
  9
$DIMTOLJ
 70
     0
  9
$DIMTZIN
 70
     0
  9
$DIMALTZ
 70
     0
  9
$DIMALTTZ
 70
     0
  9
$DIMUPT
 70
     0
  9
$DIMDEC
 70
     2
  9
$DIMTDEC
 70
     2
  9
$DIMALTU
 70
     2
  9
$DIMALTTD
 70
     3
  9
$DIMTXSTY
  7
Standard
  9
$DIMAUNIT
 70
     0
  9
$DIMADEC
 70
     2
  9
$DIMALTRND
 40
0.0
  9
$DIMAZIN
 70
     0
  9
$DIMDSEP
 70
    44
  9
$DIMATFIT
 70
     3
  9
$DIMFRAC
 70
     0
  9
$DIMLDRBLK
  1

  9
$DIMLUNIT
 70
     2
  9
$DIMLWD
 70
    -2
  9
$DIMLWE
 70
    -2
  9
$DIMTMOVE
 70
     0
  9
$LUNITS
 70
     2
  9
$LUPREC
 70
     2
  9
$SKETCHINC
 40
1.0
  9
$FILLETRAD
 40
0.0
  9
$AUNITS
 70
     0
  9
$AUPREC
 70
     2
  9
$MENU
  1
.
  9
$ELEVATION
 40
0.0
  9
$PELEVATION
 40
0.0
  9
$THICKNESS
 40
0.0
  9
$LIMCHECK
 70
     0
  9
$CHAMFERA
 40
0.0
  9
$CHAMFERB
 40
0.0
  9
$CHAMFERC
 40
0.0
  9
$CHAMFERD
 40
0.0
  9
$SKPOLY
 70
     0
  9
$TDCREATE
 40
2460376.551486887
  9
$TDUCREATE
 40
2460376.176486887
  9
$TDUPDATE
 40
2460376.551487731
  9
$TDUUPDATE
 40
2460376.176487731
  9
$TDINDWG
 40
0.0000000116
  9
$TDUSRTIMER
 40
0.0000000116
  9
$USRTIMER
 70
     1
  9
$ANGBASE
 50
0.0
  9
$ANGDIR
 70
     0
  9
$PDMODE
 70
     0
  9
$PDSIZE
 40
-1.0
  9
$PLINEWID
 40
0.0
  9
$SPLFRAME
 70
     0
  9
$SPLINETYPE
 70
     6
  9
$SPLINESEGS
 70
     8
  9
$HANDSEED
  5
1F3
  9
$SURFTAB1
 70
     6
  9
$SURFTAB2
 70
     6
  9
$SURFTYPE
 70
     6
  9
$SURFU
 70
     6
  9
$SURFV
 70
     6
  9
$UCSBASE
  2

  9
$UCSNAME
  2

  9
$UCSORG
 10
0.0
 20
0.0
 30
0.0
  9
$UCSXDIR
 10
1.0
 20
0.0
 30
0.0
  9
$UCSYDIR
 10
0.0
 20
1.0
 30
0.0
  9
$UCSORTHOREF
  2

  9
$UCSORTHOVIEW
 70
     0
  9
$UCSORGTOP
 10
0.0
 20
0.0
 30
0.0
  9
$UCSORGBOTTOM
 10
0.0
 20
0.0
 30
0.0
  9
$UCSORGLEFT
 10
0.0
 20
0.0
 30
0.0
  9
$UCSORGRIGHT
 10
0.0
 20
0.0
 30
0.0
  9
$UCSORGFRONT
 10
0.0
 20
0.0
 30
0.0
  9
$UCSORGBACK
 10
0.0
 20
0.0
 30
0.0
  9
$PUCSBASE
  2

  9
$PUCSNAME
  2

  9
$PUCSORG
 10
0.0
 20
0.0
 30
0.0
  9
$PUCSXDIR
 10
1.0
 20
0.0
 30
0.0
  9
$PUCSYDIR
 10
0.0
 20
1.0
 30
0.0
  9
$PUCSORTHOREF
  2

  9
$PUCSORTHOVIEW
 70
     0
  9
$PUCSORGTOP
 10
0.0
 20
0.0
 30
0.0
  9
$PUCSORGBOTTOM
 10
0.0
 20
0.0
 30
0.0
  9
$PUCSORGLEFT
 10
0.0
 20
0.0
 30
0.0
  9
$PUCSORGRIGHT
 10
0.0
 20
0.0
 30
0.0
  9
$PUCSORGFRONT
 10
0.0
 20
0.0
 30
0.0
  9
$PUCSORGBACK
 10
0.0
 20
0.0
 30
0.0
  9
$USERI1
 70
     0
  9
$USERI2
 70
     0
  9
$USERI3
 70
     0
  9
$USERI4
 70
     0
  9
$USERI5
 70
     0
  9
$USERR1
 40
0.0
  9
$USERR2
 40
0.0
  9
$USERR3
 40
0.0
  9
$USERR4
 40
0.0
  9
$USERR5
 40
0.0
  9
$WORLDVIEW
 70
     1
  9
$SHADEDGE
 70
     3
  9
$SHADEDIF
 70
    70
  9
$TILEMODE
 70
     1
  9
$MAXACTVP
 70
    64
  9
$PINSBASE
 10
0.0
 20
0.0
 30
0.0
  9
$PLIMCHECK
 70
     0
  9
$PEXTMIN
 10
1.0000000000E+20
 20
1.0000000000E+20
 30
1.0000000000E+20
  9
$PEXTMAX
 10
-1.0000000000E+20
 20
-1.0000000000E+20
 30
-1.0000000000E+20
  9
$PLIMMIN
 10
0.0
 20
0.0
  9
$PLIMMAX
 10
420.0
 20
297.0
  9
$UNITMODE
 70
     0
  9
$VISRETAIN
 70
     1
  9
$PLINEGEN
 70
     0
  9
$PSLTSCALE
 70
     1
  9
$TREEDEPTH
 70
  3020
  9
$CMLSTYLE
  2
Standard
  9
$CMLJUST
 70
     0
  9
$CMLSCALE
 40
20.0
  9
$PROXYGRAPHICS
 70
     1
  9
$MEASUREMENT
 70
     1
  9
$CELWEIGHT
370
    -1
  9
$ENDCAPS
280
     0
  9
$JOINSTYLE
280
     0
  9
$LWDISPLAY
290
     1
  9
$INSUNITS
 70
     4
  9
$HYPERLINKBASE
  1

  9
$STYLESHEET
  1

  9
$XEDIT
290
     1
  9
$CEPSNTYPE
380
     0
  9
$PSTYLEMODE
290
     1
  9
$FINGERPRINTGUID
  2
{afbf38a2-c383-427b-bba6-50656be85bac}
  9
$VERSIONGUID
  2
{FAEB1C32-E019-11D5-929B-00C0DF256EC4}
  9
$EXTNAMES
290
     1
  9
$PSVPSCALE
 40
0.0
  9
$OLESTARTUP
290
     0
  0
ENDSEC
  0
SECTION
  2
CLASSES
  0
CLASS
  1
ACDBDICTIONARYWDFLT
  2
AcDbDictionaryWithDefault
  3
ObjectDBX Classes
 90
        0
280
     0
281
     0
  0
CLASS
  1
VISUALSTYLE
  2
AcDbVisualStyle
  3
ObjectDBX Classes
 90
     4095
280
     0
281
     0
  0
CLASS
  1
MATERIAL
  2
AcDbMaterial
  3
ObjectDBX Classes
 90
     1153
280
     0
281
     0
  0
CLASS
  1
SCALE
  2
AcDbScale
  3
ObjectDBX Classes
 90
     1153
280
     0
281
     0
  0
CLASS
  1
TABLESTYLE
  2
AcDbTableStyle
  3
ObjectDBX Classes
 90
     4095
280
     0
281
     0
  0
CLASS
  1
MLEADERSTYLE
  2
AcDbMLeaderStyle
  3
ACDB_MLEADERSTYLE_CLASS
 90
     4095
280
     0
281
     0
  0
CLASS
  1
SUN
  2
AcDbSun
  3
SCENEOE
 90
     1153
280
     0
281
     0
  0
CLASS
  1
ACDBPLACEHOLDER
  2
AcDbPlaceHolder
  3
ObjectDBX Classes
 90
        0
280
     0
281
     0
  0
CLASS
  1
LAYOUT
  2
AcDbLayout
  3
ObjectDBX Classes
 90
        0
280
     0
281
     0
  0
ENDSEC
  0
SECTION
  2
TABLES
  0
TABLE
  2
VPORT
  5
8
330
0
100
AcDbSymbolTable
 70
     1
  0
VPORT
  5
29
330
8
100
AcDbSymbolTableRecord
100
AcDbViewportTableRecord
  2
*Active
 70
     0
 10
0.0
 20
0.0
 11
1.0
 21
1.0
 12
148.5
 22
105.0
 13
0.0
 23
0.0
 14
10.0
 24
10.0
 15
10.0
 25
10.0
 16
0.0
 26
0.0
 36
1.0
 17
0.0
 27
0.0
 37
0.0
 40
210.0
 41
1.4142857143
 42
50.0
 43
0.0
 44
0.0
 50
0.0
 51
0.0
 71
     0
 72
  2000
 73
     1
 74
     3
 75
     0
 76
     0
 77
     0
 78
     0
281
     0
 65
     1
110
0.0
120
0.0
130
0.0
111
1.0
121
0.0
131
0.0
112
0.0
122
1.0
132
0.0
 79
     0
146
0.0
  0
ENDTAB
  0
TABLE
  2
LTYPE
  5
5
330
0
100
AcDbSymbolTable
 70
     6
  0
LTYPE
  5
14
330
5
100
AcDbSymbolTableRecord
100
AcDbLinetypeTableRecord
  2
ByBlock
 70
     0
  3

 72
    65
 73
     0
 40
0.0
  0
LTYPE
  5
15
330
5
100
AcDbSymbolTableRecord
100
AcDbLinetypeTableRecord
  2
ByLayer
 70
     0
  3

 72
    65
 73
     0
 40
0.0
  0
LTYPE
  5
16
330
5
100
AcDbSymbolTableRecord
100
AcDbLinetypeTableRecord
  2
Continuous
 70
     0
  3
Solid line
 72
    65
 73
     0
 40
0.0
  0
LTYPE
  5
5E
330
5
100
AcDbSymbolTableRecord
100
AcDbLinetypeTableRecord
  2
HIDDEN
 70
     0
  3
Hidden __ __ __ __ __ __ __ __ __ __ __ __ __ __
 72
    65
 73
     2
 40
1.905
 49
1.27
 74
     0
 49
-0.635
 74
     0
  0
LTYPE
  5
5F
330
5
100
AcDbSymbolTableRecord
100
AcDbLinetypeTableRecord
  2
PHANTOM
 70
     0
  3
Phantom ______  __  __  ______  __  __  ______
 72
    65
 73
     6
 40
12.7
 49
6.35
 74
     0
 49
-1.27
 74
     0
 49
1.27
 74
     0
 49
-1.27
 74
     0
 49
1.27
 74
     0
 49
-1.27
 74
     0
  0
LTYPE
  5
60
330
5
100
AcDbSymbolTableRecord
100
AcDbLinetypeTableRecord
  2
CENTER
 70
     0
  3
Center ____ _ ____ _ ____ _ ____ _ ____ _ ____
 72
    65
 73
     4
 40
10.16
 49
6.35
 74
     0
 49
-1.27
 74
     0
 49
1.27
 74
     0
 49
-1.27
 74
     0
  0
LTYPE
  5
61
330
5
100
AcDbSymbolTableRecord
100
AcDbLinetypeTableRecord
  2
CENTERX2
 70
     0
  3
Center (2x) ________  __  ________  __  _____
 72
    65
 73
     4
 40
20.32
 49
12.7
 74
     0
 49
-2.54
 74
     0
 49
2.54
 74
     0
 49
-2.54
 74
     0
  0
LTYPE
  5
62
330
5
100
AcDbSymbolTableRecord
100
AcDbLinetypeTableRecord
  2
DOT2
 70
     0
  3
Dot (.5x) ........................................
 72
    65
 73
     2
 40
0.635
 49
0.0
 74
     0
 49
-0.635
 74
     0
  0
ENDTAB
  0
TABLE
  2
LAYER
  5
2
330
0
100
AcDbSymbolTable
 70
     2
  0
LAYER
  5
10
330
2
100
AcDbSymbolTableRecord
100
AcDbLayerTableRecord
  2
0
 70
     0
 62
     7
  6
Continuous
370
    -3
390
F
  0
LAYER
  5
63
330
2
100
AcDbSymbolTableRecord
100
AcDbLayerTableRecord
  2
FORMAT
 70
     0
 62
     7
  6
Continuous
370
    -3
390
F
  0
ENDTAB
  0
TABLE
  2
STYLE
  5
3
330
0
100
AcDbSymbolTable
 70
     2
  0
STYLE
  5
11
330
3
100
AcDbSymbolTableRecord
100
AcDbTextStyleTableRecord
  2
Standard
 70
     0
 40
0.0
 41
1.0
 50
0.0
 71
     0
 42
3.5277777778
  3
txt
  4
bigfont
  0
STYLE
  5
64
330
3
100
AcDbSymbolTableRecord
100
AcDbTextStyleTableRecord
  2
SLDTEXTSTYLE0
 70
     0
 40
0.0
 41
0.7
 50
0.0
 71
     0
 42
3.5277777778
  3
TXT
  4
bigfont
  0
ENDTAB
  0
TABLE
  2
VIEW
  5
6
330
0
100
AcDbSymbolTable
 70
     0
  0
ENDTAB
  0
TABLE
  2
UCS
  5
7
330
0
100
AcDbSymbolTable
 70
     0
  0
ENDTAB
  0
TABLE
  2
APPID
  5
9
330
0
100
AcDbSymbolTable
 70
     1
  0
APPID
  5
12
330
9
100
AcDbSymbolTableRecord
100
AcDbRegAppTableRecord
  2
ACAD
 70
     0
  0
ENDTAB
  0
TABLE
  2
DIMSTYLE
  5
A
330
0
100
AcDbSymbolTable
 70
     1
100
AcDbDimStyleTable
  0
DIMSTYLE
105
27
330
A
100
AcDbSymbolTableRecord
100
AcDbDimStyleTableRecord
  2
ISO-25
 70
     0
 41
2.5
 42
0.625
 43
3.75
 44
1.25
 73
     0
 74
     0
 77
     1
 78
     8
140
2.5
141
2.5
143
0.0393700787
147
0.625
171
     3
172
     1
178
     0
271
     2
272
     2
274
     3
278
    44
283
     0
284
     8
340
11
  0
ENDTAB
  0
TABLE
  2
BLOCK_RECORD
  5
1
330
0
100
AcDbSymbolTable
 70
     3
  0
BLOCK_RECORD
  5
1F
330
1
100
AcDbSymbolTableRecord
100
AcDbBlockTableRecord
  2
*Model_Space
340
22
  0
BLOCK_RECORD
  5
1B
330
1
100
AcDbSymbolTableRecord
100
AcDbBlockTableRecord
  2
*Paper_Space
340
1E
  0
BLOCK_RECORD
  5
23
330
1
100
AcDbSymbolTableRecord
100
AcDbBlockTableRecord
  2
*Paper_Space0
340
26
  0
BLOCK_RECORD
  5
17E
330
1
100
AcDbSymbolTableRecord
100
AcDbBlockTableRecord
  2
SW_CENTERMARKSYMBOL_0
340
0
102
{BLKREFS
331
189
102
}
  0
BLOCK_RECORD
  5
1E2
330
1
100
AcDbSymbolTableRecord
100
AcDbBlockTableRecord
  2
SW_CENTERMARKSYMBOL_1
340
0
102
{BLKREFS
331
1ED
102
}
  0
ENDTAB
  0
ENDSEC
  0
SECTION
  2
BLOCKS
  0
BLOCK
  5
20
330
1F
100
AcDbEntity
  8
0
100
AcDbBlockBegin
  2
*Model_Space
 70
     0
 10
0.0
 20
0.0
 30
0.0
  3
*Model_Space
  1

  0
ENDBLK
  5
21
330
1F
100
AcDbEntity
  8
0
100
AcDbBlockEnd
  0
BLOCK
  5
1C
330
1B
100
AcDbEntity
 67
     1
  8
0
100
AcDbBlockBegin
  2
*Paper_Space
 70
     0
 10
0.0
 20
0.0
 30
0.0
  3
*Paper_Space
  1

  0
ENDBLK
  5
1D
330
1B
100
AcDbEntity
 67
     1
  8
0
100
AcDbBlockEnd
  0
BLOCK
  5
24
330
23
100
AcDbEntity
  8
0
100
AcDbBlockBegin
  2
*Paper_Space0
 70
     0
 10
0.0
 20
0.0
 30
0.0
  3
*Paper_Space0
  1

  0
ENDBLK
  5
25
330
23
100
AcDbEntity
  8
0
100
AcDbBlockEnd
  0
BLOCK
  5
17F
330
17E
100
AcDbEntity
  8
0
100
AcDbBlockBegin
  2
SW_CENTERMARKSYMBOL_0
 70
     0
 10
0.0
 20
0.0
 30
0.0
  3
SW_CENTERMARKSYMBOL_0
  1

  0
LINE
  5
181
330
17E
100
AcDbEntity
  8
FORMAT
 62
     0
100
AcDbLine
 10
0.0
 20
0.0
 30
0.0
 11
0.0
 21
2.5
 31
0.0
  0
LINE
  5
182
330
17E
100
AcDbEntity
  8
FORMAT
 62
     0
100
AcDbLine
 10
0.0
 20
0.0
 30
0.0
 11
-2.5
 21
0.0
 31
0.0
  0
LINE
  5
183
330
17E
100
AcDbEntity
  8
FORMAT
 62
     0
100
AcDbLine
 10
0.0
 20
0.0
 30
0.0
 11
0.0
 21
-2.5
 31
0.0
  0
LINE
  5
184
330
17E
100
AcDbEntity
  8
FORMAT
 62
     0
100
AcDbLine
 10
0.0
 20
0.0
 30
0.0
 11
2.5
 21
0.0
 31
0.0
  0
LINE
  5
185
330
17E
100
AcDbEntity
  8
FORMAT
 62
     0
100
AcDbLine
 10
0.0
 20
5.0
 30
0.0
 11
0.0
 21
30.0979521466
 31
0.0
  0
LINE
  5
186
330
17E
100
AcDbEntity
  8
FORMAT
 62
     0
100
AcDbLine
 10
-5.0
 20
0.0
 30
0.0
 11
-10.55
 21
0.0
 31
0.0
  0
LINE
  5
187
330
17E
100
AcDbEntity
  8
FORMAT
 62
     0
100
AcDbLine
 10
0.0
 20
-5.0
 30
0.0
 11
0.0
 21
-10.55
 31
0.0
  0
LINE
  5
188
330
17E
100
AcDbEntity
  8
FORMAT
 62
     0
100
AcDbLine
 10
5.0
 20
0.0
 30
0.0
 11
10.55
 21
0.0
 31
0.0
  0
ENDBLK
  5
180
330
17E
100
AcDbEntity
  8
0
100
AcDbBlockEnd
  0
BLOCK
  5
1E3
330
1E2
100
AcDbEntity
  8
0
100
AcDbBlockBegin
  2
SW_CENTERMARKSYMBOL_1
 70
     0
 10
0.0
 20
0.0
 30
0.0
  3
SW_CENTERMARKSYMBOL_1
  1

  0
LINE
  5
1E5
330
1E2
100
AcDbEntity
  8
FORMAT
 62
     0
100
AcDbLine
 10
0.0
 20
0.0
 30
0.0
 11
0.0
 21
2.5
 31
0.0
  0
LINE
  5
1E6
330
1E2
100
AcDbEntity
  8
FORMAT
 62
     0
100
AcDbLine
 10
0.0
 20
0.0
 30
0.0
 11
-2.5
 21
0.0
 31
0.0
  0
LINE
  5
1E7
330
1E2
100
AcDbEntity
  8
FORMAT
 62
     0
100
AcDbLine
 10
0.0
 20
0.0
 30
0.0
 11
0.0
 21
-2.5
 31
0.0
  0
LINE
  5
1E8
330
1E2
100
AcDbEntity
  8
FORMAT
 62
     0
100
AcDbLine
 10
0.0
 20
0.0
 30
0.0
 11
2.5
 21
0.0
 31
0.0
  0
LINE
  5
1E9
330
1E2
100
AcDbEntity
  8
FORMAT
 62
     0
100
AcDbLine
 10
0.0
 20
5.0
 30
0.0
 11
0.0
 21
12.8067622273
 31
0.0
  0
LINE
  5
1EA
330
1E2
100
AcDbEntity
  8
FORMAT
 62
     0
100
AcDbLine
 10
-5.0
 20
0.0
 30
0.0
 11
-12.8067622273
 21
0.0
 31
0.0
  0
LINE
  5
1EB
330
1E2
100
AcDbEntity
  8
FORMAT
 62
     0
100
AcDbLine
 10
0.0
 20
-5.0
 30
0.0
 11
0.0
 21
-12.8067622273
 31
0.0
  0
LINE
  5
1EC
330
1E2
100
AcDbEntity
  8
FORMAT
 62
     0
100
AcDbLine
 10
5.0
 20
0.0
 30
0.0
 11
33.8168751186
 21
0.0
 31
0.0
  0
ENDBLK
  5
1E4
330
1E2
100
AcDbEntity
  8
0
100
AcDbBlockEnd
  0
ENDSEC
  0
SECTION
  2
ENTITIES
  0
MTEXT
  5
65
330
1F
100
AcDbEntity
  8
FORMAT
100
AcDbMText
 10
129.1650857372
 20
98.5067747227
 30
0.0
 40
3.7041666667
 41
0.0
 71
     2
 72
     1
  1
5R-RL1408
  7
SLDTEXTSTYLE0
 73
     1
 44
1.0
  0
LINE
  5
66
330
1F
100
AcDbEntity
  8
0
  6
Continuous
 62
     7
370
    25
100
AcDbLine
 10
117.2528547426
 20
66.4848426692
 30
0.0
 11
116.3493277968
 21
64.919888093
 31
0.0
  0
LINE
  5
67
330
1F
100
AcDbEntity
  8
0
  6
Continuous
 62
     7
370
    25
100
AcDbLine
 10
116.3493277968
 20
48.419888093
 30
0.0
 11
117.2528547426
 21
46.8549335168
 31
0.0
  0
LINE
  5
68
330
1F
100
AcDbEntity
  8
0
  6
Continuous
 62
     7
370
    25
100
AcDbLine
 10
129.1493277968
 20
64.919888093
 30
0.0
 11
128.2823404987
 21
64.919888093
 31
0.0
  0
LINE
  5
69
330
1F
100
AcDbEntity
  8
0
  6
Continuous
 62
     7
370
    25
100
AcDbLine
 10
128.2823404987
 20
48.419888093
 30
0.0
 11
129.1493277968
 21
48.419888093
 31
0.0
  0
LINE
  5
6A
330
1F
100
AcDbEntity
  8
0
  6
Continuous
 62
     7
370
    25
100
AcDbLine
 10
129.1493277968
 20
48.419888093
 30
0.0
 11
129.3493277968
 21
48.619888093
 31
0.0
  0
LINE
  5
6B
330
1F
100
AcDbEntity
  8
0
  6
Continuous
 62
     7
370
    25
100
AcDbLine
 10
129.3493277968
 20
64.719888093
 30
0.0
 11
129.1493277968
 21
64.919888093
 31
0.0
  0
LINE
  5
6C
330
1F
100
AcDbEntity
  8
0
  6
Continuous
 62
     7
370
    25
100
AcDbLine
 10
127.6328214458
 20
65.294888093
 30
0.0
 11
126.9458008509
 21
66.4848426692
 31
0.0
  0
ARC
  5
6D
330
1F
100
AcDbEntity
  8
0
  6
Continuous
 62
     7
370
    25
100
AcDbCircle
 10
128.2823404987
 20
65.669888093
 30
0.0
 40
0.75
100
AcDbArc
 50
210.0
 51
270.0
  0
LINE
  5
6E
330
1F
100
AcDbEntity
  8
0
  6
Continuous
 62
     7
370
    25
100
AcDbLine
 10
126.9458008509
 20
46.8549335168
 30
0.0
 11
127.6328214458
 21
48.044888093
 31
0.0
  0
ARC
  5
6F
330
1F
100
AcDbEntity
  8
0
  6
Continuous
 62
     7
370
    25
100
AcDbCircle
 10
128.2823404987
 20
47.669888093
 30
0.0
 40
0.75
100
AcDbArc
 50
90.0
 51
150.0
  0
LINE
  5
70
330
1F
100
AcDbEntity
  8
0
  6
Continuous
 62
     7
370
    25
100
AcDbLine
 10
107.0534896612
 20
72.0095065477
 30
0.0
 11
106.7108649652
 21
82.9734968201
 31
0.0
  0
LINE
  5
71
330
1F
100
AcDbEntity
  8
0
  6
Continuous
 62
     7
370
    25
100
AcDbLine
 10
86.0973405107
 20
82.9734968201
 30
0.0
 11
85.7547158146
 21
72.0095065477
 31
0.0
  0
ARC
  5
72
330
1F
100
AcDbEntity
  8
0
  6
Continuous
 62
     7
370
    25
100
AcDbCircle
 10
105.1541027379
 20
73.6350308679
 30
0.0
 40
2.500000000000018
100
AcDbArc
 50
296.7436839504
 51
319.4425836614
  0
ARC
  5
73
330
1F
100
AcDbEntity
  8
0
  6
Continuous
 62
     7
370
    25
100
AcDbCircle
 10
87.6541027379
 20
73.6350308679
 30
0.0
 40
2.500000000000009
100
AcDbArc
 50
220.5574163386
 51
243.2563160496
  0
LINE
  5
74
330
1F
100
AcDbEntity
  8
0
  6
Continuous
 62
     7
370
    25
100
AcDbLine
 10
106.7108649652
 20
82.9734968201
 30
0.0
 11
105.1541027379
 21
85.669888093
 31
0.0
  0
LINE
  5
75
330
1F
100
AcDbEntity
  8
0
  6
Continuous
 62
     7
370
    25
100
AcDbLine
 10
87.6541027379
 20
85.669888093
 30
0.0
 11
86.0973405107
 21
82.9734968201
 31
0.0
  0
ARC
  5
76
330
1F
100
AcDbEntity
  8
0
  6
Continuous
 62
     7
370
    25
100
AcDbCircle
 10
107.4041027379
 20
69.169888093
 30
0.0
 40
2.500000000000009
100
AcDbArc
 50
116.7436839504
 51
180.0
  0
ARC
  5
77
330
1F
100
AcDbEntity
  8
0
  6
Continuous
 62
     7
370
    25
100
AcDbCircle
 10
85.4041027379
 20
69.169888093
 30
0.0
 40
2.500000000000003
100
AcDbArc
 50
0.0
 51
63.2563160496
  0
LINE
  5
78
330
1F
100
AcDbEntity
  8
0
  6
Continuous
 62
     7
370
    25
100
AcDbLine
 10
87.9041027379
 20
69.169888093
 30
0.0
 11
87.9041027379
 21
51.1654874246
 31
0.0
  0
LINE
  5
79
330
1F
100
AcDbEntity
  8
0
  6
Continuous
 62
     7
370
    25
100
AcDbLine
 10
104.9041027379
 20
65.669888093
 30
0.0
 11
104.9041027379
 21
69.169888093
 31
0.0
  0
LINE
  5
7A
330
1F
100
AcDbEntity
  8
0
  6
Continuous
 62
     7
370
    25
100
AcDbLine
 10
108.7826027379
 20
65.169888093
 30
0.0
 11
105.4041027379
 21
65.169888093
 31
0.0
  0
LINE
  5
7B
330
1F
100
AcDbEntity
  8
0
  6
Continuous
 62
     7
370
    25
100
AcDbLine
 10
90.8997020695
 20
48.169888093
 30
0.0
 11
108.7826027379
 21
48.169888093
 31
0.0
  0
LINE
  5
7C
330
1F
100
AcDbEntity
  8
0
  6
Continuous
 62
     7
370
    25
100
AcDbLine
 10
108.7826027379
 20
48.169888093
 30
0.0
 11
110.7041027379
 21
50.091388093
 31
0.0
  0
LINE
  5
7D
330
1F
100
AcDbEntity
  8
0
  6
Continuous
 62
     7
370
    25
100
AcDbLine
 10
110.7041027379
 20
63.248388093
 30
0.0
 11
108.7826027379
 21
65.169888093
 31
0.0
  0
LINE
  5
7E
330
1F
100
AcDbEntity
  8
0
  6
Continuous
 62
     7
370
    25
100
AcDbLine
 10
116.3493277968
 20
63.248388093
 30
0.0
 11
110.7041027379
 21
63.248388093
 31
0.0
  0
LINE
  5
7F
330
1F
100
AcDbEntity
  8
0
  6
Continuous
 62
     7
370
    25
100
AcDbLine
 10
110.7041027379
 20
50.091388093
 30
0.0
 11
116.3493277968
 21
50.091388093
 31
0.0
  0
SPLINE
  5
80
330
1F
100
AcDbEntity
  8
0
  6
Continuous
 62
     7
370
    25
100
AcDbSpline
210
0.0
220
0.0
230
1.0
 70
     8
 71
     3
 72
    21
 73
    17
 74
     0
 42
0.00000001
 43
0.00000001
 40
0.0
 40
0.0
 40
0.0
 40
0.0
 40
0.082675667536071
 40
0.1577159023869824
 40
0.225107122878268
 40
0.2848508575649881
 40
0.3526127842311548
 40
0.4067896671894032
 40
0.4520101410146769
 40
0.5086861790580107
 40
0.5792250314326626
 40
0.6636251927364243
 40
0.7360318665421361
 40
0.8162246244150331
 40
0.9042198598363963
 40
1.0
 40
1.0
 40
1.0
 40
1.0
 10
87.90410273820476
 20
51.16984847003941
 30
0.0
 10
87.90900046177754
 20
51.03997136321225
 30
0.0
 10
87.91834358431824
 20
50.79221182629992
 30
0.0
 10
87.9873901808829
 20
50.44434267873118
 30
0.0
 10
88.08077828448705
 20
50.14056631123631
 30
0.0
 10
88.20040788831264
 20
49.85844323636256
 30
0.0
 10
88.33770346026148
 20
49.6078326852825
 30
0.0
 10
88.48525528822812
 20
49.39046591802724
 30
0.0
 10
88.63826588845758
 20
49.19886821884661
 30
0.0
 10
88.82382460722097
 20
49.00128404864564
 30
0.0
 10
89.0750083479922
 20
48.78284974842685
 30
0.0
 10
89.3715214435507
 20
48.58235197341781
 30
0.0
 10
89.70350459501724
 20
48.41252594295853
 30
0.0
 10
90.059101161054
 20
48.28303729051967
 30
0.0
 10
90.46480241173683
 20
48.18910646124568
 30
0.0
 10
90.75356545224011
 20
48.17647261002915
 30
0.0
 10
90.90406311497344
 20
48.16988809327072
 30
0.0
  0
SPLINE
  5
81
330
1F
100
AcDbEntity
  8
0
  6
Continuous
 62
     7
370
    25
100
AcDbSpline
210
0.0
220
0.0
230
1.0
 70
     8
 71
     3
 72
    11
 73
     7
 74
     0
 42
0.00000001
 43
0.00000001
 40
0.0
 40
0.0
 40
0.0
 40
0.0
 40
0.2500481156911711
 40
0.5000000000000012
 40
0.7499518843088333
 40
1.0
 40
1.0
 40
1.0
 40
1.0
 10
105.4089360691166
 20
65.16988809300568
 30
0.0
 10
105.3425349356298
 20
65.17698051726501
 30
0.0
 10
105.2097582232293
 20
65.19116263625384
 30
0.0
 10
105.0421599146442
 20
65.3079452697102
 30
0.0
 10
104.9253772811879
 20
65.47554357829524
 30
0.0
 10
104.911195162199
 20
65.60832029069572
 30
0.0
 10
104.9041027379397
 20
65.67472142418252
 30
0.0
  0
SPLINE
  5
82
330
1F
100
AcDbEntity
  8
0
  6
Continuous
 62
     7
370
    25
100
AcDbSpline
210
0.0
220
0.0
230
1.0
 70
     8
 71
     3
 72
    10
 73
     6
 74
     0
 42
0.00000001
 43
0.00000001
 40
0.0
 40
0.0
 40
0.0
 40
0.0
 40
0.2488872038107673
 40
0.4977963221692082
 40
1.0
 40
1.0
 40
1.0
 40
1.0
 10
127.6328214458295
 20
63.29956028075359
 30
0.0
 10
127.5994816045788
 20
63.15462299256885
 30
0.0
 10
127.5327989865006
 20
62.86473565445402
 30
0.0
 10
127.3255103962523
 20
62.28736289447096
 30
0.0
 10
127.0979503950525
 20
61.86186125254989
 30
0.0
 10
126.9458008509234
 20
61.5773653811176
 30
0.0
  0
LINE
  5
83
330
1F
100
AcDbEntity
  8
0
  6
Continuous
 62
     7
370
    25
100
AcDbLine
 10
127.6328214458
 20
58.1329755818
 30
0.0
 11
127.6328214458
 21
63.2995602808
 31
0.0
  0
SPLINE
  5
84
330
1F
100
AcDbEntity
  8
0
  6
Continuous
 62
     7
370
    25
100
AcDbSpline
210
0.0
220
0.0
230
1.0
 70
     8
 71
     3
 72
    10
 73
     6
 74
     0
 42
0.00000001
 43
0.00000001
 40
0.0
 40
0.0
 40
0.0
 40
0.0
 40
0.4979812754252543
 40
0.7490019773312666
 40
0.9999999999999999
 40
0.9999999999999999
 40
0.9999999999999999
 40
0.9999999999999999
 10
126.9458008509234
 20
61.5773653811176
 30
0.0
 10
127.0967466682643
 20
61.01318515978592
 30
0.0
 10
127.323780738093
 20
60.16461489780615
 30
0.0
 10
127.5318260284935
 20
59.00999206352616
 30
0.0
 10
127.5991573206388
 20
58.42530560445876
 30
0.0
 10
127.6328214458295
 20
58.13297558184573
 30
0.0
  0
SPLINE
  5
85
330
1F
100
AcDbEntity
  8
0
  6
Continuous
 62
     7
370
    25
100
AcDbSpline
210
0.0
220
0.0
230
1.0
 70
     8
 71
     3
 72
    10
 73
     6
 74
     0
 42
0.00000001
 43
0.00000001
 40
0.0
 40
0.0
 40
0.0
 40
0.0
 40
0.0789477693778934
 40
0.5375793028234306
 40
0.9999999999999999
 40
0.9999999999999999
 40
0.9999999999999999
 40
0.9999999999999999
 10
127.6328214458295
 20
58.13297558184573
 30
0.0
 10
127.6399517436431
 20
58.05620592747732
 30
0.0
 10
127.6885041037381
 20
57.53345807027292
 30
0.0
 10
127.7304209186167
 20
56.55528636437375
 30
0.0
 10
127.6654437077787
 20
55.65752697028287
 30
0.0
 10
127.6328214458295
 20
55.20680060416581
 30
0.0
  0
SPLINE
  5
86
330
1F
100
AcDbEntity
  8
0
  6
Continuous
 62
     7
370
    25
100
AcDbSpline
210
0.0
220
0.0
230
1.0
 70
     8
 71
     3
 72
    10
 73
     6
 74
     0
 42
0.00000001
 43
0.00000001
 40
0.0
 40
0.0
 40
0.0
 40
0.0
 40
0.3355445600395944
 40
0.6726666839999053
 40
0.9999999999999999
 40
0.9999999999999999
 40
0.9999999999999999
 40
0.9999999999999999
 10
127.6328214458295
 20
55.20680060416581
 30
0.0
 10
127.5856872298451
 20
54.81617103786237
 30
0.0
 10
127.4911971961952
 20
54.03307535898546
 30
0.0
 10
127.2527814181798
 20
52.88382338957069
 30
0.0
 10
127.0471177557821
 20
52.13252560780979
 30
0.0
 10
126.9458008509234
 20
51.76241080489394
 30
0.0
  0
LINE
  5
87
330
1F
100
AcDbEntity
  8
0
  6
Continuous
 62
     7
370
    25
100
AcDbLine
 10
117.2528547426
 20
51.7624108049
 30
0.0
 11
126.9458008509
 21
51.7624108049
 31
0.0
  0
SPLINE
  5
88
330
1F
100
AcDbEntity
  8
0
  6
Continuous
 62
     7
370
    25
100
AcDbSpline
210
0.0
220
0.0
230
1.0
 70
     8
 71
     3
 72
    15
 73
    11
 74
     0
 42
0.00000001
 43
0.00000001
 40
0.0
 40
0.0
 40
0.0
 40
0.0
 40
0.112014446335618
 40
0.2377528996418847
 40
0.3634588221853869
 40
0.4922562098365841
 40
0.6210519204280438
 40
0.7472639235857627
 40
0.8736764197093114
 40
0.9999999999999999
 40
0.9999999999999999
 40
0.9999999999999999
 40
0.9999999999999999
 10
117.2528547426279
 20
51.76241080489394
 30
0.0
 10
117.154177580036
 20
52.12116189515709
 30
0.0
 10
116.9447333315292
 20
52.88261824967223
 30
0.0
 10
116.7045839661394
 20
54.06667056704528
 30
0.0
 10
116.5371824189746
 20
55.31946782331632
 30
0.0
 10
116.476127875267
 20
56.59256494141994
 30
0.0
 10
116.5237810013084
 20
57.86795929072011
 30
0.0
 10
116.6804182146797
 20
59.12613753935958
 30
0.0
 10
116.9212070970873
 20
60.36262910196548
 30
0.0
 10
117.1423314589214
 20
61.17254826809273
 30
0.0
 10
117.2528547426279
 20
61.5773653811176
 30
0.0
  0
LINE
  5
89
330
1F
100
AcDbEntity
  8
0
  6
Continuous
 62
     7
370
    25
100
AcDbLine
 10
117.2528547426
 20
61.5773653811
 30
0.0
 11
126.9458008509
 21
61.5773653811
 31
0.0
  0
SPLINE
  5
8A
330
1F
100
AcDbEntity
  8
0
  6
Continuous
 62
     7
370
    25
100
AcDbSpline
210
0.0
220
0.0
230
1.0
 70
     8
 71
     3
 72
    10
 73
     6
 74
     0
 42
0.00000001
 43
0.00000001
 40
0.0
 40
0.0
 40
0.0
 40
0.0
 40
0.3089808900029882
 40
0.6190948628358307
 40
1.0
 40
1.0
 40
1.0
 40
1.0
 10
127.6328214458295
 20
50.04021590525797
 30
0.0
 10
127.6569684523662
 20
49.8897679428901
 30
0.0
 10
127.7053510164128
 20
49.5883203011762
 30
0.0
 10
127.7128061091294
 20
49.09930906258014
 30
0.0
 10
127.6612437613298
 20
48.76268377742193
 30
0.0
 10
127.6328214458295
 20
48.57712841641799
 30
0.0
  0
SPLINE
  5
8B
330
1F
100
AcDbEntity
  8
0
  6
Continuous
 62
     7
370
    25
100
AcDbSpline
210
0.0
220
0.0
230
1.0
 70
     8
 71
     3
 72
    10
 73
     6
 74
     0
 42
0.00000001
 43
0.00000001
 40
0.0
 40
0.0
 40
0.0
 40
0.0
 40
0.2488872038107675
 40
0.4977963221692082
 40
1.0
 40
1.0
 40
1.0
 40
1.0
 10
127.6328214458295
 20
48.57712841641798
 30
0.0
 10
127.5994816045788
 20
48.43219112823324
 30
0.0
 10
127.5327989865005
 20
48.14230379011843
 30
0.0
 10
127.3255103962523
 20
47.56493103013537
 30
0.0
 10
127.0979503950525
 20
47.13942938821431
 30
0.0
 10
126.9458008509234
 20
46.85493351678203
 30
0.0
  0
LINE
  5
8C
330
1F
100
AcDbEntity
  8
0
  6
Continuous
 62
     7
370
    25
100
AcDbLine
 10
117.2528547426
 20
46.8549335168
 30
0.0
 11
126.9458008509
 21
46.8549335168
 31
0.0
  0
SPLINE
  5
8D
330
1F
100
AcDbEntity
  8
0
  6
Continuous
 62
     7
370
    25
100
AcDbSpline
210
0.0
220
0.0
230
1.0
 70
     8
 71
     3
 72
    15
 73
    11
 74
     0
 42
0.00000001
 43
0.00000001
 40
0.0
 40
0.0
 40
0.0
 40
0.0
 40
0.1323052378296956
 40
0.2645730682660306
 40
0.3997997819746813
 40
0.5350020935366634
 40
0.6501929590834553
 40
0.7654017933211804
 40
0.8826895567076666
 40
1.0
 40
1.0
 40
1.0
 40
1.0
 10
117.2528547426279
 20
46.85493351678203
 30
0.0
 10
117.1372847707879
 20
47.06695606043852
 30
0.0
 10
116.9061775028467
 20
47.49094120144235
 30
0.0
 10
116.6575148712704
 20
48.14384078709748
 30
0.0
 10
116.5080009241168
 20
48.80904763932036
 30
0.0
 10
116.4783906370684
 20
49.45015828561772
 30
0.0
 10
116.5552120397191
 20
50.05663305048105
 30
0.0
 10
116.7126215108401
 20
50.62899601023344
 30
0.0
 10
116.9435238713711
 20
51.19877115048769
 30
0.0
 10
117.1497378069285
 20
51.57451881155716
 30
0.0
 10
117.2528547426279
 20
51.76241080489394
 30
0.0
  0
SPLINE
  5
8E
330
1F
100
AcDbEntity
  8
0
  6
Continuous
 62
     7
370
    25
100
AcDbSpline
210
0.0
220
0.0
230
1.0
 70
     8
 71
     3
 72
    10
 73
     6
 74
     0
 42
0.00000001
 43
0.00000001
 40
0.0
 40
0.0
 40
0.0
 40
0.0
 40
0.4979812754252545
 40
0.7490019773312668
 40
1.0
 40
1.0
 40
1.0
 40
1.0
 10
126.9458008509234
 20
51.76241080489394
 30
0.0
 10
127.0967466682643
 20
51.48032069422809
 30
0.0
 10
127.323780738093
 20
51.05603556323819
 30
0.0
 10
127.5318260284935
 20
50.47872414609819
 30
0.0
 10
127.5991573206388
 20
50.18638091656449
 30
0.0
 10
127.6328214458295
 20
50.04021590525797
 30
0.0
  0
SPLINE
  5
8F
330
1F
100
AcDbEntity
  8
0
  6
Continuous
 62
     7
370
    25
100
AcDbSpline
210
0.0
220
0.0
230
1.0
 70
     8
 71
     3
 72
    15
 73
    11
 74
     0
 42
0.00000001
 43
0.00000001
 40
0.0
 40
0.0
 40
0.0
 40
0.0
 40
0.13202850365493
 40
0.2645714867393019
 40
0.3992745467898696
 40
0.5350034055873366
 40
0.6498879363623022
 40
0.7654033203663358
 40
0.8825066155353896
 40
1.0
 40
1.0
 40
1.0
 40
1.0
 10
117.2528547426279
 20
61.5773653811176
 30
0.0
 10
117.1374690887029
 20
61.78894002978934
 30
0.0
 10
116.9062481541153
 20
62.21291377641096
 30
0.0
 10
116.6582212728508
 20
62.86497707762297
 30
0.0
 10
116.5071291212538
 20
63.53057239821372
 30
0.0
 10
116.4786529740484
 20
64.17120721666072
 30
0.0
 10
116.554631403947
 20
64.77857580816165
 30
0.0
 10
116.7124701734823
 20
65.35061816880733
 30
0.0
 10
116.943324748234
 20
65.9209098045066
 30
0.0
 10
117.1495637658496
 20
66.29665678259607
 30
0.0
 10
117.2528547426279
 20
66.48484266922932
 30
0.0
  0
LINE
  5
90
330
1F
100
AcDbEntity
  8
0
  6
Continuous
 62
     7
370
    25
100
AcDbLine
 10
116.3493277968
 20
56.669888093
 30
0.0
 11
116.3493277968
 21
64.919888093
 31
0.0
  0
LINE
  5
91
330
1F
100
AcDbEntity
  8
0
  6
Continuous
 62
     7
370
    25
100
AcDbLine
 10
116.3493277968
 20
48.419888093
 30
0.0
 11
116.3493277968
 21
56.669888093
 31
0.0
  0
LINE
  5
92
330
1F
100
AcDbEntity
  8
0
  6
Continuous
 62
     7
370
    25
100
AcDbLine
 10
127.6328214458
 20
50.0402159053
 30
0.0
 11
127.6328214458
 21
55.2068006042
 31
0.0
  0
SPLINE
  5
93
330
1F
100
AcDbEntity
  8
0
  6
Continuous
 62
     7
370
    25
100
AcDbSpline
210
0.0
220
0.0
230
1.0
 70
     8
 71
     3
 72
    11
 73
     7
 74
     0
 42
0.00000001
 43
0.00000001
 40
0.0
 40
0.0
 40
0.0
 40
0.0
 40
0.2858113857234067
 40
0.5527245545213759
 40
0.8220275582229318
 40
1.0
 40
1.0
 40
1.0
 40
1.0
 10
128.2823404986678
 20
58.06936308233094
 30
0.0
 10
128.2784001972453
 20
57.80400070368116
 30
0.0
 10
128.2707801322051
 20
57.29082204862269
 30
0.0
 10
128.2593190425542
 20
56.51902281304803
 30
0.0
 10
128.2767564317958
 20
55.84980898568359
 30
0.0
 10
128.2807510330551
 20
55.43533409258348
 30
0.0
 10
128.2823404986678
 20
55.27041310368059
 30
0.0
  0
ARC
  5
94
330
1F
100
AcDbEntity
  8
0
  6
Continuous
 62
     7
370
    25
100
AcDbCircle
 10
128.2136172344
 20
52.6243340028
 30
0.0
 40
2.646971381585013
100
AcDbArc
 50
88.5122636654
 51
102.674909816
  0
ARC
  5
95
330
1F
100
AcDbEntity
  8
0
  6
Continuous
 62
     7
370
    25
100
AcDbCircle
 10
128.2136172344
 20
60.7154421832
 30
0.0
 40
2.646971381583227
100
AcDbArc
 50
257.325090184
 51
271.4877363346
  0
LINE
  5
96
330
1F
100
AcDbEntity
  8
0
  6
Continuous
 62
     7
370
    25
100
AcDbLine
 10
128.2823404987
 20
55.2704131037
 30
0.0
 11
128.2823404987
 21
50.3284625221
 31
0.0
  0
ARC
  5
97
330
1F
100
AcDbEntity
  8
0
  6
Continuous
 62
     7
370
    25
100
AcDbCircle
 10
128.2533881991
 20
49.5177834987
 30
0.0
 40
0.8111958547050742
100
AcDbArc
 50
87.9546284054
 51
139.9072030665
  0
ARC
  5
98
330
1F
100
AcDbEntity
  8
0
  6
Continuous
 62
     7
370
    25
100
AcDbCircle
 10
128.2533881991
 20
63.8219926873
 30
0.0
 40
0.8111958547050742
100
AcDbArc
 50
220.0927969335
 51
272.0453715946
  0
LINE
  5
99
330
1F
100
AcDbEntity
  8
0
  6
Continuous
 62
     7
370
    25
100
AcDbLine
 10
128.2823404987
 20
63.0113136639
 30
0.0
 11
128.2823404987
 21
58.0693630823
 31
0.0
  0
SPLINE
  5
9A
330
1F
100
AcDbEntity
  8
0
  6
Continuous
 62
     7
370
    25
100
AcDbSpline
210
0.0
220
0.0
230
1.0
 70
     8
 71
     3
 72
    10
 73
     6
 74
     0
 42
0.00000001
 43
0.00000001
 40
0.0
 40
0.0
 40
0.0
 40
0.0
 40
0.3089808900030074
 40
0.6190948628358686
 40
1.0
 40
1.0
 40
1.0
 40
1.0
 10
127.6328214458295
 20
64.76264776959334
 30
0.0
 10
127.6569684523662
 20
64.6121998072255
 30
0.0
 10
127.7053510164128
 20
64.31075216551163
 30
0.0
 10
127.7128061091294
 20
63.82174092691563
 30
0.0
 10
127.6612437613298
 20
63.48511564175749
 30
0.0
 10
127.6328214458295
 20
63.29956028075359
 30
0.0
  0
LINE
  5
9B
330
1F
100
AcDbEntity
  8
0
  6
Continuous
 62
     7
370
    25
100
AcDbLine
 10
117.2528547426
 20
66.4848426692
 30
0.0
 11
126.9458008509
 21
66.4848426692
 31
0.0
  0
SPLINE
  5
9C
330
1F
100
AcDbEntity
  8
0
  6
Continuous
 62
     7
370
    25
100
AcDbSpline
210
0.0
220
0.0
230
1.0
 70
     8
 71
     3
 72
    10
 73
     6
 74
     0
 42
0.00000001
 43
0.00000001
 40
0.0
 40
0.0
 40
0.0
 40
0.0
 40
0.4979812754252546
 40
0.749001977331267
 40
1.0
 40
1.0
 40
1.0
 40
1.0
 10
126.9458008509234
 20
66.48484266922932
 30
0.0
 10
127.0967466682643
 20
66.20275255856347
 30
0.0
 10
127.323780738093
 20
65.77846742757359
 30
0.0
 10
127.5318260284935
 20
65.20115601043355
 30
0.0
 10
127.5991573206388
 20
64.90881278089985
 30
0.0
 10
127.6328214458295
 20
64.76264776959334
 30
0.0
  0
SPLINE
  5
9D
330
1F
100
AcDbEntity
  8
0
  6
Continuous
 62
     7
370
    25
100
AcDbSpline
210
0.0
220
0.0
230
1.0
 70
     8
 71
     3
 72
    11
 73
     7
 74
     0
 42
0.00000001
 43
0.00000001
 40
0.0
 40
0.0
 40
0.0
 40
0.0
 40
0.2858113857233994
 40
0.5527245545213819
 40
0.8220275582229516
 40
1.0
 40
1.0
 40
1.0
 40
1.0
 10
128.2823404986678
 20
50.32846252211657
 30
0.0
 10
128.2784001972453
 20
50.16277023604765
 30
0.0
 10
128.2707801322051
 20
49.84234145126261
 30
0.0
 10
128.2593190425542
 20
49.44227905649859
 30
0.0
 10
128.2767564317958
 20
49.14149491919179
 30
0.0
 10
128.2807510330551
 20
48.98947627529531
 30
0.0
 10
128.2823404986678
 20
48.92898753279137
 30
0.0
  0
SPLINE
  5
9E
330
1F
100
AcDbEntity
  8
0
  6
Continuous
 62
     7
370
    25
100
AcDbSpline
210
0.0
220
0.0
230
1.0
 70
     8
 71
     3
 72
    11
 73
     7
 74
     0
 42
0.00000001
 43
0.00000001
 40
0.0
 40
0.0
 40
0.0
 40
0.0
 40
0.2858113857233212
 40
0.5527245545214224
 40
0.8220275582231135
 40
1.0
 40
1.0
 40
1.0
 40
1.0
 10
128.2823404986678
 20
64.41078865321997
 30
0.0
 10
128.2784001972453
 20
64.31111856063914
 30
0.0
 10
128.2707801322051
 20
64.1183686903657
 30
0.0
 10
128.2593190425542
 20
63.74663184955502
 30
0.0
 10
128.2767564317958
 20
63.37820215949737
 30
0.0
 10
128.2807510330551
 20
63.11574591029381
 30
0.0
 10
128.2823404986678
 20
63.011313663895
 30
0.0
  0
LINE
  5
9F
330
1F
100
AcDbEntity
  8
0
  6
Continuous
 62
     7
370
    25
100
AcDbLine
 10
129.1493277968
 20
56.669888093
 30
0.0
 11
129.1493277968
 21
64.919888093
 31
0.0
  0
LINE
  5
A0
330
1F
100
AcDbEntity
  8
0
  6
Continuous
 62
     7
370
    25
100
AcDbLine
 10
129.1493277968
 20
48.419888093
 30
0.0
 11
129.1493277968
 21
56.669888093
 31
0.0
  0
LINE
  5
A1
330
1F
100
AcDbEntity
  8
0
  6
Continuous
 62
     7
370
    25
100
AcDbLine
 10
129.3493277968
 20
56.669888093
 30
0.0
 11
129.3493277968
 21
48.619888093
 31
0.0
  0
LINE
  5
A2
330
1F
100
AcDbEntity
  8
0
  6
Continuous
 62
     7
370
    25
100
AcDbLine
 10
129.3493277968
 20
64.719888093
 30
0.0
 11
129.3493277968
 21
56.669888093
 31
0.0
  0
ARC
  5
A3
330
1F
100
AcDbEntity
  8
0
  6
Continuous
 62
     7
370
    25
100
AcDbCircle
 10
128.2738769639
 20
48.1691871485
 30
0.0
 40
0.7598475211239384
100
AcDbArc
 50
89.3617997906
 51
147.5290082717
  0
ARC
  5
A4
330
1F
100
AcDbEntity
  8
0
  6
Continuous
 62
     7
370
    25
100
AcDbCircle
 10
128.2738769639
 20
65.1705890375
 30
0.0
 40
0.7598475211157677
100
AcDbArc
 50
212.4709917279
 51
270.6382002097
  0
LINE
  5
A5
330
1F
100
AcDbEntity
  8
0
  6
Continuous
 62
     7
370
    25
100
AcDbLine
 10
86.0973405107
 20
82.9734968201
 30
0.0
 11
106.7108649652
 21
82.9734968201
 31
0.0
  0
LINE
  5
A6
330
1F
100
AcDbEntity
  8
0
  6
Continuous
 62
     7
370
    25
100
AcDbLine
 10
96.4041027379
 20
72.0095065477
 30
0.0
 11
107.0534896612
 21
72.0095065477
 31
0.0
  0
LINE
  5
A7
330
1F
100
AcDbEntity
  8
0
  6
Continuous
 62
     7
370
    25
100
AcDbLine
 10
85.7547158146
 20
72.0095065477
 30
0.0
 11
96.4041027379
 21
72.0095065477
 31
0.0
  0
LINE
  5
A8
330
1F
100
AcDbEntity
  8
0
  6
Continuous
 62
     7
370
    25
100
AcDbLine
 10
96.4041027379
 20
85.669888093
 30
0.0
 11
105.1541027379
 21
85.669888093
 31
0.0
  0
LINE
  5
A9
330
1F
100
AcDbEntity
  8
0
  6
Continuous
 62
     7
370
    25
100
AcDbLine
 10
87.6541027379
 20
85.669888093
 30
0.0
 11
96.4041027379
 21
85.669888093
 31
0.0
  0
SPLINE
  5
AA
330
1F
100
AcDbEntity
  8
0
  6
Continuous
 62
     7
370
    25
100
AcDbSpline
210
0.0
220
0.0
230
1.0
 70
    24
 71
     3
 72
     8
 73
     4
 74
     0
 42
0.00000001
 43
0.00000001
 40
0.0
 40
0.0
 40
0.0
 40
0.0
 40
1.0
 40
1.0
 40
1.0
 40
1.0
 10
96.40410273793971
 20
65.16988809300568
 30
0.0
 10
97.38075608070254
 20
65.16988809300568
 30
0.0
 10
98.357180915079
 20
65.16988809300568
 30
0.0
 10
99.27638406120873
 20
65.16988809300568
 30
0.0
  0
SPLINE
  5
AB
330
1F
100
AcDbEntity
  8
0
  6
Continuous
 62
     7
370
    25
100
AcDbSpline
210
0.0
220
0.0
230
1.0
 70
    24
 71
     3
 72
     8
 73
     4
 74
     0
 42
0.00000001
 43
0.00000001
 40
0.0
 40
0.0
 40
0.0
 40
0.0
 40
1.0
 40
1.0
 40
1.0
 40
1.0
 10
93.53182141467069
 20
65.16988809300568
 30
0.0
 10
94.45102456080042
 20
65.16988809300568
 30
0.0
 10
95.42744939517688
 20
65.16988809300568
 30
0.0
 10
96.40410273793971
 20
65.16988809300568
 30
0.0
  0
SPLINE
  5
AC
330
1F
100
AcDbEntity
  8
0
  6
Continuous
 62
     7
370
    25
100
AcDbSpline
210
0.0
220
0.0
230
1.0
 70
     8
 71
     3
 72
     8
 73
     4
 74
     0
 42
0.00000001
 43
0.00000001
 40
0.0
 40
0.0
 40
0.0
 40
0.0
 40
1.0
 40
1.0
 40
1.0
 40
1.0
 10
89.5120783618946
 20
64.980237716151
 30
0.0
 10
89.44001211555216
 20
64.88920578587191
 30
0.0
 10
89.37951915798598
 20
64.77925055569764
 30
0.0
 10
89.32076940460637
 20
64.66988809300568
 30
0.0
  0
LINE
  5
AD
330
1F
100
AcDbEntity
  8
0
  6
Continuous
 62
     7
370
    25
100
AcDbLine
 10
89.3207694046
 20
64.669888093
 30
0.0
 11
89.3207694046
 21
52.669888093
 31
0.0
  0
SPLINE
  5
AE
330
1F
100
AcDbEntity
  8
0
  6
Continuous
 62
     7
370
    25
100
AcDbSpline
210
0.0
220
0.0
230
1.0
 70
     8
 71
     3
 72
    10
 73
     6
 74
     0
 42
0.00000001
 43
0.00000001
 40
0.0
 40
0.0
 40
0.0
 40
0.0
 40
0.0280934765544326
 40
0.0280934765544326
 40
0.0561869531088653
 40
0.0561869531088653
 40
0.0561869531088653
 40
0.0561869531088653
 10
89.32076940460637
 20
52.66988809300567
 30
0.0
 10
89.32076940460637
 20
52.57624317115757
 30
0.0
 10
89.32434689885095
 20
52.48218726595299
 30
0.0
 10
89.33850837691148
 20
52.29591655384696
 30
0.0
 10
89.34908764875776
 20
52.20373408456285
 30
0.0
 10
89.36276865454957
 20
52.1137307449297
 30
0.0
  0
ELLIPSE
  5
AF
330
1F
100
AcDbEntity
  8
0
  6
Continuous
 62
     7
370
    25
100
AcDbEllipse
 10
101.4041027379
 20
55.1310372009
 30
0.0
 11
0.5653269642954513
 21
1.222133505507372E-12
 31
0.0
210
0.0
220
0.0
230
1.0
 40
0.9531667975
 41
0.4357918987532503
 42
2.705800754832206
  0
LINE
  5
B0
330
1F
100
AcDbEntity
  8
0
  6
Continuous
 62
     7
370
    25
100
AcDbLine
 10
99.7995177565
 20
52.3050499837
 30
0.0
 11
100.8916134684
 21
55.3585014757
 31
0.0
  0
ELLIPSE
  5
B1
330
1F
100
AcDbEntity
  8
0
  6
Continuous
 62
     7
370
    25
100
AcDbEllipse
 10
99.2426784914
 20
52.4859911311
 30
0.0
 11
-0.5883077352006721
 21
2.131628207280300E-14
 31
0.0
210
0.0
220
0.0
230
1.0
 40
0.9531667975
 41
1.047197551197063
 42
2.813039483038247
  0
LINE
  5
B2
330
1F
100
AcDbEntity
  8
0
  6
Continuous
 62
     7
370
    25
100
AcDbLine
 10
98.9037948633
 20
52.0249779935
 30
0.0
 11
98.9485246238
 21
52.0003627095
 31
0.0
  0
LINE
  5
B3
330
1F
100
AcDbEntity
  8
0
  6
Continuous
 62
     7
370
    25
100
AcDbLine
 10
99.5943049916
 20
50.7086353382
 30
0.0
 11
98.9037948633
 21
52.0249779935
 31
0.0
  0
ELLIPSE
  5
B4
330
1F
100
AcDbEntity
  8
0
  6
Continuous
 62
     7
370
    25
100
AcDbEllipse
 10
99.660079796
 20
50.739982518
 30
0.0
 11
0.07353846690023147
 21
7.105427357601002E-15
 31
0.0
210
0.0
220
0.0
230
1.0
 40
0.9531667975
 41
3.605240262590448
 42
5.462183310214989
  0
ELLIPSE
  5
B5
330
1F
100
AcDbEntity
  8
0
  6
Continuous
 62
     7
370
    25
100
AcDbEllipse
 10
101.4041027379
 20
48.9548421789
 30
0.0
 11
2.48560018122744
 21
-1.705302565824240E-13
 31
0.0
210
0.0
220
0.0
230
1.0
 40
0.9531667975
 41
0.8210019969645115
 42
2.320590656625381
  0
ELLIPSE
  5
B6
330
1F
100
AcDbEntity
  8
0
  6
Continuous
 62
     7
370
    25
100
AcDbEllipse
 10
103.1481256799
 20
50.739982518
 30
0.0
 11
0.07353846690018884
 21
2.842170943040401E-14
 31
0.0
210
0.0
220
0.0
230
1.0
 40
0.9531667975
 41
3.96259465055368
 42
5.819537698178418
  0
LINE
  5
B7
330
1F
100
AcDbEntity
  8
0
  6
Continuous
 62
     7
370
    25
100
AcDbLine
 10
103.9044106125
 20
52.0249779935
 30
0.0
 11
103.2139004843
 21
50.7086353382
 31
0.0
  0
LINE
  5
B8
330
1F
100
AcDbEntity
  8
0
  6
Continuous
 62
     7
370
    25
100
AcDbLine
 10
103.8682921907
 20
52.0043377482
 30
0.0
 11
103.9044106125
 21
52.0249779935
 31
0.0
  0
ELLIPSE
  5
B9
330
1F
100
AcDbEntity
  8
0
  6
Continuous
 62
     7
370
    25
100
AcDbEllipse
 10
103.5657815421
 20
52.4852793992
 30
0.0
 11
-0.588307735201596
 21
-1.563194018672220E-13
 31
0.0
210
0.0
220
0.0
230
1.0
 40
0.9531667975
 41
0.3285531705512003
 42
2.110876526947622
  0
LINE
  5
BA
330
1F
100
AcDbEntity
  8
0
  6
Continuous
 62
     7
370
    25
100
AcDbLine
 10
101.9165920075
 20
55.3585014757
 30
0.0
 11
103.008942277
 21
52.3043382518
 31
0.0
  0
SPLINE
  5
BB
330
1F
100
AcDbEntity
  8
0
  6
Continuous
 62
     7
370
    25
100
AcDbSpline
210
0.0
220
0.0
230
1.0
 70
     8
 71
     3
 72
    10
 73
     6
 74
     0
 42
0.00000001
 43
0.00000001
 40
-0.2904940295525288
 40
-0.2904940295525288
 40
-0.2904940295525288
 40
-0.2904940295525288
 40
-0.1303072746110114
 40
-0.1303072746110114
 40
0.001056361752625
 40
0.001056361752625
 40
0.001056361752625
 40
0.001056361752625
 10
104.9041027379397
 20
56.66988809300567
 30
0.0
 10
104.7745994221654
 20
56.15187482990858
 30
0.0
 10
104.6428084440158
 20
55.62794902626447
 30
0.0
 10
104.464384504575
 20
54.6695465626693
 30
0.0
 10
104.4041027379397
 20
54.23548555761545
 30
0.0
 10
104.4041027379397
 20
53.79760676973666
 30
0.0
  0
LINE
  5
BC
330
1F
100
AcDbEntity
  8
0
  6
Continuous
 62
     7
370
    25
100
AcDbLine
 10
104.4041027379
 20
53.7976067697
 30
0.0
 11
104.4041027379
 21
50.169888093
 31
0.0
  0
LINE
  5
BD
330
1F
100
AcDbEntity
  8
0
  6
Continuous
 62
     7
370
    25
100
AcDbLine
 10
104.4041027379
 20
50.169888093
 30
0.0
 11
92.4041027379
 21
50.169888093
 31
0.0
  0
ARC
  5
BE
330
1F
100
AcDbEntity
  8
0
  6
Continuous
 62
     7
370
    25
100
AcDbCircle
 10
92.4041027379
 20
52.669888093
 30
0.0
 40
2.5
100
AcDbArc
 50
180.0
 51
270.0
  0
LINE
  5
BF
330
1F
100
AcDbEntity
  8
0
  6
Continuous
 62
     7
370
    25
100
AcDbLine
 10
89.9041027379
 20
52.669888093
 30
0.0
 11
89.9041027379
 21
64.669888093
 31
0.0
  0
LINE
  5
C0
330
1F
100
AcDbEntity
  8
0
  6
Continuous
 62
     7
370
    25
100
AcDbLine
 10
89.9041027379
 20
64.669888093
 30
0.0
 11
93.5318214147
 21
64.669888093
 31
0.0
  0
SPLINE
  5
C1
330
1F
100
AcDbEntity
  8
0
  6
Continuous
 62
     7
370
    25
100
AcDbSpline
210
0.0
220
0.0
230
1.0
 70
     8
 71
     3
 72
    10
 73
     6
 74
     0
 42
0.00000001
 43
0.00000001
 40
-0.8711658249657241
 40
-0.8711658249657241
 40
-0.8711658249657241
 40
-0.8711658249657241
 40
-0.7398021886020881
 40
-0.7398021886020881
 40
-0.5796154507864705
 40
-0.5796154507864705
 40
-0.5796154507864705
 40
-0.5796154507864705
 10
93.53182141467069
 20
64.66988809300568
 30
0.0
 10
93.96970020254948
 20
64.66988809300568
 30
0.0
 10
94.40376120760386
 20
64.73016985964108
 30
0.0
 10
95.36216361490146
 20
64.90859378860104
 30
0.0
 10
95.88608953020903
 20
65.04038479107292
 30
0.0
 10
96.40410273793971
 20
65.16988809300568
 30
0.0
  0
SPLINE
  5
C2
330
1F
100
AcDbEntity
  8
0
  6
Continuous
 62
     7
370
    25
100
AcDbSpline
210
0.0
220
0.0
230
1.0
 70
     8
 71
     3
 72
    10
 73
     6
 74
     0
 42
0.00000001
 43
0.00000001
 40
-0.2904940295525327
 40
-0.2904940295525327
 40
-0.2904940295525327
 40
-0.2904940295525327
 40
-0.130307291676468
 40
-0.130307291676468
 40
0.0010563446871674
 40
0.0010563446871674
 40
0.0010563446871674
 40
0.0010563446871674
 10
96.40410273793971
 20
65.16988809300568
 30
0.0
 10
96.92211594586587
 20
65.04038479102412
 30
0.0
 10
97.44604186077926
 20
64.90859378863802
 30
0.0
 10
98.40444426827555
 20
64.73016985964108
 30
0.0
 10
98.83850527332993
 20
64.66988809300568
 30
0.0
 10
99.27638406120873
 20
64.66988809300568
 30
0.0
  0
LINE
  5
C3
330
1F
100
AcDbEntity
  8
0
  6
Continuous
 62
     7
370
    25
100
AcDbLine
 10
99.2763840612
 20
64.669888093
 30
0.0
 11
102.9041027379
 21
64.669888093
 31
0.0
  0
ARC
  5
C4
330
1F
100
AcDbEntity
  8
0
  6
Continuous
 62
     7
370
    25
100
AcDbCircle
 10
104.4041027379
 20
64.669888093
 30
0.0
 40
1.5
100
AcDbArc
 50
180.0
 51
270.0
  0
LINE
  5
C5
330
1F
100
AcDbEntity
  8
0
  6
Continuous
 62
     7
370
    25
100
AcDbLine
 10
104.4041027379
 20
63.169888093
 30
0.0
 11
104.4041027379
 21
59.5421694163
 31
0.0
  0
SPLINE
  5
C6
330
1F
100
AcDbEntity
  8
0
  6
Continuous
 62
     7
370
    25
100
AcDbSpline
210
0.0
220
0.0
230
1.0
 70
     8
 71
     3
 72
    10
 73
     6
 74
     0
 42
0.00000001
 43
0.00000001
 40
-0.8711658421011628
 40
-0.8711658421011628
 40
-0.8711658421011628
 40
-0.8711658421011628
 40
-0.739802205737527
 40
-0.739802205737527
 40
-0.579615450786466
 40
-0.579615450786466
 40
-0.579615450786466
 40
-0.579615450786466
 10
104.4041027379397
 20
59.5421694162747
 30
0.0
 10
104.4041027379397
 20
59.10429062839591
 30
0.0
 10
104.464384504575
 20
58.67022962334206
 30
0.0
 10
104.6428084440216
 20
57.71182715971552
 30
0.0
 10
104.7745994221577
 20
57.18790135613362
 30
0.0
 10
104.9041027379397
 20
56.66988809300567
 30
0.0
  0
LINE
  5
C7
330
1F
100
AcDbEntity
  8
0
  6
Continuous
 62
     7
370
    25
100
AcDbLine
 10
108.7826027379
 20
56.669888093
 30
0.0
 11
108.7826027379
 21
65.169888093
 31
0.0
  0
LINE
  5
C8
330
1F
100
AcDbEntity
  8
0
  6
Continuous
 62
     7
370
    25
100
AcDbLine
 10
108.7826027379
 20
48.169888093
 30
0.0
 11
108.7826027379
 21
56.669888093
 31
0.0
  0
SPLINE
  5
C9
330
1F
100
AcDbEntity
  8
0
  6
Continuous
 62
     7
370
    25
100
AcDbSpline
210
0.0
220
0.0
230
1.0
 70
    24
 71
     3
 72
     8
 73
     4
 74
     0
 42
0.00000001
 43
0.00000001
 40
0.0
 40
0.0
 40
0.0
 40
0.0
 40
1.0
 40
1.0
 40
1.0
 40
1.0
 10
104.9041027379397
 20
56.66988809300567
 30
0.0
 10
104.9041027379397
 20
55.69323475024285
 30
0.0
 10
104.9041027379397
 20
54.71680991586638
 30
0.0
 10
104.9041027379397
 20
53.79760676973666
 30
0.0
  0
SPLINE
  5
CA
330
1F
100
AcDbEntity
  8
0
  6
Continuous
 62
     7
370
    25
100
AcDbSpline
210
0.0
220
0.0
230
1.0
 70
    24
 71
     3
 72
     8
 73
     4
 74
     0
 42
0.00000001
 43
0.00000001
 40
0.0
 40
0.0
 40
0.0
 40
0.0
 40
1.0
 40
1.0
 40
1.0
 40
1.0
 10
104.9041027379397
 20
59.5421694162747
 30
0.0
 10
104.9041027379397
 20
58.62296627014496
 30
0.0
 10
104.9041027379397
 20
57.6465414357685
 30
0.0
 10
104.9041027379397
 20
56.66988809300567
 30
0.0
  0
SPLINE
  5
CB
330
1F
100
AcDbEntity
  8
0
  6
Continuous
 62
     7
370
    25
100
AcDbSpline
210
0.0
220
0.0
230
1.0
 70
     8
 71
     3
 72
    10
 73
     6
 74
     0
 42
0.00000001
 43
0.00000001
 40
0.0
 40
0.0
 40
0.0
 40
0.0
 40
0.0280934765544328
 40
0.0280934765544328
 40
0.0561869531088657
 40
0.0561869531088657
 40
0.0561869531088657
 40
0.0561869531088657
 10
91.84794538986374
 20
49.62855400961553
 30
0.0
 10
91.93794872949687
 20
49.61487300382374
 30
0.0
 10
92.030131198781
 20
49.60429373197744
 30
0.0
 10
92.21640191088703
 20
49.59013225391691
 30
0.0
 10
92.3104578160916
 20
49.58655475967235
 30
0.0
 10
92.40410273793971
 20
49.58655475967235
 30
0.0
  0
LINE
  5
CC
330
1F
100
AcDbEntity
  8
0
  6
Continuous
 62
     7
370
    25
100
AcDbLine
 10
92.4040993048
 20
49.5865547597
 30
0.0
 11
104.4041027379
 21
49.5865547597
 31
0.0
  0
SPLINE
  5
CD
330
1F
100
AcDbEntity
  8
0
  6
Continuous
 62
     7
370
    25
100
AcDbSpline
210
0.0
220
0.0
230
1.0
 70
     8
 71
     3
 72
     8
 73
     4
 74
     0
 42
0.00000001
 43
0.00000001
 40
0.0
 40
0.0
 40
0.0
 40
0.0
 40
1.0
 40
1.0
 40
1.0
 40
1.0
 10
104.714452361085
 20
49.77786371696057
 30
0.0
 10
104.623420430806
 20
49.70579747061814
 30
0.0
 10
104.5134652006344
 20
49.64530451305038
 30
0.0
 10
104.4041027379397
 20
49.58655475967235
 30
0.0
  0
SPLINE
  5
CE
330
1F
100
AcDbEntity
  8
0
  6
Continuous
 62
     7
370
    25
100
AcDbSpline
210
0.0
220
0.0
230
1.0
 70
    24
 71
     3
 72
    10
 73
     6
 74
     0
 42
0.00000001
 43
0.00000001
 40
0.0
 40
0.0
 40
0.0
 40
0.0
 40
0.5
 40
0.5
 40
1.0
 40
1.0
 40
1.0
 40
1.0
 10
104.9041027379397
 20
53.79760676973666
 30
0.0
 10
104.9041027379397
 20
53.79760676973666
 30
0.0
 10
104.8502161897446
 20
53.79760676973666
 30
0.0
 10
104.6650960673214
 20
53.79760676973666
 30
0.0
 10
104.5350024318393
 20
53.79760676973666
 30
0.0
 10
104.4041027379397
 20
53.79760676973666
 30
0.0
  0
LINE
  5
CF
330
1F
100
AcDbEntity
  8
0
  6
Continuous
 62
     7
370
    25
100
AcDbLine
 10
104.9041027379
 20
50.169888093
 30
0.0
 11
104.9041027379
 21
53.7976067697
 31
0.0
  0
LINE
  5
D0
330
1F
100
AcDbEntity
  8
0
  6
Continuous
 62
     7
370
    25
100
AcDbLine
 10
104.4041027379
 20
50.169888093
 30
0.0
 11
104.9041027379
 21
50.169888093
 31
0.0
  0
LINE
  5
D1
330
1F
100
AcDbEntity
  8
0
  6
Continuous
 62
     7
370
    25
100
AcDbLine
 10
103.4041027379
 20
65.169888093
 30
0.0
 11
99.2763840612
 21
65.169888093
 31
0.0
  0
LINE
  5
D2
330
1F
100
AcDbEntity
  8
0
  6
Continuous
 62
     7
370
    25
100
AcDbLine
 10
102.9041027379
 20
64.669888093
 30
0.0
 11
103.4041027379
 21
65.169888093
 31
0.0
  0
SPLINE
  5
D3
330
1F
100
AcDbEntity
  8
0
  6
Continuous
 62
     7
370
    25
100
AcDbSpline
210
0.0
220
0.0
230
1.0
 70
    24
 71
     3
 72
    10
 73
     6
 74
     0
 42
0.00000001
 43
0.00000001
 40
0.0
 40
0.0
 40
0.0
 40
0.0
 40
0.5
 40
0.5
 40
1.0
 40
1.0
 40
1.0
 40
1.0
 10
99.27638406120873
 20
65.16988809300568
 30
0.0
 10
99.27638406120873
 20
65.16988809300568
 30
0.0
 10
99.27638406120873
 20
65.11600154481059
 30
0.0
 10
99.27638406120873
 20
64.93088142238732
 30
0.0
 10
99.27638406120873
 20
64.80078778690526
 30
0.0
 10
99.27638406120873
 20
64.66988809300568
 30
0.0
  0
LINE
  5
D4
330
1F
100
AcDbEntity
  8
0
  6
Continuous
 62
     7
370
    25
100
AcDbLine
 10
104.9041027379
 20
59.5421694163
 30
0.0
 11
104.9041027379
 21
63.169888093
 31
0.0
  0
SPLINE
  5
D5
330
1F
100
AcDbEntity
  8
0
  6
Continuous
 62
     7
370
    25
100
AcDbSpline
210
0.0
220
0.0
230
1.0
 70
    24
 71
     3
 72
    10
 73
     6
 74
     0
 42
0.00000001
 43
0.00000001
 40
0.0
 40
0.0
 40
0.0
 40
0.0
 40
0.5
 40
0.5
 40
1.0
 40
1.0
 40
1.0
 40
1.0
 10
104.4041027379397
 20
59.5421694162747
 30
0.0
 10
104.5350024318393
 20
59.5421694162747
 30
0.0
 10
104.6650960673214
 20
59.5421694162747
 30
0.0
 10
104.8502161897446
 20
59.5421694162747
 30
0.0
 10
104.9041027379397
 20
59.5421694162747
 30
0.0
 10
104.9041027379397
 20
59.5421694162747
 30
0.0
  0
LINE
  5
D6
330
1F
100
AcDbEntity
  8
0
  6
Continuous
 62
     7
370
    25
100
AcDbLine
 10
104.4041027379
 20
63.169888093
 30
0.0
 11
104.9041027379
 21
63.169888093
 31
0.0
  0
SPLINE
  5
D7
330
1F
100
AcDbEntity
  8
0
  6
Continuous
 62
     7
370
    25
100
AcDbSpline
210
0.0
220
0.0
230
1.0
 70
    24
 71
     3
 72
    10
 73
     6
 74
     0
 42
0.00000001
 43
0.00000001
 40
0.0
 40
0.0
 40
0.0
 40
0.0
 40
0.5
 40
0.5
 40
1.0
 40
1.0
 40
1.0
 40
1.0
 10
93.53182141467069
 20
64.66988809300568
 30
0.0
 10
93.53182141467069
 20
64.80078778690525
 30
0.0
 10
93.53182141467069
 20
64.93088142238732
 30
0.0
 10
93.53182141467069
 20
65.11600154481057
 30
0.0
 10
93.53182141467069
 20
65.16988809300568
 30
0.0
 10
93.53182141467069
 20
65.16988809300568
 30
0.0
  0
LINE
  5
D8
330
1F
100
AcDbEntity
  8
0
  6
Continuous
 62
     7
370
    25
100
AcDbLine
 10
89.9041027379
 20
65.169888093
 30
0.0
 11
89.9041027379
 21
64.669888093
 31
0.0
  0
LINE
  5
D9
330
1F
100
AcDbEntity
  8
0
  6
Continuous
 62
     7
370
    25
100
AcDbLine
 10
93.5318214147
 20
65.169888093
 30
0.0
 11
89.9041027379
 21
65.169888093
 31
0.0
  0
ELLIPSE
  5
DA
330
1F
100
AcDbEntity
  8
0
  6
Continuous
 62
     7
370
    25
100
AcDbEllipse
 10
101.1407618493
 20
52.3754501184
 30
0.0
 11
-0.07353846690021726
 21
0.0
 31
0.0
210
0.0
220
0.0
230
1.0
 40
0.9531667975
 41
5.940161364898021
 42
7.853981633974483
  0
LINE
  5
DB
330
1F
100
AcDbEntity
  8
0
  6
Continuous
 62
     7
370
    25
100
AcDbLine
 10
101.3348484833
 20
53.1018472416
 30
0.0
 11
101.0715075929
 21
52.3990254249
 31
0.0
  0
ELLIPSE
  5
DC
330
1F
100
AcDbEntity
  8
0
  6
Continuous
 62
     7
370
    25
100
AcDbEllipse
 10
101.667443627
 20
52.3754501184
 30
0.0
 11
0.07353846690021726
 21
1.421085471520200E-14
 31
0.0
210
0.0
220
0.0
230
1.0
 40
0.9531667975
 41
4.712388980384518
 42
6.626209245739267
  0
LINE
  5
DD
330
1F
100
AcDbEntity
  8
0
  6
Continuous
 62
     7
370
    25
100
AcDbLine
 10
101.1407618493
 20
52.3053556934
 30
0.0
 11
101.667443627
 21
52.3053556934
 31
0.0
  0
ELLIPSE
  5
DE
330
1F
100
AcDbEntity
  8
0
  6
Continuous
 62
     7
370
    25
100
AcDbEllipse
 10
101.4041027397
 20
53.0782719352
 30
0.0
 11
0.07353846690020305
 21
0.0
 31
0.0
210
0.0
220
0.0
230
1.0
 40
0.9531667975
 41
0.3430239394902382
 42
2.798568712238884
  0
LINE
  5
DF
330
1F
100
AcDbEntity
  8
0
  6
Continuous
 62
     7
370
    25
100
AcDbLine
 10
101.7366978834
 20
52.3990254247
 30
0.0
 11
101.4733569961
 21
53.1018472415
 31
0.0
  0
LINE
  5
E0
330
1F
100
AcDbEntity
  8
0
  6
Continuous
 62
     7
370
    25
100
AcDbLine
 10
110.7041027379
 20
63.248388093
 30
0.0
 11
110.7041027379
 21
50.091388093
 31
0.0
  0
LINE
  5
E1
330
1F
100
AcDbEntity
  8
0
  6
Continuous
 62
     7
370
    25
100
AcDbLine
 10
92.4041027379
 20
50.169888093
 30
0.0
 11
92.4041027379
 21
49.669888093
 31
0.0
  0
ARC
  5
E2
330
1F
100
AcDbEntity
  8
0
  6
Continuous
 62
     7
370
    25
100
AcDbCircle
 10
92.4041027379
 20
52.669888093
 30
0.0
 40
3.0
100
AcDbArc
 50
180.0
 51
270.0
  0
LINE
  5
E3
330
1F
100
AcDbEntity
  8
0
  6
Continuous
 62
     7
370
    25
100
AcDbLine
 10
89.9041027379
 20
52.669888093
 30
0.0
 11
89.4041027379
 21
52.669888093
 31
0.0
  0
LINE
  5
E4
330
1F
100
AcDbEntity
  8
0
  6
Continuous
 62
     7
370
    25
100
AcDbLine
 10
102.9041027379
 20
64.669888093
 30
0.0
 11
103.4041027379
 21
64.669888093
 31
0.0
  0
ARC
  5
E5
330
1F
100
AcDbEntity
  8
0
  6
Continuous
 62
     7
370
    25
100
AcDbCircle
 10
104.4041027379
 20
64.669888093
 30
0.0
 40
1.0
100
AcDbArc
 50
180.0
 51
270.0
  0
LINE
  5
E6
330
1F
100
AcDbEntity
  8
0
  6
Continuous
 62
     7
370
    25
100
AcDbLine
 10
104.4041027379
 20
63.169888093
 30
0.0
 11
104.4041027379
 21
63.669888093
 31
0.0
  0
ARC
  5
E7
330
1F
100
AcDbEntity
  8
0
  6
Continuous
 62
     7
370
    25
100
AcDbCircle
 10
104.4041027379
 20
50.169888093
 30
0.0
 40
0.5
100
AcDbArc
 50
270.0
 51
0.0
  0
LINE
  5
E8
330
1F
100
AcDbEntity
  8
0
  6
Continuous
 62
     7
370
    25
100
AcDbLine
 10
104.4041027379
 20
49.669888093
 30
0.0
 11
104.4041027379
 21
50.169888093
 31
0.0
  0
LINE
  5
E9
330
1F
100
AcDbEntity
  8
0
  6
Continuous
 62
     7
370
    25
100
AcDbLine
 10
92.4041027379
 20
49.669888093
 30
0.0
 11
104.4041027379
 21
49.669888093
 31
0.0
  0
LINE
  5
EA
330
1F
100
AcDbEntity
  8
0
  6
Continuous
 62
     7
370
    25
100
AcDbLine
 10
89.4041027379
 20
64.669888093
 30
0.0
 11
89.4041027379
 21
52.669888093
 31
0.0
  0
LINE
  5
EB
330
1F
100
AcDbEntity
  8
0
  6
Continuous
 62
     7
370
    25
100
AcDbLine
 10
89.9041027379
 20
64.669888093
 30
0.0
 11
89.4041027379
 21
64.669888093
 31
0.0
  0
LINE
  5
EC
330
1F
100
AcDbEntity
  8
0
  6
Continuous
 62
     7
370
    25
100
AcDbLine
 10
103.4041027379
 20
64.669888093
 30
0.0
 11
103.4041027379
 21
65.169888093
 31
0.0
  0
ARC
  5
ED
330
1F
100
AcDbEntity
  8
0
  6
Continuous
 62
     7
370
    25
100
AcDbCircle
 10
104.4041027379
 20
63.169888093
 30
0.0
 40
0.5
100
AcDbArc
 50
0.0
 51
90.0
  0
ARC
  5
EE
330
1F
100
AcDbEntity
  8
0
  6
Continuous
 62
     7
370
    25
100
AcDbCircle
 10
89.9041027379
 20
64.669888093
 30
0.0
 40
0.5
100
AcDbArc
 50
90.0
 51
180.0
  0
LWPOLYLINE
  5
EF
330
1F
100
AcDbEntity
  8
0
  6
Continuous
 62
     7
370
    25
100
AcDbPolyline
 90
        9
 70
   128
 43
0.0
 10
91.9273964396
 20
49.7080050593
 10
91.9185170468
 20
49.7079476661
 10
91.9092233651
 20
49.7049926675
 10
91.8995699527
 20
49.6991574108
 10
91.8896134797
 20
49.6904761518
 10
91.8794123953
 20
49.6789998534
 10
91.8690265847
 20
49.6647958871
 10
91.8585170175
 20
49.6479476367
 10
91.8479453899
 20
49.6285540096
  0
SPLINE
  5
F0
330
1F
100
AcDbEntity
  8
0
  6
Continuous
 62
     7
370
    25
100
AcDbSpline
210
0.0
220
0.0
230
1.0
 70
     8
 71
     3
 72
    14
 73
    10
 74
     0
 42
0.00000001
 43
0.00000001
 40
-0.4399100083495733
 40
-0.4399100083495733
 40
-0.4399100083495733
 40
-0.4399100083495733
 40
-0.2980125372576002
 40
-0.2980125372576002
 40
-0.1727985319285605
 40
-0.1727985319285605
 40
-0.0664609738186771
 40
-0.0664609738186771
 40
0.0
 40
0.0
 40
0.0
 40
0.0
 10
89.36276865454957
 20
52.1137307449297
 30
0.0
 10
89.42039344212535
 20
51.71898593283816
 30
0.0
 10
89.55981082944639
 20
51.33036508188778
 30
0.0
 10
89.96271518792756
 20
50.68023929548606
 30
0.0
 10
90.20908488041508
 20
50.40943756412427
 30
0.0
 10
90.74095310547249
 20
50.00762303286883
 30
0.0
 10
91.01128050401323
 20
49.8634832067106
 30
0.0
 10
91.47805410549545
 20
49.70048247828623
 30
0.0
 10
91.66305749567096
 20
49.65554391626368
 30
0.0
 10
91.84794538986374
 20
49.62855400961553
 30
0.0
  0
LWPOLYLINE
  5
F1
330
1F
100
AcDbEntity
  8
0
  6
Continuous
 62
     7
370
    25
100
AcDbPolyline
 90
        9
 70
   128
 43
0.0
 10
89.4422197043
 20
52.1931817947
 10
89.442162311
 20
52.1843024019
 10
89.4392073124
 20
52.1750087202
 10
89.4333720558
 20
52.1653553077
 10
89.4246907967
 20
52.1553988347
 10
89.4132144984
 20
52.1451977503
 10
89.399010532
 20
52.1348119397
 10
89.3821622817
 20
52.1243023726
 10
89.3627686545
 20
52.1137307449
  0
LINE
  5
F2
330
1F
100
AcDbEntity
  8
0
  6
Continuous
 62
     7
370
    25
100
AcDbLine
 10
89.4041027379
 20
52.669888093
 30
0.0
 11
89.3207694046
 21
52.669888093
 31
0.0
  0
LWPOLYLINE
  5
F3
330
1F
100
AcDbEntity
  8
0
  6
Continuous
 62
     7
370
    25
100
AcDbPolyline
 90
        9
 70
   128
 43
0.0
 10
92.4041027379
 20
49.669888093
 10
92.4041027379
 20
49.66854874
 10
92.4041027379
 20
49.6645378564
 10
92.4041027379
 20
49.6578769303
 10
92.4041027379
 20
49.6486016469
 10
92.4041027379
 20
49.6367616977
 10
92.4041027379
 20
49.6224205143
 10
92.4041027379
 20
49.6056549282
 10
92.4040993048
 20
49.5865547597
  0
LINE
  5
F4
330
1F
100
AcDbEntity
  8
0
  6
Continuous
 62
     7
370
    25
100
AcDbLine
 10
89.4041027379
 20
64.669888093
 30
0.0
 11
89.3207694046
 21
64.669888093
 31
0.0
  0
LINE
  5
F5
330
1F
100
AcDbEntity
  8
0
  6
Continuous
 62
     7
370
    25
100
AcDbLine
 10
104.4041027379
 20
49.5865547597
 30
0.0
 11
104.4041027379
 21
49.669888093
 31
0.0
  0
LINE
  5
F6
330
1F
100
AcDbEntity
  8
0
  6
Continuous
 62
     7
370
    25
100
AcDbLine
 10
128.2823404987
 20
48.9289875328
 30
0.0
 11
128.2823404987
 21
48.419888093
 31
0.0
  0
LINE
  5
F7
330
1F
100
AcDbEntity
  8
0
  6
Continuous
 62
     7
370
    25
100
AcDbLine
 10
128.2823404987
 20
64.919888093
 30
0.0
 11
128.2823404987
 21
64.4107886532
 31
0.0
  0
LINE
  5
F8
330
1F
100
AcDbEntity
  8
0
  6
Continuous
 62
     7
370
    25
100
AcDbLine
 10
127.6328214458
 20
64.7626477696
 30
0.0
 11
127.6328214458
 21
65.294888093
 31
0.0
  0
LINE
  5
F9
330
1F
100
AcDbEntity
  8
0
  6
Continuous
 62
     7
370
    25
100
AcDbLine
 10
127.6328214458
 20
48.044888093
 30
0.0
 11
127.6328214458
 21
48.5771284164
 31
0.0
  0
LINE
  5
FA
330
1F
100
AcDbEntity
  8
0
  6
Continuous
 62
     7
370
    25
100
AcDbLine
 10
86.5291027379
 20
71.4024594804
 30
0.0
 11
106.2791027379
 21
71.4024594804
 31
0.0
  0
LINE
  5
FB
330
1F
100
AcDbEntity
  8
0
  6
Continuous
 62
     7
370
    25
100
AcDbLine
 10
87.9041027379
 20
69.169888093
 30
0.0
 11
104.9041027379
 21
69.169888093
 31
0.0
  0
SPLINE
  5
FC
330
1F
100
AcDbEntity
  8
0
  6
Continuous
 62
     7
370
    25
100
AcDbSpline
210
0.0
220
0.0
230
1.0
 70
    24
 71
     3
 72
    12
 73
     8
 74
     0
 42
0.00000001
 43
0.00000001
 40
-0.5788447217180464
 40
-0.5788447217180464
 40
-0.5788447217180464
 40
-0.5788447217180464
 40
-0.3728576618289314
 40
-0.3728576618289314
 40
-0.0432783660063474
 40
-0.0432783660063474
 40
0.0
 40
0.0
 40
0.0
 40
0.0
 10
104.9041027379397
 20
65.66988809300568
 30
0.0
 10
104.9041027379399
 20
65.66988809300587
 30
0.0
 10
104.8437809817466
 20
65.60601799821295
 30
0.0
 10
104.5334141471852
 20
65.27739429103033
 30
0.0
 10
104.1904790629431
 20
64.91428655477401
 30
0.0
 10
103.6513530469462
 20
64.34344724371839
 30
0.0
 10
103.5864638787959
 20
64.27474106567699
 30
0.0
 10
103.5193406279088
 20
64.20366938826709
 30
0.0
  0
SPLINE
  5
FD
330
1F
100
AcDbEntity
  8
0
  6
Continuous
 62
     7
370
    25
100
AcDbSpline
210
0.0
220
0.0
230
1.0
 70
     8
 71
     3
 72
    12
 73
     8
 74
     0
 42
0.00000001
 43
0.00000001
 40
0.0
 40
0.0
 40
0.0
 40
0.0
 40
0.0430206627346149
 40
0.0430206627346149
 40
0.3824319177041577
 40
0.3824319177041577
 40
0.594563952060122
 40
0.594563952060122
 40
0.594563952060122
 40
0.594563952060122
 10
89.3628198466293
 20
52.11373073167427
 30
0.0
 10
89.29451503796945
 20
52.06953320066943
 30
0.0
 10
89.22838931977549
 20
52.02674567932304
 30
0.0
 10
88.66060070297767
 20
51.65935053940121
 30
0.0
 10
88.2971134011755
 20
51.42415126368161
 30
0.0
 10
87.96809135501523
 20
51.2112531627066
 30
0.0
 10
87.90410273820476
 20
51.1698484700394
 30
0.0
 10
87.90410273820476
 20
51.1698484700394
 30
0.0
  0
SPLINE
  5
FE
330
1F
100
AcDbEntity
  8
0
  6
Continuous
 62
     7
370
    25
100
AcDbSpline
210
0.0
220
0.0
230
1.0
 70
    24
 71
     3
 72
    12
 73
     8
 74
     0
 42
0.00000001
 43
0.00000001
 40
-0.5788447217180465
 40
-0.5788447217180465
 40
-0.5788447217180465
 40
-0.5788447217180465
 40
-0.535566355711699
 40
-0.535566355711699
 40
-0.205987059889115
 40
-0.205987059889115
 40
0.0
 40
0.0
 40
0.0
 40
0.0
 10
103.9378840332011
 20
63.78512598297478
 30
0.0
 10
104.008955710611
 20
63.8522492338619
 30
0.0
 10
104.0776618886524
 20
63.91713840201213
 30
0.0
 10
104.648501199708
 20
64.4562644180091
 30
0.0
 10
105.0116089359644
 20
64.79919950225117
 30
0.0
 10
105.340232643147
 20
65.10956633681253
 30
0.0
 10
105.4041027379399
 20
65.16988809300587
 30
0.0
 10
105.4041027379397
 20
65.16988809300568
 30
0.0
  0
SPLINE
  5
FF
330
1F
100
AcDbEntity
  8
0
  6
Continuous
 62
     7
370
    25
100
AcDbSpline
210
0.0
220
0.0
230
1.0
 70
     8
 71
     3
 72
    12
 73
     8
 74
     0
 42
0.00000001
 43
0.00000001
 40
0.0
 40
0.0
 40
0.0
 40
0.0
 40
0.2121320343559643
 40
0.2121320343559643
 40
0.5515432893255071
 40
0.5515432893255071
 40
0.5945639520601226
 40
0.5945639520601226
 40
0.5945639520601226
 40
0.5945639520601226
 10
90.90406311497344
 20
48.16988809327072
 30
0.0
 10
90.90406311497344
 20
48.16988809327072
 30
0.0
 10
90.94546780764064
 20
48.2338767100812
 30
0.0
 10
91.15836590861564
 20
48.56289875624147
 30
0.0
 10
91.39356518433524
 20
48.92638605804363
 30
0.0
 10
91.76096032425707
 20
49.49417467484145
 30
0.0
 10
91.80374784560347
 20
49.56030039303541
 30
0.0
 10
91.84794537660831
 20
49.62860520169526
 30
0.0
  0
LINE
  5
100
330
1F
100
AcDbEntity
  8
FORMAT
100
AcDbLine
 10
86.6617158146
 20
72.0095065477
 30
0.0
 11
87.0562426092
 21
84.6343639743
 31
0.0
  0
LINE
  5
101
330
1F
100
AcDbEntity
  8
FORMAT
100
AcDbLine
 10
106.1464896612
 20
72.0095065477
 30
0.0
 11
105.7519628667
 21
84.6343639743
 31
0.0
  0
LINE
  5
102
330
1F
100
AcDbEntity
  8
FORMAT
100
AcDbLine
 10
120.7601027379
 20
50.947388093
 30
0.0
 11
110.7041027379
 21
50.947388093
 31
0.0
  0
LINE
  5
103
330
1F
100
AcDbEntity
  8
FORMAT
100
AcDbLine
 10
120.7601027379
 20
62.392388093
 30
0.0
 11
110.7041027379
 21
62.392388093
 31
0.0
  0
LINE
  5
104
330
1F
100
AcDbEntity
  8
FORMAT
100
AcDbLine
 10
110.7041027379
 20
63.248388093
 30
0.0
 11
110.7041027379
 21
50.091388093
 31
0.0
  0
LINE
  5
105
330
1F
100
AcDbEntity
  8
FORMAT
  6
CENTERX2
370
    18
100
AcDbLine
 10
96.4041027379
 20
46.2990707424
 30
0.0
 11
96.4041027379
 21
87.4832840996
 31
0.0
  0
LINE
  5
106
330
1F
100
AcDbEntity
  8
FORMAT
  6
CENTERX2
370
    18
100
AcDbLine
 10
85.3879985868
 20
56.669888093
 30
0.0
 11
130.9735782569
 21
56.669888093
 31
0.0
  0
LINE
  5
107
330
1F
100
AcDbEntity
  8
0
  6
Continuous
 62
     7
370
    25
100
AcDbLine
 10
163.158221783
 20
72.0095065477
 30
0.0
 11
162.815597087
 21
82.9734968201
 31
0.0
  0
LINE
  5
108
330
1F
100
AcDbEntity
  8
0
  6
Continuous
 62
     7
370
    25
100
AcDbLine
 10
142.2020726324
 20
82.9734968201
 30
0.0
 11
141.8594479364
 21
72.0095065477
 31
0.0
  0
ARC
  5
109
330
1F
100
AcDbEntity
  8
0
  6
Continuous
 62
     7
370
    25
100
AcDbCircle
 10
161.2588348597
 20
73.6350308679
 30
0.0
 40
2.500000000000009
100
AcDbArc
 50
296.7436839504
 51
319.4425836614
  0
ARC
  5
10A
330
1F
100
AcDbEntity
  8
0
  6
Continuous
 62
     7
370
    25
100
AcDbCircle
 10
143.7588348597
 20
73.6350308679
 30
0.0
 40
2.500000000000022
100
AcDbArc
 50
220.5574163386
 51
243.2563160496
  0
LINE
  5
10B
330
1F
100
AcDbEntity
  8
0
  6
Continuous
 62
     7
370
    25
100
AcDbLine
 10
162.815597087
 20
82.9734968201
 30
0.0
 11
161.2588348597
 21
85.669888093
 31
0.0
  0
LINE
  5
10C
330
1F
100
AcDbEntity
  8
0
  6
Continuous
 62
     7
370
    25
100
AcDbLine
 10
143.7588348597
 20
85.669888093
 30
0.0
 11
142.2020726324
 21
82.9734968201
 31
0.0
  0
ARC
  5
10D
330
1F
100
AcDbEntity
  8
0
  6
Continuous
 62
     7
370
    25
100
AcDbCircle
 10
163.5088348597
 20
69.169888093
 30
0.0
 40
2.500000000000009
100
AcDbArc
 50
116.7436839504
 51
180.0
  0
ARC
  5
10E
330
1F
100
AcDbEntity
  8
0
  6
Continuous
 62
     7
370
    25
100
AcDbCircle
 10
141.5088348597
 20
69.169888093
 30
0.0
 40
2.5
100
AcDbArc
 50
0.0
 51
63.2563160496
  0
LINE
  5
10F
330
1F
100
AcDbEntity
  8
0
  6
Continuous
 62
     7
370
    25
100
AcDbLine
 10
144.0088348597
 20
69.169888093
 30
0.0
 11
144.0088348597
 21
65.169888093
 31
0.0
  0
LINE
  5
110
330
1F
100
AcDbEntity
  8
0
  6
Continuous
 62
     7
370
    25
100
AcDbLine
 10
161.0088348597
 20
65.169888093
 30
0.0
 11
161.0088348597
 21
69.169888093
 31
0.0
  0
CIRCLE
  5
111
330
1F
100
AcDbEntity
  8
0
  6
Continuous
 62
     7
370
    25
100
AcDbCircle
 10
152.5088348597
 20
56.669888093
 30
0.0
 40
4.049999999999994
  0
CIRCLE
  5
112
330
1F
100
AcDbEntity
  8
0
  6
Continuous
 62
     7
370
    25
100
AcDbCircle
 10
152.5088348597
 20
56.669888093
 30
0.0
 40
8.049999999999983
  0
CIRCLE
  5
113
330
1F
100
AcDbEntity
  8
0
  6
Continuous
 62
     7
370
    25
100
AcDbCircle
 10
152.5088348597
 20
56.669888093
 30
0.0
 40
8.25
  0
CIRCLE
  5
114
330
1F
100
AcDbEntity
  8
0
  6
Continuous
 62
     7
370
    25
100
AcDbCircle
 10
152.5088348597
 20
56.669888093
 30
0.0
 40
4.174999999999983
  0
CIRCLE
  5
115
330
1F
100
AcDbEntity
  8
0
  6
Continuous
 62
     7
370
    25
100
AcDbCircle
 10
152.5088348597
 20
56.669888093
 30
0.0
 40
4.074999999999989
  0
SPLINE
  5
116
330
1F
100
AcDbEntity
  8
0
  6
Continuous
 62
     7
370
    25
100
AcDbSpline
210
0.0
220
0.0
230
1.0
 70
    24
 71
     3
 72
    10
 73
     6
 74
     0
 42
0.00000001
 43
0.00000001
 40
0.0
 40
0.0
 40
0.0
 40
0.0
 40
0.3089808900030072
 40
0.6190948628358686
 40
1.0
 40
1.0
 40
1.0
 40
1.0
 10
149.5259057930178
 20
64.76264776959334
 30
0.0
 10
149.2653222783015
 20
64.6121998072255
 30
0.0
 10
148.7431996470312
 20
64.31075216551163
 30
0.0
 10
147.8962073363108
 20
63.82174092691564
 30
0.0
 10
147.3131552393045
 20
63.48511564175749
 30
0.0
 10
146.9917639264289
 20
63.29956028075359
 30
0.0
  0
LINE
  5
117
330
1F
100
AcDbEntity
  8
0
  6
Continuous
 62
     7
370
    25
100
AcDbLine
 10
149.525905793
 20
64.7626477696
 30
0.0
 11
149.6555983611
 21
64.4107886532
 31
0.0
  0
LINE
  5
118
330
1F
100
AcDbEntity
  8
0
  6
Continuous
 62
     7
370
    25
100
AcDbLine
 10
146.9917639264
 20
63.2995602808
 30
0.0
 11
147.2316365757
 21
63.0113136639
 31
0.0
  0
SPLINE
  5
119
330
1F
100
AcDbEntity
  8
0
  6
Continuous
 62
     7
370
    25
100
AcDbSpline
210
0.0
220
0.0
230
1.0
 70
    24
 71
     3
 72
    10
 73
     6
 74
     0
 42
0.00000001
 43
0.00000001
 40
0.0
 40
0.0
 40
0.0
 40
0.0
 40
0.3089808900029883
 40
0.6190948628358312
 40
1.0
 40
1.0
 40
1.0
 40
1.0
 10
158.0259057930179
 20
63.29956028075344
 30
0.0
 10
157.7653222783016
 20
63.4500082431213
 30
0.0
 10
157.2431996470313
 20
63.75145588483519
 30
0.0
 10
156.3962073363107
 20
64.24046712343124
 30
0.0
 10
155.8131552393044
 20
64.57709240858944
 30
0.0
 10
155.4917639264288
 20
64.76264776959339
 30
0.0
  0
LINE
  5
11A
330
1F
100
AcDbEntity
  8
0
  6
Continuous
 62
     7
370
    25
100
AcDbLine
 10
158.025905793
 20
63.2995602808
 30
0.0
 11
157.7860331437
 21
63.0113136639
 31
0.0
  0
LINE
  5
11B
330
1F
100
AcDbEntity
  8
0
  6
Continuous
 62
     7
370
    25
100
AcDbLine
 10
155.4917639264
 20
64.7626477696
 30
0.0
 11
155.3620713583
 21
64.4107886532
 31
0.0
  0
LINE
  5
11C
330
1F
100
AcDbEntity
  8
0
  6
Continuous
 62
     7
370
    25
100
AcDbLine
 10
157.7860331437
 20
50.3284625221
 30
0.0
 11
158.025905793
 21
50.0402159053
 31
0.0
  0
SPLINE
  5
11D
330
1F
100
AcDbEntity
  8
0
  6
Continuous
 62
     7
370
    25
100
AcDbSpline
210
0.0
220
0.0
230
1.0
 70
    24
 71
     3
 72
    10
 73
     6
 74
     0
 42
0.00000001
 43
0.00000001
 40
0.0
 40
0.0
 40
0.0
 40
0.0
 40
0.3089808900029877
 40
0.6190948628358299
 40
1.0
 40
1.0
 40
1.0
 40
1.0
 10
155.4917639264287
 20
48.57712841641795
 30
0.0
 10
155.7523474411451
 20
48.72757637878581
 30
0.0
 10
156.2744700724153
 20
49.02902402049969
 30
0.0
 10
157.1214623831359
 20
49.51803525909575
 30
0.0
 10
157.7045144801423
 20
49.85466054425395
 30
0.0
 10
158.0259057930179
 20
50.04021590525789
 30
0.0
  0
LINE
  5
11E
330
1F
100
AcDbEntity
  8
0
  6
Continuous
 62
     7
370
    25
100
AcDbLine
 10
155.3620713583
 20
48.9289875328
 30
0.0
 11
155.4917639264
 21
48.5771284164
 31
0.0
  0
LINE
  5
11F
330
1F
100
AcDbEntity
  8
0
  6
Continuous
 62
     7
370
    25
100
AcDbLine
 10
149.6555983611
 20
48.9289875328
 30
0.0
 11
149.525905793
 21
48.5771284164
 31
0.0
  0
SPLINE
  5
120
330
1F
100
AcDbEntity
  8
0
  6
Continuous
 62
     7
370
    25
100
AcDbSpline
210
0.0
220
0.0
230
1.0
 70
    24
 71
     3
 72
    10
 73
     6
 74
     0
 42
0.00000001
 43
0.00000001
 40
0.0
 40
0.0
 40
0.0
 40
0.0
 40
0.3089808900029885
 40
0.6190948628358307
 40
1.0
 40
1.0
 40
1.0
 40
1.0
 10
146.9917639264287
 20
50.04021590525797
 30
0.0
 10
147.252347441145
 20
49.8897679428901
 30
0.0
 10
147.7744700724153
 20
49.5883203011762
 30
0.0
 10
148.6214623831359
 20
49.09930906258014
 30
0.0
 10
149.2045144801423
 20
48.76268377742193
 30
0.0
 10
149.5259057930179
 20
48.57712841641798
 30
0.0
  0
LINE
  5
121
330
1F
100
AcDbEntity
  8
0
  6
Continuous
 62
     7
370
    25
100
AcDbLine
 10
147.2316365757
 20
50.3284625221
 30
0.0
 11
146.9917639264
 21
50.0402159053
 31
0.0
  0
LINE
  5
122
330
1F
100
AcDbEntity
  8
0
  6
Continuous
 62
     7
370
    25
100
AcDbLine
 10
144.3784000771
 20
55.2704131037
 30
0.0
 11
144.0088348597
 21
55.2068006042
 31
0.0
  0
SPLINE
  5
123
330
1F
100
AcDbEntity
  8
0
  6
Continuous
 62
     7
370
    25
100
AcDbSpline
210
0.0
220
0.0
230
1.0
 70
    24
 71
     3
 72
    10
 73
     6
 74
     0
 42
0.00000001
 43
0.00000001
 40
0.0
 40
0.0
 40
0.0
 40
0.0
 40
0.0789477693778933
 40
0.5375793028234311
 40
0.9999999999999999
 40
0.9999999999999999
 40
0.9999999999999999
 40
0.9999999999999999
 10
144.0088348597234
 20
58.13297558184573
 30
0.0
 10
144.0088348597234
 20
58.05620592747732
 30
0.0
 10
144.0088348597234
 20
57.53345807027292
 30
0.0
 10
144.0088348597234
 20
56.55528636437375
 30
0.0
 10
144.0088348597233
 20
55.65752697028287
 30
0.0
 10
144.0088348597233
 20
55.20680060416581
 30
0.0
  0
LINE
  5
124
330
1F
100
AcDbEntity
  8
0
  6
Continuous
 62
     7
370
    25
100
AcDbLine
 10
144.0088348597
 20
58.1329755818
 30
0.0
 11
144.3784000771
 21
58.0693630823
 31
0.0
  0
LINE
  5
125
330
1F
100
AcDbEntity
  8
0
  6
Continuous
 62
     7
370
    25
100
AcDbLine
 10
161.0088348597
 20
58.1329755818
 30
0.0
 11
160.6392696423
 21
58.0693630823
 31
0.0
  0
SPLINE
  5
126
330
1F
100
AcDbEntity
  8
0
  6
Continuous
 62
     7
370
    25
100
AcDbSpline
210
0.0
220
0.0
230
1.0
 70
    24
 71
     3
 72
    10
 73
     6
 74
     0
 42
0.00000001
 43
0.00000001
 40
0.0
 40
0.0
 40
0.0
 40
0.0
 40
0.4586421336634354
 40
0.9210522271454904
 40
1.0
 40
1.0
 40
1.0
 40
1.0
 10
161.0088348597234
 20
55.20680060416569
 30
0.0
 10
161.0088348597234
 20
55.653831760916
 30
0.0
 10
161.0088348597234
 20
56.5515666446248
 30
0.0
 10
161.0088348597234
 20
57.52978394084539
 30
0.0
 10
161.0088348597234
 20
58.05620594821222
 30
0.0
 10
161.0088348597234
 20
58.1329755818456
 30
0.0
  0
LINE
  5
127
330
1F
100
AcDbEntity
  8
0
  6
Continuous
 62
     7
370
    25
100
AcDbLine
 10
160.6392696423
 20
55.2704131037
 30
0.0
 11
161.0088348597
 21
55.2068006042
 31
0.0
  0
ARC
  5
128
330
1F
100
AcDbEntity
  8
0
  6
Continuous
 62
     7
370
    25
100
AcDbCircle
 10
152.5088348597
 20
56.669888093
 30
0.0
 40
8.625000000000052
100
AcDbArc
 50
9.766500898
 51
50.233499102
  0
ARC
  5
129
330
1F
100
AcDbEntity
  8
0
  6
Continuous
 62
     7
370
    25
100
AcDbCircle
 10
152.5088348597
 20
56.669888093
 30
0.0
 40
8.625000000000034
100
AcDbArc
 50
309.766500898
 51
350.233499102
  0
ARC
  5
12A
330
1F
100
AcDbEntity
  8
0
  6
Continuous
 62
     7
370
    25
100
AcDbCircle
 10
152.5088348597
 20
56.669888093
 30
0.0
 40
8.625000000000018
100
AcDbArc
 50
69.766500898
 51
110.233499102
  0
ARC
  5
12B
330
1F
100
AcDbEntity
  8
0
  6
Continuous
 62
     7
370
    25
100
AcDbCircle
 10
152.5088348597
 20
56.669888093
 30
0.0
 40
8.62500000000001
100
AcDbArc
 50
249.766500898
 51
290.233499102
  0
ARC
  5
12C
330
1F
100
AcDbEntity
  8
0
  6
Continuous
 62
     7
370
    25
100
AcDbCircle
 10
152.5088348597
 20
56.669888093
 30
0.0
 40
8.624999999999995
100
AcDbArc
 50
129.766500898
 51
170.233499102
  0
ARC
  5
12D
330
1F
100
AcDbEntity
  8
0
  6
Continuous
 62
     7
370
    25
100
AcDbCircle
 10
152.5088348597
 20
56.669888093
 30
0.0
 40
8.624999999999986
100
AcDbArc
 50
189.766500898
 51
230.233499102
  0
SPLINE
  5
12E
330
1F
100
AcDbEntity
  8
0
  6
Continuous
 62
     7
370
    25
100
AcDbSpline
210
0.0
220
0.0
230
1.0
 70
    24
 71
     3
 72
    10
 73
     6
 74
     0
 42
0.00000001
 43
0.00000001
 40
0.0
 40
0.0
 40
0.0
 40
0.0
 40
0.4979812754252546
 40
0.7490019773312667
 40
1.0
 40
1.0
 40
1.0
 40
1.0
 10
161.0088348597234
 20
61.57736538111748
 30
0.0
 10
160.5202404557374
 20
61.85945549178333
 30
0.0
 10
159.7853570519669
 20
62.28374062277322
 30
0.0
 10
158.7854243456908
 20
62.86105203991323
 30
0.0
 10
158.2790710188897
 20
63.15339526944692
 30
0.0
 10
158.0259057930179
 20
63.29956028075344
 30
0.0
  0
SPLINE
  5
12F
330
1F
100
AcDbEntity
  8
0
  6
Continuous
 62
     7
370
    25
100
AcDbSpline
210
0.0
220
0.0
230
1.0
 70
    24
 71
     3
 72
    10
 73
     6
 74
     0
 42
0.00000001
 43
0.00000001
 40
0.0
 40
0.0
 40
0.0
 40
0.0
 40
0.2488872038107675
 40
0.4977963221692084
 40
0.9999999999999999
 40
0.9999999999999999
 40
0.9999999999999999
 40
0.9999999999999999
 10
161.0088348597234
 20
58.1329755818456
 30
0.0
 10
161.0088348597234
 20
58.42285015821509
 30
0.0
 10
161.0088348597234
 20
59.00262483444472
 30
0.0
 10
161.0088348597234
 20
60.15737035441082
 30
0.0
 10
161.0088348597234
 20
61.00837363825292
 30
0.0
 10
161.0088348597234
 20
61.57736538111748
 30
0.0
  0
SPLINE
  5
130
330
1F
100
AcDbEntity
  8
0
  6
Continuous
 62
     7
370
    25
100
AcDbSpline
210
0.0
220
0.0
230
1.0
 70
    24
 71
     3
 72
    10
 73
     6
 74
     0
 42
0.00000001
 43
0.00000001
 40
0.0
 40
0.0
 40
0.0
 40
0.0
 40
0.2488872038107673
 40
0.4977963221692084
 40
1.0
 40
1.0
 40
1.0
 40
1.0
 10
158.0259057930179
 20
50.04021590525789
 30
0.0
 10
158.2769445400651
 20
50.18515319344262
 30
0.0
 10
158.7790441381509
 20
50.47504053155744
 30
0.0
 10
159.7790830933478
 20
51.05241329154047
 30
0.0
 10
160.516073555859
 20
51.47791493346153
 30
0.0
 10
161.0088348597234
 20
51.7624108048938
 30
0.0
  0
SPLINE
  5
131
330
1F
100
AcDbEntity
  8
0
  6
Continuous
 62
     7
370
    25
100
AcDbSpline
210
0.0
220
0.0
230
1.0
 70
    24
 71
     3
 72
    10
 73
     6
 74
     0
 42
0.00000001
 43
0.00000001
 40
0.0
 40
0.0
 40
0.0
 40
0.0
 40
0.3273333707077127
 40
0.6629523133412116
 40
1.0
 40
1.0
 40
1.0
 40
1.0
 10
161.0088348597234
 20
51.7624108048938
 30
0.0
 10
161.0088348597234
 20
52.13252559354508
 30
0.0
 10
161.0088348597234
 20
52.88212364035481
 30
0.0
 10
161.0088348597233
 20
54.03133366091107
 30
0.0
 10
161.0088348597234
 20
54.8144238618446
 30
0.0
 10
161.0088348597234
 20
55.20680060416569
 30
0.0
  0
SPLINE
  5
132
330
1F
100
AcDbEntity
  8
0
  6
Continuous
 62
     7
370
    25
100
AcDbSpline
210
0.0
220
0.0
230
1.0
 70
    24
 71
     3
 72
    10
 73
     6
 74
     0
 42
0.00000001
 43
0.00000001
 40
0.0
 40
0.0
 40
0.0
 40
0.0
 40
0.2488872038107676
 40
0.4977963221692085
 40
1.0
 40
1.0
 40
1.0
 40
1.0
 10
149.5259057930179
 20
48.57712841641798
 30
0.0
 10
149.7769445400651
 20
48.43219112823324
 30
0.0
 10
150.2790441381509
 20
48.14230379011842
 30
0.0
 10
151.2790830933478
 20
47.56493103013537
 30
0.0
 10
152.016073555859
 20
47.13942938821431
 30
0.0
 10
152.5088348597233
 20
46.85493351678202
 30
0.0
  0
SPLINE
  5
133
330
1F
100
AcDbEntity
  8
0
  6
Continuous
 62
     7
370
    25
100
AcDbSpline
210
0.0
220
0.0
230
1.0
 70
    24
 71
     3
 72
    10
 73
     6
 74
     0
 42
0.00000001
 43
0.00000001
 40
0.0
 40
0.0
 40
0.0
 40
0.0
 40
0.4979812754252548
 40
0.749001977331267
 40
1.0
 40
1.0
 40
1.0
 40
1.0
 10
152.5088348597233
 20
46.85493351678202
 30
0.0
 10
152.9974292637093
 20
47.13702362744786
 30
0.0
 10
153.7323126674798
 20
47.56130875843773
 30
0.0
 10
154.7322453737558
 20
48.13862017557774
 30
0.0
 10
155.238598700557
 20
48.43096340511143
 30
0.0
 10
155.4917639264287
 20
48.57712841641795
 30
0.0
  0
SPLINE
  5
134
330
1F
100
AcDbEntity
  8
0
  6
Continuous
 62
     7
370
    25
100
AcDbSpline
210
0.0
220
0.0
230
1.0
 70
    24
 71
     3
 72
    10
 73
     6
 74
     0
 42
0.00000001
 43
0.00000001
 40
0.0
 40
0.0
 40
0.0
 40
0.0
 40
0.4979812754252545
 40
0.7490019773312668
 40
0.9999999999999999
 40
0.9999999999999999
 40
0.9999999999999999
 40
0.9999999999999999
 10
152.5088348597233
 20
66.48484266922932
 30
0.0
 10
152.0202404557373
 20
66.20275255856347
 30
0.0
 10
151.2853570519668
 20
65.77846742757359
 30
0.0
 10
150.2854243456907
 20
65.20115601043356
 30
0.0
 10
149.7790710188895
 20
64.90881278089985
 30
0.0
 10
149.5259057930178
 20
64.76264776959334
 30
0.0
  0
SPLINE
  5
135
330
1F
100
AcDbEntity
  8
0
  6
Continuous
 62
     7
370
    25
100
AcDbSpline
210
0.0
220
0.0
230
1.0
 70
    24
 71
     3
 72
    10
 73
     6
 74
     0
 42
0.00000001
 43
0.00000001
 40
0.0
 40
0.0
 40
0.0
 40
0.0
 40
0.2488872038107675
 40
0.4977963221692084
 40
0.9999999999999999
 40
0.9999999999999999
 40
0.9999999999999999
 40
0.9999999999999999
 10
155.4917639264288
 20
64.76264776959339
 30
0.0
 10
155.2407251793816
 20
64.90758505777814
 30
0.0
 10
154.7386255812958
 20
65.19747239589294
 30
0.0
 10
153.7385866260989
 20
65.77484515587601
 30
0.0
 10
153.0015961635876
 20
66.20034679779705
 30
0.0
 10
152.5088348597233
 20
66.48484266922932
 30
0.0
  0
SPLINE
  5
136
330
1F
100
AcDbEntity
  8
0
  6
Continuous
 62
     7
370
    25
100
AcDbSpline
210
0.0
220
0.0
230
1.0
 70
    24
 71
     3
 72
    10
 73
     6
 74
     0
 42
0.00000001
 43
0.00000001
 40
0.0
 40
0.0
 40
0.0
 40
0.0
 40
0.3355445600395947
 40
0.6726666839999054
 40
1.0
 40
1.0
 40
1.0
 40
1.0
 10
144.0088348597233
 20
55.20680060416581
 30
0.0
 10
144.0088348597233
 20
54.81617103786237
 30
0.0
 10
144.0088348597233
 20
54.03307535898546
 30
0.0
 10
144.0088348597233
 20
52.88382338957068
 30
0.0
 10
144.0088348597233
 20
52.13252560780979
 30
0.0
 10
144.0088348597233
 20
51.76241080489394
 30
0.0
  0
SPLINE
  5
137
330
1F
100
AcDbEntity
  8
0
  6
Continuous
 62
     7
370
    25
100
AcDbSpline
210
0.0
220
0.0
230
1.0
 70
    24
 71
     3
 72
    10
 73
     6
 74
     0
 42
0.00000001
 43
0.00000001
 40
0.0
 40
0.0
 40
0.0
 40
0.0
 40
0.4979812754252549
 40
0.749001977331267
 40
0.9999999999999999
 40
0.9999999999999999
 40
0.9999999999999999
 40
0.9999999999999999
 10
144.0088348597233
 20
51.76241080489394
 30
0.0
 10
144.4974292637093
 20
51.48032069422809
 30
0.0
 10
145.2323126674797
 20
51.05603556323819
 30
0.0
 10
146.2322453737558
 20
50.47872414609818
 30
0.0
 10
146.7385987005569
 20
50.18638091656448
 30
0.0
 10
146.9917639264287
 20
50.04021590525797
 30
0.0
  0
SPLINE
  5
138
330
1F
100
AcDbEntity
  8
0
  6
Continuous
 62
     7
370
    25
100
AcDbSpline
210
0.0
220
0.0
230
1.0
 70
    24
 71
     3
 72
    10
 73
     6
 74
     0
 42
0.00000001
 43
0.00000001
 40
0.0
 40
0.0
 40
0.0
 40
0.0
 40
0.2488872038107673
 40
0.4977963221692083
 40
0.9999999999999999
 40
0.9999999999999999
 40
0.9999999999999999
 40
0.9999999999999999
 10
146.9917639264289
 20
63.29956028075359
 30
0.0
 10
146.7407251793817
 20
63.15462299256885
 30
0.0
 10
146.2386255812959
 20
62.86473565445402
 30
0.0
 10
145.238586626099
 20
62.28736289447096
 30
0.0
 10
144.5015961635877
 20
61.8618612525499
 30
0.0
 10
144.0088348597234
 20
61.5773653811176
 30
0.0
  0
SPLINE
  5
139
330
1F
100
AcDbEntity
  8
0
  6
Continuous
 62
     7
370
    25
100
AcDbSpline
210
0.0
220
0.0
230
1.0
 70
    24
 71
     3
 72
    10
 73
     6
 74
     0
 42
0.00000001
 43
0.00000001
 40
0.0
 40
0.0
 40
0.0
 40
0.0
 40
0.4979812754252543
 40
0.7490019773312667
 40
1.0
 40
1.0
 40
1.0
 40
1.0
 10
144.0088348597234
 20
61.57736538111761
 30
0.0
 10
144.0088348597234
 20
61.01318515978592
 30
0.0
 10
144.0088348597234
 20
60.16461489780615
 30
0.0
 10
144.0088348597234
 20
59.00999206352616
 30
0.0
 10
144.0088348597234
 20
58.42530560445876
 30
0.0
 10
144.0088348597234
 20
58.13297558184573
 30
0.0
  0
CIRCLE
  5
13A
330
1F
100
AcDbEntity
  8
0
  6
Continuous
 62
     7
370
    25
100
AcDbCircle
 10
152.5088348597
 20
56.669888093
 30
0.0
 40
4.0
  0
CIRCLE
  5
13B
330
1F
100
AcDbEntity
  8
0
  6
Continuous
 62
     7
370
    25
100
AcDbCircle
 10
152.5088348597
 20
56.669888093
 30
0.0
 40
3.0
  0
LINE
  5
13C
330
1F
100
AcDbEntity
  8
0
  6
Continuous
 62
     7
370
    25
100
AcDbLine
 10
142.2020726324
 20
82.9734968201
 30
0.0
 11
162.815597087
 21
82.9734968201
 31
0.0
  0
LINE
  5
13D
330
1F
100
AcDbEntity
  8
0
  6
Continuous
 62
     7
370
    25
100
AcDbLine
 10
141.8594479364
 20
72.0095065477
 30
0.0
 11
163.158221783
 21
72.0095065477
 31
0.0
  0
LINE
  5
13E
330
1F
100
AcDbEntity
  8
0
  6
Continuous
 62
     7
370
    25
100
AcDbLine
 10
143.7588348597
 20
85.669888093
 30
0.0
 11
161.2588348597
 21
85.669888093
 31
0.0
  0
SPLINE
  5
13F
330
1F
100
AcDbEntity
  8
0
  6
Continuous
 62
     7
370
    25
100
AcDbSpline
210
0.0
220
0.0
230
1.0
 70
     8
 71
     3
 72
    10
 73
     6
 74
     0
 42
0.00000001
 43
0.00000001
 40
0.0
 40
0.0
 40
0.0
 40
0.0
 40
0.5
 40
0.5
 40
1.0
 40
1.0
 40
1.0
 40
1.0
 10
147.8589434065039
 20
63.78514777210547
 30
0.0
 10
147.9215325635016
 20
63.82604563099176
 30
0.0
 10
147.9535291982531
 20
63.88676650126007
 30
0.0
 10
147.9534880547147
 20
64.03894263748415
 30
0.0
 10
147.9215353319107
 20
64.12616637624974
 30
0.0
 10
147.8589434065039
 20
64.20380380387611
 30
0.0
  0
SPLINE
  5
140
330
1F
100
AcDbEntity
  8
0
  6
Continuous
 62
     7
370
    25
100
AcDbSpline
210
0.0
220
0.0
230
1.0
 70
     8
 71
     3
 72
    10
 73
     6
 74
     0
 42
0.00000001
 43
0.00000001
 40
0.0
 40
0.0
 40
0.0
 40
0.0
 40
0.5
 40
0.5
 40
1.0
 40
1.0
 40
1.0
 40
1.0
 10
157.1587263129428
 20
64.20380380387611
 30
0.0
 10
157.0961371469357
 20
64.12616979893853
 30
0.0
 10
157.0641410468448
 20
64.03878498445548
 30
0.0
 10
157.0641811380794
 20
63.8866348907726
 30
0.0
 10
157.0961344458923
 20
63.82604740183116
 30
0.0
 10
157.1587263129428
 20
63.78514777210547
 30
0.0
  0
SPLINE
  5
141
330
1F
100
AcDbEntity
  8
0
  6
Continuous
 62
     7
370
    25
100
AcDbSpline
210
0.0
220
0.0
230
1.0
 70
    24
 71
     3
 72
     8
 73
     4
 74
     0
 42
0.00000001
 43
0.00000001
 40
0.0
 40
0.0
 40
0.0
 40
0.0
 40
1.0
 40
1.0
 40
1.0
 40
1.0
 10
160.5088348597234
 20
65.16988809300568
 30
0.0
 10
160.8388611133382
 20
65.16988809300568
 30
0.0
 10
161.0088348597234
 20
65.16988809300568
 30
0.0
 10
161.0088348597234
 20
65.16988809300568
 30
0.0
  0
LINE
  5
142
330
1F
100
AcDbEntity
  8
0
  6
Continuous
 62
     7
370
    25
100
AcDbLine
 10
157.3306602402
 20
64.669888093
 30
0.0
 11
157.3306602402
 21
65.169888093
 31
0.0
  0
SPLINE
  5
143
330
1F
100
AcDbEntity
  8
0
  6
Continuous
 62
     7
370
    25
100
AcDbSpline
210
0.0
220
0.0
230
1.0
 70
     8
 71
     3
 72
    10
 73
     6
 74
     0
 42
0.00000001
 43
0.00000001
 40
0.0
 40
0.0
 40
0.0
 40
0.0
 40
0.5000000000000023
 40
0.5000000000000023
 40
1.0
 40
1.0
 40
1.0
 40
1.0
 10
157.158839572679
 20
64.20373233036483
 30
0.0
 10
157.209764509739
 20
64.26689451150392
 30
0.0
 10
157.2527274442068
 20
64.33799859698392
 30
0.0
 10
157.3136214193627
 20
64.49623940655232
 30
0.0
 10
157.3306602402199
 20
64.58179237758135
 30
0.0
 10
157.3306602402199
 20
64.66988809300567
 30
0.0
  0
SPLINE
  5
144
330
1F
100
AcDbEntity
  8
0
  6
Continuous
 62
     7
370
    25
100
AcDbSpline
210
0.0
220
0.0
230
1.0
 70
     8
 71
     3
 72
     8
 73
     4
 74
     0
 42
0.00000001
 43
0.00000001
 40
0.0
 40
0.0
 40
0.0
 40
0.0
 40
1.0
 40
1.0
 40
1.0
 40
1.0
 10
147.6870094792269
 20
64.66988809300568
 30
0.0
 10
147.6870094792269
 20
64.49363318530358
 30
0.0
 10
147.7568848081423
 20
64.3301750972343
 30
0.0
 10
147.8588301467675
 20
64.20373233036469
 30
0.0
  0
LINE
  5
145
330
1F
100
AcDbEntity
  8
0
  6
Continuous
 62
     7
370
    25
100
AcDbLine
 10
147.6870094792
 20
65.169888093
 30
0.0
 11
147.6870094792
 21
64.669888093
 31
0.0
  0
SPLINE
  5
146
330
1F
100
AcDbEntity
  8
0
  6
Continuous
 62
     7
370
    25
100
AcDbSpline
210
0.0
220
0.0
230
1.0
 70
    24
 71
     3
 72
     8
 73
     4
 74
     0
 42
0.00000001
 43
0.00000001
 40
0.0
 40
0.0
 40
0.0
 40
0.0
 40
1.0
 40
1.0
 40
1.0
 40
1.0
 10
144.0088348597234
 20
65.16988809300568
 30
0.0
 10
144.0088348597234
 20
65.16988809300568
 30
0.0
 10
144.1788086061085
 20
65.16988809300568
 30
0.0
 10
144.5088348597233
 20
65.16988809300568
 30
0.0
  0
LINE
  5
147
330
1F
100
AcDbEntity
  8
0
  6
Continuous
 62
     7
370
    25
100
AcDbLine
 10
160.5088348597
 20
63.169888093
 30
0.0
 11
161.0088348597
 21
63.169888093
 31
0.0
  0
LINE
  5
148
330
1F
100
AcDbEntity
  8
0
  6
Continuous
 62
     7
370
    25
100
AcDbLine
 10
161.0088348597
 20
61.5985788687
 30
0.0
 11
161.0088348597
 21
63.169888093
 31
0.0
  0
LINE
  5
149
330
1F
100
AcDbEntity
  8
0
  6
Continuous
 62
     7
370
    25
100
AcDbLine
 10
144.0088348597
 20
50.169888093
 30
0.0
 11
144.5088348597
 21
50.169888093
 31
0.0
  0
LINE
  5
14A
330
1F
100
AcDbEntity
  8
0
  6
Continuous
 62
     7
370
    25
100
AcDbLine
 10
144.0088348597
 20
51.7411973173
 30
0.0
 11
144.0088348597
 21
50.169888093
 31
0.0
  0
LINE
  5
14B
330
1F
100
AcDbEntity
  8
0
  6
Continuous
 62
     7
370
    25
100
AcDbLine
 10
160.5088348597
 20
50.169888093
 30
0.0
 11
161.0088348597
 21
50.169888093
 31
0.0
  0
LINE
  5
14C
330
1F
100
AcDbEntity
  8
0
  6
Continuous
 62
     7
370
    25
100
AcDbLine
 10
161.0088348597
 20
50.169888093
 30
0.0
 11
161.0088348597
 21
51.7411973173
 31
0.0
  0
LINE
  5
14D
330
1F
100
AcDbEntity
  8
0
  6
Continuous
 62
     7
370
    25
100
AcDbLine
 10
144.0088348597
 20
63.169888093
 30
0.0
 11
144.5088348597
 21
63.169888093
 31
0.0
  0
LINE
  5
14E
330
1F
100
AcDbEntity
  8
0
  6
Continuous
 62
     7
370
    25
100
AcDbLine
 10
144.0088348597
 20
63.169888093
 30
0.0
 11
144.0088348597
 21
61.5985788687
 31
0.0
  0
LINE
  5
14F
330
1F
100
AcDbEntity
  8
0
  6
Continuous
 62
     7
370
    25
100
AcDbLine
 10
160.5088348597
 20
49.669888093
 30
0.0
 11
160.5088348597
 21
50.169888093
 31
0.0
  0
LINE
  5
150
330
1F
100
AcDbEntity
  8
0
  6
Continuous
 62
     7
370
    25
100
AcDbLine
 10
160.5088348597
 20
49.669888093
 30
0.0
 11
157.4837720453
 21
49.669888093
 31
0.0
  0
ARC
  5
151
330
1F
100
AcDbEntity
  8
0
  6
Continuous
 62
     7
370
    25
100
AcDbCircle
 10
160.5088348597
 20
50.169888093
 30
0.0
 40
0.5
100
AcDbArc
 50
270.0
 51
0.0
  0
ARC
  5
152
330
1F
100
AcDbEntity
  8
0
  6
Continuous
 62
     7
370
    25
100
AcDbCircle
 10
160.5088348597
 20
63.169888093
 30
0.0
 40
0.5
100
AcDbArc
 50
0.0
 51
90.0
  0
LINE
  5
153
330
1F
100
AcDbEntity
  8
0
  6
Continuous
 62
     7
370
    25
100
AcDbLine
 10
160.5088348597
 20
63.669888093
 30
0.0
 11
160.5088348597
 21
63.169888093
 31
0.0
  0
LINE
  5
154
330
1F
100
AcDbEntity
  8
0
  6
Continuous
 62
     7
370
    25
100
AcDbLine
 10
157.3844792067
 20
63.669888093
 30
0.0
 11
160.5088348597
 21
63.669888093
 31
0.0
  0
LINE
  5
155
330
1F
100
AcDbEntity
  8
0
  6
Continuous
 62
     7
370
    25
100
AcDbLine
 10
147.5338976742
 20
49.669888093
 30
0.0
 11
144.5088348597
 21
49.669888093
 31
0.0
  0
LINE
  5
156
330
1F
100
AcDbEntity
  8
0
  6
Continuous
 62
     7
370
    25
100
AcDbLine
 10
144.5088348597
 20
50.169888093
 30
0.0
 11
144.5088348597
 21
49.669888093
 31
0.0
  0
LINE
  5
157
330
1F
100
AcDbEntity
  8
0
  6
Continuous
 62
     7
370
    25
100
AcDbLine
 10
144.5088348597
 20
63.669888093
 30
0.0
 11
144.5088348597
 21
63.169888093
 31
0.0
  0
LINE
  5
158
330
1F
100
AcDbEntity
  8
0
  6
Continuous
 62
     7
370
    25
100
AcDbLine
 10
144.5088348597
 20
63.669888093
 30
0.0
 11
147.6331905127
 21
63.669888093
 31
0.0
  0
ARC
  5
159
330
1F
100
AcDbEntity
  8
0
  6
Continuous
 62
     7
370
    25
100
AcDbCircle
 10
144.5088348597
 20
63.169888093
 30
0.0
 40
0.5
100
AcDbArc
 50
90.0
 51
180.0
  0
ARC
  5
15A
330
1F
100
AcDbEntity
  8
0
  6
Continuous
 62
     7
370
    25
100
AcDbCircle
 10
144.5088348597
 20
50.169888093
 30
0.0
 40
0.5
100
AcDbArc
 50
180.0
 51
270.0
  0
ARC
  5
15B
330
1F
100
AcDbEntity
  8
0
  6
Continuous
 62
     7
370
    25
100
AcDbCircle
 10
157.4837720453
 20
49.169888093
 30
0.0
 40
0.5000000000000133
100
AcDbArc
 50
90.0
 51
123.5573097619
  0
ARC
  5
15C
330
1F
100
AcDbEntity
  8
0
  6
Continuous
 62
     7
370
    25
100
AcDbCircle
 10
147.5338976742
 20
49.169888093
 30
0.0
 40
0.5000000000000027
100
AcDbArc
 50
70.1525889547
 51
90.0
  0
LINE
  5
15D
330
1F
100
AcDbEntity
  8
0
  6
Continuous
 62
     7
370
    25
100
AcDbLine
 10
160.5088348597
 20
64.669888093
 30
0.0
 11
157.3306602402
 21
64.669888093
 31
0.0
  0
LINE
  5
15E
330
1F
100
AcDbEntity
  8
0
  6
Continuous
 62
     7
370
    25
100
AcDbLine
 10
160.5088348597
 20
64.669888093
 30
0.0
 11
160.5088348597
 21
63.669888093
 31
0.0
  0
LINE
  5
15F
330
1F
100
AcDbEntity
  8
0
  6
Continuous
 62
     7
370
    25
100
AcDbLine
 10
147.6870094792
 20
64.669888093
 30
0.0
 11
144.5088348597
 21
64.669888093
 31
0.0
  0
LINE
  5
160
330
1F
100
AcDbEntity
  8
0
  6
Continuous
 62
     7
370
    25
100
AcDbLine
 10
144.5088348597
 20
63.669888093
 30
0.0
 11
144.5088348597
 21
64.669888093
 31
0.0
  0
LINE
  5
161
330
1F
100
AcDbEntity
  8
0
  6
Continuous
 62
     7
370
    25
100
AcDbLine
 10
161.0088348597
 20
64.669888093
 30
0.0
 11
160.5088348597
 21
64.669888093
 31
0.0
  0
LINE
  5
162
330
1F
100
AcDbEntity
  8
0
  6
Continuous
 62
     7
370
    25
100
AcDbLine
 10
161.0088348597
 20
63.169888093
 30
0.0
 11
161.0088348597
 21
64.669888093
 31
0.0
  0
LINE
  5
163
330
1F
100
AcDbEntity
  8
0
  6
Continuous
 62
     7
370
    25
100
AcDbLine
 10
144.0088348597
 20
64.669888093
 30
0.0
 11
144.5088348597
 21
64.669888093
 31
0.0
  0
LINE
  5
164
330
1F
100
AcDbEntity
  8
0
  6
Continuous
 62
     7
370
    25
100
AcDbLine
 10
144.0088348597
 20
64.669888093
 30
0.0
 11
144.0088348597
 21
63.169888093
 31
0.0
  0
LINE
  5
165
330
1F
100
AcDbEntity
  8
0
  6
Continuous
 62
     7
370
    25
100
AcDbLine
 10
160.5088348597
 20
65.169888093
 30
0.0
 11
160.5088348597
 21
64.669888093
 31
0.0
  0
ARC
  5
166
330
1F
100
AcDbEntity
  8
0
  6
Continuous
 62
     7
370
    25
100
AcDbCircle
 10
160.5088348597
 20
64.669888093
 30
0.0
 40
0.5
100
AcDbArc
 50
0.0
 51
90.0
  0
LINE
  5
167
330
1F
100
AcDbEntity
  8
0
  6
Continuous
 62
     7
370
    25
100
AcDbLine
 10
160.5088348597
 20
65.169888093
 30
0.0
 11
157.3306602402
 21
65.169888093
 31
0.0
  0
LINE
  5
168
330
1F
100
AcDbEntity
  8
0
  6
Continuous
 62
     7
370
    25
100
AcDbLine
 10
144.5088348597
 20
64.669888093
 30
0.0
 11
144.5088348597
 21
65.169888093
 31
0.0
  0
LINE
  5
169
330
1F
100
AcDbEntity
  8
0
  6
Continuous
 62
     7
370
    25
100
AcDbLine
 10
147.6870094792
 20
65.169888093
 30
0.0
 11
144.5088348597
 21
65.169888093
 31
0.0
  0
ARC
  5
16A
330
1F
100
AcDbEntity
  8
0
  6
Continuous
 62
     7
370
    25
100
AcDbCircle
 10
144.5088348597
 20
64.669888093
 30
0.0
 40
0.5
100
AcDbArc
 50
90.0
 51
180.0
  0
LINE
  5
16B
330
1F
100
AcDbEntity
  8
0
  6
Continuous
 62
     7
370
    25
100
AcDbLine
 10
154.7449028372
 20
54.669888093
 30
0.0
 11
150.2727668822
 21
54.669888093
 31
0.0
  0
SPLINE
  5
16C
330
1F
100
AcDbEntity
  8
0
  6
Continuous
 62
     7
370
    25
100
AcDbSpline
210
0.0
220
0.0
230
1.0
 70
    24
 71
     3
 72
    10
 73
     6
 74
     0
 42
0.00000001
 43
0.00000001
 40
-0.2904940295525327
 40
-0.2904940295525327
 40
-0.2904940295525327
 40
-0.2904940295525327
 40
-0.130307291676468
 40
-0.130307291676468
 40
0.0010563446871674
 40
0.0010563446871674
 40
0.0010563446871674
 40
0.0010563446871674
 10
144.0088348597234
 20
65.16988809300568
 30
0.0
 10
144.0088348597234
 20
65.04038479102412
 30
0.0
 10
144.0088348597234
 20
64.90859378863802
 30
0.0
 10
144.0088348597234
 20
64.73016985964108
 30
0.0
 10
144.0088348597234
 20
64.66988809300568
 30
0.0
 10
144.0088348597234
 20
64.66988809300568
 30
0.0
  0
SPLINE
  5
16D
330
1F
100
AcDbEntity
  8
0
  6
Continuous
 62
     7
370
    25
100
AcDbSpline
210
0.0
220
0.0
230
1.0
 70
    24
 71
     3
 72
    10
 73
     6
 74
     0
 42
0.00000001
 43
0.00000001
 40
-0.8711658249912583
 40
-0.8711658249912583
 40
-0.8711658249912583
 40
-0.8711658249912583
 40
-0.7398021886276228
 40
-0.7398021886276228
 40
-0.5796154507864709
 40
-0.5796154507864709
 40
-0.5796154507864709
 40
-0.5796154507864709
 10
161.0088348597234
 20
64.66988809300568
 30
0.0
 10
161.0088348597234
 20
64.66988809300568
 30
0.0
 10
161.0088348597234
 20
64.73016985964108
 30
0.0
 10
161.0088348597234
 20
64.90859378861666
 30
0.0
 10
161.0088348597234
 20
65.04038479105236
 30
0.0
 10
161.0088348597234
 20
65.16988809300568
 30
0.0
  0
LINE
  5
16E
330
1F
100
AcDbEntity
  8
0
  6
Continuous
 62
     7
370
    25
100
AcDbLine
 10
152.5088348597
 20
71.4024594804
 30
0.0
 11
162.3838348597
 21
71.4024594804
 31
0.0
  0
LINE
  5
16F
330
1F
100
AcDbEntity
  8
0
  6
Continuous
 62
     7
370
    25
100
AcDbLine
 10
142.6338348597
 20
71.4024594804
 30
0.0
 11
152.5088348597
 21
71.4024594804
 31
0.0
  0
LINE
  5
170
330
1F
100
AcDbEntity
  8
0
  6
Continuous
 62
     7
370
    25
100
AcDbLine
 10
152.5088348597
 20
69.169888093
 30
0.0
 11
161.0088348597
 21
69.169888093
 31
0.0
  0
LINE
  5
171
330
1F
100
AcDbEntity
  8
0
  6
Continuous
 62
     7
370
    25
100
AcDbLine
 10
144.0088348597
 20
69.169888093
 30
0.0
 11
152.5088348597
 21
69.169888093
 31
0.0
  0
SPLINE
  5
172
330
1F
100
AcDbEntity
  8
0
  6
Continuous
 62
     7
370
    25
100
AcDbSpline
210
0.0
220
0.0
230
1.0
 70
     8
 71
     3
 72
    12
 73
     8
 74
     0
 42
0.00000001
 43
0.00000001
 40
0.0
 40
0.0
 40
0.0
 40
0.0
 40
0.2762854709396878
 40
0.5389116722655063
 40
0.7894427107211124
 40
0.9766936742147435
 40
1.0
 40
1.0
 40
1.0
 40
1.0
 10
157.1588395726789
 20
64.20373233036455
 30
0.0
 10
156.9242868806639
 20
64.35631709450456
 30
0.0
 10
156.4667775405661
 20
64.65394298892916
 30
0.0
 10
155.7174173625393
 20
65.01926517132523
 30
0.0
 10
155.0050018175963
 20
65.28027752014069
 30
0.0
 10
154.5170247973302
 20
65.42543027492908
 30
0.0
 10
154.2850318035374
 20
65.46932231733085
 30
0.0
 10
154.2593527861461
 20
65.47418067318782
 30
0.0
  0
SPLINE
  5
173
330
1F
100
AcDbEntity
  8
0
  6
Continuous
 62
     7
370
    25
100
AcDbSpline
210
0.0
220
0.0
230
1.0
 70
     8
 71
     3
 72
    12
 73
     8
 74
     0
 42
0.00000001
 43
0.00000001
 40
0.0
 40
0.0
 40
0.0
 40
0.0
 40
0.0233123233413148
 40
0.2105590973491262
 40
0.4610951676589243
 40
0.7237207997643527
 40
0.9999999999999999
 40
0.9999999999999999
 40
0.9999999999999999
 40
0.9999999999999999
 10
150.7583237873478
 20
65.474184630374
 30
0.0
 10
150.7326381103679
 20
65.46932500832722
 30
0.0
 10
150.5006426596996
 20
65.42543244486868
 30
0.0
 10
150.012658244023
 20
65.28027369206482
 30
0.0
 10
149.3002424557178
 20
65.01925698565141
 30
0.0
 10
148.5508825930208
 20
64.65393615700165
 30
0.0
 10
148.0933780386929
 20
64.35631376988707
 30
0.0
 10
147.8588301467677
 20
64.20373233036455
 30
0.0
  0
LINE
  5
174
330
1F
100
AcDbEntity
  8
0
  6
Continuous
 62
     7
370
    25
100
AcDbLine
 10
160.5088348597
 20
63.169888093
 30
0.0
 11
160.5088348597
 21
61.8660405157
 31
0.0
  0
LINE
  5
175
330
1F
100
AcDbEntity
  8
0
  6
Continuous
 62
     7
370
    25
100
AcDbLine
 10
158.2505046105
 20
63.169888093
 30
0.0
 11
160.5088348597
 21
63.169888093
 31
0.0
  0
LINE
  5
176
330
1F
100
AcDbEntity
  8
0
  6
Continuous
 62
     7
370
    25
100
AcDbLine
 10
144.5088348597
 20
50.169888093
 30
0.0
 11
146.7671651089
 21
50.169888093
 31
0.0
  0
LINE
  5
177
330
1F
100
AcDbEntity
  8
0
  6
Continuous
 62
     7
370
    25
100
AcDbLine
 10
144.5088348597
 20
50.169888093
 30
0.0
 11
144.5088348597
 21
51.4737356703
 31
0.0
  0
LINE
  5
178
330
1F
100
AcDbEntity
  8
0
  6
Continuous
 62
     7
370
    25
100
AcDbLine
 10
160.5088348597
 20
51.4737356703
 30
0.0
 11
160.5088348597
 21
50.169888093
 31
0.0
  0
LINE
  5
179
330
1F
100
AcDbEntity
  8
0
  6
Continuous
 62
     7
370
    25
100
AcDbLine
 10
158.2505046105
 20
50.169888093
 30
0.0
 11
160.5088348597
 21
50.169888093
 31
0.0
  0
LINE
  5
17A
330
1F
100
AcDbEntity
  8
0
  6
Continuous
 62
     7
370
    25
100
AcDbLine
 10
144.5088348597
 20
61.8660405157
 30
0.0
 11
144.5088348597
 21
63.169888093
 31
0.0
  0
LINE
  5
17B
330
1F
100
AcDbEntity
  8
0
  6
Continuous
 62
     7
370
    25
100
AcDbLine
 10
144.5088348597
 20
63.169888093
 30
0.0
 11
146.7671651089
 21
63.169888093
 31
0.0
  0
LINE
  5
17C
330
1F
100
AcDbEntity
  8
0
  6
Continuous
 62
     7
370
    25
100
AcDbLine
 10
157.4837720453
 20
49.669888093
 30
0.0
 11
157.4837720453
 21
49.7241946037
 31
0.0
  0
LINE
  5
17D
330
1F
100
AcDbEntity
  8
0
  6
Continuous
 62
     7
370
    25
100
AcDbLine
 10
147.5338976742
 20
49.7183996562
 30
0.0
 11
147.5338976742
 21
49.669888093
 31
0.0
  0
INSERT
  5
189
330
1F
100
AcDbEntity
  8
FORMAT
100
AcDbBlockReference
  2
SW_CENTERMARKSYMBOL_0
 10
152.5088348597
 20
56.669888093
 30
0.0
  0
LINE
  5
18A
330
1F
100
AcDbEntity
  8
FORMAT
100
AcDbLine
 10
142.7664479364
 20
72.0095065477
 30
0.0
 11
143.160974731
 21
84.6343639743
 31
0.0
  0
LINE
  5
18B
330
1F
100
AcDbEntity
  8
FORMAT
100
AcDbLine
 10
162.251221783
 20
72.0095065477
 30
0.0
 11
161.8566949884
 21
84.6343639743
 31
0.0
  0
LINE
  5
18C
330
1F
100
AcDbEntity
  8
0
  6
Continuous
 62
     7
370
    25
100
AcDbLine
 10
116.4936653641
 20
122.3914819775
 30
0.0
 11
116.3493277968
 21
122.1414819775
 31
0.0
  0
LINE
  5
18D
330
1F
100
AcDbEntity
  8
0
  6
Continuous
 62
     7
370
    25
100
AcDbLine
 10
116.3493277968
 20
105.6414819775
 30
0.0
 11
116.4936653641
 21
105.3914819775
 31
0.0
  0
LINE
  5
18E
330
1F
100
AcDbEntity
  8
0
  6
Continuous
 62
     7
370
    25
100
AcDbLine
 10
129.1493277968
 20
105.6414819775
 30
0.0
 11
129.3493277968
 21
105.8414819775
 31
0.0
  0
LINE
  5
18F
330
1F
100
AcDbEntity
  8
0
  6
Continuous
 62
     7
370
    25
100
AcDbLine
 10
129.3493277968
 20
121.9414819775
 30
0.0
 11
129.1493277968
 21
122.1414819775
 31
0.0
  0
LINE
  5
190
330
1F
100
AcDbEntity
  8
0
  6
Continuous
 62
     7
370
    25
100
AcDbLine
 10
129.1493277968
 20
122.1414819775
 30
0.0
 11
128.2656435912
 21
122.1414819775
 31
0.0
  0
LINE
  5
191
330
1F
100
AcDbEntity
  8
0
  6
Continuous
 62
     7
370
    25
100
AcDbLine
 10
128.2656435912
 20
105.6414819775
 30
0.0
 11
129.1493277968
 21
105.6414819775
 31
0.0
  0
SPLINE
  5
192
330
1F
100
AcDbEntity
  8
0
  6
Continuous
 62
     7
370
    25
100
AcDbSpline
210
0.0
220
0.0
230
1.0
 70
     8
 71
     3
 72
    12
 73
     8
 74
     0
 42
0.00000001
 43
0.00000001
 40
0.0
 40
0.0
 40
0.0
 40
0.0
 40
0.1189376344977332
 40
0.3142192721890963
 40
0.5273530457476103
 40
0.7582418195285282
 40
1.0
 40
1.0
 40
1.0
 40
1.0
 10
127.7065373163366
 20
105.3892440953096
 30
0.0
 10
127.7223710427655
 20
105.4069932984871
 30
0.0
 10
127.7642018897935
 20
105.4538846102904
 30
0.0
 10
127.8532635610369
 20
105.5222295258743
 30
0.0
 10
127.972508867258
 20
105.5865560804142
 30
0.0
 10
128.1126606567589
 20
105.6323013641382
 30
0.0
 10
128.2134850771629
 20
105.6382865415605
 30
0.0
 10
128.2650566110629
 20
105.641347950484
 30
0.0
  0
SPLINE
  5
193
330
1F
100
AcDbEntity
  8
0
  6
Continuous
 62
     7
370
    25
100
AcDbSpline
210
0.0
220
0.0
230
1.0
 70
     8
 71
     3
 72
    13
 73
     9
 74
     0
 42
0.00000001
 43
0.00000001
 40
0.0
 40
0.0
 40
0.0
 40
0.0
 40
0.0889391765572336
 40
0.3091672883182625
 40
0.5135354626786511
 40
0.702844456634065
 40
0.8766211517934257
 40
1.0
 40
1.0
 40
1.0
 40
1.0
 10
128.2653510433418
 20
122.1452685112618
 30
0.0
 10
128.2462131989269
 20
122.1442793701721
 30
0.0
 10
128.1796868863268
 20
122.1408409521393
 30
0.0
 10
128.070289029552
 20
122.1640787335454
 30
0.0
 10
127.9460392978597
 20
122.2085916631508
 30
0.0
 10
127.8410142404256
 20
122.269805403063
 30
0.0
 10
127.759393688499
 20
122.3341364459632
 30
0.0
 10
127.7192287704035
 20
122.3788496616516
 30
0.0
 10
127.7025523144411
 20
122.3974145687327
 30
0.0
  0
LINE
  5
194
330
1F
100
AcDbEntity
  8
0
  6
Continuous
 62
     7
370
    25
100
AcDbLine
 10
108.7826027379
 20
122.3914819775
 30
0.0
 11
104.9041027379
 21
122.3914819775
 31
0.0
  0
LINE
  5
195
330
1F
100
AcDbEntity
  8
0
  6
Continuous
 62
     7
370
    25
100
AcDbLine
 10
104.9041027379
 20
105.3914819775
 30
0.0
 11
108.7826027379
 21
105.3914819775
 31
0.0
  0
LINE
  5
196
330
1F
100
AcDbEntity
  8
0
  6
Continuous
 62
     7
370
    25
100
AcDbLine
 10
108.7826027379
 20
105.3914819775
 30
0.0
 11
110.7041027379
 21
107.3129819775
 31
0.0
  0
LINE
  5
197
330
1F
100
AcDbEntity
  8
0
  6
Continuous
 62
     7
370
    25
100
AcDbLine
 10
110.7041027379
 20
120.4699819775
 30
0.0
 11
108.7826027379
 21
122.3914819775
 31
0.0
  0
LINE
  5
198
330
1F
100
AcDbEntity
  8
0
  6
Continuous
 62
     7
370
    25
100
AcDbLine
 10
116.3493277968
 20
120.4699819775
 30
0.0
 11
110.7041027379
 21
120.4699819775
 31
0.0
  0
LINE
  5
199
330
1F
100
AcDbEntity
  8
0
  6
Continuous
 62
     7
370
    25
100
AcDbLine
 10
110.7041027379
 20
107.3129819775
 30
0.0
 11
116.3493277968
 21
107.3129819775
 31
0.0
  0
SPLINE
  5
19A
330
1F
100
AcDbEntity
  8
0
  6
Continuous
 62
     7
370
    25
100
AcDbSpline
210
0.0
220
0.0
230
1.0
 70
    24
 71
     3
 72
    12
 73
     8
 74
     0
 42
0.00000001
 43
0.00000001
 40
0.0
 40
0.0
 40
0.0
 40
0.0
 40
0.2421168019575173
 40
0.4305558696297067
 40
0.6190147903943068
 40
0.8094978852530131
 40
1.0
 40
1.0
 40
1.0
 40
1.0
 10
116.4969937004884
 20
105.3914819775006
 30
0.0
 10
116.5049654265253
 20
105.3914819775006
 30
0.0
 10
116.5191415324732
 20
105.3914819775006
 30
0.0
 10
116.6387753698601
 20
105.3914819775006
 30
0.0
 10
116.7957152157714
 20
105.3914819775006
 30
0.0
 10
116.9994453100059
 20
105.3914819775006
 30
0.0
 10
117.1683821204818
 20
105.3914819775006
 30
0.0
 10
117.2528547426279
 20
105.3914819775006
 30
0.0
  0
SPLINE
  5
19B
330
1F
100
AcDbEntity
  8
0
  6
Continuous
 62
     7
370
    25
100
AcDbSpline
210
0.0
220
0.0
230
1.0
 70
    24
 71
     3
 72
    12
 73
     8
 74
     0
 42
0.00000001
 43
0.00000001
 40
0.0
 40
0.0
 40
0.0
 40
0.0
 40
0.1885916812683411
 40
0.3771651262423478
 40
0.5675329366424531
 40
0.7578800531053707
 40
1.0
 40
1.0
 40
1.0
 40
1.0
 10
117.2528547426279
 20
122.3914819775006
 30
0.0
 10
117.1691952182129
 20
122.3914819775006
 30
0.0
 10
117.0018842590278
 20
122.3914819775006
 30
0.0
 10
116.7982062890144
 20
122.3914819775006
 30
0.0
 10
116.6398731236529
 20
122.3914819775006
 30
0.0
 10
116.5195691691987
 20
122.3914819775006
 30
0.0
 10
116.5040181204877
 20
122.3914819775006
 30
0.0
 10
116.4953117485877
 20
122.3914819775006
 30
0.0
  0
SPLINE
  5
19C
330
1F
100
AcDbEntity
  8
0
  6
Continuous
 62
     7
370
    25
100
AcDbSpline
210
0.0
220
0.0
230
1.0
 70
     8
 71
     3
 72
    15
 73
    11
 74
     0
 42
0.00000001
 43
0.00000001
 40
0.0
 40
0.0
 40
0.0
 40
0.0
 40
0.1323052378296954
 40
0.2645730682660303
 40
0.399799781974681
 40
0.5350020935366632
 40
0.6501929590834552
 40
0.7654017933211804
 40
0.8826895567076665
 40
1.0
 40
1.0
 40
1.0
 40
1.0
 10
117.2528547426279
 20
113.8914819775006
 30
0.0
 10
117.1372847707879
 20
114.2587157954636
 30
0.0
 10
116.9061775028467
 20
114.9930796013364
 30
0.0
 10
116.6575148712704
 20
116.1239348559318
 30
0.0
 10
116.5080009241168
 20
117.2761069215248
 30
0.0
 10
116.4783906370685
 20
118.3865431341851
 30
0.0
 10
116.5552120397191
 20
119.4369882404368
 30
0.0
 10
116.7126215108401
 20
120.4283499670984
 30
0.0
 10
116.9435238713711
 20
121.4152294589084
 30
0.0
 10
117.1497378069285
 20
122.0660434987059
 30
0.0
 10
117.2528547426279
 20
122.3914819775006
 30
0.0
  0
SPLINE
  5
19D
330
1F
100
AcDbEntity
  8
0
  6
Continuous
 62
     7
370
    25
100
AcDbSpline
210
0.0
220
0.0
230
1.0
 70
     8
 71
     3
 72
    15
 73
    11
 74
     0
 42
0.00000001
 43
0.00000001
 40
0.0
 40
0.0
 40
0.0
 40
0.0
 40
0.1323052378296972
 40
0.2645730682660338
 40
0.3997997819746864
 40
0.5350020935366704
 40
0.6501929590834608
 40
0.7654017933211845
 40
0.8826895567076685
 40
0.9999999999999999
 40
0.9999999999999999
 40
0.9999999999999999
 40
0.9999999999999999
 10
117.2528547426279
 20
105.3914819775006
 30
0.0
 10
117.1372847707879
 20
105.7587157954636
 30
0.0
 10
116.9061775028467
 20
106.4930796013365
 30
0.0
 10
116.6575148712704
 20
107.6239348559319
 30
0.0
 10
116.5080009241169
 20
108.7761069215248
 30
0.0
 10
116.4783906370685
 20
109.8865431341851
 30
0.0
 10
116.5552120397191
 20
110.9369882404368
 30
0.0
 10
116.7126215108402
 20
111.9283499670984
 30
0.0
 10
116.9435238713711
 20
112.9152294589084
 30
0.0
 10
117.1497378069285
 20
113.5660434987059
 30
0.0
 10
117.2528547426279
 20
113.8914819775006
 30
0.0
  0
LINE
  5
19E
330
1F
100
AcDbEntity
  8
0
  6
Continuous
 62
     7
370
    25
100
AcDbLine
 10
116.3493277968
 20
105.6414819775
 30
0.0
 11
116.3493277968
 21
122.1414819775
 31
0.0
  0
SPLINE
  5
19F
330
1F
100
AcDbEntity
  8
0
  6
Continuous
 62
     7
370
    25
100
AcDbSpline
210
0.0
220
0.0
230
1.0
 70
     8
 71
     3
 72
    10
 73
     6
 74
     0
 42
0.00000001
 43
0.00000001
 40
0.0
 40
0.0
 40
0.0
 40
0.0
 40
0.3089808900029886
 40
0.6190948628358312
 40
1.0
 40
1.0
 40
1.0
 40
1.0
 10
127.6328214458295
 20
119.4085529107952
 30
0.0
 10
127.6569684523662
 20
119.1479693960788
 30
0.0
 10
127.7053510164128
 20
118.6258467648085
 30
0.0
 10
127.7128061091294
 20
117.778854454088
 30
0.0
 10
127.6612437613299
 20
117.1958023570816
 30
0.0
 10
127.6328214458295
 20
116.874411044206
 30
0.0
  0
SPLINE
  5
1A0
330
1F
100
AcDbEntity
  8
0
  6
Continuous
 62
     7
370
    25
100
AcDbSpline
210
0.0
220
0.0
230
1.0
 70
     8
 71
     3
 72
    10
 73
     6
 74
     0
 42
0.00000001
 43
0.00000001
 40
0.0
 40
0.0
 40
0.0
 40
0.0
 40
0.2488872038107678
 40
0.4977963221692085
 40
1.0
 40
1.0
 40
1.0
 40
1.0
 10
127.6328214458295
 20
116.874411044206
 30
0.0
 10
127.5994816045788
 20
116.6233722971588
 30
0.0
 10
127.5327989865005
 20
116.121272699073
 30
0.0
 10
127.3255103962523
 20
115.1212337438761
 30
0.0
 10
127.0979503950525
 20
114.3842432813649
 30
0.0
 10
126.9458008509234
 20
113.8914819775006
 30
0.0
  0
LINE
  5
1A1
330
1F
100
AcDbEntity
  8
0
  6
Continuous
 62
     7
370
    25
100
AcDbLine
 10
117.2528547426
 20
113.8914819775
 30
0.0
 11
126.9458008509
 21
113.8914819775
 31
0.0
  0
LINE
  5
1A2
330
1F
100
AcDbEntity
  8
0
  6
Continuous
 62
     7
370
    25
100
AcDbLine
 10
117.2528547426
 20
122.3914819775
 30
0.0
 11
126.9458008509
 21
122.3914819775
 31
0.0
  0
SPLINE
  5
1A3
330
1F
100
AcDbEntity
  8
0
  6
Continuous
 62
     7
370
    25
100
AcDbSpline
210
0.0
220
0.0
230
1.0
 70
     8
 71
     3
 72
    10
 73
     6
 74
     0
 42
0.00000001
 43
0.00000001
 40
0.0
 40
0.0
 40
0.0
 40
0.0
 40
0.4979812754252544
 40
0.7490019773312667
 40
1.0
 40
1.0
 40
1.0
 40
1.0
 10
126.9458008509234
 20
122.3914819775006
 30
0.0
 10
127.0967466682643
 20
121.9028875735146
 30
0.0
 10
127.323780738093
 20
121.1680041697441
 30
0.0
 10
127.5318260284935
 20
120.168071463468
 30
0.0
 10
127.5991573206388
 20
119.6617181366669
 30
0.0
 10
127.6328214458295
 20
119.4085529107952
 30
0.0
  0
LINE
  5
1A4
330
1F
100
AcDbEntity
  8
0
  6
Continuous
 62
     7
370
    25
100
AcDbLine
 10
127.6328214458
 20
110.9085529108
 30
0.0
 11
127.6328214458
 21
116.8744110442
 31
0.0
  0
SPLINE
  5
1A5
330
1F
100
AcDbEntity
  8
0
  6
Continuous
 62
     7
370
    25
100
AcDbSpline
210
0.0
220
0.0
230
1.0
 70
     8
 71
     3
 72
    10
 73
     6
 74
     0
 42
0.00000001
 43
0.00000001
 40
0.0
 40
0.0
 40
0.0
 40
0.0
 40
0.4979812754252547
 40
0.7490019773312672
 40
1.0
 40
1.0
 40
1.0
 40
1.0
 10
126.9458008509234
 20
113.8914819775006
 30
0.0
 10
127.0967466682643
 20
113.4028875735146
 30
0.0
 10
127.323780738093
 20
112.668004169744
 30
0.0
 10
127.5318260284935
 20
111.6680714634679
 30
0.0
 10
127.5991573206388
 20
111.1617181366668
 30
0.0
 10
127.6328214458295
 20
110.908552910795
 30
0.0
  0
SPLINE
  5
1A6
330
1F
100
AcDbEntity
  8
0
  6
Continuous
 62
     7
370
    25
100
AcDbSpline
210
0.0
220
0.0
230
1.0
 70
     8
 71
     3
 72
    10
 73
     6
 74
     0
 42
0.00000001
 43
0.00000001
 40
0.0
 40
0.0
 40
0.0
 40
0.0
 40
0.3089808900030073
 40
0.6190948628358685
 40
1.0
 40
1.0
 40
1.0
 40
1.0
 10
127.6328214458295
 20
110.908552910795
 30
0.0
 10
127.6569684523662
 20
110.6479693960787
 30
0.0
 10
127.7053510164127
 20
110.1258467648084
 30
0.0
 10
127.7128061091294
 20
109.278854454088
 30
0.0
 10
127.6612437613298
 20
108.6958023570817
 30
0.0
 10
127.6328214458295
 20
108.3744110442062
 30
0.0
  0
SPLINE
  5
1A7
330
1F
100
AcDbEntity
  8
0
  6
Continuous
 62
     7
370
    25
100
AcDbSpline
210
0.0
220
0.0
230
1.0
 70
     8
 71
     3
 72
    10
 73
     6
 74
     0
 42
0.00000001
 43
0.00000001
 40
0.0
 40
0.0
 40
0.0
 40
0.0
 40
0.2488872038107675
 40
0.4977963221692082
 40
0.9999999999999999
 40
0.9999999999999999
 40
0.9999999999999999
 40
0.9999999999999999
 10
127.6328214458295
 20
108.3744110442062
 30
0.0
 10
127.5994816045788
 20
108.1233722971589
 30
0.0
 10
127.5327989865005
 20
107.6212726990731
 30
0.0
 10
127.3255103962523
 20
106.6212337438762
 30
0.0
 10
127.0979503950525
 20
105.8842432813649
 30
0.0
 10
126.9458008509234
 20
105.3914819775006
 30
0.0
  0
LINE
  5
1A8
330
1F
100
AcDbEntity
  8
0
  6
Continuous
 62
     7
370
    25
100
AcDbLine
 10
117.2528547426
 20
105.3914819775
 30
0.0
 11
126.9458008509
 21
105.3914819775
 31
0.0
  0
ARC
  5
1A9
330
1F
100
AcDbEntity
  8
0
  6
Continuous
 62
     7
370
    25
100
AcDbCircle
 10
128.2200446343
 20
118.1240205665
 30
0.0
 40
1.380708162956951
100
AcDbArc
 50
244.8299789717
 51
272.5859934179
  0
LINE
  5
1AA
330
1F
100
AcDbEntity
  8
0
  6
Continuous
 62
     7
370
    25
100
AcDbLine
 10
128.2823404987
 20
116.7447184761
 30
0.0
 11
128.2823404987
 21
111.0382454789
 31
0.0
  0
ARC
  5
1AB
330
1F
100
AcDbEntity
  8
0
  6
Continuous
 62
     7
370
    25
100
AcDbCircle
 10
128.2200446343
 20
109.6589433885
 30
0.0
 40
1.380708162956823
100
AcDbArc
 50
87.4140065821
 51
115.1700210283
  0
LINE
  5
1AC
330
1F
100
AcDbEntity
  8
0
  6
Continuous
 62
     7
370
    25
100
AcDbLine
 10
129.3493277968
 20
121.9414819775
 30
0.0
 11
129.3493277968
 21
105.8414819775
 31
0.0
  0
LINE
  5
1AD
330
1F
100
AcDbEntity
  8
0
  6
Continuous
 62
     7
370
    25
100
AcDbLine
 10
129.1493277968
 20
105.6414819775
 30
0.0
 11
129.1493277968
 21
122.1414819775
 31
0.0
  0
LINE
  5
1AE
330
1F
100
AcDbEntity
  8
0
  6
Continuous
 62
     7
370
    25
100
AcDbLine
 10
128.2823404987
 20
108.6142836935
 30
0.0
 11
128.2823404987
 21
105.7610471949
 31
0.0
  0
SPLINE
  5
1AF
330
1F
100
AcDbEntity
  8
0
  6
Continuous
 62
     7
370
    25
100
AcDbSpline
210
0.0
220
0.0
230
1.0
 70
     8
 71
     3
 72
    11
 73
     7
 74
     0
 42
0.00000001
 43
0.00000001
 40
0.0
 40
0.0
 40
0.0
 40
0.0
 40
0.2858113857233217
 40
0.5527245545214238
 40
0.8220275582231135
 40
1.0
 40
1.0
 40
1.0
 40
1.0
 10
128.2823404986678
 20
111.0382454789126
 30
0.0
 10
128.2784001972453
 20
110.789375952202
 30
0.0
 10
128.2707801322051
 20
110.3080924724099
 30
0.0
 10
128.2593190425542
 20
109.6315178446808
 30
0.0
 10
128.2767564317958
 20
109.0714892586645
 30
0.0
 10
128.2807510330551
 20
108.7444240625854
 30
0.0
 10
128.2823404986678
 20
108.6142836934798
 30
0.0
  0
SPLINE
  5
1B0
330
1F
100
AcDbEntity
  8
0
  6
Continuous
 62
     7
370
    25
100
AcDbSpline
210
0.0
220
0.0
230
1.0
 70
     8
 71
     3
 72
    11
 73
     7
 74
     0
 42
0.00000001
 43
0.00000001
 40
0.0
 40
0.0
 40
0.0
 40
0.0
 40
0.2858113857233872
 40
0.5527245545213878
 40
0.8220275582229744
 40
1.0
 40
1.0
 40
1.0
 40
1.0
 10
128.2823404986678
 20
119.1686802615215
 30
0.0
 10
128.2784001972453
 20
118.9579286659935
 30
0.0
 10
128.2707801322051
 20
118.5503606418645
 30
0.0
 10
128.2593190425542
 20
117.8901397803354
 30
0.0
 10
128.2767564317958
 20
117.2910560162288
 30
0.0
 10
128.2807510330551
 20
116.9002296389969
 30
0.0
 10
128.2823404986678
 20
116.7447184760884
 30
0.0
  0
LINE
  5
1B1
330
1F
100
AcDbEntity
  8
0
  6
Continuous
 62
     7
370
    25
100
AcDbLine
 10
128.2823404987
 20
122.0219167601
 30
0.0
 11
128.2823404987
 21
119.1686802615
 31
0.0
  0
ARC
  5
1B2
330
1F
100
AcDbEntity
  8
0
  6
Continuous
 62
     7
370
    25
100
AcDbCircle
 10
128.2405333992
 20
120.054785605
 30
0.0
 40
0.887091040031503
100
AcDbArc
 50
226.7595529446
 51
272.7012537053
  0
ARC
  5
1B3
330
1F
100
AcDbEntity
  8
0
  6
Continuous
 62
     7
370
    25
100
AcDbCircle
 10
128.2405333992
 20
107.72817835
 30
0.0
 40
0.8870910400315758
100
AcDbArc
 50
87.2987462947
 51
133.2404470554
  0
LINE
  5
1B4
330
1F
100
AcDbEntity
  8
0
  6
Continuous
 62
     7
370
    25
100
AcDbLine
 10
127.6328214458
 20
105.3914819775
 30
0.0
 11
127.6328214458
 21
108.3744110442
 31
0.0
  0
ARC
  5
1B5
330
1F
100
AcDbEntity
  8
0
  6
Continuous
 62
     7
370
    25
100
AcDbCircle
 10
128.2803043639
 20
105.0090710793
 30
0.0
 40
0.7519788721912708
100
AcDbArc
 50
89.8448599075
 51
149.433409991
  0
SPLINE
  5
1B6
330
1F
100
AcDbEntity
  8
0
  6
Continuous
 62
     7
370
    25
100
AcDbSpline
210
0.0
220
0.0
230
1.0
 70
    24
 71
     3
 72
    10
 73
     6
 74
     0
 42
0.00000001
 43
0.00000001
 40
0.0
 40
0.0
 40
0.0
 40
0.0
 40
0.4979812754252545
 40
0.7490019773312669
 40
0.9999999999999999
 40
0.9999999999999999
 40
0.9999999999999999
 40
0.9999999999999999
 10
126.9458008509234
 20
105.3914819775006
 30
0.0
 10
127.0967466682643
 20
105.3914819775006
 30
0.0
 10
127.323780738093
 20
105.3914819775006
 30
0.0
 10
127.5318260284935
 20
105.3914819775006
 30
0.0
 10
127.5991573206388
 20
105.3914819775006
 30
0.0
 10
127.6328214458295
 20
105.3914819775006
 30
0.0
  0
LINE
  5
1B7
330
1F
100
AcDbEntity
  8
0
  6
Continuous
 62
     7
370
    25
100
AcDbLine
 10
127.6328214458
 20
119.4085529108
 30
0.0
 11
127.6328214458
 21
122.3914819775
 31
0.0
  0
ARC
  5
1B8
330
1F
100
AcDbEntity
  8
0
  6
Continuous
 62
     7
370
    25
100
AcDbCircle
 10
128.2803043639
 20
122.7738928757
 30
0.0
 40
0.7519788721911785
100
AcDbArc
 50
210.566590009
 51
270.1551400925
  0
SPLINE
  5
1B9
330
1F
100
AcDbEntity
  8
0
  6
Continuous
 62
     7
370
    25
100
AcDbSpline
210
0.0
220
0.0
230
1.0
 70
    24
 71
     3
 72
    10
 73
     6
 74
     0
 42
0.00000001
 43
0.00000001
 40
0.0
 40
0.0
 40
0.0
 40
0.0
 40
0.2488872038107676
 40
0.4977963221692085
 40
1.0
 40
1.0
 40
1.0
 40
1.0
 10
127.6328214458295
 20
122.3914819775006
 30
0.0
 10
127.5994816045788
 20
122.3914819775006
 30
0.0
 10
127.5327989865006
 20
122.3914819775006
 30
0.0
 10
127.3255103962523
 20
122.3914819775006
 30
0.0
 10
127.0979503950525
 20
122.3914819775006
 30
0.0
 10
126.9458008509234
 20
122.3914819775006
 30
0.0
  0
SPLINE
  5
1BA
330
1F
100
AcDbEntity
  8
0
  6
Continuous
 62
     7
370
    25
100
AcDbSpline
210
0.0
220
0.0
230
1.0
 70
    24
 71
     3
 72
     9
 73
     5
 74
     0
 42
0.00000001
 43
0.00000001
 40
0.0
 40
0.0
 40
0.0
 40
0.0
 40
0.1478017380109325
 40
1.0
 40
1.0
 40
1.0
 40
1.0
 10
127.6328214458295
 20
105.3914819775006
 30
0.0
 10
127.6400618537274
 20
105.3914819775006
 30
0.0
 10
127.6890491524921
 20
105.3914819775006
 30
0.0
 10
127.6972276392624
 20
105.3914819775006
 30
0.0
 10
127.7041973314737
 20
105.3914819775006
 30
0.0
  0
SPLINE
  5
1BB
330
1F
100
AcDbEntity
  8
0
  6
Continuous
 62
     7
370
    25
100
AcDbSpline
210
0.0
220
0.0
230
1.0
 70
    24
 71
     3
 72
     9
 73
     5
 74
     0
 42
0.00000001
 43
0.00000001
 40
0.0
 40
0.0
 40
0.0
 40
0.0
 40
0.8303848799381399
 40
1.0
 40
1.0
 40
1.0
 40
1.0
 10
127.6961459591052
 20
122.3914819775006
 30
0.0
 10
127.6902131116435
 20
122.3914819775006
 30
0.0
 10
127.6830684157259
 20
122.3914819775006
 30
0.0
 10
127.6401081555219
 20
122.3914819775006
 30
0.0
 10
127.6328214458295
 20
122.3914819775006
 30
0.0
  0
CIRCLE
  5
1BC
330
1F
100
AcDbEntity
  8
0
  6
Continuous
 62
     7
370
    25
100
AcDbCircle
 10
96.4041027379
 20
113.8914819775
 30
0.0
 40
10.30676222727978
  0
CIRCLE
  5
1BD
330
1F
100
AcDbEntity
  8
0
  6
Continuous
 62
     7
370
    25
100
AcDbCircle
 10
96.4041027379
 20
113.8914819775
 30
0.0
 40
8.75
  0
CIRCLE
  5
1BE
330
1F
100
AcDbEntity
  8
0
  6
Continuous
 62
     7
370
    25
100
AcDbCircle
 10
96.4041027379
 20
113.8914819775
 30
0.0
 40
7.0
  0
CIRCLE
  5
1BF
330
1F
100
AcDbEntity
  8
0
  6
Continuous
 62
     7
370
    25
100
AcDbCircle
 10
96.4041027379
 20
113.8914819775
 30
0.0
 40
6.5
  0
CIRCLE
  5
1C0
330
1F
100
AcDbEntity
  8
0
  6
Continuous
 62
     7
370
    25
100
AcDbCircle
 10
96.4041027379
 20
113.8914819775
 30
0.0
 40
10.64938692329189
  0
LINE
  5
1C1
330
1F
100
AcDbEntity
  8
0
  6
Continuous
 62
     7
370
    25
100
AcDbLine
 10
108.7826027379
 20
105.3914819775
 30
0.0
 11
108.7826027379
 21
122.3914819775
 31
0.0
  0
SPLINE
  5
1C2
330
1F
100
AcDbEntity
  8
0
  6
Continuous
 62
     7
370
    25
100
AcDbSpline
210
0.0
220
0.0
230
1.0
 70
    24
 71
     3
 72
     8
 73
     4
 74
     0
 42
0.00000001
 43
0.00000001
 40
0.0
 40
0.0
 40
0.0
 40
0.0
 40
1.0
 40
1.0
 40
1.0
 40
1.0
 10
104.9041027379397
 20
105.8914819775006
 30
0.0
 10
104.9041027379397
 20
105.5614557238857
 30
0.0
 10
104.9041027379397
 20
105.3914819775006
 30
0.0
 10
104.9041027379397
 20
105.3914819775006
 30
0.0
  0
SPLINE
  5
1C3
330
1F
100
AcDbEntity
  8
0
  6
Continuous
 62
     7
370
    25
100
AcDbSpline
210
0.0
220
0.0
230
1.0
 70
    24
 71
     3
 72
     8
 73
     4
 74
     0
 42
0.00000001
 43
0.00000001
 40
0.0
 40
0.0
 40
0.0
 40
0.0
 40
1.0
 40
1.0
 40
1.0
 40
1.0
 10
104.9041027379397
 20
122.3914819775006
 30
0.0
 10
104.9041027379397
 20
122.3914819775006
 30
0.0
 10
104.9041027379397
 20
122.2215082311154
 30
0.0
 10
104.9041027379397
 20
121.8914819775006
 30
0.0
  0
ARC
  5
1C4
330
1F
100
AcDbEntity
  8
0
  6
Continuous
 62
     7
370
    25
100
AcDbCircle
 10
102.9041027379
 20
105.8914819775
 30
0.0
 40
0.5000000000000097
100
AcDbArc
 50
270.0
 51
357.0025302101
  0
LINE
  5
1C5
330
1F
100
AcDbEntity
  8
0
  6
Continuous
 62
     7
370
    25
100
AcDbLine
 10
102.8196652107
 20
105.3914819775
 30
0.0
 11
102.9041027379
 21
105.3914819775
 31
0.0
  0
LINE
  5
1C6
330
1F
100
AcDbEntity
  8
0
  6
Continuous
 62
     7
370
    25
100
AcDbLine
 10
89.9885402652
 20
122.3914819775
 30
0.0
 11
89.9041027379
 21
122.3914819775
 31
0.0
  0
LINE
  5
1C7
330
1F
100
AcDbEntity
  8
0
  6
Continuous
 62
     7
370
    25
100
AcDbLine
 10
89.9041027379
 20
105.3914819775
 30
0.0
 11
89.9885402652
 21
105.3914819775
 31
0.0
  0
ARC
  5
1C8
330
1F
100
AcDbEntity
  8
0
  6
Continuous
 62
     7
370
    25
100
AcDbCircle
 10
102.9041027379
 20
121.8914819775
 30
0.0
 40
0.5000000000000067
100
AcDbArc
 50
2.9974697899
 51
90.0
  0
LINE
  5
1C9
330
1F
100
AcDbEntity
  8
0
  6
Continuous
 62
     7
370
    25
100
AcDbLine
 10
102.9041027379
 20
122.3914819775
 30
0.0
 11
102.8196652107
 21
122.3914819775
 31
0.0
  0
ARC
  5
1CA
330
1F
100
AcDbEntity
  8
0
  6
Continuous
 62
     7
370
    25
100
AcDbCircle
 10
89.9041027379
 20
121.8914819775
 30
0.0
 40
0.5000000000000067
100
AcDbArc
 50
90.0
 51
177.0025302101
  0
LINE
  5
1CB
330
1F
100
AcDbEntity
  8
0
  6
Continuous
 62
     7
370
    25
100
AcDbLine
 10
110.7041027379
 20
120.4699819775
 30
0.0
 11
110.7041027379
 21
107.3129819775
 31
0.0
  0
ARC
  5
1CC
330
1F
100
AcDbEntity
  8
0
  6
Continuous
 62
     7
370
    25
100
AcDbCircle
 10
89.9041027379
 20
105.8914819775
 30
0.0
 40
0.5
100
AcDbArc
 50
182.9974697899
 51
270.0
  0
LINE
  5
1CD
330
1F
100
AcDbEntity
  8
0
  6
Continuous
 62
     7
370
    25
100
AcDbLine
 10
104.4041027379
 20
122.3914819775
 30
0.0
 11
104.4041027379
 21
121.8914819775
 31
0.0
  0
LINE
  5
1CE
330
1F
100
AcDbEntity
  8
0
  6
Continuous
 62
     7
370
    25
100
AcDbLine
 10
104.4041027379
 20
122.3914819775
 30
0.0
 11
102.9041027379
 21
122.3914819775
 31
0.0
  0
LINE
  5
1CF
330
1F
100
AcDbEntity
  8
0
  6
Continuous
 62
     7
370
    25
100
AcDbLine
 10
104.4041027379
 20
105.3914819775
 30
0.0
 11
104.4041027379
 21
105.8914819775
 31
0.0
  0
LINE
  5
1D0
330
1F
100
AcDbEntity
  8
0
  6
Continuous
 62
     7
370
    25
100
AcDbLine
 10
102.9041027379
 20
105.3914819775
 30
0.0
 11
104.4041027379
 21
105.3914819775
 31
0.0
  0
ARC
  5
1D1
330
1F
100
AcDbEntity
  8
0
  6
Continuous
 62
     7
370
    25
100
AcDbCircle
 10
104.4041027379
 20
121.8914819775
 30
0.0
 40
0.5
100
AcDbArc
 50
0.0
 51
90.0
  0
LINE
  5
1D2
330
1F
100
AcDbEntity
  8
0
  6
Continuous
 62
     7
370
    25
100
AcDbLine
 10
104.4041027379
 20
121.8914819775
 30
0.0
 11
104.9041027379
 21
121.8914819775
 31
0.0
  0
LINE
  5
1D3
330
1F
100
AcDbEntity
  8
0
  6
Continuous
 62
     7
370
    25
100
AcDbLine
 10
104.9041027379
 20
120.3070444503
 30
0.0
 11
104.9041027379
 21
121.8914819775
 31
0.0
  0
LINE
  5
1D4
330
1F
100
AcDbEntity
  8
0
  6
Continuous
 62
     7
370
    25
100
AcDbLine
 10
104.9041027379
 20
105.8914819775
 30
0.0
 11
104.9041027379
 21
107.4759195047
 31
0.0
  0
LINE
  5
1D5
330
1F
100
AcDbEntity
  8
0
  6
Continuous
 62
     7
370
    25
100
AcDbLine
 10
104.4041027379
 20
105.8914819775
 30
0.0
 11
104.9041027379
 21
105.8914819775
 31
0.0
  0
ARC
  5
1D6
330
1F
100
AcDbEntity
  8
0
  6
Continuous
 62
     7
370
    25
100
AcDbCircle
 10
104.4041027379
 20
105.8914819775
 30
0.0
 40
0.5
100
AcDbArc
 50
270.0
 51
0.0
  0
SPLINE
  5
1D7
330
1F
100
AcDbEntity
  8
0
  6
Continuous
 62
     7
370
    25
100
AcDbSpline
210
0.0
220
0.0
230
1.0
 70
     8
 71
     3
 72
    26
 73
    22
 74
     0
 42
0.00000001
 43
0.00000001
 40
0.0
 40
0.0
 40
0.0
 40
0.0
 40
0.125
 40
0.125
 40
0.2499999999999999
 40
0.2499999999999999
 40
0.3749999999999999
 40
0.3749999999999999
 40
0.4374999999999999
 40
0.4374999999999999
 40
0.4999999999999999
 40
0.4999999999999999
 40
0.5624999999999999
 40
0.5624999999999999
 40
0.6249999999999999
 40
0.6249999999999999
 40
0.7499999999999999
 40
0.7499999999999999
 40
0.875
 40
0.875
 40
1.0
 40
1.0
 40
1.0
 40
1.0
 10
102.5073805458066
 20
111.6554140000008
 30
0.0
 10
102.3297912607026
 20
111.765356049201
 30
0.0
 10
102.1624241362445
 20
111.8906826111227
 30
0.0
 10
101.854853009782
 20
112.1844173249753
 30
0.0
 10
101.714626945954
 20
112.3543240275266
 30
0.0
 10
101.4847402051598
 20
112.7344591654027
 30
0.0
 10
101.3926271529507
 20
112.950247631028
 30
0.0
 10
101.3017714851625
 20
113.289844722334
 30
0.0
 10
101.2788014570487
 20
113.4062812577772
 30
0.0
 10
101.2477352746473
 20
113.6460208632064
 30
0.0
 10
101.2399004672986
 20
113.7686915859398
 30
0.0
 10
101.2397471972385
 20
114.0106311726558
 30
0.0
 10
101.2472378697521
 20
114.1311499210968
 30
0.0
 10
101.2778583291982
 20
114.3712700253346
 30
0.0
 10
101.3010813633965
 20
114.4901191384013
 30
0.0
 10
101.3921770007861
 20
114.8318623944608
 30
0.0
 10
101.4840039974869
 20
115.0471434363071
 30
0.0
 10
101.7145469582534
 20
115.4286511312096
 30
0.0
 10
101.8550627701052
 20
115.5987631918832
 30
0.0
 10
102.1624284641479
 20
115.8922692279478
 30
0.0
 10
102.3297563652367
 20
116.0175863027004
 30
0.0
 10
102.5073805458066
 20
116.1275499550003
 30
0.0
  0
SPLINE
  5
1D8
330
1F
100
AcDbEntity
  8
0
  6
Continuous
 62
     7
370
    25
100
AcDbSpline
210
0.0
220
0.0
230
1.0
 70
    24
 71
     3
 72
    10
 73
     6
 74
     0
 42
0.00000001
 43
0.00000001
 40
-0.2904940295525288
 40
-0.2904940295525288
 40
-0.2904940295525288
 40
-0.2904940295525288
 40
-0.1303072746364131
 40
-0.1303072746364131
 40
0.0010563617272233
 40
0.0010563617272233
 40
0.0010563617272233
 40
0.0010563617272233
 10
104.9041027379397
 20
122.3914819775006
 30
0.0
 10
104.7745994221861
 20
122.3914819775006
 30
0.0
 10
104.6428084440002
 20
122.3914819775006
 30
0.0
 10
104.464384504575
 20
122.3914819775006
 30
0.0
 10
104.4041027379397
 20
122.3914819775006
 30
0.0
 10
104.4041027379397
 20
122.3914819775006
 30
0.0
  0
SPLINE
  5
1D9
330
1F
100
AcDbEntity
  8
0
  6
Continuous
 62
     7
370
    25
100
AcDbSpline
210
0.0
220
0.0
230
1.0
 70
    24
 71
     3
 72
    10
 73
     6
 74
     0
 42
0.00000001
 43
0.00000001
 40
-0.8711658421011628
 40
-0.8711658421011628
 40
-0.8711658421011628
 40
-0.8711658421011628
 40
-0.739802205737527
 40
-0.739802205737527
 40
-0.579615450786466
 40
-0.579615450786466
 40
-0.579615450786466
 40
-0.579615450786466
 10
104.4041027379397
 20
105.3914819775006
 30
0.0
 10
104.4041027379397
 20
105.3914819775006
 30
0.0
 10
104.464384504575
 20
105.3914819775006
 30
0.0
 10
104.6428084440216
 20
105.3914819775006
 30
0.0
 10
104.7745994221577
 20
105.3914819775006
 30
0.0
 10
104.9041027379397
 20
105.3914819775006
 30
0.0
  0
SPLINE
  5
1DA
330
1F
100
AcDbEntity
  8
0
  6
Continuous
 62
     7
370
    25
100
AcDbSpline
210
0.0
220
0.0
230
1.0
 70
     8
 71
     3
 72
     9
 73
     5
 74
     0
 42
0.00000001
 43
0.00000001
 40
0.0
 40
0.0
 40
0.0
 40
0.0
 40
0.5716350575939019
 40
1.0
 40
1.0
 40
1.0
 40
1.0
 10
128.2823404986678
 20
105.7610471948919
 30
0.0
 10
128.2778810905824
 20
105.7213287891494
 30
0.0
 10
128.270079945383
 20
105.6518466865128
 30
0.0
 10
128.2669740485496
 20
105.6483805093363
 30
0.0
 10
128.2656435912315
 20
105.6468957205498
 30
0.0
  0
SPLINE
  5
1DB
330
1F
100
AcDbEntity
  8
0
  6
Continuous
 62
     7
370
    25
100
AcDbSpline
210
0.0
220
0.0
230
1.0
 70
     8
 71
     3
 72
    10
 73
     6
 74
     0
 42
0.00000001
 43
0.00000001
 40
0.0
 40
0.0
 40
0.0
 40
0.0
 40
0.1054683351677838
 40
0.6440627664276096
 40
1.0
 40
1.0
 40
1.0
 40
1.0
 10
128.2656435912306
 20
122.1360682344544
 30
0.0
 10
128.2651286489543
 20
122.1377452934917
 30
0.0
 10
128.2619840544516
 20
122.1479865785301
 30
0.0
 10
128.2773626951
 20
122.1087802473464
 30
0.0
 10
128.2809236016675
 20
122.0466418447436
 30
0.0
 10
128.2823404986678
 20
122.0219167601093
 30
0.0
  0
LINE
  5
1DC
330
1F
100
AcDbEntity
  8
0
  6
Continuous
 62
     7
370
    25
100
AcDbLine
 10
89.9041027379
 20
122.3914819775
 30
0.0
 11
89.9041027379
 21
122.3270875777
 31
0.0
  0
LINE
  5
1DD
330
1F
100
AcDbEntity
  8
0
  6
Continuous
 62
     7
370
    25
100
AcDbLine
 10
89.9041027379
 20
105.4558763773
 30
0.0
 11
89.9041027379
 21
105.3914819775
 31
0.0
  0
LINE
  5
1DE
330
1F
100
AcDbEntity
  8
0
  6
Continuous
 62
     7
370
    25
100
AcDbLine
 10
104.4041027379
 20
120.920666983
 30
0.0
 11
104.4041027379
 21
121.8914819775
 31
0.0
  0
LINE
  5
1DF
330
1F
100
AcDbEntity
  8
0
  6
Continuous
 62
     7
370
    25
100
AcDbLine
 10
103.4332877435
 20
121.8914819775
 30
0.0
 11
104.4041027379
 21
121.8914819775
 31
0.0
  0
LINE
  5
1E0
330
1F
100
AcDbEntity
  8
0
  6
Continuous
 62
     7
370
    25
100
AcDbLine
 10
104.4041027379
 20
105.8914819775
 30
0.0
 11
104.4041027379
 21
106.862296972
 31
0.0
  0
LINE
  5
1E1
330
1F
100
AcDbEntity
  8
0
  6
Continuous
 62
     7
370
    25
100
AcDbLine
 10
104.4041027379
 20
105.8914819775
 30
0.0
 11
103.4332877435
 21
105.8914819775
 31
0.0
  0
INSERT
  5
1ED
330
1F
100
AcDbEntity
  8
FORMAT
100
AcDbBlockReference
  2
SW_CENTERMARKSYMBOL_1
 10
96.4041027379
 20
113.8914819775
 30
0.0
  0
ARC
  5
1EE
330
1F
100
AcDbEntity
  8
FORMAT
100
AcDbCircle
 10
96.4041027379
 20
113.8914819775
 30
0.0
 40
9.315500000000005
100
AcDbArc
 50
75.0
 51
345.0
  0
LINE
  5
1EF
330
1F
100
AcDbEntity
  8
FORMAT
100
AcDbLine
 10
120.7601027379
 20
108.1689819775
 30
0.0
 11
110.7041027379
 21
108.1689819775
 31
0.0
  0
LINE
  5
1F0
330
1F
100
AcDbEntity
  8
FORMAT
100
AcDbLine
 10
120.7601027379
 20
119.6139819775
 30
0.0
 11
110.7041027379
 21
119.6139819775
 31
0.0
  0
LINE
  5
1F1
330
1F
100
AcDbEntity
  8
FORMAT
100
AcDbLine
 10
110.7041027379
 20
120.4699819775
 30
0.0
 11
110.7041027379
 21
107.3129819775
 31
0.0
  0
ENDSEC
  0
SECTION
  2
OBJECTS
  0
DICTIONARY
  5
C
330
0
100
AcDbDictionary
281
     1
  3
ACAD_GROUP
350
D
  3
ACAD_LAYOUT
350
1A
  3
ACAD_MLINESTYLE
350
17
  3
ACAD_PLOTSETTINGS
350
19
  3
ACAD_PLOTSTYLENAME
350
E
  3
ACAD_SCALELIST
350
47
  3
DWGPROPS
350
1F2
  0
DICTIONARY
  5
D
102
{ACAD_REACTORS
330
C
102
}
330
C
100
AcDbDictionary
281
     1
  0
DICTIONARY
  5
1A
102
{ACAD_REACTORS
330
C
102
}
330
C
100
AcDbDictionary
281
     1
  3
Layout1
350
1E
  3
Layout2
350
26
  3
Model
350
22
  0
DICTIONARY
  5
17
102
{ACAD_REACTORS
330
C
102
}
330
C
100
AcDbDictionary
281
     1
  3
Standard
350
18
  0
DICTIONARY
  5
19
102
{ACAD_REACTORS
330
C
102
}
330
C
100
AcDbDictionary
281
     1
  0
ACDBDICTIONARYWDFLT
  5
E
102
{ACAD_REACTORS
330
C
102
}
330
C
100
AcDbDictionary
281
     1
  3
Normal
350
F
100
AcDbDictionaryWithDefault
340
F
  0
DICTIONARY
  5
47
102
{ACAD_REACTORS
330
C
102
}
330
C
100
AcDbDictionary
281
     1
  3
A0
350
48
  3
A1
350
49
  3
A2
350
4A
  3
A3
350
4B
  3
A4
350
4C
  3
A5
350
4D
  3
A6
350
4E
  3
A7
350
4F
  3
A8
350
50
  3
A9
350
51
  3
B0
350
52
  3
B1
350
53
  3
B2
350
54
  3
B3
350
55
  3
B4
350
56
  3
B5
350
57
  3
B6
350
58
  0
XRECORD
  5
1F2
102
{ACAD_REACTORS
330
C
102
}
330
C
100
AcDbXrecord
280
     1
  1
DWGPROPS COOKIE
  2

  3

  4

  6

  7

  8
user28
  9

300
=
301
=
302
=
303
=
304
=
305
=
306
=
307
=
308
=
309
=
 40
0.0
 41
2460376.176486887
 42
2460376.176487731
  1

 90
        0
  0
LAYOUT
  5
1E
102
{ACAD_REACTORS
330
1A
102
}
330
1A
100
AcDbPlotSettings
  1

  2
none_device
  4

  6

 40
0.0
 41
0.0
 42
0.0
 43
0.0
 44
0.0
 45
0.0
 46
0.0
 47
0.0
 48
0.0
 49
0.0
140
0.0
141
0.0
142
1.0
143
1.0
 70
   688
 72
     1
 73
     0
 74
     5
  7

 75
    16
147
1.0
148
0.0
149
0.0
100
AcDbLayout
  1
Layout1
 70
     1
 71
     1
 10
0.0
 20
0.0
 11
420.0
 21
297.0
 12
0.0
 22
0.0
 32
0.0
 14
1.0000000000E+20
 24
1.0000000000E+20
 34
1.0000000000E+20
 15
-1.0000000000E+20
 25
-1.0000000000E+20
 35
-1.0000000000E+20
146
0.0
 13
0.0
 23
0.0
 33
0.0
 16
1.0
 26
0.0
 36
0.0
 17
0.0
 27
1.0
 37
0.0
 76
     0
330
1B
  0
LAYOUT
  5
26
102
{ACAD_REACTORS
330
1A
102
}
330
1A
100
AcDbPlotSettings
  1

  2
none_device
  4

  6

 40
0.0
 41
0.0
 42
0.0
 43
0.0
 44
0.0
 45
0.0
 46
0.0
 47
0.0
 48
0.0
 49
0.0
140
0.0
141
0.0
142
1.0
143
1.0
 70
   688
 72
     1
 73
     0
 74
     5
  7

 75
    16
147
1.0
148
0.0
149
0.0
100
AcDbLayout
  1
Layout2
 70
     1
 71
     2
 10
0.0
 20
0.0
 11
0.0
 21
0.0
 12
0.0
 22
0.0
 32
0.0
 14
0.0
 24
0.0
 34
0.0
 15
0.0
 25
0.0
 35
0.0
146
0.0
 13
0.0
 23
0.0
 33
0.0
 16
1.0
 26
0.0
 36
0.0
 17
0.0
 27
1.0
 37
0.0
 76
     0
330
23
  0
LAYOUT
  5
22
102
{ACAD_REACTORS
330
1A
102
}
330
1A
100
AcDbPlotSettings
  1

  2
none_device
  4
Letter_(8.50_x_11.00_Inches)
  6

 40
6.35
 41
6.35
 42
6.35000508
 43
6.35000508
 44
215.9
 45
279.4
 46
0.0
 47
0.0
 48
0.0
 49
0.0
140
0.0
141
0.0
142
1.0
143
1.0
 70
  1712
 72
     1
 73
     0
 74
     0
  7

 75
     0
147
1.0
148
0.0
149
0.0
100
AcDbLayout
  1
Model
 70
     1
 71
     0
 10
0.0
 20
0.0
 11
297.0
 21
210.0
 12
0.0
 22
0.0
 32
0.0
 14
0.0
 24
0.0
 34
0.0
 15
297.0
 25
210.0
 35
0.0
146
0.0
 13
0.0
 23
0.0
 33
0.0
 16
1.0
 26
0.0
 36
0.0
 17
0.0
 27
1.0
 37
0.0
 76
     0
330
1F
331
29
  0
MLINESTYLE
  5
18
102
{ACAD_REACTORS
330
17
102
}
330
17
100
AcDbMlineStyle
  2
Standard
 70
     0
  3

 62
   256
 51
90.0
 52
90.0
 71
     2
 49
0.5
 62
   256
  6
BYLAYER
 49
-0.5
 62
   256
  6
BYLAYER
  0
ACDBPLACEHOLDER
  5
F
102
{ACAD_REACTORS
330
E
102
}
330
E
  0
SCALE
  5
48
102
{ACAD_REACTORS
330
47
102
}
330
47
100
AcDbScale
 70
     0
300
1:1
140
1.0
141
1.0
290
     1
  0
SCALE
  5
49
102
{ACAD_REACTORS
330
47
102
}
330
47
100
AcDbScale
 70
     0
300
1:2
140
1.0
141
2.0
290
     0
  0
SCALE
  5
4A
102
{ACAD_REACTORS
330
47
102
}
330
47
100
AcDbScale
 70
     0
300
1:4
140
1.0
141
4.0
290
     0
  0
SCALE
  5
4B
102
{ACAD_REACTORS
330
47
102
}
330
47
100
AcDbScale
 70
     0
300
1:5
140
1.0
141
5.0
290
     0
  0
SCALE
  5
4C
102
{ACAD_REACTORS
330
47
102
}
330
47
100
AcDbScale
 70
     0
300
1:8
140
1.0
141
8.0
290
     0
  0
SCALE
  5
4D
102
{ACAD_REACTORS
330
47
102
}
330
47
100
AcDbScale
 70
     0
300
1:10
140
1.0
141
10.0
290
     0
  0
SCALE
  5
4E
102
{ACAD_REACTORS
330
47
102
}
330
47
100
AcDbScale
 70
     0
300
1:16
140
1.0
141
16.0
290
     0
  0
SCALE
  5
4F
102
{ACAD_REACTORS
330
47
102
}
330
47
100
AcDbScale
 70
     0
300
1:20
140
1.0
141
20.0
290
     0
  0
SCALE
  5
50
102
{ACAD_REACTORS
330
47
102
}
330
47
100
AcDbScale
 70
     0
300
1:30
140
1.0
141
30.0
290
     0
  0
SCALE
  5
51
102
{ACAD_REACTORS
330
47
102
}
330
47
100
AcDbScale
 70
     0
300
1:40
140
1.0
141
40.0
290
     0
  0
SCALE
  5
52
102
{ACAD_REACTORS
330
47
102
}
330
47
100
AcDbScale
 70
     0
300
1:50
140
1.0
141
50.0
290
     0
  0
SCALE
  5
53
102
{ACAD_REACTORS
330
47
102
}
330
47
100
AcDbScale
 70
     0
300
1:100
140
1.0
141
100.0
290
     0
  0
SCALE
  5
54
102
{ACAD_REACTORS
330
47
102
}
330
47
100
AcDbScale
 70
     0
300
2:1
140
2.0
141
1.0
290
     0
  0
SCALE
  5
55
102
{ACAD_REACTORS
330
47
102
}
330
47
100
AcDbScale
 70
     0
300
4:1
140
4.0
141
1.0
290
     0
  0
SCALE
  5
56
102
{ACAD_REACTORS
330
47
102
}
330
47
100
AcDbScale
 70
     0
300
8:1
140
8.0
141
1.0
290
     0
  0
SCALE
  5
57
102
{ACAD_REACTORS
330
47
102
}
330
47
100
AcDbScale
 70
     0
300
10:1
140
10.0
141
1.0
290
     0
  0
SCALE
  5
58
102
{ACAD_REACTORS
330
47
102
}
330
47
100
AcDbScale
 70
     0
300
100:1
140
100.0
141
1.0
290
     0
  0
ENDSEC
  0
EOF
