  0
SECTION
  2
HEADER
  9
$ACADVER
  1
AC1015
  9
$ACADMAINTVER
 70
     6
  9
$DWGCODEPAGE
  3
DOS932
  9
$INSBASE
 10
0.0
 20
0.0
 30
0.0
  9
$EXTMIN
 10
0.0
 20
0.0
 30
0.0
  9
$EXTMAX
 10
297.0
 20
210.0
 30
0.0
  9
$LIMMIN
 10
0.0
 20
0.0
  9
$LIMMAX
 10
297.0
 20
210.0
  9
$ORTHOMODE
 70
     0
  9
$REGENMODE
 70
     1
  9
$FILLMODE
 70
     1
  9
$QTEXTMODE
 70
     0
  9
$MIRRTEXT
 70
     1
  9
$LTSCALE
 40
1.0
  9
$ATTMODE
 70
     1
  9
$TEXTSIZE
 40
3.5277777778
  9
$TRACEWID
 40
1.0
  9
$TEXTSTYLE
  7
Standard
  9
$CLAYER
  8
0
  9
$CELTYPE
  6
ByLayer
  9
$CECOLOR
 62
   256
  9
$CELTSCALE
 40
1.0
  9
$DISPSILH
 70
     0
  9
$DIMSCALE
 40
1.0
  9
$DIMASZ
 40
2.728515625
  9
$DIMEXO
 40
1.0
  9
$DIMDLI
 40
3.75
  9
$DIMRND
 40
0.0
  9
$DIMDLE
 40
0.0
  9
$DIMEXE
 40
1.0
  9
$DIMTP
 40
0.0
  9
$DIMTM
 40
0.0
  9
$DIMTXT
 40
3.5277777778
  9
$DIMCEN
 40
2.5
  9
$DIMTSZ
 40
0.0
  9
$DIMTOL
 70
     0
  9
$DIMLIM
 70
     0
  9
$DIMTIH
 70
     1
  9
$DIMTOH
 70
     1
  9
$DIMSE1
 70
     0
  9
$DIMSE2
 70
     0
  9
$DIMTAD
 70
     1
  9
$DIMZIN
 70
     0
  9
$DIMBLK
  1

  9
$DIMASO
 70
     1
  9
$DIMSHO
 70
     1
  9
$DIMPOST
  1

  9
$DIMAPOST
  1

  9
$DIMALT
 70
     0
  9
$DIMALTD
 70
     3
  9
$DIMALTF
 40
0.0393700787
  9
$DIMLFAC
 40
1.0
  9
$DIMTOFL
 70
     1
  9
$DIMTVP
 40
0.0
  9
$DIMTIX
 70
     0
  9
$DIMSOXD
 70
     0
  9
$DIMSAH
 70
     0
  9
$DIMBLK1
  1

  9
$DIMBLK2
  1

  9
$DIMSTYLE
  2
ISO-25
  9
$DIMCLRD
 70
     0
  9
$DIMCLRE
 70
     0
  9
$DIMCLRT
 70
     0
  9
$DIMTFAC
 40
1.0
  9
$DIMGAP
 40
1.524
  9
$DIMJUST
 70
     0
  9
$DIMSD1
 70
     0
  9
$DIMSD2
 70
     0
  9
$DIMTOLJ
 70
     0
  9
$DIMTZIN
 70
     0
  9
$DIMALTZ
 70
     0
  9
$DIMALTTZ
 70
     0
  9
$DIMUPT
 70
     0
  9
$DIMDEC
 70
     2
  9
$DIMTDEC
 70
     2
  9
$DIMALTU
 70
     2
  9
$DIMALTTD
 70
     3
  9
$DIMTXSTY
  7
Standard
  9
$DIMAUNIT
 70
     0
  9
$DIMADEC
 70
     2
  9
$DIMALTRND
 40
0.0
  9
$DIMAZIN
 70
     0
  9
$DIMDSEP
 70
    44
  9
$DIMATFIT
 70
     3
  9
$DIMFRAC
 70
     0
  9
$DIMLDRBLK
  1

  9
$DIMLUNIT
 70
     2
  9
$DIMLWD
 70
    -2
  9
$DIMLWE
 70
    -2
  9
$DIMTMOVE
 70
     0
  9
$LUNITS
 70
     2
  9
$LUPREC
 70
     2
  9
$SKETCHINC
 40
1.0
  9
$FILLETRAD
 40
0.0
  9
$AUNITS
 70
     0
  9
$AUPREC
 70
     2
  9
$MENU
  1
.
  9
$ELEVATION
 40
0.0
  9
$PELEVATION
 40
0.0
  9
$THICKNESS
 40
0.0
  9
$LIMCHECK
 70
     0
  9
$CHAMFERA
 40
0.0
  9
$CHAMFERB
 40
0.0
  9
$CHAMFERC
 40
0.0
  9
$CHAMFERD
 40
0.0
  9
$SKPOLY
 70
     0
  9
$TDCREATE
 40
2460376.550159305
  9
$TDUCREATE
 40
2460376.175159305
  9
$TDUPDATE
 40
2460376.550160174
  9
$TDUUPDATE
 40
2460376.175160174
  9
$TDINDWG
 40
0.0000000116
  9
$TDUSRTIMER
 40
0.0000000116
  9
$USRTIMER
 70
     1
  9
$ANGBASE
 50
0.0
  9
$ANGDIR
 70
     0
  9
$PDMODE
 70
     0
  9
$PDSIZE
 40
-1.0
  9
$PLINEWID
 40
0.0
  9
$SPLFRAME
 70
     0
  9
$SPLINETYPE
 70
     6
  9
$SPLINESEGS
 70
     8
  9
$HANDSEED
  5
1FB
  9
$SURFTAB1
 70
     6
  9
$SURFTAB2
 70
     6
  9
$SURFTYPE
 70
     6
  9
$SURFU
 70
     6
  9
$SURFV
 70
     6
  9
$UCSBASE
  2

  9
$UCSNAME
  2

  9
$UCSORG
 10
0.0
 20
0.0
 30
0.0
  9
$UCSXDIR
 10
1.0
 20
0.0
 30
0.0
  9
$UCSYDIR
 10
0.0
 20
1.0
 30
0.0
  9
$UCSORTHOREF
  2

  9
$UCSORTHOVIEW
 70
     0
  9
$UCSORGTOP
 10
0.0
 20
0.0
 30
0.0
  9
$UCSORGBOTTOM
 10
0.0
 20
0.0
 30
0.0
  9
$UCSORGLEFT
 10
0.0
 20
0.0
 30
0.0
  9
$UCSORGRIGHT
 10
0.0
 20
0.0
 30
0.0
  9
$UCSORGFRONT
 10
0.0
 20
0.0
 30
0.0
  9
$UCSORGBACK
 10
0.0
 20
0.0
 30
0.0
  9
$PUCSBASE
  2

  9
$PUCSNAME
  2

  9
$PUCSORG
 10
0.0
 20
0.0
 30
0.0
  9
$PUCSXDIR
 10
1.0
 20
0.0
 30
0.0
  9
$PUCSYDIR
 10
0.0
 20
1.0
 30
0.0
  9
$PUCSORTHOREF
  2

  9
$PUCSORTHOVIEW
 70
     0
  9
$PUCSORGTOP
 10
0.0
 20
0.0
 30
0.0
  9
$PUCSORGBOTTOM
 10
0.0
 20
0.0
 30
0.0
  9
$PUCSORGLEFT
 10
0.0
 20
0.0
 30
0.0
  9
$PUCSORGRIGHT
 10
0.0
 20
0.0
 30
0.0
  9
$PUCSORGFRONT
 10
0.0
 20
0.0
 30
0.0
  9
$PUCSORGBACK
 10
0.0
 20
0.0
 30
0.0
  9
$USERI1
 70
     0
  9
$USERI2
 70
     0
  9
$USERI3
 70
     0
  9
$USERI4
 70
     0
  9
$USERI5
 70
     0
  9
$USERR1
 40
0.0
  9
$USERR2
 40
0.0
  9
$USERR3
 40
0.0
  9
$USERR4
 40
0.0
  9
$USERR5
 40
0.0
  9
$WORLDVIEW
 70
     1
  9
$SHADEDGE
 70
     3
  9
$SHADEDIF
 70
    70
  9
$TILEMODE
 70
     1
  9
$MAXACTVP
 70
    64
  9
$PINSBASE
 10
0.0
 20
0.0
 30
0.0
  9
$PLIMCHECK
 70
     0
  9
$PEXTMIN
 10
1.0000000000E+20
 20
1.0000000000E+20
 30
1.0000000000E+20
  9
$PEXTMAX
 10
-1.0000000000E+20
 20
-1.0000000000E+20
 30
-1.0000000000E+20
  9
$PLIMMIN
 10
0.0
 20
0.0
  9
$PLIMMAX
 10
420.0
 20
297.0
  9
$UNITMODE
 70
     0
  9
$VISRETAIN
 70
     1
  9
$PLINEGEN
 70
     0
  9
$PSLTSCALE
 70
     1
  9
$TREEDEPTH
 70
  3020
  9
$CMLSTYLE
  2
Standard
  9
$CMLJUST
 70
     0
  9
$CMLSCALE
 40
20.0
  9
$PROXYGRAPHICS
 70
     1
  9
$MEASUREMENT
 70
     1
  9
$CELWEIGHT
370
    -1
  9
$ENDCAPS
280
     0
  9
$JOINSTYLE
280
     0
  9
$LWDISPLAY
290
     1
  9
$INSUNITS
 70
     4
  9
$HYPERLINKBASE
  1

  9
$STYLESHEET
  1

  9
$XEDIT
290
     1
  9
$CEPSNTYPE
380
     0
  9
$PSTYLEMODE
290
     1
  9
$FINGERPRINTGUID
  2
{39821094-0541-40fb-b715-c4402f8e3add}
  9
$VERSIONGUID
  2
{FAEB1C32-E019-11D5-929B-00C0DF256EC4}
  9
$EXTNAMES
290
     1
  9
$PSVPSCALE
 40
0.0
  9
$OLESTARTUP
290
     0
  0
ENDSEC
  0
SECTION
  2
CLASSES
  0
CLASS
  1
ACDBDICTIONARYWDFLT
  2
AcDbDictionaryWithDefault
  3
ObjectDBX Classes
 90
        0
280
     0
281
     0
  0
CLASS
  1
VISUALSTYLE
  2
AcDbVisualStyle
  3
ObjectDBX Classes
 90
     4095
280
     0
281
     0
  0
CLASS
  1
MATERIAL
  2
AcDbMaterial
  3
ObjectDBX Classes
 90
     1153
280
     0
281
     0
  0
CLASS
  1
SCALE
  2
AcDbScale
  3
ObjectDBX Classes
 90
     1153
280
     0
281
     0
  0
CLASS
  1
TABLESTYLE
  2
AcDbTableStyle
  3
ObjectDBX Classes
 90
     4095
280
     0
281
     0
  0
CLASS
  1
MLEADERSTYLE
  2
AcDbMLeaderStyle
  3
ACDB_MLEADERSTYLE_CLASS
 90
     4095
280
     0
281
     0
  0
CLASS
  1
SUN
  2
AcDbSun
  3
SCENEOE
 90
     1153
280
     0
281
     0
  0
CLASS
  1
ACDBPLACEHOLDER
  2
AcDbPlaceHolder
  3
ObjectDBX Classes
 90
        0
280
     0
281
     0
  0
CLASS
  1
LAYOUT
  2
AcDbLayout
  3
ObjectDBX Classes
 90
        0
280
     0
281
     0
  0
ENDSEC
  0
SECTION
  2
TABLES
  0
TABLE
  2
VPORT
  5
8
330
0
100
AcDbSymbolTable
 70
     1
  0
VPORT
  5
29
330
8
100
AcDbSymbolTableRecord
100
AcDbViewportTableRecord
  2
*Active
 70
     0
 10
0.0
 20
0.0
 11
1.0
 21
1.0
 12
148.5
 22
105.0
 13
0.0
 23
0.0
 14
10.0
 24
10.0
 15
10.0
 25
10.0
 16
0.0
 26
0.0
 36
1.0
 17
0.0
 27
0.0
 37
0.0
 40
210.0
 41
1.4142857143
 42
50.0
 43
0.0
 44
0.0
 50
0.0
 51
0.0
 71
     0
 72
  2000
 73
     1
 74
     3
 75
     0
 76
     0
 77
     0
 78
     0
281
     0
 65
     1
110
0.0
120
0.0
130
0.0
111
1.0
121
0.0
131
0.0
112
0.0
122
1.0
132
0.0
 79
     0
146
0.0
  0
ENDTAB
  0
TABLE
  2
LTYPE
  5
5
330
0
100
AcDbSymbolTable
 70
     6
  0
LTYPE
  5
14
330
5
100
AcDbSymbolTableRecord
100
AcDbLinetypeTableRecord
  2
ByBlock
 70
     0
  3

 72
    65
 73
     0
 40
0.0
  0
LTYPE
  5
15
330
5
100
AcDbSymbolTableRecord
100
AcDbLinetypeTableRecord
  2
ByLayer
 70
     0
  3

 72
    65
 73
     0
 40
0.0
  0
LTYPE
  5
16
330
5
100
AcDbSymbolTableRecord
100
AcDbLinetypeTableRecord
  2
Continuous
 70
     0
  3
Solid line
 72
    65
 73
     0
 40
0.0
  0
LTYPE
  5
5E
330
5
100
AcDbSymbolTableRecord
100
AcDbLinetypeTableRecord
  2
HIDDEN
 70
     0
  3
Hidden __ __ __ __ __ __ __ __ __ __ __ __ __ __
 72
    65
 73
     2
 40
1.905
 49
1.27
 74
     0
 49
-0.635
 74
     0
  0
LTYPE
  5
5F
330
5
100
AcDbSymbolTableRecord
100
AcDbLinetypeTableRecord
  2
PHANTOM
 70
     0
  3
Phantom ______  __  __  ______  __  __  ______
 72
    65
 73
     6
 40
12.7
 49
6.35
 74
     0
 49
-1.27
 74
     0
 49
1.27
 74
     0
 49
-1.27
 74
     0
 49
1.27
 74
     0
 49
-1.27
 74
     0
  0
LTYPE
  5
60
330
5
100
AcDbSymbolTableRecord
100
AcDbLinetypeTableRecord
  2
CENTER
 70
     0
  3
Center ____ _ ____ _ ____ _ ____ _ ____ _ ____
 72
    65
 73
     4
 40
10.16
 49
6.35
 74
     0
 49
-1.27
 74
     0
 49
1.27
 74
     0
 49
-1.27
 74
     0
  0
LTYPE
  5
61
330
5
100
AcDbSymbolTableRecord
100
AcDbLinetypeTableRecord
  2
CENTERX2
 70
     0
  3
Center (2x) ________  __  ________  __  _____
 72
    65
 73
     4
 40
20.32
 49
12.7
 74
     0
 49
-2.54
 74
     0
 49
2.54
 74
     0
 49
-2.54
 74
     0
  0
LTYPE
  5
62
330
5
100
AcDbSymbolTableRecord
100
AcDbLinetypeTableRecord
  2
DOT2
 70
     0
  3
Dot (.5x) ........................................
 72
    65
 73
     2
 40
0.635
 49
0.0
 74
     0
 49
-0.635
 74
     0
  0
ENDTAB
  0
TABLE
  2
LAYER
  5
2
330
0
100
AcDbSymbolTable
 70
     2
  0
LAYER
  5
10
330
2
100
AcDbSymbolTableRecord
100
AcDbLayerTableRecord
  2
0
 70
     0
 62
     7
  6
Continuous
370
    -3
390
F
  0
LAYER
  5
63
330
2
100
AcDbSymbolTableRecord
100
AcDbLayerTableRecord
  2
FORMAT
 70
     0
 62
     7
  6
Continuous
370
    -3
390
F
  0
ENDTAB
  0
TABLE
  2
STYLE
  5
3
330
0
100
AcDbSymbolTable
 70
     2
  0
STYLE
  5
11
330
3
100
AcDbSymbolTableRecord
100
AcDbTextStyleTableRecord
  2
Standard
 70
     0
 40
0.0
 41
1.0
 50
0.0
 71
     0
 42
3.5277777778
  3
txt
  4
bigfont
  0
STYLE
  5
64
330
3
100
AcDbSymbolTableRecord
100
AcDbTextStyleTableRecord
  2
SLDTEXTSTYLE0
 70
     0
 40
0.0
 41
0.7
 50
0.0
 71
     0
 42
3.5277777778
  3
TXT
  4
bigfont
  0
ENDTAB
  0
TABLE
  2
VIEW
  5
6
330
0
100
AcDbSymbolTable
 70
     0
  0
ENDTAB
  0
TABLE
  2
UCS
  5
7
330
0
100
AcDbSymbolTable
 70
     0
  0
ENDTAB
  0
TABLE
  2
APPID
  5
9
330
0
100
AcDbSymbolTable
 70
     1
  0
APPID
  5
12
330
9
100
AcDbSymbolTableRecord
100
AcDbRegAppTableRecord
  2
ACAD
 70
     0
  0
ENDTAB
  0
TABLE
  2
DIMSTYLE
  5
A
330
0
100
AcDbSymbolTable
 70
     1
100
AcDbDimStyleTable
  0
DIMSTYLE
105
27
330
A
100
AcDbSymbolTableRecord
100
AcDbDimStyleTableRecord
  2
ISO-25
 70
     0
 41
2.5
 42
0.625
 43
3.75
 44
1.25
 73
     0
 74
     0
 77
     1
 78
     8
140
2.5
141
2.5
143
0.0393700787
147
0.625
171
     3
172
     1
178
     0
271
     2
272
     2
274
     3
278
    44
283
     0
284
     8
340
11
  0
ENDTAB
  0
TABLE
  2
BLOCK_RECORD
  5
1
330
0
100
AcDbSymbolTable
 70
     3
  0
BLOCK_RECORD
  5
1F
330
1
100
AcDbSymbolTableRecord
100
AcDbBlockTableRecord
  2
*Model_Space
340
22
  0
BLOCK_RECORD
  5
1B
330
1
100
AcDbSymbolTableRecord
100
AcDbBlockTableRecord
  2
*Paper_Space
340
1E
  0
BLOCK_RECORD
  5
23
330
1
100
AcDbSymbolTableRecord
100
AcDbBlockTableRecord
  2
*Paper_Space0
340
26
  0
BLOCK_RECORD
  5
182
330
1
100
AcDbSymbolTableRecord
100
AcDbBlockTableRecord
  2
SW_CENTERMARKSYMBOL_0
340
0
102
{BLKREFS
331
18D
102
}
  0
BLOCK_RECORD
  5
1EB
330
1
100
AcDbSymbolTableRecord
100
AcDbBlockTableRecord
  2
SW_CENTERMARKSYMBOL_1
340
0
102
{BLKREFS
331
1F6
102
}
  0
ENDTAB
  0
ENDSEC
  0
SECTION
  2
BLOCKS
  0
BLOCK
  5
20
330
1F
100
AcDbEntity
  8
0
100
AcDbBlockBegin
  2
*Model_Space
 70
     0
 10
0.0
 20
0.0
 30
0.0
  3
*Model_Space
  1

  0
ENDBLK
  5
21
330
1F
100
AcDbEntity
  8
0
100
AcDbBlockEnd
  0
BLOCK
  5
1C
330
1B
100
AcDbEntity
 67
     1
  8
0
100
AcDbBlockBegin
  2
*Paper_Space
 70
     0
 10
0.0
 20
0.0
 30
0.0
  3
*Paper_Space
  1

  0
ENDBLK
  5
1D
330
1B
100
AcDbEntity
 67
     1
  8
0
100
AcDbBlockEnd
  0
BLOCK
  5
24
330
23
100
AcDbEntity
  8
0
100
AcDbBlockBegin
  2
*Paper_Space0
 70
     0
 10
0.0
 20
0.0
 30
0.0
  3
*Paper_Space0
  1

  0
ENDBLK
  5
25
330
23
100
AcDbEntity
  8
0
100
AcDbBlockEnd
  0
BLOCK
  5
183
330
182
100
AcDbEntity
  8
0
100
AcDbBlockBegin
  2
SW_CENTERMARKSYMBOL_0
 70
     0
 10
0.0
 20
0.0
 30
0.0
  3
SW_CENTERMARKSYMBOL_0
  1

  0
LINE
  5
185
330
182
100
AcDbEntity
  8
FORMAT
 62
     0
100
AcDbLine
 10
0.0
 20
0.0
 30
0.0
 11
0.0
 21
2.5
 31
0.0
  0
LINE
  5
186
330
182
100
AcDbEntity
  8
FORMAT
 62
     0
100
AcDbLine
 10
0.0
 20
0.0
 30
0.0
 11
-2.5
 21
0.0
 31
0.0
  0
LINE
  5
187
330
182
100
AcDbEntity
  8
FORMAT
 62
     0
100
AcDbLine
 10
0.0
 20
0.0
 30
0.0
 11
0.0
 21
-2.5
 31
0.0
  0
LINE
  5
188
330
182
100
AcDbEntity
  8
FORMAT
 62
     0
100
AcDbLine
 10
0.0
 20
0.0
 30
0.0
 11
2.5
 21
0.0
 31
0.0
  0
LINE
  5
189
330
182
100
AcDbEntity
  8
FORMAT
 62
     0
100
AcDbLine
 10
0.0
 20
5.0
 30
0.0
 11
0.0
 21
30.1775975845
 31
0.0
  0
LINE
  5
18A
330
182
100
AcDbEntity
  8
FORMAT
 62
     0
100
AcDbLine
 10
-5.0
 20
0.0
 30
0.0
 11
-10.55
 21
0.0
 31
0.0
  0
LINE
  5
18B
330
182
100
AcDbEntity
  8
FORMAT
 62
     0
100
AcDbLine
 10
0.0
 20
-5.0
 30
0.0
 11
0.0
 21
-10.55
 31
0.0
  0
LINE
  5
18C
330
182
100
AcDbEntity
  8
FORMAT
 62
     0
100
AcDbLine
 10
5.0
 20
0.0
 30
0.0
 11
10.55
 21
0.0
 31
0.0
  0
ENDBLK
  5
184
330
182
100
AcDbEntity
  8
0
100
AcDbBlockEnd
  0
BLOCK
  5
1EC
330
1EB
100
AcDbEntity
  8
0
100
AcDbBlockBegin
  2
SW_CENTERMARKSYMBOL_1
 70
     0
 10
0.0
 20
0.0
 30
0.0
  3
SW_CENTERMARKSYMBOL_1
  1

  0
LINE
  5
1EE
330
1EB
100
AcDbEntity
  8
FORMAT
 62
     0
100
AcDbLine
 10
0.0
 20
0.0
 30
0.0
 11
0.0
 21
2.5
 31
0.0
  0
LINE
  5
1EF
330
1EB
100
AcDbEntity
  8
FORMAT
 62
     0
100
AcDbLine
 10
0.0
 20
0.0
 30
0.0
 11
-2.5
 21
0.0
 31
0.0
  0
LINE
  5
1F0
330
1EB
100
AcDbEntity
  8
FORMAT
 62
     0
100
AcDbLine
 10
0.0
 20
0.0
 30
0.0
 11
0.0
 21
-2.5
 31
0.0
  0
LINE
  5
1F1
330
1EB
100
AcDbEntity
  8
FORMAT
 62
     0
100
AcDbLine
 10
0.0
 20
0.0
 30
0.0
 11
2.5
 21
0.0
 31
0.0
  0
LINE
  5
1F2
330
1EB
100
AcDbEntity
  8
FORMAT
 62
     0
100
AcDbLine
 10
0.0
 20
5.0
 30
0.0
 11
0.0
 21
12.8067622273
 31
0.0
  0
LINE
  5
1F3
330
1EB
100
AcDbEntity
  8
FORMAT
 62
     0
100
AcDbLine
 10
-5.0
 20
0.0
 30
0.0
 11
-12.8067622273
 21
0.0
 31
0.0
  0
LINE
  5
1F4
330
1EB
100
AcDbEntity
  8
FORMAT
 62
     0
100
AcDbLine
 10
0.0
 20
-5.0
 30
0.0
 11
0.0
 21
-12.8067622273
 31
0.0
  0
LINE
  5
1F5
330
1EB
100
AcDbEntity
  8
FORMAT
 62
     0
100
AcDbLine
 10
5.0
 20
0.0
 30
0.0
 11
32.3765436409
 21
0.0
 31
0.0
  0
ENDBLK
  5
1ED
330
1EB
100
AcDbEntity
  8
0
100
AcDbBlockEnd
  0
ENDSEC
  0
SECTION
  2
ENTITIES
  0
MTEXT
  5
65
330
1F
100
AcDbEntity
  8
FORMAT
100
AcDbMText
 10
129.1650857372
 20
98.5067747227
 30
0.0
 40
3.7041666667
 41
0.0
 71
     2
 72
     1
  1
5R-RL1406
  7
SLDTEXTSTYLE0
 73
     1
 44
1.0
  0
LINE
  5
66
330
1F
100
AcDbEntity
  8
0
  6
Continuous
 62
     7
370
    25
100
AcDbLine
 10
111.7630769363
 20
68.5546153084
 30
0.0
 11
110.8595499904
 21
66.9896607322
 31
0.0
  0
LINE
  5
67
330
1F
100
AcDbEntity
  8
0
  6
Continuous
 62
     7
370
    25
100
AcDbLine
 10
110.8595499904
 20
50.4896607322
 30
0.0
 11
111.7630769363
 21
48.924706156
 31
0.0
  0
LINE
  5
68
330
1F
100
AcDbEntity
  8
0
  6
Continuous
 62
     7
370
    25
100
AcDbLine
 10
123.6595499904
 20
50.4896607322
 30
0.0
 11
123.8595499904
 21
50.6896607322
 31
0.0
  0
LINE
  5
69
330
1F
100
AcDbEntity
  8
0
  6
Continuous
 62
     7
370
    25
100
AcDbLine
 10
123.8595499904
 20
66.7896607322
 30
0.0
 11
123.6595499904
 21
66.9896607322
 31
0.0
  0
LINE
  5
6A
330
1F
100
AcDbEntity
  8
0
  6
Continuous
 62
     7
370
    25
100
AcDbLine
 10
123.6595499904
 20
66.9896607322
 30
0.0
 11
122.7925626923
 21
66.9896607322
 31
0.0
  0
LINE
  5
6B
330
1F
100
AcDbEntity
  8
0
  6
Continuous
 62
     7
370
    25
100
AcDbLine
 10
122.7925626923
 20
50.4896607322
 30
0.0
 11
123.6595499904
 21
50.4896607322
 31
0.0
  0
LINE
  5
6C
330
1F
100
AcDbEntity
  8
0
  6
Continuous
 62
     7
370
    25
100
AcDbLine
 10
122.1430436395
 20
67.3646607322
 30
0.0
 11
121.4560230446
 21
68.5546153084
 31
0.0
  0
ARC
  5
6D
330
1F
100
AcDbEntity
  8
0
  6
Continuous
 62
     7
370
    25
100
AcDbCircle
 10
122.7925626923
 20
67.7396607322
 30
0.0
 40
0.75
100
AcDbArc
 50
210.0
 51
270.0
  0
LINE
  5
6E
330
1F
100
AcDbEntity
  8
0
  6
Continuous
 62
     7
370
    25
100
AcDbLine
 10
121.4560230446
 20
48.924706156
 30
0.0
 11
122.1430436395
 21
50.1146607322
 31
0.0
  0
ARC
  5
6F
330
1F
100
AcDbEntity
  8
0
  6
Continuous
 62
     7
370
    25
100
AcDbCircle
 10
122.7925626923
 20
49.7396607322
 30
0.0
 40
0.75
100
AcDbArc
 50
90.0
 51
150.0
  0
ARC
  5
70
330
1F
100
AcDbEntity
  8
0
  6
Continuous
 62
     7
370
    25
100
AcDbCircle
 10
100.9241325527
 20
75.7048035071
 30
0.0
 40
2.500000000000005
100
AcDbArc
 50
296.7436839504
 51
319.4425836613
  0
ARC
  5
71
330
1F
100
AcDbEntity
  8
0
  6
Continuous
 62
     7
370
    25
100
AcDbCircle
 10
83.4241325527
 20
75.7048035071
 30
0.0
 40
2.500000000000005
100
AcDbArc
 50
220.5574163387
 51
243.2563160496
  0
LINE
  5
72
330
1F
100
AcDbEntity
  8
0
  6
Continuous
 62
     7
370
    25
100
AcDbLine
 10
102.823519476
 20
74.0792791868
 30
0.0
 11
102.48089478
 21
85.0432694592
 31
0.0
  0
LINE
  5
73
330
1F
100
AcDbEntity
  8
0
  6
Continuous
 62
     7
370
    25
100
AcDbLine
 10
81.8673703255
 20
85.0432694592
 30
0.0
 11
81.5247456295
 21
74.0792791868
 31
0.0
  0
LINE
  5
74
330
1F
100
AcDbEntity
  8
0
  6
Continuous
 62
     7
370
    25
100
AcDbLine
 10
102.48089478
 20
85.0432694592
 30
0.0
 11
100.9241325527
 21
87.7396607322
 31
0.0
  0
LINE
  5
75
330
1F
100
AcDbEntity
  8
0
  6
Continuous
 62
     7
370
    25
100
AcDbLine
 10
83.4241325527
 20
87.7396607322
 30
0.0
 11
81.8673703255
 21
85.0432694592
 31
0.0
  0
ARC
  5
76
330
1F
100
AcDbEntity
  8
0
  6
Continuous
 62
     7
370
    25
100
AcDbCircle
 10
103.1741325527
 20
71.2396607322
 30
0.0
 40
2.500000000000009
100
AcDbArc
 50
116.7436839504
 51
180.0
  0
ARC
  5
77
330
1F
100
AcDbEntity
  8
0
  6
Continuous
 62
     7
370
    25
100
AcDbCircle
 10
81.1741325527
 20
71.2396607322
 30
0.0
 40
2.500000000000009
100
AcDbArc
 50
0.0
 51
63.2563160496
  0
ARC
  5
78
330
1F
100
AcDbEntity
  8
0
  6
Continuous
 62
     7
370
    25
100
AcDbCircle
 10
104.6741325527
 20
47.7396607322
 30
0.0
 40
2.50000000000001
100
AcDbArc
 50
73.7675227363
 51
90.0
  0
ARC
  5
79
330
1F
100
AcDbEntity
  8
0
  6
Continuous
 62
     7
370
    25
100
AcDbCircle
 10
104.6741325527
 20
69.7396607322
 30
0.0
 40
2.5
100
AcDbArc
 50
270.0
 51
286.2324772637
  0
LINE
  5
7A
330
1F
100
AcDbEntity
  8
0
  6
Continuous
 62
     7
370
    25
100
AcDbLine
 10
105.3729710263
 20
50.1399992058
 30
0.0
 11
106.4741325527
 21
51.2411607322
 31
0.0
  0
LINE
  5
7B
330
1F
100
AcDbEntity
  8
0
  6
Continuous
 62
     7
370
    25
100
AcDbLine
 10
106.4741325527
 20
66.2381607322
 30
0.0
 11
105.3729710263
 21
67.3393222586
 31
0.0
  0
LINE
  5
7C
330
1F
100
AcDbEntity
  8
0
  6
Continuous
 62
     7
370
    25
100
AcDbLine
 10
83.6741325527
 20
71.2396607322
 30
0.0
 11
83.6741325527
 21
53.2352600638
 31
0.0
  0
LINE
  5
7D
330
1F
100
AcDbEntity
  8
0
  6
Continuous
 62
     7
370
    25
100
AcDbLine
 10
100.6741325527
 20
67.7396607322
 30
0.0
 11
100.6741325527
 21
71.2396607322
 31
0.0
  0
LINE
  5
7E
330
1F
100
AcDbEntity
  8
0
  6
Continuous
 62
     7
370
    25
100
AcDbLine
 10
104.6741325527
 20
67.2396607322
 30
0.0
 11
101.1741325527
 21
67.2396607322
 31
0.0
  0
LINE
  5
7F
330
1F
100
AcDbEntity
  8
0
  6
Continuous
 62
     7
370
    25
100
AcDbLine
 10
86.6697318843
 20
50.2396607322
 30
0.0
 11
104.6741325527
 21
50.2396607322
 31
0.0
  0
LINE
  5
80
330
1F
100
AcDbEntity
  8
0
  6
Continuous
 62
     7
370
    25
100
AcDbLine
 10
110.8595499904
 20
65.3181607322
 30
0.0
 11
106.4741325527
 21
65.3181607322
 31
0.0
  0
LINE
  5
81
330
1F
100
AcDbEntity
  8
0
  6
Continuous
 62
     7
370
    25
100
AcDbLine
 10
106.4741325527
 20
52.1611607322
 30
0.0
 11
110.8595499904
 21
52.1611607322
 31
0.0
  0
SPLINE
  5
82
330
1F
100
AcDbEntity
  8
0
  6
Continuous
 62
     7
370
    25
100
AcDbSpline
210
0.0
220
0.0
230
1.0
 70
     8
 71
     3
 72
    21
 73
    17
 74
     0
 42
0.00000001
 43
0.00000001
 40
0.0
 40
0.0
 40
0.0
 40
0.0
 40
0.082675667536071
 40
0.1577159023869824
 40
0.225107122878268
 40
0.2848508575649881
 40
0.3526127842311548
 40
0.4067896671894032
 40
0.4520101410146769
 40
0.5086861790580107
 40
0.5792250314326626
 40
0.6636251927364243
 40
0.7360318665421361
 40
0.8162246244150331
 40
0.9042198598363963
 40
1.0
 40
1.0
 40
1.0
 40
1.0
 10
83.6741325530106
 20
53.23962110921456
 30
0.0
 10
83.67903027658338
 20
53.10974400238741
 30
0.0
 10
83.68837339912407
 20
52.86198446547507
 30
0.0
 10
83.75741999568874
 20
52.51411531790632
 30
0.0
 10
83.85080809929289
 20
52.21033895041147
 30
0.0
 10
83.97043770311848
 20
51.92821587553772
 30
0.0
 10
84.10773327506732
 20
51.67760532445764
 30
0.0
 10
84.25528510303396
 20
51.46023855720239
 30
0.0
 10
84.40829570326342
 20
51.26864085802177
 30
0.0
 10
84.59385442202681
 20
51.07105668782079
 30
0.0
 10
84.84503816279803
 20
50.852622387602
 30
0.0
 10
85.14155125835654
 20
50.65212461259296
 30
0.0
 10
85.47353440982307
 20
50.48229858213368
 30
0.0
 10
85.82913097585984
 20
50.35280992969483
 30
0.0
 10
86.23483222654265
 20
50.25887910042083
 30
0.0
 10
86.52359526704595
 20
50.2462452492043
 30
0.0
 10
86.67409292977928
 20
50.23966073244587
 30
0.0
  0
SPLINE
  5
83
330
1F
100
AcDbEntity
  8
0
  6
Continuous
 62
     7
370
    25
100
AcDbSpline
210
0.0
220
0.0
230
1.0
 70
     8
 71
     3
 72
    11
 73
     7
 74
     0
 42
0.00000001
 43
0.00000001
 40
0.0
 40
0.0
 40
0.0
 40
0.0
 40
0.2500481156911711
 40
0.5000000000000012
 40
0.7499518843088333
 40
1.0
 40
1.0
 40
1.0
 40
1.0
 10
101.1789658839224
 20
67.23966073218082
 30
0.0
 10
101.1125647504356
 20
67.24675315644016
 30
0.0
 10
100.9797880380351
 20
67.26093527542899
 30
0.0
 10
100.8121897294501
 20
67.37771790888536
 30
0.0
 10
100.6954070959937
 20
67.5453162174704
 30
0.0
 10
100.6812249770049
 20
67.67809292987087
 30
0.0
 10
100.6741325527455
 20
67.74449406335768
 30
0.0
  0
SPLINE
  5
84
330
1F
100
AcDbEntity
  8
0
  6
Continuous
 62
     7
370
    25
100
AcDbSpline
210
0.0
220
0.0
230
1.0
 70
     8
 71
     3
 72
    10
 73
     6
 74
     0
 42
0.00000001
 43
0.00000001
 40
0.0
 40
0.0
 40
0.0
 40
0.0
 40
0.2488872038107671
 40
0.4977963221692078
 40
0.9999999999999999
 40
0.9999999999999999
 40
0.9999999999999999
 40
0.9999999999999999
 10
122.1430436395
 20
65.36933291992875
 30
0.0
 10
122.1097037982493
 20
65.22439563174399
 30
0.0
 10
122.0430211801711
 20
64.93450829362916
 30
0.0
 10
121.8357325899228
 20
64.35713553364612
 30
0.0
 10
121.608172588723
 20
63.93163389172504
 30
0.0
 10
121.4560230445939
 20
63.64713802029274
 30
0.0
  0
LINE
  5
85
330
1F
100
AcDbEntity
  8
0
  6
Continuous
 62
     7
370
    25
100
AcDbLine
 10
122.1430436395
 20
60.202748221
 30
0.0
 11
122.1430436395
 21
65.3693329199
 31
0.0
  0
SPLINE
  5
86
330
1F
100
AcDbEntity
  8
0
  6
Continuous
 62
     7
370
    25
100
AcDbSpline
210
0.0
220
0.0
230
1.0
 70
     8
 71
     3
 72
    10
 73
     6
 74
     0
 42
0.00000001
 43
0.00000001
 40
0.0
 40
0.0
 40
0.0
 40
0.0
 40
0.4979812754252549
 40
0.7490019773312669
 40
1.0
 40
1.0
 40
1.0
 40
1.0
 10
121.4560230445939
 20
63.64713802029276
 30
0.0
 10
121.6069688619348
 20
63.08295779896106
 30
0.0
 10
121.8340029317635
 20
62.2343875369813
 30
0.0
 10
122.0420482221641
 20
61.0797647027013
 30
0.0
 10
122.1093795143093
 20
60.49507824363391
 30
0.0
 10
122.1430436395
 20
60.20274822102088
 30
0.0
  0
SPLINE
  5
87
330
1F
100
AcDbEntity
  8
0
  6
Continuous
 62
     7
370
    25
100
AcDbSpline
210
0.0
220
0.0
230
1.0
 70
     8
 71
     3
 72
    10
 73
     6
 74
     0
 42
0.00000001
 43
0.00000001
 40
0.0
 40
0.0
 40
0.0
 40
0.0
 40
0.3089808900029875
 40
0.6190948628358296
 40
1.0
 40
1.0
 40
1.0
 40
1.0
 10
122.1430436395
 20
52.10998854443312
 30
0.0
 10
122.1671906460367
 20
51.95954058206527
 30
0.0
 10
122.2155732100833
 20
51.65809294035135
 30
0.0
 10
122.2230283027999
 20
51.1690817017553
 30
0.0
 10
122.1714659550004
 20
50.83245641659708
 30
0.0
 10
122.1430436395
 20
50.64690105559314
 30
0.0
  0
SPLINE
  5
88
330
1F
100
AcDbEntity
  8
0
  6
Continuous
 62
     7
370
    25
100
AcDbSpline
210
0.0
220
0.0
230
1.0
 70
     8
 71
     3
 72
    10
 73
     6
 74
     0
 42
0.00000001
 43
0.00000001
 40
0.0
 40
0.0
 40
0.0
 40
0.0
 40
0.2488872038107671
 40
0.4977963221692079
 40
1.0
 40
1.0
 40
1.0
 40
1.0
 10
122.1430436395
 20
50.64690105559314
 30
0.0
 10
122.1097037982493
 20
50.5019637674084
 30
0.0
 10
122.043021180171
 20
50.21207642929358
 30
0.0
 10
121.8357325899228
 20
49.63470366931053
 30
0.0
 10
121.608172588723
 20
49.20920202738947
 30
0.0
 10
121.4560230445939
 20
48.92470615595718
 30
0.0
  0
LINE
  5
89
330
1F
100
AcDbEntity
  8
0
  6
Continuous
 62
     7
370
    25
100
AcDbLine
 10
111.7630769363
 20
48.924706156
 30
0.0
 11
121.4560230446
 21
48.924706156
 31
0.0
  0
SPLINE
  5
8A
330
1F
100
AcDbEntity
  8
0
  6
Continuous
 62
     7
370
    25
100
AcDbSpline
210
0.0
220
0.0
230
1.0
 70
     8
 71
     3
 72
    15
 73
    11
 74
     0
 42
0.00000001
 43
0.00000001
 40
0.0
 40
0.0
 40
0.0
 40
0.0
 40
0.1323052378296956
 40
0.2645730682660304
 40
0.3997997819746811
 40
0.5350020935366634
 40
0.6501929590834554
 40
0.7654017933211805
 40
0.8826895567076666
 40
1.0
 40
1.0
 40
1.0
 40
1.0
 10
111.7630769362984
 20
48.92470615595718
 30
0.0
 10
111.6475069644584
 20
49.13672869961368
 30
0.0
 10
111.4163996965172
 20
49.5607138406175
 30
0.0
 10
111.1677370649409
 20
50.21361342627264
 30
0.0
 10
111.0182231177873
 20
50.87882027849552
 30
0.0
 10
110.988612830739
 20
51.51993092479286
 30
0.0
 10
111.0654342333896
 20
52.12640568965621
 30
0.0
 10
111.2228437045106
 20
52.69876864940861
 30
0.0
 10
111.4537460650416
 20
53.26854378966284
 30
0.0
 10
111.659960000599
 20
53.64429145073231
 30
0.0
 10
111.7630769362984
 20
53.83218344406909
 30
0.0
  0
LINE
  5
8B
330
1F
100
AcDbEntity
  8
0
  6
Continuous
 62
     7
370
    25
100
AcDbLine
 10
111.7630769363
 20
53.8321834441
 30
0.0
 11
121.4560230446
 21
53.8321834441
 31
0.0
  0
SPLINE
  5
8C
330
1F
100
AcDbEntity
  8
0
  6
Continuous
 62
     7
370
    25
100
AcDbSpline
210
0.0
220
0.0
230
1.0
 70
     8
 71
     3
 72
    10
 73
     6
 74
     0
 42
0.00000001
 43
0.00000001
 40
0.0
 40
0.0
 40
0.0
 40
0.0
 40
0.4979812754252546
 40
0.7490019773312668
 40
1.0
 40
1.0
 40
1.0
 40
1.0
 10
121.4560230445939
 20
53.83218344406909
 30
0.0
 10
121.6069688619348
 20
53.55009333340324
 30
0.0
 10
121.8340029317635
 20
53.12580820241335
 30
0.0
 10
122.042048222164
 20
52.54849678527334
 30
0.0
 10
122.1093795143093
 20
52.25615355573964
 30
0.0
 10
122.1430436395
 20
52.10998854443312
 30
0.0
  0
SPLINE
  5
8D
330
1F
100
AcDbEntity
  8
0
  6
Continuous
 62
     7
370
    25
100
AcDbSpline
210
0.0
220
0.0
230
1.0
 70
     8
 71
     3
 72
    10
 73
     6
 74
     0
 42
0.00000001
 43
0.00000001
 40
0.0
 40
0.0
 40
0.0
 40
0.0
 40
0.3355445600395945
 40
0.6726666839999048
 40
1.0
 40
1.0
 40
1.0
 40
1.0
 10
122.1430436395
 20
57.27657324334096
 30
0.0
 10
122.0959094235156
 20
56.88594367703752
 30
0.0
 10
122.0014193898657
 20
56.10284799816062
 30
0.0
 10
121.7630036118503
 20
54.95359602874584
 30
0.0
 10
121.5573399494526
 20
54.20229824698494
 30
0.0
 10
121.4560230445939
 20
53.83218344406909
 30
0.0
  0
LINE
  5
8E
330
1F
100
AcDbEntity
  8
0
  6
Continuous
 62
     7
370
    25
100
AcDbLine
 10
122.1430436395
 20
52.1099885444
 30
0.0
 11
122.1430436395
 21
57.2765732433
 31
0.0
  0
SPLINE
  5
8F
330
1F
100
AcDbEntity
  8
0
  6
Continuous
 62
     7
370
    25
100
AcDbSpline
210
0.0
220
0.0
230
1.0
 70
     8
 71
     3
 72
    15
 73
    11
 74
     0
 42
0.00000001
 43
0.00000001
 40
0.0
 40
0.0
 40
0.0
 40
0.0
 40
0.1120144463356182
 40
0.2377528996418849
 40
0.3634588221853872
 40
0.4922562098365844
 40
0.621051920428044
 40
0.7472639235857628
 40
0.8736764197093114
 40
0.9999999999999999
 40
0.9999999999999999
 40
0.9999999999999999
 40
0.9999999999999999
 10
111.7630769362984
 20
53.83218344406909
 30
0.0
 10
111.6643997737065
 20
54.19093453433224
 30
0.0
 10
111.4549555251997
 20
54.95239088884739
 30
0.0
 10
111.2148061598099
 20
56.13644320622043
 30
0.0
 10
111.0474046126451
 20
57.38924046249147
 30
0.0
 10
110.9863500689375
 20
58.66233758059509
 30
0.0
 10
111.0340031949789
 20
59.93773192989526
 30
0.0
 10
111.1906404083502
 20
61.19591017853473
 30
0.0
 10
111.4314292907578
 20
62.43240174114062
 30
0.0
 10
111.6525536525919
 20
63.24232090726787
 30
0.0
 10
111.7630769362984
 20
63.64713802029274
 30
0.0
  0
SPLINE
  5
90
330
1F
100
AcDbEntity
  8
0
  6
Continuous
 62
     7
370
    25
100
AcDbSpline
210
0.0
220
0.0
230
1.0
 70
     8
 71
     3
 72
    15
 73
    11
 74
     0
 42
0.00000001
 43
0.00000001
 40
0.0
 40
0.0
 40
0.0
 40
0.0
 40
0.1320285036549299
 40
0.2645714867393018
 40
0.3992745467898696
 40
0.5350034055873366
 40
0.6498879363623022
 40
0.7654033203663358
 40
0.8825066155353896
 40
1.0
 40
1.0
 40
1.0
 40
1.0
 10
111.7630769362984
 20
63.64713802029274
 30
0.0
 10
111.6476912823735
 20
63.85871266896449
 30
0.0
 10
111.4164703477858
 20
64.28268641558611
 30
0.0
 10
111.1684434665214
 20
64.93474971679811
 30
0.0
 10
111.0173513149244
 20
65.60034503738886
 30
0.0
 10
110.9888751677189
 20
66.24097985583587
 30
0.0
 10
111.0648535976175
 20
66.84834844733679
 30
0.0
 10
111.2226923671528
 20
67.42039080798247
 30
0.0
 10
111.4535469419045
 20
67.99068244368173
 30
0.0
 10
111.6597859595201
 20
68.3664294217712
 30
0.0
 10
111.7630769362984
 20
68.55461530840448
 30
0.0
  0
LINE
  5
91
330
1F
100
AcDbEntity
  8
0
  6
Continuous
 62
     7
370
    25
100
AcDbLine
 10
110.8595499904
 20
58.7396607322
 30
0.0
 11
110.8595499904
 21
66.9896607322
 31
0.0
  0
LINE
  5
92
330
1F
100
AcDbEntity
  8
0
  6
Continuous
 62
     7
370
    25
100
AcDbLine
 10
110.8595499904
 20
50.4896607322
 30
0.0
 11
110.8595499904
 21
58.7396607322
 31
0.0
  0
SPLINE
  5
93
330
1F
100
AcDbEntity
  8
0
  6
Continuous
 62
     7
370
    25
100
AcDbSpline
210
0.0
220
0.0
230
1.0
 70
     8
 71
     3
 72
    10
 73
     6
 74
     0
 42
0.00000001
 43
0.00000001
 40
0.0
 40
0.0
 40
0.0
 40
0.0
 40
0.0789477693778934
 40
0.5375793028234308
 40
1.0
 40
1.0
 40
1.0
 40
1.0
 10
122.1430436395
 20
60.20274822102088
 30
0.0
 10
122.1501739373136
 20
60.12597856665247
 30
0.0
 10
122.1987262974086
 20
59.60323070944807
 30
0.0
 10
122.2406431122872
 20
58.6250590035489
 30
0.0
 10
122.1756659014492
 20
57.72729960945802
 30
0.0
 10
122.1430436395
 20
57.27657324334096
 30
0.0
  0
LINE
  5
94
330
1F
100
AcDbEntity
  8
0
  6
Continuous
 62
     7
370
    25
100
AcDbLine
 10
111.7630769363
 20
63.6471380203
 30
0.0
 11
121.4560230446
 21
63.6471380203
 31
0.0
  0
SPLINE
  5
95
330
1F
100
AcDbEntity
  8
0
  6
Continuous
 62
     7
370
    25
100
AcDbSpline
210
0.0
220
0.0
230
1.0
 70
     8
 71
     3
 72
    11
 73
     7
 74
     0
 42
0.00000001
 43
0.00000001
 40
0.0
 40
0.0
 40
0.0
 40
0.0
 40
0.2858113857234066
 40
0.5527245545213759
 40
0.8220275582229319
 40
1.0
 40
1.0
 40
1.0
 40
1.0
 10
122.7925626923384
 20
60.13913572150609
 30
0.0
 10
122.7886223909158
 20
59.8737733428563
 30
0.0
 10
122.7810023258756
 20
59.36059468779785
 30
0.0
 10
122.7695412362247
 20
58.58879545222317
 30
0.0
 10
122.7869786254663
 20
57.91958162485874
 30
0.0
 10
122.7909732267256
 20
57.50510673175862
 30
0.0
 10
122.7925626923384
 20
57.34018574285574
 30
0.0
  0
ARC
  5
96
330
1F
100
AcDbEntity
  8
0
  6
Continuous
 62
     7
370
    25
100
AcDbCircle
 10
122.723839428
 20
54.694106642
 30
0.0
 40
2.646971381584109
100
AcDbArc
 50
88.5122636654
 51
102.674909816
  0
ARC
  5
97
330
1F
100
AcDbEntity
  8
0
  6
Continuous
 62
     7
370
    25
100
AcDbCircle
 10
122.723839428
 20
62.7852148223
 30
0.0
 40
2.646971381583202
100
AcDbArc
 50
257.325090184
 51
271.4877363346
  0
LINE
  5
98
330
1F
100
AcDbEntity
  8
0
  6
Continuous
 62
     7
370
    25
100
AcDbLine
 10
122.7925626923
 20
57.3401857429
 30
0.0
 11
122.7925626923
 21
52.3982351613
 31
0.0
  0
ARC
  5
99
330
1F
100
AcDbEntity
  8
0
  6
Continuous
 62
     7
370
    25
100
AcDbCircle
 10
122.7636103928
 20
51.5875561379
 30
0.0
 40
0.8111958547049515
100
AcDbArc
 50
87.9546284054
 51
139.9072030665
  0
ARC
  5
9A
330
1F
100
AcDbEntity
  8
0
  6
Continuous
 62
     7
370
    25
100
AcDbCircle
 10
122.7636103928
 20
65.8917653265
 30
0.0
 40
0.811195854705025
100
AcDbArc
 50
220.0927969335
 51
272.0453715946
  0
LINE
  5
9B
330
1F
100
AcDbEntity
  8
0
  6
Continuous
 62
     7
370
    25
100
AcDbLine
 10
122.7925626923
 20
65.0810863031
 30
0.0
 11
122.7925626923
 21
60.1391357215
 31
0.0
  0
SPLINE
  5
9C
330
1F
100
AcDbEntity
  8
0
  6
Continuous
 62
     7
370
    25
100
AcDbSpline
210
0.0
220
0.0
230
1.0
 70
     8
 71
     3
 72
    10
 73
     6
 74
     0
 42
0.00000001
 43
0.00000001
 40
0.0
 40
0.0
 40
0.0
 40
0.0
 40
0.3089808900030065
 40
0.6190948628358672
 40
0.9999999999999999
 40
0.9999999999999999
 40
0.9999999999999999
 40
0.9999999999999999
 10
122.1430436395
 20
66.83242040876848
 30
0.0
 10
122.1671906460367
 20
66.68197244640064
 30
0.0
 10
122.2155732100833
 20
66.38052480468677
 30
0.0
 10
122.2230283027999
 20
65.89151356609078
 30
0.0
 10
122.1714659550003
 20
65.55488828093263
 30
0.0
 10
122.1430436395
 20
65.36933291992875
 30
0.0
  0
LINE
  5
9D
330
1F
100
AcDbEntity
  8
0
  6
Continuous
 62
     7
370
    25
100
AcDbLine
 10
111.7630769363
 20
68.5546153084
 30
0.0
 11
121.4560230446
 21
68.5546153084
 31
0.0
  0
SPLINE
  5
9E
330
1F
100
AcDbEntity
  8
0
  6
Continuous
 62
     7
370
    25
100
AcDbSpline
210
0.0
220
0.0
230
1.0
 70
     8
 71
     3
 72
    10
 73
     6
 74
     0
 42
0.00000001
 43
0.00000001
 40
0.0
 40
0.0
 40
0.0
 40
0.0
 40
0.4979812754252544
 40
0.7490019773312668
 40
1.0
 40
1.0
 40
1.0
 40
1.0
 10
121.4560230445939
 20
68.55461530840448
 30
0.0
 10
121.6069688619348
 20
68.27252519773862
 30
0.0
 10
121.8340029317635
 20
67.84824006674872
 30
0.0
 10
122.0420482221641
 20
67.2709286496087
 30
0.0
 10
122.1093795143093
 20
66.978585420075
 30
0.0
 10
122.1430436395
 20
66.83242040876848
 30
0.0
  0
LINE
  5
9F
330
1F
100
AcDbEntity
  8
0
  6
Continuous
 62
     7
370
    25
100
AcDbLine
 10
123.8595499904
 20
58.7396607322
 30
0.0
 11
123.8595499904
 21
50.6896607322
 31
0.0
  0
LINE
  5
A0
330
1F
100
AcDbEntity
  8
0
  6
Continuous
 62
     7
370
    25
100
AcDbLine
 10
123.8595499904
 20
66.7896607322
 30
0.0
 11
123.8595499904
 21
58.7396607322
 31
0.0
  0
LINE
  5
A1
330
1F
100
AcDbEntity
  8
0
  6
Continuous
 62
     7
370
    25
100
AcDbLine
 10
123.6595499904
 20
58.7396607322
 30
0.0
 11
123.6595499904
 21
66.9896607322
 31
0.0
  0
LINE
  5
A2
330
1F
100
AcDbEntity
  8
0
  6
Continuous
 62
     7
370
    25
100
AcDbLine
 10
123.6595499904
 20
50.4896607322
 30
0.0
 11
123.6595499904
 21
58.7396607322
 31
0.0
  0
SPLINE
  5
A3
330
1F
100
AcDbEntity
  8
0
  6
Continuous
 62
     7
370
    25
100
AcDbSpline
210
0.0
220
0.0
230
1.0
 70
     8
 71
     3
 72
    11
 73
     7
 74
     0
 42
0.00000001
 43
0.00000001
 40
0.0
 40
0.0
 40
0.0
 40
0.0
 40
0.2858113857233996
 40
0.5527245545213821
 40
0.8220275582229516
 40
1.0
 40
1.0
 40
1.0
 40
1.0
 10
122.7925626923384
 20
52.39823516129172
 30
0.0
 10
122.7886223909158
 20
52.2325428752228
 30
0.0
 10
122.7810023258756
 20
51.91211409043777
 30
0.0
 10
122.7695412362247
 20
51.51205169567374
 30
0.0
 10
122.7869786254663
 20
51.21126755836695
 30
0.0
 10
122.7909732267256
 20
51.05924891447047
 30
0.0
 10
122.7925626923384
 20
50.99876017196652
 30
0.0
  0
SPLINE
  5
A4
330
1F
100
AcDbEntity
  8
0
  6
Continuous
 62
     7
370
    25
100
AcDbSpline
210
0.0
220
0.0
230
1.0
 70
     8
 71
     3
 72
    11
 73
     7
 74
     0
 42
0.00000001
 43
0.00000001
 40
0.0
 40
0.0
 40
0.0
 40
0.0
 40
0.2858113857233209
 40
0.5527245545214224
 40
0.8220275582231135
 40
1.0
 40
1.0
 40
1.0
 40
1.0
 10
122.7925626923384
 20
66.4805612923951
 30
0.0
 10
122.7886223909158
 20
66.38089119981429
 30
0.0
 10
122.7810023258756
 20
66.18814132954085
 30
0.0
 10
122.7695412362247
 20
65.81640448873017
 30
0.0
 10
122.7869786254663
 20
65.44797479867252
 30
0.0
 10
122.7909732267256
 20
65.18551854946895
 30
0.0
 10
122.7925626923384
 20
65.08108630307014
 30
0.0
  0
ARC
  5
A5
330
1F
100
AcDbEntity
  8
0
  6
Continuous
 62
     7
370
    25
100
AcDbCircle
 10
122.7840991576
 20
50.2389597877
 30
0.0
 40
0.7598475211238712
100
AcDbArc
 50
89.3617997906
 51
147.5290082717
  0
ARC
  5
A6
330
1F
100
AcDbEntity
  8
0
  6
Continuous
 62
     7
370
    25
100
AcDbCircle
 10
122.7840991576
 20
67.2403616767
 30
0.0
 40
0.7598475211158486
100
AcDbArc
 50
212.4709917279
 51
270.6382002097
  0
LINE
  5
A7
330
1F
100
AcDbEntity
  8
0
  6
Continuous
 62
     7
370
    25
100
AcDbLine
 10
102.823519476
 20
74.0792791868
 30
0.0
 11
81.5247456295
 21
74.0792791868
 31
0.0
  0
LINE
  5
A8
330
1F
100
AcDbEntity
  8
0
  6
Continuous
 62
     7
370
    25
100
AcDbLine
 10
81.8673703255
 20
85.0432694592
 30
0.0
 11
102.48089478
 21
85.0432694592
 31
0.0
  0
LINE
  5
A9
330
1F
100
AcDbEntity
  8
0
  6
Continuous
 62
     7
370
    25
100
AcDbLine
 10
92.1741325527
 20
87.7396607322
 30
0.0
 11
100.9241325527
 21
87.7396607322
 31
0.0
  0
LINE
  5
AA
330
1F
100
AcDbEntity
  8
0
  6
Continuous
 62
     7
370
    25
100
AcDbLine
 10
83.4241325527
 20
87.7396607322
 30
0.0
 11
92.1741325527
 21
87.7396607322
 31
0.0
  0
LINE
  5
AB
330
1F
100
AcDbEntity
  8
0
  6
Continuous
 62
     7
370
    25
100
AcDbLine
 10
105.3729710263
 20
58.7396607322
 30
0.0
 11
105.3729710263
 21
50.1399992058
 31
0.0
  0
LINE
  5
AC
330
1F
100
AcDbEntity
  8
0
  6
Continuous
 62
     7
370
    25
100
AcDbLine
 10
105.3729710263
 20
67.3393222586
 30
0.0
 11
105.3729710263
 21
58.7396607322
 31
0.0
  0
LINE
  5
AD
330
1F
100
AcDbEntity
  8
0
  6
Continuous
 62
     7
370
    25
100
AcDbLine
 10
106.4741325527
 20
66.2381607322
 30
0.0
 11
106.4741325527
 21
51.2411607322
 31
0.0
  0
SPLINE
  5
AE
330
1F
100
AcDbEntity
  8
0
  6
Continuous
 62
     7
370
    25
100
AcDbSpline
210
0.0
220
0.0
230
1.0
 70
    24
 71
     3
 72
     8
 73
     4
 74
     0
 42
0.00000001
 43
0.00000001
 40
0.0
 40
0.0
 40
0.0
 40
0.0
 40
1.0
 40
1.0
 40
1.0
 40
1.0
 10
92.17413255274555
 20
67.23966073218082
 30
0.0
 10
93.15078589550838
 20
67.23966073218082
 30
0.0
 10
94.12721072988484
 20
67.23966073218082
 30
0.0
 10
95.04641387601457
 20
67.23966073218082
 30
0.0
  0
SPLINE
  5
AF
330
1F
100
AcDbEntity
  8
0
  6
Continuous
 62
     7
370
    25
100
AcDbSpline
210
0.0
220
0.0
230
1.0
 70
    24
 71
     3
 72
     8
 73
     4
 74
     0
 42
0.00000001
 43
0.00000001
 40
0.0
 40
0.0
 40
0.0
 40
0.0
 40
1.0
 40
1.0
 40
1.0
 40
1.0
 10
89.30185122947653
 20
67.23966073218082
 30
0.0
 10
90.22105437560624
 20
67.23966073218082
 30
0.0
 10
91.1974792099827
 20
67.23966073218082
 30
0.0
 10
92.17413255274555
 20
67.23966073218082
 30
0.0
  0
SPLINE
  5
B0
330
1F
100
AcDbEntity
  8
0
  6
Continuous
 62
     7
370
    25
100
AcDbSpline
210
0.0
220
0.0
230
1.0
 70
     8
 71
     3
 72
     8
 73
     4
 74
     0
 42
0.00000001
 43
0.00000001
 40
0.0
 40
0.0
 40
0.0
 40
0.0
 40
1.0
 40
1.0
 40
1.0
 40
1.0
 10
85.28210817670043
 20
67.05001035532615
 30
0.0
 10
85.210041930358
 20
66.95897842504706
 30
0.0
 10
85.1495489727918
 20
66.84902319487279
 30
0.0
 10
85.0907992194122
 20
66.73966073218082
 30
0.0
  0
LINE
  5
B1
330
1F
100
AcDbEntity
  8
0
  6
Continuous
 62
     7
370
    25
100
AcDbLine
 10
85.0907992194
 20
66.7396607322
 30
0.0
 11
85.0907992194
 21
54.7396607322
 31
0.0
  0
SPLINE
  5
B2
330
1F
100
AcDbEntity
  8
0
  6
Continuous
 62
     7
370
    25
100
AcDbSpline
210
0.0
220
0.0
230
1.0
 70
     8
 71
     3
 72
    10
 73
     6
 74
     0
 42
0.00000001
 43
0.00000001
 40
0.0
 40
0.0
 40
0.0
 40
0.0
 40
0.0280934765544326
 40
0.0280934765544326
 40
0.0561869531088653
 40
0.0561869531088653
 40
0.0561869531088653
 40
0.0561869531088653
 10
85.0907992194122
 20
54.73966073218082
 30
0.0
 10
85.0907992194122
 20
54.64601581033272
 30
0.0
 10
85.09437671365679
 20
54.55195990512815
 30
0.0
 10
85.1085381917173
 20
54.36568919302212
 30
0.0
 10
85.1191174635636
 20
54.273506723738
 30
0.0
 10
85.1327984693554
 20
54.18350338410485
 30
0.0
  0
ELLIPSE
  5
B3
330
1F
100
AcDbEntity
  8
0
  6
Continuous
 62
     7
370
    25
100
AcDbEllipse
 10
97.1741325527
 20
57.2008098401
 30
0.0
 11
0.5653269642954655
 21
1.222133505507372E-12
 31
0.0
210
0.0
220
0.0
230
1.0
 40
0.9531667975
 41
0.4357918987532611
 42
2.705800754832174
  0
LINE
  5
B4
330
1F
100
AcDbEntity
  8
0
  6
Continuous
 62
     7
370
    25
100
AcDbLine
 10
95.5695475713
 20
54.3748226229
 30
0.0
 11
96.6616432832
 21
57.4282741149
 31
0.0
  0
ELLIPSE
  5
B5
330
1F
100
AcDbEntity
  8
0
  6
Continuous
 62
     7
370
    25
100
AcDbEllipse
 10
95.0127083062
 20
54.5557637703
 30
0.0
 11
-0.5883077352006721
 21
2.131628207280300E-14
 31
0.0
210
0.0
220
0.0
230
1.0
 40
0.9531667975
 41
1.047197551197064
 42
2.81303948303825
  0
LINE
  5
B6
330
1F
100
AcDbEntity
  8
0
  6
Continuous
 62
     7
370
    25
100
AcDbLine
 10
94.6738246781
 20
54.0947506326
 30
0.0
 11
94.7185544386
 21
54.0701353487
 31
0.0
  0
LINE
  5
B7
330
1F
100
AcDbEntity
  8
0
  6
Continuous
 62
     7
370
    25
100
AcDbLine
 10
95.3643348064
 20
52.7784079773
 30
0.0
 11
94.6738246781
 21
54.0947506326
 31
0.0
  0
ELLIPSE
  5
B8
330
1F
100
AcDbEntity
  8
0
  6
Continuous
 62
     7
370
    25
100
AcDbEllipse
 10
95.4301096108
 20
52.8097551572
 30
0.0
 11
0.07353846690023147
 21
0.0
 31
0.0
210
0.0
220
0.0
230
1.0
 40
0.9531667975
 41
3.605240262590597
 42
5.462183310215067
  0
ELLIPSE
  5
B9
330
1F
100
AcDbEntity
  8
0
  6
Continuous
 62
     7
370
    25
100
AcDbEllipse
 10
97.1741325527
 20
51.024614818
 30
0.0
 11
2.48560018122744
 21
-1.705302565824240E-13
 31
0.0
210
0.0
220
0.0
230
1.0
 40
0.9531667975
 41
0.8210019969645073
 42
2.320590656625379
  0
ELLIPSE
  5
BA
330
1F
100
AcDbEntity
  8
0
  6
Continuous
 62
     7
370
    25
100
AcDbEllipse
 10
98.9181554947
 20
52.8097551572
 30
0.0
 11
0.07353846690017463
 21
2.842170943040401E-14
 31
0.0
210
0.0
220
0.0
230
1.0
 40
0.9531667975
 41
3.962594650553533
 42
5.819537698178445
  0
LINE
  5
BB
330
1F
100
AcDbEntity
  8
0
  6
Continuous
 62
     7
370
    25
100
AcDbLine
 10
99.6744404274
 20
54.0947506326
 30
0.0
 11
98.9839302991
 21
52.7784079773
 31
0.0
  0
LINE
  5
BC
330
1F
100
AcDbEntity
  8
0
  6
Continuous
 62
     7
370
    25
100
AcDbLine
 10
99.6383220055
 20
54.0741103874
 30
0.0
 11
99.6744404274
 21
54.0947506326
 31
0.0
  0
ELLIPSE
  5
BD
330
1F
100
AcDbEntity
  8
0
  6
Continuous
 62
     7
370
    25
100
AcDbEllipse
 10
99.335811357
 20
54.5550520384
 30
0.0
 11
-0.5883077352015817
 21
-1.563194018672220E-13
 31
0.0
210
0.0
220
0.0
230
1.0
 40
0.9531667975
 41
0.3285531705512088
 42
2.110876526947632
  0
LINE
  5
BE
330
1F
100
AcDbEntity
  8
0
  6
Continuous
 62
     7
370
    25
100
AcDbLine
 10
97.6866218223
 20
57.4282741149
 30
0.0
 11
98.7789720918
 21
54.374110891
 31
0.0
  0
SPLINE
  5
BF
330
1F
100
AcDbEntity
  8
0
  6
Continuous
 62
     7
370
    25
100
AcDbSpline
210
0.0
220
0.0
230
1.0
 70
     8
 71
     3
 72
    10
 73
     6
 74
     0
 42
0.00000001
 43
0.00000001
 40
-0.2904940295525288
 40
-0.2904940295525288
 40
-0.2904940295525288
 40
-0.2904940295525288
 40
-0.1303072746110114
 40
-0.1303072746110114
 40
0.001056361752625
 40
0.001056361752625
 40
0.001056361752625
 40
0.001056361752625
 10
100.6741325527455
 20
58.73966073218083
 30
0.0
 10
100.5446292369712
 20
58.22164746908373
 30
0.0
 10
100.4128382588216
 20
57.69772166543963
 30
0.0
 10
100.2344143193809
 20
56.73931920184445
 30
0.0
 10
100.1741325527455
 20
56.3052581967906
 30
0.0
 10
100.1741325527455
 20
55.86737940891182
 30
0.0
  0
LINE
  5
C0
330
1F
100
AcDbEntity
  8
0
  6
Continuous
 62
     7
370
    25
100
AcDbLine
 10
100.1741325527
 20
55.8673794089
 30
0.0
 11
100.1741325527
 21
52.2396607322
 31
0.0
  0
LINE
  5
C1
330
1F
100
AcDbEntity
  8
0
  6
Continuous
 62
     7
370
    25
100
AcDbLine
 10
100.1741325527
 20
52.2396607322
 30
0.0
 11
88.1741325527
 21
52.2396607322
 31
0.0
  0
ARC
  5
C2
330
1F
100
AcDbEntity
  8
0
  6
Continuous
 62
     7
370
    25
100
AcDbCircle
 10
88.1741325527
 20
54.7396607322
 30
0.0
 40
2.5
100
AcDbArc
 50
180.0
 51
270.0
  0
LINE
  5
C3
330
1F
100
AcDbEntity
  8
0
  6
Continuous
 62
     7
370
    25
100
AcDbLine
 10
85.6741325527
 20
54.7396607322
 30
0.0
 11
85.6741325527
 21
66.7396607322
 31
0.0
  0
LINE
  5
C4
330
1F
100
AcDbEntity
  8
0
  6
Continuous
 62
     7
370
    25
100
AcDbLine
 10
85.6741325527
 20
66.7396607322
 30
0.0
 11
89.3018512295
 21
66.7396607322
 31
0.0
  0
SPLINE
  5
C5
330
1F
100
AcDbEntity
  8
0
  6
Continuous
 62
     7
370
    25
100
AcDbSpline
210
0.0
220
0.0
230
1.0
 70
     8
 71
     3
 72
    10
 73
     6
 74
     0
 42
0.00000001
 43
0.00000001
 40
-0.8711658249657241
 40
-0.8711658249657241
 40
-0.8711658249657241
 40
-0.8711658249657241
 40
-0.7398021886020881
 40
-0.7398021886020881
 40
-0.5796154507864705
 40
-0.5796154507864705
 40
-0.5796154507864705
 40
-0.5796154507864705
 10
89.30185122947653
 20
66.73966073218082
 30
0.0
 10
89.73973001735531
 20
66.73966073218082
 30
0.0
 10
90.1737910224097
 20
66.79994249881624
 30
0.0
 10
91.1321934297073
 20
66.97836642777618
 30
0.0
 10
91.65611934501487
 20
67.11015743024808
 30
0.0
 10
92.17413255274555
 20
67.23966073218082
 30
0.0
  0
SPLINE
  5
C6
330
1F
100
AcDbEntity
  8
0
  6
Continuous
 62
     7
370
    25
100
AcDbSpline
210
0.0
220
0.0
230
1.0
 70
     8
 71
     3
 72
    10
 73
     6
 74
     0
 42
0.00000001
 43
0.00000001
 40
-0.2904940295525327
 40
-0.2904940295525327
 40
-0.2904940295525327
 40
-0.2904940295525327
 40
-0.130307291676468
 40
-0.130307291676468
 40
0.0010563446871674
 40
0.0010563446871674
 40
0.0010563446871674
 40
0.0010563446871674
 10
92.17413255274555
 20
67.23966073218082
 30
0.0
 10
92.6921457606717
 20
67.11015743019928
 30
0.0
 10
93.2160716755851
 20
66.97836642781317
 30
0.0
 10
94.17447408308138
 20
66.79994249881624
 30
0.0
 10
94.60853508813577
 20
66.73966073218082
 30
0.0
 10
95.04641387601457
 20
66.73966073218082
 30
0.0
  0
LINE
  5
C7
330
1F
100
AcDbEntity
  8
0
  6
Continuous
 62
     7
370
    25
100
AcDbLine
 10
95.046413876
 20
66.7396607322
 30
0.0
 11
98.6741325527
 21
66.7396607322
 31
0.0
  0
ARC
  5
C8
330
1F
100
AcDbEntity
  8
0
  6
Continuous
 62
     7
370
    25
100
AcDbCircle
 10
100.1741325527
 20
66.7396607322
 30
0.0
 40
1.5
100
AcDbArc
 50
180.0
 51
270.0
  0
LINE
  5
C9
330
1F
100
AcDbEntity
  8
0
  6
Continuous
 62
     7
370
    25
100
AcDbLine
 10
100.1741325527
 20
65.2396607322
 30
0.0
 11
100.1741325527
 21
61.6119420554
 31
0.0
  0
SPLINE
  5
CA
330
1F
100
AcDbEntity
  8
0
  6
Continuous
 62
     7
370
    25
100
AcDbSpline
210
0.0
220
0.0
230
1.0
 70
     8
 71
     3
 72
    10
 73
     6
 74
     0
 42
0.00000001
 43
0.00000001
 40
-0.8711658421011628
 40
-0.8711658421011628
 40
-0.8711658421011628
 40
-0.8711658421011628
 40
-0.739802205737527
 40
-0.739802205737527
 40
-0.579615450786466
 40
-0.579615450786466
 40
-0.579615450786466
 40
-0.579615450786466
 10
100.1741325527455
 20
61.61194205544984
 30
0.0
 10
100.1741325527455
 20
61.17406326757106
 30
0.0
 10
100.2344143193809
 20
60.74000226251721
 30
0.0
 10
100.4128382588274
 20
59.78159979889067
 30
0.0
 10
100.5446292369635
 20
59.25767399530877
 30
0.0
 10
100.6741325527455
 20
58.73966073218083
 30
0.0
  0
SPLINE
  5
CB
330
1F
100
AcDbEntity
  8
0
  6
Continuous
 62
     7
370
    25
100
AcDbSpline
210
0.0
220
0.0
230
1.0
 70
    24
 71
     3
 72
     8
 73
     4
 74
     0
 42
0.00000001
 43
0.00000001
 40
0.0
 40
0.0
 40
0.0
 40
0.0
 40
1.0
 40
1.0
 40
1.0
 40
1.0
 10
100.6741325527455
 20
58.73966073218083
 30
0.0
 10
100.6741325527455
 20
57.763007389418
 30
0.0
 10
100.6741325527455
 20
56.78658255504153
 30
0.0
 10
100.6741325527455
 20
55.86737940891182
 30
0.0
  0
SPLINE
  5
CC
330
1F
100
AcDbEntity
  8
0
  6
Continuous
 62
     7
370
    25
100
AcDbSpline
210
0.0
220
0.0
230
1.0
 70
    24
 71
     3
 72
     8
 73
     4
 74
     0
 42
0.00000001
 43
0.00000001
 40
0.0
 40
0.0
 40
0.0
 40
0.0
 40
1.0
 40
1.0
 40
1.0
 40
1.0
 10
100.6741325527455
 20
61.61194205544984
 30
0.0
 10
100.6741325527455
 20
60.69273890932012
 30
0.0
 10
100.6741325527455
 20
59.71631407494365
 30
0.0
 10
100.6741325527455
 20
58.73966073218083
 30
0.0
  0
SPLINE
  5
CD
330
1F
100
AcDbEntity
  8
0
  6
Continuous
 62
     7
370
    25
100
AcDbSpline
210
0.0
220
0.0
230
1.0
 70
     8
 71
     3
 72
    10
 73
     6
 74
     0
 42
0.00000001
 43
0.00000001
 40
0.0
 40
0.0
 40
0.0
 40
0.0
 40
0.0280934765544328
 40
0.0280934765544328
 40
0.0561869531088657
 40
0.0561869531088657
 40
0.0561869531088657
 40
0.0561869531088657
 10
87.61797520466958
 20
51.69832664879068
 30
0.0
 10
87.7079785443027
 20
51.68464564299889
 30
0.0
 10
87.80016101358684
 20
51.67406637115259
 30
0.0
 10
87.98643172569287
 20
51.65990489309206
 30
0.0
 10
88.08048763089744
 20
51.6563273988475
 30
0.0
 10
88.17413255274555
 20
51.6563273988475
 30
0.0
  0
LINE
  5
CE
330
1F
100
AcDbEntity
  8
0
  6
Continuous
 62
     7
370
    25
100
AcDbLine
 10
88.1741291196
 20
51.6563273988
 30
0.0
 11
100.1741325527
 21
51.6563273988
 31
0.0
  0
SPLINE
  5
CF
330
1F
100
AcDbEntity
  8
0
  6
Continuous
 62
     7
370
    25
100
AcDbSpline
210
0.0
220
0.0
230
1.0
 70
     8
 71
     3
 72
     8
 73
     4
 74
     0
 42
0.00000001
 43
0.00000001
 40
0.0
 40
0.0
 40
0.0
 40
0.0
 40
1.0
 40
1.0
 40
1.0
 40
1.0
 10
100.4844821758909
 20
51.84763635613572
 30
0.0
 10
100.3934502456118
 20
51.77557010979329
 30
0.0
 10
100.2834950154403
 20
51.71507715222553
 30
0.0
 10
100.1741325527455
 20
51.6563273988475
 30
0.0
  0
LINE
  5
D0
330
1F
100
AcDbEntity
  8
0
  6
Continuous
 62
     7
370
    25
100
AcDbLine
 10
99.1741325527
 20
67.2396607322
 30
0.0
 11
95.046413876
 21
67.2396607322
 31
0.0
  0
LINE
  5
D1
330
1F
100
AcDbEntity
  8
0
  6
Continuous
 62
     7
370
    25
100
AcDbLine
 10
98.6741325527
 20
66.7396607322
 30
0.0
 11
99.1741325527
 21
67.2396607322
 31
0.0
  0
SPLINE
  5
D2
330
1F
100
AcDbEntity
  8
0
  6
Continuous
 62
     7
370
    25
100
AcDbSpline
210
0.0
220
0.0
230
1.0
 70
    24
 71
     3
 72
    10
 73
     6
 74
     0
 42
0.00000001
 43
0.00000001
 40
0.0
 40
0.0
 40
0.0
 40
0.0
 40
0.5
 40
0.5
 40
1.0
 40
1.0
 40
1.0
 40
1.0
 10
95.04641387601457
 20
67.23966073218084
 30
0.0
 10
95.04641387601457
 20
67.23966073218084
 30
0.0
 10
95.04641387601457
 20
67.18577418398573
 30
0.0
 10
95.04641387601457
 20
67.00065406156247
 30
0.0
 10
95.04641387601457
 20
66.8705604260804
 30
0.0
 10
95.04641387601457
 20
66.73966073218084
 30
0.0
  0
LINE
  5
D3
330
1F
100
AcDbEntity
  8
0
  6
Continuous
 62
     7
370
    25
100
AcDbLine
 10
100.6741325527
 20
61.6119420554
 30
0.0
 11
100.6741325527
 21
65.2396607322
 31
0.0
  0
SPLINE
  5
D4
330
1F
100
AcDbEntity
  8
0
  6
Continuous
 62
     7
370
    25
100
AcDbSpline
210
0.0
220
0.0
230
1.0
 70
    24
 71
     3
 72
    10
 73
     6
 74
     0
 42
0.00000001
 43
0.00000001
 40
0.0
 40
0.0
 40
0.0
 40
0.0
 40
0.5
 40
0.5
 40
1.0
 40
1.0
 40
1.0
 40
1.0
 10
100.1741325527455
 20
61.61194205544984
 30
0.0
 10
100.3050322466451
 20
61.61194205544984
 30
0.0
 10
100.4351258821272
 20
61.61194205544984
 30
0.0
 10
100.6202460045505
 20
61.61194205544984
 30
0.0
 10
100.6741325527455
 20
61.61194205544984
 30
0.0
 10
100.6741325527455
 20
61.61194205544984
 30
0.0
  0
LINE
  5
D5
330
1F
100
AcDbEntity
  8
0
  6
Continuous
 62
     7
370
    25
100
AcDbLine
 10
100.1741325527
 20
65.2396607322
 30
0.0
 11
100.6741325527
 21
65.2396607322
 31
0.0
  0
SPLINE
  5
D6
330
1F
100
AcDbEntity
  8
0
  6
Continuous
 62
     7
370
    25
100
AcDbSpline
210
0.0
220
0.0
230
1.0
 70
    24
 71
     3
 72
    10
 73
     6
 74
     0
 42
0.00000001
 43
0.00000001
 40
0.0
 40
0.0
 40
0.0
 40
0.0
 40
0.5
 40
0.5
 40
1.0
 40
1.0
 40
1.0
 40
1.0
 10
100.6741325527455
 20
55.86737940891182
 30
0.0
 10
100.6741325527455
 20
55.86737940891182
 30
0.0
 10
100.6202460045505
 20
55.86737940891182
 30
0.0
 10
100.4351258821272
 20
55.86737940891182
 30
0.0
 10
100.3050322466451
 20
55.86737940891182
 30
0.0
 10
100.1741325527455
 20
55.86737940891182
 30
0.0
  0
LINE
  5
D7
330
1F
100
AcDbEntity
  8
0
  6
Continuous
 62
     7
370
    25
100
AcDbLine
 10
100.6741325527
 20
52.2396607322
 30
0.0
 11
100.6741325527
 21
55.8673794089
 31
0.0
  0
LINE
  5
D8
330
1F
100
AcDbEntity
  8
0
  6
Continuous
 62
     7
370
    25
100
AcDbLine
 10
100.1741325527
 20
52.2396607322
 30
0.0
 11
100.6741325527
 21
52.2396607322
 31
0.0
  0
SPLINE
  5
D9
330
1F
100
AcDbEntity
  8
0
  6
Continuous
 62
     7
370
    25
100
AcDbSpline
210
0.0
220
0.0
230
1.0
 70
    24
 71
     3
 72
    10
 73
     6
 74
     0
 42
0.00000001
 43
0.00000001
 40
0.0
 40
0.0
 40
0.0
 40
0.0
 40
0.5
 40
0.5
 40
1.0
 40
1.0
 40
1.0
 40
1.0
 10
89.30185122947653
 20
66.73966073218082
 30
0.0
 10
89.30185122947653
 20
66.8705604260804
 30
0.0
 10
89.30185122947653
 20
67.00065406156247
 30
0.0
 10
89.30185122947653
 20
67.18577418398573
 30
0.0
 10
89.30185122947653
 20
67.23966073218084
 30
0.0
 10
89.30185122947653
 20
67.23966073218082
 30
0.0
  0
LINE
  5
DA
330
1F
100
AcDbEntity
  8
0
  6
Continuous
 62
     7
370
    25
100
AcDbLine
 10
85.6741325527
 20
67.2396607322
 30
0.0
 11
85.6741325527
 21
66.7396607322
 31
0.0
  0
LINE
  5
DB
330
1F
100
AcDbEntity
  8
0
  6
Continuous
 62
     7
370
    25
100
AcDbLine
 10
89.3018512295
 20
67.2396607322
 30
0.0
 11
85.6741325527
 21
67.2396607322
 31
0.0
  0
ELLIPSE
  5
DC
330
1F
100
AcDbEntity
  8
0
  6
Continuous
 62
     7
370
    25
100
AcDbEllipse
 10
96.9107916641
 20
54.4452227576
 30
0.0
 11
-0.07353846690021726
 21
0.0
 31
0.0
210
0.0
220
0.0
230
1.0
 40
0.9531667975
 41
5.940161364898182
 42
7.853981633974483
  0
LINE
  5
DD
330
1F
100
AcDbEntity
  8
0
  6
Continuous
 62
     7
370
    25
100
AcDbLine
 10
97.1048782981
 20
55.1716198808
 30
0.0
 11
96.8415374077
 21
54.4687980641
 31
0.0
  0
ELLIPSE
  5
DE
330
1F
100
AcDbEntity
  8
0
  6
Continuous
 62
     7
370
    25
100
AcDbEllipse
 10
97.4374734418
 20
54.4452227576
 30
0.0
 11
0.07353846690021726
 21
7.105427357601002E-15
 31
0.0
210
0.0
220
0.0
230
1.0
 40
0.9531667975
 41
4.712388980384611
 42
6.626209245739304
  0
LINE
  5
DF
330
1F
100
AcDbEntity
  8
0
  6
Continuous
 62
     7
370
    25
100
AcDbLine
 10
96.9107916641
 20
54.3751283326
 30
0.0
 11
97.4374734418
 21
54.3751283326
 31
0.0
  0
ELLIPSE
  5
E0
330
1F
100
AcDbEntity
  8
0
  6
Continuous
 62
     7
370
    25
100
AcDbEllipse
 10
97.1741325545
 20
55.1480445743
 30
0.0
 11
0.07353846690021726
 21
0.0
 31
0.0
210
0.0
220
0.0
230
1.0
 40
0.9531667975
 41
0.3430239394903299
 42
2.798568712238662
  0
LINE
  5
E1
330
1F
100
AcDbEntity
  8
0
  6
Continuous
 62
     7
370
    25
100
AcDbLine
 10
97.5067276982
 20
54.4687980638
 30
0.0
 11
97.2433868109
 21
55.1716198806
 31
0.0
  0
LINE
  5
E2
330
1F
100
AcDbEntity
  8
0
  6
Continuous
 62
     7
370
    25
100
AcDbLine
 10
99.1741325527
 20
66.7396607322
 30
0.0
 11
99.1741325527
 21
67.2396607322
 31
0.0
  0
LINE
  5
E3
330
1F
100
AcDbEntity
  8
0
  6
Continuous
 62
     7
370
    25
100
AcDbLine
 10
98.6741325527
 20
66.7396607322
 30
0.0
 11
99.1741325527
 21
66.7396607322
 31
0.0
  0
ARC
  5
E4
330
1F
100
AcDbEntity
  8
0
  6
Continuous
 62
     7
370
    25
100
AcDbCircle
 10
85.6741325527
 20
66.7396607322
 30
0.0
 40
0.5
100
AcDbArc
 50
90.0
 51
180.0
  0
LINE
  5
E5
330
1F
100
AcDbEntity
  8
0
  6
Continuous
 62
     7
370
    25
100
AcDbLine
 10
85.6741325527
 20
66.7396607322
 30
0.0
 11
85.1741325527
 21
66.7396607322
 31
0.0
  0
LINE
  5
E6
330
1F
100
AcDbEntity
  8
0
  6
Continuous
 62
     7
370
    25
100
AcDbLine
 10
100.1741325527
 20
65.2396607322
 30
0.0
 11
100.1741325527
 21
65.7396607322
 31
0.0
  0
ARC
  5
E7
330
1F
100
AcDbEntity
  8
0
  6
Continuous
 62
     7
370
    25
100
AcDbCircle
 10
100.1741325527
 20
65.2396607322
 30
0.0
 40
0.5
100
AcDbArc
 50
0.0
 51
90.0
  0
ARC
  5
E8
330
1F
100
AcDbEntity
  8
0
  6
Continuous
 62
     7
370
    25
100
AcDbCircle
 10
100.1741325527
 20
52.2396607322
 30
0.0
 40
0.5
100
AcDbArc
 50
270.0
 51
0.0
  0
LINE
  5
E9
330
1F
100
AcDbEntity
  8
0
  6
Continuous
 62
     7
370
    25
100
AcDbLine
 10
100.1741325527
 20
51.7396607322
 30
0.0
 11
100.1741325527
 21
52.2396607322
 31
0.0
  0
LINE
  5
EA
330
1F
100
AcDbEntity
  8
0
  6
Continuous
 62
     7
370
    25
100
AcDbLine
 10
88.1741325527
 20
52.2396607322
 30
0.0
 11
88.1741325527
 21
51.7396607322
 31
0.0
  0
ARC
  5
EB
330
1F
100
AcDbEntity
  8
0
  6
Continuous
 62
     7
370
    25
100
AcDbCircle
 10
88.1741325527
 20
54.7396607322
 30
0.0
 40
3.0
100
AcDbArc
 50
180.0
 51
270.0
  0
LINE
  5
EC
330
1F
100
AcDbEntity
  8
0
  6
Continuous
 62
     7
370
    25
100
AcDbLine
 10
85.6741325527
 20
54.7396607322
 30
0.0
 11
85.1741325527
 21
54.7396607322
 31
0.0
  0
ARC
  5
ED
330
1F
100
AcDbEntity
  8
0
  6
Continuous
 62
     7
370
    25
100
AcDbCircle
 10
100.1741325527
 20
66.7396607322
 30
0.0
 40
1.0
100
AcDbArc
 50
180.0
 51
270.0
  0
LINE
  5
EE
330
1F
100
AcDbEntity
  8
0
  6
Continuous
 62
     7
370
    25
100
AcDbLine
 10
85.1741325527
 20
66.7396607322
 30
0.0
 11
85.1741325527
 21
54.7396607322
 31
0.0
  0
LINE
  5
EF
330
1F
100
AcDbEntity
  8
0
  6
Continuous
 62
     7
370
    25
100
AcDbLine
 10
88.1741325527
 20
51.7396607322
 30
0.0
 11
100.1741325527
 21
51.7396607322
 31
0.0
  0
LWPOLYLINE
  5
F0
330
1F
100
AcDbEntity
  8
0
  6
Continuous
 62
     7
370
    25
100
AcDbPolyline
 90
        9
 70
   128
 43
0.0
 10
87.6974262544
 20
51.7777776985
 10
87.6885468616
 20
51.7777203053
 10
87.6792531799
 20
51.7747653067
 10
87.6695997675
 20
51.76893005
 10
87.6596432945
 20
51.7602487909
 10
87.6494422101
 20
51.7487724926
 10
87.6390563995
 20
51.7345685263
 10
87.6285468323
 20
51.7177202759
 10
87.6179752047
 20
51.6983266488
  0
SPLINE
  5
F1
330
1F
100
AcDbEntity
  8
0
  6
Continuous
 62
     7
370
    25
100
AcDbSpline
210
0.0
220
0.0
230
1.0
 70
     8
 71
     3
 72
    14
 73
    10
 74
     0
 42
0.00000001
 43
0.00000001
 40
-0.4399100083495733
 40
-0.4399100083495733
 40
-0.4399100083495733
 40
-0.4399100083495733
 40
-0.2980125372576002
 40
-0.2980125372576002
 40
-0.1727985319285605
 40
-0.1727985319285605
 40
-0.0664609738186771
 40
-0.0664609738186771
 40
0.0
 40
0.0
 40
0.0
 40
0.0
 10
85.1327984693554
 20
54.18350338410485
 30
0.0
 10
85.19042325693118
 20
53.7887585720133
 30
0.0
 10
85.32984064425223
 20
53.40013772106293
 30
0.0
 10
85.7327450027334
 20
52.75001193466121
 30
0.0
 10
85.97911469522091
 20
52.47921020329942
 30
0.0
 10
86.51098292027832
 20
52.07739567204398
 30
0.0
 10
86.78131031881907
 20
51.93325584588576
 30
0.0
 10
87.24808392030128
 20
51.77025511746137
 30
0.0
 10
87.4330873104768
 20
51.72531655543883
 30
0.0
 10
87.61797520466956
 20
51.69832664879068
 30
0.0
  0
LWPOLYLINE
  5
F2
330
1F
100
AcDbEntity
  8
0
  6
Continuous
 62
     7
370
    25
100
AcDbPolyline
 90
        9
 70
   128
 43
0.0
 10
85.2122495191
 20
54.2629544338
 10
85.2121921258
 20
54.2540750411
 10
85.2092371272
 20
54.2447813593
 10
85.2034018706
 20
54.2351279469
 10
85.1947206115
 20
54.2251714739
 10
85.1832443132
 20
54.2149703895
 10
85.1690403468
 20
54.2045845789
 10
85.1521920965
 20
54.1940750117
 10
85.1327984694
 20
54.1835033841
  0
LINE
  5
F3
330
1F
100
AcDbEntity
  8
0
  6
Continuous
 62
     7
370
    25
100
AcDbLine
 10
85.1741325527
 20
54.7396607322
 30
0.0
 11
85.0907992194
 21
54.7396607322
 31
0.0
  0
LWPOLYLINE
  5
F4
330
1F
100
AcDbEntity
  8
0
  6
Continuous
 62
     7
370
    25
100
AcDbPolyline
 90
        9
 70
   128
 43
0.0
 10
88.1741325527
 20
51.7396607322
 10
88.1741325527
 20
51.7383213792
 10
88.1741325527
 20
51.7343104956
 10
88.1741325527
 20
51.7276495695
 10
88.1741325527
 20
51.7183742861
 10
88.1741325527
 20
51.7065343369
 10
88.1741325527
 20
51.6921931535
 10
88.1741325527
 20
51.6754275674
 10
88.1741291196
 20
51.6563273988
  0
LINE
  5
F5
330
1F
100
AcDbEntity
  8
0
  6
Continuous
 62
     7
370
    25
100
AcDbLine
 10
85.1741325527
 20
66.7396607322
 30
0.0
 11
85.0907992194
 21
66.7396607322
 31
0.0
  0
LINE
  5
F6
330
1F
100
AcDbEntity
  8
0
  6
Continuous
 62
     7
370
    25
100
AcDbLine
 10
100.1741325527
 20
51.6563273988
 30
0.0
 11
100.1741325527
 21
51.7396607322
 31
0.0
  0
LINE
  5
F7
330
1F
100
AcDbEntity
  8
0
  6
Continuous
 62
     7
370
    25
100
AcDbLine
 10
122.7925626923
 20
50.998760172
 30
0.0
 11
122.7925626923
 21
50.4896607322
 31
0.0
  0
LINE
  5
F8
330
1F
100
AcDbEntity
  8
0
  6
Continuous
 62
     7
370
    25
100
AcDbLine
 10
122.7925626923
 20
66.9896607322
 30
0.0
 11
122.7925626923
 21
66.4805612924
 31
0.0
  0
LINE
  5
F9
330
1F
100
AcDbEntity
  8
0
  6
Continuous
 62
     7
370
    25
100
AcDbLine
 10
122.1430436395
 20
66.8324204088
 30
0.0
 11
122.1430436395
 21
67.3646607322
 31
0.0
  0
LINE
  5
FA
330
1F
100
AcDbEntity
  8
0
  6
Continuous
 62
     7
370
    25
100
AcDbLine
 10
122.1430436395
 20
50.1146607322
 30
0.0
 11
122.1430436395
 21
50.6469010556
 31
0.0
  0
LINE
  5
FB
330
1F
100
AcDbEntity
  8
0
  6
Continuous
 62
     7
370
    25
100
AcDbLine
 10
82.2991325527
 20
73.4722321196
 30
0.0
 11
102.0491325527
 21
73.4722321196
 31
0.0
  0
LINE
  5
FC
330
1F
100
AcDbEntity
  8
0
  6
Continuous
 62
     7
370
    25
100
AcDbLine
 10
83.6741325527
 20
71.2396607322
 30
0.0
 11
100.6741325527
 21
71.2396607322
 31
0.0
  0
LINE
  5
FD
330
1F
100
AcDbEntity
  8
0
  6
Continuous
 62
     7
370
    25
100
AcDbLine
 10
104.6741325527
 20
67.2396607322
 30
0.0
 11
104.6741325527
 21
50.2396607322
 31
0.0
  0
SPLINE
  5
FE
330
1F
100
AcDbEntity
  8
0
  6
Continuous
 62
     7
370
    25
100
AcDbSpline
210
0.0
220
0.0
230
1.0
 70
    24
 71
     3
 72
    12
 73
     8
 74
     0
 42
0.00000001
 43
0.00000001
 40
-0.5788447217180464
 40
-0.5788447217180464
 40
-0.5788447217180464
 40
-0.5788447217180464
 40
-0.3728576618289314
 40
-0.3728576618289314
 40
-0.0432783660063474
 40
-0.0432783660063474
 40
0.0
 40
0.0
 40
0.0
 40
0.0
 10
100.6741325527455
 20
67.73966073218082
 30
0.0
 10
100.6741325527457
 20
67.73966073218102
 30
0.0
 10
100.6138107965524
 20
67.67579063738809
 30
0.0
 10
100.3034439619911
 20
67.34716693020547
 30
0.0
 10
99.96050887774896
 20
66.98405919394915
 30
0.0
 10
99.42138286175201
 20
66.41321988289354
 30
0.0
 10
99.35649369360178
 20
66.34451370485213
 30
0.0
 10
99.28937044271466
 20
66.27344202744223
 30
0.0
  0
SPLINE
  5
FF
330
1F
100
AcDbEntity
  8
0
  6
Continuous
 62
     7
370
    25
100
AcDbSpline
210
0.0
220
0.0
230
1.0
 70
     8
 71
     3
 72
    12
 73
     8
 74
     0
 42
0.00000001
 43
0.00000001
 40
0.0
 40
0.0
 40
0.0
 40
0.0
 40
0.0430206627346149
 40
0.0430206627346149
 40
0.3824319177041577
 40
0.3824319177041577
 40
0.594563952060122
 40
0.594563952060122
 40
0.594563952060122
 40
0.594563952060122
 10
85.13284966143513
 20
54.18350337084943
 30
0.0
 10
85.06454485277528
 20
54.13930583984458
 30
0.0
 10
84.99841913458133
 20
54.0965183184982
 30
0.0
 10
84.4306305177835
 20
53.72912317857636
 30
0.0
 10
84.06714321598133
 20
53.49392390285675
 30
0.0
 10
83.73812116982107
 20
53.28102580188175
 30
0.0
 10
83.6741325530106
 20
53.23962110921455
 30
0.0
 10
83.6741325530106
 20
53.23962110921455
 30
0.0
  0
SPLINE
  5
100
330
1F
100
AcDbEntity
  8
0
  6
Continuous
 62
     7
370
    25
100
AcDbSpline
210
0.0
220
0.0
230
1.0
 70
    24
 71
     3
 72
    12
 73
     8
 74
     0
 42
0.00000001
 43
0.00000001
 40
-0.5788447217180465
 40
-0.5788447217180465
 40
-0.5788447217180465
 40
-0.5788447217180465
 40
-0.535566355711699
 40
-0.535566355711699
 40
-0.205987059889115
 40
-0.205987059889115
 40
0.0
 40
0.0
 40
0.0
 40
0.0
 10
99.70791384800695
 20
65.85489862214993
 30
0.0
 10
99.77898552541684
 20
65.92202187303705
 30
0.0
 10
99.84769170345827
 20
65.98691104118728
 30
0.0
 10
100.4185310145139
 20
66.52603705718425
 30
0.0
 10
100.7816387507702
 20
66.86897214142633
 30
0.0
 10
101.1102624579528
 20
67.17933897598769
 30
0.0
 10
101.1741325527457
 20
67.23966073218102
 30
0.0
 10
101.1741325527455
 20
67.23966073218082
 30
0.0
  0
SPLINE
  5
101
330
1F
100
AcDbEntity
  8
0
  6
Continuous
 62
     7
370
    25
100
AcDbSpline
210
0.0
220
0.0
230
1.0
 70
     8
 71
     3
 72
    12
 73
     8
 74
     0
 42
0.00000001
 43
0.00000001
 40
0.0
 40
0.0
 40
0.0
 40
0.0
 40
0.2121320343559643
 40
0.2121320343559643
 40
0.5515432893255071
 40
0.5515432893255071
 40
0.5945639520601226
 40
0.5945639520601226
 40
0.5945639520601226
 40
0.5945639520601226
 10
86.67409292977928
 20
50.23966073244587
 30
0.0
 10
86.67409292977928
 20
50.23966073244587
 30
0.0
 10
86.71549762244648
 20
50.30364934925636
 30
0.0
 10
86.92839572342147
 20
50.63267139541662
 30
0.0
 10
87.16359499914107
 20
50.99615869721878
 30
0.0
 10
87.53099013906291
 20
51.5639473140166
 30
0.0
 10
87.5737776604093
 20
51.63007303221057
 30
0.0
 10
87.61797519141415
 20
51.69837784087041
 30
0.0
  0
LINE
  5
102
330
1F
100
AcDbEntity
  8
FORMAT
100
AcDbLine
 10
101.5219926815
 20
86.7041366134
 30
0.0
 11
101.9115075527
 21
74.2396607322
 31
0.0
  0
LINE
  5
103
330
1F
100
AcDbEntity
  8
FORMAT
100
AcDbLine
 10
82.826272424
 20
86.7041366134
 30
0.0
 11
82.4367575527
 21
74.2396607322
 31
0.0
  0
LINE
  5
104
330
1F
100
AcDbEntity
  8
FORMAT
100
AcDbLine
 10
81.5297575527
 20
74.2396607322
 30
0.0
 11
102.8185075527
 21
74.2396607322
 31
0.0
  0
LINE
  5
105
330
1F
100
AcDbEntity
  8
FORMAT
100
AcDbLine
 10
117.0301325527
 20
53.0171607322
 30
0.0
 11
106.4741325527
 21
53.0171607322
 31
0.0
  0
LINE
  5
106
330
1F
100
AcDbEntity
  8
FORMAT
100
AcDbLine
 10
117.0301325527
 20
64.4621607322
 30
0.0
 11
106.4741325527
 21
64.4621607322
 31
0.0
  0
LINE
  5
107
330
1F
100
AcDbEntity
  8
FORMAT
  6
CENTERX2
370
    18
100
AcDbLine
 10
92.1741325527
 20
48.1907854521
 30
0.0
 11
92.1741325527
 21
88.9172583167
 31
0.0
  0
LINE
  5
108
330
1F
100
AcDbEntity
  8
FORMAT
  6
CENTERX2
370
    18
100
AcDbLine
 10
82.3537027389
 20
58.7396607322
 30
0.0
 11
124.8703502349
 21
58.7396607322
 31
0.0
  0
LINE
  5
109
330
1F
100
AcDbEntity
  8
0
  6
Continuous
 62
     7
370
    25
100
AcDbLine
 10
159.2414977115
 20
74.0792791868
 30
0.0
 11
158.8988730155
 21
85.0432694592
 31
0.0
  0
LINE
  5
10A
330
1F
100
AcDbEntity
  8
0
  6
Continuous
 62
     7
370
    25
100
AcDbLine
 10
138.2853485609
 20
85.0432694592
 30
0.0
 11
137.9427238649
 21
74.0792791868
 31
0.0
  0
ARC
  5
10B
330
1F
100
AcDbEntity
  8
0
  6
Continuous
 62
     7
370
    25
100
AcDbCircle
 10
157.3421107882
 20
75.7048035071
 30
0.0
 40
2.500000000000009
100
AcDbArc
 50
296.7436839504
 51
319.4425836613
  0
ARC
  5
10C
330
1F
100
AcDbEntity
  8
0
  6
Continuous
 62
     7
370
    25
100
AcDbCircle
 10
139.8421107882
 20
75.7048035071
 30
0.0
 40
2.500000000000005
100
AcDbArc
 50
220.5574163387
 51
243.2563160496
  0
LINE
  5
10D
330
1F
100
AcDbEntity
  8
0
  6
Continuous
 62
     7
370
    25
100
AcDbLine
 10
158.8988730155
 20
85.0432694592
 30
0.0
 11
157.3421107882
 21
87.7396607322
 31
0.0
  0
LINE
  5
10E
330
1F
100
AcDbEntity
  8
0
  6
Continuous
 62
     7
370
    25
100
AcDbLine
 10
139.8421107882
 20
87.7396607322
 30
0.0
 11
138.2853485609
 21
85.0432694592
 31
0.0
  0
ARC
  5
10F
330
1F
100
AcDbEntity
  8
0
  6
Continuous
 62
     7
370
    25
100
AcDbCircle
 10
159.5921107882
 20
71.2396607322
 30
0.0
 40
2.5
100
AcDbArc
 50
116.7436839504
 51
180.0
  0
ARC
  5
110
330
1F
100
AcDbEntity
  8
0
  6
Continuous
 62
     7
370
    25
100
AcDbCircle
 10
137.5921107882
 20
71.2396607322
 30
0.0
 40
2.500000000000009
100
AcDbArc
 50
0.0
 51
63.2563160496
  0
LINE
  5
111
330
1F
100
AcDbEntity
  8
0
  6
Continuous
 62
     7
370
    25
100
AcDbLine
 10
140.0921107882
 20
71.2396607322
 30
0.0
 11
140.0921107882
 21
67.2396607322
 31
0.0
  0
LINE
  5
112
330
1F
100
AcDbEntity
  8
0
  6
Continuous
 62
     7
370
    25
100
AcDbLine
 10
157.0921107882
 20
67.2396607322
 30
0.0
 11
157.0921107882
 21
71.2396607322
 31
0.0
  0
CIRCLE
  5
113
330
1F
100
AcDbEntity
  8
0
  6
Continuous
 62
     7
370
    25
100
AcDbCircle
 10
148.5921107882
 20
58.7396607322
 30
0.0
 40
3.050000000000014
  0
CIRCLE
  5
114
330
1F
100
AcDbEntity
  8
0
  6
Continuous
 62
     7
370
    25
100
AcDbCircle
 10
148.5921107882
 20
58.7396607322
 30
0.0
 40
8.050000000000011
  0
CIRCLE
  5
115
330
1F
100
AcDbEntity
  8
0
  6
Continuous
 62
     7
370
    25
100
AcDbCircle
 10
148.5921107882
 20
58.7396607322
 30
0.0
 40
8.25
  0
CIRCLE
  5
116
330
1F
100
AcDbEntity
  8
0
  6
Continuous
 62
     7
370
    25
100
AcDbCircle
 10
148.5921107882
 20
58.7396607322
 30
0.0
 40
3.174999999999983
  0
CIRCLE
  5
117
330
1F
100
AcDbEntity
  8
0
  6
Continuous
 62
     7
370
    25
100
AcDbCircle
 10
148.5921107882
 20
58.7396607322
 30
0.0
 40
3.075000000000017
  0
SPLINE
  5
118
330
1F
100
AcDbEntity
  8
0
  6
Continuous
 62
     7
370
    25
100
AcDbSpline
210
0.0
220
0.0
230
1.0
 70
    24
 71
     3
 72
    10
 73
     6
 74
     0
 42
0.00000001
 43
0.00000001
 40
0.0
 40
0.0
 40
0.0
 40
0.0
 40
0.3089808900030065
 40
0.6190948628358672
 40
0.9999999999999999
 40
0.9999999999999999
 40
0.9999999999999999
 40
0.9999999999999999
 10
145.6091817214659
 20
66.83242040876848
 30
0.0
 10
145.3485982067495
 20
66.68197244640064
 30
0.0
 10
144.8264755754793
 20
66.38052480468677
 30
0.0
 10
143.9794832647588
 20
65.89151356609078
 30
0.0
 10
143.3964311677526
 20
65.55488828093263
 30
0.0
 10
143.075039854877
 20
65.36933291992875
 30
0.0
  0
LINE
  5
119
330
1F
100
AcDbEntity
  8
0
  6
Continuous
 62
     7
370
    25
100
AcDbLine
 10
145.6091817215
 20
66.8324204088
 30
0.0
 11
145.7388742896
 21
66.4805612924
 31
0.0
  0
LINE
  5
11A
330
1F
100
AcDbEntity
  8
0
  6
Continuous
 62
     7
370
    25
100
AcDbLine
 10
143.0750398549
 20
65.3693329199
 30
0.0
 11
143.3149125042
 21
65.0810863031
 31
0.0
  0
SPLINE
  5
11B
330
1F
100
AcDbEntity
  8
0
  6
Continuous
 62
     7
370
    25
100
AcDbSpline
210
0.0
220
0.0
230
1.0
 70
    24
 71
     3
 72
    10
 73
     6
 74
     0
 42
0.00000001
 43
0.00000001
 40
0.0
 40
0.0
 40
0.0
 40
0.0
 40
0.3089808900029878
 40
0.6190948628358302
 40
0.9999999999999999
 40
0.9999999999999999
 40
0.9999999999999999
 40
0.9999999999999999
 10
154.109181721466
 20
65.36933291992858
 30
0.0
 10
153.8485982067497
 20
65.51978088229644
 30
0.0
 10
153.3264755754794
 20
65.82122852401034
 30
0.0
 10
152.4794832647588
 20
66.31023976260639
 30
0.0
 10
151.8964311677525
 20
66.64686504776459
 30
0.0
 10
151.5750398548768
 20
66.83242040876853
 30
0.0
  0
LINE
  5
11C
330
1F
100
AcDbEntity
  8
0
  6
Continuous
 62
     7
370
    25
100
AcDbLine
 10
154.1091817215
 20
65.3693329199
 30
0.0
 11
153.8693090722
 21
65.0810863031
 31
0.0
  0
LINE
  5
11D
330
1F
100
AcDbEntity
  8
0
  6
Continuous
 62
     7
370
    25
100
AcDbLine
 10
151.5750398549
 20
66.8324204088
 30
0.0
 11
151.4453472868
 21
66.4805612924
 31
0.0
  0
LINE
  5
11E
330
1F
100
AcDbEntity
  8
0
  6
Continuous
 62
     7
370
    25
100
AcDbLine
 10
153.8693090722
 20
52.3982351613
 30
0.0
 11
154.1091817215
 21
52.1099885444
 31
0.0
  0
SPLINE
  5
11F
330
1F
100
AcDbEntity
  8
0
  6
Continuous
 62
     7
370
    25
100
AcDbSpline
210
0.0
220
0.0
230
1.0
 70
    24
 71
     3
 72
    10
 73
     6
 74
     0
 42
0.00000001
 43
0.00000001
 40
0.0
 40
0.0
 40
0.0
 40
0.0
 40
0.308980890002987
 40
0.6190948628358288
 40
1.0
 40
1.0
 40
1.0
 40
1.0
 10
151.5750398548768
 20
50.6469010555931
 30
0.0
 10
151.8356233695932
 20
50.79734901796095
 30
0.0
 10
152.3577460008634
 20
51.09879665967486
 30
0.0
 10
153.204738311584
 20
51.5878078982709
 30
0.0
 10
153.7877904085904
 20
51.92443318342911
 30
0.0
 10
154.109181721466
 20
52.10998854443305
 30
0.0
  0
LINE
  5
120
330
1F
100
AcDbEntity
  8
0
  6
Continuous
 62
     7
370
    25
100
AcDbLine
 10
151.4453472868
 20
50.998760172
 30
0.0
 11
151.5750398549
 21
50.6469010556
 31
0.0
  0
LINE
  5
121
330
1F
100
AcDbEntity
  8
0
  6
Continuous
 62
     7
370
    25
100
AcDbLine
 10
145.7388742896
 20
50.998760172
 30
0.0
 11
145.6091817215
 21
50.6469010556
 31
0.0
  0
SPLINE
  5
122
330
1F
100
AcDbEntity
  8
0
  6
Continuous
 62
     7
370
    25
100
AcDbSpline
210
0.0
220
0.0
230
1.0
 70
    24
 71
     3
 72
    10
 73
     6
 74
     0
 42
0.00000001
 43
0.00000001
 40
0.0
 40
0.0
 40
0.0
 40
0.0
 40
0.3089808900029875
 40
0.6190948628358296
 40
1.0
 40
1.0
 40
1.0
 40
1.0
 10
143.0750398548768
 20
52.10998854443312
 30
0.0
 10
143.3356233695931
 20
51.95954058206527
 30
0.0
 10
143.8577460008634
 20
51.65809294035135
 30
0.0
 10
144.704738311584
 20
51.1690817017553
 30
0.0
 10
145.2877904085903
 20
50.83245641659708
 30
0.0
 10
145.6091817214659
 20
50.64690105559314
 30
0.0
  0
LINE
  5
123
330
1F
100
AcDbEntity
  8
0
  6
Continuous
 62
     7
370
    25
100
AcDbLine
 10
143.3149125042
 20
52.3982351613
 30
0.0
 11
143.0750398549
 21
52.1099885444
 31
0.0
  0
LINE
  5
124
330
1F
100
AcDbEntity
  8
0
  6
Continuous
 62
     7
370
    25
100
AcDbLine
 10
140.4616760056
 20
57.3401857429
 30
0.0
 11
140.0921107882
 21
57.2765732433
 31
0.0
  0
SPLINE
  5
125
330
1F
100
AcDbEntity
  8
0
  6
Continuous
 62
     7
370
    25
100
AcDbSpline
210
0.0
220
0.0
230
1.0
 70
    24
 71
     3
 72
    10
 73
     6
 74
     0
 42
0.00000001
 43
0.00000001
 40
0.0
 40
0.0
 40
0.0
 40
0.0
 40
0.0789477693778934
 40
0.5375793028234309
 40
1.0
 40
1.0
 40
1.0
 40
1.0
 10
140.0921107881714
 20
60.20274822102088
 30
0.0
 10
140.0921107881714
 20
60.12597856665247
 30
0.0
 10
140.0921107881714
 20
59.60323070944807
 30
0.0
 10
140.0921107881714
 20
58.6250590035489
 30
0.0
 10
140.0921107881714
 20
57.72729960945802
 30
0.0
 10
140.0921107881714
 20
57.27657324334096
 30
0.0
  0
LINE
  5
126
330
1F
100
AcDbEntity
  8
0
  6
Continuous
 62
     7
370
    25
100
AcDbLine
 10
140.0921107882
 20
60.202748221
 30
0.0
 11
140.4616760056
 21
60.1391357215
 31
0.0
  0
LINE
  5
127
330
1F
100
AcDbEntity
  8
0
  6
Continuous
 62
     7
370
    25
100
AcDbLine
 10
157.0921107882
 20
60.202748221
 30
0.0
 11
156.7225455708
 21
60.1391357215
 31
0.0
  0
SPLINE
  5
128
330
1F
100
AcDbEntity
  8
0
  6
Continuous
 62
     7
370
    25
100
AcDbSpline
210
0.0
220
0.0
230
1.0
 70
    24
 71
     3
 72
    10
 73
     6
 74
     0
 42
0.00000001
 43
0.00000001
 40
0.0
 40
0.0
 40
0.0
 40
0.0
 40
0.4586421336634355
 40
0.9210522271454904
 40
1.0
 40
1.0
 40
1.0
 40
1.0
 10
157.0921107881714
 20
57.27657324334084
 30
0.0
 10
157.0921107881714
 20
57.72360440009115
 30
0.0
 10
157.0921107881714
 20
58.62133928379995
 30
0.0
 10
157.0921107881714
 20
59.59955658002055
 30
0.0
 10
157.0921107881714
 20
60.12597858738737
 30
0.0
 10
157.0921107881714
 20
60.20274822102076
 30
0.0
  0
LINE
  5
129
330
1F
100
AcDbEntity
  8
0
  6
Continuous
 62
     7
370
    25
100
AcDbLine
 10
156.7225455708
 20
57.3401857429
 30
0.0
 11
157.0921107882
 21
57.2765732433
 31
0.0
  0
ARC
  5
12A
330
1F
100
AcDbEntity
  8
0
  6
Continuous
 62
     7
370
    25
100
AcDbCircle
 10
148.5921107882
 20
58.7396607322
 30
0.0
 40
8.624999999999996
100
AcDbArc
 50
9.766500898
 51
50.233499102
  0
ARC
  5
12B
330
1F
100
AcDbEntity
  8
0
  6
Continuous
 62
     7
370
    25
100
AcDbCircle
 10
148.5921107882
 20
58.7396607322
 30
0.0
 40
8.625000000000005
100
AcDbArc
 50
309.766500898
 51
350.233499102
  0
ARC
  5
12C
330
1F
100
AcDbEntity
  8
0
  6
Continuous
 62
     7
370
    25
100
AcDbCircle
 10
148.5921107882
 20
58.7396607322
 30
0.0
 40
8.625000000000004
100
AcDbArc
 50
69.766500898
 51
110.233499102
  0
ARC
  5
12D
330
1F
100
AcDbEntity
  8
0
  6
Continuous
 62
     7
370
    25
100
AcDbCircle
 10
148.5921107882
 20
58.7396607322
 30
0.0
 40
8.625000000000007
100
AcDbArc
 50
249.766500898
 51
290.233499102
  0
ARC
  5
12E
330
1F
100
AcDbEntity
  8
0
  6
Continuous
 62
     7
370
    25
100
AcDbCircle
 10
148.5921107882
 20
58.7396607322
 30
0.0
 40
8.625000000000016
100
AcDbArc
 50
129.766500898
 51
170.233499102
  0
ARC
  5
12F
330
1F
100
AcDbEntity
  8
0
  6
Continuous
 62
     7
370
    25
100
AcDbCircle
 10
148.5921107882
 20
58.7396607322
 30
0.0
 40
8.625000000000014
100
AcDbArc
 50
189.766500898
 51
230.233499102
  0
SPLINE
  5
130
330
1F
100
AcDbEntity
  8
0
  6
Continuous
 62
     7
370
    25
100
AcDbSpline
210
0.0
220
0.0
230
1.0
 70
    24
 71
     3
 72
    10
 73
     6
 74
     0
 42
0.00000001
 43
0.00000001
 40
0.0
 40
0.0
 40
0.0
 40
0.0
 40
0.4979812754252544
 40
0.7490019773312668
 40
1.0
 40
1.0
 40
1.0
 40
1.0
 10
157.0921107881715
 20
63.64713802029264
 30
0.0
 10
156.6035163841855
 20
63.92922813095849
 30
0.0
 10
155.868632980415
 20
64.35351326194836
 30
0.0
 10
154.8687002741389
 20
64.93082467908836
 30
0.0
 10
154.3623469473378
 20
65.22316790862206
 30
0.0
 10
154.109181721466
 20
65.36933291992858
 30
0.0
  0
SPLINE
  5
131
330
1F
100
AcDbEntity
  8
0
  6
Continuous
 62
     7
370
    25
100
AcDbSpline
210
0.0
220
0.0
230
1.0
 70
    24
 71
     3
 72
    10
 73
     6
 74
     0
 42
0.00000001
 43
0.00000001
 40
0.0
 40
0.0
 40
0.0
 40
0.0
 40
0.2488872038107674
 40
0.4977963221692084
 40
1.0
 40
1.0
 40
1.0
 40
1.0
 10
157.0921107881714
 20
60.20274822102076
 30
0.0
 10
157.0921107881714
 20
60.49262279739025
 30
0.0
 10
157.0921107881714
 20
61.07239747361988
 30
0.0
 10
157.0921107881715
 20
62.22714299358597
 30
0.0
 10
157.0921107881715
 20
63.07814627742807
 30
0.0
 10
157.0921107881715
 20
63.64713802029264
 30
0.0
  0
SPLINE
  5
132
330
1F
100
AcDbEntity
  8
0
  6
Continuous
 62
     7
370
    25
100
AcDbSpline
210
0.0
220
0.0
230
1.0
 70
    24
 71
     3
 72
    10
 73
     6
 74
     0
 42
0.00000001
 43
0.00000001
 40
0.0
 40
0.0
 40
0.0
 40
0.0
 40
0.2488872038107673
 40
0.4977963221692079
 40
1.0
 40
1.0
 40
1.0
 40
1.0
 10
154.109181721466
 20
52.10998854443304
 30
0.0
 10
154.3602204685132
 20
52.25492583261779
 30
0.0
 10
154.862320066599
 20
52.5448131707326
 30
0.0
 10
155.8623590217959
 20
53.12218593071564
 30
0.0
 10
156.5993494843071
 20
53.54768757263668
 30
0.0
 10
157.0921107881714
 20
53.83218344406897
 30
0.0
  0
SPLINE
  5
133
330
1F
100
AcDbEntity
  8
0
  6
Continuous
 62
     7
370
    25
100
AcDbSpline
210
0.0
220
0.0
230
1.0
 70
    24
 71
     3
 72
    10
 73
     6
 74
     0
 42
0.00000001
 43
0.00000001
 40
0.0
 40
0.0
 40
0.0
 40
0.0
 40
0.3273333707077122
 40
0.6629523133412112
 40
1.0
 40
1.0
 40
1.0
 40
1.0
 10
157.0921107881714
 20
53.83218344406897
 30
0.0
 10
157.0921107881714
 20
54.20229823272023
 30
0.0
 10
157.0921107881714
 20
54.95189627952997
 30
0.0
 10
157.0921107881714
 20
56.10110630008623
 30
0.0
 10
157.0921107881714
 20
56.88419650101976
 30
0.0
 10
157.0921107881714
 20
57.27657324334084
 30
0.0
  0
SPLINE
  5
134
330
1F
100
AcDbEntity
  8
0
  6
Continuous
 62
     7
370
    25
100
AcDbSpline
210
0.0
220
0.0
230
1.0
 70
    24
 71
     3
 72
    10
 73
     6
 74
     0
 42
0.00000001
 43
0.00000001
 40
0.0
 40
0.0
 40
0.0
 40
0.0
 40
0.2488872038107672
 40
0.4977963221692081
 40
1.0
 40
1.0
 40
1.0
 40
1.0
 10
145.6091817214659
 20
50.64690105559314
 30
0.0
 10
145.8602204685131
 20
50.5019637674084
 30
0.0
 10
146.3623200665989
 20
50.21207642929358
 30
0.0
 10
147.3623590217958
 20
49.63470366931053
 30
0.0
 10
148.0993494843071
 20
49.20920202738947
 30
0.0
 10
148.5921107881714
 20
48.92470615595718
 30
0.0
  0
SPLINE
  5
135
330
1F
100
AcDbEntity
  8
0
  6
Continuous
 62
     7
370
    25
100
AcDbSpline
210
0.0
220
0.0
230
1.0
 70
    24
 71
     3
 72
    10
 73
     6
 74
     0
 42
0.00000001
 43
0.00000001
 40
0.0
 40
0.0
 40
0.0
 40
0.0
 40
0.4979812754252548
 40
0.7490019773312669
 40
1.0
 40
1.0
 40
1.0
 40
1.0
 10
148.5921107881714
 20
48.92470615595717
 30
0.0
 10
149.0807051921573
 20
49.20679626662302
 30
0.0
 10
149.8155885959278
 20
49.6310813976129
 30
0.0
 10
150.8155213022039
 20
50.2083928147529
 30
0.0
 10
151.321874629005
 20
50.50073604428659
 30
0.0
 10
151.5750398548768
 20
50.6469010555931
 30
0.0
  0
SPLINE
  5
136
330
1F
100
AcDbEntity
  8
0
  6
Continuous
 62
     7
370
    25
100
AcDbSpline
210
0.0
220
0.0
230
1.0
 70
    24
 71
     3
 72
    10
 73
     6
 74
     0
 42
0.00000001
 43
0.00000001
 40
0.0
 40
0.0
 40
0.0
 40
0.0
 40
0.4979812754252543
 40
0.7490019773312669
 40
1.0
 40
1.0
 40
1.0
 40
1.0
 10
148.5921107881714
 20
68.55461530840448
 30
0.0
 10
148.1035163841854
 20
68.27252519773863
 30
0.0
 10
147.3686329804149
 20
67.84824006674873
 30
0.0
 10
146.3687002741388
 20
67.2709286496087
 30
0.0
 10
145.8623469473376
 20
66.97858542007499
 30
0.0
 10
145.6091817214659
 20
66.83242040876848
 30
0.0
  0
SPLINE
  5
137
330
1F
100
AcDbEntity
  8
0
  6
Continuous
 62
     7
370
    25
100
AcDbSpline
210
0.0
220
0.0
230
1.0
 70
    24
 71
     3
 72
    10
 73
     6
 74
     0
 42
0.00000001
 43
0.00000001
 40
0.0
 40
0.0
 40
0.0
 40
0.0
 40
0.2488872038107676
 40
0.4977963221692083
 40
1.0
 40
1.0
 40
1.0
 40
1.0
 10
151.5750398548768
 20
66.83242040876853
 30
0.0
 10
151.3240011078296
 20
66.97735769695328
 30
0.0
 10
150.8219015097439
 20
67.26724503506809
 30
0.0
 10
149.821862554547
 20
67.84461779505115
 30
0.0
 10
149.0848720920357
 20
68.2701194369722
 30
0.0
 10
148.5921107881714
 20
68.55461530840448
 30
0.0
  0
SPLINE
  5
138
330
1F
100
AcDbEntity
  8
0
  6
Continuous
 62
     7
370
    25
100
AcDbSpline
210
0.0
220
0.0
230
1.0
 70
    24
 71
     3
 72
    10
 73
     6
 74
     0
 42
0.00000001
 43
0.00000001
 40
0.0
 40
0.0
 40
0.0
 40
0.0
 40
0.3355445600395946
 40
0.6726666839999049
 40
1.0
 40
1.0
 40
1.0
 40
1.0
 10
140.0921107881714
 20
57.27657324334096
 30
0.0
 10
140.0921107881714
 20
56.88594367703752
 30
0.0
 10
140.0921107881714
 20
56.10284799816062
 30
0.0
 10
140.0921107881714
 20
54.95359602874584
 30
0.0
 10
140.0921107881714
 20
54.20229824698494
 30
0.0
 10
140.0921107881714
 20
53.83218344406909
 30
0.0
  0
SPLINE
  5
139
330
1F
100
AcDbEntity
  8
0
  6
Continuous
 62
     7
370
    25
100
AcDbSpline
210
0.0
220
0.0
230
1.0
 70
    24
 71
     3
 72
    10
 73
     6
 74
     0
 42
0.00000001
 43
0.00000001
 40
0.0
 40
0.0
 40
0.0
 40
0.0
 40
0.4979812754252544
 40
0.7490019773312668
 40
1.0
 40
1.0
 40
1.0
 40
1.0
 10
140.0921107881714
 20
53.83218344406909
 30
0.0
 10
140.5807051921574
 20
53.55009333340323
 30
0.0
 10
141.3155885959278
 20
53.12580820241335
 30
0.0
 10
142.3155213022039
 20
52.54849678527334
 30
0.0
 10
142.821874629005
 20
52.25615355573964
 30
0.0
 10
143.0750398548768
 20
52.10998854443312
 30
0.0
  0
SPLINE
  5
13A
330
1F
100
AcDbEntity
  8
0
  6
Continuous
 62
     7
370
    25
100
AcDbSpline
210
0.0
220
0.0
230
1.0
 70
    24
 71
     3
 72
    10
 73
     6
 74
     0
 42
0.00000001
 43
0.00000001
 40
0.0
 40
0.0
 40
0.0
 40
0.0
 40
0.4979812754252548
 40
0.7490019773312669
 40
1.0
 40
1.0
 40
1.0
 40
1.0
 10
140.0921107881715
 20
63.64713802029276
 30
0.0
 10
140.0921107881715
 20
63.08295779896106
 30
0.0
 10
140.0921107881715
 20
62.2343875369813
 30
0.0
 10
140.0921107881715
 20
61.0797647027013
 30
0.0
 10
140.0921107881714
 20
60.49507824363391
 30
0.0
 10
140.0921107881714
 20
60.20274822102088
 30
0.0
  0
SPLINE
  5
13B
330
1F
100
AcDbEntity
  8
0
  6
Continuous
 62
     7
370
    25
100
AcDbSpline
210
0.0
220
0.0
230
1.0
 70
    24
 71
     3
 72
    10
 73
     6
 74
     0
 42
0.00000001
 43
0.00000001
 40
0.0
 40
0.0
 40
0.0
 40
0.0
 40
0.2488872038107671
 40
0.4977963221692076
 40
0.9999999999999999
 40
0.9999999999999999
 40
0.9999999999999999
 40
0.9999999999999999
 10
143.075039854877
 20
65.36933291992875
 30
0.0
 10
142.8240011078298
 20
65.22439563174399
 30
0.0
 10
142.321901509744
 20
64.93450829362916
 30
0.0
 10
141.3218625545471
 20
64.35713553364612
 30
0.0
 10
140.5848720920358
 20
63.93163389172504
 30
0.0
 10
140.0921107881715
 20
63.64713802029274
 30
0.0
  0
CIRCLE
  5
13C
330
1F
100
AcDbEntity
  8
0
  6
Continuous
 62
     7
370
    25
100
AcDbCircle
 10
148.5921107882
 20
58.7396607322
 30
0.0
 40
2.5
  0
ARC
  5
13D
330
1F
100
AcDbEntity
  8
0
  6
Continuous
 62
     7
370
    25
100
AcDbCircle
 10
148.5921107882
 20
58.7396607322
 30
0.0
 40
8.599661526404503
100
AcDbArc
 50
180.0
 51
189.8193556077
  0
ARC
  5
13E
330
1F
100
AcDbEntity
  8
0
  6
Continuous
 62
     7
370
    25
100
AcDbCircle
 10
148.5921107882
 20
58.7396607322
 30
0.0
 40
8.599661526404502
100
AcDbArc
 50
232.2248307496
 51
249.7925313405
  0
ARC
  5
13F
330
1F
100
AcDbEntity
  8
0
  6
Continuous
 62
     7
370
    25
100
AcDbCircle
 10
148.5921107882
 20
58.7396607322
 30
0.0
 40
8.59966152640451
100
AcDbArc
 50
290.1695107137
 51
309.8086299532
  0
ARC
  5
140
330
1F
100
AcDbEntity
  8
0
  6
Continuous
 62
     7
370
    25
100
AcDbCircle
 10
148.5921107882
 20
58.7396607322
 30
0.0
 40
8.59966152640452
100
AcDbArc
 50
352.2193416481
 51
9.8079049865
  0
ARC
  5
141
330
1F
100
AcDbEntity
  8
0
  6
Continuous
 62
     7
370
    25
100
AcDbCircle
 10
148.5921107882
 20
58.7396607322
 30
0.0
 40
8.599661526404518
100
AcDbArc
 50
50.157982626
 51
69.7983265158
  0
ARC
  5
142
330
1F
100
AcDbEntity
  8
0
  6
Continuous
 62
     7
370
    25
100
AcDbCircle
 10
148.5921107882
 20
58.7396607322
 30
0.0
 40
8.599661526404502
100
AcDbArc
 50
112.2120946375
 51
129.8248253909
  0
ARC
  5
143
330
1F
100
AcDbEntity
  8
0
  6
Continuous
 62
     7
370
    25
100
AcDbCircle
 10
148.5921107882
 20
58.7396607322
 30
0.0
 40
8.599661526404525
100
AcDbArc
 50
170.146073196
 51
180.0
  0
LINE
  5
144
330
1F
100
AcDbEntity
  8
0
  6
Continuous
 62
     7
370
    25
100
AcDbLine
 10
138.2853485609
 20
85.0432694592
 30
0.0
 11
158.8988730155
 21
85.0432694592
 31
0.0
  0
LINE
  5
145
330
1F
100
AcDbEntity
  8
0
  6
Continuous
 62
     7
370
    25
100
AcDbLine
 10
159.2414977115
 20
74.0792791868
 30
0.0
 11
137.9427238649
 21
74.0792791868
 31
0.0
  0
LINE
  5
146
330
1F
100
AcDbEntity
  8
0
  6
Continuous
 62
     7
370
    25
100
AcDbLine
 10
139.8421107882
 20
87.7396607322
 30
0.0
 11
157.3421107882
 21
87.7396607322
 31
0.0
  0
SPLINE
  5
147
330
1F
100
AcDbEntity
  8
0
  6
Continuous
 62
     7
370
    25
100
AcDbSpline
210
0.0
220
0.0
230
1.0
 70
     8
 71
     3
 72
    10
 73
     6
 74
     0
 42
0.00000001
 43
0.00000001
 40
0.0
 40
0.0
 40
0.0
 40
0.0
 40
0.0646976188400587
 40
0.5221520616908167
 40
1.0
 40
1.0
 40
1.0
 40
1.0
 10
144.0333150411184
 20
66.01566750226552
 30
0.0
 10
144.0345824616069
 20
66.02036244224469
 30
0.0
 10
144.0448113731643
 20
66.05825367585705
 30
0.0
 10
144.0212900384415
 20
66.15165072647443
 30
0.0
 10
143.9689565985838
 20
66.23234802489189
 30
0.0
 10
143.942219334952
 20
66.27357644305125
 30
0.0
  0
SPLINE
  5
148
330
1F
100
AcDbEntity
  8
0
  6
Continuous
 62
     7
370
    25
100
AcDbSpline
210
0.0
220
0.0
230
1.0
 70
     8
 71
     3
 72
    10
 73
     6
 74
     0
 42
0.00000001
 43
0.00000001
 40
0.0
 40
0.0
 40
0.0
 40
0.0
 40
0.4515079418914573
 40
0.9030212823325154
 40
1.0
 40
1.0
 40
1.0
 40
1.0
 10
153.2420022413909
 20
66.27357644305125
 30
0.0
 10
153.2161529159219
 20
66.23416953750103
 30
0.0
 10
153.1644539559109
 20
66.15535525522363
 30
0.0
 10
153.1399654908635
 20
66.06098221213911
 30
0.0
 10
153.1503896032504
 20
66.020442961194
 30
0.0
 10
153.1522326874613
 20
66.01327522829115
 30
0.0
  0
SPLINE
  5
149
330
1F
100
AcDbEntity
  8
0
  6
Continuous
 62
     7
370
    25
100
AcDbSpline
210
0.0
220
0.0
230
1.0
 70
    24
 71
     3
 72
     8
 73
     4
 74
     0
 42
0.00000001
 43
0.00000001
 40
0.0
 40
0.0
 40
0.0
 40
0.0
 40
1.0
 40
1.0
 40
1.0
 40
1.0
 10
156.5921107881714
 20
67.23966073218082
 30
0.0
 10
156.9221370417862
 20
67.23966073218082
 30
0.0
 10
157.0921107881714
 20
67.23966073218082
 30
0.0
 10
157.0921107881714
 20
67.23966073218082
 30
0.0
  0
LINE
  5
14A
330
1F
100
AcDbEntity
  8
0
  6
Continuous
 62
     7
370
    25
100
AcDbLine
 10
153.4139361687
 20
66.7396607322
 30
0.0
 11
153.4139361687
 21
67.2396607322
 31
0.0
  0
SPLINE
  5
14B
330
1F
100
AcDbEntity
  8
0
  6
Continuous
 62
     7
370
    25
100
AcDbSpline
210
0.0
220
0.0
230
1.0
 70
     8
 71
     3
 72
    10
 73
     6
 74
     0
 42
0.00000001
 43
0.00000001
 40
0.0
 40
0.0
 40
0.0
 40
0.0
 40
0.5000000000000023
 40
0.5000000000000023
 40
1.0
 40
1.0
 40
1.0
 40
1.0
 10
153.2421155011271
 20
66.27350496953997
 30
0.0
 10
153.2930404381871
 20
66.33666715067906
 30
0.0
 10
153.3360033726549
 20
66.40777123615906
 30
0.0
 10
153.3968973478108
 20
66.56601204572746
 30
0.0
 10
153.413936168668
 20
66.6515650167565
 30
0.0
 10
153.413936168668
 20
66.73966073218082
 30
0.0
  0
SPLINE
  5
14C
330
1F
100
AcDbEntity
  8
0
  6
Continuous
 62
     7
370
    25
100
AcDbSpline
210
0.0
220
0.0
230
1.0
 70
     8
 71
     3
 72
     8
 73
     4
 74
     0
 42
0.00000001
 43
0.00000001
 40
0.0
 40
0.0
 40
0.0
 40
0.0
 40
1.0
 40
1.0
 40
1.0
 40
1.0
 10
143.7702854076749
 20
66.73966073218082
 30
0.0
 10
143.7702854076749
 20
66.56340582447872
 30
0.0
 10
143.8401607365904
 20
66.39994773640946
 30
0.0
 10
143.9421060752156
 20
66.27350496953984
 30
0.0
  0
LINE
  5
14D
330
1F
100
AcDbEntity
  8
0
  6
Continuous
 62
     7
370
    25
100
AcDbLine
 10
143.7702854077
 20
67.2396607322
 30
0.0
 11
143.7702854077
 21
66.7396607322
 31
0.0
  0
SPLINE
  5
14E
330
1F
100
AcDbEntity
  8
0
  6
Continuous
 62
     7
370
    25
100
AcDbSpline
210
0.0
220
0.0
230
1.0
 70
    24
 71
     3
 72
     8
 73
     4
 74
     0
 42
0.00000001
 43
0.00000001
 40
0.0
 40
0.0
 40
0.0
 40
0.0
 40
1.0
 40
1.0
 40
1.0
 40
1.0
 10
140.0921107881714
 20
67.23966073218082
 30
0.0
 10
140.0921107881714
 20
67.23966073218082
 30
0.0
 10
140.2620845345566
 20
67.23966073218082
 30
0.0
 10
140.5921107881714
 20
67.23966073218082
 30
0.0
  0
LINE
  5
14F
330
1F
100
AcDbEntity
  8
0
  6
Continuous
 62
     7
370
    25
100
AcDbLine
 10
157.0921107882
 20
63.6680521222
 30
0.0
 11
157.0921107882
 21
65.2396607322
 31
0.0
  0
LINE
  5
150
330
1F
100
AcDbEntity
  8
0
  6
Continuous
 62
     7
370
    25
100
AcDbLine
 10
156.5921107882
 20
65.2396607322
 30
0.0
 11
157.0921107882
 21
65.2396607322
 31
0.0
  0
LINE
  5
151
330
1F
100
AcDbEntity
  8
0
  6
Continuous
 62
     7
370
    25
100
AcDbLine
 10
140.0921107882
 20
52.2396607322
 30
0.0
 11
140.5921107882
 21
52.2396607322
 31
0.0
  0
LINE
  5
152
330
1F
100
AcDbEntity
  8
0
  6
Continuous
 62
     7
370
    25
100
AcDbLine
 10
140.0921107882
 20
53.8112693422
 30
0.0
 11
140.0921107882
 21
52.2396607322
 31
0.0
  0
LINE
  5
153
330
1F
100
AcDbEntity
  8
0
  6
Continuous
 62
     7
370
    25
100
AcDbLine
 10
156.5921107882
 20
52.2396607322
 30
0.0
 11
157.0921107882
 21
52.2396607322
 31
0.0
  0
LINE
  5
154
330
1F
100
AcDbEntity
  8
0
  6
Continuous
 62
     7
370
    25
100
AcDbLine
 10
157.0921107882
 20
52.2396607322
 30
0.0
 11
157.0921107882
 21
53.8112693422
 31
0.0
  0
LINE
  5
155
330
1F
100
AcDbEntity
  8
0
  6
Continuous
 62
     7
370
    25
100
AcDbLine
 10
140.0921107882
 20
65.2396607322
 30
0.0
 11
140.5921107882
 21
65.2396607322
 31
0.0
  0
LINE
  5
156
330
1F
100
AcDbEntity
  8
0
  6
Continuous
 62
     7
370
    25
100
AcDbLine
 10
140.0921107882
 20
65.2396607322
 30
0.0
 11
140.0921107882
 21
63.6680521222
 31
0.0
  0
LINE
  5
157
330
1F
100
AcDbEntity
  8
0
  6
Continuous
 62
     7
370
    25
100
AcDbLine
 10
156.5921107882
 20
51.7396607322
 30
0.0
 11
156.5921107882
 21
52.2396607322
 31
0.0
  0
LINE
  5
158
330
1F
100
AcDbEntity
  8
0
  6
Continuous
 62
     7
370
    25
100
AcDbLine
 10
156.5921107882
 20
51.7396607322
 30
0.0
 11
153.5875265235
 21
51.7396607322
 31
0.0
  0
ARC
  5
159
330
1F
100
AcDbEntity
  8
0
  6
Continuous
 62
     7
370
    25
100
AcDbCircle
 10
156.5921107882
 20
52.2396607322
 30
0.0
 40
0.5
100
AcDbArc
 50
270.0
 51
0.0
  0
ARC
  5
15A
330
1F
100
AcDbEntity
  8
0
  6
Continuous
 62
     7
370
    25
100
AcDbCircle
 10
156.5921107882
 20
65.2396607322
 30
0.0
 40
0.5
100
AcDbArc
 50
0.0
 51
90.0
  0
LINE
  5
15B
330
1F
100
AcDbEntity
  8
0
  6
Continuous
 62
     7
370
    25
100
AcDbLine
 10
156.5921107882
 20
65.7396607322
 30
0.0
 11
156.5921107882
 21
65.2396607322
 31
0.0
  0
LINE
  5
15C
330
1F
100
AcDbEntity
  8
0
  6
Continuous
 62
     7
370
    25
100
AcDbLine
 10
153.5875265235
 20
65.7396607322
 30
0.0
 11
156.5921107882
 21
65.7396607322
 31
0.0
  0
LINE
  5
15D
330
1F
100
AcDbEntity
  8
0
  6
Continuous
 62
     7
370
    25
100
AcDbLine
 10
143.5966950528
 20
51.7396607322
 30
0.0
 11
140.5921107882
 21
51.7396607322
 31
0.0
  0
LINE
  5
15E
330
1F
100
AcDbEntity
  8
0
  6
Continuous
 62
     7
370
    25
100
AcDbLine
 10
140.5921107882
 20
52.2396607322
 30
0.0
 11
140.5921107882
 21
51.7396607322
 31
0.0
  0
LINE
  5
15F
330
1F
100
AcDbEntity
  8
0
  6
Continuous
 62
     7
370
    25
100
AcDbLine
 10
140.5921107882
 20
65.7396607322
 30
0.0
 11
140.5921107882
 21
65.2396607322
 31
0.0
  0
LINE
  5
160
330
1F
100
AcDbEntity
  8
0
  6
Continuous
 62
     7
370
    25
100
AcDbLine
 10
140.5921107882
 20
65.7396607322
 30
0.0
 11
143.5966950528
 21
65.7396607322
 31
0.0
  0
ARC
  5
161
330
1F
100
AcDbEntity
  8
0
  6
Continuous
 62
     7
370
    25
100
AcDbCircle
 10
140.5921107882
 20
52.2396607322
 30
0.0
 40
0.5
100
AcDbArc
 50
180.0
 51
270.0
  0
ARC
  5
162
330
1F
100
AcDbEntity
  8
0
  6
Continuous
 62
     7
370
    25
100
AcDbCircle
 10
140.5921107882
 20
65.2396607322
 30
0.0
 40
0.5000000000000142
100
AcDbArc
 50
90.0
 51
180.0
  0
LINE
  5
163
330
1F
100
AcDbEntity
  8
0
  6
Continuous
 62
     7
370
    25
100
AcDbLine
 10
156.5921107882
 20
66.7396607322
 30
0.0
 11
153.4139361687
 21
66.7396607322
 31
0.0
  0
LINE
  5
164
330
1F
100
AcDbEntity
  8
0
  6
Continuous
 62
     7
370
    25
100
AcDbLine
 10
156.5921107882
 20
66.7396607322
 30
0.0
 11
156.5921107882
 21
65.7396607322
 31
0.0
  0
LINE
  5
165
330
1F
100
AcDbEntity
  8
0
  6
Continuous
 62
     7
370
    25
100
AcDbLine
 10
143.7702854077
 20
66.7396607322
 30
0.0
 11
140.5921107882
 21
66.7396607322
 31
0.0
  0
LINE
  5
166
330
1F
100
AcDbEntity
  8
0
  6
Continuous
 62
     7
370
    25
100
AcDbLine
 10
140.5921107882
 20
65.7396607322
 30
0.0
 11
140.5921107882
 21
66.7396607322
 31
0.0
  0
LINE
  5
167
330
1F
100
AcDbEntity
  8
0
  6
Continuous
 62
     7
370
    25
100
AcDbLine
 10
157.0921107882
 20
66.7396607322
 30
0.0
 11
156.5921107882
 21
66.7396607322
 31
0.0
  0
LINE
  5
168
330
1F
100
AcDbEntity
  8
0
  6
Continuous
 62
     7
370
    25
100
AcDbLine
 10
157.0921107882
 20
65.2396607322
 30
0.0
 11
157.0921107882
 21
66.7396607322
 31
0.0
  0
LINE
  5
169
330
1F
100
AcDbEntity
  8
0
  6
Continuous
 62
     7
370
    25
100
AcDbLine
 10
140.0921107882
 20
66.7396607322
 30
0.0
 11
140.5921107882
 21
66.7396607322
 31
0.0
  0
LINE
  5
16A
330
1F
100
AcDbEntity
  8
0
  6
Continuous
 62
     7
370
    25
100
AcDbLine
 10
140.0921107882
 20
66.7396607322
 30
0.0
 11
140.0921107882
 21
65.2396607322
 31
0.0
  0
LINE
  5
16B
330
1F
100
AcDbEntity
  8
0
  6
Continuous
 62
     7
370
    25
100
AcDbLine
 10
156.5921107882
 20
67.2396607322
 30
0.0
 11
156.5921107882
 21
66.7396607322
 31
0.0
  0
ARC
  5
16C
330
1F
100
AcDbEntity
  8
0
  6
Continuous
 62
     7
370
    25
100
AcDbCircle
 10
156.5921107882
 20
66.7396607322
 30
0.0
 40
0.5
100
AcDbArc
 50
0.0
 51
90.0
  0
LINE
  5
16D
330
1F
100
AcDbEntity
  8
0
  6
Continuous
 62
     7
370
    25
100
AcDbLine
 10
156.5921107882
 20
67.2396607322
 30
0.0
 11
153.4139361687
 21
67.2396607322
 31
0.0
  0
LINE
  5
16E
330
1F
100
AcDbEntity
  8
0
  6
Continuous
 62
     7
370
    25
100
AcDbLine
 10
140.5921107882
 20
66.7396607322
 30
0.0
 11
140.5921107882
 21
67.2396607322
 31
0.0
  0
LINE
  5
16F
330
1F
100
AcDbEntity
  8
0
  6
Continuous
 62
     7
370
    25
100
AcDbLine
 10
143.7702854077
 20
67.2396607322
 30
0.0
 11
140.5921107882
 21
67.2396607322
 31
0.0
  0
ARC
  5
170
330
1F
100
AcDbEntity
  8
0
  6
Continuous
 62
     7
370
    25
100
AcDbCircle
 10
140.5921107882
 20
66.7396607322
 30
0.0
 40
0.5
100
AcDbArc
 50
90.0
 51
180.0
  0
LINE
  5
171
330
1F
100
AcDbEntity
  8
0
  6
Continuous
 62
     7
370
    25
100
AcDbLine
 10
150.0921107882
 20
56.7396607322
 30
0.0
 11
147.0921107882
 21
56.7396607322
 31
0.0
  0
SPLINE
  5
172
330
1F
100
AcDbEntity
  8
0
  6
Continuous
 62
     7
370
    25
100
AcDbSpline
210
0.0
220
0.0
230
1.0
 70
    24
 71
     3
 72
    10
 73
     6
 74
     0
 42
0.00000001
 43
0.00000001
 40
-0.2904940295525327
 40
-0.2904940295525327
 40
-0.2904940295525327
 40
-0.2904940295525327
 40
-0.130307291676468
 40
-0.130307291676468
 40
0.0010563446871674
 40
0.0010563446871674
 40
0.0010563446871674
 40
0.0010563446871674
 10
140.0921107881714
 20
67.23966073218082
 30
0.0
 10
140.0921107881714
 20
67.11015743019928
 30
0.0
 10
140.0921107881714
 20
66.97836642781317
 30
0.0
 10
140.0921107881714
 20
66.79994249881624
 30
0.0
 10
140.0921107881714
 20
66.73966073218082
 30
0.0
 10
140.0921107881714
 20
66.73966073218082
 30
0.0
  0
SPLINE
  5
173
330
1F
100
AcDbEntity
  8
0
  6
Continuous
 62
     7
370
    25
100
AcDbSpline
210
0.0
220
0.0
230
1.0
 70
    24
 71
     3
 72
    10
 73
     6
 74
     0
 42
0.00000001
 43
0.00000001
 40
-0.8711658249912583
 40
-0.8711658249912583
 40
-0.8711658249912583
 40
-0.8711658249912583
 40
-0.7398021886276228
 40
-0.7398021886276228
 40
-0.5796154507864709
 40
-0.5796154507864709
 40
-0.5796154507864709
 40
-0.5796154507864709
 10
157.0921107881714
 20
66.73966073218082
 30
0.0
 10
157.0921107881714
 20
66.73966073218082
 30
0.0
 10
157.0921107881714
 20
66.79994249881624
 30
0.0
 10
157.0921107881714
 20
66.9783664277918
 30
0.0
 10
157.0921107881714
 20
67.11015743022752
 30
0.0
 10
157.0921107881714
 20
67.23966073218082
 30
0.0
  0
LINE
  5
174
330
1F
100
AcDbEntity
  8
0
  6
Continuous
 62
     7
370
    25
100
AcDbLine
 10
148.5921107882
 20
73.4722321196
 30
0.0
 11
158.4671107882
 21
73.4722321196
 31
0.0
  0
LINE
  5
175
330
1F
100
AcDbEntity
  8
0
  6
Continuous
 62
     7
370
    25
100
AcDbLine
 10
138.7171107882
 20
73.4722321196
 30
0.0
 11
148.5921107882
 21
73.4722321196
 31
0.0
  0
LINE
  5
176
330
1F
100
AcDbEntity
  8
0
  6
Continuous
 62
     7
370
    25
100
AcDbLine
 10
148.5921107882
 20
71.2396607322
 30
0.0
 11
157.0921107882
 21
71.2396607322
 31
0.0
  0
LINE
  5
177
330
1F
100
AcDbEntity
  8
0
  6
Continuous
 62
     7
370
    25
100
AcDbLine
 10
140.0921107882
 20
71.2396607322
 30
0.0
 11
148.5921107882
 21
71.2396607322
 31
0.0
  0
SPLINE
  5
178
330
1F
100
AcDbEntity
  8
0
  6
Continuous
 62
     7
370
    25
100
AcDbSpline
210
0.0
220
0.0
230
1.0
 70
     8
 71
     3
 72
    12
 73
     8
 74
     0
 42
0.00000001
 43
0.00000001
 40
0.0
 40
0.0
 40
0.0
 40
0.0
 40
0.2762854709396876
 40
0.538911672265506
 40
0.7894427107211119
 40
0.976693674214743
 40
1.0
 40
1.0
 40
1.0
 40
1.0
 10
153.242115501127
 20
66.2735049695397
 30
0.0
 10
153.007562809112
 20
66.42608973367972
 30
0.0
 10
152.5500534690142
 20
66.72371562810429
 30
0.0
 10
151.8006932909874
 20
67.08903781050039
 30
0.0
 10
151.0882777460443
 20
67.35005015931584
 30
0.0
 10
150.6003007257783
 20
67.49520291410424
 30
0.0
 10
150.3683077319854
 20
67.53909495650599
 30
0.0
 10
150.3426287145942
 20
67.54395331236296
 30
0.0
  0
SPLINE
  5
179
330
1F
100
AcDbEntity
  8
0
  6
Continuous
 62
     7
370
    25
100
AcDbSpline
210
0.0
220
0.0
230
1.0
 70
     8
 71
     3
 72
    12
 73
     8
 74
     0
 42
0.00000001
 43
0.00000001
 40
0.0
 40
0.0
 40
0.0
 40
0.0
 40
0.0233123233413275
 40
0.2105590973491365
 40
0.4610951676589313
 40
0.7237207997643562
 40
0.9999999999999999
 40
0.9999999999999999
 40
0.9999999999999999
 40
0.9999999999999999
 10
146.841599715796
 20
67.54395726954915
 30
0.0
 10
146.815914038816
 20
67.53909764750237
 30
0.0
 10
146.5839185881476
 20
67.49520508404383
 30
0.0
 10
146.0959341724711
 20
67.35004633123998
 30
0.0
 10
145.3835183841659
 20
67.08902962482657
 30
0.0
 10
144.6341585214689
 20
66.72370879617681
 30
0.0
 10
144.176653967141
 20
66.42608640906222
 30
0.0
 10
143.9421060752158
 20
66.2735049695397
 30
0.0
  0
LINE
  5
17A
330
1F
100
AcDbEntity
  8
0
  6
Continuous
 62
     7
370
    25
100
AcDbLine
 10
156.5921107882
 20
65.2396607322
 30
0.0
 11
156.5921107882
 21
63.9358131549
 31
0.0
  0
LINE
  5
17B
330
1F
100
AcDbEntity
  8
0
  6
Continuous
 62
     7
370
    25
100
AcDbLine
 10
154.333780539
 20
65.2396607322
 30
0.0
 11
156.5921107882
 21
65.2396607322
 31
0.0
  0
LINE
  5
17C
330
1F
100
AcDbEntity
  8
0
  6
Continuous
 62
     7
370
    25
100
AcDbLine
 10
140.5921107882
 20
52.2396607322
 30
0.0
 11
142.8504410374
 21
52.2396607322
 31
0.0
  0
LINE
  5
17D
330
1F
100
AcDbEntity
  8
0
  6
Continuous
 62
     7
370
    25
100
AcDbLine
 10
140.5921107882
 20
52.2396607322
 30
0.0
 11
140.5921107882
 21
53.5435083095
 31
0.0
  0
LINE
  5
17E
330
1F
100
AcDbEntity
  8
0
  6
Continuous
 62
     7
370
    25
100
AcDbLine
 10
156.5921107882
 20
53.5435083095
 30
0.0
 11
156.5921107882
 21
52.2396607322
 31
0.0
  0
LINE
  5
17F
330
1F
100
AcDbEntity
  8
0
  6
Continuous
 62
     7
370
    25
100
AcDbLine
 10
154.333780539
 20
52.2396607322
 30
0.0
 11
156.5921107882
 21
52.2396607322
 31
0.0
  0
LINE
  5
180
330
1F
100
AcDbEntity
  8
0
  6
Continuous
 62
     7
370
    25
100
AcDbLine
 10
140.5921107882
 20
63.9358131549
 30
0.0
 11
140.5921107882
 21
65.2396607322
 31
0.0
  0
LINE
  5
181
330
1F
100
AcDbEntity
  8
0
  6
Continuous
 62
     7
370
    25
100
AcDbLine
 10
140.5921107882
 20
65.2396607322
 30
0.0
 11
142.8504410374
 21
65.2396607322
 31
0.0
  0
INSERT
  5
18D
330
1F
100
AcDbEntity
  8
FORMAT
100
AcDbBlockReference
  2
SW_CENTERMARKSYMBOL_0
 10
148.5921107882
 20
58.7396607322
 30
0.0
  0
LINE
  5
18E
330
1F
100
AcDbEntity
  8
FORMAT
100
AcDbLine
 10
157.9399709169
 20
86.7041366134
 30
0.0
 11
158.3294857882
 21
74.2396607322
 31
0.0
  0
LINE
  5
18F
330
1F
100
AcDbEntity
  8
FORMAT
100
AcDbLine
 10
139.2442506595
 20
86.7041366134
 30
0.0
 11
138.8547357882
 21
74.2396607322
 31
0.0
  0
LINE
  5
190
330
1F
100
AcDbEntity
  8
FORMAT
100
AcDbLine
 10
137.9477357882
 20
74.2396607322
 30
0.0
 11
159.2364857882
 21
74.2396607322
 31
0.0
  0
LINE
  5
191
330
1F
100
AcDbEntity
  8
0
  6
Continuous
 62
     7
370
    25
100
AcDbLine
 10
111.0038875577
 20
122.1033798062
 30
0.0
 11
110.8595499904
 21
121.8533798062
 31
0.0
  0
LINE
  5
192
330
1F
100
AcDbEntity
  8
0
  6
Continuous
 62
     7
370
    25
100
AcDbLine
 10
110.8595499904
 20
105.3533798062
 30
0.0
 11
111.0038875577
 21
105.1033798062
 31
0.0
  0
LINE
  5
193
330
1F
100
AcDbEntity
  8
0
  6
Continuous
 62
     7
370
    25
100
AcDbLine
 10
123.6595499904
 20
121.8533798062
 30
0.0
 11
122.7758657849
 21
121.8533798062
 31
0.0
  0
LINE
  5
194
330
1F
100
AcDbEntity
  8
0
  6
Continuous
 62
     7
370
    25
100
AcDbLine
 10
122.7758657849
 20
105.3533798062
 30
0.0
 11
123.6595499904
 21
105.3533798062
 31
0.0
  0
LINE
  5
195
330
1F
100
AcDbEntity
  8
0
  6
Continuous
 62
     7
370
    25
100
AcDbLine
 10
123.6595499904
 20
105.3533798062
 30
0.0
 11
123.8595499904
 21
105.5533798062
 31
0.0
  0
LINE
  5
196
330
1F
100
AcDbEntity
  8
0
  6
Continuous
 62
     7
370
    25
100
AcDbLine
 10
123.8595499904
 20
121.6533798062
 30
0.0
 11
123.6595499904
 21
121.8533798062
 31
0.0
  0
SPLINE
  5
197
330
1F
100
AcDbEntity
  8
0
  6
Continuous
 62
     7
370
    25
100
AcDbSpline
210
0.0
220
0.0
230
1.0
 70
     8
 71
     3
 72
    13
 73
     9
 74
     0
 42
0.00000001
 43
0.00000001
 40
0.0
 40
0.0
 40
0.0
 40
0.0
 40
0.1077920096001168
 40
0.3010894401195292
 40
0.5118303061222308
 40
0.7402035108428657
 40
0.9804284052752072
 40
1.0
 40
1.0
 40
1.0
 40
1.0
 10
122.2168310581828
 20
105.1011149547576
 30
0.0
 10
122.2310244883578
 20
105.1172399242709
 30
0.0
 10
122.2706702094149
 20
105.1622809069998
 30
0.0
 10
122.3564996462779
 20
105.2291779916449
 30
0.0
 10
122.4735951175565
 20
105.2952534107705
 30
0.0
 10
122.6116612893727
 20
105.3382880764866
 30
0.0
 10
122.7159437478055
 20
105.3577737164995
 30
0.0
 10
122.771081708621
 20
105.3524849196484
 30
0.0
 10
122.7752354900155
 20
105.3520864916755
 30
0.0
  0
SPLINE
  5
198
330
1F
100
AcDbEntity
  8
0
  6
Continuous
 62
     7
370
    25
100
AcDbSpline
210
0.0
220
0.0
230
1.0
 70
     8
 71
     3
 72
    13
 73
     9
 74
     0
 42
0.00000001
 43
0.00000001
 40
0.0
 40
0.0
 40
0.0
 40
0.0
 40
0.0698701317502396
 40
0.2902312856895072
 40
0.4948672597216732
 40
0.6846517311521654
 40
0.8592200652517966
 40
1.0
 40
1.0
 40
1.0
 40
1.0
 10
122.7754440022372
 20
121.8567417276934
 30
0.0
 10
122.7604299012498
 20
121.8557788094712
 30
0.0
 10
122.6980633116373
 20
121.8517789745393
 30
0.0
 10
122.5923220854003
 20
121.8730678529205
 30
0.0
 10
122.4672217404028
 20
121.9154312465207
 30
0.0
 10
122.3608459664648
 20
121.9751735900731
 30
0.0
 10
122.275222298654
 20
122.0408217620294
 30
0.0
 10
122.2317877875118
 20
122.0880306328885
 30
0.0
 10
122.2123974554616
 20
122.1091059404631
 30
0.0
  0
LINE
  5
199
330
1F
100
AcDbEntity
  8
0
  6
Continuous
 62
     7
370
    25
100
AcDbLine
 10
105.3729710263
 20
105.0037182797
 30
0.0
 11
106.4741325527
 21
106.1048798062
 31
0.0
  0
LINE
  5
19A
330
1F
100
AcDbEntity
  8
0
  6
Continuous
 62
     7
370
    25
100
AcDbLine
 10
106.4741325527
 20
121.1018798062
 30
0.0
 11
105.3729710263
 21
122.2030413326
 31
0.0
  0
ARC
  5
19B
330
1F
100
AcDbEntity
  8
0
  6
Continuous
 62
     7
370
    25
100
AcDbCircle
 10
104.6741325527
 20
102.6033798062
 30
0.0
 40
2.5
100
AcDbArc
 50
73.7675227363
 51
90.0
  0
ARC
  5
19C
330
1F
100
AcDbEntity
  8
0
  6
Continuous
 62
     7
370
    25
100
AcDbCircle
 10
104.6741325527
 20
124.6033798062
 30
0.0
 40
2.5
100
AcDbArc
 50
270.0
 51
286.2324772637
  0
LINE
  5
19D
330
1F
100
AcDbEntity
  8
0
  6
Continuous
 62
     7
370
    25
100
AcDbLine
 10
104.6741325527
 20
122.1033798062
 30
0.0
 11
100.6741325527
 21
122.1033798062
 31
0.0
  0
LINE
  5
19E
330
1F
100
AcDbEntity
  8
0
  6
Continuous
 62
     7
370
    25
100
AcDbLine
 10
100.6741325527
 20
105.1033798062
 30
0.0
 11
104.6741325527
 21
105.1033798062
 31
0.0
  0
LINE
  5
19F
330
1F
100
AcDbEntity
  8
0
  6
Continuous
 62
     7
370
    25
100
AcDbLine
 10
110.8595499904
 20
120.1818798062
 30
0.0
 11
106.4741325527
 21
120.1818798062
 31
0.0
  0
LINE
  5
1A0
330
1F
100
AcDbEntity
  8
0
  6
Continuous
 62
     7
370
    25
100
AcDbLine
 10
106.4741325527
 20
107.0248798062
 30
0.0
 11
110.8595499904
 21
107.0248798062
 31
0.0
  0
SPLINE
  5
1A1
330
1F
100
AcDbEntity
  8
0
  6
Continuous
 62
     7
370
    25
100
AcDbSpline
210
0.0
220
0.0
230
1.0
 70
     8
 71
     3
 72
    10
 73
     6
 74
     0
 42
0.00000001
 43
0.00000001
 40
0.0
 40
0.0
 40
0.0
 40
0.0
 40
0.3089808900029878
 40
0.6190948628358302
 40
0.9999999999999999
 40
0.9999999999999999
 40
0.9999999999999999
 40
0.9999999999999999
 10
122.1430436395
 20
119.1204507394452
 30
0.0
 10
122.1671906460367
 20
118.8598672247289
 30
0.0
 10
122.2155732100833
 20
118.3377445934586
 30
0.0
 10
122.2230283028
 20
117.490752282738
 30
0.0
 10
122.1714659550004
 20
116.9077001857317
 30
0.0
 10
122.1430436395
 20
116.5863088728561
 30
0.0
  0
SPLINE
  5
1A2
330
1F
100
AcDbEntity
  8
0
  6
Continuous
 62
     7
370
    25
100
AcDbSpline
210
0.0
220
0.0
230
1.0
 70
     8
 71
     3
 72
    10
 73
     6
 74
     0
 42
0.00000001
 43
0.00000001
 40
0.0
 40
0.0
 40
0.0
 40
0.0
 40
0.2488872038107676
 40
0.4977963221692083
 40
1.0
 40
1.0
 40
1.0
 40
1.0
 10
122.1430436395
 20
116.5863088728561
 30
0.0
 10
122.1097037982494
 20
116.3352701258088
 30
0.0
 10
122.0430211801711
 20
115.8331705277231
 30
0.0
 10
121.8357325899228
 20
114.8331315725262
 30
0.0
 10
121.608172588723
 20
114.0961411100149
 30
0.0
 10
121.4560230445939
 20
113.6033798061506
 30
0.0
  0
LINE
  5
1A3
330
1F
100
AcDbEntity
  8
0
  6
Continuous
 62
     7
370
    25
100
AcDbLine
 10
111.7630769363
 20
113.6033798062
 30
0.0
 11
121.4560230446
 21
113.6033798062
 31
0.0
  0
SPLINE
  5
1A4
330
1F
100
AcDbEntity
  8
0
  6
Continuous
 62
     7
370
    25
100
AcDbSpline
210
0.0
220
0.0
230
1.0
 70
     8
 71
     3
 72
    15
 73
    11
 74
     0
 42
0.00000001
 43
0.00000001
 40
0.0
 40
0.0
 40
0.0
 40
0.0
 40
0.1323052378296955
 40
0.2645730682660302
 40
0.399799781974681
 40
0.5350020935366634
 40
0.6501929590834553
 40
0.7654017933211805
 40
0.8826895567076665
 40
1.0
 40
1.0
 40
1.0
 40
1.0
 10
111.7630769362984
 20
113.6033798061506
 30
0.0
 10
111.6475069644584
 20
113.9706136241137
 30
0.0
 10
111.4163996965172
 20
114.7049774299865
 30
0.0
 10
111.1677370649409
 20
115.8358326845819
 30
0.0
 10
111.0182231177873
 20
116.9880047501749
 30
0.0
 10
110.988612830739
 20
118.0984409628352
 30
0.0
 10
111.0654342333896
 20
119.1488860690869
 30
0.0
 10
111.2228437045106
 20
120.1402477957485
 30
0.0
 10
111.4537460650416
 20
121.1271272875585
 30
0.0
 10
111.659960000599
 20
121.777941327356
 30
0.0
 10
111.7630769362984
 20
122.1033798061507
 30
0.0
  0
LINE
  5
1A5
330
1F
100
AcDbEntity
  8
0
  6
Continuous
 62
     7
370
    25
100
AcDbLine
 10
111.7630769363
 20
122.1033798062
 30
0.0
 11
121.4560230446
 21
122.1033798062
 31
0.0
  0
SPLINE
  5
1A6
330
1F
100
AcDbEntity
  8
0
  6
Continuous
 62
     7
370
    25
100
AcDbSpline
210
0.0
220
0.0
230
1.0
 70
     8
 71
     3
 72
    10
 73
     6
 74
     0
 42
0.00000001
 43
0.00000001
 40
0.0
 40
0.0
 40
0.0
 40
0.0
 40
0.4979812754252544
 40
0.7490019773312668
 40
1.0
 40
1.0
 40
1.0
 40
1.0
 10
121.4560230445939
 20
122.1033798061507
 30
0.0
 10
121.6069688619348
 20
121.6147854021647
 30
0.0
 10
121.8340029317635
 20
120.8799019983942
 30
0.0
 10
122.0420482221641
 20
119.8799692921181
 30
0.0
 10
122.1093795143093
 20
119.373615965317
 30
0.0
 10
122.1430436395
 20
119.1204507394452
 30
0.0
  0
SPLINE
  5
1A7
330
1F
100
AcDbEntity
  8
0
  6
Continuous
 62
     7
370
    25
100
AcDbSpline
210
0.0
220
0.0
230
1.0
 70
    24
 71
     3
 72
    12
 73
     8
 74
     0
 42
0.00000001
 43
0.00000001
 40
0.0
 40
0.0
 40
0.0
 40
0.0
 40
0.24211636596312
 40
0.4305555420403744
 40
0.6190145712214605
 40
0.8094977756611191
 40
1.0
 40
1.0
 40
1.0
 40
1.0
 10
111.0072160028521
 20
105.1033798061506
 30
0.0
 10
111.01518771691
 20
105.1033798061506
 30
0.0
 10
111.0293638162974
 20
105.1033798061507
 30
0.0
 10
111.1489975685567
 20
105.1033798061507
 30
0.0
 10
111.3059374080855
 20
105.1033798061507
 30
0.0
 10
111.5096675040171
 20
105.1033798061507
 30
0.0
 10
111.6786043142659
 20
105.1033798061507
 30
0.0
 10
111.7630769362984
 20
105.1033798061507
 30
0.0
  0
SPLINE
  5
1A8
330
1F
100
AcDbEntity
  8
0
  6
Continuous
 62
     7
370
    25
100
AcDbSpline
210
0.0
220
0.0
230
1.0
 70
    24
 71
     3
 72
    12
 73
     8
 74
     0
 42
0.00000001
 43
0.00000001
 40
0.0
 40
0.0
 40
0.0
 40
0.0
 40
0.1885917929440213
 40
0.3771653495829096
 40
0.5675332727104407
 40
0.7578805018885296
 40
1.0
 40
1.0
 40
1.0
 40
1.0
 10
111.7630769362984
 20
122.1033798061507
 30
0.0
 10
111.6794174119959
 20
122.1033798061507
 30
0.0
 10
111.5121064530358
 20
122.1033798061507
 30
0.0
 10
111.3084284813299
 20
122.1033798061507
 30
0.0
 10
111.1500953224585
 20
122.1033798061507
 30
0.0
 10
111.0297914558817
 20
122.1033798061506
 30
0.0
 10
111.0142404158955
 20
122.1033798061506
 30
0.0
 10
111.0055340582523
 20
122.1033798061506
 30
0.0
  0
SPLINE
  5
1A9
330
1F
100
AcDbEntity
  8
0
  6
Continuous
 62
     7
370
    25
100
AcDbSpline
210
0.0
220
0.0
230
1.0
 70
     8
 71
     3
 72
    15
 73
    11
 74
     0
 42
0.00000001
 43
0.00000001
 40
0.0
 40
0.0
 40
0.0
 40
0.0
 40
0.1323052378296972
 40
0.2645730682660337
 40
0.3997997819746862
 40
0.5350020935366703
 40
0.6501929590834606
 40
0.7654017933211842
 40
0.8826895567076684
 40
1.0
 40
1.0
 40
1.0
 40
1.0
 10
111.7630769362984
 20
105.1033798061507
 30
0.0
 10
111.6475069644584
 20
105.4706136241137
 30
0.0
 10
111.4163996965172
 20
106.2049774299866
 30
0.0
 10
111.1677370649409
 20
107.335832684582
 30
0.0
 10
111.0182231177874
 20
108.4880047501749
 30
0.0
 10
110.988612830739
 20
109.5984409628352
 30
0.0
 10
111.0654342333896
 20
110.6488860690869
 30
0.0
 10
111.2228437045107
 20
111.6402477957485
 30
0.0
 10
111.4537460650416
 20
112.6271272875585
 30
0.0
 10
111.659960000599
 20
113.277941327356
 30
0.0
 10
111.7630769362984
 20
113.6033798061506
 30
0.0
  0
LINE
  5
1AA
330
1F
100
AcDbEntity
  8
0
  6
Continuous
 62
     7
370
    25
100
AcDbLine
 10
110.8595499904
 20
105.3533798062
 30
0.0
 11
110.8595499904
 21
121.8533798062
 31
0.0
  0
LINE
  5
1AB
330
1F
100
AcDbEntity
  8
0
  6
Continuous
 62
     7
370
    25
100
AcDbLine
 10
122.1430436395
 20
110.6204507394
 30
0.0
 11
122.1430436395
 21
116.5863088729
 31
0.0
  0
SPLINE
  5
1AC
330
1F
100
AcDbEntity
  8
0
  6
Continuous
 62
     7
370
    25
100
AcDbSpline
210
0.0
220
0.0
230
1.0
 70
     8
 71
     3
 72
    10
 73
     6
 74
     0
 42
0.00000001
 43
0.00000001
 40
0.0
 40
0.0
 40
0.0
 40
0.0
 40
0.4979812754252547
 40
0.749001977331267
 40
1.0
 40
1.0
 40
1.0
 40
1.0
 10
121.4560230445939
 20
113.6033798061506
 30
0.0
 10
121.6069688619348
 20
113.1147854021647
 30
0.0
 10
121.8340029317635
 20
112.3799019983941
 30
0.0
 10
122.042048222164
 20
111.379969292118
 30
0.0
 10
122.1093795143093
 20
110.8736159653168
 30
0.0
 10
122.1430436395
 20
110.6204507394451
 30
0.0
  0
SPLINE
  5
1AD
330
1F
100
AcDbEntity
  8
0
  6
Continuous
 62
     7
370
    25
100
AcDbSpline
210
0.0
220
0.0
230
1.0
 70
     8
 71
     3
 72
    10
 73
     6
 74
     0
 42
0.00000001
 43
0.00000001
 40
0.0
 40
0.0
 40
0.0
 40
0.0
 40
0.3089808900030064
 40
0.6190948628358672
 40
0.9999999999999999
 40
0.9999999999999999
 40
0.9999999999999999
 40
0.9999999999999999
 10
122.1430436395
 20
110.6204507394451
 30
0.0
 10
122.1671906460367
 20
110.3598672247287
 30
0.0
 10
122.2155732100833
 20
109.8377445934585
 30
0.0
 10
122.2230283027999
 20
108.9907522827381
 30
0.0
 10
122.1714659550004
 20
108.4077001857318
 30
0.0
 10
122.1430436395
 20
108.0863088728563
 30
0.0
  0
SPLINE
  5
1AE
330
1F
100
AcDbEntity
  8
0
  6
Continuous
 62
     7
370
    25
100
AcDbSpline
210
0.0
220
0.0
230
1.0
 70
     8
 71
     3
 72
    10
 73
     6
 74
     0
 42
0.00000001
 43
0.00000001
 40
0.0
 40
0.0
 40
0.0
 40
0.0
 40
0.2488872038107673
 40
0.4977963221692077
 40
0.9999999999999999
 40
0.9999999999999999
 40
0.9999999999999999
 40
0.9999999999999999
 10
122.1430436395
 20
108.0863088728563
 30
0.0
 10
122.1097037982493
 20
107.835270125809
 30
0.0
 10
122.0430211801711
 20
107.3331705277232
 30
0.0
 10
121.8357325899228
 20
106.3331315725263
 30
0.0
 10
121.608172588723
 20
105.596141110015
 30
0.0
 10
121.4560230445939
 20
105.1033798061507
 30
0.0
  0
LINE
  5
1AF
330
1F
100
AcDbEntity
  8
0
  6
Continuous
 62
     7
370
    25
100
AcDbLine
 10
111.7630769363
 20
105.1033798062
 30
0.0
 11
121.4560230446
 21
105.1033798062
 31
0.0
  0
ARC
  5
1B0
330
1F
100
AcDbEntity
  8
0
  6
Continuous
 62
     7
370
    25
100
AcDbCircle
 10
122.730266828
 20
117.8359183951
 30
0.0
 40
1.380708162956779
100
AcDbArc
 50
244.8299789717
 51
272.5859934179
  0
LINE
  5
1B1
330
1F
100
AcDbEntity
  8
0
  6
Continuous
 62
     7
370
    25
100
AcDbLine
 10
122.7925626923
 20
116.4566163047
 30
0.0
 11
122.7925626923
 21
110.7501433076
 31
0.0
  0
ARC
  5
1B2
330
1F
100
AcDbEntity
  8
0
  6
Continuous
 62
     7
370
    25
100
AcDbCircle
 10
122.730266828
 20
109.3708412172
 30
0.0
 40
1.380708162956555
100
AcDbArc
 50
87.4140065821
 51
115.1700210283
  0
LINE
  5
1B3
330
1F
100
AcDbEntity
  8
0
  6
Continuous
 62
     7
370
    25
100
AcDbLine
 10
122.7925626923
 20
108.3261815221
 30
0.0
 11
122.7925626923
 21
105.4729450235
 31
0.0
  0
SPLINE
  5
1B4
330
1F
100
AcDbEntity
  8
0
  6
Continuous
 62
     7
370
    25
100
AcDbSpline
210
0.0
220
0.0
230
1.0
 70
     8
 71
     3
 72
    11
 73
     7
 74
     0
 42
0.00000001
 43
0.00000001
 40
0.0
 40
0.0
 40
0.0
 40
0.0
 40
0.2858113857233209
 40
0.5527245545214224
 40
0.8220275582231135
 40
1.0
 40
1.0
 40
1.0
 40
1.0
 10
122.7925626923384
 20
110.7501433075627
 30
0.0
 10
122.7886223909158
 20
110.501273780852
 30
0.0
 10
122.7810023258756
 20
110.0199903010599
 30
0.0
 10
122.7695412362247
 20
109.3434156733309
 30
0.0
 10
122.7869786254663
 20
108.7833870873146
 30
0.0
 10
122.7909732267256
 20
108.4563218912355
 30
0.0
 10
122.7925626923384
 20
108.3261815221299
 30
0.0
  0
SPLINE
  5
1B5
330
1F
100
AcDbEntity
  8
0
  6
Continuous
 62
     7
370
    25
100
AcDbSpline
210
0.0
220
0.0
230
1.0
 70
     8
 71
     3
 72
    11
 73
     7
 74
     0
 42
0.00000001
 43
0.00000001
 40
0.0
 40
0.0
 40
0.0
 40
0.0
 40
0.2858113857233876
 40
0.5527245545213877
 40
0.8220275582229749
 40
1.0
 40
1.0
 40
1.0
 40
1.0
 10
122.7925626923384
 20
118.8805780901716
 30
0.0
 10
122.7886223909158
 20
118.6698264946436
 30
0.0
 10
122.7810023258756
 20
118.2622584705146
 30
0.0
 10
122.7695412362247
 20
117.6020376089854
 30
0.0
 10
122.7869786254663
 20
117.0029538448789
 30
0.0
 10
122.7909732267256
 20
116.612127467647
 30
0.0
 10
122.7925626923384
 20
116.4566163047385
 30
0.0
  0
LINE
  5
1B6
330
1F
100
AcDbEntity
  8
0
  6
Continuous
 62
     7
370
    25
100
AcDbLine
 10
122.7925626923
 20
121.7338145888
 30
0.0
 11
122.7925626923
 21
118.8805780902
 31
0.0
  0
LINE
  5
1B7
330
1F
100
AcDbEntity
  8
0
  6
Continuous
 62
     7
370
    25
100
AcDbLine
 10
123.6595499904
 20
105.3533798062
 30
0.0
 11
123.6595499904
 21
121.8533798062
 31
0.0
  0
LINE
  5
1B8
330
1F
100
AcDbEntity
  8
0
  6
Continuous
 62
     7
370
    25
100
AcDbLine
 10
123.8595499904
 20
121.6533798062
 30
0.0
 11
123.8595499904
 21
105.5533798062
 31
0.0
  0
ARC
  5
1B9
330
1F
100
AcDbEntity
  8
0
  6
Continuous
 62
     7
370
    25
100
AcDbCircle
 10
122.7507555929
 20
119.7666834336
 30
0.0
 40
0.8870910400313946
100
AcDbArc
 50
226.7595529446
 51
272.7012537053
  0
ARC
  5
1BA
330
1F
100
AcDbEntity
  8
0
  6
Continuous
 62
     7
370
    25
100
AcDbCircle
 10
122.7507555929
 20
107.4400761787
 30
0.0
 40
0.8870910400315332
100
AcDbArc
 50
87.2987462947
 51
133.2404470554
  0
LINE
  5
1BB
330
1F
100
AcDbEntity
  8
0
  6
Continuous
 62
     7
370
    25
100
AcDbLine
 10
122.1430436395
 20
105.1033798062
 30
0.0
 11
122.1430436395
 21
108.0863088729
 31
0.0
  0
ARC
  5
1BC
330
1F
100
AcDbEntity
  8
0
  6
Continuous
 62
     7
370
    25
100
AcDbCircle
 10
122.7905265576
 20
104.720968908
 30
0.0
 40
0.7519788721911057
100
AcDbArc
 50
89.8448599075
 51
149.433409991
  0
SPLINE
  5
1BD
330
1F
100
AcDbEntity
  8
0
  6
Continuous
 62
     7
370
    25
100
AcDbSpline
210
0.0
220
0.0
230
1.0
 70
    24
 71
     3
 72
    10
 73
     6
 74
     0
 42
0.00000001
 43
0.00000001
 40
0.0
 40
0.0
 40
0.0
 40
0.0
 40
0.4979812754252548
 40
0.7490019773312669
 40
1.0
 40
1.0
 40
1.0
 40
1.0
 10
121.4560230445939
 20
105.1033798061507
 30
0.0
 10
121.6069688619349
 20
105.1033798061507
 30
0.0
 10
121.8340029317635
 20
105.1033798061507
 30
0.0
 10
122.042048222164
 20
105.1033798061507
 30
0.0
 10
122.1093795143093
 20
105.1033798061507
 30
0.0
 10
122.1430436395
 20
105.1033798061507
 30
0.0
  0
LINE
  5
1BE
330
1F
100
AcDbEntity
  8
0
  6
Continuous
 62
     7
370
    25
100
AcDbLine
 10
122.1430436395
 20
119.1204507394
 30
0.0
 11
122.1430436395
 21
122.1033798062
 31
0.0
  0
ARC
  5
1BF
330
1F
100
AcDbEntity
  8
0
  6
Continuous
 62
     7
370
    25
100
AcDbCircle
 10
122.7905265576
 20
122.4857907043
 30
0.0
 40
0.7519788721912618
100
AcDbArc
 50
210.566590009
 51
270.1551400925
  0
SPLINE
  5
1C0
330
1F
100
AcDbEntity
  8
0
  6
Continuous
 62
     7
370
    25
100
AcDbSpline
210
0.0
220
0.0
230
1.0
 70
    24
 71
     3
 72
    10
 73
     6
 74
     0
 42
0.00000001
 43
0.00000001
 40
0.0
 40
0.0
 40
0.0
 40
0.0
 40
0.2488872038107674
 40
0.4977963221692084
 40
1.0
 40
1.0
 40
1.0
 40
1.0
 10
122.1430436395
 20
122.1033798061506
 30
0.0
 10
122.1097037982493
 20
122.1033798061506
 30
0.0
 10
122.0430211801711
 20
122.1033798061507
 30
0.0
 10
121.8357325899228
 20
122.1033798061507
 30
0.0
 10
121.608172588723
 20
122.1033798061507
 30
0.0
 10
121.4560230445939
 20
122.1033798061507
 30
0.0
  0
SPLINE
  5
1C1
330
1F
100
AcDbEntity
  8
0
  6
Continuous
 62
     7
370
    25
100
AcDbSpline
210
0.0
220
0.0
230
1.0
 70
    24
 71
     3
 72
     9
 73
     5
 74
     0
 42
0.00000001
 43
0.00000001
 40
0.0
 40
0.0
 40
0.0
 40
0.0
 40
0.1477850277122949
 40
1.0
 40
1.0
 40
1.0
 40
1.0
 10
122.1430436395
 20
105.1033798061507
 30
0.0
 10
122.1502840138012
 20
105.1033798061507
 30
0.0
 10
122.1992766243064
 20
105.1033798061506
 30
0.0
 10
122.2074558084969
 20
105.1033798061506
 30
0.0
 10
122.2144262317251
 20
105.1033798061506
 30
0.0
  0
SPLINE
  5
1C2
330
1F
100
AcDbEntity
  8
0
  6
Continuous
 62
     7
370
    25
100
AcDbSpline
210
0.0
220
0.0
230
1.0
 70
    24
 71
     3
 72
     9
 73
     5
 74
     0
 42
0.00000001
 43
0.00000001
 40
0.0
 40
0.0
 40
0.0
 40
0.0
 40
0.8304606972519666
 40
0.9999999999999999
 40
0.9999999999999999
 40
0.9999999999999999
 40
0.9999999999999999
 10
122.2063910379422
 20
122.1033798061506
 30
0.0
 10
122.2004557474252
 20
122.1033798061506
 30
0.0
 10
122.1933087619789
 20
122.1033798061507
 30
0.0
 10
122.1503301956658
 20
122.1033798061506
 30
0.0
 10
122.1430436395
 20
122.1033798061506
 30
0.0
  0
CIRCLE
  5
1C3
330
1F
100
AcDbEntity
  8
0
  6
Continuous
 62
     7
370
    25
100
AcDbCircle
 10
92.1741325527
 20
113.6033798062
 30
0.0
 40
10.30676222727978
  0
CIRCLE
  5
1C4
330
1F
100
AcDbEntity
  8
0
  6
Continuous
 62
     7
370
    25
100
AcDbCircle
 10
92.1741325527
 20
113.6033798062
 30
0.0
 40
8.75
  0
CIRCLE
  5
1C5
330
1F
100
AcDbEntity
  8
0
  6
Continuous
 62
     7
370
    25
100
AcDbCircle
 10
92.1741325527
 20
113.6033798062
 30
0.0
 40
6.999999999999986
  0
CIRCLE
  5
1C6
330
1F
100
AcDbEntity
  8
0
  6
Continuous
 62
     7
370
    25
100
AcDbCircle
 10
92.1741325527
 20
113.6033798062
 30
0.0
 40
6.5
  0
CIRCLE
  5
1C7
330
1F
100
AcDbEntity
  8
0
  6
Continuous
 62
     7
370
    25
100
AcDbCircle
 10
92.1741325527
 20
113.6033798062
 30
0.0
 40
10.6493869232921
  0
LINE
  5
1C8
330
1F
100
AcDbEntity
  8
0
  6
Continuous
 62
     7
370
    25
100
AcDbLine
 10
105.3729710263
 20
122.2030413326
 30
0.0
 11
105.3729710263
 21
105.0037182797
 31
0.0
  0
LINE
  5
1C9
330
1F
100
AcDbEntity
  8
0
  6
Continuous
 62
     7
370
    25
100
AcDbLine
 10
106.4741325527
 20
121.1018798062
 30
0.0
 11
106.4741325527
 21
106.1048798062
 31
0.0
  0
SPLINE
  5
1CA
330
1F
100
AcDbEntity
  8
0
  6
Continuous
 62
     7
370
    25
100
AcDbSpline
210
0.0
220
0.0
230
1.0
 70
    24
 71
     3
 72
     8
 73
     4
 74
     0
 42
0.00000001
 43
0.00000001
 40
0.0
 40
0.0
 40
0.0
 40
0.0
 40
1.0
 40
1.0
 40
1.0
 40
1.0
 10
100.6741325527455
 20
105.6033798061506
 30
0.0
 10
100.6741325527455
 20
105.2733535525358
 30
0.0
 10
100.6741325527455
 20
105.1033798061506
 30
0.0
 10
100.6741325527455
 20
105.1033798061506
 30
0.0
  0
SPLINE
  5
1CB
330
1F
100
AcDbEntity
  8
0
  6
Continuous
 62
     7
370
    25
100
AcDbSpline
210
0.0
220
0.0
230
1.0
 70
    24
 71
     3
 72
     8
 73
     4
 74
     0
 42
0.00000001
 43
0.00000001
 40
0.0
 40
0.0
 40
0.0
 40
0.0
 40
1.0
 40
1.0
 40
1.0
 40
1.0
 10
100.6741325527455
 20
122.1033798061506
 30
0.0
 10
100.6741325527455
 20
122.1033798061506
 30
0.0
 10
100.6741325527455
 20
121.9334060597655
 30
0.0
 10
100.6741325527455
 20
121.6033798061506
 30
0.0
  0
ARC
  5
1CC
330
1F
100
AcDbEntity
  8
0
  6
Continuous
 62
     7
370
    25
100
AcDbCircle
 10
98.6741325527
 20
105.6033798062
 30
0.0
 40
0.5
100
AcDbArc
 50
270.0
 51
357.0025302101
  0
LINE
  5
1CD
330
1F
100
AcDbEntity
  8
0
  6
Continuous
 62
     7
370
    25
100
AcDbLine
 10
98.5896950255
 20
105.1033798062
 30
0.0
 11
98.6741325527
 21
105.1033798062
 31
0.0
  0
LINE
  5
1CE
330
1F
100
AcDbEntity
  8
0
  6
Continuous
 62
     7
370
    25
100
AcDbLine
 10
85.75857008
 20
122.1033798062
 30
0.0
 11
85.6741325527
 21
122.1033798062
 31
0.0
  0
LINE
  5
1CF
330
1F
100
AcDbEntity
  8
0
  6
Continuous
 62
     7
370
    25
100
AcDbLine
 10
85.6741325527
 20
105.1033798062
 30
0.0
 11
85.75857008
 21
105.1033798062
 31
0.0
  0
ARC
  5
1D0
330
1F
100
AcDbEntity
  8
0
  6
Continuous
 62
     7
370
    25
100
AcDbCircle
 10
98.6741325527
 20
121.6033798062
 30
0.0
 40
0.5
100
AcDbArc
 50
2.9974697899
 51
90.0
  0
LINE
  5
1D1
330
1F
100
AcDbEntity
  8
0
  6
Continuous
 62
     7
370
    25
100
AcDbLine
 10
98.6741325527
 20
122.1033798062
 30
0.0
 11
98.5896950255
 21
122.1033798062
 31
0.0
  0
ARC
  5
1D2
330
1F
100
AcDbEntity
  8
0
  6
Continuous
 62
     7
370
    25
100
AcDbCircle
 10
85.6741325527
 20
121.6033798062
 30
0.0
 40
0.5000000000000074
100
AcDbArc
 50
90.0
 51
177.0025302101
  0
ARC
  5
1D3
330
1F
100
AcDbEntity
  8
0
  6
Continuous
 62
     7
370
    25
100
AcDbCircle
 10
85.6741325527
 20
105.6033798062
 30
0.0
 40
0.5000000000000097
100
AcDbArc
 50
182.9974697899
 51
270.0
  0
LINE
  5
1D4
330
1F
100
AcDbEntity
  8
0
  6
Continuous
 62
     7
370
    25
100
AcDbLine
 10
100.1741325527
 20
122.1033798062
 30
0.0
 11
100.1741325527
 21
121.6033798062
 31
0.0
  0
LINE
  5
1D5
330
1F
100
AcDbEntity
  8
0
  6
Continuous
 62
     7
370
    25
100
AcDbLine
 10
100.1741325527
 20
122.1033798062
 30
0.0
 11
98.6741325527
 21
122.1033798062
 31
0.0
  0
LINE
  5
1D6
330
1F
100
AcDbEntity
  8
0
  6
Continuous
 62
     7
370
    25
100
AcDbLine
 10
100.1741325527
 20
105.1033798062
 30
0.0
 11
100.1741325527
 21
105.6033798062
 31
0.0
  0
LINE
  5
1D7
330
1F
100
AcDbEntity
  8
0
  6
Continuous
 62
     7
370
    25
100
AcDbLine
 10
98.6741325527
 20
105.1033798062
 30
0.0
 11
100.1741325527
 21
105.1033798062
 31
0.0
  0
ARC
  5
1D8
330
1F
100
AcDbEntity
  8
0
  6
Continuous
 62
     7
370
    25
100
AcDbCircle
 10
100.1741325527
 20
121.6033798062
 30
0.0
 40
0.5
100
AcDbArc
 50
0.0
 51
90.0
  0
LINE
  5
1D9
330
1F
100
AcDbEntity
  8
0
  6
Continuous
 62
     7
370
    25
100
AcDbLine
 10
100.1741325527
 20
121.6033798062
 30
0.0
 11
100.6741325527
 21
121.6033798062
 31
0.0
  0
LINE
  5
1DA
330
1F
100
AcDbEntity
  8
0
  6
Continuous
 62
     7
370
    25
100
AcDbLine
 10
100.6741325527
 20
120.0189422789
 30
0.0
 11
100.6741325527
 21
121.6033798062
 31
0.0
  0
LINE
  5
1DB
330
1F
100
AcDbEntity
  8
0
  6
Continuous
 62
     7
370
    25
100
AcDbLine
 10
100.6741325527
 20
105.6033798062
 30
0.0
 11
100.6741325527
 21
107.1878173334
 31
0.0
  0
LINE
  5
1DC
330
1F
100
AcDbEntity
  8
0
  6
Continuous
 62
     7
370
    25
100
AcDbLine
 10
100.1741325527
 20
105.6033798062
 30
0.0
 11
100.6741325527
 21
105.6033798062
 31
0.0
  0
ARC
  5
1DD
330
1F
100
AcDbEntity
  8
0
  6
Continuous
 62
     7
370
    25
100
AcDbCircle
 10
100.1741325527
 20
105.6033798062
 30
0.0
 40
0.5
100
AcDbArc
 50
270.0
 51
0.0
  0
SPLINE
  5
1DE
330
1F
100
AcDbEntity
  8
0
  6
Continuous
 62
     7
370
    25
100
AcDbSpline
210
0.0
220
0.0
230
1.0
 70
    24
 71
     3
 72
    10
 73
     6
 74
     0
 42
0.00000001
 43
0.00000001
 40
-0.2904940295525288
 40
-0.2904940295525288
 40
-0.2904940295525288
 40
-0.2904940295525288
 40
-0.1303072746364131
 40
-0.1303072746364131
 40
0.0010563617272233
 40
0.0010563617272233
 40
0.0010563617272233
 40
0.0010563617272233
 10
100.6741325527455
 20
122.1033798061506
 30
0.0
 10
100.5446292369919
 20
122.1033798061506
 30
0.0
 10
100.412838258806
 20
122.1033798061506
 30
0.0
 10
100.2344143193809
 20
122.1033798061506
 30
0.0
 10
100.1741325527455
 20
122.1033798061506
 30
0.0
 10
100.1741325527455
 20
122.1033798061506
 30
0.0
  0
SPLINE
  5
1DF
330
1F
100
AcDbEntity
  8
0
  6
Continuous
 62
     7
370
    25
100
AcDbSpline
210
0.0
220
0.0
230
1.0
 70
    24
 71
     3
 72
    10
 73
     6
 74
     0
 42
0.00000001
 43
0.00000001
 40
-0.8711658421011628
 40
-0.8711658421011628
 40
-0.8711658421011628
 40
-0.8711658421011628
 40
-0.739802205737527
 40
-0.739802205737527
 40
-0.579615450786466
 40
-0.579615450786466
 40
-0.579615450786466
 40
-0.579615450786466
 10
100.1741325527455
 20
105.1033798061506
 30
0.0
 10
100.1741325527455
 20
105.1033798061506
 30
0.0
 10
100.2344143193809
 20
105.1033798061506
 30
0.0
 10
100.4128382588274
 20
105.1033798061506
 30
0.0
 10
100.5446292369635
 20
105.1033798061506
 30
0.0
 10
100.6741325527455
 20
105.1033798061506
 30
0.0
  0
SPLINE
  5
1E0
330
1F
100
AcDbEntity
  8
0
  6
Continuous
 62
     7
370
    25
100
AcDbSpline
210
0.0
220
0.0
230
1.0
 70
     8
 71
     3
 72
    22
 73
    18
 74
     0
 42
0.00000001
 43
0.00000001
 40
0.0
 40
0.0
 40
0.0
 40
0.0
 40
0.125
 40
0.125
 40
0.25
 40
0.25
 40
0.375
 40
0.375
 40
0.5
 40
0.5
 40
0.625
 40
0.625
 40
0.75
 40
0.75
 40
0.875
 40
0.875
 40
1.0
 40
1.0
 40
1.0
 40
1.0
 10
98.4986878730825
 20
112.1033798061505
 30
0.0
 10
98.36807377351766
 20
112.1838212006866
 30
0.0
 10
98.24270235354001
 20
112.272059316004
 30
0.0
 10
98.0065218965452
 20
112.4706532729104
 30
0.0
 10
97.89451572470763
 20
112.5823672636577
 30
0.0
 10
97.70040754810117
 20
112.8313030603526
 30
0.0
 10
97.6167242521175
 20
112.9711117203115
 30
0.0
 10
97.49999488797918
 20
113.273586553638
 30
0.0
 10
97.46700195857427
 20
113.4394633977209
 30
0.0
 10
97.46704961168342
 20
113.7676700590792
 30
0.0
 10
97.50000522054799
 20
113.9334779903434
 30
0.0
 10
97.61735526582024
 20
114.2370033224296
 30
0.0
 10
97.70079417648151
 20
114.376001096848
 30
0.0
 10
97.89457567169416
 20
114.6244204059845
 30
0.0
 10
98.0066059488515
 20
114.7361841520849
 30
0.0
 10
98.24276303962169
 20
114.9347441834939
 30
0.0
 10
98.36810973798721
 20
115.0229605610771
 30
0.0
 10
98.4986878730823
 20
115.1033798061506
 30
0.0
  0
SPLINE
  5
1E1
330
1F
100
AcDbEntity
  8
0
  6
Continuous
 62
     7
370
    25
100
AcDbSpline
210
0.0
220
0.0
230
1.0
 70
     8
 71
     3
 72
     9
 73
     5
 74
     0
 42
0.00000001
 43
0.00000001
 40
0.0
 40
0.0
 40
0.0
 40
0.0
 40
0.5716350575939028
 40
0.9999999999999999
 40
0.9999999999999999
 40
0.9999999999999999
 40
0.9999999999999999
 10
122.7925626923384
 20
105.472945023542
 30
0.0
 10
122.788103284253
 20
105.4332266177995
 30
0.0
 10
122.7803021390535
 20
105.3637445151629
 30
0.0
 10
122.7771962422201
 20
105.3602783379864
 30
0.0
 10
122.775865784902
 20
105.3587935491998
 30
0.0
  0
SPLINE
  5
1E2
330
1F
100
AcDbEntity
  8
0
  6
Continuous
 62
     7
370
    25
100
AcDbSpline
210
0.0
220
0.0
230
1.0
 70
     8
 71
     3
 72
    10
 73
     6
 74
     0
 42
0.00000001
 43
0.00000001
 40
0.0
 40
0.0
 40
0.0
 40
0.0
 40
0.1054683351677844
 40
0.6440627664276105
 40
1.0
 40
1.0
 40
1.0
 40
1.0
 10
122.7758657849011
 20
121.8479660631045
 30
0.0
 10
122.7753508426249
 20
121.8496431221417
 30
0.0
 10
122.7722062481222
 20
121.8598844071801
 30
0.0
 10
122.7875848887705
 20
121.8206780759965
 30
0.0
 10
122.791145795338
 20
121.7585396733937
 30
0.0
 10
122.7925626923384
 20
121.7338145887593
 30
0.0
  0
LINE
  5
1E3
330
1F
100
AcDbEntity
  8
0
  6
Continuous
 62
     7
370
    25
100
AcDbLine
 10
104.6741325527
 20
113.6033798062
 30
0.0
 11
104.6741325527
 21
105.1033798062
 31
0.0
  0
LINE
  5
1E4
330
1F
100
AcDbEntity
  8
0
  6
Continuous
 62
     7
370
    25
100
AcDbLine
 10
104.6741325527
 20
122.1033798062
 30
0.0
 11
104.6741325527
 21
113.6033798062
 31
0.0
  0
LINE
  5
1E5
330
1F
100
AcDbEntity
  8
0
  6
Continuous
 62
     7
370
    25
100
AcDbLine
 10
85.6741325527
 20
122.1033798062
 30
0.0
 11
85.6741325527
 21
122.0389854063
 31
0.0
  0
LINE
  5
1E6
330
1F
100
AcDbEntity
  8
0
  6
Continuous
 62
     7
370
    25
100
AcDbLine
 10
85.6741325527
 20
105.167774206
 30
0.0
 11
85.6741325527
 21
105.1033798062
 31
0.0
  0
LINE
  5
1E7
330
1F
100
AcDbEntity
  8
0
  6
Continuous
 62
     7
370
    25
100
AcDbLine
 10
100.1741325527
 20
120.6325648117
 30
0.0
 11
100.1741325527
 21
121.6033798062
 31
0.0
  0
LINE
  5
1E8
330
1F
100
AcDbEntity
  8
0
  6
Continuous
 62
     7
370
    25
100
AcDbLine
 10
99.2033175583
 20
121.6033798062
 30
0.0
 11
100.1741325527
 21
121.6033798062
 31
0.0
  0
LINE
  5
1E9
330
1F
100
AcDbEntity
  8
0
  6
Continuous
 62
     7
370
    25
100
AcDbLine
 10
100.1741325527
 20
105.6033798062
 30
0.0
 11
100.1741325527
 21
106.5741948006
 31
0.0
  0
LINE
  5
1EA
330
1F
100
AcDbEntity
  8
0
  6
Continuous
 62
     7
370
    25
100
AcDbLine
 10
100.1741325527
 20
105.6033798062
 30
0.0
 11
99.2033175583
 21
105.6033798062
 31
0.0
  0
INSERT
  5
1F6
330
1F
100
AcDbEntity
  8
FORMAT
100
AcDbBlockReference
  2
SW_CENTERMARKSYMBOL_1
 10
92.1741325527
 20
113.6033798062
 30
0.0
  0
ARC
  5
1F7
330
1F
100
AcDbEntity
  8
FORMAT
100
AcDbCircle
 10
92.1741325527
 20
113.6033798062
 30
0.0
 40
9.315500000000005
100
AcDbArc
 50
75.0
 51
345.0
  0
LINE
  5
1F8
330
1F
100
AcDbEntity
  8
FORMAT
100
AcDbLine
 10
117.0301325527
 20
107.8808798062
 30
0.0
 11
106.4741325527
 21
107.8808798062
 31
0.0
  0
LINE
  5
1F9
330
1F
100
AcDbEntity
  8
FORMAT
100
AcDbLine
 10
117.0301325527
 20
119.3258798062
 30
0.0
 11
106.4741325527
 21
119.3258798062
 31
0.0
  0
ENDSEC
  0
SECTION
  2
OBJECTS
  0
DICTIONARY
  5
C
330
0
100
AcDbDictionary
281
     1
  3
ACAD_GROUP
350
D
  3
ACAD_LAYOUT
350
1A
  3
ACAD_MLINESTYLE
350
17
  3
ACAD_PLOTSETTINGS
350
19
  3
ACAD_PLOTSTYLENAME
350
E
  3
ACAD_SCALELIST
350
47
  3
DWGPROPS
350
1FA
  0
DICTIONARY
  5
D
102
{ACAD_REACTORS
330
C
102
}
330
C
100
AcDbDictionary
281
     1
  0
DICTIONARY
  5
1A
102
{ACAD_REACTORS
330
C
102
}
330
C
100
AcDbDictionary
281
     1
  3
Layout1
350
1E
  3
Layout2
350
26
  3
Model
350
22
  0
DICTIONARY
  5
17
102
{ACAD_REACTORS
330
C
102
}
330
C
100
AcDbDictionary
281
     1
  3
Standard
350
18
  0
DICTIONARY
  5
19
102
{ACAD_REACTORS
330
C
102
}
330
C
100
AcDbDictionary
281
     1
  0
ACDBDICTIONARYWDFLT
  5
E
102
{ACAD_REACTORS
330
C
102
}
330
C
100
AcDbDictionary
281
     1
  3
Normal
350
F
100
AcDbDictionaryWithDefault
340
F
  0
DICTIONARY
  5
47
102
{ACAD_REACTORS
330
C
102
}
330
C
100
AcDbDictionary
281
     1
  3
A0
350
48
  3
A1
350
49
  3
A2
350
4A
  3
A3
350
4B
  3
A4
350
4C
  3
A5
350
4D
  3
A6
350
4E
  3
A7
350
4F
  3
A8
350
50
  3
A9
350
51
  3
B0
350
52
  3
B1
350
53
  3
B2
350
54
  3
B3
350
55
  3
B4
350
56
  3
B5
350
57
  3
B6
350
58
  0
XRECORD
  5
1FA
102
{ACAD_REACTORS
330
C
102
}
330
C
100
AcDbXrecord
280
     1
  1
DWGPROPS COOKIE
  2

  3

  4

  6

  7

  8
user28
  9

300
=
301
=
302
=
303
=
304
=
305
=
306
=
307
=
308
=
309
=
 40
0.0
 41
2460376.175159305
 42
2460376.175160174
  1

 90
        0
  0
LAYOUT
  5
1E
102
{ACAD_REACTORS
330
1A
102
}
330
1A
100
AcDbPlotSettings
  1

  2
none_device
  4

  6

 40
0.0
 41
0.0
 42
0.0
 43
0.0
 44
0.0
 45
0.0
 46
0.0
 47
0.0
 48
0.0
 49
0.0
140
0.0
141
0.0
142
1.0
143
1.0
 70
   688
 72
     1
 73
     0
 74
     5
  7

 75
    16
147
1.0
148
0.0
149
0.0
100
AcDbLayout
  1
Layout1
 70
     1
 71
     1
 10
0.0
 20
0.0
 11
420.0
 21
297.0
 12
0.0
 22
0.0
 32
0.0
 14
1.0000000000E+20
 24
1.0000000000E+20
 34
1.0000000000E+20
 15
-1.0000000000E+20
 25
-1.0000000000E+20
 35
-1.0000000000E+20
146
0.0
 13
0.0
 23
0.0
 33
0.0
 16
1.0
 26
0.0
 36
0.0
 17
0.0
 27
1.0
 37
0.0
 76
     0
330
1B
  0
LAYOUT
  5
26
102
{ACAD_REACTORS
330
1A
102
}
330
1A
100
AcDbPlotSettings
  1

  2
none_device
  4

  6

 40
0.0
 41
0.0
 42
0.0
 43
0.0
 44
0.0
 45
0.0
 46
0.0
 47
0.0
 48
0.0
 49
0.0
140
0.0
141
0.0
142
1.0
143
1.0
 70
   688
 72
     1
 73
     0
 74
     5
  7

 75
    16
147
1.0
148
0.0
149
0.0
100
AcDbLayout
  1
Layout2
 70
     1
 71
     2
 10
0.0
 20
0.0
 11
0.0
 21
0.0
 12
0.0
 22
0.0
 32
0.0
 14
0.0
 24
0.0
 34
0.0
 15
0.0
 25
0.0
 35
0.0
146
0.0
 13
0.0
 23
0.0
 33
0.0
 16
1.0
 26
0.0
 36
0.0
 17
0.0
 27
1.0
 37
0.0
 76
     0
330
23
  0
LAYOUT
  5
22
102
{ACAD_REACTORS
330
1A
102
}
330
1A
100
AcDbPlotSettings
  1

  2
none_device
  4
Letter_(8.50_x_11.00_Inches)
  6

 40
6.35
 41
6.35
 42
6.35000508
 43
6.35000508
 44
215.9
 45
279.4
 46
0.0
 47
0.0
 48
0.0
 49
0.0
140
0.0
141
0.0
142
1.0
143
1.0
 70
  1712
 72
     1
 73
     0
 74
     0
  7

 75
     0
147
1.0
148
0.0
149
0.0
100
AcDbLayout
  1
Model
 70
     1
 71
     0
 10
0.0
 20
0.0
 11
297.0
 21
210.0
 12
0.0
 22
0.0
 32
0.0
 14
0.0
 24
0.0
 34
0.0
 15
297.0
 25
210.0
 35
0.0
146
0.0
 13
0.0
 23
0.0
 33
0.0
 16
1.0
 26
0.0
 36
0.0
 17
0.0
 27
1.0
 37
0.0
 76
     0
330
1F
331
29
  0
MLINESTYLE
  5
18
102
{ACAD_REACTORS
330
17
102
}
330
17
100
AcDbMlineStyle
  2
Standard
 70
     0
  3

 62
   256
 51
90.0
 52
90.0
 71
     2
 49
0.5
 62
   256
  6
BYLAYER
 49
-0.5
 62
   256
  6
BYLAYER
  0
ACDBPLACEHOLDER
  5
F
102
{ACAD_REACTORS
330
E
102
}
330
E
  0
SCALE
  5
48
102
{ACAD_REACTORS
330
47
102
}
330
47
100
AcDbScale
 70
     0
300
1:1
140
1.0
141
1.0
290
     1
  0
SCALE
  5
49
102
{ACAD_REACTORS
330
47
102
}
330
47
100
AcDbScale
 70
     0
300
1:2
140
1.0
141
2.0
290
     0
  0
SCALE
  5
4A
102
{ACAD_REACTORS
330
47
102
}
330
47
100
AcDbScale
 70
     0
300
1:4
140
1.0
141
4.0
290
     0
  0
SCALE
  5
4B
102
{ACAD_REACTORS
330
47
102
}
330
47
100
AcDbScale
 70
     0
300
1:5
140
1.0
141
5.0
290
     0
  0
SCALE
  5
4C
102
{ACAD_REACTORS
330
47
102
}
330
47
100
AcDbScale
 70
     0
300
1:8
140
1.0
141
8.0
290
     0
  0
SCALE
  5
4D
102
{ACAD_REACTORS
330
47
102
}
330
47
100
AcDbScale
 70
     0
300
1:10
140
1.0
141
10.0
290
     0
  0
SCALE
  5
4E
102
{ACAD_REACTORS
330
47
102
}
330
47
100
AcDbScale
 70
     0
300
1:16
140
1.0
141
16.0
290
     0
  0
SCALE
  5
4F
102
{ACAD_REACTORS
330
47
102
}
330
47
100
AcDbScale
 70
     0
300
1:20
140
1.0
141
20.0
290
     0
  0
SCALE
  5
50
102
{ACAD_REACTORS
330
47
102
}
330
47
100
AcDbScale
 70
     0
300
1:30
140
1.0
141
30.0
290
     0
  0
SCALE
  5
51
102
{ACAD_REACTORS
330
47
102
}
330
47
100
AcDbScale
 70
     0
300
1:40
140
1.0
141
40.0
290
     0
  0
SCALE
  5
52
102
{ACAD_REACTORS
330
47
102
}
330
47
100
AcDbScale
 70
     0
300
1:50
140
1.0
141
50.0
290
     0
  0
SCALE
  5
53
102
{ACAD_REACTORS
330
47
102
}
330
47
100
AcDbScale
 70
     0
300
1:100
140
1.0
141
100.0
290
     0
  0
SCALE
  5
54
102
{ACAD_REACTORS
330
47
102
}
330
47
100
AcDbScale
 70
     0
300
2:1
140
2.0
141
1.0
290
     0
  0
SCALE
  5
55
102
{ACAD_REACTORS
330
47
102
}
330
47
100
AcDbScale
 70
     0
300
4:1
140
4.0
141
1.0
290
     0
  0
SCALE
  5
56
102
{ACAD_REACTORS
330
47
102
}
330
47
100
AcDbScale
 70
     0
300
8:1
140
8.0
141
1.0
290
     0
  0
SCALE
  5
57
102
{ACAD_REACTORS
330
47
102
}
330
47
100
AcDbScale
 70
     0
300
10:1
140
10.0
141
1.0
290
     0
  0
SCALE
  5
58
102
{ACAD_REACTORS
330
47
102
}
330
47
100
AcDbScale
 70
     0
300
100:1
140
100.0
141
1.0
290
     0
  0
ENDSEC
  0
EOF
