  0
SECTION
  2
HEADER
  9
$ACADVER
  1
AC1015
  9
$ACADMAINTVER
 70
     6
  9
$DWGCODEPAGE
  3
DOS932
  9
$INSBASE
 10
0.0
 20
0.0
 30
0.0
  9
$EXTMIN
 10
0.0
 20
0.0
 30
0.0
  9
$EXTMAX
 10
297.0
 20
210.0
 30
0.0
  9
$LIMMIN
 10
0.0
 20
0.0
  9
$LIMMAX
 10
297.0
 20
210.0
  9
$ORTHOMODE
 70
     0
  9
$REGENMODE
 70
     1
  9
$FILLMODE
 70
     1
  9
$QTEXTMODE
 70
     0
  9
$MIRRTEXT
 70
     1
  9
$LTSCALE
 40
1.0
  9
$ATTMODE
 70
     1
  9
$TEXTSIZE
 40
3.5277777778
  9
$TRACEWID
 40
1.0
  9
$TEXTSTYLE
  7
Standard
  9
$CLAYER
  8
0
  9
$CELTYPE
  6
ByLayer
  9
$CECOLOR
 62
   256
  9
$CELTSCALE
 40
1.0
  9
$DISPSILH
 70
     0
  9
$DIMSCALE
 40
1.0
  9
$DIMASZ
 40
2.728515625
  9
$DIMEXO
 40
1.0
  9
$DIMDLI
 40
3.75
  9
$DIMRND
 40
0.0
  9
$DIMDLE
 40
0.0
  9
$DIMEXE
 40
1.0
  9
$DIMTP
 40
0.0
  9
$DIMTM
 40
0.0
  9
$DIMTXT
 40
3.5277777778
  9
$DIMCEN
 40
2.5
  9
$DIMTSZ
 40
0.0
  9
$DIMTOL
 70
     0
  9
$DIMLIM
 70
     0
  9
$DIMTIH
 70
     1
  9
$DIMTOH
 70
     1
  9
$DIMSE1
 70
     0
  9
$DIMSE2
 70
     0
  9
$DIMTAD
 70
     1
  9
$DIMZIN
 70
     0
  9
$DIMBLK
  1

  9
$DIMASO
 70
     1
  9
$DIMSHO
 70
     1
  9
$DIMPOST
  1

  9
$DIMAPOST
  1

  9
$DIMALT
 70
     0
  9
$DIMALTD
 70
     3
  9
$DIMALTF
 40
0.0393700787
  9
$DIMLFAC
 40
1.0
  9
$DIMTOFL
 70
     1
  9
$DIMTVP
 40
0.0
  9
$DIMTIX
 70
     0
  9
$DIMSOXD
 70
     0
  9
$DIMSAH
 70
     0
  9
$DIMBLK1
  1

  9
$DIMBLK2
  1

  9
$DIMSTYLE
  2
ISO-25
  9
$DIMCLRD
 70
     0
  9
$DIMCLRE
 70
     0
  9
$DIMCLRT
 70
     0
  9
$DIMTFAC
 40
1.0
  9
$DIMGAP
 40
1.524
  9
$DIMJUST
 70
     0
  9
$DIMSD1
 70
     0
  9
$DIMSD2
 70
     0
  9
$DIMTOLJ
 70
     0
  9
$DIMTZIN
 70
     0
  9
$DIMALTZ
 70
     0
  9
$DIMALTTZ
 70
     0
  9
$DIMUPT
 70
     0
  9
$DIMDEC
 70
     2
  9
$DIMTDEC
 70
     2
  9
$DIMALTU
 70
     2
  9
$DIMALTTD
 70
     3
  9
$DIMTXSTY
  7
Standard
  9
$DIMAUNIT
 70
     0
  9
$DIMADEC
 70
     2
  9
$DIMALTRND
 40
0.0
  9
$DIMAZIN
 70
     0
  9
$DIMDSEP
 70
    44
  9
$DIMATFIT
 70
     3
  9
$DIMFRAC
 70
     0
  9
$DIMLDRBLK
  1

  9
$DIMLUNIT
 70
     2
  9
$DIMLWD
 70
    -2
  9
$DIMLWE
 70
    -2
  9
$DIMTMOVE
 70
     0
  9
$LUNITS
 70
     2
  9
$LUPREC
 70
     2
  9
$SKETCHINC
 40
1.0
  9
$FILLETRAD
 40
0.0
  9
$AUNITS
 70
     0
  9
$AUPREC
 70
     2
  9
$MENU
  1
.
  9
$ELEVATION
 40
0.0
  9
$PELEVATION
 40
0.0
  9
$THICKNESS
 40
0.0
  9
$LIMCHECK
 70
     0
  9
$CHAMFERA
 40
0.0
  9
$CHAMFERB
 40
0.0
  9
$CHAMFERC
 40
0.0
  9
$CHAMFERD
 40
0.0
  9
$SKPOLY
 70
     0
  9
$TDCREATE
 40
2460376.548751713
  9
$TDUCREATE
 40
2460376.173751713
  9
$TDUPDATE
 40
2460376.548753322
  9
$TDUUPDATE
 40
2460376.173753322
  9
$TDINDWG
 40
0.0000000116
  9
$TDUSRTIMER
 40
0.0000000116
  9
$USRTIMER
 70
     1
  9
$ANGBASE
 50
0.0
  9
$ANGDIR
 70
     0
  9
$PDMODE
 70
     0
  9
$PDSIZE
 40
-1.0
  9
$PLINEWID
 40
0.0
  9
$SPLFRAME
 70
     0
  9
$SPLINETYPE
 70
     6
  9
$SPLINESEGS
 70
     8
  9
$HANDSEED
  5
1E1
  9
$SURFTAB1
 70
     6
  9
$SURFTAB2
 70
     6
  9
$SURFTYPE
 70
     6
  9
$SURFU
 70
     6
  9
$SURFV
 70
     6
  9
$UCSBASE
  2

  9
$UCSNAME
  2

  9
$UCSORG
 10
0.0
 20
0.0
 30
0.0
  9
$UCSXDIR
 10
1.0
 20
0.0
 30
0.0
  9
$UCSYDIR
 10
0.0
 20
1.0
 30
0.0
  9
$UCSORTHOREF
  2

  9
$UCSORTHOVIEW
 70
     0
  9
$UCSORGTOP
 10
0.0
 20
0.0
 30
0.0
  9
$UCSORGBOTTOM
 10
0.0
 20
0.0
 30
0.0
  9
$UCSORGLEFT
 10
0.0
 20
0.0
 30
0.0
  9
$UCSORGRIGHT
 10
0.0
 20
0.0
 30
0.0
  9
$UCSORGFRONT
 10
0.0
 20
0.0
 30
0.0
  9
$UCSORGBACK
 10
0.0
 20
0.0
 30
0.0
  9
$PUCSBASE
  2

  9
$PUCSNAME
  2

  9
$PUCSORG
 10
0.0
 20
0.0
 30
0.0
  9
$PUCSXDIR
 10
1.0
 20
0.0
 30
0.0
  9
$PUCSYDIR
 10
0.0
 20
1.0
 30
0.0
  9
$PUCSORTHOREF
  2

  9
$PUCSORTHOVIEW
 70
     0
  9
$PUCSORGTOP
 10
0.0
 20
0.0
 30
0.0
  9
$PUCSORGBOTTOM
 10
0.0
 20
0.0
 30
0.0
  9
$PUCSORGLEFT
 10
0.0
 20
0.0
 30
0.0
  9
$PUCSORGRIGHT
 10
0.0
 20
0.0
 30
0.0
  9
$PUCSORGFRONT
 10
0.0
 20
0.0
 30
0.0
  9
$PUCSORGBACK
 10
0.0
 20
0.0
 30
0.0
  9
$USERI1
 70
     0
  9
$USERI2
 70
     0
  9
$USERI3
 70
     0
  9
$USERI4
 70
     0
  9
$USERI5
 70
     0
  9
$USERR1
 40
0.0
  9
$USERR2
 40
0.0
  9
$USERR3
 40
0.0
  9
$USERR4
 40
0.0
  9
$USERR5
 40
0.0
  9
$WORLDVIEW
 70
     1
  9
$SHADEDGE
 70
     3
  9
$SHADEDIF
 70
    70
  9
$TILEMODE
 70
     1
  9
$MAXACTVP
 70
    64
  9
$PINSBASE
 10
0.0
 20
0.0
 30
0.0
  9
$PLIMCHECK
 70
     0
  9
$PEXTMIN
 10
1.0000000000E+20
 20
1.0000000000E+20
 30
1.0000000000E+20
  9
$PEXTMAX
 10
-1.0000000000E+20
 20
-1.0000000000E+20
 30
-1.0000000000E+20
  9
$PLIMMIN
 10
0.0
 20
0.0
  9
$PLIMMAX
 10
420.0
 20
297.0
  9
$UNITMODE
 70
     0
  9
$VISRETAIN
 70
     1
  9
$PLINEGEN
 70
     0
  9
$PSLTSCALE
 70
     1
  9
$TREEDEPTH
 70
  3020
  9
$CMLSTYLE
  2
Standard
  9
$CMLJUST
 70
     0
  9
$CMLSCALE
 40
20.0
  9
$PROXYGRAPHICS
 70
     1
  9
$MEASUREMENT
 70
     1
  9
$CELWEIGHT
370
    -1
  9
$ENDCAPS
280
     0
  9
$JOINSTYLE
280
     0
  9
$LWDISPLAY
290
     1
  9
$INSUNITS
 70
     4
  9
$HYPERLINKBASE
  1

  9
$STYLESHEET
  1

  9
$XEDIT
290
     1
  9
$CEPSNTYPE
380
     0
  9
$PSTYLEMODE
290
     1
  9
$FINGERPRINTGUID
  2
{17d8ee43-6506-4656-a4c2-12b0db357936}
  9
$VERSIONGUID
  2
{FAEB1C32-E019-11D5-929B-00C0DF256EC4}
  9
$EXTNAMES
290
     1
  9
$PSVPSCALE
 40
0.0
  9
$OLESTARTUP
290
     0
  0
ENDSEC
  0
SECTION
  2
CLASSES
  0
CLASS
  1
ACDBDICTIONARYWDFLT
  2
AcDbDictionaryWithDefault
  3
ObjectDBX Classes
 90
        0
280
     0
281
     0
  0
CLASS
  1
VISUALSTYLE
  2
AcDbVisualStyle
  3
ObjectDBX Classes
 90
     4095
280
     0
281
     0
  0
CLASS
  1
MATERIAL
  2
AcDbMaterial
  3
ObjectDBX Classes
 90
     1153
280
     0
281
     0
  0
CLASS
  1
SCALE
  2
AcDbScale
  3
ObjectDBX Classes
 90
     1153
280
     0
281
     0
  0
CLASS
  1
TABLESTYLE
  2
AcDbTableStyle
  3
ObjectDBX Classes
 90
     4095
280
     0
281
     0
  0
CLASS
  1
MLEADERSTYLE
  2
AcDbMLeaderStyle
  3
ACDB_MLEADERSTYLE_CLASS
 90
     4095
280
     0
281
     0
  0
CLASS
  1
SUN
  2
AcDbSun
  3
SCENEOE
 90
     1153
280
     0
281
     0
  0
CLASS
  1
ACDBPLACEHOLDER
  2
AcDbPlaceHolder
  3
ObjectDBX Classes
 90
        0
280
     0
281
     0
  0
CLASS
  1
LAYOUT
  2
AcDbLayout
  3
ObjectDBX Classes
 90
        0
280
     0
281
     0
  0
ENDSEC
  0
SECTION
  2
TABLES
  0
TABLE
  2
VPORT
  5
8
330
0
100
AcDbSymbolTable
 70
     1
  0
VPORT
  5
29
330
8
100
AcDbSymbolTableRecord
100
AcDbViewportTableRecord
  2
*Active
 70
     0
 10
0.0
 20
0.0
 11
1.0
 21
1.0
 12
148.5
 22
105.0
 13
0.0
 23
0.0
 14
10.0
 24
10.0
 15
10.0
 25
10.0
 16
0.0
 26
0.0
 36
1.0
 17
0.0
 27
0.0
 37
0.0
 40
210.0
 41
1.4142857143
 42
50.0
 43
0.0
 44
0.0
 50
0.0
 51
0.0
 71
     0
 72
  2000
 73
     1
 74
     3
 75
     0
 76
     0
 77
     0
 78
     0
281
     0
 65
     1
110
0.0
120
0.0
130
0.0
111
1.0
121
0.0
131
0.0
112
0.0
122
1.0
132
0.0
 79
     0
146
0.0
  0
ENDTAB
  0
TABLE
  2
LTYPE
  5
5
330
0
100
AcDbSymbolTable
 70
     6
  0
LTYPE
  5
14
330
5
100
AcDbSymbolTableRecord
100
AcDbLinetypeTableRecord
  2
ByBlock
 70
     0
  3

 72
    65
 73
     0
 40
0.0
  0
LTYPE
  5
15
330
5
100
AcDbSymbolTableRecord
100
AcDbLinetypeTableRecord
  2
ByLayer
 70
     0
  3

 72
    65
 73
     0
 40
0.0
  0
LTYPE
  5
16
330
5
100
AcDbSymbolTableRecord
100
AcDbLinetypeTableRecord
  2
Continuous
 70
     0
  3
Solid line
 72
    65
 73
     0
 40
0.0
  0
LTYPE
  5
5E
330
5
100
AcDbSymbolTableRecord
100
AcDbLinetypeTableRecord
  2
HIDDEN
 70
     0
  3
Hidden __ __ __ __ __ __ __ __ __ __ __ __ __ __
 72
    65
 73
     2
 40
1.905
 49
1.27
 74
     0
 49
-0.635
 74
     0
  0
LTYPE
  5
5F
330
5
100
AcDbSymbolTableRecord
100
AcDbLinetypeTableRecord
  2
PHANTOM
 70
     0
  3
Phantom ______  __  __  ______  __  __  ______
 72
    65
 73
     6
 40
12.7
 49
6.35
 74
     0
 49
-1.27
 74
     0
 49
1.27
 74
     0
 49
-1.27
 74
     0
 49
1.27
 74
     0
 49
-1.27
 74
     0
  0
LTYPE
  5
60
330
5
100
AcDbSymbolTableRecord
100
AcDbLinetypeTableRecord
  2
CENTER
 70
     0
  3
Center ____ _ ____ _ ____ _ ____ _ ____ _ ____
 72
    65
 73
     4
 40
10.16
 49
6.35
 74
     0
 49
-1.27
 74
     0
 49
1.27
 74
     0
 49
-1.27
 74
     0
  0
LTYPE
  5
61
330
5
100
AcDbSymbolTableRecord
100
AcDbLinetypeTableRecord
  2
CENTERX2
 70
     0
  3
Center (2x) ________  __  ________  __  _____
 72
    65
 73
     4
 40
20.32
 49
12.7
 74
     0
 49
-2.54
 74
     0
 49
2.54
 74
     0
 49
-2.54
 74
     0
  0
LTYPE
  5
62
330
5
100
AcDbSymbolTableRecord
100
AcDbLinetypeTableRecord
  2
DOT2
 70
     0
  3
Dot (.5x) ........................................
 72
    65
 73
     2
 40
0.635
 49
0.0
 74
     0
 49
-0.635
 74
     0
  0
ENDTAB
  0
TABLE
  2
LAYER
  5
2
330
0
100
AcDbSymbolTable
 70
     2
  0
LAYER
  5
10
330
2
100
AcDbSymbolTableRecord
100
AcDbLayerTableRecord
  2
0
 70
     0
 62
     7
  6
Continuous
370
    -3
390
F
  0
LAYER
  5
63
330
2
100
AcDbSymbolTableRecord
100
AcDbLayerTableRecord
  2
FORMAT
 70
     0
 62
     7
  6
Continuous
370
    -3
390
F
  0
ENDTAB
  0
TABLE
  2
STYLE
  5
3
330
0
100
AcDbSymbolTable
 70
     2
  0
STYLE
  5
11
330
3
100
AcDbSymbolTableRecord
100
AcDbTextStyleTableRecord
  2
Standard
 70
     0
 40
0.0
 41
1.0
 50
0.0
 71
     0
 42
3.5277777778
  3
txt
  4
bigfont
  0
STYLE
  5
64
330
3
100
AcDbSymbolTableRecord
100
AcDbTextStyleTableRecord
  2
SLDTEXTSTYLE0
 70
     0
 40
0.0
 41
0.7
 50
0.0
 71
     0
 42
3.5277777778
  3
TXT
  4
bigfont
  0
ENDTAB
  0
TABLE
  2
VIEW
  5
6
330
0
100
AcDbSymbolTable
 70
     0
  0
ENDTAB
  0
TABLE
  2
UCS
  5
7
330
0
100
AcDbSymbolTable
 70
     0
  0
ENDTAB
  0
TABLE
  2
APPID
  5
9
330
0
100
AcDbSymbolTable
 70
     1
  0
APPID
  5
12
330
9
100
AcDbSymbolTableRecord
100
AcDbRegAppTableRecord
  2
ACAD
 70
     0
  0
ENDTAB
  0
TABLE
  2
DIMSTYLE
  5
A
330
0
100
AcDbSymbolTable
 70
     1
100
AcDbDimStyleTable
  0
DIMSTYLE
105
27
330
A
100
AcDbSymbolTableRecord
100
AcDbDimStyleTableRecord
  2
ISO-25
 70
     0
 41
2.5
 42
0.625
 43
3.75
 44
1.25
 73
     0
 74
     0
 77
     1
 78
     8
140
2.5
141
2.5
143
0.0393700787
147
0.625
171
     3
172
     1
178
     0
271
     2
272
     2
274
     3
278
    44
283
     0
284
     8
340
11
  0
ENDTAB
  0
TABLE
  2
BLOCK_RECORD
  5
1
330
0
100
AcDbSymbolTable
 70
     3
  0
BLOCK_RECORD
  5
1F
330
1
100
AcDbSymbolTableRecord
100
AcDbBlockTableRecord
  2
*Model_Space
340
22
  0
BLOCK_RECORD
  5
1B
330
1
100
AcDbSymbolTableRecord
100
AcDbBlockTableRecord
  2
*Paper_Space
340
1E
  0
BLOCK_RECORD
  5
23
330
1
100
AcDbSymbolTableRecord
100
AcDbBlockTableRecord
  2
*Paper_Space0
340
26
  0
BLOCK_RECORD
  5
145
330
1
100
AcDbSymbolTableRecord
100
AcDbBlockTableRecord
  2
SW_CENTERMARKSYMBOL_0
340
0
102
{BLKREFS
331
150
102
}
  0
BLOCK_RECORD
  5
1D1
330
1
100
AcDbSymbolTableRecord
100
AcDbBlockTableRecord
  2
SW_CENTERMARKSYMBOL_1
340
0
102
{BLKREFS
331
1DC
102
}
  0
ENDTAB
  0
ENDSEC
  0
SECTION
  2
BLOCKS
  0
BLOCK
  5
20
330
1F
100
AcDbEntity
  8
0
100
AcDbBlockBegin
  2
*Model_Space
 70
     0
 10
0.0
 20
0.0
 30
0.0
  3
*Model_Space
  1

  0
ENDBLK
  5
21
330
1F
100
AcDbEntity
  8
0
100
AcDbBlockEnd
  0
BLOCK
  5
1C
330
1B
100
AcDbEntity
 67
     1
  8
0
100
AcDbBlockBegin
  2
*Paper_Space
 70
     0
 10
0.0
 20
0.0
 30
0.0
  3
*Paper_Space
  1

  0
ENDBLK
  5
1D
330
1B
100
AcDbEntity
 67
     1
  8
0
100
AcDbBlockEnd
  0
BLOCK
  5
24
330
23
100
AcDbEntity
  8
0
100
AcDbBlockBegin
  2
*Paper_Space0
 70
     0
 10
0.0
 20
0.0
 30
0.0
  3
*Paper_Space0
  1

  0
ENDBLK
  5
25
330
23
100
AcDbEntity
  8
0
100
AcDbBlockEnd
  0
BLOCK
  5
146
330
145
100
AcDbEntity
  8
0
100
AcDbBlockBegin
  2
SW_CENTERMARKSYMBOL_0
 70
     0
 10
0.0
 20
0.0
 30
0.0
  3
SW_CENTERMARKSYMBOL_0
  1

  0
LINE
  5
148
330
145
100
AcDbEntity
  8
FORMAT
 62
     0
100
AcDbLine
 10
0.0
 20
0.0
 30
0.0
 11
0.0
 21
2.5
 31
0.0
  0
LINE
  5
149
330
145
100
AcDbEntity
  8
FORMAT
 62
     0
100
AcDbLine
 10
0.0
 20
0.0
 30
0.0
 11
-2.5
 21
0.0
 31
0.0
  0
LINE
  5
14A
330
145
100
AcDbEntity
  8
FORMAT
 62
     0
100
AcDbLine
 10
0.0
 20
0.0
 30
0.0
 11
0.0
 21
-2.5
 31
0.0
  0
LINE
  5
14B
330
145
100
AcDbEntity
  8
FORMAT
 62
     0
100
AcDbLine
 10
0.0
 20
0.0
 30
0.0
 11
2.5
 21
0.0
 31
0.0
  0
LINE
  5
14C
330
145
100
AcDbEntity
  8
FORMAT
 62
     0
100
AcDbLine
 10
0.0
 20
5.0
 30
0.0
 11
0.0
 21
30.1149818653
 31
0.0
  0
LINE
  5
14D
330
145
100
AcDbEntity
  8
FORMAT
 62
     0
100
AcDbLine
 10
-5.0
 20
0.0
 30
0.0
 11
-14.05
 21
0.0
 31
0.0
  0
LINE
  5
14E
330
145
100
AcDbEntity
  8
FORMAT
 62
     0
100
AcDbLine
 10
0.0
 20
-5.0
 30
0.0
 11
0.0
 21
-15.1722184549
 31
0.0
  0
LINE
  5
14F
330
145
100
AcDbEntity
  8
FORMAT
 62
     0
100
AcDbLine
 10
5.0
 20
0.0
 30
0.0
 11
14.05
 21
0.0
 31
0.0
  0
ENDBLK
  5
147
330
145
100
AcDbEntity
  8
0
100
AcDbBlockEnd
  0
BLOCK
  5
1D2
330
1D1
100
AcDbEntity
  8
0
100
AcDbBlockBegin
  2
SW_CENTERMARKSYMBOL_1
 70
     0
 10
0.0
 20
0.0
 30
0.0
  3
SW_CENTERMARKSYMBOL_1
  1

  0
LINE
  5
1D4
330
1D1
100
AcDbEntity
  8
FORMAT
 62
     0
100
AcDbLine
 10
0.0
 20
0.0
 30
0.0
 11
0.0
 21
2.5
 31
0.0
  0
LINE
  5
1D5
330
1D1
100
AcDbEntity
  8
FORMAT
 62
     0
100
AcDbLine
 10
0.0
 20
0.0
 30
0.0
 11
-2.5
 21
0.0
 31
0.0
  0
LINE
  5
1D6
330
1D1
100
AcDbEntity
  8
FORMAT
 62
     0
100
AcDbLine
 10
0.0
 20
0.0
 30
0.0
 11
0.0
 21
-2.5
 31
0.0
  0
LINE
  5
1D7
330
1D1
100
AcDbEntity
  8
FORMAT
 62
     0
100
AcDbLine
 10
0.0
 20
0.0
 30
0.0
 11
2.5
 21
0.0
 31
0.0
  0
LINE
  5
1D8
330
1D1
100
AcDbEntity
  8
FORMAT
 62
     0
100
AcDbLine
 10
0.0
 20
5.0
 30
0.0
 11
0.0
 21
11.0714285714
 31
0.0
  0
LINE
  5
1D9
330
1D1
100
AcDbEntity
  8
FORMAT
 62
     0
100
AcDbLine
 10
-5.0
 20
0.0
 30
0.0
 11
-11.0714285714
 21
0.0
 31
0.0
  0
LINE
  5
1DA
330
1D1
100
AcDbEntity
  8
FORMAT
 62
     0
100
AcDbLine
 10
0.0
 20
-5.0
 30
0.0
 11
0.0
 21
-11.0714285714
 31
0.0
  0
LINE
  5
1DB
330
1D1
100
AcDbEntity
  8
FORMAT
 62
     0
100
AcDbLine
 10
5.0
 20
0.0
 30
0.0
 11
37.4331082858
 21
0.0
 31
0.0
  0
ENDBLK
  5
1D3
330
1D1
100
AcDbEntity
  8
0
100
AcDbBlockEnd
  0
ENDSEC
  0
SECTION
  2
ENTITIES
  0
MTEXT
  5
65
330
1F
100
AcDbEntity
  8
FORMAT
100
AcDbMText
 10
125.7068693484
 20
97.4064331445
 30
0.0
 40
3.7041666667
 41
0.0
 71
     2
 72
     1
  1
5R-RL1312
  7
SLDTEXTSTYLE0
 73
     1
 44
1.0
  0
LINE
  5
66
330
1F
100
AcDbEntity
  8
0
  6
Continuous
 62
     7
370
    25
100
AcDbLine
 10
106.4231703737
 20
71.9036463866
 30
0.0
 11
105.2070360367
 21
69.7972399261
 31
0.0
  0
LINE
  5
67
330
1F
100
AcDbEntity
  8
0
  6
Continuous
 62
     7
370
    25
100
AcDbLine
 10
105.2070360367
 20
46.2972399261
 30
0.0
 11
106.4231703737
 21
44.1908334655
 31
0.0
  0
LINE
  5
68
330
1F
100
AcDbEntity
  8
0
  6
Continuous
 62
     7
370
    25
100
AcDbLine
 10
123.0070360367
 20
46.2972399261
 30
0.0
 11
123.2070360367
 21
46.4972399261
 31
0.0
  0
LINE
  5
69
330
1F
100
AcDbEntity
  8
0
  6
Continuous
 62
     7
370
    25
100
AcDbLine
 10
123.2070360367
 20
69.5972399261
 30
0.0
 11
123.0070360367
 21
69.7972399261
 31
0.0
  0
LINE
  5
6A
330
1F
100
AcDbEntity
  8
0
  6
Continuous
 62
     7
370
    25
100
AcDbLine
 10
123.0070360367
 20
69.7972399261
 30
0.0
 11
121.9287238732
 21
69.7972399261
 31
0.0
  0
LINE
  5
6B
330
1F
100
AcDbEntity
  8
0
  6
Continuous
 62
     7
370
    25
100
AcDbLine
 10
121.9287238732
 20
46.2972399261
 30
0.0
 11
123.0070360367
 21
46.2972399261
 31
0.0
  0
ARC
  5
6C
330
1F
100
AcDbEntity
  8
0
  6
Continuous
 62
     7
370
    25
100
AcDbCircle
 10
121.9287238732
 20
71.0472399261
 30
0.0
 40
1.250000000000004
100
AcDbArc
 50
210.0
 51
270.0
  0
LINE
  5
6D
330
1F
100
AcDbEntity
  8
0
  6
Continuous
 62
     7
370
    25
100
AcDbLine
 10
120.8461921184
 20
70.4222399261
 30
0.0
 11
119.9909016997
 21
71.9036463866
 31
0.0
  0
ARC
  5
6E
330
1F
100
AcDbEntity
  8
0
  6
Continuous
 62
     7
370
    25
100
AcDbCircle
 10
121.9287238732
 20
45.0472399261
 30
0.0
 40
1.25
100
AcDbArc
 50
90.0
 51
150.0
  0
LINE
  5
6F
330
1F
100
AcDbEntity
  8
0
  6
Continuous
 62
     7
370
    25
100
AcDbLine
 10
119.9909016997
 20
44.1908334655
 30
0.0
 11
120.8461921184
 21
45.6722399261
 31
0.0
  0
LINE
  5
70
330
1F
100
AcDbEntity
  8
0
  6
Continuous
 62
     7
370
    25
100
AcDbLine
 10
105.2070360367
 20
68.5247399261
 30
0.0
 11
101.9157460741
 21
68.5247399261
 31
0.0
  0
LINE
  5
71
330
1F
100
AcDbEntity
  8
0
  6
Continuous
 62
     7
370
    25
100
AcDbLine
 10
101.9157460741
 20
47.5697399261
 30
0.0
 11
105.2070360367
 21
47.5697399261
 31
0.0
  0
ARC
  5
72
330
1F
100
AcDbEntity
  8
0
  6
Continuous
 62
     7
370
    25
100
AcDbCircle
 10
103.7228829671
 20
49.2972399261
 30
0.0
 40
2.500000000000012
100
AcDbArc
 50
206.7436839504
 51
223.7093197495
  0
ARC
  5
73
330
1F
100
AcDbEntity
  8
0
  6
Continuous
 62
     7
370
    25
100
AcDbCircle
 10
103.7228829671
 20
66.7972399261
 30
0.0
 40
2.500000000000009
100
AcDbArc
 50
136.2906802505
 51
153.2563160496
  0
ARC
  5
74
330
1F
100
AcDbEntity
  8
0
  6
Continuous
 62
     7
370
    25
100
AcDbCircle
 10
99.2577401922
 20
47.0472399261
 30
0.0
 40
2.5
100
AcDbArc
 50
26.7436839504
 51
90.0
  0
ARC
  5
75
330
1F
100
AcDbEntity
  8
0
  6
Continuous
 62
     7
370
    25
100
AcDbCircle
 10
99.2577401922
 20
69.0472399261
 30
0.0
 40
2.5
100
AcDbArc
 50
270.0
 51
333.2563160496
  0
LINE
  5
76
330
1F
100
AcDbEntity
  8
0
  6
Continuous
 62
     7
370
    25
100
AcDbLine
 10
95.4177401922
 20
71.4272399261
 30
0.0
 11
95.3291687636
 21
72.0472399261
 31
0.0
  0
LINE
  5
77
330
1F
100
AcDbEntity
  8
0
  6
Continuous
 62
     7
370
    25
100
AcDbLine
 10
78.1863116208
 20
72.0472399261
 30
0.0
 11
78.0977401922
 21
71.4272399261
 31
0.0
  0
ARC
  5
78
330
1F
100
AcDbEntity
  8
0
  6
Continuous
 62
     7
370
    25
100
AcDbCircle
 10
97.7577401922
 20
70.5472399261
 30
0.0
 40
2.500000000000015
100
AcDbArc
 50
159.3903070625
 51
180.0
  0
ARC
  5
79
330
1F
100
AcDbEntity
  8
0
  6
Continuous
 62
     7
370
    25
100
AcDbCircle
 10
75.7577401922
 20
70.5472399261
 30
0.0
 40
2.500000000000002
100
AcDbArc
 50
0.0
 51
20.6096929375
  0
LINE
  5
7A
330
1F
100
AcDbEntity
  8
0
  6
Continuous
 62
     7
370
    25
100
AcDbLine
 10
95.3278026922
 20
72.0472399261
 30
0.0
 11
94.955112362
 21
83.9733304924
 31
0.0
  0
LINE
  5
7B
330
1F
100
AcDbEntity
  8
0
  6
Continuous
 62
     7
370
    25
100
AcDbLine
 10
78.5603680224
 20
83.9733304924
 30
0.0
 11
78.1876776922
 21
72.0472399261
 31
0.0
  0
LINE
  5
7C
330
1F
100
AcDbEntity
  8
0
  6
Continuous
 62
     7
370
    25
100
AcDbLine
 10
78.2577401922
 20
70.5472399261
 30
0.0
 11
78.2577401922
 21
52.5428392577
 31
0.0
  0
LINE
  5
7D
330
1F
100
AcDbEntity
  8
0
  6
Continuous
 62
     7
370
    25
100
AcDbLine
 10
95.2577401922
 20
67.0472399261
 30
0.0
 11
95.2577401922
 21
70.5472399261
 31
0.0
  0
LINE
  5
7E
330
1F
100
AcDbEntity
  8
0
  6
Continuous
 62
     7
370
    25
100
AcDbLine
 10
99.2577401922
 20
66.5472399261
 30
0.0
 11
95.7577401922
 21
66.5472399261
 31
0.0
  0
LINE
  5
7F
330
1F
100
AcDbEntity
  8
0
  6
Continuous
 62
     7
370
    25
100
AcDbLine
 10
81.2533395238
 20
49.5472399261
 30
0.0
 11
99.2577401922
 21
49.5472399261
 31
0.0
  0
LINE
  5
80
330
1F
100
AcDbEntity
  8
0
  6
Continuous
 62
     7
370
    25
100
AcDbLine
 10
94.955112362
 20
83.9733304924
 30
0.0
 11
93.7577401922
 21
86.0472399261
 31
0.0
  0
LINE
  5
81
330
1F
100
AcDbEntity
  8
0
  6
Continuous
 62
     7
370
    25
100
AcDbLine
 10
79.7577401922
 20
86.0472399261
 30
0.0
 11
78.5603680224
 21
83.9733304924
 31
0.0
  0
SPLINE
  5
82
330
1F
100
AcDbEntity
  8
0
  6
Continuous
 62
     7
370
    25
100
AcDbSpline
210
0.0
220
0.0
230
1.0
 70
     8
 71
     3
 72
    21
 73
    17
 74
     0
 42
0.00000001
 43
0.00000001
 40
0.0
 40
0.0
 40
0.0
 40
0.0
 40
0.082675667536071
 40
0.1577159023869824
 40
0.225107122878268
 40
0.2848508575649881
 40
0.3526127842311548
 40
0.4067896671894032
 40
0.4520101410146769
 40
0.5086861790580107
 40
0.5792250314326626
 40
0.6636251927364243
 40
0.7360318665421361
 40
0.8162246244150331
 40
0.9042198598363963
 40
1.0
 40
1.0
 40
1.0
 40
1.0
 10
78.25774019245927
 20
52.54720030312396
 30
0.0
 10
78.26263791603203
 20
52.41732319629681
 30
0.0
 10
78.27198103857275
 20
52.16956365938447
 30
0.0
 10
78.34102763513741
 20
51.82169451181572
 30
0.0
 10
78.43441573874156
 20
51.51791814432087
 30
0.0
 10
78.55404534256715
 20
51.23579506944711
 30
0.0
 10
78.69134091451599
 20
50.98518451836705
 30
0.0
 10
78.83889274248263
 20
50.76781775111179
 30
0.0
 10
78.99190334271208
 20
50.57622005193117
 30
0.0
 10
79.17746206147548
 20
50.37863588173019
 30
0.0
 10
79.4286458022467
 20
50.16020158151139
 30
0.0
 10
79.72515889780522
 20
49.95970380650236
 30
0.0
 10
80.05714204927173
 20
49.78987777604308
 30
0.0
 10
80.41273861530851
 20
49.66038912360423
 30
0.0
 10
80.81843986599132
 20
49.56645829433022
 30
0.0
 10
81.10720290649462
 20
49.5538244431137
 30
0.0
 10
81.25770056922795
 20
49.54723992635527
 30
0.0
  0
SPLINE
  5
83
330
1F
100
AcDbEntity
  8
0
  6
Continuous
 62
     7
370
    25
100
AcDbSpline
210
0.0
220
0.0
230
1.0
 70
     8
 71
     3
 72
    11
 73
     7
 74
     0
 42
0.00000001
 43
0.00000001
 40
0.0
 40
0.0
 40
0.0
 40
0.0
 40
0.2500481156911711
 40
0.5000000000000012
 40
0.7499518843088333
 40
1.0
 40
1.0
 40
1.0
 40
1.0
 10
95.76257352337107
 20
66.54723992609023
 30
0.0
 10
95.69617238988425
 20
66.55433235034957
 30
0.0
 10
95.56339567748378
 20
66.5685144693384
 30
0.0
 10
95.39579736889876
 20
66.68529710279476
 30
0.0
 10
95.27901473544239
 20
66.85289541137979
 30
0.0
 10
95.26483261645355
 20
66.98567212378026
 30
0.0
 10
95.2577401921942
 20
67.05207325726708
 30
0.0
  0
LINE
  5
84
330
1F
100
AcDbEntity
  8
0
  6
Continuous
 62
     7
370
    25
100
AcDbLine
 10
120.8461921184
 20
61.0705865817
 30
0.0
 11
120.8461921184
 21
66.9278714437
 31
0.0
  0
ARC
  5
85
330
1F
100
AcDbEntity
  8
0
  6
Continuous
 62
     7
370
    25
100
AcDbCircle
 10
121.8715253017
 20
67.8719490101
 30
0.0
 40
1.393768484391357
100
AcDbArc
 50
222.6373822127
 51
272.352009954
  0
LINE
  5
86
330
1F
100
AcDbEntity
  8
0
  6
Continuous
 62
     7
370
    25
100
AcDbLine
 10
121.9287238732
 20
66.4793547004
 30
0.0
 11
121.9287238732
 21
60.9178923062
 31
0.0
  0
ARC
  5
87
330
1F
100
AcDbEntity
  8
0
  6
Continuous
 62
     7
370
    25
100
AcDbCircle
 10
121.8178306613
 20
64.0453824885
 30
0.0
 40
3.129455566915818
100
AcDbArc
 50
251.9117403692
 51
272.0307185446
  0
SPLINE
  5
88
330
1F
100
AcDbEntity
  8
0
  6
Continuous
 62
     7
370
    25
100
AcDbSpline
210
0.0
220
0.0
230
1.0
 70
     8
 71
     3
 72
    12
 73
     8
 74
     0
 42
0.00000001
 43
0.00000001
 40
0.0
 40
0.0
 40
0.0
 40
0.0
 40
0.212968915467141
 40
0.4084755341932517
 40
0.603978421081841
 40
0.8019834228453045
 40
1.0
 40
1.0
 40
1.0
 40
1.0
 10
120.8461921184345
 20
61.07058658170218
 30
0.0
 10
120.8996016395149
 20
60.64314054359684
 30
0.0
 10
121.0020413904356
 20
59.82329672568152
 30
0.0
 10
121.0657647473474
 20
58.60263869223409
 30
0.0
 10
121.0639696261103
 20
57.41119023053437
 30
0.0
 10
120.9961295959312
 20
56.21598907773325
 30
0.0
 10
120.8961722514909
 20
55.42126628259864
 30
0.0
 10
120.8461921184345
 20
55.02389327047827
 30
0.0
  0
SPLINE
  5
89
330
1F
100
AcDbEntity
  8
0
  6
Continuous
 62
     7
370
    25
100
AcDbSpline
210
0.0
220
0.0
230
1.0
 70
     8
 71
     3
 72
    10
 73
     6
 74
     0
 42
0.00000001
 43
0.00000001
 40
0.0
 40
0.0
 40
0.0
 40
0.0
 40
0.2966942842518304
 40
0.5940284356736802
 40
1.0
 40
1.0
 40
1.0
 40
1.0
 10
120.8461921184345
 20
55.02389327047827
 30
0.0
 10
120.7850296577546
 20
54.63296480422768
 30
0.0
 10
120.6625728300768
 20
53.85026477394992
 30
0.0
 10
120.3822244686083
 20
52.54573946557993
 30
0.0
 10
120.1341173947052
 20
51.64117914448309
 30
0.0
 10
119.9909016996561
 20
51.11903669581472
 30
0.0
  0
LINE
  5
8A
330
1F
100
AcDbEntity
  8
0
  6
Continuous
 62
     7
370
    25
100
AcDbLine
 10
119.9909016997
 20
51.1190366958
 30
0.0
 11
106.4231703737
 21
51.1190366958
 31
0.0
  0
SPLINE
  5
8B
330
1F
100
AcDbEntity
  8
0
  6
Continuous
 62
     7
370
    25
100
AcDbSpline
210
0.0
220
0.0
230
1.0
 70
     8
 71
     3
 72
    15
 73
    11
 74
     0
 42
0.00000001
 43
0.00000001
 40
0.0
 40
0.0
 40
0.0
 40
0.0
 40
0.1213054199371034
 40
0.2465545822907885
 40
0.371771874444394
 40
0.5000845163939638
 40
0.6283971760142559
 40
0.7521680990544977
 40
0.8761257978699181
 40
1.0
 40
1.0
 40
1.0
 40
1.0
 10
106.4231703736999
 20
51.11903669581472
 30
0.0
 10
106.272826039607
 20
51.66768926490948
 30
0.0
 10
105.9672495491971
 20
52.78283156494906
 30
0.0
 10
105.6287794433997
 20
54.49439569066269
 30
0.0
 10
105.4025990231442
 20
56.25746660817757
 30
0.0
 10
105.3265034565149
 20
58.04840212913122
 30
0.0
 10
105.4023948143967
 20
59.83257066561289
 30
0.0
 10
105.6268271100777
 20
61.58287676951893
 30
0.0
 10
105.96352955779
 20
63.29394653902536
 30
0.0
 10
106.2699911849103
 20
64.41507018929849
 30
0.0
 10
106.4231703736999
 20
64.97544315636574
 30
0.0
  0
LINE
  5
8C
330
1F
100
AcDbEntity
  8
0
  6
Continuous
 62
     7
370
    25
100
AcDbLine
 10
119.9909016997
 20
64.9754431564
 30
0.0
 11
106.4231703737
 21
64.9754431564
 31
0.0
  0
SPLINE
  5
8D
330
1F
100
AcDbEntity
  8
0
  6
Continuous
 62
     7
370
    25
100
AcDbSpline
210
0.0
220
0.0
230
1.0
 70
     8
 71
     3
 72
     9
 73
     5
 74
     0
 42
0.00000001
 43
0.00000001
 40
0.0
 40
0.0
 40
0.0
 40
0.0
 40
0.4988470384231427
 40
1.0
 40
1.0
 40
1.0
 40
1.0
 10
119.9909016996561
 20
64.97544315636574
 30
0.0
 10
120.1674776999946
 20
64.33366251649724
 30
0.0
 10
120.5214459241955
 20
63.04713460225488
 30
0.0
 10
120.7377771059945
 20
61.73044798127491
 30
0.0
 10
120.8461921184345
 20
61.07058658170218
 30
0.0
  0
SPLINE
  5
8E
330
1F
100
AcDbEntity
  8
0
  6
Continuous
 62
     7
370
    25
100
AcDbSpline
210
0.0
220
0.0
230
1.0
 70
     8
 71
     3
 72
    11
 73
     7
 74
     0
 42
0.00000001
 43
0.00000001
 40
0.0
 40
0.0
 40
0.0
 40
0.0
 40
0.289631296853433
 40
0.5811875798131639
 40
0.7902304971769973
 40
1.0
 40
1.0
 40
1.0
 40
1.0
 10
120.8461921184345
 20
49.16660840848294
 30
0.0
 10
120.91553895545
 20
48.87568936822992
 30
0.0
 10
121.0546935316667
 20
48.29191774284586
 30
0.0
 10
121.0765845119935
 20
47.49173504896975
 30
0.0
 10
121.0041864609709
 20
46.77402280131698
 30
0.0
 10
120.8989177751381
 20
46.3537584704652
 30
0.0
 10
120.8461921184345
 20
46.14326175287098
 30
0.0
  0
SPLINE
  5
8F
330
1F
100
AcDbEntity
  8
0
  6
Continuous
 62
     7
370
    25
100
AcDbSpline
210
0.0
220
0.0
230
1.0
 70
     8
 71
     3
 72
     9
 73
     5
 74
     0
 42
0.00000001
 43
0.00000001
 40
0.0
 40
0.0
 40
0.0
 40
0.0
 40
0.4986680494787147
 40
1.0
 40
1.0
 40
1.0
 40
1.0
 10
120.8461921184345
 20
46.14326175287098
 30
0.0
 10
120.7383852278502
 20
45.81496240280468
 30
0.0
 10
120.5221955387434
 20
45.15660991679823
 30
0.0
 10
120.1683138812573
 20
44.5133301604967
 30
0.0
 10
119.9909016996561
 20
44.1908334655392
 30
0.0
  0
LINE
  5
90
330
1F
100
AcDbEntity
  8
0
  6
Continuous
 62
     7
370
    25
100
AcDbLine
 10
119.9909016997
 20
44.1908334655
 30
0.0
 11
106.4231703737
 21
44.1908334655
 31
0.0
  0
SPLINE
  5
91
330
1F
100
AcDbEntity
  8
0
  6
Continuous
 62
     7
370
    25
100
AcDbSpline
210
0.0
220
0.0
230
1.0
 70
     8
 71
     3
 72
    15
 73
    11
 74
     0
 42
0.00000001
 43
0.00000001
 40
0.0
 40
0.0
 40
0.0
 40
0.0
 40
0.1323065044264402
 40
0.2645755999739296
 40
0.399803678967109
 40
0.5350073556765891
 40
0.650196947540502
 40
0.7654045076453764
 40
0.8826909144168966
 40
1.0
 40
1.0
 40
1.0
 40
1.0
 10
106.4231703736999
 20
44.1908334655392
 30
0.0
 10
106.2600112917822
 20
44.4901622883098
 30
0.0
 10
105.9337392602089
 20
45.08873530040275
 30
0.0
 10
105.582684557189
 20
46.01048507719553
 30
0.0
 10
105.3716077716599
 20
46.9496101909461
 30
0.0
 10
105.3298104613743
 20
47.85471108898929
 30
0.0
 10
105.438269094075
 20
48.71090779377384
 30
0.0
 10
105.6604950031359
 20
49.51894030258335
 30
0.0
 10
105.9864727764222
 20
50.32331937169328
 30
0.0
 10
106.2775951268156
 20
50.85378049419793
 30
0.0
 10
106.4231703736999
 20
51.11903669581472
 30
0.0
  0
SPLINE
  5
92
330
1F
100
AcDbEntity
  8
0
  6
Continuous
 62
     7
370
    25
100
AcDbSpline
210
0.0
220
0.0
230
1.0
 70
     8
 71
     3
 72
     9
 73
     5
 74
     0
 42
0.00000001
 43
0.00000001
 40
0.0
 40
0.0
 40
0.0
 40
0.0
 40
0.4988470384231431
 40
1.0
 40
1.0
 40
1.0
 40
1.0
 10
119.9909016996561
 20
51.11903669581472
 30
0.0
 10
120.1674776999947
 20
50.79814637588047
 30
0.0
 10
120.5214459241956
 20
50.15488241875929
 30
0.0
 10
120.7377771059945
 20
49.4965391082693
 30
0.0
 10
120.8461921184345
 20
49.16660840848294
 30
0.0
  0
SPLINE
  5
93
330
1F
100
AcDbEntity
  8
0
  6
Continuous
 62
     7
370
    25
100
AcDbSpline
210
0.0
220
0.0
230
1.0
 70
     8
 71
     3
 72
     9
 73
     5
 74
     0
 42
0.00000001
 43
0.00000001
 40
0.0
 40
0.0
 40
0.0
 40
0.0
 40
0.4986680494787146
 40
1.0
 40
1.0
 40
1.0
 40
1.0
 10
120.8461921184345
 20
66.92787144369753
 30
0.0
 10
120.7383852278502
 20
66.59957209363122
 30
0.0
 10
120.5221955387434
 20
65.94121960762477
 30
0.0
 10
120.1683138812573
 20
65.29793985132325
 30
0.0
 10
119.9909016996561
 20
64.97544315636574
 30
0.0
  0
SPLINE
  5
94
330
1F
100
AcDbEntity
  8
0
  6
Continuous
 62
     7
370
    25
100
AcDbSpline
210
0.0
220
0.0
230
1.0
 70
     8
 71
     3
 72
    11
 73
     7
 74
     0
 42
0.00000001
 43
0.00000001
 40
0.0
 40
0.0
 40
0.0
 40
0.0
 40
0.2896312968534326
 40
0.5811875798131635
 40
0.7902304971769967
 40
1.0
 40
1.0
 40
1.0
 40
1.0
 10
120.8461921184345
 20
69.95121809930947
 30
0.0
 10
120.91553895545
 20
69.66029905905646
 30
0.0
 10
121.0546935316667
 20
69.0765274336724
 30
0.0
 10
121.0765845119935
 20
68.2763447397963
 30
0.0
 10
121.0041864609709
 20
67.55863249214353
 30
0.0
 10
120.8989177751381
 20
67.13836816129175
 30
0.0
 10
120.8461921184345
 20
66.92787144369753
 30
0.0
  0
SPLINE
  5
95
330
1F
100
AcDbEntity
  8
0
  6
Continuous
 62
     7
370
    25
100
AcDbSpline
210
0.0
220
0.0
230
1.0
 70
     8
 71
     3
 72
    15
 73
    11
 74
     0
 42
0.00000001
 43
0.00000001
 40
0.0
 40
0.0
 40
0.0
 40
0.0
 40
0.1323065044264403
 40
0.2645755999739298
 40
0.3998036789671092
 40
0.5350073556765891
 40
0.6501969475405018
 40
0.7654045076453763
 40
0.8826909144168966
 40
0.9999999999999999
 40
0.9999999999999999
 40
0.9999999999999999
 40
0.9999999999999999
 10
106.4231703736999
 20
64.97544315636574
 30
0.0
 10
106.2600112917822
 20
65.27477197913635
 30
0.0
 10
105.9337392602089
 20
65.87334499122929
 30
0.0
 10
105.582684557189
 20
66.79509476802208
 30
0.0
 10
105.3716077716599
 20
67.73421988177265
 30
0.0
 10
105.3298104613743
 20
68.63932077981585
 30
0.0
 10
105.438269094075
 20
69.49551748460038
 30
0.0
 10
105.6604950031359
 20
70.30354999340987
 30
0.0
 10
105.9864727764222
 20
71.10792906251983
 30
0.0
 10
106.2775951268156
 20
71.63839018502446
 30
0.0
 10
106.4231703736999
 20
71.90364638664124
 30
0.0
  0
LINE
  5
96
330
1F
100
AcDbEntity
  8
0
  6
Continuous
 62
     7
370
    25
100
AcDbLine
 10
119.9909016997
 20
71.9036463866
 30
0.0
 11
106.4231703737
 21
71.9036463866
 31
0.0
  0
SPLINE
  5
97
330
1F
100
AcDbEntity
  8
0
  6
Continuous
 62
     7
370
    25
100
AcDbSpline
210
0.0
220
0.0
230
1.0
 70
     8
 71
     3
 72
     9
 73
     5
 74
     0
 42
0.00000001
 43
0.00000001
 40
0.0
 40
0.0
 40
0.0
 40
0.0
 40
0.4988470384231428
 40
1.0
 40
1.0
 40
1.0
 40
1.0
 10
119.9909016996561
 20
71.90364638664124
 30
0.0
 10
120.1674776999946
 20
71.58275606670699
 30
0.0
 10
120.5214459241955
 20
70.93949210958581
 30
0.0
 10
120.7377771059945
 20
70.28114879909583
 30
0.0
 10
120.8461921184345
 20
69.95121809930947
 30
0.0
  0
LINE
  5
98
330
1F
100
AcDbEntity
  8
0
  6
Continuous
 62
     7
370
    25
100
AcDbLine
 10
105.2070360367
 20
58.0472399261
 30
0.0
 11
105.2070360367
 21
69.7972399261
 31
0.0
  0
LINE
  5
99
330
1F
100
AcDbEntity
  8
0
  6
Continuous
 62
     7
370
    25
100
AcDbLine
 10
105.2070360367
 20
46.2972399261
 30
0.0
 11
105.2070360367
 21
58.0472399261
 31
0.0
  0
SPLINE
  5
9A
330
1F
100
AcDbEntity
  8
0
  6
Continuous
 62
     7
370
    25
100
AcDbSpline
210
0.0
220
0.0
230
1.0
 70
     8
 71
     3
 72
    15
 73
    11
 74
     0
 42
0.00000001
 43
0.00000001
 40
0.0
 40
0.0
 40
0.0
 40
0.0
 40
0.1109312571803501
 40
0.2218878685177186
 40
0.3342489325822943
 40
0.4465909975319764
 40
0.5835720164062189
 40
0.7205960260518424
 40
0.8603243244461249
 40
1.0
 40
1.0
 40
1.0
 40
1.0
 10
121.9287238731651
 20
60.91789230616622
 30
0.0
 10
121.9254637655765
 20
60.70890751089662
 30
0.0
 10
121.9189428052776
 20
60.29089015534105
 30
0.0
 10
121.8801697621335
 20
59.65315282724622
 30
0.0
 10
121.8395710479651
 20
59.00872645549146
 30
0.0
 10
121.8085025423075
 20
58.31012221207615
 30
0.0
 10
121.8161417104094
 20
57.5616428588955
 30
0.0
 10
121.8577132734152
 20
56.76404472618052
 30
0.0
 10
121.9131100293352
 20
55.96694657344446
 30
0.0
 10
121.9235199120863
 20
55.44000747398638
 30
0.0
 10
121.9287238731651
 20
55.17658754601423
 30
0.0
  0
ARC
  5
9B
330
1F
100
AcDbEntity
  8
0
  6
Continuous
 62
     7
370
    25
100
AcDbCircle
 10
121.8178306613
 20
52.0490973636
 30
0.0
 40
3.129455566919978
100
AcDbArc
 50
87.9692814554
 51
108.0882596308
  0
LINE
  5
9C
330
1F
100
AcDbEntity
  8
0
  6
Continuous
 62
     7
370
    25
100
AcDbLine
 10
120.8461921184
 20
49.1666084085
 30
0.0
 11
120.8461921184
 21
55.0238932705
 31
0.0
  0
LINE
  5
9D
330
1F
100
AcDbEntity
  8
0
  6
Continuous
 62
     7
370
    25
100
AcDbLine
 10
121.9287238732
 20
55.176587546
 30
0.0
 11
121.9287238732
 21
49.6151251518
 31
0.0
  0
ARC
  5
9E
330
1F
100
AcDbEntity
  8
0
  6
Continuous
 62
     7
370
    25
100
AcDbCircle
 10
121.8715253017
 20
48.2225308421
 30
0.0
 40
1.393768484391418
100
AcDbArc
 50
87.647990046
 51
137.3626177873
  0
LINE
  5
9F
330
1F
100
AcDbEntity
  8
0
  6
Continuous
 62
     7
370
    25
100
AcDbLine
 10
123.2070360367
 20
69.5972399261
 30
0.0
 11
123.2070360367
 21
46.4972399261
 31
0.0
  0
LINE
  5
A0
330
1F
100
AcDbEntity
  8
0
  6
Continuous
 62
     7
370
    25
100
AcDbLine
 10
123.0070360367
 20
46.2972399261
 30
0.0
 11
123.0070360367
 21
69.7972399261
 31
0.0
  0
SPLINE
  5
A1
330
1F
100
AcDbEntity
  8
0
  6
Continuous
 62
     7
370
    25
100
AcDbSpline
210
0.0
220
0.0
230
1.0
 70
     8
 71
     3
 72
    15
 73
    11
 74
     0
 42
0.00000001
 43
0.00000001
 40
0.0
 40
0.0
 40
0.0
 40
0.0
 40
0.1109312571802459
 40
0.22188786851751
 40
0.3342489325819778
 40
0.4465909975315519
 40
0.5835720164058968
 40
0.720596026051623
 40
0.8603243244460155
 40
1.0
 40
1.0
 40
1.0
 40
1.0
 10
121.9287238731651
 20
49.61512515179643
 30
0.0
 10
121.9254637655765
 20
49.46807880067509
 30
0.0
 10
121.9189428052776
 20
49.17395248990431
 30
0.0
 10
121.8801697621336
 20
48.76505936350703
 30
0.0
 10
121.8395710479652
 20
48.3809985855298
 30
0.0
 10
121.8085025423075
 20
47.99901132189051
 30
0.0
 10
121.8161417104093
 20
47.62947600181513
 30
0.0
 10
121.8577132734151
 20
47.28330127364033
 30
0.0
 10
121.9131100293352
 20
46.98170542493504
 30
0.0
 10
121.9235199120862
 20
46.82354039321092
 30
0.0
 10
121.9287238731651
 20
46.74447277172045
 30
0.0
  0
SPLINE
  5
A2
330
1F
100
AcDbEntity
  8
0
  6
Continuous
 62
     7
370
    25
100
AcDbSpline
210
0.0
220
0.0
230
1.0
 70
     8
 71
     3
 72
    15
 73
    11
 74
     0
 42
0.00000001
 43
0.00000001
 40
0.0
 40
0.0
 40
0.0
 40
0.0
 40
0.1109312571802448
 40
0.2218878685175075
 40
0.3342489325819742
 40
0.4465909975315472
 40
0.5835720164058934
 40
0.7205960260516209
 40
0.8603243244460145
 40
1.0
 40
1.0
 40
1.0
 40
1.0
 10
121.9287238731651
 20
69.35000708046
 30
0.0
 10
121.9254637655765
 20
69.28806863631195
 30
0.0
 10
121.9189428052776
 20
69.16417759152755
 30
0.0
 10
121.8801697621336
 20
68.93533338983063
 30
0.0
 10
121.8395710479652
 20
68.67496779605372
 30
0.0
 10
121.8085025423075
 20
68.35835081627795
 30
0.0
 10
121.8161417104093
 20
67.97940678317248
 30
0.0
 10
121.8577132734152
 20
67.52798337863167
 30
0.0
 10
121.9131100293352
 20
67.03248107460028
 30
0.0
 10
121.9235199120862
 20
66.66370700686592
 30
0.0
 10
121.9287238731651
 20
66.47935470038402
 30
0.0
  0
ARC
  5
A3
330
1F
100
AcDbEntity
  8
0
  6
Continuous
 62
     7
370
    25
100
AcDbCircle
 10
121.9199171589
 20
45.4851290921
 30
0.0
 40
1.259374472362032
100
AcDbArc
 50
89.599331506
 51
148.4940606845
  0
ARC
  5
A4
330
1F
100
AcDbEntity
  8
0
  6
Continuous
 62
     7
370
    25
100
AcDbCircle
 10
121.9199171589
 20
70.6093507601
 30
0.0
 40
1.25937447235974
100
AcDbArc
 50
211.5059393155
 51
270.400668494
  0
LINE
  5
A5
330
1F
100
AcDbEntity
  8
0
  6
Continuous
 62
     7
370
    25
100
AcDbLine
 10
101.9157460741
 20
47.5697399261
 30
0.0
 11
101.9157460741
 21
68.5247399261
 31
0.0
  0
LINE
  5
A6
330
1F
100
AcDbEntity
  8
0
  6
Continuous
 62
     7
370
    25
100
AcDbLine
 10
86.7577401922
 20
72.0472399261
 30
0.0
 11
95.3291687636
 21
72.0472399261
 31
0.0
  0
LINE
  5
A7
330
1F
100
AcDbEntity
  8
0
  6
Continuous
 62
     7
370
    25
100
AcDbLine
 10
78.1863116208
 20
72.0472399261
 30
0.0
 11
86.7577401922
 21
72.0472399261
 31
0.0
  0
LINE
  5
A8
330
1F
100
AcDbEntity
  8
0
  6
Continuous
 62
     7
370
    25
100
AcDbLine
 10
95.4177401922
 20
71.4272399261
 30
0.0
 11
78.0977401922
 21
71.4272399261
 31
0.0
  0
LINE
  5
A9
330
1F
100
AcDbEntity
  8
0
  6
Continuous
 62
     7
370
    25
100
AcDbLine
 10
78.5603680224
 20
83.9733304924
 30
0.0
 11
94.955112362
 21
83.9733304924
 31
0.0
  0
SPLINE
  5
AA
330
1F
100
AcDbEntity
  8
0
  6
Continuous
 62
     7
370
    25
100
AcDbSpline
210
0.0
220
0.0
230
1.0
 70
    24
 71
     3
 72
     8
 73
     4
 74
     0
 42
0.00000001
 43
0.00000001
 40
0.0
 40
0.0
 40
0.0
 40
0.0
 40
1.0
 40
1.0
 40
1.0
 40
1.0
 10
86.75774019219422
 20
66.54723992609023
 30
0.0
 10
87.73439353495705
 20
66.54723992609023
 30
0.0
 10
88.71081836933351
 20
66.54723992609023
 30
0.0
 10
89.63002151546323
 20
66.54723992609023
 30
0.0
  0
SPLINE
  5
AB
330
1F
100
AcDbEntity
  8
0
  6
Continuous
 62
     7
370
    25
100
AcDbSpline
210
0.0
220
0.0
230
1.0
 70
    24
 71
     3
 72
     8
 73
     4
 74
     0
 42
0.00000001
 43
0.00000001
 40
0.0
 40
0.0
 40
0.0
 40
0.0
 40
1.0
 40
1.0
 40
1.0
 40
1.0
 10
83.8854588689252
 20
66.54723992609023
 30
0.0
 10
84.80466201505492
 20
66.54723992609023
 30
0.0
 10
85.78108684943138
 20
66.54723992609023
 30
0.0
 10
86.75774019219422
 20
66.54723992609023
 30
0.0
  0
SPLINE
  5
AC
330
1F
100
AcDbEntity
  8
0
  6
Continuous
 62
     7
370
    25
100
AcDbSpline
210
0.0
220
0.0
230
1.0
 70
     8
 71
     3
 72
     8
 73
     4
 74
     0
 42
0.00000001
 43
0.00000001
 40
0.0
 40
0.0
 40
0.0
 40
0.0
 40
1.0
 40
1.0
 40
1.0
 40
1.0
 10
79.86571581614909
 20
66.35758954923556
 30
0.0
 10
79.79364956980668
 20
66.26655761895647
 30
0.0
 10
79.73315661224048
 20
66.15660238878219
 30
0.0
 10
79.67440685886088
 20
66.04723992609023
 30
0.0
  0
LINE
  5
AD
330
1F
100
AcDbEntity
  8
0
  6
Continuous
 62
     7
370
    25
100
AcDbLine
 10
79.6744068589
 20
66.0472399261
 30
0.0
 11
79.6744068589
 21
54.0472399261
 31
0.0
  0
SPLINE
  5
AE
330
1F
100
AcDbEntity
  8
0
  6
Continuous
 62
     7
370
    25
100
AcDbSpline
210
0.0
220
0.0
230
1.0
 70
     8
 71
     3
 72
    10
 73
     6
 74
     0
 42
0.00000001
 43
0.00000001
 40
0.0
 40
0.0
 40
0.0
 40
0.0
 40
0.0280934765544326
 40
0.0280934765544326
 40
0.0561869531088653
 40
0.0561869531088653
 40
0.0561869531088653
 40
0.0561869531088653
 10
79.67440685886088
 20
54.04723992609023
 30
0.0
 10
79.67440685886088
 20
53.95359500424211
 30
0.0
 10
79.67798435310546
 20
53.85953909903755
 30
0.0
 10
79.69214583116597
 20
53.67326838693153
 30
0.0
 10
79.70272510301227
 20
53.58108591764739
 30
0.0
 10
79.71640610880407
 20
53.49108257801426
 30
0.0
  0
ELLIPSE
  5
AF
330
1F
100
AcDbEntity
  8
0
  6
Continuous
 62
     7
370
    25
100
AcDbEllipse
 10
91.7577401922
 20
56.508389034
 30
0.0
 11
0.5653269642954513
 21
1.215028078149771E-12
 31
0.0
210
0.0
220
0.0
230
1.0
 40
0.9531667975
 41
0.4357918987532526
 42
2.705800754832196
  0
LINE
  5
B0
330
1F
100
AcDbEntity
  8
0
  6
Continuous
 62
     7
370
    25
100
AcDbLine
 10
90.1531552108
 20
53.6824018168
 30
0.0
 11
91.2452509226
 21
56.7358533088
 31
0.0
  0
ELLIPSE
  5
B1
330
1F
100
AcDbEntity
  8
0
  6
Continuous
 62
     7
370
    25
100
AcDbEllipse
 10
89.5963159456
 20
53.8633429642
 30
0.0
 11
-0.5883077352006721
 21
2.131628207280300E-14
 31
0.0
210
0.0
220
0.0
230
1.0
 40
0.9531667975
 41
1.047197551197042
 42
2.813039483038259
  0
LINE
  5
B2
330
1F
100
AcDbEntity
  8
0
  6
Continuous
 62
     7
370
    25
100
AcDbLine
 10
89.2574323176
 20
53.4023298266
 30
0.0
 11
89.302162078
 21
53.3777145426
 31
0.0
  0
LINE
  5
B3
330
1F
100
AcDbEntity
  8
0
  6
Continuous
 62
     7
370
    25
100
AcDbLine
 10
89.9479424459
 20
52.0859871713
 30
0.0
 11
89.2574323176
 21
53.4023298266
 31
0.0
  0
ELLIPSE
  5
B4
330
1F
100
AcDbEntity
  8
0
  6
Continuous
 62
     7
370
    25
100
AcDbEllipse
 10
90.0137172503
 20
52.1173343511
 30
0.0
 11
0.07353846690021726
 21
7.105427357601002E-15
 31
0.0
210
0.0
220
0.0
230
1.0
 40
0.9531667975
 41
3.605240262590461
 42
5.462183310215017
  0
ELLIPSE
  5
B5
330
1F
100
AcDbEntity
  8
0
  6
Continuous
 62
     7
370
    25
100
AcDbEllipse
 10
91.7577401922
 20
50.3321940119
 30
0.0
 11
2.48560018122744
 21
-1.634248292248230E-13
 31
0.0
210
0.0
220
0.0
230
1.0
 40
0.9531667975
 41
0.82100199696451
 42
2.320590656625375
  0
ELLIPSE
  5
B6
330
1F
100
AcDbEntity
  8
0
  6
Continuous
 62
     7
370
    25
100
AcDbEllipse
 10
93.5017631341
 20
52.1173343511
 30
0.0
 11
0.07353846690018884
 21
3.552713678800501E-14
 31
0.0
210
0.0
220
0.0
230
1.0
 40
0.9531667975
 41
3.962594650553534
 42
5.81953769817836
  0
LINE
  5
B7
330
1F
100
AcDbEntity
  8
0
  6
Continuous
 62
     7
370
    25
100
AcDbLine
 10
94.2580480668
 20
53.4023298266
 30
0.0
 11
93.5675379385
 21
52.0859871713
 31
0.0
  0
LINE
  5
B8
330
1F
100
AcDbEntity
  8
0
  6
Continuous
 62
     7
370
    25
100
AcDbLine
 10
94.221929645
 20
53.3816895813
 30
0.0
 11
94.2580480668
 21
53.4023298266
 31
0.0
  0
ELLIPSE
  5
B9
330
1F
100
AcDbEntity
  8
0
  6
Continuous
 62
     7
370
    25
100
AcDbEllipse
 10
93.9194189964
 20
53.8626312323
 30
0.0
 11
-0.5883077352015817
 21
-1.563194018672220E-13
 31
0.0
210
0.0
220
0.0
230
1.0
 40
0.9531667975
 41
0.3285531705512088
 42
2.110876526947625
  0
LINE
  5
BA
330
1F
100
AcDbEntity
  8
0
  6
Continuous
 62
     7
370
    25
100
AcDbLine
 10
92.2702294618
 20
56.7358533088
 30
0.0
 11
93.3625797312
 21
53.6816900849
 31
0.0
  0
SPLINE
  5
BB
330
1F
100
AcDbEntity
  8
0
  6
Continuous
 62
     7
370
    25
100
AcDbSpline
210
0.0
220
0.0
230
1.0
 70
     8
 71
     3
 72
    10
 73
     6
 74
     0
 42
0.00000001
 43
0.00000001
 40
-0.2904940295525288
 40
-0.2904940295525288
 40
-0.2904940295525288
 40
-0.2904940295525288
 40
-0.1303072746110114
 40
-0.1303072746110114
 40
0.001056361752625
 40
0.001056361752625
 40
0.001056361752625
 40
0.001056361752625
 10
95.2577401921942
 20
58.04723992609023
 30
0.0
 10
95.12823687641989
 20
57.52922666299312
 30
0.0
 10
94.99644589827027
 20
57.00530085934903
 30
0.0
 10
94.81802195882953
 20
56.04689839575385
 30
0.0
 10
94.7577401921942
 20
55.6128373907
 30
0.0
 10
94.7577401921942
 20
55.17495860282121
 30
0.0
  0
LINE
  5
BC
330
1F
100
AcDbEntity
  8
0
  6
Continuous
 62
     7
370
    25
100
AcDbLine
 10
94.7577401922
 20
55.1749586028
 30
0.0
 11
94.7577401922
 21
51.5472399261
 31
0.0
  0
LINE
  5
BD
330
1F
100
AcDbEntity
  8
0
  6
Continuous
 62
     7
370
    25
100
AcDbLine
 10
94.7577401922
 20
51.5472399261
 30
0.0
 11
82.7577401922
 21
51.5472399261
 31
0.0
  0
ARC
  5
BE
330
1F
100
AcDbEntity
  8
0
  6
Continuous
 62
     7
370
    25
100
AcDbCircle
 10
82.7577401922
 20
54.0472399261
 30
0.0
 40
2.5
100
AcDbArc
 50
180.0
 51
270.0
  0
LINE
  5
BF
330
1F
100
AcDbEntity
  8
0
  6
Continuous
 62
     7
370
    25
100
AcDbLine
 10
80.2577401922
 20
54.0472399261
 30
0.0
 11
80.2577401922
 21
66.0472399261
 31
0.0
  0
LINE
  5
C0
330
1F
100
AcDbEntity
  8
0
  6
Continuous
 62
     7
370
    25
100
AcDbLine
 10
80.2577401922
 20
66.0472399261
 30
0.0
 11
83.8854588689
 21
66.0472399261
 31
0.0
  0
SPLINE
  5
C1
330
1F
100
AcDbEntity
  8
0
  6
Continuous
 62
     7
370
    25
100
AcDbSpline
210
0.0
220
0.0
230
1.0
 70
     8
 71
     3
 72
    10
 73
     6
 74
     0
 42
0.00000001
 43
0.00000001
 40
-0.8711658249657241
 40
-0.8711658249657241
 40
-0.8711658249657241
 40
-0.8711658249657241
 40
-0.7398021886020881
 40
-0.7398021886020881
 40
-0.5796154507864705
 40
-0.5796154507864705
 40
-0.5796154507864705
 40
-0.5796154507864705
 10
83.8854588689252
 20
66.04723992609023
 30
0.0
 10
84.32333765680399
 20
66.04723992609023
 30
0.0
 10
84.75739866185839
 20
66.10752169272563
 30
0.0
 10
85.71580106915597
 20
66.28594562168557
 30
0.0
 10
86.23972698446354
 20
66.41773662415748
 30
0.0
 10
86.75774019219422
 20
66.54723992609023
 30
0.0
  0
SPLINE
  5
C2
330
1F
100
AcDbEntity
  8
0
  6
Continuous
 62
     7
370
    25
100
AcDbSpline
210
0.0
220
0.0
230
1.0
 70
     8
 71
     3
 72
    10
 73
     6
 74
     0
 42
0.00000001
 43
0.00000001
 40
-0.2904940295525327
 40
-0.2904940295525327
 40
-0.2904940295525327
 40
-0.2904940295525327
 40
-0.130307291676468
 40
-0.130307291676468
 40
0.0010563446871674
 40
0.0010563446871674
 40
0.0010563446871674
 40
0.0010563446871674
 10
86.75774019219422
 20
66.54723992609023
 30
0.0
 10
87.27575340012038
 20
66.41773662410868
 30
0.0
 10
87.79967931503377
 20
66.28594562172258
 30
0.0
 10
88.75808172253005
 20
66.10752169272563
 30
0.0
 10
89.19214272758444
 20
66.04723992609023
 30
0.0
 10
89.63002151546323
 20
66.04723992609023
 30
0.0
  0
LINE
  5
C3
330
1F
100
AcDbEntity
  8
0
  6
Continuous
 62
     7
370
    25
100
AcDbLine
 10
89.6300215155
 20
66.0472399261
 30
0.0
 11
93.2577401922
 21
66.0472399261
 31
0.0
  0
ARC
  5
C4
330
1F
100
AcDbEntity
  8
0
  6
Continuous
 62
     7
370
    25
100
AcDbCircle
 10
94.7577401922
 20
66.0472399261
 30
0.0
 40
1.5
100
AcDbArc
 50
180.0
 51
270.0
  0
LINE
  5
C5
330
1F
100
AcDbEntity
  8
0
  6
Continuous
 62
     7
370
    25
100
AcDbLine
 10
94.7577401922
 20
64.5472399261
 30
0.0
 11
94.7577401922
 21
60.9195212494
 31
0.0
  0
SPLINE
  5
C6
330
1F
100
AcDbEntity
  8
0
  6
Continuous
 62
     7
370
    25
100
AcDbSpline
210
0.0
220
0.0
230
1.0
 70
     8
 71
     3
 72
    10
 73
     6
 74
     0
 42
0.00000001
 43
0.00000001
 40
-0.8711658421011628
 40
-0.8711658421011628
 40
-0.8711658421011628
 40
-0.8711658421011628
 40
-0.739802205737527
 40
-0.739802205737527
 40
-0.579615450786466
 40
-0.579615450786466
 40
-0.579615450786466
 40
-0.579615450786466
 10
94.7577401921942
 20
60.91952124935925
 30
0.0
 10
94.7577401921942
 20
60.48164246148046
 30
0.0
 10
94.81802195882953
 20
60.04758145642661
 30
0.0
 10
94.99644589827611
 20
59.08917899280007
 30
0.0
 10
95.12823687641217
 20
58.56525318921817
 30
0.0
 10
95.2577401921942
 20
58.04723992609023
 30
0.0
  0
SPLINE
  5
C7
330
1F
100
AcDbEntity
  8
0
  6
Continuous
 62
     7
370
    25
100
AcDbSpline
210
0.0
220
0.0
230
1.0
 70
    24
 71
     3
 72
     8
 73
     4
 74
     0
 42
0.00000001
 43
0.00000001
 40
0.0
 40
0.0
 40
0.0
 40
0.0
 40
1.0
 40
1.0
 40
1.0
 40
1.0
 10
95.2577401921942
 20
58.04723992609023
 30
0.0
 10
95.2577401921942
 20
57.0705865833274
 30
0.0
 10
95.2577401921942
 20
56.09416174895094
 30
0.0
 10
95.2577401921942
 20
55.17495860282121
 30
0.0
  0
SPLINE
  5
C8
330
1F
100
AcDbEntity
  8
0
  6
Continuous
 62
     7
370
    25
100
AcDbSpline
210
0.0
220
0.0
230
1.0
 70
    24
 71
     3
 72
     8
 73
     4
 74
     0
 42
0.00000001
 43
0.00000001
 40
0.0
 40
0.0
 40
0.0
 40
0.0
 40
1.0
 40
1.0
 40
1.0
 40
1.0
 10
95.2577401921942
 20
60.91952124935925
 30
0.0
 10
95.2577401921942
 20
60.00031810322952
 30
0.0
 10
95.2577401921942
 20
59.02389326885306
 30
0.0
 10
95.2577401921942
 20
58.04723992609023
 30
0.0
  0
SPLINE
  5
C9
330
1F
100
AcDbEntity
  8
0
  6
Continuous
 62
     7
370
    25
100
AcDbSpline
210
0.0
220
0.0
230
1.0
 70
     8
 71
     3
 72
    10
 73
     6
 74
     0
 42
0.00000001
 43
0.00000001
 40
0.0
 40
0.0
 40
0.0
 40
0.0
 40
0.0280934765544328
 40
0.0280934765544328
 40
0.0561869531088657
 40
0.0561869531088657
 40
0.0561869531088657
 40
0.0561869531088657
 10
82.20158284411825
 20
51.00590584270008
 30
0.0
 10
82.29158618375138
 20
50.99222483690828
 30
0.0
 10
82.38376865303552
 20
50.98164556506199
 30
0.0
 10
82.57003936514154
 20
50.96748408700147
 30
0.0
 10
82.6640952703461
 20
50.96390659275689
 30
0.0
 10
82.75774019219422
 20
50.96390659275689
 30
0.0
  0
LINE
  5
CA
330
1F
100
AcDbEntity
  8
0
  6
Continuous
 62
     7
370
    25
100
AcDbLine
 10
82.7577367591
 20
50.9639065928
 30
0.0
 11
94.7577401922
 21
50.9639065928
 31
0.0
  0
SPLINE
  5
CB
330
1F
100
AcDbEntity
  8
0
  6
Continuous
 62
     7
370
    25
100
AcDbSpline
210
0.0
220
0.0
230
1.0
 70
     8
 71
     3
 72
     8
 73
     4
 74
     0
 42
0.00000001
 43
0.00000001
 40
0.0
 40
0.0
 40
0.0
 40
0.0
 40
1.0
 40
1.0
 40
1.0
 40
1.0
 10
95.06808981533953
 20
51.15521555004512
 30
0.0
 10
94.97705788506046
 20
51.08314930370269
 30
0.0
 10
94.86710265488892
 20
51.02265634613492
 30
0.0
 10
94.7577401921942
 20
50.96390659275689
 30
0.0
  0
SPLINE
  5
CC
330
1F
100
AcDbEntity
  8
0
  6
Continuous
 62
     7
370
    25
100
AcDbSpline
210
0.0
220
0.0
230
1.0
 70
    24
 71
     3
 72
    10
 73
     6
 74
     0
 42
0.00000001
 43
0.00000001
 40
0.0
 40
0.0
 40
0.0
 40
0.0
 40
0.5
 40
0.5
 40
1.0
 40
1.0
 40
1.0
 40
1.0
 10
95.2577401921942
 20
55.17495860282121
 30
0.0
 10
95.2577401921942
 20
55.17495860282121
 30
0.0
 10
95.20385364399912
 20
55.17495860282121
 30
0.0
 10
95.01873352157585
 20
55.17495860282121
 30
0.0
 10
94.8886398860938
 20
55.17495860282121
 30
0.0
 10
94.7577401921942
 20
55.17495860282121
 30
0.0
  0
LINE
  5
CD
330
1F
100
AcDbEntity
  8
0
  6
Continuous
 62
     7
370
    25
100
AcDbLine
 10
95.2577401922
 20
51.5472399261
 30
0.0
 11
95.2577401922
 21
55.1749586028
 31
0.0
  0
LINE
  5
CE
330
1F
100
AcDbEntity
  8
0
  6
Continuous
 62
     7
370
    25
100
AcDbLine
 10
94.7577401922
 20
51.5472399261
 30
0.0
 11
95.2577401922
 21
51.5472399261
 31
0.0
  0
SPLINE
  5
CF
330
1F
100
AcDbEntity
  8
0
  6
Continuous
 62
     7
370
    25
100
AcDbSpline
210
0.0
220
0.0
230
1.0
 70
    24
 71
     3
 72
    10
 73
     6
 74
     0
 42
0.00000001
 43
0.00000001
 40
0.0
 40
0.0
 40
0.0
 40
0.0
 40
0.5
 40
0.5
 40
1.0
 40
1.0
 40
1.0
 40
1.0
 10
83.8854588689252
 20
66.04723992609023
 30
0.0
 10
83.8854588689252
 20
66.1781396199898
 30
0.0
 10
83.8854588689252
 20
66.30823325547188
 30
0.0
 10
83.8854588689252
 20
66.49335337789513
 30
0.0
 10
83.8854588689252
 20
66.54723992609023
 30
0.0
 10
83.8854588689252
 20
66.54723992609023
 30
0.0
  0
LINE
  5
D0
330
1F
100
AcDbEntity
  8
0
  6
Continuous
 62
     7
370
    25
100
AcDbLine
 10
80.2577401922
 20
66.5472399261
 30
0.0
 11
80.2577401922
 21
66.0472399261
 31
0.0
  0
LINE
  5
D1
330
1F
100
AcDbEntity
  8
0
  6
Continuous
 62
     7
370
    25
100
AcDbLine
 10
83.8854588689
 20
66.5472399261
 30
0.0
 11
80.2577401922
 21
66.5472399261
 31
0.0
  0
LINE
  5
D2
330
1F
100
AcDbEntity
  8
0
  6
Continuous
 62
     7
370
    25
100
AcDbLine
 10
93.7577401922
 20
66.5472399261
 30
0.0
 11
89.6300215155
 21
66.5472399261
 31
0.0
  0
LINE
  5
D3
330
1F
100
AcDbEntity
  8
0
  6
Continuous
 62
     7
370
    25
100
AcDbLine
 10
93.2577401922
 20
66.0472399261
 30
0.0
 11
93.7577401922
 21
66.5472399261
 31
0.0
  0
SPLINE
  5
D4
330
1F
100
AcDbEntity
  8
0
  6
Continuous
 62
     7
370
    25
100
AcDbSpline
210
0.0
220
0.0
230
1.0
 70
    24
 71
     3
 72
    10
 73
     6
 74
     0
 42
0.00000001
 43
0.00000001
 40
0.0
 40
0.0
 40
0.0
 40
0.0
 40
0.5
 40
0.5
 40
1.0
 40
1.0
 40
1.0
 40
1.0
 10
89.63002151546323
 20
66.54723992609023
 30
0.0
 10
89.63002151546323
 20
66.54723992609024
 30
0.0
 10
89.63002151546323
 20
66.49335337789513
 30
0.0
 10
89.63002151546323
 20
66.30823325547188
 30
0.0
 10
89.63002151546323
 20
66.1781396199898
 30
0.0
 10
89.63002151546323
 20
66.04723992609024
 30
0.0
  0
LINE
  5
D5
330
1F
100
AcDbEntity
  8
0
  6
Continuous
 62
     7
370
    25
100
AcDbLine
 10
95.2577401922
 20
60.9195212494
 30
0.0
 11
95.2577401922
 21
64.5472399261
 31
0.0
  0
SPLINE
  5
D6
330
1F
100
AcDbEntity
  8
0
  6
Continuous
 62
     7
370
    25
100
AcDbSpline
210
0.0
220
0.0
230
1.0
 70
    24
 71
     3
 72
    10
 73
     6
 74
     0
 42
0.00000001
 43
0.00000001
 40
0.0
 40
0.0
 40
0.0
 40
0.0
 40
0.5
 40
0.5
 40
1.0
 40
1.0
 40
1.0
 40
1.0
 10
94.7577401921942
 20
60.91952124935925
 30
0.0
 10
94.8886398860938
 20
60.91952124935925
 30
0.0
 10
95.01873352157585
 20
60.91952124935925
 30
0.0
 10
95.20385364399912
 20
60.91952124935925
 30
0.0
 10
95.2577401921942
 20
60.91952124935925
 30
0.0
 10
95.2577401921942
 20
60.91952124935925
 30
0.0
  0
LINE
  5
D7
330
1F
100
AcDbEntity
  8
0
  6
Continuous
 62
     7
370
    25
100
AcDbLine
 10
94.7577401922
 20
64.5472399261
 30
0.0
 11
95.2577401922
 21
64.5472399261
 31
0.0
  0
ELLIPSE
  5
D8
330
1F
100
AcDbEntity
  8
0
  6
Continuous
 62
     7
370
    25
100
AcDbEllipse
 10
91.4943993035
 20
53.7528019515
 30
0.0
 11
-0.07353846690023147
 21
0.0
 31
0.0
210
0.0
220
0.0
230
1.0
 40
0.9531667975
 41
5.940161364897897
 42
7.853981633974483
  0
LINE
  5
D9
330
1F
100
AcDbEntity
  8
0
  6
Continuous
 62
     7
370
    25
100
AcDbLine
 10
91.6884859376
 20
54.4791990747
 30
0.0
 11
91.4251450472
 21
53.776377258
 31
0.0
  0
LINE
  5
DA
330
1F
100
AcDbEntity
  8
0
  6
Continuous
 62
     7
370
    25
100
AcDbLine
 10
92.0903353377
 20
53.7763772577
 30
0.0
 11
91.8269944504
 21
54.4791990745
 31
0.0
  0
ELLIPSE
  5
DB
330
1F
100
AcDbEntity
  8
0
  6
Continuous
 62
     7
370
    25
100
AcDbEllipse
 10
92.0210810813
 20
53.7528019515
 30
0.0
 11
0.07353846690023147
 21
1.421085471520200E-14
 31
0.0
210
0.0
220
0.0
230
1.0
 40
0.9531667975
 41
4.712388980384518
 42
6.626209245739361
  0
LINE
  5
DC
330
1F
100
AcDbEntity
  8
0
  6
Continuous
 62
     7
370
    25
100
AcDbLine
 10
91.4943993035
 20
53.6827075265
 30
0.0
 11
92.0210810813
 21
53.6827075265
 31
0.0
  0
ELLIPSE
  5
DD
330
1F
100
AcDbEntity
  8
0
  6
Continuous
 62
     7
370
    25
100
AcDbEllipse
 10
91.7577401939
 20
54.4556237682
 30
0.0
 11
0.07353846690021726
 21
0.0
 31
0.0
210
0.0
220
0.0
230
1.0
 40
0.9531667975
 41
0.3430239394902023
 42
2.798568712238599
  0
LINE
  5
DE
330
1F
100
AcDbEntity
  8
0
  6
Continuous
 62
     7
370
    25
100
AcDbLine
 10
80.2577401922
 20
54.0472399261
 30
0.0
 11
79.7577401922
 21
54.0472399261
 31
0.0
  0
LINE
  5
DF
330
1F
100
AcDbEntity
  8
0
  6
Continuous
 62
     7
370
    25
100
AcDbLine
 10
79.7577401922
 20
66.0472399261
 30
0.0
 11
79.7577401922
 21
54.0472399261
 31
0.0
  0
LINE
  5
E0
330
1F
100
AcDbEntity
  8
0
  6
Continuous
 62
     7
370
    25
100
AcDbLine
 10
80.2577401922
 20
66.0472399261
 30
0.0
 11
79.7577401922
 21
66.0472399261
 31
0.0
  0
LINE
  5
E1
330
1F
100
AcDbEntity
  8
0
  6
Continuous
 62
     7
370
    25
100
AcDbLine
 10
82.7577401922
 20
51.5472399261
 30
0.0
 11
82.7577401922
 21
51.0472399261
 31
0.0
  0
ARC
  5
E2
330
1F
100
AcDbEntity
  8
0
  6
Continuous
 62
     7
370
    25
100
AcDbCircle
 10
82.7577401922
 20
54.0472399261
 30
0.0
 40
3.000000000000014
100
AcDbArc
 50
180.0
 51
270.0
  0
ARC
  5
E3
330
1F
100
AcDbEntity
  8
0
  6
Continuous
 62
     7
370
    25
100
AcDbCircle
 10
80.2577401922
 20
66.0472399261
 30
0.0
 40
0.5000000000000142
100
AcDbArc
 50
90.0
 51
180.0
  0
LINE
  5
E4
330
1F
100
AcDbEntity
  8
0
  6
Continuous
 62
     7
370
    25
100
AcDbLine
 10
93.7577401922
 20
66.0472399261
 30
0.0
 11
93.7577401922
 21
66.5472399261
 31
0.0
  0
LINE
  5
E5
330
1F
100
AcDbEntity
  8
0
  6
Continuous
 62
     7
370
    25
100
AcDbLine
 10
93.2577401922
 20
66.0472399261
 30
0.0
 11
93.7577401922
 21
66.0472399261
 31
0.0
  0
ARC
  5
E6
330
1F
100
AcDbEntity
  8
0
  6
Continuous
 62
     7
370
    25
100
AcDbCircle
 10
94.7577401922
 20
66.0472399261
 30
0.0
 40
1.0
100
AcDbArc
 50
180.0
 51
270.0
  0
LINE
  5
E7
330
1F
100
AcDbEntity
  8
0
  6
Continuous
 62
     7
370
    25
100
AcDbLine
 10
94.7577401922
 20
64.5472399261
 30
0.0
 11
94.7577401922
 21
65.0472399261
 31
0.0
  0
ARC
  5
E8
330
1F
100
AcDbEntity
  8
0
  6
Continuous
 62
     7
370
    25
100
AcDbCircle
 10
94.7577401922
 20
64.5472399261
 30
0.0
 40
0.5
100
AcDbArc
 50
0.0
 51
90.0
  0
ARC
  5
E9
330
1F
100
AcDbEntity
  8
0
  6
Continuous
 62
     7
370
    25
100
AcDbCircle
 10
94.7577401922
 20
51.5472399261
 30
0.0
 40
0.5
100
AcDbArc
 50
270.0
 51
0.0
  0
LINE
  5
EA
330
1F
100
AcDbEntity
  8
0
  6
Continuous
 62
     7
370
    25
100
AcDbLine
 10
94.7577401922
 20
51.0472399261
 30
0.0
 11
94.7577401922
 21
51.5472399261
 31
0.0
  0
LINE
  5
EB
330
1F
100
AcDbEntity
  8
0
  6
Continuous
 62
     7
370
    25
100
AcDbLine
 10
82.7577401922
 20
51.0472399261
 30
0.0
 11
94.7577401922
 21
51.0472399261
 31
0.0
  0
LINE
  5
EC
330
1F
100
AcDbEntity
  8
0
  6
Continuous
 62
     7
370
    25
100
AcDbLine
 10
86.7577401922
 20
86.0472399261
 30
0.0
 11
93.7577401922
 21
86.0472399261
 31
0.0
  0
LINE
  5
ED
330
1F
100
AcDbEntity
  8
0
  6
Continuous
 62
     7
370
    25
100
AcDbLine
 10
79.7577401922
 20
86.0472399261
 30
0.0
 11
86.7577401922
 21
86.0472399261
 31
0.0
  0
LWPOLYLINE
  5
EE
330
1F
100
AcDbEntity
  8
0
  6
Continuous
 62
     7
370
    25
100
AcDbPolyline
 90
        9
 70
   128
 43
0.0
 10
82.2810338938
 20
51.0853568924
 10
82.2721545011
 20
51.0852994992
 10
82.2628608193
 20
51.0823445006
 10
82.2532074069
 20
51.0765092439
 10
82.2432509339
 20
51.0678279848
 10
82.2330498495
 20
51.0563516865
 10
82.2226640389
 20
51.0421477202
 10
82.2121544717
 20
51.0252994698
 10
82.2015828441
 20
51.0059058427
  0
SPLINE
  5
EF
330
1F
100
AcDbEntity
  8
0
  6
Continuous
 62
     7
370
    25
100
AcDbSpline
210
0.0
220
0.0
230
1.0
 70
     8
 71
     3
 72
    14
 73
    10
 74
     0
 42
0.00000001
 43
0.00000001
 40
-0.4399100083495733
 40
-0.4399100083495733
 40
-0.4399100083495733
 40
-0.4399100083495733
 40
-0.2980125372576002
 40
-0.2980125372576002
 40
-0.1727985319285605
 40
-0.1727985319285605
 40
-0.0664609738186771
 40
-0.0664609738186771
 40
0.0
 40
0.0
 40
0.0
 40
0.0
 10
79.71640610880407
 20
53.49108257801425
 30
0.0
 10
79.77403089637986
 20
53.0963377659227
 30
0.0
 10
79.91344828370089
 20
52.70771691497234
 30
0.0
 10
80.31635264218207
 20
52.05759112857061
 30
0.0
 10
80.56272233466959
 20
51.78678939720882
 30
0.0
 10
81.094590559727
 20
51.38497486595338
 30
0.0
 10
81.36491795826774
 20
51.24083503979516
 30
0.0
 10
81.83169155974996
 20
51.07783431137078
 30
0.0
 10
82.01669494992547
 20
51.03289574934823
 30
0.0
 10
82.20158284411825
 20
51.00590584270008
 30
0.0
  0
LWPOLYLINE
  5
F0
330
1F
100
AcDbEntity
  8
0
  6
Continuous
 62
     7
370
    25
100
AcDbPolyline
 90
        9
 70
   128
 43
0.0
 10
79.7958571585
 20
53.5705336277
 10
79.7957997653
 20
53.561654235
 10
79.7928447667
 20
53.5523605532
 10
79.78700951
 20
53.5427071408
 10
79.778328251
 20
53.5327506678
 10
79.7668519526
 20
53.5225495834
 10
79.7526479863
 20
53.5121637728
 10
79.7357997359
 20
53.5016542056
 10
79.7164061088
 20
53.491082578
  0
LINE
  5
F1
330
1F
100
AcDbEntity
  8
0
  6
Continuous
 62
     7
370
    25
100
AcDbLine
 10
79.7577401922
 20
54.0472399261
 30
0.0
 11
79.6744068589
 21
54.0472399261
 31
0.0
  0
LWPOLYLINE
  5
F2
330
1F
100
AcDbEntity
  8
0
  6
Continuous
 62
     7
370
    25
100
AcDbPolyline
 90
        9
 70
   128
 43
0.0
 10
82.7577401922
 20
51.0472399261
 10
82.7577401922
 20
51.0459005731
 10
82.7577401922
 20
51.0418896895
 10
82.7577401922
 20
51.0352287634
 10
82.7577401922
 20
51.02595348
 10
82.7577401922
 20
51.0141135308
 10
82.7577401922
 20
50.9997723474
 10
82.7577401922
 20
50.9830067613
 10
82.7577367591
 20
50.9639065928
  0
LINE
  5
F3
330
1F
100
AcDbEntity
  8
0
  6
Continuous
 62
     7
370
    25
100
AcDbLine
 10
79.7577401922
 20
66.0472399261
 30
0.0
 11
79.6744068589
 21
66.0472399261
 31
0.0
  0
LINE
  5
F4
330
1F
100
AcDbEntity
  8
0
  6
Continuous
 62
     7
370
    25
100
AcDbLine
 10
94.7577401922
 20
50.9639065928
 30
0.0
 11
94.7577401922
 21
51.0472399261
 31
0.0
  0
LINE
  5
F5
330
1F
100
AcDbEntity
  8
0
  6
Continuous
 62
     7
370
    25
100
AcDbLine
 10
121.9287238732
 20
46.7444727717
 30
0.0
 11
121.9287238732
 21
46.2972399261
 31
0.0
  0
LINE
  5
F6
330
1F
100
AcDbEntity
  8
0
  6
Continuous
 62
     7
370
    25
100
AcDbLine
 10
121.9287238732
 20
69.7972399261
 30
0.0
 11
121.9287238732
 21
69.3500070805
 31
0.0
  0
LINE
  5
F7
330
1F
100
AcDbEntity
  8
0
  6
Continuous
 62
     7
370
    25
100
AcDbLine
 10
120.8461921184
 20
69.9512180993
 30
0.0
 11
120.8461921184
 21
70.4222399261
 31
0.0
  0
LINE
  5
F8
330
1F
100
AcDbEntity
  8
0
  6
Continuous
 62
     7
370
    25
100
AcDbLine
 10
120.8461921184
 20
45.6722399261
 30
0.0
 11
120.8461921184
 21
46.1432617529
 31
0.0
  0
LINE
  5
F9
330
1F
100
AcDbEntity
  8
0
  6
Continuous
 62
     7
370
    25
100
AcDbLine
 10
101.4903115796
 20
67.9222399261
 30
0.0
 11
101.4903115796
 21
48.1722399261
 31
0.0
  0
LINE
  5
FA
330
1F
100
AcDbEntity
  8
0
  6
Continuous
 62
     7
370
    25
100
AcDbLine
 10
99.2577401922
 20
66.5472399261
 30
0.0
 11
99.2577401922
 21
49.5472399261
 31
0.0
  0
LINE
  5
FB
330
1F
100
AcDbEntity
  8
0
  6
Continuous
 62
     7
370
    25
100
AcDbLine
 10
78.2577401922
 20
70.5472399261
 30
0.0
 11
95.2577401922
 21
70.5472399261
 31
0.0
  0
SPLINE
  5
FC
330
1F
100
AcDbEntity
  8
0
  6
Continuous
 62
     7
370
    25
100
AcDbSpline
210
0.0
220
0.0
230
1.0
 70
    24
 71
     3
 72
    12
 73
     8
 74
     0
 42
0.00000001
 43
0.00000001
 40
-0.5788447217180464
 40
-0.5788447217180464
 40
-0.5788447217180464
 40
-0.5788447217180464
 40
-0.3728576618289314
 40
-0.3728576618289314
 40
-0.0432783660063474
 40
-0.0432783660063474
 40
0.0
 40
0.0
 40
0.0
 40
0.0
 10
95.2577401921942
 20
67.04723992609023
 30
0.0
 10
95.25774019219439
 20
67.04723992609043
 30
0.0
 10
95.19741843600107
 20
66.9833698312975
 30
0.0
 10
94.88705160143972
 20
66.65474612411487
 30
0.0
 10
94.54411651719764
 20
66.29163838785855
 30
0.0
 10
94.00499050120068
 20
65.72079907680295
 30
0.0
 10
93.94010133305045
 20
65.65209289876154
 30
0.0
 10
93.87297808216333
 20
65.58102122135163
 30
0.0
  0
SPLINE
  5
FD
330
1F
100
AcDbEntity
  8
0
  6
Continuous
 62
     7
370
    25
100
AcDbSpline
210
0.0
220
0.0
230
1.0
 70
     8
 71
     3
 72
    12
 73
     8
 74
     0
 42
0.00000001
 43
0.00000001
 40
0.0
 40
0.0
 40
0.0
 40
0.0
 40
0.0430206627346149
 40
0.0430206627346149
 40
0.3824319177041577
 40
0.3824319177041577
 40
0.594563952060122
 40
0.594563952060122
 40
0.594563952060122
 40
0.594563952060122
 10
79.71645730088379
 20
53.49108256475883
 30
0.0
 10
79.64815249222396
 20
53.44688503375399
 30
0.0
 10
79.58202677403
 20
53.4040975124076
 30
0.0
 10
79.01423815723217
 20
53.03670237248576
 30
0.0
 10
78.65075085542999
 20
52.80150309676615
 30
0.0
 10
78.32172880926974
 20
52.58860499579116
 30
0.0
 10
78.25774019245927
 20
52.54720030312396
 30
0.0
 10
78.25774019245927
 20
52.54720030312396
 30
0.0
  0
SPLINE
  5
FE
330
1F
100
AcDbEntity
  8
0
  6
Continuous
 62
     7
370
    25
100
AcDbSpline
210
0.0
220
0.0
230
1.0
 70
    24
 71
     3
 72
    12
 73
     8
 74
     0
 42
0.00000001
 43
0.00000001
 40
-0.5788447217180465
 40
-0.5788447217180465
 40
-0.5788447217180465
 40
-0.5788447217180465
 40
-0.535566355711699
 40
-0.535566355711699
 40
-0.205987059889115
 40
-0.205987059889115
 40
0.0
 40
0.0
 40
0.0
 40
0.0
 10
94.29152148745563
 20
65.16247781605932
 30
0.0
 10
94.36259316486552
 20
65.22960106694646
 30
0.0
 10
94.43129934290694
 20
65.29449023509669
 30
0.0
 10
95.00213865396253
 20
65.83361625109364
 30
0.0
 10
95.36524639021887
 20
66.17655133533573
 30
0.0
 10
95.69387009740147
 20
66.4869181698971
 30
0.0
 10
95.7577401921944
 20
66.54723992609041
 30
0.0
 10
95.75774019219422
 20
66.54723992609023
 30
0.0
  0
SPLINE
  5
FF
330
1F
100
AcDbEntity
  8
0
  6
Continuous
 62
     7
370
    25
100
AcDbSpline
210
0.0
220
0.0
230
1.0
 70
     8
 71
     3
 72
    12
 73
     8
 74
     0
 42
0.00000001
 43
0.00000001
 40
0.0
 40
0.0
 40
0.0
 40
0.0
 40
0.2121320343559643
 40
0.2121320343559643
 40
0.5515432893255071
 40
0.5515432893255071
 40
0.5945639520601226
 40
0.5945639520601226
 40
0.5945639520601226
 40
0.5945639520601226
 10
81.25770056922795
 20
49.54723992635527
 30
0.0
 10
81.25770056922795
 20
49.54723992635527
 30
0.0
 10
81.29910526189514
 20
49.61122854316576
 30
0.0
 10
81.51200336287013
 20
49.94025058932602
 30
0.0
 10
81.74720263858974
 20
50.30373789112819
 30
0.0
 10
82.11459777851157
 20
50.87152650792601
 30
0.0
 10
82.15738529985798
 20
50.93765222611997
 30
0.0
 10
82.20158283086282
 20
51.00595703477981
 30
0.0
  0
LINE
  5
100
330
1F
100
AcDbEntity
  8
FORMAT
100
AcDbLine
 10
79.2827401922
 20
72.0472399261
 30
0.0
 11
79.7180942951
 21
85.978571218
 31
0.0
  0
LINE
  5
101
330
1F
100
AcDbEntity
  8
FORMAT
100
AcDbLine
 10
94.2327401922
 20
72.0472399261
 30
0.0
 11
93.7973860893
 21
85.978571218
 31
0.0
  0
LINE
  5
102
330
1F
100
AcDbEntity
  8
FORMAT
100
AcDbLine
 10
111.4197401922
 20
48.7317399261
 30
0.0
 11
101.9157460741
 21
48.7317399261
 31
0.0
  0
LINE
  5
103
330
1F
100
AcDbEntity
  8
FORMAT
100
AcDbLine
 10
111.4197401922
 20
67.3627399261
 30
0.0
 11
101.9157460741
 21
67.3627399261
 31
0.0
  0
LINE
  5
104
330
1F
100
AcDbEntity
  8
FORMAT
  6
CENTERX2
370
    18
100
AcDbLine
 10
86.7577401922
 20
47.8322474803
 30
0.0
 11
86.7577401922
 21
87.9101594519
 31
0.0
  0
LINE
  5
105
330
1F
100
AcDbEntity
  8
FORMAT
  6
CENTERX2
370
    18
100
AcDbLine
 10
124.6109523771
 20
58.0472399261
 30
0.0
 11
76.5510663231
 21
58.0472399261
 31
0.0
  0
ARC
  5
106
330
1F
100
AcDbEntity
  8
0
  6
Continuous
 62
     7
370
    25
100
AcDbCircle
 10
158.6476219724
 20
70.5472399261
 30
0.0
 40
2.500000000000002
100
AcDbArc
 50
159.3903070625
 51
180.0
  0
ARC
  5
107
330
1F
100
AcDbEntity
  8
0
  6
Continuous
 62
     7
370
    25
100
AcDbCircle
 10
136.6476219724
 20
70.5472399261
 30
0.0
 40
2.500000000000002
100
AcDbArc
 50
0.0
 51
20.6096929375
  0
LINE
  5
108
330
1F
100
AcDbEntity
  8
0
  6
Continuous
 62
     7
370
    25
100
AcDbLine
 10
156.3076219724
 20
71.4272399261
 30
0.0
 11
156.2190505438
 21
72.0472399261
 31
0.0
  0
LINE
  5
109
330
1F
100
AcDbEntity
  8
0
  6
Continuous
 62
     7
370
    25
100
AcDbLine
 10
139.076193401
 20
72.0472399261
 30
0.0
 11
138.9876219724
 21
71.4272399261
 31
0.0
  0
LINE
  5
10A
330
1F
100
AcDbEntity
  8
0
  6
Continuous
 62
     7
370
    25
100
AcDbLine
 10
156.2176844724
 20
72.0472399261
 30
0.0
 11
155.8449941422
 21
83.9733304924
 31
0.0
  0
LINE
  5
10B
330
1F
100
AcDbEntity
  8
0
  6
Continuous
 62
     7
370
    25
100
AcDbLine
 10
139.4502498026
 20
83.9733304924
 30
0.0
 11
139.0775594724
 21
72.0472399261
 31
0.0
  0
LINE
  5
10C
330
1F
100
AcDbEntity
  8
0
  6
Continuous
 62
     7
370
    25
100
AcDbLine
 10
139.1476219724
 20
70.5472399261
 30
0.0
 11
139.1476219724
 21
66.9961690985
 31
0.0
  0
LINE
  5
10D
330
1F
100
AcDbEntity
  8
0
  6
Continuous
 62
     7
370
    25
100
AcDbLine
 10
156.1476219724
 20
66.9961690985
 30
0.0
 11
156.1476219724
 21
70.5472399261
 31
0.0
  0
LINE
  5
10E
330
1F
100
AcDbEntity
  8
0
  6
Continuous
 62
     7
370
    25
100
AcDbLine
 10
155.8449941422
 20
83.9733304924
 30
0.0
 11
154.6476219724
 21
86.0472399261
 31
0.0
  0
LINE
  5
10F
330
1F
100
AcDbEntity
  8
0
  6
Continuous
 62
     7
370
    25
100
AcDbLine
 10
140.6476219724
 20
86.0472399261
 30
0.0
 11
139.4502498026
 21
83.9733304924
 31
0.0
  0
CIRCLE
  5
110
330
1F
100
AcDbEntity
  8
0
  6
Continuous
 62
     7
370
    25
100
AcDbCircle
 10
147.6476219724
 20
58.0472399261
 30
0.0
 40
11.55000000000001
  0
CIRCLE
  5
111
330
1F
100
AcDbEntity
  8
0
  6
Continuous
 62
     7
370
    25
100
AcDbCircle
 10
147.6476219724
 20
58.0472399261
 30
0.0
 40
6.175000000000011
  0
CIRCLE
  5
112
330
1F
100
AcDbEntity
  8
0
  6
Continuous
 62
     7
370
    25
100
AcDbCircle
 10
147.6476219724
 20
58.0472399261
 30
0.0
 40
11.75
  0
CIRCLE
  5
113
330
1F
100
AcDbEntity
  8
0
  6
Continuous
 62
     7
370
    25
100
AcDbCircle
 10
147.6476219724
 20
58.0472399261
 30
0.0
 40
6.074999999999989
  0
LINE
  5
114
330
1F
100
AcDbEntity
  8
0
  6
Continuous
 62
     7
370
    25
100
AcDbLine
 10
159.6476219724
 20
61.0705865817
 30
0.0
 11
159.0415613663
 21
60.9178923062
 31
0.0
  0
SPLINE
  5
115
330
1F
100
AcDbEntity
  8
0
  6
Continuous
 62
     7
370
    25
100
AcDbSpline
210
0.0
220
0.0
230
1.0
 70
    24
 71
     3
 72
    12
 73
     8
 74
     0
 42
0.00000001
 43
0.00000001
 40
0.0
 40
0.0
 40
0.0
 40
0.0
 40
0.1955379048913361
 40
0.3910647281628027
 40
0.5890459846401827
 40
0.7870310591970178
 40
0.9999999999999999
 40
0.9999999999999999
 40
0.9999999999999999
 40
0.9999999999999999
 10
159.6476219723855
 20
55.02389327047823
 30
0.0
 10
159.6476219723855
 20
55.41628053057421
 30
0.0
 10
159.6476219723855
 20
56.20103281320327
 30
0.0
 10
159.6476219723855
 20
57.39112296840695
 30
0.0
 10
159.6476219723855
 20
58.58759994508943
 30
0.0
 10
159.6476219723855
 20
59.81832094978503
 30
0.0
 10
159.6476219723855
 20
60.64314007953538
 30
0.0
 10
159.6476219723855
 20
61.07058658170222
 30
0.0
  0
LINE
  5
116
330
1F
100
AcDbEntity
  8
0
  6
Continuous
 62
     7
370
    25
100
AcDbLine
 10
159.0415613663
 20
55.176587546
 30
0.0
 11
159.6476219724
 21
55.0238932705
 31
0.0
  0
SPLINE
  5
117
330
1F
100
AcDbEntity
  8
0
  6
Continuous
 62
     7
370
    25
100
AcDbSpline
210
0.0
220
0.0
230
1.0
 70
    24
 71
     3
 72
    11
 73
     7
 74
     0
 42
0.00000001
 43
0.00000001
 40
0.0
 40
0.0
 40
0.0
 40
0.0
 40
0.2896312968534335
 40
0.5811875798131654
 40
0.790230497176998
 40
1.0
 40
1.0
 40
1.0
 40
1.0
 10
156.2659169805922
 20
66.92787144369753
 30
0.0
 10
155.7620304219848
 20
67.21879048395054
 30
0.0
 10
154.7509083068026
 20
67.8025621093346
 30
0.0
 10
153.3649512256718
 20
68.6027448032107
 30
0.0
 10
152.1218371475228
 20
69.32045705086347
 30
0.0
 10
151.3939179738786
 20
69.74072138171525
 30
0.0
 10
151.0293269641789
 20
69.95121809930946
 30
0.0
  0
LINE
  5
118
330
1F
100
AcDbEntity
  8
0
  6
Continuous
 62
     7
370
    25
100
AcDbLine
 10
156.2659169806
 20
66.9278714437
 30
0.0
 11
155.8306495559
 21
66.4793547004
 31
0.0
  0
LINE
  5
119
330
1F
100
AcDbEntity
  8
0
  6
Continuous
 62
     7
370
    25
100
AcDbLine
 10
151.0293269642
 20
69.9512180993
 30
0.0
 11
150.8585337828
 21
69.3500070805
 31
0.0
  0
LINE
  5
11A
330
1F
100
AcDbEntity
  8
0
  6
Continuous
 62
     7
370
    25
100
AcDbLine
 10
155.8306495559
 20
49.6151251518
 30
0.0
 11
156.2659169806
 21
49.1666084085
 31
0.0
  0
SPLINE
  5
11B
330
1F
100
AcDbEntity
  8
0
  6
Continuous
 62
     7
370
    25
100
AcDbSpline
210
0.0
220
0.0
230
1.0
 70
    24
 71
     3
 72
    11
 73
     7
 74
     0
 42
0.00000001
 43
0.00000001
 40
0.0
 40
0.0
 40
0.0
 40
0.0
 40
0.2896312968534325
 40
0.581187579813163
 40
0.7902304971769966
 40
0.9999999999999999
 40
0.9999999999999999
 40
0.9999999999999999
 40
0.9999999999999999
 10
151.0293269641789
 20
46.14326175287098
 30
0.0
 10
151.5332135227863
 20
46.434180793124
 30
0.0
 10
152.5443356379685
 20
47.01795241850806
 30
0.0
 10
153.9302927190993
 20
47.81813511238416
 30
0.0
 10
155.1734067972483
 20
48.53584736003694
 30
0.0
 10
155.9013259708926
 20
48.95611169088872
 30
0.0
 10
156.2659169805922
 20
49.16660840848294
 30
0.0
  0
LINE
  5
11C
330
1F
100
AcDbEntity
  8
0
  6
Continuous
 62
     7
370
    25
100
AcDbLine
 10
150.8585337828
 20
46.7444727717
 30
0.0
 11
151.0293269642
 21
46.1432617529
 31
0.0
  0
LINE
  5
11D
330
1F
100
AcDbEntity
  8
0
  6
Continuous
 62
     7
370
    25
100
AcDbLine
 10
144.436710162
 20
46.7444727717
 30
0.0
 11
144.2659169806
 21
46.1432617529
 31
0.0
  0
SPLINE
  5
11E
330
1F
100
AcDbEntity
  8
0
  6
Continuous
 62
     7
370
    25
100
AcDbSpline
210
0.0
220
0.0
230
1.0
 70
    24
 71
     3
 72
    11
 73
     7
 74
     0
 42
0.00000001
 43
0.00000001
 40
0.0
 40
0.0
 40
0.0
 40
0.0
 40
0.289631296853433
 40
0.5811875798131639
 40
0.7902304971769973
 40
1.0
 40
1.0
 40
1.0
 40
1.0
 10
139.0293269641789
 20
49.16660840848294
 30
0.0
 10
139.5332135227863
 20
48.87568936822992
 30
0.0
 10
140.5443356379685
 20
48.29191774284586
 30
0.0
 10
141.9302927190993
 20
47.49173504896975
 30
0.0
 10
143.1734067972484
 20
46.77402280131698
 30
0.0
 10
143.9013259708926
 20
46.3537584704652
 30
0.0
 10
144.2659169805922
 20
46.14326175287098
 30
0.0
  0
LINE
  5
11F
330
1F
100
AcDbEntity
  8
0
  6
Continuous
 62
     7
370
    25
100
AcDbLine
 10
139.4645943888
 20
49.6151251518
 30
0.0
 11
139.0293269642
 21
49.1666084085
 31
0.0
  0
SPLINE
  5
120
330
1F
100
AcDbEntity
  8
0
  6
Continuous
 62
     7
370
    25
100
AcDbSpline
210
0.0
220
0.0
230
1.0
 70
    24
 71
     3
 72
    11
 73
     7
 74
     0
 42
0.00000001
 43
0.00000001
 40
0.0
 40
0.0
 40
0.0
 40
0.0
 40
0.2896312968534325
 40
0.5811875798131635
 40
0.7902304971769967
 40
1.0
 40
1.0
 40
1.0
 40
1.0
 10
144.2659169805922
 20
69.95121809930947
 30
0.0
 10
143.7620304219848
 20
69.66029905905646
 30
0.0
 10
142.7509083068026
 20
69.07652743367238
 30
0.0
 10
141.3649512256718
 20
68.2763447397963
 30
0.0
 10
140.1218371475228
 20
67.55863249214353
 30
0.0
 10
139.3939179738786
 20
67.13836816129175
 30
0.0
 10
139.0293269641789
 20
66.92787144369753
 30
0.0
  0
LINE
  5
121
330
1F
100
AcDbEntity
  8
0
  6
Continuous
 62
     7
370
    25
100
AcDbLine
 10
144.2659169806
 20
69.9512180993
 30
0.0
 11
144.436710162
 21
69.3500070805
 31
0.0
  0
LINE
  5
122
330
1F
100
AcDbEntity
  8
0
  6
Continuous
 62
     7
370
    25
100
AcDbLine
 10
139.0293269642
 20
66.9278714437
 30
0.0
 11
139.4645943888
 21
66.4793547004
 31
0.0
  0
LINE
  5
123
330
1F
100
AcDbEntity
  8
0
  6
Continuous
 62
     7
370
    25
100
AcDbLine
 10
136.2536825784
 20
55.176587546
 30
0.0
 11
135.6476219724
 21
55.0238932705
 31
0.0
  0
SPLINE
  5
124
330
1F
100
AcDbEntity
  8
0
  6
Continuous
 62
     7
370
    25
100
AcDbSpline
210
0.0
220
0.0
230
1.0
 70
    24
 71
     3
 72
    12
 73
     8
 74
     0
 42
0.00000001
 43
0.00000001
 40
0.0
 40
0.0
 40
0.0
 40
0.0
 40
0.212968915467141
 40
0.4084755341932517
 40
0.603978421081841
 40
0.8019834228453045
 40
1.0
 40
1.0
 40
1.0
 40
1.0
 10
135.6476219723856
 20
61.07058658170218
 30
0.0
 10
135.6476219723856
 20
60.64314054359684
 30
0.0
 10
135.6476219723856
 20
59.82329672568152
 30
0.0
 10
135.6476219723856
 20
58.60263869223409
 30
0.0
 10
135.6476219723856
 20
57.41119023053437
 30
0.0
 10
135.6476219723856
 20
56.21598907773325
 30
0.0
 10
135.6476219723856
 20
55.42126628259864
 30
0.0
 10
135.6476219723856
 20
55.02389327047827
 30
0.0
  0
LINE
  5
125
330
1F
100
AcDbEntity
  8
0
  6
Continuous
 62
     7
370
    25
100
AcDbLine
 10
135.6476219724
 20
61.0705865817
 30
0.0
 11
136.2536825784
 21
60.9178923062
 31
0.0
  0
ARC
  5
126
330
1F
100
AcDbEntity
  8
0
  6
Continuous
 62
     7
370
    25
100
AcDbCircle
 10
147.6476219724
 20
58.0472399261
 30
0.0
 40
12.375
100
AcDbArc
 50
314.1411102339
 51
345.8588897661
  0
ARC
  5
127
330
1F
100
AcDbEntity
  8
0
  6
Continuous
 62
     7
370
    25
100
AcDbCircle
 10
147.6476219724
 20
58.0472399261
 30
0.0
 40
12.37500000000001
100
AcDbArc
 50
14.1411102339
 51
45.8588897661
  0
ARC
  5
128
330
1F
100
AcDbEntity
  8
0
  6
Continuous
 62
     7
370
    25
100
AcDbCircle
 10
147.6476219724
 20
58.0472399261
 30
0.0
 40
12.375
100
AcDbArc
 50
74.1411102339
 51
105.8588897661
  0
ARC
  5
129
330
1F
100
AcDbEntity
  8
0
  6
Continuous
 62
     7
370
    25
100
AcDbCircle
 10
147.6476219724
 20
58.0472399261
 30
0.0
 40
12.37500000000001
100
AcDbArc
 50
254.1411102339
 51
285.8588897661
  0
ARC
  5
12A
330
1F
100
AcDbEntity
  8
0
  6
Continuous
 62
     7
370
    25
100
AcDbCircle
 10
147.6476219724
 20
58.0472399261
 30
0.0
 40
12.375
100
AcDbArc
 50
194.1411102339
 51
225.8588897661
  0
ARC
  5
12B
330
1F
100
AcDbEntity
  8
0
  6
Continuous
 62
     7
370
    25
100
AcDbCircle
 10
147.6476219724
 20
58.0472399261
 30
0.0
 40
12.37500000000001
100
AcDbArc
 50
134.1411102339
 51
165.8588897661
  0
SPLINE
  5
12C
330
1F
100
AcDbEntity
  8
0
  6
Continuous
 62
     7
370
    25
100
AcDbSpline
210
0.0
220
0.0
230
1.0
 70
    24
 71
     3
 72
     9
 73
     5
 74
     0
 42
0.00000001
 43
0.00000001
 40
0.0
 40
0.0
 40
0.0
 40
0.0
 40
0.4986680494787148
 40
1.0
 40
1.0
 40
1.0
 40
1.0
 10
156.2659169805922
 20
49.16660840848294
 30
0.0
 10
156.8345481349989
 20
49.49490775854924
 30
0.0
 10
157.9748480900514
 20
50.15326024455569
 30
0.0
 10
159.0890413114461
 20
50.79654000085721
 30
0.0
 10
159.6476219723855
 20
51.11903669581471
 30
0.0
  0
SPLINE
  5
12D
330
1F
100
AcDbEntity
  8
0
  6
Continuous
 62
     7
370
    25
100
AcDbSpline
210
0.0
220
0.0
230
1.0
 70
    24
 71
     3
 72
    10
 73
     6
 74
     0
 42
0.00000001
 43
0.00000001
 40
0.0
 40
0.0
 40
0.0
 40
0.0
 40
0.4059715743866129
 40
0.7026896990791633
 40
1.0
 40
1.0
 40
1.0
 40
1.0
 10
159.6476219723855
 20
51.11903669581471
 30
0.0
 10
159.6476219723855
 20
51.64117904528171
 30
0.0
 10
159.6476219723855
 20
52.54494687921888
 30
0.0
 10
159.6476219723855
 20
53.84945708917869
 30
0.0
 10
159.6476219723855
 20
54.63215445774632
 30
0.0
 10
159.6476219723855
 20
55.02389327047823
 30
0.0
  0
SPLINE
  5
12E
330
1F
100
AcDbEntity
  8
0
  6
Continuous
 62
     7
370
    25
100
AcDbSpline
210
0.0
220
0.0
230
1.0
 70
    24
 71
     3
 72
     9
 73
     5
 74
     0
 42
0.00000001
 43
0.00000001
 40
0.0
 40
0.0
 40
0.0
 40
0.0
 40
0.498847038423143
 40
1.0
 40
1.0
 40
1.0
 40
1.0
 10
159.6476219723855
 20
64.97544315636574
 30
0.0
 10
159.0918236346024
 20
65.29633347629999
 30
0.0
 10
157.9776577781907
 20
65.93959743342117
 30
0.0
 10
156.837373715599
 20
66.59794074391117
 30
0.0
 10
156.2659169805922
 20
66.92787144369753
 30
0.0
  0
SPLINE
  5
12F
330
1F
100
AcDbEntity
  8
0
  6
Continuous
 62
     7
370
    25
100
AcDbSpline
210
0.0
220
0.0
230
1.0
 70
    24
 71
     3
 72
     9
 73
     5
 74
     0
 42
0.00000001
 43
0.00000001
 40
0.0
 40
0.0
 40
0.0
 40
0.0
 40
0.4986680494787147
 40
1.0
 40
1.0
 40
1.0
 40
1.0
 10
159.6476219723855
 20
61.07058658170222
 30
0.0
 10
159.6476219723855
 20
61.72718528183481
 30
0.0
 10
159.6476219723855
 20
63.04389025384771
 30
0.0
 10
159.6476219723855
 20
64.33044976645076
 30
0.0
 10
159.6476219723855
 20
64.97544315636574
 30
0.0
  0
SPLINE
  5
130
330
1F
100
AcDbEntity
  8
0
  6
Continuous
 62
     7
370
    25
100
AcDbSpline
210
0.0
220
0.0
230
1.0
 70
    24
 71
     3
 72
     9
 73
     5
 74
     0
 42
0.00000001
 43
0.00000001
 40
0.0
 40
0.0
 40
0.0
 40
0.0
 40
0.4988470384231429
 40
1.0
 40
1.0
 40
1.0
 40
1.0
 10
147.6476219723856
 20
71.90364638664124
 30
0.0
 10
147.0918236346024
 20
71.58275606670699
 30
0.0
 10
145.9776577781907
 20
70.93949210958581
 30
0.0
 10
144.837373715599
 20
70.28114879909583
 30
0.0
 10
144.2659169805922
 20
69.95121809930947
 30
0.0
  0
SPLINE
  5
131
330
1F
100
AcDbEntity
  8
0
  6
Continuous
 62
     7
370
    25
100
AcDbSpline
210
0.0
220
0.0
230
1.0
 70
    24
 71
     3
 72
     9
 73
     5
 74
     0
 42
0.00000001
 43
0.00000001
 40
0.0
 40
0.0
 40
0.0
 40
0.0
 40
0.4986680494787149
 40
1.0
 40
1.0
 40
1.0
 40
1.0
 10
151.0293269641789
 20
69.95121809930946
 30
0.0
 10
150.4606958097722
 20
70.27951744937576
 30
0.0
 10
149.3203958547198
 20
70.93786993538221
 30
0.0
 10
148.206202633325
 20
71.58114969168375
 30
0.0
 10
147.6476219723856
 20
71.90364638664124
 30
0.0
  0
SPLINE
  5
132
330
1F
100
AcDbEntity
  8
0
  6
Continuous
 62
     7
370
    25
100
AcDbSpline
210
0.0
220
0.0
230
1.0
 70
    24
 71
     3
 72
     9
 73
     5
 74
     0
 42
0.00000001
 43
0.00000001
 40
0.0
 40
0.0
 40
0.0
 40
0.0
 40
0.4986680494787149
 40
1.0
 40
1.0
 40
1.0
 40
1.0
 10
144.2659169805922
 20
46.14326175287098
 30
0.0
 10
144.8345481349989
 20
45.8149624028047
 30
0.0
 10
145.9748480900514
 20
45.15660991679823
 30
0.0
 10
147.0890413114461
 20
44.5133301604967
 30
0.0
 10
147.6476219723856
 20
44.1908334655392
 30
0.0
  0
SPLINE
  5
133
330
1F
100
AcDbEntity
  8
0
  6
Continuous
 62
     7
370
    25
100
AcDbSpline
210
0.0
220
0.0
230
1.0
 70
    24
 71
     3
 72
     9
 73
     5
 74
     0
 42
0.00000001
 43
0.00000001
 40
0.0
 40
0.0
 40
0.0
 40
0.0
 40
0.498847038423143
 40
1.0
 40
1.0
 40
1.0
 40
1.0
 10
147.6476219723856
 20
44.1908334655392
 30
0.0
 10
148.2034203101687
 20
44.51172378547346
 30
0.0
 10
149.3175861665804
 20
45.15498774259464
 30
0.0
 10
150.4578702291722
 20
45.81333105308462
 30
0.0
 10
151.0293269641789
 20
46.14326175287098
 30
0.0
  0
SPLINE
  5
134
330
1F
100
AcDbEntity
  8
0
  6
Continuous
 62
     7
370
    25
100
AcDbSpline
210
0.0
220
0.0
230
1.0
 70
    24
 71
     3
 72
     9
 73
     5
 74
     0
 42
0.00000001
 43
0.00000001
 40
0.0
 40
0.0
 40
0.0
 40
0.0
 40
0.4988470384231427
 40
1.0
 40
1.0
 40
1.0
 40
1.0
 10
135.6476219723856
 20
64.97544315636574
 30
0.0
 10
135.6476219723856
 20
64.33366251649724
 30
0.0
 10
135.6476219723856
 20
63.04713460225488
 30
0.0
 10
135.6476219723856
 20
61.73044798127491
 30
0.0
 10
135.6476219723856
 20
61.07058658170218
 30
0.0
  0
SPLINE
  5
135
330
1F
100
AcDbEntity
  8
0
  6
Continuous
 62
     7
370
    25
100
AcDbSpline
210
0.0
220
0.0
230
1.0
 70
    24
 71
     3
 72
     9
 73
     5
 74
     0
 42
0.00000001
 43
0.00000001
 40
0.0
 40
0.0
 40
0.0
 40
0.0
 40
0.4986680494787146
 40
1.0
 40
1.0
 40
1.0
 40
1.0
 10
139.0293269641789
 20
66.92787144369753
 30
0.0
 10
138.4606958097722
 20
66.59957209363122
 30
0.0
 10
137.3203958547198
 20
65.94121960762477
 30
0.0
 10
136.206202633325
 20
65.29793985132325
 30
0.0
 10
135.6476219723856
 20
64.97544315636574
 30
0.0
  0
SPLINE
  5
136
330
1F
100
AcDbEntity
  8
0
  6
Continuous
 62
     7
370
    25
100
AcDbSpline
210
0.0
220
0.0
230
1.0
 70
    24
 71
     3
 72
    10
 73
     6
 74
     0
 42
0.00000001
 43
0.00000001
 40
0.0
 40
0.0
 40
0.0
 40
0.0
 40
0.2966942842518302
 40
0.5940284356736802
 40
1.0
 40
1.0
 40
1.0
 40
1.0
 10
135.6476219723856
 20
55.02389327047827
 30
0.0
 10
135.6476219723856
 20
54.63296480422768
 30
0.0
 10
135.6476219723856
 20
53.85026477394992
 30
0.0
 10
135.6476219723856
 20
52.54573946557993
 30
0.0
 10
135.6476219723856
 20
51.64117914448309
 30
0.0
 10
135.6476219723856
 20
51.11903669581472
 30
0.0
  0
SPLINE
  5
137
330
1F
100
AcDbEntity
  8
0
  6
Continuous
 62
     7
370
    25
100
AcDbSpline
210
0.0
220
0.0
230
1.0
 70
    24
 71
     3
 72
     9
 73
     5
 74
     0
 42
0.00000001
 43
0.00000001
 40
0.0
 40
0.0
 40
0.0
 40
0.0
 40
0.4988470384231431
 40
1.0
 40
1.0
 40
1.0
 40
1.0
 10
135.6476219723856
 20
51.11903669581472
 30
0.0
 10
136.2034203101687
 20
50.79814637588047
 30
0.0
 10
137.3175861665804
 20
50.15488241875929
 30
0.0
 10
138.4578702291721
 20
49.4965391082693
 30
0.0
 10
139.0293269641789
 20
49.16660840848294
 30
0.0
  0
CIRCLE
  5
138
330
1F
100
AcDbEntity
  8
0
  6
Continuous
 62
     7
370
    25
100
AcDbCircle
 10
147.6476219724
 20
58.0472399261
 30
0.0
 40
5.0
  0
LINE
  5
139
330
1F
100
AcDbEntity
  8
0
  6
Continuous
 62
     7
370
    25
100
AcDbLine
 10
156.3076219724
 20
71.4272399261
 30
0.0
 11
148.4738492071
 21
71.4272399261
 31
0.0
  0
LINE
  5
13A
330
1F
100
AcDbEntity
  8
0
  6
Continuous
 62
     7
370
    25
100
AcDbLine
 10
146.8204259018
 20
71.4272399261
 30
0.0
 11
138.9876219724
 21
71.4272399261
 31
0.0
  0
LINE
  5
13B
330
1F
100
AcDbEntity
  8
0
  6
Continuous
 62
     7
370
    25
100
AcDbLine
 10
139.076193401
 20
72.0472399261
 30
0.0
 11
156.2190505438
 21
72.0472399261
 31
0.0
  0
LINE
  5
13C
330
1F
100
AcDbEntity
  8
0
  6
Continuous
 62
     7
370
    25
100
AcDbLine
 10
139.4502498026
 20
83.9733304924
 30
0.0
 11
155.8449941422
 21
83.9733304924
 31
0.0
  0
LINE
  5
13D
330
1F
100
AcDbEntity
  8
0
  6
Continuous
 62
     7
370
    25
100
AcDbLine
 10
140.6476219724
 20
86.0472399261
 30
0.0
 11
154.6476219724
 21
86.0472399261
 31
0.0
  0
LINE
  5
13E
330
1F
100
AcDbEntity
  8
0
  6
Continuous
 62
     7
370
    25
100
AcDbLine
 10
152.546601458
 20
57.0472399261
 30
0.0
 11
142.7486424868
 21
57.0472399261
 31
0.0
  0
SPLINE
  5
13F
330
1F
100
AcDbEntity
  8
0
  6
Continuous
 62
     7
370
    25
100
AcDbSpline
210
0.0
220
0.0
230
1.0
 70
     8
 71
     3
 72
    10
 73
     6
 74
     0
 42
0.00000001
 43
0.00000001
 40
0.0
 40
0.0
 40
0.0
 40
0.0
 40
0.5
 40
0.5
 40
1.0
 40
1.0
 40
1.0
 40
1.0
 10
142.7486424868192
 20
59.04723992609022
 30
0.0
 10
142.7577999124173
 20
58.718787101481
 30
0.0
 10
142.7632810998616
 20
58.38787564269464
 30
0.0
 10
142.7634223703242
 20
57.720247239506
 30
0.0
 10
142.7579658568239
 20
57.38164474107897
 30
0.0
 10
142.7486424868192
 20
57.04723992609023
 30
0.0
  0
SPLINE
  5
140
330
1F
100
AcDbEntity
  8
0
  6
Continuous
 62
     7
370
    25
100
AcDbSpline
210
0.0
220
0.0
230
1.0
 70
     8
 71
     3
 72
    10
 73
     6
 74
     0
 42
0.00000001
 43
0.00000001
 40
0.0
 40
0.0
 40
0.0
 40
0.0
 40
0.5
 40
0.5
 40
1.0
 40
1.0
 40
1.0
 40
1.0
 10
152.5466014579519
 20
57.04723992609023
 30
0.0
 10
152.5373554907734
 20
57.37886850483223
 30
0.0
 10
152.5319186919126
 20
57.71129055939125
 30
0.0
 10
152.5318644970508
 20
58.37794788582594
 30
0.0
 10
152.5372599408079
 20
58.71218422083692
 30
0.0
 10
152.5466014579519
 20
59.04723992609022
 30
0.0
  0
SPLINE
  5
141
330
1F
100
AcDbEntity
  8
0
  6
Continuous
 62
     7
370
    25
100
AcDbSpline
210
0.0
220
0.0
230
1.0
 70
    24
 71
     3
 72
     9
 73
     5
 74
     0
 42
0.00000001
 43
0.00000001
 40
0.0
 40
0.0
 40
0.0
 40
0.0
 40
0.990120171131577
 40
1.0
 40
1.0
 40
1.0
 40
1.0
 10
152.5466014579519
 20
57.04723992609023
 30
0.0
 10
152.5368916487833
 20
57.00133894734432
 30
0.0
 10
152.5270849511199
 20
56.95497994963453
 30
0.0
 10
152.5319884661306
 20
56.97816023406406
 30
0.0
 10
152.5320369120197
 20
56.97838925130735
 30
0.0
  0
SPLINE
  5
142
330
1F
100
AcDbEntity
  8
0
  6
Continuous
 62
     7
370
    25
100
AcDbSpline
210
0.0
220
0.0
230
1.0
 70
     8
 71
     3
 72
    24
 73
    20
 74
     0
 42
0.00000001
 43
0.00000001
 40
0.0
 40
0.0
 40
0.0
 40
0.0
 40
0.125
 40
0.125
 40
0.25
 40
0.25
 40
0.375
 40
0.375
 40
0.4375
 40
0.4375
 40
0.5
 40
0.5
 40
0.625
 40
0.625
 40
0.75
 40
0.75
 40
0.875
 40
0.875
 40
1.0
 40
1.0
 40
1.0
 40
1.0
 10
142.7486424868192
 20
57.04723992609023
 30
0.0
 10
143.1128292011958
 20
56.85583694606093
 30
0.0
 10
143.4833322538032
 20
56.6717338744878
 30
0.0
 10
144.2445374355372
 20
56.32687217619318
 30
0.0
 10
144.63508613623
 20
56.16593622940412
 30
0.0
 10
145.4501161941859
 20
55.88328093214994
 30
0.0
 10
145.8737103605245
 20
55.76248637198579
 30
0.0
 10
146.5267352484028
 20
55.63576816835483
 30
0.0
 10
146.7480282189731
 20
55.60243620061772
 30
0.0
 10
147.1993197999073
 20
55.5572053046773
 30
0.0
 10
147.4274244644871
 20
55.54572661330017
 30
0.0
 10
148.1032154340027
 20
55.54624034561541
 30
0.0
 10
148.5495994760751
 20
55.59309288846382
 30
0.0
 10
149.4293928859335
 20
55.76420931196255
 30
0.0
 10
149.8470857230186
 20
55.88400693381694
 30
0.0
 10
150.6559866975983
 20
56.16444283182779
 30
0.0
 10
151.0478245855902
 20
56.32561282717374
 30
0.0
 10
151.8116207491376
 20
56.67155595834081
 30
0.0
 10
152.1825118514958
 20
56.85588798236907
 30
0.0
 10
152.5466014579519
 20
57.04723992609023
 30
0.0
  0
LINE
  5
143
330
1F
100
AcDbEntity
  8
0
  6
Continuous
 62
     7
370
    25
100
AcDbLine
 10
149.9984945958
 20
70.5472399261
 30
0.0
 11
156.1476219724
 21
70.5472399261
 31
0.0
  0
LINE
  5
144
330
1F
100
AcDbEntity
  8
0
  6
Continuous
 62
     7
370
    25
100
AcDbLine
 10
139.1476219724
 20
70.5472399261
 30
0.0
 11
145.2946136263
 21
70.5472399261
 31
0.0
  0
INSERT
  5
150
330
1F
100
AcDbEntity
  8
FORMAT
100
AcDbBlockReference
  2
SW_CENTERMARKSYMBOL_0
 10
147.6476219724
 20
58.0472399261
 30
0.0
  0
LINE
  5
151
330
1F
100
AcDbEntity
  8
FORMAT
100
AcDbLine
 10
140.1726219724
 20
72.0472399261
 30
0.0
 11
140.6079760753
 21
85.978571218
 31
0.0
  0
LINE
  5
152
330
1F
100
AcDbEntity
  8
FORMAT
100
AcDbLine
 10
155.1226219724
 20
72.0472399261
 30
0.0
 11
154.6872678695
 21
85.978571218
 31
0.0
  0
LINE
  5
153
330
1F
100
AcDbEntity
  8
0
  6
Continuous
 62
     7
370
    25
100
AcDbLine
 10
105.351373604
 20
126.8118821649
 30
0.0
 11
105.2070360367
 21
126.5618821649
 31
0.0
  0
LINE
  5
154
330
1F
100
AcDbEntity
  8
0
  6
Continuous
 62
     7
370
    25
100
AcDbLine
 10
105.2070360367
 20
103.0618821649
 30
0.0
 11
105.351373604
 21
102.8118821649
 31
0.0
  0
LINE
  5
155
330
1F
100
AcDbEntity
  8
0
  6
Continuous
 62
     7
370
    25
100
AcDbLine
 10
123.0070360367
 20
126.5618821649
 30
0.0
 11
121.8181914111
 21
126.5618821649
 31
0.0
  0
LINE
  5
156
330
1F
100
AcDbEntity
  8
0
  6
Continuous
 62
     7
370
    25
100
AcDbLine
 10
121.8181914111
 20
103.0618821649
 30
0.0
 11
123.0070360367
 21
103.0618821649
 31
0.0
  0
LINE
  5
157
330
1F
100
AcDbEntity
  8
0
  6
Continuous
 62
     7
370
    25
100
AcDbLine
 10
123.0070360367
 20
103.0618821649
 30
0.0
 11
123.2070360367
 21
103.2618821649
 31
0.0
  0
LINE
  5
158
330
1F
100
AcDbEntity
  8
0
  6
Continuous
 62
     7
370
    25
100
AcDbLine
 10
123.2070360367
 20
126.3618821649
 30
0.0
 11
123.0070360367
 21
126.5618821649
 31
0.0
  0
SPLINE
  5
159
330
1F
100
AcDbEntity
  8
0
  6
Continuous
 62
     7
370
    25
100
AcDbSpline
210
0.0
220
0.0
230
1.0
 70
     8
 71
     3
 72
    13
 73
     9
 74
     0
 42
0.00000001
 43
0.00000001
 40
0.0
 40
0.0
 40
0.0
 40
0.0
 40
0.1265843406341995
 40
0.3346311095219319
 40
0.5305196994668683
 40
0.7126615534016506
 40
0.8780778542589279
 40
1.0
 40
1.0
 40
1.0
 40
1.0
 10
121.8182753938972
 20
126.5652135953825
 30
0.0
 10
121.7827805854348
 20
126.5647124360203
 30
0.0
 10
121.6889485436629
 20
126.563387599847
 30
0.0
 10
121.5420910991977
 20
126.5890451953741
 30
0.0
 10
121.3853267592327
 20
126.6347577705245
 30
0.0
 10
121.2487750926172
 20
126.6953382036615
 30
0.0
 10
121.1386876586796
 20
126.7588840523701
 30
0.0
 10
121.0824614639816
 20
126.8010257451525
 30
0.0
 10
121.0586038201974
 20
126.8189071169981
 30
0.0
  0
SPLINE
  5
15A
330
1F
100
AcDbEntity
  8
0
  6
Continuous
 62
     7
370
    25
100
AcDbSpline
210
0.0
220
0.0
230
1.0
 70
     8
 71
     3
 72
    13
 73
     9
 74
     0
 42
0.00000001
 43
0.00000001
 40
0.0
 40
0.0
 40
0.0
 40
0.0
 40
0.0297367201945503
 40
0.1998637586038176
 40
0.3964299696811053
 40
0.6105205406855144
 40
0.838147113124787
 40
1.0
 40
1.0
 40
1.0
 40
1.0
 10
121.0595876219444
 20
102.8055973666837
 30
0.0
 10
121.0648091998957
 20
102.8098725958834
 30
0.0
 10
121.0999039981236
 20
102.8386068803355
 30
0.0
 10
121.1899206742933
 20
102.8963021251701
 30
0.0
 10
121.3297615335643
 20
102.9678110215383
 30
0.0
 10
121.4980452764824
 20
103.0247619236478
 30
0.0
 10
121.6639569082173
 20
103.0585830253922
 30
0.0
 10
121.7730937994897
 20
103.0584301589607
 30
0.0
 10
121.8184469509706
 20
103.0583666334714
 30
0.0
  0
ARC
  5
15B
330
1F
100
AcDbEntity
  8
0
  6
Continuous
 62
     7
370
    25
100
AcDbCircle
 10
103.7228829671
 20
106.0618821649
 30
0.0
 40
2.500000000000003
100
AcDbArc
 50
206.7436839504
 51
223.7093197495
  0
ARC
  5
15C
330
1F
100
AcDbEntity
  8
0
  6
Continuous
 62
     7
370
    25
100
AcDbCircle
 10
103.7228829671
 20
123.5618821649
 30
0.0
 40
2.500000000000003
100
AcDbArc
 50
136.2906802505
 51
153.2563160496
  0
LINE
  5
15D
330
1F
100
AcDbEntity
  8
0
  6
Continuous
 62
     7
370
    25
100
AcDbLine
 10
105.2070360367
 20
125.2893821649
 30
0.0
 11
101.9157460741
 21
125.2893821649
 31
0.0
  0
LINE
  5
15E
330
1F
100
AcDbEntity
  8
0
  6
Continuous
 62
     7
370
    25
100
AcDbLine
 10
101.9157460741
 20
104.3343821649
 30
0.0
 11
105.2070360367
 21
104.3343821649
 31
0.0
  0
ARC
  5
15F
330
1F
100
AcDbEntity
  8
0
  6
Continuous
 62
     7
370
    25
100
AcDbCircle
 10
99.2577401922
 20
103.8118821649
 30
0.0
 40
2.499999999999986
100
AcDbArc
 50
26.7436839504
 51
90.0
  0
ARC
  5
160
330
1F
100
AcDbEntity
  8
0
  6
Continuous
 62
     7
370
    25
100
AcDbCircle
 10
99.2577401922
 20
125.8118821649
 30
0.0
 40
2.5
100
AcDbArc
 50
270.0
 51
333.2563160496
  0
LINE
  5
161
330
1F
100
AcDbEntity
  8
0
  6
Continuous
 62
     7
370
    25
100
AcDbLine
 10
99.2577401922
 20
123.3118821649
 30
0.0
 11
95.2577401922
 21
123.3118821649
 31
0.0
  0
LINE
  5
162
330
1F
100
AcDbEntity
  8
0
  6
Continuous
 62
     7
370
    25
100
AcDbLine
 10
95.2577401922
 20
106.3118821649
 30
0.0
 11
99.2577401922
 21
106.3118821649
 31
0.0
  0
SPLINE
  5
163
330
1F
100
AcDbEntity
  8
0
  6
Continuous
 62
     7
370
    25
100
AcDbSpline
210
0.0
220
0.0
230
1.0
 70
     8
 71
     3
 72
    11
 73
     7
 74
     0
 42
0.00000001
 43
0.00000001
 40
0.0
 40
0.0
 40
0.0
 40
0.0
 40
0.2896312968534335
 40
0.5811875798131654
 40
0.790230497176998
 40
1.0
 40
1.0
 40
1.0
 40
1.0
 10
120.8461921184345
 20
123.4301771731522
 30
0.0
 10
120.91553895545
 20
122.9262906145448
 30
0.0
 10
121.0546935316667
 20
121.9151684993625
 30
0.0
 10
121.0765845119935
 20
120.5292114182318
 30
0.0
 10
121.004186460971
 20
119.2860973400828
 30
0.0
 10
120.8989177751381
 20
118.5581781664385
 30
0.0
 10
120.8461921184345
 20
118.1935871567389
 30
0.0
  0
SPLINE
  5
164
330
1F
100
AcDbEntity
  8
0
  6
Continuous
 62
     7
370
    25
100
AcDbSpline
210
0.0
220
0.0
230
1.0
 70
     8
 71
     3
 72
     9
 73
     5
 74
     0
 42
0.00000001
 43
0.00000001
 40
0.0
 40
0.0
 40
0.0
 40
0.0
 40
0.4986680494787149
 40
1.0
 40
1.0
 40
1.0
 40
1.0
 10
120.8461921184345
 20
118.1935871567389
 30
0.0
 10
120.7383852278502
 20
117.6249560023322
 30
0.0
 10
120.5221955387434
 20
116.4846560472797
 30
0.0
 10
120.1683138812573
 20
115.370462825885
 30
0.0
 10
119.9909016996561
 20
114.8118821649455
 30
0.0
  0
LINE
  5
165
330
1F
100
AcDbEntity
  8
0
  6
Continuous
 62
     7
370
    25
100
AcDbLine
 10
119.9909016997
 20
114.8118821649
 30
0.0
 11
106.4231703737
 21
114.8118821649
 31
0.0
  0
SPLINE
  5
166
330
1F
100
AcDbEntity
  8
0
  6
Continuous
 62
     7
370
    25
100
AcDbSpline
210
0.0
220
0.0
230
1.0
 70
     8
 71
     3
 72
    15
 73
    11
 74
     0
 42
0.00000001
 43
0.00000001
 40
0.0
 40
0.0
 40
0.0
 40
0.0
 40
0.1323065044264402
 40
0.2645755999739298
 40
0.3998036789671094
 40
0.5350073556765894
 40
0.6501969475405022
 40
0.7654045076453767
 40
0.8826909144168967
 40
0.9999999999999999
 40
0.9999999999999999
 40
0.9999999999999999
 40
0.9999999999999999
 10
106.4231703736999
 20
114.8118821649455
 30
0.0
 10
106.2600112917822
 20
115.330334894154
 30
0.0
 10
105.9337392602089
 20
116.3670937631385
 30
0.0
 10
105.582684557189
 20
117.9636112084089
 30
0.0
 10
105.3716077716599
 20
119.5902236200888
 30
0.0
 10
105.3298104613743
 20
121.1579043614758
 30
0.0
 10
105.438269094075
 20
122.6408805554357
 30
0.0
 10
105.6604950031359
 20
124.0404339148611
 30
0.0
 10
105.9864727764222
 20
125.4336593311045
 30
0.0
 10
106.2775951268156
 20
126.3524449467225
 30
0.0
 10
106.4231703736999
 20
126.8118821649455
 30
0.0
  0
LINE
  5
167
330
1F
100
AcDbEntity
  8
0
  6
Continuous
 62
     7
370
    25
100
AcDbLine
 10
119.9909016997
 20
126.8118821649
 30
0.0
 11
106.4231703737
 21
126.8118821649
 31
0.0
  0
SPLINE
  5
168
330
1F
100
AcDbEntity
  8
0
  6
Continuous
 62
     7
370
    25
100
AcDbSpline
210
0.0
220
0.0
230
1.0
 70
     8
 71
     3
 72
     9
 73
     5
 74
     0
 42
0.00000001
 43
0.00000001
 40
0.0
 40
0.0
 40
0.0
 40
0.0
 40
0.498847038423143
 40
1.0
 40
1.0
 40
1.0
 40
1.0
 10
119.9909016996561
 20
126.8118821649455
 30
0.0
 10
120.1674776999946
 20
126.2560838271624
 30
0.0
 10
120.5214459241955
 20
125.1419179707507
 30
0.0
 10
120.7377771059945
 20
124.0016339081589
 30
0.0
 10
120.8461921184345
 20
123.4301771731522
 30
0.0
  0
SPLINE
  5
169
330
1F
100
AcDbEntity
  8
0
  6
Continuous
 62
     7
370
    25
100
AcDbSpline
210
0.0
220
0.0
230
1.0
 70
     8
 71
     3
 72
    15
 73
    11
 74
     0
 42
0.00000001
 43
0.00000001
 40
0.0
 40
0.0
 40
0.0
 40
0.0
 40
0.1323065044264403
 40
0.2645755999739298
 40
0.3998036789671092
 40
0.5350073556765892
 40
0.6501969475405018
 40
0.7654045076453763
 40
0.8826909144168966
 40
1.0
 40
1.0
 40
1.0
 40
1.0
 10
106.4231703736999
 20
102.8118821649455
 30
0.0
 10
106.2600112917822
 20
103.330334894154
 30
0.0
 10
105.9337392602089
 20
104.3670937631385
 30
0.0
 10
105.582684557189
 20
105.9636112084089
 30
0.0
 10
105.3716077716599
 20
107.5902236200888
 30
0.0
 10
105.3298104613743
 20
109.1579043614758
 30
0.0
 10
105.438269094075
 20
110.6408805554357
 30
0.0
 10
105.6604950031359
 20
112.0404339148611
 30
0.0
 10
105.9864727764222
 20
113.4336593311045
 30
0.0
 10
106.2775951268156
 20
114.3524449467225
 30
0.0
 10
106.4231703736999
 20
114.8118821649455
 30
0.0
  0
SPLINE
  5
16A
330
1F
100
AcDbEntity
  8
0
  6
Continuous
 62
     7
370
    25
100
AcDbSpline
210
0.0
220
0.0
230
1.0
 70
    24
 71
     3
 72
    12
 73
     8
 74
     0
 42
0.00000001
 43
0.00000001
 40
0.0
 40
0.0
 40
0.0
 40
0.0
 40
0.2568027995172097
 40
0.4416390835075583
 40
0.626493930313733
 40
0.8132382110775876
 40
1.0
 40
1.0
 40
1.0
 40
1.0
 10
105.3516005174303
 20
102.8118821649455
 30
0.0
 10
105.3663881654159
 20
102.8118821649455
 30
0.0
 10
105.3918193652153
 20
102.8118821649455
 30
0.0
 10
105.5675532216023
 20
102.8118821649455
 30
0.0
 10
105.7884390902853
 20
102.8118821649455
 30
0.0
 10
106.0721633176582
 20
102.8118821649455
 30
0.0
 10
106.3061643654068
 20
102.8118821649455
 30
0.0
 10
106.4231703736999
 20
102.8118821649455
 30
0.0
  0
SPLINE
  5
16B
330
1F
100
AcDbEntity
  8
0
  6
Continuous
 62
     7
370
    25
100
AcDbSpline
210
0.0
220
0.0
230
1.0
 70
    24
 71
     3
 72
    13
 73
     9
 74
     0
 42
0.00000001
 43
0.00000001
 40
0.0
 40
0.0
 40
0.0
 40
0.0
 40
0.1849899779392004
 40
0.3699631342121193
 40
0.5566135493323098
 40
0.7432446554337171
 40
0.992554346879851
 40
1.0
 40
1.0
 40
1.0
 40
1.0
 10
106.4231703736999
 20
126.8118821649455
 30
0.0
 10
106.307174006537
 20
126.8118821649455
 30
0.0
 10
106.0751918200917
 20
126.8118821649455
 30
0.0
 10
105.7925276772795
 20
126.8118821649455
 30
0.0
 10
105.5661145982832
 20
126.8118821649455
 30
0.0
 10
105.4070080626182
 20
126.8118821649455
 30
0.0
 10
105.3282431775117
 20
126.8118821649455
 30
0.0
 10
105.3528057882949
 20
126.8118821649455
 30
0.0
 10
105.3535180799122
 20
126.8118821649455
 30
0.0
  0
LINE
  5
16C
330
1F
100
AcDbEntity
  8
0
  6
Continuous
 62
     7
370
    25
100
AcDbLine
 10
105.2070360367
 20
103.0618821649
 30
0.0
 11
105.2070360367
 21
126.5618821649
 31
0.0
  0
LINE
  5
16D
330
1F
100
AcDbEntity
  8
0
  6
Continuous
 62
     7
370
    25
100
AcDbLine
 10
120.8461921184
 20
111.4301771732
 30
0.0
 11
120.8461921184
 21
118.1935871567
 31
0.0
  0
SPLINE
  5
16E
330
1F
100
AcDbEntity
  8
0
  6
Continuous
 62
     7
370
    25
100
AcDbSpline
210
0.0
220
0.0
230
1.0
 70
     8
 71
     3
 72
     9
 73
     5
 74
     0
 42
0.00000001
 43
0.00000001
 40
0.0
 40
0.0
 40
0.0
 40
0.0
 40
0.4988470384231429
 40
1.0
 40
1.0
 40
1.0
 40
1.0
 10
119.9909016996561
 20
114.8118821649455
 30
0.0
 10
120.1674776999946
 20
114.2560838271624
 30
0.0
 10
120.5214459241955
 20
113.1419179707507
 30
0.0
 10
120.7377771059945
 20
112.0016339081589
 30
0.0
 10
120.8461921184345
 20
111.4301771731522
 30
0.0
  0
SPLINE
  5
16F
330
1F
100
AcDbEntity
  8
0
  6
Continuous
 62
     7
370
    25
100
AcDbSpline
210
0.0
220
0.0
230
1.0
 70
     8
 71
     3
 72
    11
 73
     7
 74
     0
 42
0.00000001
 43
0.00000001
 40
0.0
 40
0.0
 40
0.0
 40
0.0
 40
0.2896312968534325
 40
0.5811875798131635
 40
0.7902304971769967
 40
1.0
 40
1.0
 40
1.0
 40
1.0
 10
120.8461921184345
 20
111.4301771731522
 30
0.0
 10
120.91553895545
 20
110.9262906145448
 30
0.0
 10
121.0546935316667
 20
109.9151684993626
 30
0.0
 10
121.0765845119935
 20
108.5292114182318
 30
0.0
 10
121.0041864609709
 20
107.2860973400827
 30
0.0
 10
120.8989177751381
 20
106.5581781664385
 30
0.0
 10
120.8461921184345
 20
106.1935871567389
 30
0.0
  0
SPLINE
  5
170
330
1F
100
AcDbEntity
  8
0
  6
Continuous
 62
     7
370
    25
100
AcDbSpline
210
0.0
220
0.0
230
1.0
 70
     8
 71
     3
 72
     9
 73
     5
 74
     0
 42
0.00000001
 43
0.00000001
 40
0.0
 40
0.0
 40
0.0
 40
0.0
 40
0.4986680494787146
 40
1.0
 40
1.0
 40
1.0
 40
1.0
 10
120.8461921184345
 20
106.1935871567389
 30
0.0
 10
120.7383852278502
 20
105.6249560023322
 30
0.0
 10
120.5221955387434
 20
104.4846560472797
 30
0.0
 10
120.1683138812573
 20
103.370462825885
 30
0.0
 10
119.9909016996561
 20
102.8118821649455
 30
0.0
  0
LINE
  5
171
330
1F
100
AcDbEntity
  8
0
  6
Continuous
 62
     7
370
    25
100
AcDbLine
 10
119.9909016997
 20
102.8118821649
 30
0.0
 11
106.4231703737
 21
102.8118821649
 31
0.0
  0
ARC
  5
172
330
1F
100
AcDbEntity
  8
0
  6
Continuous
 62
     7
370
    25
100
AcDbCircle
 10
121.8195982557
 20
120.8472083066
 30
0.0
 40
2.826521663601739
100
AcDbArc
 50
249.8558609029
 51
272.2126105423
  0
LINE
  5
173
330
1F
100
AcDbEntity
  8
0
  6
Continuous
 62
     7
370
    25
100
AcDbLine
 10
121.9287238732
 20
118.0227939753
 30
0.0
 11
121.9287238732
 21
111.6009703546
 31
0.0
  0
ARC
  5
174
330
1F
100
AcDbEntity
  8
0
  6
Continuous
 62
     7
370
    25
100
AcDbCircle
 10
121.8195982557
 20
108.7765560233
 30
0.0
 40
2.826521663600932
100
AcDbArc
 50
87.7873894577
 51
110.1441390971
  0
ARC
  5
175
330
1F
100
AcDbEntity
  8
0
  6
Continuous
 62
     7
370
    25
100
AcDbCircle
 10
121.8679901129
 20
124.4076507591
 30
0.0
 40
1.414045880661754
100
AcDbArc
 50
223.7299446481
 51
272.4616308106
  0
SPLINE
  5
176
330
1F
100
AcDbEntity
  8
0
  6
Continuous
 62
     7
370
    25
100
AcDbSpline
210
0.0
220
0.0
230
1.0
 70
     8
 71
     3
 72
    15
 73
    11
 74
     0
 42
0.00000001
 43
0.00000001
 40
0.0
 40
0.0
 40
0.0
 40
0.0
 40
0.1109312571802451
 40
0.2218878685175085
 40
0.3342489325819753
 40
0.4465909975315485
 40
0.5835720164058944
 40
0.7205960260516214
 40
0.8603243244460148
 40
1.0
 40
1.0
 40
1.0
 40
1.0
 10
121.9287238731651
 20
122.9949097484953
 30
0.0
 10
121.9254637655765
 20
122.8384921432879
 30
0.0
 10
121.9189428052776
 20
122.5256211824757
 30
0.0
 10
121.8801697621336
 20
122.0253001029761
 30
0.0
 10
121.8395710479652
 20
121.5029182181161
 30
0.0
 10
121.8085025423075
 20
120.9167799716198
 30
0.0
 10
121.8161417104093
 20
120.2658617760568
 30
0.0
 10
121.8577132734151
 20
119.5447388552981
 30
0.0
 10
121.9131100293352
 20
118.7984556336285
 30
0.0
 10
121.9235199120862
 20
118.281315395433
 30
0.0
 10
121.9287238731651
 20
118.0227939753352
 30
0.0
  0
SPLINE
  5
177
330
1F
100
AcDbEntity
  8
0
  6
Continuous
 62
     7
370
    25
100
AcDbSpline
210
0.0
220
0.0
230
1.0
 70
     8
 71
     3
 72
    15
 73
    11
 74
     0
 42
0.00000001
 43
0.00000001
 40
0.0
 40
0.0
 40
0.0
 40
0.0
 40
0.1109312571802448
 40
0.2218878685175075
 40
0.3342489325819742
 40
0.4465909975315472
 40
0.5835720164058934
 40
0.7205960260516209
 40
0.8603243244460145
 40
1.0
 40
1.0
 40
1.0
 40
1.0
 10
121.9287238731651
 20
111.6009703545559
 30
0.0
 10
121.9254637655765
 20
111.3954156763473
 30
0.0
 10
121.9189428052776
 20
110.9842593388923
 30
0.0
 10
121.8801697621336
 20
110.3799869642496
 30
0.0
 10
121.8395710479652
 20
109.7861896314942
 30
0.0
 10
121.8085025423075
 20
109.1623098340123
 30
0.0
 10
121.8161417104093
 20
108.5168237614499
 30
0.0
 10
121.8577132734152
 20
107.856466192323
 30
0.0
 10
121.9131100293352
 20
107.2221349148334
 30
0.0
 10
121.9235199120862
 20
106.8265898602722
 30
0.0
 10
121.9287238731651
 20
106.6288545813958
 30
0.0
  0
ARC
  5
178
330
1F
100
AcDbEntity
  8
0
  6
Continuous
 62
     7
370
    25
100
AcDbCircle
 10
121.8679901129
 20
105.2161135708
 30
0.0
 40
1.414045880661666
100
AcDbArc
 50
87.5383691894
 51
136.2700553519
  0
LINE
  5
179
330
1F
100
AcDbEntity
  8
0
  6
Continuous
 62
     7
370
    25
100
AcDbLine
 10
123.0070360367
 20
103.0618821649
 30
0.0
 11
123.0070360367
 21
126.5618821649
 31
0.0
  0
LINE
  5
17A
330
1F
100
AcDbEntity
  8
0
  6
Continuous
 62
     7
370
    25
100
AcDbLine
 10
121.9287238732
 20
106.6288545814
 30
0.0
 11
121.9287238732
 21
103.417942771
 31
0.0
  0
LINE
  5
17B
330
1F
100
AcDbEntity
  8
0
  6
Continuous
 62
     7
370
    25
100
AcDbLine
 10
121.9287238732
 20
126.2058215589
 30
0.0
 11
121.9287238732
 21
122.9949097485
 31
0.0
  0
LINE
  5
17C
330
1F
100
AcDbEntity
  8
0
  6
Continuous
 62
     7
370
    25
100
AcDbLine
 10
123.2070360367
 20
126.3618821649
 30
0.0
 11
123.2070360367
 21
103.2618821649
 31
0.0
  0
SPLINE
  5
17D
330
1F
100
AcDbEntity
  8
0
  6
Continuous
 62
     7
370
    25
100
AcDbSpline
210
0.0
220
0.0
230
1.0
 70
    24
 71
     3
 72
     9
 73
     5
 74
     0
 42
0.00000001
 43
0.00000001
 40
0.0
 40
0.0
 40
0.0
 40
0.0
 40
0.4986680494787147
 40
1.0
 40
1.0
 40
1.0
 40
1.0
 10
120.8461921184345
 20
126.8118821649455
 30
0.0
 10
120.7383852278502
 20
126.8118821649455
 30
0.0
 10
120.5221955387434
 20
126.8118821649455
 30
0.0
 10
120.1683138812573
 20
126.8118821649455
 30
0.0
 10
119.9909016996561
 20
126.8118821649455
 30
0.0
  0
LINE
  5
17E
330
1F
100
AcDbEntity
  8
0
  6
Continuous
 62
     7
370
    25
100
AcDbLine
 10
120.8461921184
 20
123.4301771732
 30
0.0
 11
120.8461921184
 21
126.8118821649
 31
0.0
  0
ARC
  5
17F
330
1F
100
AcDbEntity
  8
0
  6
Continuous
 62
     7
370
    25
100
AcDbCircle
 10
121.9216847533
 20
127.4630756201
 30
0.0
 40
1.257273766365385
100
AcDbArc
 50
211.1942295043
 51
270.3207845255
  0
LINE
  5
180
330
1F
100
AcDbEntity
  8
0
  6
Continuous
 62
     7
370
    25
100
AcDbLine
 10
120.8461921184
 20
102.8118821649
 30
0.0
 11
120.8461921184
 21
106.1935871567
 31
0.0
  0
ARC
  5
181
330
1F
100
AcDbEntity
  8
0
  6
Continuous
 62
     7
370
    25
100
AcDbCircle
 10
121.9216847533
 20
102.1606887098
 30
0.0
 40
1.257273766365385
100
AcDbArc
 50
89.6792154745
 51
148.8057704957
  0
SPLINE
  5
182
330
1F
100
AcDbEntity
  8
0
  6
Continuous
 62
     7
370
    25
100
AcDbSpline
210
0.0
220
0.0
230
1.0
 70
    24
 71
     3
 72
     9
 73
     5
 74
     0
 42
0.00000001
 43
0.00000001
 40
0.0
 40
0.0
 40
0.0
 40
0.0
 40
0.4988470384231427
 40
1.0
 40
1.0
 40
1.0
 40
1.0
 10
119.9909016996561
 20
102.8118821649455
 30
0.0
 10
120.1674776999946
 20
102.8118821649455
 30
0.0
 10
120.5214459241955
 20
102.8118821649455
 30
0.0
 10
120.7377771059945
 20
102.8118821649455
 30
0.0
 10
120.8461921184345
 20
102.8118821649455
 30
0.0
  0
SPLINE
  5
183
330
1F
100
AcDbEntity
  8
0
  6
Continuous
 62
     7
370
    25
100
AcDbSpline
210
0.0
220
0.0
230
1.0
 70
    24
 71
     3
 72
    10
 73
     6
 74
     0
 42
0.00000001
 43
0.00000001
 40
0.0
 40
0.0
 40
0.0
 40
0.0
 40
0.2249875246178141
 40
0.5983648295862831
 40
1.0
 40
1.0
 40
1.0
 40
1.0
 10
121.0535288324352
 20
126.8118821649455
 30
0.0
 10
121.0563250115049
 20
126.8118821649455
 30
0.0
 10
121.0637615803341
 20
126.8118821649455
 30
0.0
 10
121.0008319897211
 20
126.8118821649455
 30
0.0
 10
120.8989766638155
 20
126.8118821649455
 30
0.0
 10
120.8461921184345
 20
126.8118821649455
 30
0.0
  0
SPLINE
  5
184
330
1F
100
AcDbEntity
  8
0
  6
Continuous
 62
     7
370
    25
100
AcDbSpline
210
0.0
220
0.0
230
1.0
 70
    24
 71
     3
 72
    10
 73
     6
 74
     0
 42
0.00000001
 43
0.00000001
 40
0.0
 40
0.0
 40
0.0
 40
0.0
 40
0.4533547230847711
 40
0.8695368161353
 40
1.0
 40
1.0
 40
1.0
 40
1.0
 10
120.8461921184345
 20
102.8118821649455
 30
0.0
 10
120.8985941294254
 20
102.8118821649455
 30
0.0
 10
120.9991014705336
 20
102.8118821649455
 30
0.0
 10
121.0592292683624
 20
102.8118821649455
 30
0.0
 10
121.0554276794708
 20
102.8118821649455
 30
0.0
 10
121.0545203865489
 20
102.8118821649455
 30
0.0
  0
CIRCLE
  5
185
330
1F
100
AcDbEntity
  8
0
  6
Continuous
 62
     7
370
    25
100
AcDbCircle
 10
86.7577401922
 20
114.8118821649
 30
0.0
 40
8.19737216980208
  0
CIRCLE
  5
186
330
1F
100
AcDbEntity
  8
0
  6
Continuous
 62
     7
370
    25
100
AcDbCircle
 10
86.7577401922
 20
114.8118821649
 30
0.0
 40
7.0
  0
CIRCLE
  5
187
330
1F
100
AcDbEntity
  8
0
  6
Continuous
 62
     7
370
    25
100
AcDbCircle
 10
86.7577401922
 20
114.8118821649
 30
0.0
 40
6.276794919243116
  0
CIRCLE
  5
188
330
1F
100
AcDbEntity
  8
0
  6
Continuous
 62
     7
370
    25
100
AcDbCircle
 10
86.7577401922
 20
114.8118821649
 30
0.0
 40
6.25
  0
CIRCLE
  5
189
330
1F
100
AcDbEntity
  8
0
  6
Continuous
 62
     7
370
    25
100
AcDbCircle
 10
86.7577401922
 20
114.8118821649
 30
0.0
 40
6.223205080756884
  0
CIRCLE
  5
18A
330
1F
100
AcDbEntity
  8
0
  6
Continuous
 62
     7
370
    25
100
AcDbCircle
 10
86.7577401922
 20
114.8118821649
 30
0.0
 40
4.999999999999986
  0
CIRCLE
  5
18B
330
1F
100
AcDbEntity
  8
0
  6
Continuous
 62
     7
370
    25
100
AcDbCircle
 10
86.7577401922
 20
114.8118821649
 30
0.0
 40
5.5
  0
CIRCLE
  5
18C
330
1F
100
AcDbEntity
  8
0
  6
Continuous
 62
     7
370
    25
100
AcDbCircle
 10
86.7577401922
 20
114.8118821649
 30
0.0
 40
8.570062500000006
  0
CIRCLE
  5
18D
330
1F
100
AcDbEntity
  8
0
  6
Continuous
 62
     7
370
    25
100
AcDbCircle
 10
86.7577401922
 20
114.8118821649
 30
0.0
 40
8.571428571428555
  0
CIRCLE
  5
18E
330
1F
100
AcDbEntity
  8
0
  6
Continuous
 62
     7
370
    25
100
AcDbCircle
 10
86.7577401922
 20
114.8118821649
 30
0.0
 40
8.66000000000001
  0
LINE
  5
18F
330
1F
100
AcDbEntity
  8
0
  6
Continuous
 62
     7
370
    25
100
AcDbLine
 10
101.9157460741
 20
104.3343821649
 30
0.0
 11
101.9157460741
 21
125.2893821649
 31
0.0
  0
SPLINE
  5
190
330
1F
100
AcDbEntity
  8
0
  6
Continuous
 62
     7
370
    25
100
AcDbSpline
210
0.0
220
0.0
230
1.0
 70
     8
 71
     3
 72
    19
 73
    15
 74
     0
 42
0.00000001
 43
0.00000001
 40
-0.5788447217180465
 40
-0.5788447217180465
 40
-0.5788447217180465
 40
-0.5788447217180465
 40
-0.535566355711699
 40
-0.535566355711699
 40
-0.205987059889115
 40
-0.205987059889115
 40
0.0
 40
0.0
 40
0.0
 40
0.205987059889115
 40
0.205987059889115
 40
0.535566355711699
 40
0.535566355711699
 40
0.5788447217180465
 40
0.5788447217180465
 40
0.5788447217180465
 40
0.5788447217180465
 10
94.29152148745563
 20
110.1619574662851
 30
0.0
 10
94.36259316486552
 20
110.2645671506842
 30
0.0
 10
94.43129934290694
 20
110.3686402041056
 30
0.0
 10
95.00213865396253
 20
111.2771486367553
 30
0.0
 10
95.36524639021887
 20
112.1592809130804
 30
0.0
 10
95.6938700974011
 20
113.6446396359725
 30
0.0
 10
95.75774019219422
 20
114.2282521619264
 30
0.0
 10
95.75774019219422
 20
114.8118821649455
 30
0.0
 10
95.75774019219422
 20
115.3955121679647
 30
0.0
 10
95.6938700974011
 20
115.9791246939186
 30
0.0
 10
95.36524639021887
 20
117.4644834168107
 30
0.0
 10
95.00213865396253
 20
118.3466156931358
 30
0.0
 10
94.43129934290694
 20
119.2551241257854
 30
0.0
 10
94.36259316486552
 20
119.3591971792068
 30
0.0
 10
94.29152148745563
 20
119.461806863606
 30
0.0
  0
SPLINE
  5
191
330
1F
100
AcDbEntity
  8
0
  6
Continuous
 62
     7
370
    25
100
AcDbSpline
210
0.0
220
0.0
230
1.0
 70
     8
 71
     3
 72
     9
 73
     5
 74
     0
 42
0.00000001
 43
0.00000001
 40
0.0
 40
0.0
 40
0.0
 40
0.0
 40
0.6122418225327588
 40
1.0
 40
1.0
 40
1.0
 40
1.0
 10
94.29165590306464
 20
110.1619907117261
 30
0.0
 10
94.25160595322446
 20
110.1900351935261
 30
0.0
 10
94.1861907065585
 20
110.2358414105597
 30
0.0
 10
94.12174960554812
 20
110.244307862155
 30
0.0
 10
94.09676204166634
 20
110.2475907979952
 30
0.0
  0
SPLINE
  5
192
330
1F
100
AcDbEntity
  8
0
  6
Continuous
 62
     7
370
    25
100
AcDbSpline
210
0.0
220
0.0
230
1.0
 70
     8
 71
     3
 72
     9
 73
     5
 74
     0
 42
0.00000001
 43
0.00000001
 40
0.0
 40
0.0
 40
0.0
 40
0.0
 40
0.305570413973161
 40
1.0
 40
1.0
 40
1.0
 40
1.0
 10
94.11199232458858
 20
119.3792698797085
 30
0.0
 10
94.13005523956635
 20
119.3815845868022
 30
0.0
 10
94.18916735956155
 20
119.3891596234806
 30
0.0
 10
94.24965293202102
 20
119.4320141600652
 30
0.0
 10
94.29165590306465
 20
119.461773618165
 30
0.0
  0
SPLINE
  5
193
330
1F
100
AcDbEntity
  8
0
  6
Continuous
 62
     7
370
    25
100
AcDbSpline
210
0.0
220
0.0
230
1.0
 70
    24
 71
     3
 72
     8
 73
     4
 74
     0
 42
0.00000001
 43
0.00000001
 40
0.0
 40
0.0
 40
0.0
 40
0.0
 40
1.0
 40
1.0
 40
1.0
 40
1.0
 10
95.2577401921942
 20
106.8118821649455
 30
0.0
 10
95.2577401921942
 20
106.4818559113307
 30
0.0
 10
95.2577401921942
 20
106.3118821649455
 30
0.0
 10
95.2577401921942
 20
106.3118821649455
 30
0.0
  0
SPLINE
  5
194
330
1F
100
AcDbEntity
  8
0
  6
Continuous
 62
     7
370
    25
100
AcDbSpline
210
0.0
220
0.0
230
1.0
 70
     8
 71
     3
 72
    14
 73
    10
 74
     0
 42
0.00000001
 43
0.00000001
 40
0.0
 40
0.0
 40
0.0
 40
0.0
 40
0.25
 40
0.25
 40
0.5
 40
0.5
 40
0.75
 40
0.75
 40
1.0
 40
1.0
 40
1.0
 40
1.0
 10
95.2577401921942
 20
109.3346565898939
 30
0.0
 10
95.2577401921942
 20
109.4020175806935
 30
0.0
 10
95.24835234217217
 20
109.4690160326506
 30
0.0
 10
95.21169269545689
 20
109.6022253713794
 30
0.0
 10
95.18399015019402
 20
109.6692716706134
 30
0.0
 10
95.10760388911575
 20
109.7954113471379
 30
0.0
 10
95.0584007444281
 20
109.8561689476755
 30
0.0
 10
94.92973397123308
 20
109.953780813243
 30
0.0
 10
94.84680897102253
 20
109.9900567844491
 30
0.0
 10
94.7577401921942
 20
109.9900567844491
 30
0.0
  0
SPLINE
  5
195
330
1F
100
AcDbEntity
  8
0
  6
Continuous
 62
     7
370
    25
100
AcDbSpline
210
0.0
220
0.0
230
1.0
 70
     8
 71
     3
 72
    10
 73
     6
 74
     0
 42
0.00000001
 43
0.00000001
 40
0.0
 40
0.0
 40
0.0
 40
0.0
 40
0.5
 40
0.5
 40
1.0
 40
1.0
 40
1.0
 40
1.0
 10
94.29158442955338
 20
110.1618774519899
 30
0.0
 10
94.35474661069246
 20
110.1109525149299
 30
0.0
 10
94.42585069617246
 20
110.067989580462
 30
0.0
 10
94.58409150574084
 20
110.0070956053061
 30
0.0
 10
94.66964447676989
 20
109.990056784449
 30
0.0
 10
94.7577401921942
 20
109.990056784449
 30
0.0
  0
SPLINE
  5
196
330
1F
100
AcDbEntity
  8
0
  6
Continuous
 62
     7
370
    25
100
AcDbSpline
210
0.0
220
0.0
230
1.0
 70
     8
 71
     3
 72
     8
 73
     4
 74
     0
 42
0.00000001
 43
0.00000001
 40
0.0
 40
0.0
 40
0.0
 40
0.0
 40
1.0
 40
1.0
 40
1.0
 40
1.0
 10
94.7577401921942
 20
119.633707545442
 30
0.0
 10
94.5814852844921
 20
119.633707545442
 30
0.0
 10
94.41802719642286
 20
119.5638322165266
 30
0.0
 10
94.29158442955324
 20
119.4618868779013
 30
0.0
  0
SPLINE
  5
197
330
1F
100
AcDbEntity
  8
0
  6
Continuous
 62
     7
370
    25
100
AcDbSpline
210
0.0
220
0.0
230
1.0
 70
     8
 71
     3
 72
    14
 73
    10
 74
     0
 42
0.00000001
 43
0.00000001
 40
0.0
 40
0.0
 40
0.0
 40
0.0
 40
0.25
 40
0.25
 40
0.5
 40
0.5
 40
0.75
 40
0.75
 40
1.0
 40
1.0
 40
1.0
 40
1.0
 10
94.7577401921942
 20
119.633707545442
 30
0.0
 10
94.84684002044717
 20
119.633707545442
 30
0.0
 10
94.92975483750594
 20
119.6699997191238
 30
0.0
 10
95.05837695136154
 20
119.7675769593633
 30
0.0
 10
95.10754394639552
 20
119.8283171120359
 30
0.0
 10
95.18371458963317
 20
119.9539747775324
 30
0.0
 10
95.21139841148543
 20
120.0206420387586
 30
0.0
 10
95.24836949614226
 20
120.1546395050115
 30
0.0
 10
95.2577401921942
 20
120.2218106691567
 30
0.0
 10
95.2577401921942
 20
120.2891077399972
 30
0.0
  0
SPLINE
  5
198
330
1F
100
AcDbEntity
  8
0
  6
Continuous
 62
     7
370
    25
100
AcDbSpline
210
0.0
220
0.0
230
1.0
 70
    24
 71
     3
 72
     8
 73
     4
 74
     0
 42
0.00000001
 43
0.00000001
 40
0.0
 40
0.0
 40
0.0
 40
0.0
 40
1.0
 40
1.0
 40
1.0
 40
1.0
 10
95.2577401921942
 20
123.3118821649455
 30
0.0
 10
95.2577401921942
 20
123.3118821649455
 30
0.0
 10
95.2577401921942
 20
123.1419084185603
 30
0.0
 10
95.2577401921942
 20
122.8118821649455
 30
0.0
  0
LINE
  5
199
330
1F
100
AcDbEntity
  8
0
  6
Continuous
 62
     7
370
    25
100
AcDbLine
 10
93.7577401922
 20
109.7132941251
 30
0.0
 11
93.7577401922
 21
106.8118821649
 31
0.0
  0
ARC
  5
19A
330
1F
100
AcDbEntity
  8
0
  6
Continuous
 62
     7
370
    25
100
AcDbCircle
 10
93.2577401922
 20
106.8118821649
 30
0.0
 40
0.5
100
AcDbArc
 50
270.0
 51
0.0
  0
LINE
  5
19B
330
1F
100
AcDbEntity
  8
0
  6
Continuous
 62
     7
370
    25
100
AcDbLine
 10
89.6300215155
 20
106.3118821649
 30
0.0
 11
93.2577401922
 21
106.3118821649
 31
0.0
  0
LINE
  5
19C
330
1F
100
AcDbEntity
  8
0
  6
Continuous
 62
     7
370
    25
100
AcDbLine
 10
80.2577401922
 20
123.3118821649
 30
0.0
 11
80.2577401922
 21
122.8118821649
 31
0.0
  0
LINE
  5
19D
330
1F
100
AcDbEntity
  8
0
  6
Continuous
 62
     7
370
    25
100
AcDbLine
 10
83.8854588689
 20
123.3118821649
 30
0.0
 11
80.2577401922
 21
123.3118821649
 31
0.0
  0
LINE
  5
19E
330
1F
100
AcDbEntity
  8
0
  6
Continuous
 62
     7
370
    25
100
AcDbLine
 10
80.2577401922
 20
106.8118821649
 30
0.0
 11
80.2577401922
 21
106.3118821649
 31
0.0
  0
LINE
  5
19F
330
1F
100
AcDbEntity
  8
0
  6
Continuous
 62
     7
370
    25
100
AcDbLine
 10
80.2577401922
 20
106.3118821649
 30
0.0
 11
83.8854588689
 21
106.3118821649
 31
0.0
  0
ARC
  5
1A0
330
1F
100
AcDbEntity
  8
0
  6
Continuous
 62
     7
370
    25
100
AcDbCircle
 10
93.2577401922
 20
122.8118821649
 30
0.0
 40
0.5
100
AcDbArc
 50
0.0
 51
90.0
  0
LINE
  5
1A1
330
1F
100
AcDbEntity
  8
0
  6
Continuous
 62
     7
370
    25
100
AcDbLine
 10
93.2577401922
 20
123.3118821649
 30
0.0
 11
89.6300215155
 21
123.3118821649
 31
0.0
  0
LINE
  5
1A2
330
1F
100
AcDbEntity
  8
0
  6
Continuous
 62
     7
370
    25
100
AcDbLine
 10
93.7577401922
 20
122.8118821649
 30
0.0
 11
93.7577401922
 21
119.9104702048
 31
0.0
  0
SPLINE
  5
1A3
330
1F
100
AcDbEntity
  8
0
  6
Continuous
 62
     7
370
    25
100
AcDbSpline
210
0.0
220
0.0
230
1.0
 70
    24
 71
     3
 72
    10
 73
     6
 74
     0
 42
0.00000001
 43
0.00000001
 40
0.0
 40
0.0
 40
0.0
 40
0.0
 40
0.0483112464883477
 40
0.5248247224044855
 40
1.0
 40
1.0
 40
1.0
 40
1.0
 10
88.29298742505961
 20
106.3118821649455
 30
0.0
 10
88.3141985925137
 20
106.3118821649455
 30
0.0
 10
88.54462413273772
 20
106.3118821649455
 30
0.0
 10
88.9896697840807
 20
106.3118821649455
 30
0.0
 10
89.41677112503722
 20
106.3118821649455
 30
0.0
 10
89.63002151546323
 20
106.3118821649455
 30
0.0
  0
SPLINE
  5
1A4
330
1F
100
AcDbEntity
  8
0
  6
Continuous
 62
     7
370
    25
100
AcDbSpline
210
0.0
220
0.0
230
1.0
 70
    24
 71
     3
 72
     9
 73
     5
 74
     0
 42
0.00000001
 43
0.00000001
 40
0.0
 40
0.0
 40
0.0
 40
0.0
 40
0.6478632401978747
 40
0.9999999999999999
 40
0.9999999999999999
 40
0.9999999999999999
 40
0.9999999999999999
 10
83.8854588689252
 20
106.3118821649455
 30
0.0
 10
84.15733348953377
 20
106.3118821649455
 30
0.0
 10
84.57698165559664
 20
106.3118821649455
 30
0.0
 10
84.98870587241983
 20
106.3118821649455
 30
0.0
 10
85.13368910406402
 20
106.3118821649455
 30
0.0
  0
SPLINE
  5
1A5
330
1F
100
AcDbEntity
  8
0
  6
Continuous
 62
     7
370
    25
100
AcDbSpline
210
0.0
220
0.0
230
1.0
 70
    24
 71
     3
 72
    10
 73
     6
 74
     0
 42
0.00000001
 43
0.00000001
 40
0.0
 40
0.0
 40
0.0
 40
0.0
 40
0.0299912822449488
 40
0.5156776204105584
 40
1.0
 40
1.0
 40
1.0
 40
1.0
 10
85.19760619501267
 20
123.3118821649455
 30
0.0
 10
85.18468516658206
 20
123.3118821649455
 30
0.0
 10
84.96251776673795
 20
123.3118821649455
 30
0.0
 10
84.52578325727798
 20
123.3118821649455
 30
0.0
 10
84.09870015355594
 20
123.3118821649455
 30
0.0
 10
83.8854588689252
 20
123.3118821649455
 30
0.0
  0
SPLINE
  5
1A6
330
1F
100
AcDbEntity
  8
0
  6
Continuous
 62
     7
370
    25
100
AcDbSpline
210
0.0
220
0.0
230
1.0
 70
    24
 71
     3
 72
     9
 73
     5
 74
     0
 42
0.00000001
 43
0.00000001
 40
0.0
 40
0.0
 40
0.0
 40
0.0
 40
0.6177174184765543
 40
1.0
 40
1.0
 40
1.0
 40
1.0
 10
89.63002151546323
 20
123.3118821649455
 30
0.0
 10
89.35819848071704
 20
123.3118821649455
 30
0.0
 10
88.91815417143306
 20
123.3118821649455
 30
0.0
 10
88.4864205156563
 20
123.3118821649455
 30
0.0
 10
88.3213762591954
 20
123.3118821649455
 30
0.0
  0
LINE
  5
1A7
330
1F
100
AcDbEntity
  8
0
  6
Continuous
 62
     7
370
    25
100
AcDbLine
 10
80.2577401922
 20
122.8118821649
 30
0.0
 11
79.7577401922
 21
122.8118821649
 31
0.0
  0
ARC
  5
1A8
330
1F
100
AcDbEntity
  8
0
  6
Continuous
 62
     7
370
    25
100
AcDbCircle
 10
80.2577401922
 20
122.8118821649
 30
0.0
 40
0.5000000000000142
100
AcDbArc
 50
90.0
 51
180.0
  0
LINE
  5
1A9
330
1F
100
AcDbEntity
  8
0
  6
Continuous
 62
     7
370
    25
100
AcDbLine
 10
79.7577401922
 20
119.9104702048
 30
0.0
 11
79.7577401922
 21
122.8118821649
 31
0.0
  0
LINE
  5
1AA
330
1F
100
AcDbEntity
  8
0
  6
Continuous
 62
     7
370
    25
100
AcDbLine
 10
79.7577401922
 20
106.8118821649
 30
0.0
 11
80.2577401922
 21
106.8118821649
 31
0.0
  0
LINE
  5
1AB
330
1F
100
AcDbEntity
  8
0
  6
Continuous
 62
     7
370
    25
100
AcDbLine
 10
79.7577401922
 20
106.8118821649
 30
0.0
 11
79.7577401922
 21
109.7132941251
 31
0.0
  0
ARC
  5
1AC
330
1F
100
AcDbEntity
  8
0
  6
Continuous
 62
     7
370
    25
100
AcDbCircle
 10
80.2577401922
 20
106.8118821649
 30
0.0
 40
0.5000000000000142
100
AcDbArc
 50
180.0
 51
270.0
  0
LINE
  5
1AD
330
1F
100
AcDbEntity
  8
0
  6
Continuous
 62
     7
370
    25
100
AcDbLine
 10
94.7577401922
 20
119.6337075454
 30
0.0
 11
94.7577401922
 21
122.8118821649
 31
0.0
  0
LINE
  5
1AE
330
1F
100
AcDbEntity
  8
0
  6
Continuous
 62
     7
370
    25
100
AcDbLine
 10
93.7577401922
 20
122.8118821649
 30
0.0
 11
94.7577401922
 21
122.8118821649
 31
0.0
  0
LINE
  5
1AF
330
1F
100
AcDbEntity
  8
0
  6
Continuous
 62
     7
370
    25
100
AcDbLine
 10
94.7577401922
 20
106.8118821649
 30
0.0
 11
94.7577401922
 21
109.9900567844
 31
0.0
  0
LINE
  5
1B0
330
1F
100
AcDbEntity
  8
0
  6
Continuous
 62
     7
370
    25
100
AcDbLine
 10
94.7577401922
 20
106.8118821649
 30
0.0
 11
93.7577401922
 21
106.8118821649
 31
0.0
  0
LINE
  5
1B1
330
1F
100
AcDbEntity
  8
0
  6
Continuous
 62
     7
370
    25
100
AcDbLine
 10
94.7577401922
 20
123.3118821649
 30
0.0
 11
94.7577401922
 21
122.8118821649
 31
0.0
  0
LINE
  5
1B2
330
1F
100
AcDbEntity
  8
0
  6
Continuous
 62
     7
370
    25
100
AcDbLine
 10
94.7577401922
 20
123.3118821649
 30
0.0
 11
93.2577401922
 21
123.3118821649
 31
0.0
  0
LINE
  5
1B3
330
1F
100
AcDbEntity
  8
0
  6
Continuous
 62
     7
370
    25
100
AcDbLine
 10
94.7577401922
 20
106.3118821649
 30
0.0
 11
94.7577401922
 21
106.8118821649
 31
0.0
  0
LINE
  5
1B4
330
1F
100
AcDbEntity
  8
0
  6
Continuous
 62
     7
370
    25
100
AcDbLine
 10
93.2577401922
 20
106.3118821649
 30
0.0
 11
94.7577401922
 21
106.3118821649
 31
0.0
  0
ARC
  5
1B5
330
1F
100
AcDbEntity
  8
0
  6
Continuous
 62
     7
370
    25
100
AcDbCircle
 10
94.7577401922
 20
122.8118821649
 30
0.0
 40
0.5
100
AcDbArc
 50
0.0
 51
90.0
  0
LINE
  5
1B6
330
1F
100
AcDbEntity
  8
0
  6
Continuous
 62
     7
370
    25
100
AcDbLine
 10
94.7577401922
 20
122.8118821649
 30
0.0
 11
95.2577401922
 21
122.8118821649
 31
0.0
  0
LINE
  5
1B7
330
1F
100
AcDbEntity
  8
0
  6
Continuous
 62
     7
370
    25
100
AcDbLine
 10
95.2577401922
 20
120.28910774
 30
0.0
 11
95.2577401922
 21
122.8118821649
 31
0.0
  0
LINE
  5
1B8
330
1F
100
AcDbEntity
  8
0
  6
Continuous
 62
     7
370
    25
100
AcDbLine
 10
95.2577401922
 20
106.8118821649
 30
0.0
 11
95.2577401922
 21
109.3346565899
 31
0.0
  0
LINE
  5
1B9
330
1F
100
AcDbEntity
  8
0
  6
Continuous
 62
     7
370
    25
100
AcDbLine
 10
94.7577401922
 20
106.8118821649
 30
0.0
 11
95.2577401922
 21
106.8118821649
 31
0.0
  0
ARC
  5
1BA
330
1F
100
AcDbEntity
  8
0
  6
Continuous
 62
     7
370
    25
100
AcDbCircle
 10
94.7577401922
 20
106.8118821649
 30
0.0
 40
0.5
100
AcDbArc
 50
270.0
 51
0.0
  0
SPLINE
  5
1BB
330
1F
100
AcDbEntity
  8
0
  6
Continuous
 62
     7
370
    25
100
AcDbSpline
210
0.0
220
0.0
230
1.0
 70
     8
 71
     3
 72
    10
 73
     6
 74
     0
 42
0.00000001
 43
0.00000001
 40
0.0
 40
0.0
 40
0.0
 40
0.0
 40
0.5
 40
0.5
 40
1.0
 40
1.0
 40
1.0
 40
1.0
 10
87.7577401921942
 20
109.9129026793792
 30
0.0
 10
87.42928736758499
 20
109.9220601049773
 30
0.0
 10
87.09837590879863
 20
109.9275412924215
 30
0.0
 10
86.43074750560999
 20
109.9276825628842
 30
0.0
 10
86.09214500718296
 20
109.9222260493839
 30
0.0
 10
85.75774019219422
 20
109.9129026793792
 30
0.0
  0
LINE
  5
1BC
330
1F
100
AcDbEntity
  8
0
  6
Continuous
 62
     7
370
    25
100
AcDbLine
 10
85.7577401922
 20
109.9129026794
 30
0.0
 11
85.7577401922
 21
119.7108616505
 31
0.0
  0
SPLINE
  5
1BD
330
1F
100
AcDbEntity
  8
0
  6
Continuous
 62
     7
370
    25
100
AcDbSpline
210
0.0
220
0.0
230
1.0
 70
     8
 71
     3
 72
    10
 73
     6
 74
     0
 42
0.00000001
 43
0.00000001
 40
0.0
 40
0.0
 40
0.0
 40
0.0
 40
0.5
 40
0.5
 40
1.0
 40
1.0
 40
1.0
 40
1.0
 10
85.75774019219423
 20
119.7108616505119
 30
0.0
 10
86.08936877093622
 20
119.7016156833333
 30
0.0
 10
86.42179082549525
 20
119.6961788844725
 30
0.0
 10
87.08844815192992
 20
119.6961246896108
 30
0.0
 10
87.42268448694091
 20
119.7015201333679
 30
0.0
 10
87.7577401921942
 20
119.7108616505119
 30
0.0
  0
SPLINE
  5
1BE
330
1F
100
AcDbEntity
  8
0
  6
Continuous
 62
     7
370
    25
100
AcDbSpline
210
0.0
220
0.0
230
1.0
 70
    24
 71
     3
 72
    10
 73
     6
 74
     0
 42
0.00000001
 43
0.00000001
 40
-0.2904940295525288
 40
-0.2904940295525288
 40
-0.2904940295525288
 40
-0.2904940295525288
 40
-0.1303072746364131
 40
-0.1303072746364131
 40
0.0010563617272233
 40
0.0010563617272233
 40
0.0010563617272233
 40
0.0010563617272233
 10
95.2577401921942
 20
123.3118821649455
 30
0.0
 10
95.12823687644057
 20
123.3118821649455
 30
0.0
 10
94.9964458982547
 20
123.3118821649455
 30
0.0
 10
94.81802195882953
 20
123.3118821649455
 30
0.0
 10
94.7577401921942
 20
123.3118821649455
 30
0.0
 10
94.7577401921942
 20
123.3118821649455
 30
0.0
  0
SPLINE
  5
1BF
330
1F
100
AcDbEntity
  8
0
  6
Continuous
 62
     7
370
    25
100
AcDbSpline
210
0.0
220
0.0
230
1.0
 70
    24
 71
     3
 72
    10
 73
     6
 74
     0
 42
0.00000001
 43
0.00000001
 40
-0.8711658421011628
 40
-0.8711658421011628
 40
-0.8711658421011628
 40
-0.8711658421011628
 40
-0.739802205737527
 40
-0.739802205737527
 40
-0.579615450786466
 40
-0.579615450786466
 40
-0.579615450786466
 40
-0.579615450786466
 10
94.7577401921942
 20
106.3118821649455
 30
0.0
 10
94.7577401921942
 20
106.3118821649455
 30
0.0
 10
94.81802195882953
 20
106.3118821649455
 30
0.0
 10
94.99644589827611
 20
106.3118821649455
 30
0.0
 10
95.12823687641217
 20
106.3118821649455
 30
0.0
 10
95.2577401921942
 20
106.3118821649455
 30
0.0
  0
SPLINE
  5
1C0
330
1F
100
AcDbEntity
  8
0
  6
Continuous
 62
     7
370
    25
100
AcDbSpline
210
0.0
220
0.0
230
1.0
 70
     8
 71
     3
 72
    24
 73
    20
 74
     0
 42
0.00000001
 43
0.00000001
 40
0.0
 40
0.0
 40
0.0
 40
0.0
 40
0.125
 40
0.125
 40
0.25
 40
0.25
 40
0.375
 40
0.375
 40
0.4375
 40
0.4375
 40
0.5
 40
0.5
 40
0.625
 40
0.625
 40
0.75
 40
0.75
 40
0.875
 40
0.875
 40
1.0
 40
1.0
 40
1.0
 40
1.0
 10
85.75774019219422
 20
109.9129026793792
 30
0.0
 10
85.5663372121649
 20
110.2770893937558
 30
0.0
 10
85.38223414059178
 20
110.6475924463631
 30
0.0
 10
85.03737244229717
 20
111.4087976280971
 30
0.0
 10
84.8764364955081
 20
111.7993463287899
 30
0.0
 10
84.59378119825392
 20
112.6143763867459
 30
0.0
 10
84.47298663808978
 20
113.0379705530845
 30
0.0
 10
84.3462684344588
 20
113.6909954409628
 30
0.0
 10
84.3129364667217
 20
113.9122884115331
 30
0.0
 10
84.26770557078129
 20
114.3635799924672
 30
0.0
 10
84.25622687940415
 20
114.5916846570471
 30
0.0
 10
84.25674061171938
 20
115.2674756265626
 30
0.0
 10
84.30359315456779
 20
115.7138596686351
 30
0.0
 10
84.47470957806654
 20
116.5936530784934
 30
0.0
 10
84.59450719992093
 20
117.0113459155785
 30
0.0
 10
84.87494309793178
 20
117.8202468901583
 30
0.0
 10
85.03611309327773
 20
118.2120847781502
 30
0.0
 10
85.3820562244448
 20
118.9758809416976
 30
0.0
 10
85.56638824847306
 20
119.3467720440558
 30
0.0
 10
85.75774019219422
 20
119.7108616505119
 30
0.0
  0
SPLINE
  5
1C1
330
1F
100
AcDbEntity
  8
0
  6
Continuous
 62
     7
370
    25
100
AcDbSpline
210
0.0
220
0.0
230
1.0
 70
     8
 71
     3
 72
    12
 73
     8
 74
     0
 42
0.00000001
 43
0.00000001
 40
0.0
 40
0.0
 40
0.0
 40
0.0
 40
0.2218514802639133
 40
0.443753666319939
 40
0.6684646181324464
 40
0.8931375736049681
 40
1.0
 40
1.0
 40
1.0
 40
1.0
 10
121.9287238731651
 20
103.4179427710061
 30
0.0
 10
121.925490948946
 20
103.3688413381881
 30
0.0
 10
121.9190243615992
 20
103.2706272500574
 30
0.0
 10
121.8798417288364
 20
103.1661389409505
 30
0.0
 10
121.8408184744893
 20
103.0967890823296
 30
0.0
 10
121.8120564576208
 20
103.0613803356404
 30
0.0
 10
121.8166959747211
 20
103.0666151186319
 30
0.0
 10
121.8181914110509
 20
103.0683024245507
 30
0.0
  0
SPLINE
  5
1C2
330
1F
100
AcDbEntity
  8
0
  6
Continuous
 62
     7
370
    25
100
AcDbSpline
210
0.0
220
0.0
230
1.0
 70
     8
 71
     3
 72
    11
 73
     7
 74
     0
 42
0.00000001
 43
0.00000001
 40
0.0
 40
0.0
 40
0.0
 40
0.0
 40
0.1671026074590442
 40
0.4411642576015753
 40
0.7206347542586012
 40
1.0
 40
1.0
 40
1.0
 40
1.0
 10
121.8181914110519
 20
126.5554619053393
 30
0.0
 10
121.8181503721265
 20
126.5560491092606
 30
0.0
 10
121.8180420260789
 20
126.5575993746092
 30
0.0
 10
121.8588447635661
 20
126.4986780854753
 30
0.0
 10
121.9128249823376
 20
126.3885749073101
 30
0.0
 10
121.9234249083513
 20
126.2667316923914
 30
0.0
 10
121.9287238731651
 20
126.2058215588849
 30
0.0
  0
LINE
  5
1C3
330
1F
100
AcDbEntity
  8
0
  6
Continuous
 62
     7
370
    25
100
AcDbLine
 10
101.4903115796
 20
114.8118821649
 30
0.0
 11
101.4903115796
 21
104.9368821649
 31
0.0
  0
LINE
  5
1C4
330
1F
100
AcDbEntity
  8
0
  6
Continuous
 62
     7
370
    25
100
AcDbLine
 10
101.4903115796
 20
124.6868821649
 30
0.0
 11
101.4903115796
 21
114.8118821649
 31
0.0
  0
LINE
  5
1C5
330
1F
100
AcDbEntity
  8
0
  6
Continuous
 62
     7
370
    25
100
AcDbLine
 10
99.2577401922
 20
114.8118821649
 30
0.0
 11
99.2577401922
 21
106.3118821649
 31
0.0
  0
LINE
  5
1C6
330
1F
100
AcDbEntity
  8
0
  6
Continuous
 62
     7
370
    25
100
AcDbLine
 10
99.2577401922
 20
123.3118821649
 30
0.0
 11
99.2577401922
 21
114.8118821649
 31
0.0
  0
LINE
  5
1C7
330
1F
100
AcDbEntity
  8
0
  6
Continuous
 62
     7
370
    25
100
AcDbLine
 10
93.7577401922
 20
106.8118821649
 30
0.0
 11
90.0737015912
 21
106.8118821649
 31
0.0
  0
SPLINE
  5
1C8
330
1F
100
AcDbEntity
  8
0
  6
Continuous
 62
     7
370
    25
100
AcDbSpline
210
0.0
220
0.0
230
1.0
 70
    24
 71
     3
 72
    11
 73
     7
 74
     0
 42
0.00000001
 43
0.00000001
 40
0.0
 40
0.0
 40
0.0
 40
0.0
 40
0.0723954949311572
 40
0.3815969966207703
 40
0.690798498310385
 40
1.0
 40
1.0
 40
1.0
 40
1.0
 10
89.63002151546323
 20
106.6653406136015
 30
0.0
 10
89.63002151546323
 20
106.6502456652422
 30
0.0
 10
89.63002151546323
 20
106.570680120956
 30
0.0
 10
89.63002151546323
 20
106.4510214469735
 30
0.0
 10
89.63002151546323
 20
106.3341876950551
 30
0.0
 10
89.63002151546323
 20
106.3193173416487
 30
0.0
 10
89.63002151546323
 20
106.3118821649455
 30
0.0
  0
SPLINE
  5
1C9
330
1F
100
AcDbEntity
  8
0
  6
Continuous
 62
     7
370
    25
100
AcDbSpline
210
0.0
220
0.0
230
1.0
 70
    24
 71
     3
 72
    11
 73
     7
 74
     0
 42
0.00000001
 43
0.00000001
 40
0.0
 40
0.0
 40
0.0
 40
0.0
 40
0.0591554384969611
 40
0.3727702923313075
 40
0.6863851461656539
 40
1.0
 40
1.0
 40
1.0
 40
1.0
 10
83.8854588689252
 20
122.9671321495498
 30
0.0
 10
83.8854588689252
 20
122.9792721042001
 30
0.0
 10
83.8854588689252
 20
123.0557724997489
 30
0.0
 10
83.8854588689252
 20
123.1726412013529
 30
0.0
 10
83.8854588689252
 20
123.2896020552271
 30
0.0
 10
83.88545886892521
 20
123.3044554617061
 30
0.0
 10
83.8854588689252
 20
123.3118821649455
 30
0.0
  0
LINE
  5
1CA
330
1F
100
AcDbEntity
  8
0
  6
Continuous
 62
     7
370
    25
100
AcDbLine
 10
80.2577401922
 20
122.8118821649
 30
0.0
 11
83.4417787931
 21
122.8118821649
 31
0.0
  0
LINE
  5
1CB
330
1F
100
AcDbEntity
  8
0
  6
Continuous
 62
     7
370
    25
100
AcDbLine
 10
80.2577401922
 20
122.8118821649
 30
0.0
 11
80.2577401922
 21
120.5342592934
 31
0.0
  0
LINE
  5
1CC
330
1F
100
AcDbEntity
  8
0
  6
Continuous
 62
     7
370
    25
100
AcDbLine
 10
83.4417787931
 20
106.8118821649
 30
0.0
 11
80.2577401922
 21
106.8118821649
 31
0.0
  0
LINE
  5
1CD
330
1F
100
AcDbEntity
  8
0
  6
Continuous
 62
     7
370
    25
100
AcDbLine
 10
80.2577401922
 20
109.0895050365
 30
0.0
 11
80.2577401922
 21
106.8118821649
 31
0.0
  0
SPLINE
  5
1CE
330
1F
100
AcDbEntity
  8
0
  6
Continuous
 62
     7
370
    25
100
AcDbSpline
210
0.0
220
0.0
230
1.0
 70
    24
 71
     3
 72
    11
 73
     7
 74
     0
 42
0.00000001
 43
0.00000001
 40
0.0
 40
0.0
 40
0.0
 40
0.0
 40
0.3162394297872567
 40
0.6324788595745138
 40
0.9487182893617708
 40
1.0
 40
1.0
 40
1.0
 40
1.0
 10
83.8854588689252
 20
106.3118821649455
 30
0.0
 10
83.8854588689252
 20
106.3193035965623
 30
0.0
 10
83.8854588689252
 20
106.334146459796
 30
0.0
 10
83.8854588689252
 20
106.4511863880098
 30
0.0
 10
83.88545886892521
 20
106.566425423905
 30
0.0
 10
83.8854588689252
 20
106.6411429758157
 30
0.0
 10
83.8854588689252
 20
106.6515686179223
 30
0.0
  0
LINE
  5
1CF
330
1F
100
AcDbEntity
  8
0
  6
Continuous
 62
     7
370
    25
100
AcDbLine
 10
90.0737015912
 20
122.8118821649
 30
0.0
 11
93.7577401922
 21
122.8118821649
 31
0.0
  0
SPLINE
  5
1D0
330
1F
100
AcDbEntity
  8
0
  6
Continuous
 62
     7
370
    25
100
AcDbSpline
210
0.0
220
0.0
230
1.0
 70
    24
 71
     3
 72
    11
 73
     7
 74
     0
 42
0.00000001
 43
0.00000001
 40
0.0
 40
0.0
 40
0.0
 40
0.0
 40
0.3099831248720737
 40
0.6199662497441477
 40
0.9299493746162216
 40
1.0
 40
1.0
 40
1.0
 40
1.0
 10
89.63002151546323
 20
123.3118821649455
 30
0.0
 10
89.63002151546323
 20
123.3044484546007
 30
0.0
 10
89.63002151546323
 20
123.2895810339111
 30
0.0
 10
89.63002151546323
 20
123.172725286617
 30
0.0
 10
89.63002151546323
 20
123.0535653996728
 30
0.0
 10
89.63002151546323
 20
122.9745489760928
 30
0.0
 10
89.63002151546323
 20
122.9599840857807
 30
0.0
  0
INSERT
  5
1DC
330
1F
100
AcDbEntity
  8
FORMAT
100
AcDbBlockReference
  2
SW_CENTERMARKSYMBOL_1
 10
86.7577401922
 20
114.8118821649
 30
0.0
  0
ARC
  5
1DD
330
1F
100
AcDbEntity
  8
FORMAT
100
AcDbCircle
 10
86.7577401922
 20
114.8118821649
 30
0.0
 40
7.475000000000016
100
AcDbArc
 50
75.0
 51
345.0
  0
LINE
  5
1DE
330
1F
100
AcDbEntity
  8
FORMAT
100
AcDbLine
 10
111.4197401922
 20
105.4963821649
 30
0.0
 11
101.105024618
 21
105.4963821649
 31
0.0
  0
LINE
  5
1DF
330
1F
100
AcDbEntity
  8
FORMAT
100
AcDbLine
 10
111.4197401922
 20
124.1273821649
 30
0.0
 11
101.105024618
 21
124.1273821649
 31
0.0
  0
ENDSEC
  0
SECTION
  2
OBJECTS
  0
DICTIONARY
  5
C
330
0
100
AcDbDictionary
281
     1
  3
ACAD_GROUP
350
D
  3
ACAD_LAYOUT
350
1A
  3
ACAD_MLINESTYLE
350
17
  3
ACAD_PLOTSETTINGS
350
19
  3
ACAD_PLOTSTYLENAME
350
E
  3
ACAD_SCALELIST
350
47
  3
DWGPROPS
350
1E0
  0
DICTIONARY
  5
D
102
{ACAD_REACTORS
330
C
102
}
330
C
100
AcDbDictionary
281
     1
  0
DICTIONARY
  5
1A
102
{ACAD_REACTORS
330
C
102
}
330
C
100
AcDbDictionary
281
     1
  3
Layout1
350
1E
  3
Layout2
350
26
  3
Model
350
22
  0
DICTIONARY
  5
17
102
{ACAD_REACTORS
330
C
102
}
330
C
100
AcDbDictionary
281
     1
  3
Standard
350
18
  0
DICTIONARY
  5
19
102
{ACAD_REACTORS
330
C
102
}
330
C
100
AcDbDictionary
281
     1
  0
ACDBDICTIONARYWDFLT
  5
E
102
{ACAD_REACTORS
330
C
102
}
330
C
100
AcDbDictionary
281
     1
  3
Normal
350
F
100
AcDbDictionaryWithDefault
340
F
  0
DICTIONARY
  5
47
102
{ACAD_REACTORS
330
C
102
}
330
C
100
AcDbDictionary
281
     1
  3
A0
350
48
  3
A1
350
49
  3
A2
350
4A
  3
A3
350
4B
  3
A4
350
4C
  3
A5
350
4D
  3
A6
350
4E
  3
A7
350
4F
  3
A8
350
50
  3
A9
350
51
  3
B0
350
52
  3
B1
350
53
  3
B2
350
54
  3
B3
350
55
  3
B4
350
56
  3
B5
350
57
  3
B6
350
58
  0
XRECORD
  5
1E0
102
{ACAD_REACTORS
330
C
102
}
330
C
100
AcDbXrecord
280
     1
  1
DWGPROPS COOKIE
  2

  3

  4

  6

  7

  8
user28
  9

300
=
301
=
302
=
303
=
304
=
305
=
306
=
307
=
308
=
309
=
 40
0.0
 41
2460376.173751713
 42
2460376.173753322
  1

 90
        0
  0
LAYOUT
  5
1E
102
{ACAD_REACTORS
330
1A
102
}
330
1A
100
AcDbPlotSettings
  1

  2
none_device
  4

  6

 40
0.0
 41
0.0
 42
0.0
 43
0.0
 44
0.0
 45
0.0
 46
0.0
 47
0.0
 48
0.0
 49
0.0
140
0.0
141
0.0
142
1.0
143
1.0
 70
   688
 72
     1
 73
     0
 74
     5
  7

 75
    16
147
1.0
148
0.0
149
0.0
100
AcDbLayout
  1
Layout1
 70
     1
 71
     1
 10
0.0
 20
0.0
 11
420.0
 21
297.0
 12
0.0
 22
0.0
 32
0.0
 14
1.0000000000E+20
 24
1.0000000000E+20
 34
1.0000000000E+20
 15
-1.0000000000E+20
 25
-1.0000000000E+20
 35
-1.0000000000E+20
146
0.0
 13
0.0
 23
0.0
 33
0.0
 16
1.0
 26
0.0
 36
0.0
 17
0.0
 27
1.0
 37
0.0
 76
     0
330
1B
  0
LAYOUT
  5
26
102
{ACAD_REACTORS
330
1A
102
}
330
1A
100
AcDbPlotSettings
  1

  2
none_device
  4

  6

 40
0.0
 41
0.0
 42
0.0
 43
0.0
 44
0.0
 45
0.0
 46
0.0
 47
0.0
 48
0.0
 49
0.0
140
0.0
141
0.0
142
1.0
143
1.0
 70
   688
 72
     1
 73
     0
 74
     5
  7

 75
    16
147
1.0
148
0.0
149
0.0
100
AcDbLayout
  1
Layout2
 70
     1
 71
     2
 10
0.0
 20
0.0
 11
0.0
 21
0.0
 12
0.0
 22
0.0
 32
0.0
 14
0.0
 24
0.0
 34
0.0
 15
0.0
 25
0.0
 35
0.0
146
0.0
 13
0.0
 23
0.0
 33
0.0
 16
1.0
 26
0.0
 36
0.0
 17
0.0
 27
1.0
 37
0.0
 76
     0
330
23
  0
LAYOUT
  5
22
102
{ACAD_REACTORS
330
1A
102
}
330
1A
100
AcDbPlotSettings
  1

  2
none_device
  4
Letter_(8.50_x_11.00_Inches)
  6

 40
6.35
 41
6.35
 42
6.35000508
 43
6.35000508
 44
215.9
 45
279.4
 46
0.0
 47
0.0
 48
0.0
 49
0.0
140
0.0
141
0.0
142
1.0
143
1.0
 70
  1712
 72
     1
 73
     0
 74
     0
  7

 75
     0
147
1.0
148
0.0
149
0.0
100
AcDbLayout
  1
Model
 70
     1
 71
     0
 10
0.0
 20
0.0
 11
297.0
 21
210.0
 12
0.0
 22
0.0
 32
0.0
 14
0.0
 24
0.0
 34
0.0
 15
297.0
 25
210.0
 35
0.0
146
0.0
 13
0.0
 23
0.0
 33
0.0
 16
1.0
 26
0.0
 36
0.0
 17
0.0
 27
1.0
 37
0.0
 76
     0
330
1F
331
29
  0
MLINESTYLE
  5
18
102
{ACAD_REACTORS
330
17
102
}
330
17
100
AcDbMlineStyle
  2
Standard
 70
     0
  3

 62
   256
 51
90.0
 52
90.0
 71
     2
 49
0.5
 62
   256
  6
BYLAYER
 49
-0.5
 62
   256
  6
BYLAYER
  0
ACDBPLACEHOLDER
  5
F
102
{ACAD_REACTORS
330
E
102
}
330
E
  0
SCALE
  5
48
102
{ACAD_REACTORS
330
47
102
}
330
47
100
AcDbScale
 70
     0
300
1:1
140
1.0
141
1.0
290
     1
  0
SCALE
  5
49
102
{ACAD_REACTORS
330
47
102
}
330
47
100
AcDbScale
 70
     0
300
1:2
140
1.0
141
2.0
290
     0
  0
SCALE
  5
4A
102
{ACAD_REACTORS
330
47
102
}
330
47
100
AcDbScale
 70
     0
300
1:4
140
1.0
141
4.0
290
     0
  0
SCALE
  5
4B
102
{ACAD_REACTORS
330
47
102
}
330
47
100
AcDbScale
 70
     0
300
1:5
140
1.0
141
5.0
290
     0
  0
SCALE
  5
4C
102
{ACAD_REACTORS
330
47
102
}
330
47
100
AcDbScale
 70
     0
300
1:8
140
1.0
141
8.0
290
     0
  0
SCALE
  5
4D
102
{ACAD_REACTORS
330
47
102
}
330
47
100
AcDbScale
 70
     0
300
1:10
140
1.0
141
10.0
290
     0
  0
SCALE
  5
4E
102
{ACAD_REACTORS
330
47
102
}
330
47
100
AcDbScale
 70
     0
300
1:16
140
1.0
141
16.0
290
     0
  0
SCALE
  5
4F
102
{ACAD_REACTORS
330
47
102
}
330
47
100
AcDbScale
 70
     0
300
1:20
140
1.0
141
20.0
290
     0
  0
SCALE
  5
50
102
{ACAD_REACTORS
330
47
102
}
330
47
100
AcDbScale
 70
     0
300
1:30
140
1.0
141
30.0
290
     0
  0
SCALE
  5
51
102
{ACAD_REACTORS
330
47
102
}
330
47
100
AcDbScale
 70
     0
300
1:40
140
1.0
141
40.0
290
     0
  0
SCALE
  5
52
102
{ACAD_REACTORS
330
47
102
}
330
47
100
AcDbScale
 70
     0
300
1:50
140
1.0
141
50.0
290
     0
  0
SCALE
  5
53
102
{ACAD_REACTORS
330
47
102
}
330
47
100
AcDbScale
 70
     0
300
1:100
140
1.0
141
100.0
290
     0
  0
SCALE
  5
54
102
{ACAD_REACTORS
330
47
102
}
330
47
100
AcDbScale
 70
     0
300
2:1
140
2.0
141
1.0
290
     0
  0
SCALE
  5
55
102
{ACAD_REACTORS
330
47
102
}
330
47
100
AcDbScale
 70
     0
300
4:1
140
4.0
141
1.0
290
     0
  0
SCALE
  5
56
102
{ACAD_REACTORS
330
47
102
}
330
47
100
AcDbScale
 70
     0
300
8:1
140
8.0
141
1.0
290
     0
  0
SCALE
  5
57
102
{ACAD_REACTORS
330
47
102
}
330
47
100
AcDbScale
 70
     0
300
10:1
140
10.0
141
1.0
290
     0
  0
SCALE
  5
58
102
{ACAD_REACTORS
330
47
102
}
330
47
100
AcDbScale
 70
     0
300
100:1
140
100.0
141
1.0
290
     0
  0
ENDSEC
  0
EOF
