  0
SECTION
  2
HEADER
  9
$ACADVER
  1
AC1015
  9
$ACADMAINTVER
 70
     6
  9
$DWGCODEPAGE
  3
DOS932
  9
$INSBASE
 10
0.0
 20
0.0
 30
0.0
  9
$EXTMIN
 10
0.0
 20
0.0
 30
0.0
  9
$EXTMAX
 10
297.0
 20
210.0
 30
0.0
  9
$LIMMIN
 10
0.0
 20
0.0
  9
$LIMMAX
 10
297.0
 20
210.0
  9
$ORTHOMODE
 70
     0
  9
$REGENMODE
 70
     1
  9
$FILLMODE
 70
     1
  9
$QTEXTMODE
 70
     0
  9
$MIRRTEXT
 70
     1
  9
$LTSCALE
 40
1.0
  9
$ATTMODE
 70
     1
  9
$TEXTSIZE
 40
3.5277777778
  9
$TRACEWID
 40
1.0
  9
$TEXTSTYLE
  7
Standard
  9
$CLAYER
  8
0
  9
$CELTYPE
  6
ByLayer
  9
$CECOLOR
 62
   256
  9
$CELTSCALE
 40
1.0
  9
$DISPSILH
 70
     0
  9
$DIMSCALE
 40
1.0
  9
$DIMASZ
 40
2.728515625
  9
$DIMEXO
 40
1.0
  9
$DIMDLI
 40
3.75
  9
$DIMRND
 40
0.0
  9
$DIMDLE
 40
0.0
  9
$DIMEXE
 40
1.0
  9
$DIMTP
 40
0.0
  9
$DIMTM
 40
0.0
  9
$DIMTXT
 40
3.5277777778
  9
$DIMCEN
 40
2.5
  9
$DIMTSZ
 40
0.0
  9
$DIMTOL
 70
     0
  9
$DIMLIM
 70
     0
  9
$DIMTIH
 70
     1
  9
$DIMTOH
 70
     1
  9
$DIMSE1
 70
     0
  9
$DIMSE2
 70
     0
  9
$DIMTAD
 70
     1
  9
$DIMZIN
 70
     0
  9
$DIMBLK
  1

  9
$DIMASO
 70
     1
  9
$DIMSHO
 70
     1
  9
$DIMPOST
  1

  9
$DIMAPOST
  1

  9
$DIMALT
 70
     0
  9
$DIMALTD
 70
     3
  9
$DIMALTF
 40
0.0393700787
  9
$DIMLFAC
 40
1.0
  9
$DIMTOFL
 70
     1
  9
$DIMTVP
 40
0.0
  9
$DIMTIX
 70
     0
  9
$DIMSOXD
 70
     0
  9
$DIMSAH
 70
     0
  9
$DIMBLK1
  1

  9
$DIMBLK2
  1

  9
$DIMSTYLE
  2
ISO-25
  9
$DIMCLRD
 70
     0
  9
$DIMCLRE
 70
     0
  9
$DIMCLRT
 70
     0
  9
$DIMTFAC
 40
1.0
  9
$DIMGAP
 40
1.524
  9
$DIMJUST
 70
     0
  9
$DIMSD1
 70
     0
  9
$DIMSD2
 70
     0
  9
$DIMTOLJ
 70
     0
  9
$DIMTZIN
 70
     0
  9
$DIMALTZ
 70
     0
  9
$DIMALTTZ
 70
     0
  9
$DIMUPT
 70
     0
  9
$DIMDEC
 70
     2
  9
$DIMTDEC
 70
     2
  9
$DIMALTU
 70
     2
  9
$DIMALTTD
 70
     3
  9
$DIMTXSTY
  7
Standard
  9
$DIMAUNIT
 70
     0
  9
$DIMADEC
 70
     2
  9
$DIMALTRND
 40
0.0
  9
$DIMAZIN
 70
     0
  9
$DIMDSEP
 70
    44
  9
$DIMATFIT
 70
     3
  9
$DIMFRAC
 70
     0
  9
$DIMLDRBLK
  1

  9
$DIMLUNIT
 70
     2
  9
$DIMLWD
 70
    -2
  9
$DIMLWE
 70
    -2
  9
$DIMTMOVE
 70
     0
  9
$LUNITS
 70
     2
  9
$LUPREC
 70
     2
  9
$SKETCHINC
 40
1.0
  9
$FILLETRAD
 40
0.0
  9
$AUNITS
 70
     0
  9
$AUPREC
 70
     2
  9
$MENU
  1
.
  9
$ELEVATION
 40
0.0
  9
$PELEVATION
 40
0.0
  9
$THICKNESS
 40
0.0
  9
$LIMCHECK
 70
     0
  9
$CHAMFERA
 40
0.0
  9
$CHAMFERB
 40
0.0
  9
$CHAMFERC
 40
0.0
  9
$CHAMFERD
 40
0.0
  9
$SKPOLY
 70
     0
  9
$TDCREATE
 40
2460376.547129537
  9
$TDUCREATE
 40
2460376.172129537
  9
$TDUPDATE
 40
2460376.547130266
  9
$TDUUPDATE
 40
2460376.172130266
  9
$TDINDWG
 40
0.0000000116
  9
$TDUSRTIMER
 40
0.0000000116
  9
$USRTIMER
 70
     1
  9
$ANGBASE
 50
0.0
  9
$ANGDIR
 70
     0
  9
$PDMODE
 70
     0
  9
$PDSIZE
 40
-1.0
  9
$PLINEWID
 40
0.0
  9
$SPLFRAME
 70
     0
  9
$SPLINETYPE
 70
     6
  9
$SPLINESEGS
 70
     8
  9
$HANDSEED
  5
267
  9
$SURFTAB1
 70
     6
  9
$SURFTAB2
 70
     6
  9
$SURFTYPE
 70
     6
  9
$SURFU
 70
     6
  9
$SURFV
 70
     6
  9
$UCSBASE
  2

  9
$UCSNAME
  2

  9
$UCSORG
 10
0.0
 20
0.0
 30
0.0
  9
$UCSXDIR
 10
1.0
 20
0.0
 30
0.0
  9
$UCSYDIR
 10
0.0
 20
1.0
 30
0.0
  9
$UCSORTHOREF
  2

  9
$UCSORTHOVIEW
 70
     0
  9
$UCSORGTOP
 10
0.0
 20
0.0
 30
0.0
  9
$UCSORGBOTTOM
 10
0.0
 20
0.0
 30
0.0
  9
$UCSORGLEFT
 10
0.0
 20
0.0
 30
0.0
  9
$UCSORGRIGHT
 10
0.0
 20
0.0
 30
0.0
  9
$UCSORGFRONT
 10
0.0
 20
0.0
 30
0.0
  9
$UCSORGBACK
 10
0.0
 20
0.0
 30
0.0
  9
$PUCSBASE
  2

  9
$PUCSNAME
  2

  9
$PUCSORG
 10
0.0
 20
0.0
 30
0.0
  9
$PUCSXDIR
 10
1.0
 20
0.0
 30
0.0
  9
$PUCSYDIR
 10
0.0
 20
1.0
 30
0.0
  9
$PUCSORTHOREF
  2

  9
$PUCSORTHOVIEW
 70
     0
  9
$PUCSORGTOP
 10
0.0
 20
0.0
 30
0.0
  9
$PUCSORGBOTTOM
 10
0.0
 20
0.0
 30
0.0
  9
$PUCSORGLEFT
 10
0.0
 20
0.0
 30
0.0
  9
$PUCSORGRIGHT
 10
0.0
 20
0.0
 30
0.0
  9
$PUCSORGFRONT
 10
0.0
 20
0.0
 30
0.0
  9
$PUCSORGBACK
 10
0.0
 20
0.0
 30
0.0
  9
$USERI1
 70
     0
  9
$USERI2
 70
     0
  9
$USERI3
 70
     0
  9
$USERI4
 70
     0
  9
$USERI5
 70
     0
  9
$USERR1
 40
0.0
  9
$USERR2
 40
0.0
  9
$USERR3
 40
0.0
  9
$USERR4
 40
0.0
  9
$USERR5
 40
0.0
  9
$WORLDVIEW
 70
     1
  9
$SHADEDGE
 70
     3
  9
$SHADEDIF
 70
    70
  9
$TILEMODE
 70
     1
  9
$MAXACTVP
 70
    64
  9
$PINSBASE
 10
0.0
 20
0.0
 30
0.0
  9
$PLIMCHECK
 70
     0
  9
$PEXTMIN
 10
1.0000000000E+20
 20
1.0000000000E+20
 30
1.0000000000E+20
  9
$PEXTMAX
 10
-1.0000000000E+20
 20
-1.0000000000E+20
 30
-1.0000000000E+20
  9
$PLIMMIN
 10
0.0
 20
0.0
  9
$PLIMMAX
 10
420.0
 20
297.0
  9
$UNITMODE
 70
     0
  9
$VISRETAIN
 70
     1
  9
$PLINEGEN
 70
     0
  9
$PSLTSCALE
 70
     1
  9
$TREEDEPTH
 70
  3020
  9
$CMLSTYLE
  2
Standard
  9
$CMLJUST
 70
     0
  9
$CMLSCALE
 40
20.0
  9
$PROXYGRAPHICS
 70
     1
  9
$MEASUREMENT
 70
     1
  9
$CELWEIGHT
370
    -1
  9
$ENDCAPS
280
     0
  9
$JOINSTYLE
280
     0
  9
$LWDISPLAY
290
     1
  9
$INSUNITS
 70
     4
  9
$HYPERLINKBASE
  1

  9
$STYLESHEET
  1

  9
$XEDIT
290
     1
  9
$CEPSNTYPE
380
     0
  9
$PSTYLEMODE
290
     1
  9
$FINGERPRINTGUID
  2
{5c8f5464-4675-4969-9552-efcef48cd062}
  9
$VERSIONGUID
  2
{FAEB1C32-E019-11D5-929B-00C0DF256EC4}
  9
$EXTNAMES
290
     1
  9
$PSVPSCALE
 40
0.0
  9
$OLESTARTUP
290
     0
  0
ENDSEC
  0
SECTION
  2
CLASSES
  0
CLASS
  1
ACDBDICTIONARYWDFLT
  2
AcDbDictionaryWithDefault
  3
ObjectDBX Classes
 90
        0
280
     0
281
     0
  0
CLASS
  1
VISUALSTYLE
  2
AcDbVisualStyle
  3
ObjectDBX Classes
 90
     4095
280
     0
281
     0
  0
CLASS
  1
MATERIAL
  2
AcDbMaterial
  3
ObjectDBX Classes
 90
     1153
280
     0
281
     0
  0
CLASS
  1
SCALE
  2
AcDbScale
  3
ObjectDBX Classes
 90
     1153
280
     0
281
     0
  0
CLASS
  1
TABLESTYLE
  2
AcDbTableStyle
  3
ObjectDBX Classes
 90
     4095
280
     0
281
     0
  0
CLASS
  1
MLEADERSTYLE
  2
AcDbMLeaderStyle
  3
ACDB_MLEADERSTYLE_CLASS
 90
     4095
280
     0
281
     0
  0
CLASS
  1
SUN
  2
AcDbSun
  3
SCENEOE
 90
     1153
280
     0
281
     0
  0
CLASS
  1
ACDBPLACEHOLDER
  2
AcDbPlaceHolder
  3
ObjectDBX Classes
 90
        0
280
     0
281
     0
  0
CLASS
  1
LAYOUT
  2
AcDbLayout
  3
ObjectDBX Classes
 90
        0
280
     0
281
     0
  0
ENDSEC
  0
SECTION
  2
TABLES
  0
TABLE
  2
VPORT
  5
8
330
0
100
AcDbSymbolTable
 70
     1
  0
VPORT
  5
29
330
8
100
AcDbSymbolTableRecord
100
AcDbViewportTableRecord
  2
*Active
 70
     0
 10
0.0
 20
0.0
 11
1.0
 21
1.0
 12
148.5
 22
105.0
 13
0.0
 23
0.0
 14
10.0
 24
10.0
 15
10.0
 25
10.0
 16
0.0
 26
0.0
 36
1.0
 17
0.0
 27
0.0
 37
0.0
 40
210.0
 41
1.4142857143
 42
50.0
 43
0.0
 44
0.0
 50
0.0
 51
0.0
 71
     0
 72
  2000
 73
     1
 74
     3
 75
     0
 76
     0
 77
     0
 78
     0
281
     0
 65
     1
110
0.0
120
0.0
130
0.0
111
1.0
121
0.0
131
0.0
112
0.0
122
1.0
132
0.0
 79
     0
146
0.0
  0
ENDTAB
  0
TABLE
  2
LTYPE
  5
5
330
0
100
AcDbSymbolTable
 70
     6
  0
LTYPE
  5
14
330
5
100
AcDbSymbolTableRecord
100
AcDbLinetypeTableRecord
  2
ByBlock
 70
     0
  3

 72
    65
 73
     0
 40
0.0
  0
LTYPE
  5
15
330
5
100
AcDbSymbolTableRecord
100
AcDbLinetypeTableRecord
  2
ByLayer
 70
     0
  3

 72
    65
 73
     0
 40
0.0
  0
LTYPE
  5
16
330
5
100
AcDbSymbolTableRecord
100
AcDbLinetypeTableRecord
  2
Continuous
 70
     0
  3
Solid line
 72
    65
 73
     0
 40
0.0
  0
LTYPE
  5
5E
330
5
100
AcDbSymbolTableRecord
100
AcDbLinetypeTableRecord
  2
HIDDEN
 70
     0
  3
Hidden __ __ __ __ __ __ __ __ __ __ __ __ __ __
 72
    65
 73
     2
 40
1.905
 49
1.27
 74
     0
 49
-0.635
 74
     0
  0
LTYPE
  5
5F
330
5
100
AcDbSymbolTableRecord
100
AcDbLinetypeTableRecord
  2
PHANTOM
 70
     0
  3
Phantom ______  __  __  ______  __  __  ______
 72
    65
 73
     6
 40
12.7
 49
6.35
 74
     0
 49
-1.27
 74
     0
 49
1.27
 74
     0
 49
-1.27
 74
     0
 49
1.27
 74
     0
 49
-1.27
 74
     0
  0
LTYPE
  5
60
330
5
100
AcDbSymbolTableRecord
100
AcDbLinetypeTableRecord
  2
CENTER
 70
     0
  3
Center ____ _ ____ _ ____ _ ____ _ ____ _ ____
 72
    65
 73
     4
 40
10.16
 49
6.35
 74
     0
 49
-1.27
 74
     0
 49
1.27
 74
     0
 49
-1.27
 74
     0
  0
LTYPE
  5
61
330
5
100
AcDbSymbolTableRecord
100
AcDbLinetypeTableRecord
  2
CENTERX2
 70
     0
  3
Center (2x) ________  __  ________  __  _____
 72
    65
 73
     4
 40
20.32
 49
12.7
 74
     0
 49
-2.54
 74
     0
 49
2.54
 74
     0
 49
-2.54
 74
     0
  0
LTYPE
  5
62
330
5
100
AcDbSymbolTableRecord
100
AcDbLinetypeTableRecord
  2
DOT2
 70
     0
  3
Dot (.5x) ........................................
 72
    65
 73
     2
 40
0.635
 49
0.0
 74
     0
 49
-0.635
 74
     0
  0
ENDTAB
  0
TABLE
  2
LAYER
  5
2
330
0
100
AcDbSymbolTable
 70
     2
  0
LAYER
  5
10
330
2
100
AcDbSymbolTableRecord
100
AcDbLayerTableRecord
  2
0
 70
     0
 62
     7
  6
Continuous
370
    -3
390
F
  0
LAYER
  5
63
330
2
100
AcDbSymbolTableRecord
100
AcDbLayerTableRecord
  2
FORMAT
 70
     0
 62
     7
  6
Continuous
370
    -3
390
F
  0
ENDTAB
  0
TABLE
  2
STYLE
  5
3
330
0
100
AcDbSymbolTable
 70
     2
  0
STYLE
  5
11
330
3
100
AcDbSymbolTableRecord
100
AcDbTextStyleTableRecord
  2
Standard
 70
     0
 40
0.0
 41
1.0
 50
0.0
 71
     0
 42
3.5277777778
  3
txt
  4
bigfont
  0
STYLE
  5
64
330
3
100
AcDbSymbolTableRecord
100
AcDbTextStyleTableRecord
  2
SLDTEXTSTYLE0
 70
     0
 40
0.0
 41
0.7
 50
0.0
 71
     0
 42
3.5277777778
  3
TXT
  4
bigfont
  0
ENDTAB
  0
TABLE
  2
VIEW
  5
6
330
0
100
AcDbSymbolTable
 70
     0
  0
ENDTAB
  0
TABLE
  2
UCS
  5
7
330
0
100
AcDbSymbolTable
 70
     0
  0
ENDTAB
  0
TABLE
  2
APPID
  5
9
330
0
100
AcDbSymbolTable
 70
     1
  0
APPID
  5
12
330
9
100
AcDbSymbolTableRecord
100
AcDbRegAppTableRecord
  2
ACAD
 70
     0
  0
ENDTAB
  0
TABLE
  2
DIMSTYLE
  5
A
330
0
100
AcDbSymbolTable
 70
     1
100
AcDbDimStyleTable
  0
DIMSTYLE
105
27
330
A
100
AcDbSymbolTableRecord
100
AcDbDimStyleTableRecord
  2
ISO-25
 70
     0
 41
2.5
 42
0.625
 43
3.75
 44
1.25
 73
     0
 74
     0
 77
     1
 78
     8
140
2.5
141
2.5
143
0.0393700787
147
0.625
171
     3
172
     1
178
     0
271
     2
272
     2
274
     3
278
    44
283
     0
284
     8
340
11
  0
ENDTAB
  0
TABLE
  2
BLOCK_RECORD
  5
1
330
0
100
AcDbSymbolTable
 70
     3
  0
BLOCK_RECORD
  5
1F
330
1
100
AcDbSymbolTableRecord
100
AcDbBlockTableRecord
  2
*Model_Space
340
22
  0
BLOCK_RECORD
  5
1B
330
1
100
AcDbSymbolTableRecord
100
AcDbBlockTableRecord
  2
*Paper_Space
340
1E
  0
BLOCK_RECORD
  5
23
330
1
100
AcDbSymbolTableRecord
100
AcDbBlockTableRecord
  2
*Paper_Space0
340
26
  0
BLOCK_RECORD
  5
1C5
330
1
100
AcDbSymbolTableRecord
100
AcDbBlockTableRecord
  2
SW_CENTERMARKSYMBOL_0
340
0
102
{BLKREFS
331
1D0
102
}
  0
BLOCK_RECORD
  5
256
330
1
100
AcDbSymbolTableRecord
100
AcDbBlockTableRecord
  2
SW_CENTERMARKSYMBOL_1
340
0
102
{BLKREFS
331
261
102
}
  0
ENDTAB
  0
ENDSEC
  0
SECTION
  2
BLOCKS
  0
BLOCK
  5
20
330
1F
100
AcDbEntity
  8
0
100
AcDbBlockBegin
  2
*Model_Space
 70
     0
 10
0.0
 20
0.0
 30
0.0
  3
*Model_Space
  1

  0
ENDBLK
  5
21
330
1F
100
AcDbEntity
  8
0
100
AcDbBlockEnd
  0
BLOCK
  5
1C
330
1B
100
AcDbEntity
 67
     1
  8
0
100
AcDbBlockBegin
  2
*Paper_Space
 70
     0
 10
0.0
 20
0.0
 30
0.0
  3
*Paper_Space
  1

  0
ENDBLK
  5
1D
330
1B
100
AcDbEntity
 67
     1
  8
0
100
AcDbBlockEnd
  0
BLOCK
  5
24
330
23
100
AcDbEntity
  8
0
100
AcDbBlockBegin
  2
*Paper_Space0
 70
     0
 10
0.0
 20
0.0
 30
0.0
  3
*Paper_Space0
  1

  0
ENDBLK
  5
25
330
23
100
AcDbEntity
  8
0
100
AcDbBlockEnd
  0
BLOCK
  5
1C6
330
1C5
100
AcDbEntity
  8
0
100
AcDbBlockBegin
  2
SW_CENTERMARKSYMBOL_0
 70
     0
 10
0.0
 20
0.0
 30
0.0
  3
SW_CENTERMARKSYMBOL_0
  1

  0
LINE
  5
1C8
330
1C5
100
AcDbEntity
  8
FORMAT
 62
     0
100
AcDbLine
 10
0.0
 20
0.0
 30
0.0
 11
0.0
 21
2.5
 31
0.0
  0
LINE
  5
1C9
330
1C5
100
AcDbEntity
  8
FORMAT
 62
     0
100
AcDbLine
 10
0.0
 20
0.0
 30
0.0
 11
-2.5
 21
0.0
 31
0.0
  0
LINE
  5
1CA
330
1C5
100
AcDbEntity
  8
FORMAT
 62
     0
100
AcDbLine
 10
0.0
 20
0.0
 30
0.0
 11
0.0
 21
-2.5
 31
0.0
  0
LINE
  5
1CB
330
1C5
100
AcDbEntity
  8
FORMAT
 62
     0
100
AcDbLine
 10
0.0
 20
0.0
 30
0.0
 11
2.5
 21
0.0
 31
0.0
  0
LINE
  5
1CC
330
1C5
100
AcDbEntity
  8
FORMAT
 62
     0
100
AcDbLine
 10
0.0
 20
5.0
 30
0.0
 11
0.0
 21
26.8716994237
 31
0.0
  0
LINE
  5
1CD
330
1C5
100
AcDbEntity
  8
FORMAT
 62
     0
100
AcDbLine
 10
-5.0
 20
0.0
 30
0.0
 11
-10.55
 21
0.0
 31
0.0
  0
LINE
  5
1CE
330
1C5
100
AcDbEntity
  8
FORMAT
 62
     0
100
AcDbLine
 10
0.0
 20
-5.0
 30
0.0
 11
0.0
 21
-10.55
 31
0.0
  0
LINE
  5
1CF
330
1C5
100
AcDbEntity
  8
FORMAT
 62
     0
100
AcDbLine
 10
5.0
 20
0.0
 30
0.0
 11
10.55
 21
0.0
 31
0.0
  0
ENDBLK
  5
1C7
330
1C5
100
AcDbEntity
  8
0
100
AcDbBlockEnd
  0
BLOCK
  5
257
330
256
100
AcDbEntity
  8
0
100
AcDbBlockBegin
  2
SW_CENTERMARKSYMBOL_1
 70
     0
 10
0.0
 20
0.0
 30
0.0
  3
SW_CENTERMARKSYMBOL_1
  1

  0
LINE
  5
259
330
256
100
AcDbEntity
  8
FORMAT
 62
     0
100
AcDbLine
 10
0.0
 20
0.0
 30
0.0
 11
0.0
 21
2.5
 31
0.0
  0
LINE
  5
25A
330
256
100
AcDbEntity
  8
FORMAT
 62
     0
100
AcDbLine
 10
0.0
 20
0.0
 30
0.0
 11
-2.5
 21
0.0
 31
0.0
  0
LINE
  5
25B
330
256
100
AcDbEntity
  8
FORMAT
 62
     0
100
AcDbLine
 10
0.0
 20
0.0
 30
0.0
 11
0.0
 21
-2.5
 31
0.0
  0
LINE
  5
25C
330
256
100
AcDbEntity
  8
FORMAT
 62
     0
100
AcDbLine
 10
0.0
 20
0.0
 30
0.0
 11
2.5
 21
0.0
 31
0.0
  0
LINE
  5
25D
330
256
100
AcDbEntity
  8
FORMAT
 62
     0
100
AcDbLine
 10
0.0
 20
5.0
 30
0.0
 11
0.0
 21
11.0339842017
 31
0.0
  0
LINE
  5
25E
330
256
100
AcDbEntity
  8
FORMAT
 62
     0
100
AcDbLine
 10
-5.0
 20
0.0
 30
0.0
 11
-11.0339842017
 21
0.0
 31
0.0
  0
LINE
  5
25F
330
256
100
AcDbEntity
  8
FORMAT
 62
     0
100
AcDbLine
 10
0.0
 20
-5.0
 30
0.0
 11
0.0
 21
-11.0339842017
 31
0.0
  0
LINE
  5
260
330
256
100
AcDbEntity
  8
FORMAT
 62
     0
100
AcDbLine
 10
5.0
 20
0.0
 30
0.0
 11
29.8290853873
 21
0.0
 31
0.0
  0
ENDBLK
  5
258
330
256
100
AcDbEntity
  8
0
100
AcDbBlockEnd
  0
ENDSEC
  0
SECTION
  2
ENTITIES
  0
MTEXT
  5
65
330
1F
100
AcDbEntity
  8
FORMAT
100
AcDbMText
 10
125.7068693484
 20
97.4064331445
 30
0.0
 40
3.7041666667
 41
0.0
 71
     2
 72
     1
  1
5R-RL1308
  7
SLDTEXTSTYLE0
 73
     1
 44
1.0
  0
LINE
  5
66
330
1F
100
AcDbEntity
  8
0
  6
Continuous
 62
     7
370
    25
100
AcDbLine
 10
108.3085464266
 20
72.3360863493
 30
0.0
 11
107.4050194808
 21
70.7711317731
 31
0.0
  0
LINE
  5
67
330
1F
100
AcDbEntity
  8
0
  6
Continuous
 62
     7
370
    25
100
AcDbLine
 10
107.4050194808
 20
54.2711317731
 30
0.0
 11
108.3085464266
 21
52.7061771969
 31
0.0
  0
LINE
  5
68
330
1F
100
AcDbEntity
  8
0
  6
Continuous
 62
     7
370
    25
100
AcDbLine
 10
120.2050194808
 20
54.2711317731
 30
0.0
 11
120.4050194808
 21
54.4711317731
 31
0.0
  0
LINE
  5
69
330
1F
100
AcDbEntity
  8
0
  6
Continuous
 62
     7
370
    25
100
AcDbLine
 10
120.4050194808
 20
70.5711317731
 30
0.0
 11
120.2050194808
 21
70.7711317731
 31
0.0
  0
LINE
  5
6A
330
1F
100
AcDbEntity
  8
0
  6
Continuous
 62
     7
370
    25
100
AcDbLine
 10
120.2050194808
 20
70.7711317731
 30
0.0
 11
119.3380321827
 21
70.7711317731
 31
0.0
  0
LINE
  5
6B
330
1F
100
AcDbEntity
  8
0
  6
Continuous
 62
     7
370
    25
100
AcDbLine
 10
119.3380321827
 20
54.2711317731
 30
0.0
 11
120.2050194808
 21
54.2711317731
 31
0.0
  0
ARC
  5
6C
330
1F
100
AcDbEntity
  8
0
  6
Continuous
 62
     7
370
    25
100
AcDbCircle
 10
119.3380321827
 20
71.5211317731
 30
0.0
 40
0.75
100
AcDbArc
 50
210.0
 51
270.0
  0
LINE
  5
6D
330
1F
100
AcDbEntity
  8
0
  6
Continuous
 62
     7
370
    25
100
AcDbLine
 10
118.6885131298
 20
71.1461317731
 30
0.0
 11
118.0014925349
 21
72.3360863493
 31
0.0
  0
LINE
  5
6E
330
1F
100
AcDbEntity
  8
0
  6
Continuous
 62
     7
370
    25
100
AcDbLine
 10
118.0014925349
 20
52.7061771969
 30
0.0
 11
118.6885131298
 21
53.8961317731
 31
0.0
  0
ARC
  5
6F
330
1F
100
AcDbEntity
  8
0
  6
Continuous
 62
     7
370
    25
100
AcDbCircle
 10
119.3380321827
 20
53.5211317731
 30
0.0
 40
0.75
100
AcDbArc
 50
90.0
 51
150.0
  0
LINE
  5
70
330
1F
100
AcDbEntity
  8
0
  6
Continuous
 62
     7
370
    25
100
AcDbLine
 10
100.6906697323
 20
74.6756373187
 30
0.0
 11
100.3540577004
 21
85.4472223394
 31
0.0
  0
LINE
  5
71
330
1F
100
AcDbEntity
  8
0
  6
Continuous
 62
     7
370
    25
100
AcDbLine
 10
83.9593133608
 20
85.4472223394
 30
0.0
 11
83.6227013289
 21
74.6756373187
 31
0.0
  0
ARC
  5
72
330
1F
100
AcDbEntity
  8
0
  6
Continuous
 62
     7
370
    25
100
AcDbCircle
 10
84.1566855306
 20
75.5211317731
 30
0.0
 40
1.0
100
AcDbArc
 50
237.7249513296
 51
270.0
  0
ARC
  5
73
330
1F
100
AcDbEntity
  8
0
  6
Continuous
 62
     7
370
    25
100
AcDbCircle
 10
100.1566855306
 20
75.5211317731
 30
0.0
 40
1.0
100
AcDbArc
 50
270.0
 51
302.2750486704
  0
LINE
  5
74
330
1F
100
AcDbEntity
  8
0
  6
Continuous
 62
     7
370
    25
100
AcDbLine
 10
100.3540577004
 20
85.4472223394
 30
0.0
 11
99.1566855306
 21
87.5211317731
 31
0.0
  0
LINE
  5
75
330
1F
100
AcDbEntity
  8
0
  6
Continuous
 62
     7
370
    25
100
AcDbLine
 10
85.1566855306
 20
87.5211317731
 30
0.0
 11
83.9593133608
 21
85.4472223394
 31
0.0
  0
ARC
  5
76
330
1F
100
AcDbEntity
  8
0
  6
Continuous
 62
     7
370
    25
100
AcDbCircle
 10
84.1566855306
 20
73.5211317731
 30
0.0
 40
1.0
100
AcDbArc
 50
0.0
 51
90.0
  0
ARC
  5
77
330
1F
100
AcDbEntity
  8
0
  6
Continuous
 62
     7
370
    25
100
AcDbCircle
 10
100.1566855306
 20
73.5211317731
 30
0.0
 40
1.0
100
AcDbArc
 50
90.0
 51
180.0
  0
LINE
  5
78
330
1F
100
AcDbEntity
  8
0
  6
Continuous
 62
     7
370
    25
100
AcDbLine
 10
99.1566855306
 20
69.5211317731
 30
0.0
 11
99.1566855306
 21
73.5211317731
 31
0.0
  0
LINE
  5
79
330
1F
100
AcDbEntity
  8
0
  6
Continuous
 62
     7
370
    25
100
AcDbLine
 10
85.1566855306
 20
73.5211317731
 30
0.0
 11
85.1566855306
 21
57.5211317731
 31
0.0
  0
LINE
  5
7A
330
1F
100
AcDbEntity
  8
0
  6
Continuous
 62
     7
370
    25
100
AcDbLine
 10
87.1566855306
 20
55.5211317731
 30
0.0
 11
101.6566855306
 21
55.5211317731
 31
0.0
  0
LINE
  5
7B
330
1F
100
AcDbEntity
  8
0
  6
Continuous
 62
     7
370
    25
100
AcDbLine
 10
101.6566855306
 20
69.5211317731
 30
0.0
 11
99.1566855306
 21
69.5211317731
 31
0.0
  0
LINE
  5
7C
330
1F
100
AcDbEntity
  8
0
  6
Continuous
 62
     7
370
    25
100
AcDbLine
 10
101.6566855306
 20
55.5211317731
 30
0.0
 11
102.0781855306
 21
55.9426317731
 31
0.0
  0
LINE
  5
7D
330
1F
100
AcDbEntity
  8
0
  6
Continuous
 62
     7
370
    25
100
AcDbLine
 10
102.0781855306
 20
69.0996317731
 30
0.0
 11
101.6566855306
 21
69.5211317731
 31
0.0
  0
LINE
  5
7E
330
1F
100
AcDbEntity
  8
0
  6
Continuous
 62
     7
370
    25
100
AcDbLine
 10
107.4050194808
 20
69.0996317731
 30
0.0
 11
102.0781855306
 21
69.0996317731
 31
0.0
  0
LINE
  5
7F
330
1F
100
AcDbEntity
  8
0
  6
Continuous
 62
     7
370
    25
100
AcDbLine
 10
102.0781855306
 20
55.9426317731
 30
0.0
 11
107.4050194808
 21
55.9426317731
 31
0.0
  0
ARC
  5
80
330
1F
100
AcDbEntity
  8
0
  6
Continuous
 62
     7
370
    25
100
AcDbCircle
 10
87.1566855306
 20
57.5211317731
 30
0.0
 40
1.999999999999994
100
AcDbArc
 50
179.8724685256
 51
270.1422453579
  0
SPLINE
  5
81
330
1F
100
AcDbEntity
  8
0
  6
Continuous
 62
     7
370
    25
100
AcDbSpline
210
0.0
220
0.0
230
1.0
 70
     8
 71
     3
 72
    16
 73
    12
 74
     0
 42
0.00000001
 43
0.00000001
 40
0.0
 40
0.0
 40
0.0
 40
0.0
 40
0.1120102749541304
 40
0.2377440458013614
 40
0.3634452870972628
 40
0.4922378783757058
 40
0.6210287926568644
 40
0.7152556882666299
 40
0.8094925111982042
 40
0.9047415002555057
 40
1.0
 40
1.0
 40
1.0
 40
1.0
 10
108.3085464266305
 20
57.61365448497256
 30
0.0
 10
108.2098697341747
 20
57.97240551602375
 30
0.0
 10
108.0004264835413
 20
58.73386174486032
 30
0.0
 10
107.7602689300788
 20
59.91791509349186
 30
0.0
 10
107.5928994597964
 20
61.17070830979411
 30
0.0
 10
107.5317223247689
 20
62.44382086783673
 30
0.0
 10
107.5758233125601
 20
63.61288680028718
 30
0.0
 10
107.6935454241757
 20
64.66055963498435
 30
0.0
 10
107.8516556273531
 20
65.58984375340833
 30
0.0
 10
108.0550745282921
 20
66.51387908982565
 30
0.0
 10
108.224052981886
 20
67.12368892291332
 30
0.0
 10
108.3085464266305
 20
67.42860906119623
 30
0.0
  0
SPLINE
  5
82
330
1F
100
AcDbEntity
  8
0
  6
Continuous
 62
     7
370
    25
100
AcDbSpline
210
0.0
220
0.0
230
1.0
 70
     8
 71
     3
 72
    15
 73
    11
 74
     0
 42
0.00000001
 43
0.00000001
 40
0.0
 40
0.0
 40
0.0
 40
0.0
 40
0.1323052378296956
 40
0.2645730682660304
 40
0.3997997819746812
 40
0.5350020935366633
 40
0.6501929590834552
 40
0.7654017933211803
 40
0.8826895567076664
 40
1.0
 40
1.0
 40
1.0
 40
1.0
 10
108.3085464266305
 20
52.70617719686065
 30
0.0
 10
108.1929764547905
 20
52.91819974051715
 30
0.0
 10
107.9618691868494
 20
53.34218488152097
 30
0.0
 10
107.713206555273
 20
53.99508446717611
 30
0.0
 10
107.5636926081195
 20
54.66029131939899
 30
0.0
 10
107.5340823210711
 20
55.30140196569634
 30
0.0
 10
107.6109037237217
 20
55.90787673055968
 30
0.0
 10
107.7683131948428
 20
56.48023969031206
 30
0.0
 10
107.9992155553738
 20
57.05001483056631
 30
0.0
 10
108.2054294909311
 20
57.42576249163578
 30
0.0
 10
108.3085464266305
 20
57.61365448497256
 30
0.0
  0
SPLINE
  5
83
330
1F
100
AcDbEntity
  8
0
  6
Continuous
 62
     7
370
    25
100
AcDbSpline
210
0.0
220
0.0
230
1.0
 70
     8
 71
     3
 72
    15
 73
    11
 74
     0
 42
0.00000001
 43
0.00000001
 40
0.0
 40
0.0
 40
0.0
 40
0.0
 40
0.1323052378296973
 40
0.2645730682660339
 40
0.3997997819746865
 40
0.5350020935366704
 40
0.6501929590834608
 40
0.7654017933211844
 40
0.8826895567076685
 40
1.0
 40
1.0
 40
1.0
 40
1.0
 10
108.3085464266305
 20
67.42860906119623
 30
0.0
 10
108.1929764547905
 20
67.64063160485271
 30
0.0
 10
107.9618691868494
 20
68.06461674585653
 30
0.0
 10
107.713206555273
 20
68.71751633151166
 30
0.0
 10
107.5636926081195
 20
69.38272318373451
 30
0.0
 10
107.5340823210711
 20
70.02383383003185
 30
0.0
 10
107.6109037237218
 20
70.63030859489517
 30
0.0
 10
107.7683131948428
 20
71.20267155464754
 30
0.0
 10
107.9992155553738
 20
71.77244669490173
 30
0.0
 10
108.2054294909311
 20
72.14819435597119
 30
0.0
 10
108.3085464266305
 20
72.33608634930795
 30
0.0
  0
LINE
  5
84
330
1F
100
AcDbEntity
  8
0
  6
Continuous
 62
     7
370
    25
100
AcDbLine
 10
107.4050194808
 20
62.5211317731
 30
0.0
 11
107.4050194808
 21
70.7711317731
 31
0.0
  0
LINE
  5
85
330
1F
100
AcDbEntity
  8
0
  6
Continuous
 62
     7
370
    25
100
AcDbLine
 10
107.4050194808
 20
54.2711317731
 30
0.0
 11
107.4050194808
 21
62.5211317731
 31
0.0
  0
SPLINE
  5
86
330
1F
100
AcDbEntity
  8
0
  6
Continuous
 62
     7
370
    25
100
AcDbSpline
210
0.0
220
0.0
230
1.0
 70
     8
 71
     3
 72
    10
 73
     6
 74
     0
 42
0.00000001
 43
0.00000001
 40
0.0
 40
0.0
 40
0.0
 40
0.0
 40
0.0789477693778934
 40
0.5375793028234307
 40
1.0
 40
1.0
 40
1.0
 40
1.0
 10
118.6885131298322
 20
63.98421926192435
 30
0.0
 10
118.6956434276457
 20
63.90744960755594
 30
0.0
 10
118.7441957877407
 20
63.38470175035155
 30
0.0
 10
118.7861126026194
 20
62.40653004445237
 30
0.0
 10
118.7211353917814
 20
61.50877065036149
 30
0.0
 10
118.6885131298322
 20
61.05804428424443
 30
0.0
  0
SPLINE
  5
87
330
1F
100
AcDbEntity
  8
0
  6
Continuous
 62
     7
370
    25
100
AcDbSpline
210
0.0
220
0.0
230
1.0
 70
     8
 71
     3
 72
    10
 73
     6
 74
     0
 42
0.00000001
 43
0.00000001
 40
0.0
 40
0.0
 40
0.0
 40
0.0
 40
0.3355445600395944
 40
0.6726666839999053
 40
0.9999999999999999
 40
0.9999999999999999
 40
0.9999999999999999
 40
0.9999999999999999
 10
118.6885131298322
 20
61.05804428424443
 30
0.0
 10
118.6413789138477
 20
60.66741471794099
 30
0.0
 10
118.5468888801979
 20
59.88431903906409
 30
0.0
 10
118.3084731021825
 20
58.7350670696493
 30
0.0
 10
118.1028094397848
 20
57.98376928788841
 30
0.0
 10
118.001492534926
 20
57.61365448497256
 30
0.0
  0
LINE
  5
88
330
1F
100
AcDbEntity
  8
0
  6
Continuous
 62
     7
370
    25
100
AcDbLine
 10
108.3085464266
 20
57.613654485
 30
0.0
 11
118.0014925349
 21
57.613654485
 31
0.0
  0
LINE
  5
89
330
1F
100
AcDbEntity
  8
0
  6
Continuous
 62
     7
370
    25
100
AcDbLine
 10
108.3085464266
 20
67.4286090612
 30
0.0
 11
118.0014925349
 21
67.4286090612
 31
0.0
  0
SPLINE
  5
8A
330
1F
100
AcDbEntity
  8
0
  6
Continuous
 62
     7
370
    25
100
AcDbSpline
210
0.0
220
0.0
230
1.0
 70
     8
 71
     3
 72
    11
 73
     7
 74
     0
 42
0.00000001
 43
0.00000001
 40
0.0
 40
0.0
 40
0.0
 40
0.0
 40
0.2490252138763564
 40
0.4980311639765296
 40
0.7490269204800198
 40
1.0
 40
1.0
 40
1.0
 40
1.0
 10
118.001492534926
 20
67.42860906119623
 30
0.0
 10
118.0797414077515
 20
67.14731619992746
 30
0.0
 10
118.2362331003254
 20
66.5847522372858
 30
0.0
 10
118.4290159886918
 20
65.72780792415978
 30
0.0
 10
118.5880818739266
 20
64.86138788821773
 30
0.0
 10
118.6550370527878
 20
64.27659999788094
 30
0.0
 10
118.6885131298322
 20
63.98421926192435
 30
0.0
  0
SPLINE
  5
8B
330
1F
100
AcDbEntity
  8
0
  6
Continuous
 62
     7
370
    25
100
AcDbSpline
210
0.0
220
0.0
230
1.0
 70
     8
 71
     3
 72
    11
 73
     7
 74
     0
 42
0.00000001
 43
0.00000001
 40
0.0
 40
0.0
 40
0.0
 40
0.0
 40
0.2488617730236801
 40
0.49774545835585
 40
0.7488627517928869
 40
1.0
 40
1.0
 40
1.0
 40
1.0
 10
118.6885131298322
 20
69.15080396083222
 30
0.0
 10
118.6553590746158
 20
69.00584158052922
 30
0.0
 10
118.5890480449647
 20
68.71590405596854
 30
0.0
 10
118.4310060388797
 20
68.28386446847408
 30
0.0
 10
118.238153859433
 20
67.85412639749714
 30
0.0
 10
118.0803817325445
 20
67.57045193012917
 30
0.0
 10
118.001492534926
 20
67.42860906119623
 30
0.0
  0
LINE
  5
8C
330
1F
100
AcDbEntity
  8
0
  6
Continuous
 62
     7
370
    25
100
AcDbLine
 10
118.6885131298
 20
63.9842192619
 30
0.0
 11
118.6885131298
 21
69.1508039608
 31
0.0
  0
SPLINE
  5
8D
330
1F
100
AcDbEntity
  8
0
  6
Continuous
 62
     7
370
    25
100
AcDbSpline
210
0.0
220
0.0
230
1.0
 70
     8
 71
     3
 72
    11
 73
     7
 74
     0
 42
0.00000001
 43
0.00000001
 40
0.0
 40
0.0
 40
0.0
 40
0.0
 40
0.2858113857234066
 40
0.5527245545213758
 40
0.8220275582229317
 40
1.0
 40
1.0
 40
1.0
 40
1.0
 10
119.3380321826705
 20
63.92060676240956
 30
0.0
 10
119.334091881248
 20
63.65524438375977
 30
0.0
 10
119.3264718162078
 20
63.14206572870132
 30
0.0
 10
119.3150107265568
 20
62.37026649312664
 30
0.0
 10
119.3324481157985
 20
61.70105266576221
 30
0.0
 10
119.3364427170577
 20
61.28657777266211
 30
0.0
 10
119.3380321826705
 20
61.12165678375921
 30
0.0
  0
ARC
  5
8E
330
1F
100
AcDbEntity
  8
0
  6
Continuous
 62
     7
370
    25
100
AcDbCircle
 10
119.2693089184
 20
58.4755776829
 30
0.0
 40
2.646971381584528
100
AcDbArc
 50
88.5122636654
 51
102.674909816
  0
ARC
  5
8F
330
1F
100
AcDbEntity
  8
0
  6
Continuous
 62
     7
370
    25
100
AcDbCircle
 10
119.2693089184
 20
66.5666858632
 30
0.0
 40
2.646971381582974
100
AcDbArc
 50
257.325090184
 51
271.4877363346
  0
LINE
  5
90
330
1F
100
AcDbEntity
  8
0
  6
Continuous
 62
     7
370
    25
100
AcDbLine
 10
118.6885131298
 20
55.8914595853
 30
0.0
 11
118.6885131298
 21
61.0580442842
 31
0.0
  0
SPLINE
  5
91
330
1F
100
AcDbEntity
  8
0
  6
Continuous
 62
     7
370
    25
100
AcDbSpline
210
0.0
220
0.0
230
1.0
 70
     8
 71
     3
 72
    11
 73
     7
 74
     0
 42
0.00000001
 43
0.00000001
 40
0.0
 40
0.0
 40
0.0
 40
0.0
 40
0.2490252138763569
 40
0.49803116397653
 40
0.7490269204800201
 40
1.0
 40
1.0
 40
1.0
 40
1.0
 10
118.001492534926
 20
57.61365448497256
 30
0.0
 10
118.0797414077515
 20
57.47300805433818
 30
0.0
 10
118.2362331003254
 20
57.19172607301734
 30
0.0
 10
118.4290159886918
 20
56.76325391645431
 30
0.0
 10
118.5880818739266
 20
56.33004389848329
 30
0.0
 10
118.6550370527878
 20
56.0376499533149
 30
0.0
 10
118.6885131298322
 20
55.89145958533659
 30
0.0
  0
SPLINE
  5
92
330
1F
100
AcDbEntity
  8
0
  6
Continuous
 62
     7
370
    25
100
AcDbSpline
210
0.0
220
0.0
230
1.0
 70
     8
 71
     3
 72
    10
 73
     6
 74
     0
 42
0.00000001
 43
0.00000001
 40
0.0
 40
0.0
 40
0.0
 40
0.0
 40
0.3089808900029882
 40
0.6190948628358307
 40
1.0
 40
1.0
 40
1.0
 40
1.0
 10
118.6885131298322
 20
55.89145958533659
 30
0.0
 10
118.7126601363689
 20
55.74101162296873
 30
0.0
 10
118.7610427004155
 20
55.43956398125482
 30
0.0
 10
118.7684977931321
 20
54.95055274265876
 30
0.0
 10
118.7169354453325
 20
54.61392745750056
 30
0.0
 10
118.6885131298322
 20
54.42837209649661
 30
0.0
  0
SPLINE
  5
93
330
1F
100
AcDbEntity
  8
0
  6
Continuous
 62
     7
370
    25
100
AcDbSpline
210
0.0
220
0.0
230
1.0
 70
     8
 71
     3
 72
    11
 73
     7
 74
     0
 42
0.00000001
 43
0.00000001
 40
0.0
 40
0.0
 40
0.0
 40
0.0
 40
0.2488617730236805
 40
0.4977454583558504
 40
0.7488627517928871
 40
1.0
 40
1.0
 40
1.0
 40
1.0
 10
118.6885131298322
 20
54.42837209649661
 30
0.0
 10
118.6553590746158
 20
54.28340971619362
 30
0.0
 10
118.5890480449647
 20
53.99347219163294
 30
0.0
 10
118.4310060388797
 20
53.56143260413847
 30
0.0
 10
118.238153859433
 20
53.13169453316155
 30
0.0
 10
118.0803817325445
 20
52.8480200657936
 30
0.0
 10
118.001492534926
 20
52.70617719686065
 30
0.0
  0
LINE
  5
94
330
1F
100
AcDbEntity
  8
0
  6
Continuous
 62
     7
370
    25
100
AcDbLine
 10
108.3085464266
 20
52.7061771969
 30
0.0
 11
118.0014925349
 21
52.7061771969
 31
0.0
  0
LINE
  5
95
330
1F
100
AcDbEntity
  8
0
  6
Continuous
 62
     7
370
    25
100
AcDbLine
 10
119.3380321827
 20
61.1216567838
 30
0.0
 11
119.3380321827
 21
56.1797062022
 31
0.0
  0
ARC
  5
96
330
1F
100
AcDbEntity
  8
0
  6
Continuous
 62
     7
370
    25
100
AcDbCircle
 10
119.3090798831
 20
55.3690271788
 30
0.0
 40
0.8111958547049342
100
AcDbArc
 50
87.9546284054
 51
139.9072030665
  0
ARC
  5
97
330
1F
100
AcDbEntity
  8
0
  6
Continuous
 62
     7
370
    25
100
AcDbCircle
 10
119.3090798831
 20
69.6732363674
 30
0.0
 40
0.8111958547050244
100
AcDbArc
 50
220.0927969335
 51
272.0453715946
  0
LINE
  5
98
330
1F
100
AcDbEntity
  8
0
  6
Continuous
 62
     7
370
    25
100
AcDbLine
 10
119.3380321827
 20
68.862557344
 30
0.0
 11
119.3380321827
 21
63.9206067624
 31
0.0
  0
SPLINE
  5
99
330
1F
100
AcDbEntity
  8
0
  6
Continuous
 62
     7
370
    25
100
AcDbSpline
210
0.0
220
0.0
230
1.0
 70
     8
 71
     3
 72
    10
 73
     6
 74
     0
 42
0.00000001
 43
0.00000001
 40
0.0
 40
0.0
 40
0.0
 40
0.0
 40
0.3089808900030074
 40
0.6190948628358686
 40
1.0
 40
1.0
 40
1.0
 40
1.0
 10
118.6885131298322
 20
70.61389144967195
 30
0.0
 10
118.7126601363689
 20
70.4634434873041
 30
0.0
 10
118.7610427004154
 20
70.16199584559024
 30
0.0
 10
118.7684977931321
 20
69.67298460699425
 30
0.0
 10
118.7169354453325
 20
69.3363593218361
 30
0.0
 10
118.6885131298322
 20
69.15080396083222
 30
0.0
  0
LINE
  5
9A
330
1F
100
AcDbEntity
  8
0
  6
Continuous
 62
     7
370
    25
100
AcDbLine
 10
108.3085464266
 20
72.3360863493
 30
0.0
 11
118.0014925349
 21
72.3360863493
 31
0.0
  0
SPLINE
  5
9B
330
1F
100
AcDbEntity
  8
0
  6
Continuous
 62
     7
370
    25
100
AcDbSpline
210
0.0
220
0.0
230
1.0
 70
     8
 71
     3
 72
    11
 73
     7
 74
     0
 42
0.00000001
 43
0.00000001
 40
0.0
 40
0.0
 40
0.0
 40
0.0
 40
0.2490252138763565
 40
0.4980311639765297
 40
0.7490269204800202
 40
1.0
 40
1.0
 40
1.0
 40
1.0
 10
118.001492534926
 20
72.33608634930795
 30
0.0
 10
118.0797414077515
 20
72.19543991867356
 30
0.0
 10
118.2362331003254
 20
71.91415793735271
 30
0.0
 10
118.4290159886918
 20
71.48568578078971
 30
0.0
 10
118.5880818739266
 20
71.05247576281866
 30
0.0
 10
118.6550370527878
 20
70.76008181765026
 30
0.0
 10
118.6885131298322
 20
70.61389144967195
 30
0.0
  0
LINE
  5
9C
330
1F
100
AcDbEntity
  8
0
  6
Continuous
 62
     7
370
    25
100
AcDbLine
 10
120.4050194808
 20
62.5211317731
 30
0.0
 11
120.4050194808
 21
54.4711317731
 31
0.0
  0
LINE
  5
9D
330
1F
100
AcDbEntity
  8
0
  6
Continuous
 62
     7
370
    25
100
AcDbLine
 10
120.4050194808
 20
70.5711317731
 30
0.0
 11
120.4050194808
 21
62.5211317731
 31
0.0
  0
LINE
  5
9E
330
1F
100
AcDbEntity
  8
0
  6
Continuous
 62
     7
370
    25
100
AcDbLine
 10
120.2050194808
 20
62.5211317731
 30
0.0
 11
120.2050194808
 21
70.7711317731
 31
0.0
  0
LINE
  5
9F
330
1F
100
AcDbEntity
  8
0
  6
Continuous
 62
     7
370
    25
100
AcDbLine
 10
120.2050194808
 20
54.2711317731
 30
0.0
 11
120.2050194808
 21
62.5211317731
 31
0.0
  0
SPLINE
  5
A0
330
1F
100
AcDbEntity
  8
0
  6
Continuous
 62
     7
370
    25
100
AcDbSpline
210
0.0
220
0.0
230
1.0
 70
     8
 71
     3
 72
    11
 73
     7
 74
     0
 42
0.00000001
 43
0.00000001
 40
0.0
 40
0.0
 40
0.0
 40
0.0
 40
0.2858113857233994
 40
0.552724554521382
 40
0.8220275582229517
 40
1.0
 40
1.0
 40
1.0
 40
1.0
 10
119.3380321826705
 20
56.17970620219518
 30
0.0
 10
119.334091881248
 20
56.01401391612627
 30
0.0
 10
119.3264718162078
 20
55.69358513134124
 30
0.0
 10
119.3150107265568
 20
55.29352273657721
 30
0.0
 10
119.3324481157985
 20
54.99273859927042
 30
0.0
 10
119.3364427170577
 20
54.84071995537393
 30
0.0
 10
119.3380321826705
 20
54.78023121286999
 30
0.0
  0
SPLINE
  5
A1
330
1F
100
AcDbEntity
  8
0
  6
Continuous
 62
     7
370
    25
100
AcDbSpline
210
0.0
220
0.0
230
1.0
 70
     8
 71
     3
 72
    11
 73
     7
 74
     0
 42
0.00000001
 43
0.00000001
 40
0.0
 40
0.0
 40
0.0
 40
0.0
 40
0.2858113857233212
 40
0.5527245545214223
 40
0.8220275582231134
 40
1.0
 40
1.0
 40
1.0
 40
1.0
 10
119.3380321826705
 20
70.26203233329858
 30
0.0
 10
119.334091881248
 20
70.16236224071775
 30
0.0
 10
119.3264718162078
 20
69.96961237044432
 30
0.0
 10
119.3150107265568
 20
69.59787552963364
 30
0.0
 10
119.3324481157985
 20
69.22944583957599
 30
0.0
 10
119.3364427170577
 20
68.96698959037242
 30
0.0
 10
119.3380321826705
 20
68.8625573439736
 30
0.0
  0
ARC
  5
A2
330
1F
100
AcDbEntity
  8
0
  6
Continuous
 62
     7
370
    25
100
AcDbCircle
 10
119.3295686479
 20
54.0204308286
 30
0.0
 40
0.7598475211239136
100
AcDbArc
 50
89.3617997906
 51
147.5290082717
  0
ARC
  5
A3
330
1F
100
AcDbEntity
  8
0
  6
Continuous
 62
     7
370
    25
100
AcDbCircle
 10
119.3295686479
 20
71.0218327176
 30
0.0
 40
0.7598475211157557
100
AcDbArc
 50
212.4709917279
 51
270.6382002097
  0
LINE
  5
A4
330
1F
100
AcDbEntity
  8
0
  6
Continuous
 62
     7
370
    25
100
AcDbLine
 10
83.6227013289
 20
74.6756373187
 30
0.0
 11
100.6906697323
 21
74.6756373187
 31
0.0
  0
LINE
  5
A5
330
1F
100
AcDbEntity
  8
0
  6
Continuous
 62
     7
370
    25
100
AcDbLine
 10
100.3540577004
 20
85.4472223394
 30
0.0
 11
83.9593133608
 21
85.4472223394
 31
0.0
  0
LINE
  5
A6
330
1F
100
AcDbEntity
  8
0
  6
Continuous
 62
     7
370
    25
100
AcDbLine
 10
84.1566855321
 20
74.5211317731
 30
0.0
 11
100.1566855306
 21
74.5211317731
 31
0.0
  0
LINE
  5
A7
330
1F
100
AcDbEntity
  8
0
  6
Continuous
 62
     7
370
    25
100
AcDbLine
 10
99.1566855306
 20
87.5211317731
 30
0.0
 11
85.1566855306
 21
87.5211317731
 31
0.0
  0
LINE
  5
A8
330
1F
100
AcDbEntity
  8
0
  6
Continuous
 62
     7
370
    25
100
AcDbLine
 10
97.9066855306
 20
69.7711317731
 30
0.0
 11
94.8024368417
 21
69.7711317731
 31
0.0
  0
LINE
  5
A9
330
1F
100
AcDbEntity
  8
0
  6
Continuous
 62
     7
370
    25
100
AcDbLine
 10
97.9066855306
 20
69.5211317731
 30
0.0
 11
97.9066855306
 21
69.7711317731
 31
0.0
  0
ARC
  5
AA
330
1F
100
AcDbEntity
  8
0
  6
Continuous
 62
     7
370
    25
100
AcDbCircle
 10
99.1566855306
 20
69.5211317731
 30
0.0
 40
1.25
100
AcDbArc
 50
180.0
 51
270.0
  0
LINE
  5
AB
330
1F
100
AcDbEntity
  8
0
  6
Continuous
 62
     7
370
    25
100
AcDbLine
 10
99.4066855306
 20
68.2711317731
 30
0.0
 11
99.1566855306
 21
68.2711317731
 31
0.0
  0
LINE
  5
AC
330
1F
100
AcDbEntity
  8
0
  6
Continuous
 62
     7
370
    25
100
AcDbLine
 10
99.4066855306
 20
65.1668830841
 30
0.0
 11
99.4066855306
 21
68.2711317731
 31
0.0
  0
LINE
  5
AD
330
1F
100
AcDbEntity
  8
0
  6
Continuous
 62
     7
370
    25
100
AcDbLine
 10
99.4066855306
 20
65.1668830841
 30
0.0
 11
99.4066855306
 21
62.5211317731
 31
0.0
  0
LINE
  5
AE
330
1F
100
AcDbEntity
  8
0
  6
Continuous
 62
     7
370
    25
100
AcDbLine
 10
99.4066855306
 20
62.5211317731
 30
0.0
 11
99.4066855306
 21
59.875380462
 31
0.0
  0
LINE
  5
AF
330
1F
100
AcDbEntity
  8
0
  6
Continuous
 62
     7
370
    25
100
AcDbLine
 10
99.4066855306
 20
56.7711317731
 30
0.0
 11
99.4066855306
 21
59.875380462
 31
0.0
  0
LINE
  5
B0
330
1F
100
AcDbEntity
  8
0
  6
Continuous
 62
     7
370
    25
100
AcDbLine
 10
88.1566855306
 20
56.7711317731
 30
0.0
 11
99.4066855306
 21
56.7711317731
 31
0.0
  0
ARC
  5
B1
330
1F
100
AcDbEntity
  8
0
  6
Continuous
 62
     7
370
    25
100
AcDbCircle
 10
88.1566855306
 20
58.5211317731
 30
0.0
 40
1.75
100
AcDbArc
 50
180.0
 51
270.0
  0
LINE
  5
B2
330
1F
100
AcDbEntity
  8
0
  6
Continuous
 62
     7
370
    25
100
AcDbLine
 10
86.4066855306
 20
69.7711317731
 30
0.0
 11
86.4066855306
 21
58.5211317731
 31
0.0
  0
LINE
  5
B3
330
1F
100
AcDbEntity
  8
0
  6
Continuous
 62
     7
370
    25
100
AcDbLine
 10
89.5109342196
 20
69.7711317731
 30
0.0
 11
86.4066855306
 21
69.7711317731
 31
0.0
  0
LINE
  5
B4
330
1F
100
AcDbEntity
  8
0
  6
Continuous
 62
     7
370
    25
100
AcDbLine
 10
89.5109342196
 20
69.7711317731
 30
0.0
 11
92.1566855306
 21
69.7711317731
 31
0.0
  0
LINE
  5
B5
330
1F
100
AcDbEntity
  8
0
  6
Continuous
 62
     7
370
    25
100
AcDbLine
 10
92.1566855306
 20
69.7711317731
 30
0.0
 11
94.8024368417
 21
69.7711317731
 31
0.0
  0
LINE
  5
B6
330
1F
100
AcDbEntity
  8
0
  6
Continuous
 62
     7
370
    25
100
AcDbLine
 10
97.0085872983
 20
62.3401772777
 30
0.0
 11
97.9838628172
 21
59.6133498982
 31
0.0
  0
SPLINE
  5
B7
330
1F
100
AcDbEntity
  8
0
  6
Continuous
 62
     7
370
    25
100
AcDbSpline
210
0.0
220
0.0
230
1.0
 70
     8
 71
     3
 72
    14
 73
    10
 74
     0
 42
0.00000001
 43
0.00000001
 40
0.0
 40
0.0
 40
0.0
 40
0.0
 40
0.25
 40
0.25
 40
0.5
 40
0.5
 40
0.75
 40
0.75
 40
1.0
 40
1.0
 40
1.0
 40
1.0
 10
95.63493976026403
 20
62.34017727772707
 30
0.0
 10
95.69533618346284
 20
62.47081465803192
 30
0.0
 10
95.79486574512028
 20
62.58087902319743
 30
0.0
 10
96.03595143586665
 20
62.73065630667062
 30
0.0
 10
96.17726846916005
 20
62.77100224380504
 30
0.0
 10
96.4648616832727
 20
62.77126067473458
 30
0.0
 10
96.60631933916162
 20
62.73143963763685
 30
0.0
 10
96.84993927625996
 20
62.58008222348175
 30
0.0
 10
96.94819627522698
 20
62.4708029775821
 30
0.0
 10
97.00858729830672
 20
62.34017727772761
 30
0.0
  0
LINE
  5
B8
330
1F
100
AcDbEntity
  8
0
  6
Continuous
 62
     7
370
    25
100
AcDbLine
 10
94.6598905431
 20
59.6139826278
 30
0.0
 11
95.6349397603
 21
62.3401772777
 31
0.0
  0
SPLINE
  5
B9
330
1F
100
AcDbEntity
  8
0
  6
Continuous
 62
     7
370
    25
100
AcDbSpline
210
0.0
220
0.0
230
1.0
 70
     8
 71
     3
 72
    10
 73
     6
 74
     0
 42
0.00000001
 43
0.00000001
 40
0.0
 40
0.0
 40
0.0
 40
0.0
 40
0.5
 40
0.5
 40
1.0
 40
1.0
 40
1.0
 40
1.0
 10
94.259286584801
 20
59.47794890479936
 30
0.0
 10
94.329738483058
 20
59.43917844266922
 30
0.0
 10
94.41507047815278
 20
59.43185610261563
 30
0.0
 10
94.56705639131445
 20
59.48082141765802
 30
0.0
 10
94.63276095657949
 20
59.5381294991827
 30
0.0
 10
94.65989054312855
 20
59.61398262782992
 30
0.0
  0
LINE
  5
BA
330
1F
100
AcDbEntity
  8
0
  6
Continuous
 62
     7
370
    25
100
AcDbLine
 10
93.4916770811
 20
59.9003729406
 30
0.0
 11
94.2592865848
 21
59.4779489048
 31
0.0
  0
LINE
  5
BB
330
1F
100
AcDbEntity
  8
0
  6
Continuous
 62
     7
370
    25
100
AcDbLine
 10
94.4914644314
 20
57.9944447268
 30
0.0
 11
93.4916770811
 21
59.9003729406
 31
0.0
  0
SPLINE
  5
BC
330
1F
100
AcDbEntity
  8
0
  6
Continuous
 62
     7
370
    25
100
AcDbSpline
210
0.0
220
0.0
230
1.0
 70
     8
 71
     3
 72
    10
 73
     6
 74
     0
 42
0.00000001
 43
0.00000001
 40
0.0
 40
0.0
 40
0.0
 40
0.0
 40
0.5
 40
0.5
 40
1.0
 40
1.0
 40
1.0
 40
1.0
 10
94.98183627500343
 20
57.90587068557909
 30
0.0
 10
94.9097252806814
 20
57.8418649157751
 30
0.0
 10
94.80862115384159
 20
57.81427957752152
 30
0.0
 10
94.62106329580162
 20
57.84808033748527
 30
0.0
 10
94.53626007020925
 20
57.90904929565568
 30
0.0
 10
94.49146443142567
 20
57.99444472678174
 30
0.0
  0
SPLINE
  5
BD
330
1F
100
AcDbEntity
  8
0
  6
Continuous
 62
     7
370
    25
100
AcDbSpline
210
0.0
220
0.0
230
1.0
 70
     8
 71
     3
 72
    14
 73
    10
 74
     0
 42
0.00000001
 43
0.00000001
 40
0.0
 40
0.0
 40
0.0
 40
0.0
 40
0.4999999999999987
 40
0.4999999999999987
 40
0.6249999999999988
 40
0.6249999999999988
 40
0.7499999999999993
 40
0.7499999999999993
 40
1.0
 40
1.0
 40
1.0
 40
1.0
 10
97.66169078356741
 20
57.905870685579
 30
0.0
 10
97.29367029499753
 20
58.23252593275718
 30
0.0
 10
96.8096225112762
 20
58.40764877614927
 30
0.0
 10
96.1998967252046
 20
58.40767187463843
 30
0.0
 10
96.07678986656391
 20
58.39670499224849
 30
0.0
 10
95.83772177410701
 20
58.35382450831832
 30
0.0
 10
95.72053484199492
 20
58.32197865159185
 30
0.0
 10
95.3762977796723
 20
58.19397229166307
 30
0.0
 10
95.16586699310524
 20
58.06921648174254
 30
0.0
 10
94.98183627500343
 20
57.90587068557909
 30
0.0
  0
SPLINE
  5
BE
330
1F
100
AcDbEntity
  8
0
  6
Continuous
 62
     7
370
    25
100
AcDbSpline
210
0.0
220
0.0
230
1.0
 70
     8
 71
     3
 72
    10
 73
     6
 74
     0
 42
0.00000001
 43
0.00000001
 40
0.0
 40
0.0
 40
0.0
 40
0.0
 40
0.5
 40
0.5
 40
1.0
 40
1.0
 40
1.0
 40
1.0
 10
98.15206262714531
 20
57.99444472678208
 30
0.0
 10
98.10726363775804
 20
57.90904290828735
 30
0.0
 10
98.02197979210051
 20
57.84785445851162
 30
0.0
 10
97.83448993249971
 20
57.81434394043851
 30
0.0
 10
97.73381086718041
 20
57.84185684811388
 30
0.0
 10
97.66169078356741
 20
57.905870685579
 30
0.0
  0
LINE
  5
BF
330
1F
100
AcDbEntity
  8
0
  6
Continuous
 62
     7
370
    25
100
AcDbLine
 10
99.1634095871
 20
59.9224094128
 30
0.0
 11
98.1520626271
 21
57.9944447268
 31
0.0
  0
LINE
  5
C0
330
1F
100
AcDbEntity
  8
0
  6
Continuous
 62
     7
370
    25
100
AcDbLine
 10
98.3883880215
 20
59.4795153324
 30
0.0
 11
99.1634095871
 21
59.9224094128
 31
0.0
  0
SPLINE
  5
C1
330
1F
100
AcDbEntity
  8
0
  6
Continuous
 62
     7
370
    25
100
AcDbSpline
210
0.0
220
0.0
230
1.0
 70
     8
 71
     3
 72
    10
 73
     6
 74
     0
 42
0.00000001
 43
0.00000001
 40
0.0
 40
0.0
 40
0.0
 40
0.0
 40
0.5
 40
0.5
 40
1.0
 40
1.0
 40
1.0
 40
1.0
 10
97.98386281717508
 20
59.61334989815404
 30
0.0
 10
98.01130499236524
 20
59.53662278543978
 30
0.0
 10
98.07838762303764
 20
59.47901560007472
 30
0.0
 10
98.23119547749776
 20
59.43105985119126
 30
0.0
 10
98.31778796266266
 20
59.43917019943802
 30
0.0
 10
98.38838802151334
 20
59.47951533243486
 30
0.0
  0
LINE
  5
C2
330
1F
100
AcDbEntity
  8
0
  6
Continuous
 62
     7
370
    25
100
AcDbLine
 10
99.6566855306
 20
68.2711317731
 30
0.0
 11
99.6566855306
 21
65.1668830841
 31
0.0
  0
SPLINE
  5
C3
330
1F
100
AcDbEntity
  8
0
  6
Continuous
 62
     7
370
    25
100
AcDbSpline
210
0.0
220
0.0
230
1.0
 70
     8
 71
     3
 72
    12
 73
     8
 74
     0
 42
0.00000001
 43
0.00000001
 40
0.0
 40
0.0
 40
0.0
 40
0.0
 40
0.25
 40
0.25
 40
0.5
 40
0.5
 40
1.0
 40
1.0
 40
1.0
 40
1.0
 10
99.58346222591294
 20
65.15351713608128
 30
0.0
 10
99.59773952766764
 20
65.15182299125539
 30
0.0
 10
99.60945463508904
 20
65.14989678169927
 30
0.0
 10
99.62853799287922
 20
65.14698132040877
 30
0.0
 10
99.63590624324799
 20
65.14599206867439
 30
0.0
 10
99.65265700619628
 20
65.146531381127
 30
0.0
 10
99.6566855306178
 20
65.15156701296979
 30
0.0
 10
99.6566855306178
 20
65.16688308414889
 30
0.0
  0
SPLINE
  5
C4
330
1F
100
AcDbEntity
  8
0
  6
Continuous
 62
     7
370
    25
100
AcDbSpline
210
0.0
220
0.0
230
1.0
 70
     8
 71
     3
 72
    10
 73
     6
 74
     0
 42
0.00000001
 43
0.00000001
 40
0.0
 40
0.0
 40
0.0
 40
0.0
 40
0.5
 40
0.5
 40
1.0
 40
1.0
 40
1.0
 40
1.0
 10
99.58346222591294
 20
65.15351713608128
 30
0.0
 10
99.55490762240355
 20
65.15690542573306
 30
0.0
 10
99.52188608732669
 20
65.16024691274997
 30
0.0
 10
99.45894768018076
 20
65.16523574195789
 30
0.0
 10
99.42903080811168
 20
65.16688308414889
 30
0.0
 10
99.4066855306178
 20
65.16688308414889
 30
0.0
  0
LINE
  5
C5
330
1F
100
AcDbEntity
  8
0
  6
Continuous
 62
     7
370
    25
100
AcDbLine
 10
99.4066855306
 20
68.2711317731
 30
0.0
 11
99.6566855306
 21
68.2711317731
 31
0.0
  0
SPLINE
  5
C6
330
1F
100
AcDbEntity
  8
0
  6
Continuous
 62
     7
370
    25
100
AcDbSpline
210
0.0
220
0.0
230
1.0
 70
     8
 71
     3
 72
    12
 73
     8
 74
     0
 42
0.00000001
 43
0.00000001
 40
0.0
 40
0.0
 40
0.0
 40
0.0
 40
0.25
 40
0.25
 40
0.5
 40
0.5
 40
1.0
 40
1.0
 40
1.0
 40
1.0
 10
94.78907089361478
 20
69.94790846837944
 30
0.0
 10
94.78737674878889
 20
69.96218577013413
 30
0.0
 10
94.78545053923278
 20
69.97390087755554
 30
0.0
 10
94.78253507794228
 20
69.99298423534572
 30
0.0
 10
94.78154582620789
 20
70.00035248571449
 30
0.0
 10
94.7820851386605
 20
70.01710324866278
 30
0.0
 10
94.78712077050331
 20
70.0211317730843
 30
0.0
 10
94.8024368416824
 20
70.0211317730843
 30
0.0
  0
LINE
  5
C7
330
1F
100
AcDbEntity
  8
0
  6
Continuous
 62
     7
370
    25
100
AcDbLine
 10
94.8024368417
 20
70.0211317731
 30
0.0
 11
97.9066855306
 21
70.0211317731
 31
0.0
  0
LINE
  5
C8
330
1F
100
AcDbEntity
  8
0
  6
Continuous
 62
     7
370
    25
100
AcDbLine
 10
97.9066855306
 20
70.0211317731
 30
0.0
 11
97.9066855306
 21
69.7711317731
 31
0.0
  0
SPLINE
  5
C9
330
1F
100
AcDbEntity
  8
0
  6
Continuous
 62
     7
370
    25
100
AcDbSpline
210
0.0
220
0.0
230
1.0
 70
     8
 71
     3
 72
    10
 73
     6
 74
     0
 42
0.00000001
 43
0.00000001
 40
0.0
 40
0.0
 40
0.0
 40
0.0
 40
0.5
 40
0.5
 40
1.0
 40
1.0
 40
1.0
 40
1.0
 10
94.78907089361478
 20
69.94790846837944
 30
0.0
 10
94.79245918326657
 20
69.91935386487003
 30
0.0
 10
94.79580067028348
 20
69.88633232979319
 30
0.0
 10
94.80078949949139
 20
69.82339392264724
 30
0.0
 10
94.8024368416824
 20
69.79347705057818
 30
0.0
 10
94.8024368416824
 20
69.7711317730843
 30
0.0
  0
LINE
  5
CA
330
1F
100
AcDbEntity
  8
0
  6
Continuous
 62
     7
370
    25
100
AcDbLine
 10
86.4066855306
 20
70.0211317731
 30
0.0
 11
89.5109342196
 21
70.0211317731
 31
0.0
  0
SPLINE
  5
CB
330
1F
100
AcDbEntity
  8
0
  6
Continuous
 62
     7
370
    25
100
AcDbSpline
210
0.0
220
0.0
230
1.0
 70
     8
 71
     3
 72
    12
 73
     8
 74
     0
 42
0.00000001
 43
0.00000001
 40
0.0
 40
0.0
 40
0.0
 40
0.0
 40
0.25
 40
0.25
 40
0.5
 40
0.5
 40
1.0
 40
1.0
 40
1.0
 40
1.0
 10
89.52430016762082
 20
69.94790846837942
 30
0.0
 10
89.52599431244671
 20
69.96218577013413
 30
0.0
 10
89.52792052200283
 20
69.97390087755554
 30
0.0
 10
89.53083598329333
 20
69.99298423534572
 30
0.0
 10
89.53182523502771
 20
70.00035248571449
 30
0.0
 10
89.53128592257511
 20
70.01710324866278
 30
0.0
 10
89.52625029073232
 20
70.0211317730843
 30
0.0
 10
89.5109342195532
 20
70.0211317730843
 30
0.0
  0
SPLINE
  5
CC
330
1F
100
AcDbEntity
  8
0
  6
Continuous
 62
     7
370
    25
100
AcDbSpline
210
0.0
220
0.0
230
1.0
 70
     8
 71
     3
 72
    10
 73
     6
 74
     0
 42
0.00000001
 43
0.00000001
 40
0.0
 40
0.0
 40
0.0
 40
0.0
 40
0.5
 40
0.5
 40
1.0
 40
1.0
 40
1.0
 40
1.0
 10
89.52430016762082
 20
69.94790846837942
 30
0.0
 10
89.52091187796904
 20
69.91935386487003
 30
0.0
 10
89.51757039095213
 20
69.88633232979319
 30
0.0
 10
89.51258156174421
 20
69.82339392264724
 30
0.0
 10
89.5109342195532
 20
69.79347705057818
 30
0.0
 10
89.5109342195532
 20
69.7711317730843
 30
0.0
  0
LINE
  5
CD
330
1F
100
AcDbEntity
  8
0
  6
Continuous
 62
     7
370
    25
100
AcDbLine
 10
86.4066855306
 20
70.0211317731
 30
0.0
 11
86.4066855306
 21
69.7711317731
 31
0.0
  0
SPLINE
  5
CE
330
1F
100
AcDbEntity
  8
0
  6
Continuous
 62
     7
370
    25
100
AcDbSpline
210
0.0
220
0.0
230
1.0
 70
     8
 71
     3
 72
     8
 73
     4
 74
     0
 42
0.00000001
 43
0.00000001
 40
0.0
 40
0.0
 40
0.0
 40
0.0
 40
1.0
 40
1.0
 40
1.0
 40
1.0
 10
86.14118455709976
 20
58.22434536342856
 30
0.0
 10
86.1286686994152
 20
58.32176078253991
 30
0.0
 10
86.12220277199711
 20
58.42064152006716
 30
0.0
 10
86.12220277199711
 20
58.52113177308429
 30
0.0
  0
LINE
  5
CF
330
1F
100
AcDbEntity
  8
0
  6
Continuous
 62
     7
370
    25
100
AcDbLine
 10
98.5249720193
 20
68.8894182618
 30
0.0
 11
99.1566855306
 21
69.5211317731
 31
0.0
  0
SPLINE
  5
D0
330
1F
100
AcDbEntity
  8
0
  6
Continuous
 62
     7
370
    25
100
AcDbSpline
210
0.0
220
0.0
230
1.0
 70
     8
 71
     3
 72
    12
 73
     8
 74
     0
 42
0.00000001
 43
0.00000001
 40
0.0
 40
0.0
 40
0.0
 40
0.0
 40
0.2500000000000002
 40
0.2500000000000002
 40
0.5000000000000004
 40
0.5000000000000004
 40
1.0
 40
1.0
 40
1.0
 40
1.0
 10
98.19116828923849
 20
69.5211317730843
 30
0.0
 10
98.19116828923849
 20
69.43432599596767
 30
0.0
 10
98.2062671421767
 20
69.3508407974308
 30
0.0
 10
98.2537190003632
 20
69.20686060869252
 30
0.0
 10
98.28462401227944
 20
69.14762447576929
 30
0.0
 10
98.3839577640286
 20
68.9973109076123
 30
0.0
 10
98.45629003576413
 20
68.93494213468354
 30
0.0
 10
98.5249720193151
 20
68.88941826178159
 30
0.0
  0
LINE
  5
D1
330
1F
100
AcDbEntity
  8
0
  6
Continuous
 62
     7
370
    25
100
AcDbLine
 10
98.1911682892
 20
69.7711317731
 30
0.0
 11
98.1911682892
 21
69.5211317731
 31
0.0
  0
SPLINE
  5
D2
330
1F
100
AcDbEntity
  8
0
  6
Continuous
 62
     7
370
    25
100
AcDbSpline
210
0.0
220
0.0
230
1.0
 70
     8
 71
     3
 72
    14
 73
    10
 74
     0
 42
0.00000001
 43
0.00000001
 40
0.0
 40
0.0
 40
0.0
 40
0.0
 40
0.25
 40
0.25
 40
0.5
 40
0.5
 40
0.75
 40
0.75
 40
1.0
 40
1.0
 40
1.0
 40
1.0
 10
98.19116828923849
 20
69.7711317730843
 30
0.0
 10
98.19116828923849
 20
69.86293416769723
 30
0.0
 10
98.16565809529936
 20
69.94709810661264
 30
0.0
 10
98.09869172750989
 20
70.07419378718403
 30
0.0
 10
98.05687709490844
 20
70.12231625643518
 30
0.0
 10
97.96691657722691
 20
70.19763403621394
 30
0.0
 10
97.9179095851272
 20
70.22501024930727
 30
0.0
 10
97.81659573458792
 20
70.26157209992941
 30
0.0
 10
97.76372711793731
 20
70.2711317730843
 30
0.0
 10
97.70840966854884
 20
70.2711317730843
 30
0.0
  0
LINE
  5
D3
330
1F
100
AcDbEntity
  8
0
  6
Continuous
 62
     7
370
    25
100
AcDbLine
 10
94.7112040379
 20
70.2711317731
 30
0.0
 11
97.7084096685
 21
70.2711317731
 31
0.0
  0
SPLINE
  5
D4
330
1F
100
AcDbEntity
  8
0
  6
Continuous
 62
     7
370
    25
100
AcDbSpline
210
0.0
220
0.0
230
1.0
 70
    24
 71
     3
 72
    14
 73
    10
 74
     0
 42
0.00000001
 43
0.00000001
 40
0.0
 40
0.0
 40
0.0
 40
0.0
 40
0.25
 40
0.25
 40
0.5
 40
0.5
 40
0.75
 40
0.75
 40
1.0
 40
1.0
 40
1.0
 40
1.0
 10
92.1566855306178
 20
70.2711317730843
 30
0.0
 10
92.3719817611404
 20
70.2711317730843
 30
0.0
 10
92.58727912228362
 20
70.2711317730843
 30
0.0
 10
93.01701288687966
 20
70.2711317730843
 30
0.0
 10
93.23145155627611
 20
70.2711317730843
 30
0.0
 10
93.65854135998622
 20
70.2711317730843
 30
0.0
 10
93.87119477142078
 20
70.2711317730843
 30
0.0
 10
94.29365147393318
 20
70.2711317730843
 30
0.0
 10
94.50345705081843
 20
70.2711317730843
 30
0.0
 10
94.7112040378526
 20
70.2711317730843
 30
0.0
  0
SPLINE
  5
D5
330
1F
100
AcDbEntity
  8
0
  6
Continuous
 62
     7
370
    25
100
AcDbSpline
210
0.0
220
0.0
230
1.0
 70
    24
 71
     3
 72
    14
 73
    10
 74
     0
 42
0.00000001
 43
0.00000001
 40
0.0
 40
0.0
 40
0.0
 40
0.0
 40
0.25
 40
0.25
 40
0.5
 40
0.5
 40
0.75
 40
0.75
 40
1.0
 40
1.0
 40
1.0
 40
1.0
 10
92.1566855306178
 20
70.2711317730843
 30
0.0
 10
91.94138930009521
 20
70.2711317730843
 30
0.0
 10
91.726091938952
 20
70.2711317730843
 30
0.0
 10
91.29635817435597
 20
70.2711317730843
 30
0.0
 10
91.0819195049595
 20
70.2711317730843
 30
0.0
 10
90.65482970124938
 20
70.2711317730843
 30
0.0
 10
90.44217628981482
 20
70.2711317730843
 30
0.0
 10
90.01971958730243
 20
70.2711317730843
 30
0.0
 10
89.80991401041719
 20
70.2711317730843
 30
0.0
 10
89.60216702338303
 20
70.2711317730843
 30
0.0
  0
LINE
  5
D6
330
1F
100
AcDbEntity
  8
0
  6
Continuous
 62
     7
370
    25
100
AcDbLine
 10
86.6049613927
 20
70.2711317731
 30
0.0
 11
89.6021670234
 21
70.2711317731
 31
0.0
  0
SPLINE
  5
D7
330
1F
100
AcDbEntity
  8
0
  6
Continuous
 62
     7
370
    25
100
AcDbSpline
210
0.0
220
0.0
230
1.0
 70
     8
 71
     3
 72
    14
 73
    10
 74
     0
 42
0.00000001
 43
0.00000001
 40
0.0
 40
0.0
 40
0.0
 40
0.0
 40
0.25
 40
0.25
 40
0.5
 40
0.5
 40
0.75
 40
0.75
 40
1.0
 40
1.0
 40
1.0
 40
1.0
 10
86.60496139268677
 20
70.2711317730843
 30
0.0
 10
86.54968261606119
 20
70.2711317730843
 30
0.0
 10
86.49670393789494
 20
70.26158320884817
 30
0.0
 10
86.39496247016878
 20
70.22479309072334
 30
0.0
 10
86.34591819644636
 20
70.19724204343517
 30
0.0
 10
86.25647015147815
 20
70.12223895586501
 30
0.0
 10
86.21459558315355
 20
70.07405857567304
 30
0.0
 10
86.14772395494988
 20
69.94709519789622
 30
0.0
 10
86.12220277199711
 20
69.86307271780743
 30
0.0
 10
86.12220277199711
 20
69.7711317730843
 30
0.0
  0
LINE
  5
D8
330
1F
100
AcDbEntity
  8
0
  6
Continuous
 62
     7
370
    25
100
AcDbLine
 10
86.122202772
 20
58.5211317731
 30
0.0
 11
86.122202772
 21
69.7711317731
 31
0.0
  0
SPLINE
  5
D9
330
1F
100
AcDbEntity
  8
0
  6
Continuous
 62
     7
370
    25
100
AcDbSpline
210
0.0
220
0.0
230
1.0
 70
     8
 71
     3
 72
    10
 73
     6
 74
     0
 42
0.00000001
 43
0.00000001
 40
0.0
 40
0.0
 40
0.0
 40
0.0
 40
0.5
 40
0.5
 40
1.0
 40
1.0
 40
1.0
 40
1.0
 10
99.58346222591294
 20
59.88874641008732
 30
0.0
 10
99.55490762240355
 20
59.88535812043553
 30
0.0
 10
99.52188608732669
 20
59.88201663341863
 30
0.0
 10
99.45894768018076
 20
59.87702780421072
 30
0.0
 10
99.42903080811168
 20
59.87538046201971
 30
0.0
 10
99.4066855306178
 20
59.87538046201971
 30
0.0
  0
SPLINE
  5
DA
330
1F
100
AcDbEntity
  8
0
  6
Continuous
 62
     7
370
    25
100
AcDbSpline
210
0.0
220
0.0
230
1.0
 70
     8
 71
     3
 72
    12
 73
     8
 74
     0
 42
0.00000001
 43
0.00000001
 40
0.0
 40
0.0
 40
0.0
 40
0.0
 40
0.25
 40
0.25
 40
0.5
 40
0.5
 40
1.0
 40
1.0
 40
1.0
 40
1.0
 10
99.58346222591294
 20
59.88874641008732
 30
0.0
 10
99.59773952766764
 20
59.89044055491321
 30
0.0
 10
99.60945463508904
 20
59.89236676446932
 30
0.0
 10
99.62853799287922
 20
59.89528222575983
 30
0.0
 10
99.63590624324799
 20
59.89627147749422
 30
0.0
 10
99.65265700619628
 20
59.89573216504161
 30
0.0
 10
99.6566855306178
 20
59.89069653319881
 30
0.0
 10
99.6566855306178
 20
59.87538046201971
 30
0.0
  0
LINE
  5
DB
330
1F
100
AcDbEntity
  8
0
  6
Continuous
 62
     7
370
    25
100
AcDbLine
 10
99.6566855306
 20
59.875380462
 30
0.0
 11
99.6566855306
 21
56.7711317731
 31
0.0
  0
LINE
  5
DC
330
1F
100
AcDbEntity
  8
0
  6
Continuous
 62
     7
370
    25
100
AcDbLine
 10
99.4066855306
 20
56.7711317731
 30
0.0
 11
99.6566855306
 21
56.7711317731
 31
0.0
  0
SPLINE
  5
DD
330
1F
100
AcDbEntity
  8
0
  6
Continuous
 62
     7
370
    25
100
AcDbSpline
210
0.0
220
0.0
230
1.0
 70
    24
 71
     3
 72
    14
 73
    10
 74
     0
 42
0.00000001
 43
0.00000001
 40
0.0
 40
0.0
 40
0.0
 40
0.0
 40
0.25
 40
0.25
 40
0.5
 40
0.5
 40
0.75
 40
0.75
 40
1.0
 40
1.0
 40
1.0
 40
1.0
 10
99.9066855306178
 20
62.5211317730843
 30
0.0
 10
99.9066855306178
 20
62.30583554256171
 30
0.0
 10
99.9066855306178
 20
62.09053818141849
 30
0.0
 10
99.9066855306178
 20
61.66080441682246
 30
0.0
 10
99.9066855306178
 20
61.44636574742599
 30
0.0
 10
99.9066855306178
 20
61.0192759437159
 30
0.0
 10
99.9066855306178
 20
60.80662253228132
 30
0.0
 10
99.9066855306178
 20
60.38416582976894
 30
0.0
 10
99.9066855306178
 20
60.17436025288367
 30
0.0
 10
99.9066855306178
 20
59.96661326584952
 30
0.0
  0
SPLINE
  5
DE
330
1F
100
AcDbEntity
  8
0
  6
Continuous
 62
     7
370
    25
100
AcDbSpline
210
0.0
220
0.0
230
1.0
 70
    24
 71
     3
 72
    14
 73
    10
 74
     0
 42
0.00000001
 43
0.00000001
 40
0.0
 40
0.0
 40
0.0
 40
0.0
 40
0.25
 40
0.25
 40
0.5
 40
0.5
 40
0.75
 40
0.75
 40
1.0
 40
1.0
 40
1.0
 40
1.0
 10
99.9066855306178
 20
62.5211317730843
 30
0.0
 10
99.9066855306178
 20
62.73642800360689
 30
0.0
 10
99.9066855306178
 20
62.95172536475012
 30
0.0
 10
99.9066855306178
 20
63.38145912934615
 30
0.0
 10
99.9066855306178
 20
63.59589779874261
 30
0.0
 10
99.9066855306178
 20
64.0229876024527
 30
0.0
 10
99.9066855306178
 20
64.23564101388727
 30
0.0
 10
99.9066855306178
 20
64.65809771639967
 30
0.0
 10
99.9066855306178
 20
64.86790329328493
 30
0.0
 10
99.9066855306178
 20
65.07565028031907
 30
0.0
  0
LINE
  5
DF
330
1F
100
AcDbEntity
  8
0
  6
Continuous
 62
     7
370
    25
100
AcDbLine
 10
99.9066855306
 20
68.072855911
 30
0.0
 11
99.9066855306
 21
65.0756502803
 31
0.0
  0
SPLINE
  5
E0
330
1F
100
AcDbEntity
  8
0
  6
Continuous
 62
     7
370
    25
100
AcDbSpline
210
0.0
220
0.0
230
1.0
 70
     8
 71
     3
 72
    14
 73
    10
 74
     0
 42
0.00000001
 43
0.00000001
 40
0.0
 40
0.0
 40
0.0
 40
0.0
 40
0.25
 40
0.25
 40
0.5
 40
0.5
 40
0.75
 40
0.75
 40
1.0
 40
1.0
 40
1.0
 40
1.0
 10
99.9066855306178
 20
68.07285591101534
 30
0.0
 10
99.9066855306178
 20
68.12813468764092
 30
0.0
 10
99.89713696638167
 20
68.18111336580716
 30
0.0
 10
99.86034684825684
 20
68.28285483353334
 30
0.0
 10
99.83279580096868
 20
68.33189910725575
 30
0.0
 10
99.75779271339852
 20
68.42134715222396
 30
0.0
 10
99.70961233320654
 20
68.46322172054855
 30
0.0
 10
99.58264895542972
 20
68.53009334875223
 30
0.0
 10
99.49862647534093
 20
68.55561453170499
 30
0.0
 10
99.4066855306178
 20
68.55561453170499
 30
0.0
  0
LINE
  5
E1
330
1F
100
AcDbEntity
  8
0
  6
Continuous
 62
     7
370
    25
100
AcDbLine
 10
99.1566855306
 20
68.5556145317
 30
0.0
 11
99.4066855306
 21
68.5556145317
 31
0.0
  0
SPLINE
  5
E2
330
1F
100
AcDbEntity
  8
0
  6
Continuous
 62
     7
370
    25
100
AcDbSpline
210
0.0
220
0.0
230
1.0
 70
     8
 71
     3
 72
    12
 73
     8
 74
     0
 42
0.00000001
 43
0.00000001
 40
0.0
 40
0.0
 40
0.0
 40
0.0
 40
0.4999999999999991
 40
0.4999999999999991
 40
0.7499999999999996
 40
0.7499999999999996
 40
1.0
 40
1.0
 40
1.0
 40
1.0
 10
98.5249720193151
 20
68.88941826178159
 30
0.0
 10
98.57049589221704
 20
68.82073627823063
 30
0.0
 10
98.6328646651458
 20
68.74840400649508
 30
0.0
 10
98.7831782333028
 20
68.64907025474592
 30
0.0
 10
98.84241436622604
 20
68.61816524282969
 30
0.0
 10
98.9863945549643
 20
68.5707133846432
 30
0.0
 10
99.0698797535012
 20
68.55561453170499
 30
0.0
 10
99.1566855306178
 20
68.55561453170499
 30
0.0
  0
SPLINE
  5
E3
330
1F
100
AcDbEntity
  8
0
  6
Continuous
 62
     7
370
    25
100
AcDbSpline
210
0.0
220
0.0
230
1.0
 70
     8
 71
     3
 72
     8
 73
     4
 74
     0
 42
0.00000001
 43
0.00000001
 40
0.0
 40
0.0
 40
0.0
 40
0.0
 40
1.0
 40
1.0
 40
1.0
 40
1.0
 10
88.1566855306178
 20
56.48664901446361
 30
0.0
 10
88.05619527760066
 20
56.48664901446361
 30
0.0
 10
87.95731454007343
 20
56.49311494188169
 30
0.0
 10
87.85989912096207
 20
56.50563079956627
 30
0.0
  0
LINE
  5
E4
330
1F
100
AcDbEntity
  8
0
  6
Continuous
 62
     7
370
    25
100
AcDbLine
 10
99.4066855306
 20
56.4866490145
 30
0.0
 11
88.1566855306
 21
56.4866490145
 31
0.0
  0
SPLINE
  5
E5
330
1F
100
AcDbEntity
  8
0
  6
Continuous
 62
     7
370
    25
100
AcDbSpline
210
0.0
220
0.0
230
1.0
 70
     8
 71
     3
 72
    14
 73
    10
 74
     0
 42
0.00000001
 43
0.00000001
 40
0.0
 40
0.0
 40
0.0
 40
0.0
 40
0.25
 40
0.25
 40
0.5
 40
0.5
 40
0.75
 40
0.75
 40
1.0
 40
1.0
 40
1.0
 40
1.0
 10
99.4066855306178
 20
56.4866490144636
 30
0.0
 10
99.49848792523073
 20
56.48664901446361
 30
0.0
 10
99.58265186414617
 20
56.51215920840273
 30
0.0
 10
99.70974754471753
 20
56.57912557619221
 30
0.0
 10
99.75787001396868
 20
56.62094020879366
 30
0.0
 10
99.83318779374744
 20
56.7109007264752
 30
0.0
 10
99.86056400684078
 20
56.75990771857489
 30
0.0
 10
99.89712585746291
 20
56.86122156911418
 30
0.0
 10
99.9066855306178
 20
56.91409018576479
 30
0.0
 10
99.9066855306178
 20
56.96940763515326
 30
0.0
  0
LINE
  5
E6
330
1F
100
AcDbEntity
  8
0
  6
Continuous
 62
     7
370
    25
100
AcDbLine
 10
99.9066855306
 20
59.9666132658
 30
0.0
 11
99.9066855306
 21
56.9694076352
 31
0.0
  0
LINE
  5
E7
330
1F
100
AcDbEntity
  8
0
  6
Continuous
 62
     7
370
    25
100
AcDbLine
 10
101.6566855306
 20
55.5211317731
 30
0.0
 11
101.6566855306
 21
69.5211317731
 31
0.0
  0
SPLINE
  5
E8
330
1F
100
AcDbEntity
  8
0
  6
Continuous
 62
     7
370
    25
100
AcDbSpline
210
0.0
220
0.0
230
1.0
 70
    24
 71
     3
 72
    10
 73
     6
 74
     0
 42
0.00000001
 43
0.00000001
 40
0.0
 40
0.0
 40
0.0
 40
0.0
 40
0.5
 40
0.5
 40
1.0
 40
1.0
 40
1.0
 40
1.0
 10
99.65840528827212
 20
62.5211317730843
 30
0.0
 10
99.61743689447586
 20
62.5211317730843
 30
0.0
 10
99.57347238473135
 20
62.5211317730843
 30
0.0
 10
99.48242574498752
 20
62.5211317730843
 30
0.0
 10
99.44947730440667
 20
62.5211317730843
 30
0.0
 10
99.4066855306178
 20
62.5211317730843
 30
0.0
  0
SPLINE
  5
E9
330
1F
100
AcDbEntity
  8
0
  6
Continuous
 62
     7
370
    25
100
AcDbSpline
210
0.0
220
0.0
230
1.0
 70
     8
 71
     3
 72
    12
 73
     8
 74
     0
 42
0.00000001
 43
0.00000001
 40
0.0
 40
0.0
 40
0.0
 40
0.0
 40
0.25
 40
0.25
 40
0.5
 40
0.5
 40
1.0
 40
1.0
 40
1.0
 40
1.0
 10
99.65840528827212
 20
62.5211317730843
 30
0.0
 10
99.64816318982305
 20
62.73982085929065
 30
0.0
 10
99.64062397826973
 20
62.95820366070399
 30
0.0
 10
99.62629446264538
 20
63.39647381273173
 30
0.0
 10
99.61950415857436
 20
63.6163611633461
 30
0.0
 10
99.59327130812107
 20
64.28145571717137
 30
0.0
 10
99.58358859143277
 20
64.71464342224341
 30
0.0
 10
99.58346222591294
 20
65.15351713608128
 30
0.0
  0
SPLINE
  5
EA
330
1F
100
AcDbEntity
  8
0
  6
Continuous
 62
     7
370
    25
100
AcDbSpline
210
0.0
220
0.0
230
1.0
 70
     8
 71
     3
 72
    12
 73
     8
 74
     0
 42
0.00000001
 43
0.00000001
 40
0.0
 40
0.0
 40
0.0
 40
0.0
 40
0.25
 40
0.25
 40
0.5
 40
0.5
 40
1.0
 40
1.0
 40
1.0
 40
1.0
 10
99.65840528827212
 20
62.5211317730843
 30
0.0
 10
99.64816318982305
 20
62.30244268687795
 30
0.0
 10
99.64062397826972
 20
62.0840598854646
 30
0.0
 10
99.62629446264538
 20
61.64578973343687
 30
0.0
 10
99.61950415857436
 20
61.4259023828225
 30
0.0
 10
99.59327130812107
 20
60.76080782899723
 30
0.0
 10
99.58358859143277
 20
60.32762012392519
 30
0.0
 10
99.58346222591294
 20
59.88874641008732
 30
0.0
  0
SPLINE
  5
EB
330
1F
100
AcDbEntity
  8
0
  6
Continuous
 62
     7
370
    25
100
AcDbSpline
210
0.0
220
0.0
230
1.0
 70
    24
 71
     3
 72
    10
 73
     6
 74
     0
 42
0.00000001
 43
0.00000001
 40
0.0
 40
0.0
 40
0.0
 40
0.0
 40
0.5
 40
0.5
 40
1.0
 40
1.0
 40
1.0
 40
1.0
 10
92.1566855306178
 20
70.02285153073862
 30
0.0
 10
92.1566855306178
 20
69.98188313694236
 30
0.0
 10
92.1566855306178
 20
69.93791862719783
 30
0.0
 10
92.1566855306178
 20
69.84687198745401
 30
0.0
 10
92.1566855306178
 20
69.81392354687316
 30
0.0
 10
92.1566855306178
 20
69.7711317730843
 30
0.0
  0
SPLINE
  5
EC
330
1F
100
AcDbEntity
  8
0
  6
Continuous
 62
     7
370
    25
100
AcDbSpline
210
0.0
220
0.0
230
1.0
 70
     8
 71
     3
 72
    12
 73
     8
 74
     0
 42
0.00000001
 43
0.00000001
 40
0.0
 40
0.0
 40
0.0
 40
0.0
 40
0.25
 40
0.25
 40
0.5
 40
0.5
 40
1.0
 40
1.0
 40
1.0
 40
1.0
 10
92.1566855306178
 20
70.02285153073862
 30
0.0
 10
91.93799644441144
 20
70.01260943228955
 30
0.0
 10
91.7196136429981
 20
70.00507022073623
 30
0.0
 10
91.28134349097037
 20
69.99074070511186
 30
0.0
 10
91.061456140356
 20
69.98395040104086
 30
0.0
 10
90.39636158653073
 20
69.95771755058757
 30
0.0
 10
89.96317388145869
 20
69.94803483389927
 30
0.0
 10
89.52430016762082
 20
69.94790846837942
 30
0.0
  0
SPLINE
  5
ED
330
1F
100
AcDbEntity
  8
0
  6
Continuous
 62
     7
370
    25
100
AcDbSpline
210
0.0
220
0.0
230
1.0
 70
     8
 71
     3
 72
    12
 73
     8
 74
     0
 42
0.00000001
 43
0.00000001
 40
0.0
 40
0.0
 40
0.0
 40
0.0
 40
0.25
 40
0.25
 40
0.5
 40
0.5
 40
1.0
 40
1.0
 40
1.0
 40
1.0
 10
92.1566855306178
 20
70.02285153073862
 30
0.0
 10
92.37537461682416
 20
70.01260943228954
 30
0.0
 10
92.5937574182375
 20
70.00507022073621
 30
0.0
 10
93.03202757026523
 20
69.99074070511186
 30
0.0
 10
93.25191492087961
 20
69.98395040104084
 30
0.0
 10
93.91700947470488
 20
69.95771755058757
 30
0.0
 10
94.35019717977693
 20
69.94803483389927
 30
0.0
 10
94.78907089361478
 20
69.94790846837944
 30
0.0
  0
LINE
  5
EE
330
1F
100
AcDbEntity
  8
0
  6
Continuous
 62
     7
370
    25
100
AcDbLine
 10
97.9838628172
 20
59.6133498982
 30
0.0
 11
97.7484658795
 21
59.5291579642
 31
0.0
  0
LINE
  5
EF
330
1F
100
AcDbEntity
  8
0
  6
Continuous
 62
     7
370
    25
100
AcDbLine
 10
97.7484658795
 20
59.5291579642
 30
0.0
 11
96.7773664899
 21
62.2443090703
 31
0.0
  0
SPLINE
  5
F0
330
1F
100
AcDbEntity
  8
0
  6
Continuous
 62
     7
370
    25
100
AcDbSpline
210
0.0
220
0.0
230
1.0
 70
     8
 71
     3
 72
    10
 73
     6
 74
     0
 42
0.00000001
 43
0.00000001
 40
0.0
 40
0.0
 40
0.0
 40
0.0
 40
0.5
 40
0.5
 40
1.0
 40
1.0
 40
1.0
 40
1.0
 10
96.77736648992344
 20
62.24430907033411
 30
0.0
 10
96.77736648992344
 20
62.24430907033411
 30
0.0
 10
96.80238399735724
 20
62.25489000086452
 30
0.0
 10
96.8876008718679
 20
62.29042479192876
 30
0.0
 10
96.9482904583546
 20
62.31550231012309
 30
0.0
 10
97.00858729830678
 20
62.34017727772763
 30
0.0
  0
SPLINE
  5
F1
330
1F
100
AcDbEntity
  8
0
  6
Continuous
 62
     7
370
    25
100
AcDbSpline
210
0.0
220
0.0
230
1.0
 70
     8
 71
     3
 72
    10
 73
     6
 74
     0
 42
0.00000001
 43
0.00000001
 40
0.0
 40
0.0
 40
0.0
 40
0.0
 40
0.5
 40
0.5
 40
1.0
 40
1.0
 40
1.0
 40
1.0
 10
95.8661605686475
 20
62.244309070334
 30
0.0
 10
95.8661605686475
 20
62.244309070334
 30
0.0
 10
95.84114306121343
 20
62.25489000086407
 30
0.0
 10
95.7559261867025
 20
62.2904247919284
 30
0.0
 10
95.69523660021656
 20
62.31550231012212
 30
0.0
 10
95.63493976026403
 20
62.34017727772707
 30
0.0
  0
LINE
  5
F2
330
1F
100
AcDbEntity
  8
0
  6
Continuous
 62
     7
370
    25
100
AcDbLine
 10
95.8661605686
 20
62.2443090703
 30
0.0
 11
94.8952874808
 21
59.5297906939
 31
0.0
  0
LINE
  5
F3
330
1F
100
AcDbEntity
  8
0
  6
Continuous
 62
     7
370
    25
100
AcDbLine
 10
94.6598905431
 20
59.6139826278
 30
0.0
 11
94.8952874808
 21
59.5297906939
 31
0.0
  0
SPLINE
  5
F4
330
1F
100
AcDbEntity
  8
0
  6
Continuous
 62
     7
370
    25
100
AcDbSpline
210
0.0
220
0.0
230
1.0
 70
     8
 71
     3
 72
    14
 73
    10
 74
     0
 42
0.00000001
 43
0.00000001
 40
0.0
 40
0.0
 40
0.0
 40
0.0
 40
0.25
 40
0.25
 40
0.5
 40
0.5
 40
0.75
 40
0.75
 40
1.0
 40
1.0
 40
1.0
 40
1.0
 10
96.77736648992345
 20
62.24430907033411
 30
0.0
 10
96.73591847062158
 20
62.32915151481517
 30
0.0
 10
96.66999241539438
 20
62.39930890411124
 30
0.0
 10
96.50815007593478
 20
62.49619884393393
 30
0.0
 10
96.41554581021884
 20
62.52122824411882
 30
0.0
 10
96.22689959526437
 20
62.52103474731735
 30
0.0
 10
96.13406273718677
 20
62.49546160102308
 30
0.0
 10
95.97445092839976
 20
62.39980777700763
 30
0.0
 10
95.90761576823135
 20
62.32916621256626
 30
0.0
 10
95.8661605686475
 20
62.244309070334
 30
0.0
  0
SPLINE
  5
F5
330
1F
100
AcDbEntity
  8
0
  6
Continuous
 62
     7
370
    25
100
AcDbSpline
210
0.0
220
0.0
230
1.0
 70
     8
 71
     3
 72
     8
 73
     4
 74
     0
 42
0.00000001
 43
0.00000001
 40
0.0
 40
0.0
 40
0.0
 40
0.0
 40
1.0
 40
1.0
 40
1.0
 40
1.0
 10
94.7112040378526
 20
70.2711317730843
 30
0.0
 10
94.7071988075956
 20
70.20567909264814
 30
0.0
 10
94.71302112052109
 20
70.14062952763992
 30
0.0
 10
94.72578192995162
 20
70.09434906715758
 30
0.0
  0
SPLINE
  5
F6
330
1F
100
AcDbEntity
  8
0
  6
Continuous
 62
     7
370
    25
100
AcDbSpline
210
0.0
220
0.0
230
1.0
 70
     8
 71
     3
 72
    12
 73
     8
 74
     0
 42
0.00000001
 43
0.00000001
 40
0.0
 40
0.0
 40
0.0
 40
0.0
 40
0.25
 40
0.25
 40
0.5
 40
0.5
 40
1.0
 40
1.0
 40
1.0
 40
1.0
 10
92.1566855306178
 20
70.02285153073862
 30
0.0
 10
92.37537461682416
 20
70.03309362918768
 30
0.0
 10
92.59255352183264
 20
70.04777634365108
 30
0.0
 10
93.02390255641306
 20
70.07959873430895
 30
0.0
 10
93.23807268598502
 20
70.0967384105034
 30
0.0
 10
93.87608729198482
 20
70.14220647623695
 30
0.0
 10
94.30561391532099
 20
70.13537362517282
 30
0.0
 10
94.72578192995162
 20
70.09434906715758
 30
0.0
  0
SPLINE
  5
F7
330
1F
100
AcDbEntity
  8
0
  6
Continuous
 62
     7
370
    25
100
AcDbSpline
210
0.0
220
0.0
230
1.0
 70
    24
 71
     3
 72
    10
 73
     6
 74
     0
 42
0.00000001
 43
0.00000001
 40
0.0
 40
0.0
 40
0.0
 40
0.0
 40
0.5
 40
0.5
 40
1.0
 40
1.0
 40
1.0
 40
1.0
 10
92.1566855306178
 20
70.02285153073862
 30
0.0
 10
92.1566855306178
 20
70.06381992453488
 30
0.0
 10
92.1566855306178
 20
70.10727537160682
 30
0.0
 10
92.1566855306178
 20
70.19636121682404
 30
0.0
 10
92.1566855306178
 20
70.22874844543938
 30
0.0
 10
92.1566855306178
 20
70.2711317730843
 30
0.0
  0
SPLINE
  5
F8
330
1F
100
AcDbEntity
  8
0
  6
Continuous
 62
     7
370
    25
100
AcDbSpline
210
0.0
220
0.0
230
1.0
 70
     8
 71
     3
 72
    12
 73
     8
 74
     0
 42
0.00000001
 43
0.00000001
 40
0.0
 40
0.0
 40
0.0
 40
0.0
 40
0.25
 40
0.25
 40
0.5
 40
0.5
 40
1.0
 40
1.0
 40
1.0
 40
1.0
 10
92.1566855306178
 20
70.02285153073862
 30
0.0
 10
91.93799644441144
 20
70.03309362918768
 30
0.0
 10
91.72081753940297
 20
70.04777634365108
 30
0.0
 10
91.28946850482254
 20
70.07959873430896
 30
0.0
 10
91.07529837525061
 20
70.09673841050342
 30
0.0
 10
90.43728376925078
 20
70.14220647623695
 30
0.0
 10
90.00775714591461
 20
70.13537362517282
 30
0.0
 10
89.58758913128398
 20
70.09434906715758
 30
0.0
  0
SPLINE
  5
F9
330
1F
100
AcDbEntity
  8
0
  6
Continuous
 62
     7
370
    25
100
AcDbSpline
210
0.0
220
0.0
230
1.0
 70
     8
 71
     3
 72
    10
 73
     6
 74
     0
 42
0.00000001
 43
0.00000001
 40
0.0
 40
0.0
 40
0.0
 40
0.0
 40
0.5
 40
0.5
 40
1.0
 40
1.0
 40
1.0
 40
1.0
 10
89.58758913128398
 20
70.09434906715758
 30
0.0
 10
89.59488111174161
 20
70.12290288912116
 30
0.0
 10
89.59877827436644
 20
70.1572629208536
 30
0.0
 10
89.60231447834816
 20
70.22030574538273
 30
0.0
 10
89.60216702338303
 20
70.24878465536096
 30
0.0
 10
89.60216702338303
 20
70.2711317730843
 30
0.0
  0
SPLINE
  5
FA
330
1F
100
AcDbEntity
  8
0
  6
Continuous
 62
     7
370
    25
100
AcDbSpline
210
0.0
220
0.0
230
1.0
 70
    24
 71
     3
 72
    10
 73
     6
 74
     0
 42
0.00000001
 43
0.00000001
 40
0.0
 40
0.0
 40
0.0
 40
0.0
 40
0.5
 40
0.5
 40
1.0
 40
1.0
 40
1.0
 40
1.0
 10
99.65840528827212
 20
62.5211317730843
 30
0.0
 10
99.69937368206838
 20
62.5211317730843
 30
0.0
 10
99.74282912914032
 20
62.5211317730843
 30
0.0
 10
99.83191497435756
 20
62.5211317730843
 30
0.0
 10
99.86430220297288
 20
62.5211317730843
 30
0.0
 10
99.9066855306178
 20
62.5211317730843
 30
0.0
  0
SPLINE
  5
FB
330
1F
100
AcDbEntity
  8
0
  6
Continuous
 62
     7
370
    25
100
AcDbSpline
210
0.0
220
0.0
230
1.0
 70
     8
 71
     3
 72
    10
 73
     6
 74
     0
 42
0.00000001
 43
0.00000001
 40
0.0
 40
0.0
 40
0.0
 40
0.0
 40
0.5
 40
0.5
 40
1.0
 40
1.0
 40
1.0
 40
1.0
 10
99.7299028246911
 20
59.95203537375048
 30
0.0
 10
99.75845664665466
 20
59.95932735420812
 30
0.0
 10
99.7928166783871
 20
59.96322451683293
 30
0.0
 10
99.85585950291623
 20
59.96676072081466
 30
0.0
 10
99.88433841289446
 20
59.96661326584952
 30
0.0
 10
99.9066855306178
 20
59.96661326584952
 30
0.0
  0
SPLINE
  5
FC
330
1F
100
AcDbEntity
  8
0
  6
Continuous
 62
     7
370
    25
100
AcDbSpline
210
0.0
220
0.0
230
1.0
 70
     8
 71
     3
 72
    14
 73
    10
 74
     0
 42
0.00000001
 43
0.00000001
 40
0.0
 40
0.0
 40
0.0
 40
0.0
 40
0.25
 40
0.25
 40
0.5
 40
0.5
 40
0.75
 40
0.75
 40
1.0
 40
1.0
 40
1.0
 40
1.0
 10
99.65840528827212
 20
62.5211317730843
 30
0.0
 10
99.66864738672118
 20
62.30244268687795
 30
0.0
 10
99.6833301011846
 20
62.08526378186946
 30
0.0
 10
99.71515249184246
 20
61.65391474728904
 30
0.0
 10
99.73229216803692
 20
61.4397446177171
 30
0.0
 10
99.76260421185928
 20
61.01440154705055
 30
0.0
 10
99.76847401004883
 20
60.80068412354987
 30
0.0
 10
99.76237945596856
 20
60.37454304055749
 30
0.0
 10
99.7504151036987
 20
60.16211938106579
 30
0.0
 10
99.7299028246911
 20
59.95203537375048
 30
0.0
  0
SPLINE
  5
FD
330
1F
100
AcDbEntity
  8
0
  6
Continuous
 62
     7
370
    25
100
AcDbSpline
210
0.0
220
0.0
230
1.0
 70
     8
 71
     3
 72
    14
 73
    10
 74
     0
 42
0.00000001
 43
0.00000001
 40
0.0
 40
0.0
 40
0.0
 40
0.0
 40
0.25
 40
0.25
 40
0.5
 40
0.5
 40
0.75
 40
0.75
 40
1.0
 40
1.0
 40
1.0
 40
1.0
 10
99.65840528827212
 20
62.5211317730843
 30
0.0
 10
99.66864738672118
 20
62.73982085929065
 30
0.0
 10
99.6833301011846
 20
62.95699976429914
 30
0.0
 10
99.71515249184246
 20
63.38834879887956
 30
0.0
 10
99.73229216803692
 20
63.6025189284515
 30
0.0
 10
99.76260421185928
 20
64.02786199911804
 30
0.0
 10
99.76847401004883
 20
64.24157942261873
 30
0.0
 10
99.76237945596856
 20
64.6677205056111
 30
0.0
 10
99.7504151036987
 20
64.8801441651028
 30
0.0
 10
99.7299028246911
 20
65.09022817241812
 30
0.0
  0
SPLINE
  5
FE
330
1F
100
AcDbEntity
  8
0
  6
Continuous
 62
     7
370
    25
100
AcDbSpline
210
0.0
220
0.0
230
1.0
 70
     8
 71
     3
 72
     8
 73
     4
 74
     0
 42
0.00000001
 43
0.00000001
 40
0.0
 40
0.0
 40
0.0
 40
0.0
 40
1.0
 40
1.0
 40
1.0
 40
1.0
 10
99.7299028246911
 20
65.09022817241812
 30
0.0
 10
99.77618328517342
 20
65.07746736298758
 30
0.0
 10
99.84123285018165
 20
65.0716450500621
 30
0.0
 10
99.9066855306178
 20
65.07565028031907
 30
0.0
  0
SPLINE
  5
FF
330
1F
100
AcDbEntity
  8
0
  6
Continuous
 62
     7
370
    25
100
AcDbSpline
210
0.0
220
0.0
230
1.0
 70
     8
 71
     3
 72
    12
 73
     8
 74
     0
 42
0.00000001
 43
0.00000001
 40
0.0
 40
0.0
 40
0.0
 40
0.0
 40
0.25
 40
0.25
 40
0.5
 40
0.5
 40
1.0
 40
1.0
 40
1.0
 40
1.0
 10
89.58758913128398
 20
70.09434906715758
 30
0.0
 10
89.58394314105516
 20
70.08007215617579
 30
0.0
 10
89.57938660812273
 20
70.06730961992626
 30
0.0
 10
89.56876799413877
 20
70.04616286704739
 30
0.0
 10
89.56270591308726
 20
70.03777865041805
 30
0.0
 10
89.54273465368628
 20
70.02121783519381
 30
0.0
 10
89.52738386071707
 20
70.0211317730843
 30
0.0
 10
89.5109342195532
 20
70.0211317730843
 30
0.0
  0
SPLINE
  5
100
330
1F
100
AcDbEntity
  8
0
  6
Continuous
 62
     7
370
    25
100
AcDbSpline
210
0.0
220
0.0
230
1.0
 70
     8
 71
     3
 72
    15
 73
    11
 74
     0
 42
0.00000001
 43
0.00000001
 40
0.0
 40
0.0
 40
0.0
 40
0.0
 40
0.0425877399909041
 40
0.1028282325346875
 40
0.1864706729280299
 40
0.2956205441869006
 40
0.4311891005861807
 40
0.5936297641565581
 40
0.7831876993469636
 40
1.0
 40
1.0
 40
1.0
 40
1.0
 10
99.6566855306178
 20
65.16688308414889
 30
0.0
 10
99.65669132371994
 20
65.16406376066838
 30
0.0
 10
99.65670531118334
 20
65.15725649523225
 30
0.0
 10
99.65719701201509
 20
65.14871629889136
 30
0.0
 10
99.65882436597367
 20
65.13941861636097
 30
0.0
 10
99.66264951435775
 20
65.12961088073395
 30
0.0
 10
99.67002182439857
 20
65.11928523468485
 30
0.0
 10
99.68263981337539
 20
65.10881852323288
 30
0.0
 10
99.70188401557955
 20
65.0984852879922
 30
0.0
 10
99.72015476194983
 20
65.09310091695048
 30
0.0
 10
99.7299028246911
 20
65.09022817241812
 30
0.0
  0
SPLINE
  5
101
330
1F
100
AcDbEntity
  8
0
  6
Continuous
 62
     7
370
    25
100
AcDbSpline
210
0.0
220
0.0
230
1.0
 70
     8
 71
     3
 72
    12
 73
     8
 74
     0
 42
0.00000001
 43
0.00000001
 40
0.0
 40
0.0
 40
0.0
 40
0.0
 40
0.25
 40
0.25
 40
0.5
 40
0.5
 40
1.0
 40
1.0
 40
1.0
 40
1.0
 10
99.7299028246911
 20
59.95203537375048
 30
0.0
 10
99.71562591370929
 20
59.94838938352166
 30
0.0
 10
99.70286337745976
 20
59.94383285058922
 30
0.0
 10
99.68171662458089
 20
59.93321423660527
 30
0.0
 10
99.67333240795155
 20
59.92715215555375
 30
0.0
 10
99.65677159272731
 20
59.90718089615278
 30
0.0
 10
99.6566855306178
 20
59.89183010318357
 30
0.0
 10
99.6566855306178
 20
59.87538046201971
 30
0.0
  0
SPLINE
  5
102
330
1F
100
AcDbEntity
  8
0
  6
Continuous
 62
     7
370
    25
100
AcDbSpline
210
0.0
220
0.0
230
1.0
 70
     8
 71
     3
 72
    14
 73
    10
 74
     0
 42
0.00000001
 43
0.00000001
 40
0.0
 40
0.0
 40
0.0
 40
0.0
 40
0.2455893235675696
 40
0.4556181963142487
 40
0.6303106213393677
 40
0.7701164303669036
 40
0.8759901151610805
 40
0.9502659312389182
 40
1.0
 40
1.0
 40
1.0
 40
1.0
 10
94.72578192995162
 20
70.09434906715758
 30
0.0
 10
94.72907350742487
 20
70.08338402784229
 30
0.0
 10
94.73518005379097
 20
70.06304164747013
 30
0.0
 10
94.74710304405018
 20
70.04288963499366
 30
0.0
 10
94.7590321265647
 20
70.0307700755228
 30
0.0
 10
94.77047933392883
 20
70.0245642522904
 30
0.0
 10
94.78136485897564
 20
70.02194455331656
 30
0.0
 10
94.79105212076671
 20
70.02116435897153
 30
0.0
 10
94.79917797436002
 20
70.02114110076865
 30
0.0
 10
94.8024368416824
 20
70.0211317730843
 30
0.0
  0
LINE
  5
103
330
1F
100
AcDbEntity
  8
0
  6
Continuous
 62
     7
370
    25
100
AcDbLine
 10
99.4066855306
 20
56.7711317731
 30
0.0
 11
99.4066855306
 21
56.5211317731
 31
0.0
  0
LINE
  5
104
330
1F
100
AcDbEntity
  8
0
  6
Continuous
 62
     7
370
    25
100
AcDbLine
 10
99.4066855306
 20
56.5211317731
 30
0.0
 11
88.1566855306
 21
56.5211317731
 31
0.0
  0
LINE
  5
105
330
1F
100
AcDbEntity
  8
0
  6
Continuous
 62
     7
370
    25
100
AcDbLine
 10
88.1566855306
 20
56.7711317731
 30
0.0
 11
88.1566855306
 21
56.5211317731
 31
0.0
  0
LINE
  5
106
330
1F
100
AcDbEntity
  8
0
  6
Continuous
 62
     7
370
    25
100
AcDbLine
 10
94.2592865848
 20
59.4779489048
 30
0.0
 11
94.1387545858
 21
59.2589237071
 31
0.0
  0
LINE
  5
107
330
1F
100
AcDbEntity
  8
0
  6
Continuous
 62
     7
370
    25
100
AcDbLine
 10
94.1387545858
 20
59.2589237071
 30
0.0
 11
94.0989898288
 21
59.2808066946
 31
0.0
  0
LINE
  5
108
330
1F
100
AcDbEntity
  8
0
  6
Continuous
 62
     7
370
    25
100
AcDbLine
 10
94.0989898288
 20
59.2808066946
 30
0.0
 11
93.4916770811
 21
59.9003729406
 31
0.0
  0
LINE
  5
109
330
1F
100
AcDbEntity
  8
0
  6
Continuous
 62
     7
370
    25
100
AcDbLine
 10
86.1566855306
 20
69.7711317731
 30
0.0
 11
86.4066855306
 21
69.7711317731
 31
0.0
  0
ARC
  5
10A
330
1F
100
AcDbEntity
  8
0
  6
Continuous
 62
     7
370
    25
100
AcDbCircle
 10
86.4066855306
 20
69.7711317731
 30
0.0
 40
0.25
100
AcDbArc
 50
90.0
 51
180.0
  0
LINE
  5
10B
330
1F
100
AcDbEntity
  8
0
  6
Continuous
 62
     7
370
    25
100
AcDbLine
 10
98.3883880215
 20
59.4795153324
 30
0.0
 11
98.5124279528
 21
59.2624575165
 31
0.0
  0
SPLINE
  5
10C
330
1F
100
AcDbEntity
  8
0
  6
Continuous
 62
     7
370
    25
100
AcDbSpline
210
0.0
220
0.0
230
1.0
 70
     8
 71
     3
 72
    10
 73
     6
 74
     0
 42
0.00000001
 43
0.00000001
 40
0.0
 40
0.0
 40
0.0
 40
0.0
 40
0.5
 40
0.5
 40
1.0
 40
1.0
 40
1.0
 40
1.0
 10
98.5124279528228
 20
59.26245751654071
 30
0.0
 10
98.37799340523087
 20
59.18563350548078
 30
0.0
 10
98.21232803806934
 20
59.17138401499533
 30
0.0
 10
97.92354859635932
 20
59.26947007003959
 30
0.0
 10
97.80066580791856
 20
59.38320926435722
 30
0.0
 10
97.74846587950503
 20
59.52915796424371
 30
0.0
  0
ARC
  5
10D
330
1F
100
AcDbEntity
  8
0
  6
Continuous
 62
     7
370
    25
100
AcDbCircle
 10
99.1566855306
 20
69.5211317731
 30
0.0
 40
1.0
100
AcDbArc
 50
180.0
 51
270.0
  0
LINE
  5
10E
330
1F
100
AcDbEntity
  8
0
  6
Continuous
 62
     7
370
    25
100
AcDbLine
 10
99.1566855306
 20
68.5211317731
 30
0.0
 11
99.1566855306
 21
68.2711317731
 31
0.0
  0
LINE
  5
10F
330
1F
100
AcDbEntity
  8
0
  6
Continuous
 62
     7
370
    25
100
AcDbLine
 10
98.1566855306
 20
69.5211317731
 30
0.0
 11
97.9066855306
 21
69.5211317731
 31
0.0
  0
ARC
  5
110
330
1F
100
AcDbEntity
  8
0
  6
Continuous
 62
     7
370
    25
100
AcDbCircle
 10
99.4066855306
 20
56.7711317731
 30
0.0
 40
0.25
100
AcDbArc
 50
270.0
 51
0.0
  0
LINE
  5
111
330
1F
100
AcDbEntity
  8
0
  6
Continuous
 62
     7
370
    25
100
AcDbLine
 10
86.4066855306
 20
58.5211317731
 30
0.0
 11
86.1566855306
 21
58.5211317731
 31
0.0
  0
LINE
  5
112
330
1F
100
AcDbEntity
  8
0
  6
Continuous
 62
     7
370
    25
100
AcDbLine
 10
86.1566855306
 20
58.5211317731
 30
0.0
 11
86.1566855306
 21
69.7711317731
 31
0.0
  0
SPLINE
  5
113
330
1F
100
AcDbEntity
  8
0
  6
Continuous
 62
     7
370
    25
100
AcDbSpline
210
0.0
220
0.0
230
1.0
 70
     8
 71
     3
 72
    10
 73
     6
 74
     0
 42
0.00000001
 43
0.00000001
 40
0.0
 40
0.0
 40
0.0
 40
0.0
 40
0.5
 40
0.5
 40
1.0
 40
1.0
 40
1.0
 40
1.0
 10
94.89528748079854
 20
59.52979069391945
 30
0.0
 10
94.8436705627982
 20
59.38547206545997
 30
0.0
 10
94.72309033872824
 20
59.27235280378824
 30
0.0
 10
94.43652271525309
 20
59.17251305357032
 30
0.0
 10
94.27291509045901
 20
59.18509369126999
 30
0.0
 10
94.1387545857815
 20
59.25892370713397
 30
0.0
  0
LINE
  5
114
330
1F
100
AcDbEntity
  8
0
  6
Continuous
 62
     7
370
    25
100
AcDbLine
 10
94.0989898288
 20
59.2808066946
 30
0.0
 11
94.7128533328
 21
58.110578074
 31
0.0
  0
LINE
  5
115
330
1F
100
AcDbEntity
  8
0
  6
Continuous
 62
     7
370
    25
100
AcDbLine
 10
94.7128533328
 20
58.110578074
 30
0.0
 11
94.4914644314
 21
57.9944447268
 31
0.0
  0
ARC
  5
116
330
1F
100
AcDbEntity
  8
0
  6
Continuous
 62
     7
370
    25
100
AcDbCircle
 10
97.9066855306
 20
69.7711317731
 30
0.0
 40
0.25
100
AcDbArc
 50
0.0
 51
90.0
  0
LINE
  5
117
330
1F
100
AcDbEntity
  8
0
  6
Continuous
 62
     7
370
    25
100
AcDbLine
 10
97.9066855306
 20
69.7711317731
 30
0.0
 11
98.1566855306
 21
69.7711317731
 31
0.0
  0
ARC
  5
118
330
1F
100
AcDbEntity
  8
0
  6
Continuous
 62
     7
370
    25
100
AcDbCircle
 10
99.4066855306
 20
68.2711317731
 30
0.0
 40
0.25
100
AcDbArc
 50
0.0
 51
90.0
  0
LINE
  5
119
330
1F
100
AcDbEntity
  8
0
  6
Continuous
 62
     7
370
    25
100
AcDbLine
 10
99.4066855306
 20
68.5211317731
 30
0.0
 11
99.4066855306
 21
68.2711317731
 31
0.0
  0
SPLINE
  5
11A
330
1F
100
AcDbEntity
  8
0
  6
Continuous
 62
     7
370
    25
100
AcDbSpline
210
0.0
220
0.0
230
1.0
 70
     8
 71
     3
 72
    20
 73
    16
 74
     0
 42
0.00000001
 43
0.00000001
 40
0.0
 40
0.0
 40
0.0
 40
0.0
 40
0.2500000000000003
 40
0.2500000000000003
 40
0.3750000000000002
 40
0.3750000000000002
 40
0.5000000000000002
 40
0.5000000000000002
 40
0.6250000000000002
 40
0.6250000000000002
 40
0.7500000000000001
 40
0.7500000000000001
 40
0.8750000000000001
 40
0.8750000000000001
 40
1.0
 40
1.0
 40
1.0
 40
1.0
 10
94.81587990388397
 20
58.09284256283569
 30
0.0
 10
95.02273512026184
 20
58.2764473998886
 30
0.0
 10
95.25908484690987
 20
58.41688349971315
 30
0.0
 10
95.64596717016961
 20
58.56108808372151
 30
0.0
 10
95.77767595870303
 20
58.59697727164155
 30
0.0
 10
96.04638434122771
 20
58.64530716697188
 30
0.0
 10
96.18476604221979
 20
58.6576721235549
 30
0.0
 10
96.45892568995623
 20
58.65766238637027
 30
0.0
 10
96.59469535747188
 20
58.64560345611777
 30
0.0
 10
96.86362967905235
 20
58.59751823270982
 30
0.0
 10
96.99796248213065
 20
58.56090969408937
 30
0.0
 10
97.25425209205399
 20
58.46543815198087
 30
0.0
 10
97.37707365960703
 20
58.40665057279079
 30
0.0
 10
97.61185497440611
 20
58.26652470986296
 30
0.0
 10
97.72422972403771
 20
58.18463594777053
 30
0.0
 10
97.82764715468682
 20
58.09284256283567
 30
0.0
  0
LINE
  5
11B
330
1F
100
AcDbEntity
  8
0
  6
Continuous
 62
     7
370
    25
100
AcDbLine
 10
97.8276471547
 20
58.0928425628
 30
0.0
 11
97.6616907836
 21
57.9058706856
 31
0.0
  0
LINE
  5
11C
330
1F
100
AcDbEntity
  8
0
  6
Continuous
 62
     7
370
    25
100
AcDbLine
 10
94.8158799039
 20
58.0928425628
 30
0.0
 11
94.981836275
 21
57.9058706856
 31
0.0
  0
SPLINE
  5
11D
330
1F
100
AcDbEntity
  8
0
  6
Continuous
 62
     7
370
    25
100
AcDbSpline
210
0.0
220
0.0
230
1.0
 70
     8
 71
     3
 72
    23
 73
    19
 74
     0
 42
0.00000001
 43
0.00000001
 40
0.0
 40
0.0
 40
0.0
 40
0.0
 40
0.0000221251499261
 40
0.0000221251499261
 40
0.0000221251499261
 40
0.0000448428854419
 40
0.0000448428854419
 40
0.0000448428854419
 40
0.000067774629955
 40
0.000067774629955
 40
0.000067774629955
 40
0.0000902663208602
 40
0.0000902663208602
 40
0.0000902663208602
 40
0.000111841557339
 40
0.000111841557339
 40
0.000111841557339
 40
0.0001193253350659
 40
0.0001193253350659
 40
0.0001193253350659
 40
0.0001193253350659
 10
97.82764715468682
 20
58.09284256283566
 30
0.0
 10
97.83316286244181
 20
58.08794681671272
 30
0.0
 10
97.83961649673705
 20
58.08396094252168
 30
0.0
 10
97.84644370899544
 20
58.08117158149845
 30
0.0
 10
97.85345307795592
 20
58.07830779759432
 30
0.0
 10
97.86105271013994
 20
58.07662148096473
 30
0.0
 10
97.86861417623545
 20
58.0762255744601
 30
0.0
 10
97.8762456073231
 20
58.07582600469822
 30
0.0
 10
97.88405181052786
 20
58.07672953428111
 30
0.0
 10
97.89138614339635
 20
58.07887568381328
 30
0.0
 10
97.89858005720814
 20
58.08098074436049
 30
0.0
 10
97.90551958206359
 20
58.08434229564312
 30
0.0
 10
97.91160266222141
 20
58.08872177182552
 30
0.0
 10
97.91743969370462
 20
58.09292410677647
 30
0.0
 10
97.9226469702901
 20
58.09818273037871
 30
0.0
 10
97.92674453767285
 20
58.10409377911135
 30
0.0
 10
97.92818435380057
 20
58.10617082202538
 30
0.0
 10
97.9294997167362
 20
58.10834002118872
 30
0.0
 10
97.93067372576297
 20
58.1105780740374
 30
0.0
  0
LINE
  5
11E
330
1F
100
AcDbEntity
  8
0
  6
Continuous
 62
     7
370
    25
100
AcDbLine
 10
97.9306737258
 20
58.110578074
 30
0.0
 11
98.1520626271
 21
57.9944447268
 31
0.0
  0
LINE
  5
11F
330
1F
100
AcDbEntity
  8
0
  6
Continuous
 62
     7
370
    25
100
AcDbLine
 10
99.1566855306
 20
68.5211317731
 30
0.0
 11
99.4066855306
 21
68.5211317731
 31
0.0
  0
LINE
  5
120
330
1F
100
AcDbEntity
  8
0
  6
Continuous
 62
     7
370
    25
100
AcDbLine
 10
98.1566855306
 20
69.7711317731
 30
0.0
 11
98.1566855306
 21
69.5211317731
 31
0.0
  0
ARC
  5
121
330
1F
100
AcDbEntity
  8
0
  6
Continuous
 62
     7
370
    25
100
AcDbCircle
 10
88.1566855306
 20
58.5211317731
 30
0.0
 40
2.0
100
AcDbArc
 50
180.0
 51
270.0
  0
LINE
  5
122
330
1F
100
AcDbEntity
  8
0
  6
Continuous
 62
     7
370
    25
100
AcDbLine
 10
98.5445372298
 20
59.2808066946
 30
0.0
 11
99.1634095871
 21
59.9224094128
 31
0.0
  0
LINE
  5
123
330
1F
100
AcDbEntity
  8
0
  6
Continuous
 62
     7
370
    25
100
AcDbLine
 10
98.5445372298
 20
59.2808066946
 30
0.0
 11
98.5124279528
 21
59.2624575165
 31
0.0
  0
SPLINE
  5
124
330
1F
100
AcDbEntity
  8
0
  6
Continuous
 62
     7
370
    25
100
AcDbSpline
210
0.0
220
0.0
230
1.0
 70
     8
 71
     3
 72
    23
 73
    19
 74
     0
 42
0.00000001
 43
0.00000001
 40
0.0
 40
0.0
 40
0.0
 40
0.0
 40
0.0000210594021204
 40
0.0000210594021204
 40
0.0000210594021204
 40
0.0000429122282046
 40
0.0000429122282046
 40
0.0000429122282046
 40
0.0000655452306719
 40
0.0000655452306719
 40
0.0000655452306719
 40
0.000088492665435
 40
0.000088492665435
 40
0.000088492665435
 40
0.0001110534468608
 40
0.0001110534468608
 40
0.0001110534468608
 40
0.000119364715226
 40
0.000119364715226
 40
0.000119364715226
 40
0.000119364715226
 10
94.71285333280781
 20
58.11057807403741
 30
0.0
 10
94.71611426462042
 20
58.1043616501718
 30
0.0
 10
94.7205181959101
 20
58.098640146237
 30
0.0
 10
94.7256571111842
 20
58.09385797604252
 30
0.0
 10
94.7309888440751
 20
58.08889637368952
 30
0.0
 10
94.73725810277902
 20
58.08480355765491
 30
0.0
 10
94.74392439392294
 20
58.08187005532599
 30
0.0
 10
94.75082654182492
 20
58.07883276419847
 30
0.0
 10
94.75834627471538
 20
58.07695072063495
 30
0.0
 10
94.76586316707849
 20
58.07634979447029
 30
0.0
 10
94.77348266797028
 20
58.07574066542779
 30
0.0
 10
94.78131237437398
 20
58.0764306261665
 30
0.0
 10
94.78870511635091
 20
58.07837361306635
 30
0.0
 10
94.79597345084312
 20
58.08028390274591
 30
0.0
 10
94.80302128890325
 20
58.08346085612578
 30
0.0
 10
94.8092400848503
 20
58.08768039045071
 30
0.0
 10
94.81155995493776
 20
58.08925445262398
 30
0.0
 10
94.81378322036677
 20
58.09098154505588
 30
0.0
 10
94.81587990388397
 20
58.09284256283568
 30
0.0
  0
LINE
  5
125
330
1F
100
AcDbEntity
  8
0
  6
Continuous
 62
     7
370
    25
100
AcDbLine
 10
97.9306737258
 20
58.110578074
 30
0.0
 11
98.5445372298
 21
59.2808066946
 31
0.0
  0
LINE
  5
126
330
1F
100
AcDbEntity
  8
0
  6
Continuous
 62
     7
370
    25
100
AcDbLine
 10
96.5558735797
 20
59.5300624699
 30
0.0
 11
96.0876534793
 21
59.5300624699
 31
0.0
  0
LINE
  5
127
330
1F
100
AcDbEntity
  8
0
  6
Continuous
 62
     7
370
    25
100
AcDbLine
 10
96.3833305648
 20
60.2381434561
 30
0.0
 11
96.6174406136
 21
59.6133348609
 31
0.0
  0
ELLIPSE
  5
128
330
1F
100
AcDbEntity
  8
0
  6
Continuous
 62
     7
370
    25
100
AcDbEllipse
 10
96.5558735797
 20
59.5923764137
 30
0.0
 11
0.06537569707428759
 21
7.105427357601002E-15
 31
0.0
210
0.0
220
0.0
230
1.0
 40
0.9531667975
 41
4.7123889803846
 42
6.626209245739255
  0
LINE
  5
129
330
1F
100
AcDbEntity
  8
0
  6
Continuous
 62
     7
370
    25
100
AcDbLine
 10
96.0260864454
 20
59.6133348611
 30
0.0
 11
96.2601964969
 21
60.2381434561
 31
0.0
  0
ELLIPSE
  5
12A
330
1F
100
AcDbEntity
  8
0
  6
Continuous
 62
     7
370
    25
100
AcDbEllipse
 10
96.3217635308
 20
60.2171850088
 30
0.0
 11
0.06537569707428759
 21
0.0
 31
0.0
210
0.0
220
0.0
230
1.0
 40
0.9531667975
 41
0.343023940420318
 42
2.798568713169514
  0
ELLIPSE
  5
12B
330
1F
100
AcDbEntity
  8
0
  6
Continuous
 62
     7
370
    25
100
AcDbEllipse
 10
96.0876534793
 20
59.5923764137
 30
0.0
 11
-0.06537569707431601
 21
-7.105427357601002E-15
 31
0.0
210
0.0
220
0.0
230
1.0
 40
0.9531667975
 41
5.940161364895681
 42
7.85398163397438
  0
LINE
  5
12C
330
1F
100
AcDbEntity
  8
0
  6
Continuous
 62
     7
370
    25
100
AcDbLine
 10
102.0781855306
 20
62.5211317731
 30
0.0
 11
102.0781855306
 21
55.9426317731
 31
0.0
  0
LINE
  5
12D
330
1F
100
AcDbEntity
  8
0
  6
Continuous
 62
     7
370
    25
100
AcDbLine
 10
102.0781855306
 20
69.0996317731
 30
0.0
 11
102.0781855306
 21
62.5211317731
 31
0.0
  0
ARC
  5
12E
330
1F
100
AcDbEntity
  8
0
  6
Continuous
 62
     7
370
    25
100
AcDbCircle
 10
97.9359209129
 20
70.2479450906
 30
0.0
 40
0.2286897211609137
100
AcDbArc
 50
174.1808239121
 51
262.6552867776
  0
ARC
  5
12F
330
1F
100
AcDbEntity
  8
0
  6
Continuous
 62
     7
370
    25
100
AcDbCircle
 10
99.8834988481
 20
56.7418963908
 30
0.0
 40
0.2286897211609158
100
AcDbArc
 50
84.180823912
 51
172.6552867776
  0
ARC
  5
130
330
1F
100
AcDbEntity
  8
0
  6
Continuous
 62
     7
370
    25
100
AcDbCircle
 10
86.3774501483
 20
70.2479450906
 30
0.0
 40
0.2286897211609482
100
AcDbArc
 50
277.3447132224
 51
5.8191760879
  0
ARC
  5
131
330
1F
100
AcDbEntity
  8
0
  6
Continuous
 62
     7
370
    25
100
AcDbCircle
 10
99.8834988481
 20
68.3003671554
 30
0.0
 40
0.2286897211609296
100
AcDbArc
 50
187.3447132224
 51
275.8191760879
  0
LINE
  5
132
330
1F
100
AcDbEntity
  8
0
  6
Continuous
 62
     7
370
    25
100
AcDbLine
 10
98.1911682892
 20
69.7711317731
 30
0.0
 11
98.1566855306
 21
69.7711317731
 31
0.0
  0
LINE
  5
133
330
1F
100
AcDbEntity
  8
0
  6
Continuous
 62
     7
370
    25
100
AcDbLine
 10
99.4066855306
 20
56.5211317731
 30
0.0
 11
99.4066855306
 21
56.4866490145
 31
0.0
  0
LINE
  5
134
330
1F
100
AcDbEntity
  8
0
  6
Continuous
 62
     7
370
    25
100
AcDbLine
 10
86.122202772
 20
69.7711317731
 30
0.0
 11
86.1566855306
 21
69.7711317731
 31
0.0
  0
LINE
  5
135
330
1F
100
AcDbEntity
  8
0
  6
Continuous
 62
     7
370
    25
100
AcDbLine
 10
99.4066855306
 20
68.5211317731
 30
0.0
 11
99.4066855306
 21
68.5556145317
 31
0.0
  0
LWPOLYLINE
  5
136
330
1F
100
AcDbEntity
  8
0
  6
Continuous
 62
     7
370
    25
100
AcDbPolyline
 90
        9
 70
   128
 43
0.0
 10
87.8928753887
 20
56.5386070673
 10
87.8891043188
 20
56.5385102805
 10
87.8851946143
 20
56.5372375935
 10
87.8811648343
 20
56.5347950477
 10
87.8770341077
 20
56.5311942377
 10
87.8728220428
 20
56.5264522563
 10
87.8685486339
 20
56.5205916131
 10
87.8642341665
 20
56.5136401281
 10
87.859899121
 20
56.5056307996
  0
SPLINE
  5
137
330
1F
100
AcDbEntity
  8
0
  6
Continuous
 62
     7
370
    25
100
AcDbSpline
210
0.0
220
0.0
230
1.0
 70
     8
 71
     3
 72
    14
 73
    10
 74
     0
 42
0.00000001
 43
0.00000001
 40
0.0
 40
0.0
 40
0.0
 40
0.0
 40
0.25
 40
0.25
 40
0.5
 40
0.5
 40
0.75
 40
0.75
 40
1.0
 40
1.0
 40
1.0
 40
1.0
 10
87.85989912096207
 20
56.50563079956627
 30
0.0
 10
87.64403984886435
 20
56.53208173648266
 30
0.0
 10
87.43620835447216
 20
56.59246758233803
 30
0.0
 10
87.03880496356146
 20
56.78474814761863
 30
0.0
 10
86.86032215568109
 20
56.91131593952911
 30
0.0
 10
86.54650634284587
 20
57.22522438400071
 30
0.0
 10
86.41957491875428
 20
57.40450669476567
 30
0.0
 10
86.22790805624345
 20
57.8011368540472
 30
0.0
 10
86.16763430633785
 20
58.00849578366712
 30
0.0
 10
86.14118455709978
 20
58.22434536342856
 30
0.0
  0
LWPOLYLINE
  5
138
330
1F
100
AcDbEntity
  8
0
  6
Continuous
 62
     7
370
    25
100
AcDbPolyline
 90
        9
 70
   128
 43
0.0
 10
86.1741608248
 20
58.2573216312
 10
86.174064038
 20
58.2535505613
 10
86.172791351
 20
58.2496408568
 10
86.1703488053
 20
58.2456110768
 10
86.1667479953
 20
58.2414803502
 10
86.1620060138
 20
58.2372682853
 10
86.1561453706
 20
58.2329948764
 10
86.1491938857
 20
58.2286804089
 10
86.1411845571
 20
58.2243453634
  0
LINE
  5
139
330
1F
100
AcDbEntity
  8
0
  6
Continuous
 62
     7
370
    25
100
AcDbLine
 10
88.1566855306
 20
56.5211317731
 30
0.0
 11
88.1566855306
 21
56.4866490145
 31
0.0
  0
LINE
  5
13A
330
1F
100
AcDbEntity
  8
0
  6
Continuous
 62
     7
370
    25
100
AcDbLine
 10
86.122202772
 20
58.5211317731
 30
0.0
 11
86.1566855306
 21
58.5211317731
 31
0.0
  0
SPLINE
  5
13B
330
1F
100
AcDbEntity
  8
0
  6
Continuous
 62
     7
370
    25
100
AcDbSpline
210
0.0
220
0.0
230
1.0
 70
    24
 71
     3
 72
    10
 73
     6
 74
     0
 42
0.00000001
 43
0.00000001
 40
0.0
 40
0.0
 40
0.0
 40
0.0
 40
0.5
 40
0.5
 40
1.0
 40
1.0
 40
1.0
 40
1.0
 10
98.5249720193151
 20
68.88941826178159
 30
0.0
 10
98.50008064880328
 20
68.86452689126978
 30
0.0
 10
98.48213395163238
 20
68.84658019409888
 30
0.0
 10
98.45661701356589
 20
68.82106325603239
 30
0.0
 10
98.44957874943161
 20
68.81402499189844
 30
0.0
 10
98.44957874943091
 20
68.8140249918974
 30
0.0
  0
LINE
  5
13C
330
1F
100
AcDbEntity
  8
0
  6
Continuous
 62
     7
370
    25
100
AcDbLine
 10
98.1911682892
 20
69.5211317731
 30
0.0
 11
98.1566855306
 21
69.5211317731
 31
0.0
  0
LINE
  5
13D
330
1F
100
AcDbEntity
  8
0
  6
Continuous
 62
     7
370
    25
100
AcDbLine
 10
99.1566855306
 20
68.5211317731
 30
0.0
 11
99.1566855306
 21
68.5556145317
 31
0.0
  0
LINE
  5
13E
330
1F
100
AcDbEntity
  8
0
  6
Continuous
 62
     7
370
    25
100
AcDbLine
 10
119.3380321827
 20
54.7802312129
 30
0.0
 11
119.3380321827
 21
54.2711317731
 31
0.0
  0
LINE
  5
13F
330
1F
100
AcDbEntity
  8
0
  6
Continuous
 62
     7
370
    25
100
AcDbLine
 10
119.3380321827
 20
70.7711317731
 30
0.0
 11
119.3380321827
 21
70.2620323333
 31
0.0
  0
LINE
  5
140
330
1F
100
AcDbEntity
  8
0
  6
Continuous
 62
     7
370
    25
100
AcDbLine
 10
118.6885131298
 20
70.6138914497
 30
0.0
 11
118.6885131298
 21
71.1461317731
 31
0.0
  0
LINE
  5
141
330
1F
100
AcDbEntity
  8
0
  6
Continuous
 62
     7
370
    25
100
AcDbLine
 10
118.6885131298
 20
53.8961317731
 30
0.0
 11
118.6885131298
 21
54.4283720965
 31
0.0
  0
LINE
  5
142
330
1F
100
AcDbEntity
  8
0
  6
Continuous
 62
     7
370
    25
100
AcDbLine
 10
99.1566855306
 20
73.5211317731
 30
0.0
 11
85.1566855306
 21
73.5211317731
 31
0.0
  0
LINE
  5
143
330
1F
100
AcDbEntity
  8
0
  6
Continuous
 62
     7
370
    25
100
AcDbLine
 10
85.1566855306
 20
57.5211317731
 30
0.0
 11
86.1411845571
 21
58.2243453634
 31
0.0
  0
LINE
  5
144
330
1F
100
AcDbEntity
  8
0
  6
Continuous
 62
     7
370
    25
100
AcDbLine
 10
87.859899121
 20
56.5056307996
 30
0.0
 11
87.1566855306
 21
55.5211317731
 31
0.0
  0
LINE
  5
145
330
1F
100
AcDbEntity
  8
FORMAT
100
AcDbLine
 10
112.0126855306
 20
56.7986317731
 30
0.0
 11
104.1566855306
 21
56.7986317731
 31
0.0
  0
LINE
  5
146
330
1F
100
AcDbEntity
  8
FORMAT
100
AcDbLine
 10
112.0126855306
 20
68.2436317731
 30
0.0
 11
104.1566855306
 21
68.2436317731
 31
0.0
  0
LINE
  5
147
330
1F
100
AcDbEntity
  8
FORMAT
100
AcDbLine
 10
104.1566855306
 20
69.0996317731
 30
0.0
 11
104.1566855306
 21
55.9426317731
 31
0.0
  0
LINE
  5
148
330
1F
100
AcDbEntity
  8
FORMAT
100
AcDbLine
 10
99.589975747
 20
86.7706511039
 30
0.0
 11
99.9733031741
 21
74.5041734362
 31
0.0
  0
LINE
  5
149
330
1F
100
AcDbEntity
  8
FORMAT
100
AcDbLine
 10
84.7233953142
 20
86.7706511039
 30
0.0
 11
84.3400678871
 21
74.5041734362
 31
0.0
  0
LINE
  5
14A
330
1F
100
AcDbEntity
  8
FORMAT
  6
CENTERX2
370
    18
100
AcDbLine
 10
92.1566855306
 20
54.1235035795
 30
0.0
 11
92.1566855306
 21
88.7864817248
 31
0.0
  0
LINE
  5
14B
330
1F
100
AcDbEntity
  8
FORMAT
  6
CENTERX2
370
    18
100
AcDbLine
 10
83.987870677
 20
62.5211317731
 30
0.0
 11
121.7836544273
 21
62.5211317731
 31
0.0
  0
LINE
  5
14C
330
1F
100
AcDbEntity
  8
0
  6
Continuous
 62
     7
370
    25
100
AcDbLine
 10
149.0299841378
 20
74.6756373187
 30
0.0
 11
148.6933721059
 21
85.4472223394
 31
0.0
  0
LINE
  5
14D
330
1F
100
AcDbEntity
  8
0
  6
Continuous
 62
     7
370
    25
100
AcDbLine
 10
132.2986277663
 20
85.4472223394
 30
0.0
 11
131.9620157344
 21
74.6756373187
 31
0.0
  0
ARC
  5
14E
330
1F
100
AcDbEntity
  8
0
  6
Continuous
 62
     7
370
    25
100
AcDbCircle
 10
132.4959999361
 20
75.5211317731
 30
0.0
 40
1.000000000000002
100
AcDbArc
 50
237.7249513296
 51
270.0
  0
ARC
  5
14F
330
1F
100
AcDbEntity
  8
0
  6
Continuous
 62
     7
370
    25
100
AcDbCircle
 10
148.4959999361
 20
75.5211317731
 30
0.0
 40
1.000000000000002
100
AcDbArc
 50
270.0
 51
302.2750486704
  0
LINE
  5
150
330
1F
100
AcDbEntity
  8
0
  6
Continuous
 62
     7
370
    25
100
AcDbLine
 10
148.6933721059
 20
85.4472223394
 30
0.0
 11
147.4959999361
 21
87.5211317731
 31
0.0
  0
LINE
  5
151
330
1F
100
AcDbEntity
  8
0
  6
Continuous
 62
     7
370
    25
100
AcDbLine
 10
133.4959999361
 20
87.5211317731
 30
0.0
 11
132.2986277663
 21
85.4472223394
 31
0.0
  0
ARC
  5
152
330
1F
100
AcDbEntity
  8
0
  6
Continuous
 62
     7
370
    25
100
AcDbCircle
 10
132.4959999361
 20
73.5211317731
 30
0.0
 40
1.0
100
AcDbArc
 50
0.0
 51
90.0
  0
ARC
  5
153
330
1F
100
AcDbEntity
  8
0
  6
Continuous
 62
     7
370
    25
100
AcDbCircle
 10
148.4959999361
 20
73.5211317731
 30
0.0
 40
1.0
100
AcDbArc
 50
90.0
 51
180.0
  0
LINE
  5
154
330
1F
100
AcDbEntity
  8
0
  6
Continuous
 62
     7
370
    25
100
AcDbLine
 10
147.4959999361
 20
70.2711317731
 30
0.0
 11
147.4959999361
 21
73.5211317731
 31
0.0
  0
LINE
  5
155
330
1F
100
AcDbEntity
  8
0
  6
Continuous
 62
     7
370
    25
100
AcDbLine
 10
133.4959999361
 20
73.5211317731
 30
0.0
 11
133.4959999361
 21
70.2711317731
 31
0.0
  0
SPLINE
  5
156
330
1F
100
AcDbEntity
  8
0
  6
Continuous
 62
     7
370
    25
100
AcDbSpline
210
0.0
220
0.0
230
1.0
 70
     8
 71
     3
 72
    16
 73
    12
 74
     0
 42
0.00000001
 43
0.00000001
 40
0.0
 40
0.0
 40
0.0
 40
0.0
 40
0.7221410379853632
 40
0.9390511516546116
 40
0.9871085667086
 40
0.991654402064971
 40
0.993045768606784
 40
0.9935274894169229
 40
0.9947669008913823
 40
0.9994837382740954
 40
1.0
 40
1.0
 40
1.0
 40
1.0
 10
133.4983066885108
 20
70.14589849973376
 30
0.0
 10
133.498081640147
 20
70.13912085838703
 30
0.0
 10
133.497788993816
 20
70.13030741118297
 30
0.0
 10
133.4975995657524
 20
70.12189170285845
 30
0.0
 10
133.4975401555464
 20
70.11902737145748
 30
0.0
 10
133.497533292261
 20
70.11869097824317
 30
0.0
 10
133.4975310526911
 20
70.11858083148597
 30
0.0
 10
133.4975318206424
 20
70.11861861051938
 30
0.0
 10
133.4975326904859
 20
70.1186613963439
 30
0.0
 10
133.4975358796261
 20
70.1188177628935
 30
0.0
 10
133.4975347794411
 20
70.11876379666322
 30
0.0
 10
133.4975346709043
 20
70.11875847272447
 30
0.0
  0
CIRCLE
  5
157
330
1F
100
AcDbEntity
  8
0
  6
Continuous
 62
     7
370
    25
100
AcDbCircle
 10
140.4959999361
 20
62.5211317731
 30
0.0
 40
4.050000000000001
  0
CIRCLE
  5
158
330
1F
100
AcDbEntity
  8
0
  6
Continuous
 62
     7
370
    25
100
AcDbCircle
 10
140.4959999361
 20
62.5211317731
 30
0.0
 40
4.074999999999989
  0
CIRCLE
  5
159
330
1F
100
AcDbEntity
  8
0
  6
Continuous
 62
     7
370
    25
100
AcDbCircle
 10
140.4959999361
 20
62.5211317731
 30
0.0
 40
4.175000000000011
  0
CIRCLE
  5
15A
330
1F
100
AcDbEntity
  8
0
  6
Continuous
 62
     7
370
    25
100
AcDbCircle
 10
140.4959999361
 20
62.5211317731
 30
0.0
 40
8.050000000000011
  0
CIRCLE
  5
15B
330
1F
100
AcDbEntity
  8
0
  6
Continuous
 62
     7
370
    25
100
AcDbCircle
 10
140.4959999361
 20
62.5211317731
 30
0.0
 40
8.25
  0
SPLINE
  5
15C
330
1F
100
AcDbEntity
  8
0
  6
Continuous
 62
     7
370
    25
100
AcDbSpline
210
0.0
220
0.0
230
1.0
 70
    24
 71
     3
 72
    10
 73
     6
 74
     0
 42
0.00000001
 43
0.00000001
 40
0.0
 40
0.0
 40
0.0
 40
0.0
 40
0.3089808900030074
 40
0.6190948628358686
 40
1.0
 40
1.0
 40
1.0
 40
1.0
 10
137.5130708694381
 20
70.61389144967195
 30
0.0
 10
137.2524873547218
 20
70.4634434873041
 30
0.0
 10
136.7303647234515
 20
70.16199584559024
 30
0.0
 10
135.883372412731
 20
69.67298460699425
 30
0.0
 10
135.3003203157248
 20
69.3363593218361
 30
0.0
 10
134.9789290028492
 20
69.15080396083222
 30
0.0
  0
LINE
  5
15D
330
1F
100
AcDbEntity
  8
0
  6
Continuous
 62
     7
370
    25
100
AcDbLine
 10
137.5130708694
 20
70.6138914497
 30
0.0
 11
137.6427634376
 21
70.2620323333
 31
0.0
  0
LINE
  5
15E
330
1F
100
AcDbEntity
  8
0
  6
Continuous
 62
     7
370
    25
100
AcDbLine
 10
134.9789290028
 20
69.1508039608
 30
0.0
 11
135.2188016521
 21
68.862557344
 31
0.0
  0
SPLINE
  5
15F
330
1F
100
AcDbEntity
  8
0
  6
Continuous
 62
     7
370
    25
100
AcDbSpline
210
0.0
220
0.0
230
1.0
 70
    24
 71
     3
 72
    10
 73
     6
 74
     0
 42
0.00000001
 43
0.00000001
 40
0.0
 40
0.0
 40
0.0
 40
0.0
 40
0.3089808900029887
 40
0.6190948628358313
 40
1.0
 40
1.0
 40
1.0
 40
1.0
 10
146.0130708694383
 20
69.15080396083205
 30
0.0
 10
145.7524873547219
 20
69.30125192319991
 30
0.0
 10
145.2303647234516
 20
69.60269956491382
 30
0.0
 10
144.3833724127311
 20
70.09171080350986
 30
0.0
 10
143.8003203157247
 20
70.42833608866806
 30
0.0
 10
143.4789290028491
 20
70.613891449672
 30
0.0
  0
LINE
  5
160
330
1F
100
AcDbEntity
  8
0
  6
Continuous
 62
     7
370
    25
100
AcDbLine
 10
146.0130708694
 20
69.1508039608
 30
0.0
 11
145.7731982202
 21
68.862557344
 31
0.0
  0
LINE
  5
161
330
1F
100
AcDbEntity
  8
0
  6
Continuous
 62
     7
370
    25
100
AcDbLine
 10
143.4789290028
 20
70.6138914497
 30
0.0
 11
143.3492364347
 21
70.2620323333
 31
0.0
  0
LINE
  5
162
330
1F
100
AcDbEntity
  8
0
  6
Continuous
 62
     7
370
    25
100
AcDbLine
 10
137.6427634376
 20
54.7802312129
 30
0.0
 11
137.5130708694
 21
54.4283720965
 31
0.0
  0
SPLINE
  5
163
330
1F
100
AcDbEntity
  8
0
  6
Continuous
 62
     7
370
    25
100
AcDbSpline
210
0.0
220
0.0
230
1.0
 70
    24
 71
     3
 72
    10
 73
     6
 74
     0
 42
0.00000001
 43
0.00000001
 40
0.0
 40
0.0
 40
0.0
 40
0.0
 40
0.3089808900029882
 40
0.6190948628358307
 40
1.0
 40
1.0
 40
1.0
 40
1.0
 10
134.978929002849
 20
55.89145958533659
 30
0.0
 10
135.2395125175653
 20
55.74101162296873
 30
0.0
 10
135.7616351488356
 20
55.43956398125482
 30
0.0
 10
136.6086274595562
 20
54.95055274265876
 30
0.0
 10
137.1916795565625
 20
54.61392745750056
 30
0.0
 10
137.5130708694382
 20
54.42837209649661
 30
0.0
  0
LINE
  5
164
330
1F
100
AcDbEntity
  8
0
  6
Continuous
 62
     7
370
    25
100
AcDbLine
 10
135.2188016521
 20
56.1797062022
 30
0.0
 11
134.9789290028
 21
55.8914595853
 31
0.0
  0
LINE
  5
165
330
1F
100
AcDbEntity
  8
0
  6
Continuous
 62
     7
370
    25
100
AcDbLine
 10
145.7731982202
 20
56.1797062022
 30
0.0
 11
146.0130708694
 21
55.8914595853
 31
0.0
  0
SPLINE
  5
166
330
1F
100
AcDbEntity
  8
0
  6
Continuous
 62
     7
370
    25
100
AcDbSpline
210
0.0
220
0.0
230
1.0
 70
    24
 71
     3
 72
    10
 73
     6
 74
     0
 42
0.00000001
 43
0.00000001
 40
0.0
 40
0.0
 40
0.0
 40
0.0
 40
0.308980890002988
 40
0.61909486283583
 40
1.0
 40
1.0
 40
1.0
 40
1.0
 10
143.478929002849
 20
54.42837209649657
 30
0.0
 10
143.7395125175654
 20
54.57882005886443
 30
0.0
 10
144.2616351488357
 20
54.88026770057832
 30
0.0
 10
145.1086274595562
 20
55.36927893917438
 30
0.0
 10
145.6916795565626
 20
55.70590422433258
 30
0.0
 10
146.0130708694382
 20
55.89145958533652
 30
0.0
  0
LINE
  5
167
330
1F
100
AcDbEntity
  8
0
  6
Continuous
 62
     7
370
    25
100
AcDbLine
 10
143.3492364347
 20
54.7802312129
 30
0.0
 11
143.4789290028
 21
54.4283720965
 31
0.0
  0
LINE
  5
168
330
1F
100
AcDbEntity
  8
0
  6
Continuous
 62
     7
370
    25
100
AcDbLine
 10
132.3655651535
 20
61.1216567838
 30
0.0
 11
131.9959999361
 21
61.0580442842
 31
0.0
  0
SPLINE
  5
169
330
1F
100
AcDbEntity
  8
0
  6
Continuous
 62
     7
370
    25
100
AcDbSpline
210
0.0
220
0.0
230
1.0
 70
    24
 71
     3
 72
    10
 73
     6
 74
     0
 42
0.00000001
 43
0.00000001
 40
0.0
 40
0.0
 40
0.0
 40
0.0
 40
0.0789477693778934
 40
0.5375793028234307
 40
1.0
 40
1.0
 40
1.0
 40
1.0
 10
131.9959999361437
 20
63.98421926192435
 30
0.0
 10
131.9959999361437
 20
63.90744960755594
 30
0.0
 10
131.9959999361437
 20
63.38470175035155
 30
0.0
 10
131.9959999361437
 20
62.40653004445237
 30
0.0
 10
131.9959999361436
 20
61.50877065036149
 30
0.0
 10
131.9959999361436
 20
61.05804428424443
 30
0.0
  0
LINE
  5
16A
330
1F
100
AcDbEntity
  8
0
  6
Continuous
 62
     7
370
    25
100
AcDbLine
 10
131.9959999361
 20
63.9842192619
 30
0.0
 11
132.3655651535
 21
63.9206067624
 31
0.0
  0
LINE
  5
16B
330
1F
100
AcDbEntity
  8
0
  6
Continuous
 62
     7
370
    25
100
AcDbLine
 10
148.9959999361
 20
63.9842192619
 30
0.0
 11
148.6264347188
 21
63.9206067624
 31
0.0
  0
SPLINE
  5
16C
330
1F
100
AcDbEntity
  8
0
  6
Continuous
 62
     7
370
    25
100
AcDbSpline
210
0.0
220
0.0
230
1.0
 70
    24
 71
     3
 72
    10
 73
     6
 74
     0
 42
0.00000001
 43
0.00000001
 40
0.0
 40
0.0
 40
0.0
 40
0.0
 40
0.4586421336634353
 40
0.9210522271454904
 40
1.0
 40
1.0
 40
1.0
 40
1.0
 10
148.9959999361436
 20
61.05804428424431
 30
0.0
 10
148.9959999361436
 20
61.50507544099462
 30
0.0
 10
148.9959999361436
 20
62.40281032470342
 30
0.0
 10
148.9959999361436
 20
63.38102762092402
 30
0.0
 10
148.9959999361436
 20
63.90744962829084
 30
0.0
 10
148.9959999361436
 20
63.98421926192422
 30
0.0
  0
LINE
  5
16D
330
1F
100
AcDbEntity
  8
0
  6
Continuous
 62
     7
370
    25
100
AcDbLine
 10
148.6264347188
 20
61.1216567838
 30
0.0
 11
148.9959999361
 21
61.0580442842
 31
0.0
  0
ARC
  5
16E
330
1F
100
AcDbEntity
  8
0
  6
Continuous
 62
     7
370
    25
100
AcDbCircle
 10
140.4959999361
 20
62.5211317731
 30
0.0
 40
8.625000000000005
100
AcDbArc
 50
309.766500898
 51
350.233499102
  0
ARC
  5
16F
330
1F
100
AcDbEntity
  8
0
  6
Continuous
 62
     7
370
    25
100
AcDbCircle
 10
140.4959999361
 20
62.5211317731
 30
0.0
 40
8.625000000000014
100
AcDbArc
 50
9.766500898
 51
50.233499102
  0
ARC
  5
170
330
1F
100
AcDbEntity
  8
0
  6
Continuous
 62
     7
370
    25
100
AcDbCircle
 10
140.4959999361
 20
62.5211317731
 30
0.0
 40
8.625000000000018
100
AcDbArc
 50
189.766500898
 51
230.233499102
  0
ARC
  5
171
330
1F
100
AcDbEntity
  8
0
  6
Continuous
 62
     7
370
    25
100
AcDbCircle
 10
140.4959999361
 20
62.5211317731
 30
0.0
 40
8.625000000000018
100
AcDbArc
 50
129.766500898
 51
170.233499102
  0
ARC
  5
172
330
1F
100
AcDbEntity
  8
0
  6
Continuous
 62
     7
370
    25
100
AcDbCircle
 10
140.4959999361
 20
62.5211317731
 30
0.0
 40
8.625000000000007
100
AcDbArc
 50
249.766500898
 51
290.233499102
  0
ARC
  5
173
330
1F
100
AcDbEntity
  8
0
  6
Continuous
 62
     7
370
    25
100
AcDbCircle
 10
140.4959999361
 20
62.5211317731
 30
0.0
 40
8.625000000000004
100
AcDbArc
 50
69.766500898
 51
110.233499102
  0
SPLINE
  5
174
330
1F
100
AcDbEntity
  8
0
  6
Continuous
 62
     7
370
    25
100
AcDbSpline
210
0.0
220
0.0
230
1.0
 70
    24
 71
     3
 72
    11
 73
     7
 74
     0
 42
0.00000001
 43
0.00000001
 40
0.0
 40
0.0
 40
0.0
 40
0.0
 40
0.2490252138763564
 40
0.4980311639765297
 40
0.74902692048002
 40
1.0
 40
1.0
 40
1.0
 40
1.0
 10
148.9959999361436
 20
67.4286090611961
 30
0.0
 10
148.7523931723817
 20
67.56925549183048
 30
0.0
 10
148.2651984894804
 20
67.8505374731513
 30
0.0
 10
147.5230629446846
 20
68.27900962971434
 30
0.0
 10
146.772721183211
 20
68.71221964768536
 30
0.0
 10
146.2662800143538
 20
69.00461359285376
 30
0.0
 10
146.0130708694383
 20
69.15080396083205
 30
0.0
  0
SPLINE
  5
175
330
1F
100
AcDbEntity
  8
0
  6
Continuous
 62
     7
370
    25
100
AcDbSpline
210
0.0
220
0.0
230
1.0
 70
    24
 71
     3
 72
    11
 73
     7
 74
     0
 42
0.00000001
 43
0.00000001
 40
0.0
 40
0.0
 40
0.0
 40
0.0
 40
0.2488617730236802
 40
0.4977454583558502
 40
0.748862751792887
 40
0.9999999999999999
 40
0.9999999999999999
 40
0.9999999999999999
 40
0.9999999999999999
 10
148.9959999361436
 20
63.98421926192422
 30
0.0
 10
148.9959999361436
 20
64.27414402253021
 30
0.0
 10
148.9959999361436
 20
64.85401907165156
 30
0.0
 10
148.9959999361436
 20
65.71809824664047
 30
0.0
 10
148.9959999361436
 20
66.57757438859433
 30
0.0
 10
148.9959999361436
 20
67.14492332333022
 30
0.0
 10
148.9959999361436
 20
67.4286090611961
 30
0.0
  0
SPLINE
  5
176
330
1F
100
AcDbEntity
  8
0
  6
Continuous
 62
     7
370
    25
100
AcDbSpline
210
0.0
220
0.0
230
1.0
 70
    24
 71
     3
 72
    11
 73
     7
 74
     0
 42
0.00000001
 43
0.00000001
 40
0.0
 40
0.0
 40
0.0
 40
0.0
 40
0.2490252138763565
 40
0.4980311639765297
 40
0.7490269204800202
 40
1.0
 40
1.0
 40
1.0
 40
1.0
 10
140.4959999361436
 20
72.33608634930795
 30
0.0
 10
140.2523931723817
 20
72.19543991867356
 30
0.0
 10
139.7651984894803
 20
71.91415793735271
 30
0.0
 10
139.0230629446845
 20
71.48568578078971
 30
0.0
 10
138.2727211832109
 20
71.05247576281866
 30
0.0
 10
137.7662800143537
 20
70.76008181765026
 30
0.0
 10
137.5130708694381
 20
70.61389144967195
 30
0.0
  0
SPLINE
  5
177
330
1F
100
AcDbEntity
  8
0
  6
Continuous
 62
     7
370
    25
100
AcDbSpline
210
0.0
220
0.0
230
1.0
 70
    24
 71
     3
 72
    11
 73
     7
 74
     0
 42
0.00000001
 43
0.00000001
 40
0.0
 40
0.0
 40
0.0
 40
0.0
 40
0.2488617730236806
 40
0.4977454583558505
 40
0.7488627517928869
 40
1.0
 40
1.0
 40
1.0
 40
1.0
 10
143.4789290028491
 20
70.613891449672
 30
0.0
 10
143.2278467949782
 20
70.75885382997498
 30
0.0
 10
142.7256602714183
 20
71.04879135453567
 30
0.0
 10
141.9773457549969
 20
71.48083094203012
 30
0.0
 10
141.2330175821182
 20
71.91056901300706
 30
0.0
 10
140.7416789918268
 20
72.19424348037501
 30
0.0
 10
140.4959999361436
 20
72.33608634930795
 30
0.0
  0
SPLINE
  5
178
330
1F
100
AcDbEntity
  8
0
  6
Continuous
 62
     7
370
    25
100
AcDbSpline
210
0.0
220
0.0
230
1.0
 70
    24
 71
     3
 72
    11
 73
     7
 74
     0
 42
0.00000001
 43
0.00000001
 40
0.0
 40
0.0
 40
0.0
 40
0.0
 40
0.2488617730236802
 40
0.4977454583558505
 40
0.7488627517928873
 40
1.0
 40
1.0
 40
1.0
 40
1.0
 10
146.0130708694382
 20
55.89145958533652
 30
0.0
 10
146.2641530773091
 20
56.03642196563951
 30
0.0
 10
146.7663396008689
 20
56.32635949020018
 30
0.0
 10
147.5146541172905
 20
56.75839907769461
 30
0.0
 10
148.2589822901691
 20
57.18813714867154
 30
0.0
 10
148.7503208804604
 20
57.4718116160395
 30
0.0
 10
148.9959999361436
 20
57.61365448497243
 30
0.0
  0
SPLINE
  5
179
330
1F
100
AcDbEntity
  8
0
  6
Continuous
 62
     7
370
    25
100
AcDbSpline
210
0.0
220
0.0
230
1.0
 70
    24
 71
     3
 72
    10
 73
     6
 74
     0
 42
0.00000001
 43
0.00000001
 40
0.0
 40
0.0
 40
0.0
 40
0.0
 40
0.3273333707077128
 40
0.6629523133412114
 40
0.9999999999999999
 40
0.9999999999999999
 40
0.9999999999999999
 40
0.9999999999999999
 10
148.9959999361436
 20
57.61365448497243
 30
0.0
 10
148.9959999361436
 20
57.9837692736237
 30
0.0
 10
148.9959999361436
 20
58.73336732043344
 30
0.0
 10
148.9959999361436
 20
59.8825773409897
 30
0.0
 10
148.9959999361436
 20
60.66566754192323
 30
0.0
 10
148.9959999361436
 20
61.05804428424431
 30
0.0
  0
SPLINE
  5
17A
330
1F
100
AcDbEntity
  8
0
  6
Continuous
 62
     7
370
    25
100
AcDbSpline
210
0.0
220
0.0
230
1.0
 70
    24
 71
     3
 72
    11
 73
     7
 74
     0
 42
0.00000001
 43
0.00000001
 40
0.0
 40
0.0
 40
0.0
 40
0.0
 40
0.2488617730236801
 40
0.49774545835585
 40
0.7488627517928869
 40
1.0
 40
1.0
 40
1.0
 40
1.0
 10
134.9789290028492
 20
69.15080396083222
 30
0.0
 10
134.7278467949783
 20
69.00584158052922
 30
0.0
 10
134.2256602714185
 20
68.71590405596854
 30
0.0
 10
133.4773457549969
 20
68.28386446847408
 30
0.0
 10
132.7330175821182
 20
67.85412639749714
 30
0.0
 10
132.2416789918269
 20
67.57045193012917
 30
0.0
 10
131.9959999361437
 20
67.42860906119623
 30
0.0
  0
SPLINE
  5
17B
330
1F
100
AcDbEntity
  8
0
  6
Continuous
 62
     7
370
    25
100
AcDbSpline
210
0.0
220
0.0
230
1.0
 70
    24
 71
     3
 72
    11
 73
     7
 74
     0
 42
0.00000001
 43
0.00000001
 40
0.0
 40
0.0
 40
0.0
 40
0.0
 40
0.2490252138763564
 40
0.4980311639765296
 40
0.7490269204800198
 40
1.0
 40
1.0
 40
1.0
 40
1.0
 10
131.9959999361437
 20
67.42860906119623
 30
0.0
 10
131.9959999361437
 20
67.14731619992746
 30
0.0
 10
131.9959999361437
 20
66.5847522372858
 30
0.0
 10
131.9959999361437
 20
65.72780792415978
 30
0.0
 10
131.9959999361437
 20
64.86138788821773
 30
0.0
 10
131.9959999361437
 20
64.27659999788094
 30
0.0
 10
131.9959999361437
 20
63.98421926192435
 30
0.0
  0
SPLINE
  5
17C
330
1F
100
AcDbEntity
  8
0
  6
Continuous
 62
     7
370
    25
100
AcDbSpline
210
0.0
220
0.0
230
1.0
 70
    24
 71
     3
 72
    11
 73
     7
 74
     0
 42
0.00000001
 43
0.00000001
 40
0.0
 40
0.0
 40
0.0
 40
0.0
 40
0.2490252138763569
 40
0.49803116397653
 40
0.7490269204800201
 40
1.0
 40
1.0
 40
1.0
 40
1.0
 10
131.9959999361436
 20
57.61365448497256
 30
0.0
 10
132.2396066999056
 20
57.47300805433818
 30
0.0
 10
132.7268013828069
 20
57.19172607301734
 30
0.0
 10
133.4689369276026
 20
56.76325391645431
 30
0.0
 10
134.2192786890762
 20
56.33004389848329
 30
0.0
 10
134.7257198579334
 20
56.0376499533149
 30
0.0
 10
134.978929002849
 20
55.89145958533659
 30
0.0
  0
SPLINE
  5
17D
330
1F
100
AcDbEntity
  8
0
  6
Continuous
 62
     7
370
    25
100
AcDbSpline
210
0.0
220
0.0
230
1.0
 70
    24
 71
     3
 72
    10
 73
     6
 74
     0
 42
0.00000001
 43
0.00000001
 40
0.0
 40
0.0
 40
0.0
 40
0.0
 40
0.3355445600395944
 40
0.6726666839999053
 40
0.9999999999999999
 40
0.9999999999999999
 40
0.9999999999999999
 40
0.9999999999999999
 10
131.9959999361436
 20
61.05804428424443
 30
0.0
 10
131.9959999361436
 20
60.66741471794099
 30
0.0
 10
131.9959999361436
 20
59.88431903906409
 30
0.0
 10
131.9959999361436
 20
58.7350670696493
 30
0.0
 10
131.9959999361436
 20
57.98376928788841
 30
0.0
 10
131.9959999361436
 20
57.61365448497256
 30
0.0
  0
SPLINE
  5
17E
330
1F
100
AcDbEntity
  8
0
  6
Continuous
 62
     7
370
    25
100
AcDbSpline
210
0.0
220
0.0
230
1.0
 70
    24
 71
     3
 72
    11
 73
     7
 74
     0
 42
0.00000001
 43
0.00000001
 40
0.0
 40
0.0
 40
0.0
 40
0.0
 40
0.249025213876357
 40
0.4980311639765301
 40
0.7490269204800202
 40
1.0
 40
1.0
 40
1.0
 40
1.0
 10
140.4959999361436
 20
52.70617719686065
 30
0.0
 10
140.7396066999056
 20
52.84682362749503
 30
0.0
 10
141.2268013828069
 20
53.12810560881586
 30
0.0
 10
141.9689369276026
 20
53.55657776537886
 30
0.0
 10
142.7192786890762
 20
53.98978778334988
 30
0.0
 10
143.2257198579334
 20
54.28218172851827
 30
0.0
 10
143.478929002849
 20
54.42837209649657
 30
0.0
  0
SPLINE
  5
17F
330
1F
100
AcDbEntity
  8
0
  6
Continuous
 62
     7
370
    25
100
AcDbSpline
210
0.0
220
0.0
230
1.0
 70
    24
 71
     3
 72
    11
 73
     7
 74
     0
 42
0.00000001
 43
0.00000001
 40
0.0
 40
0.0
 40
0.0
 40
0.0
 40
0.2488617730236805
 40
0.4977454583558504
 40
0.7488627517928871
 40
1.0
 40
1.0
 40
1.0
 40
1.0
 10
137.5130708694382
 20
54.42837209649661
 30
0.0
 10
137.7641530773091
 20
54.28340971619362
 30
0.0
 10
138.2663396008689
 20
53.99347219163294
 30
0.0
 10
139.0146541172904
 20
53.56143260413847
 30
0.0
 10
139.7589822901691
 20
53.13169453316155
 30
0.0
 10
140.2503208804604
 20
52.8480200657936
 30
0.0
 10
140.4959999361436
 20
52.70617719686065
 30
0.0
  0
CIRCLE
  5
180
330
1F
100
AcDbEntity
  8
0
  6
Continuous
 62
     7
370
    25
100
AcDbCircle
 10
140.4959999361
 20
62.5211317731
 30
0.0
 40
3.0
  0
LINE
  5
181
330
1F
100
AcDbEntity
  8
0
  6
Continuous
 62
     7
370
    25
100
AcDbLine
 10
140.4959999361
 20
74.6756373187
 30
0.0
 11
149.0299841378
 21
74.6756373187
 31
0.0
  0
LINE
  5
182
330
1F
100
AcDbEntity
  8
0
  6
Continuous
 62
     7
370
    25
100
AcDbLine
 10
131.9620157344
 20
74.6756373187
 30
0.0
 11
140.4959999361
 21
74.6756373187
 31
0.0
  0
LINE
  5
183
330
1F
100
AcDbEntity
  8
0
  6
Continuous
 62
     7
370
    25
100
AcDbLine
 10
148.6933721059
 20
85.4472223394
 30
0.0
 11
132.2986277663
 21
85.4472223394
 31
0.0
  0
LINE
  5
184
330
1F
100
AcDbEntity
  8
0
  6
Continuous
 62
     7
370
    25
100
AcDbLine
 10
140.4959999361
 20
74.5211317731
 30
0.0
 11
148.4959999361
 21
74.5211317731
 31
0.0
  0
LINE
  5
185
330
1F
100
AcDbEntity
  8
0
  6
Continuous
 62
     7
370
    25
100
AcDbLine
 10
132.4959999361
 20
74.5211317731
 30
0.0
 11
140.4959999361
 21
74.5211317731
 31
0.0
  0
LINE
  5
186
330
1F
100
AcDbEntity
  8
0
  6
Continuous
 62
     7
370
    25
100
AcDbLine
 10
147.4959999361
 20
87.5211317731
 30
0.0
 11
133.4959999361
 21
87.5211317731
 31
0.0
  0
LINE
  5
187
330
1F
100
AcDbEntity
  8
0
  6
Continuous
 62
     7
370
    25
100
AcDbLine
 10
147.1036950907
 20
68.5211317731
 30
0.0
 11
147.2459999361
 21
68.5211317731
 31
0.0
  0
LINE
  5
188
330
1F
100
AcDbEntity
  8
0
  6
Continuous
 62
     7
370
    25
100
AcDbLine
 10
133.8883047816
 20
56.5211317731
 30
0.0
 11
133.7459999361
 21
56.5211317731
 31
0.0
  0
ARC
  5
189
330
1F
100
AcDbEntity
  8
0
  6
Continuous
 62
     7
370
    25
100
AcDbCircle
 10
147.2459999361
 20
68.2711317731
 30
0.0
 40
0.2500000000000091
100
AcDbArc
 50
6.2681361829
 51
90.0
  0
ARC
  5
18A
330
1F
100
AcDbEntity
  8
0
  6
Continuous
 62
     7
370
    25
100
AcDbCircle
 10
133.7459999361
 20
68.2711317731
 30
0.0
 40
0.2500000000000049
100
AcDbArc
 50
90.0
 51
173.8245252309
  0
LINE
  5
18B
330
1F
100
AcDbEntity
  8
0
  6
Continuous
 62
     7
370
    25
100
AcDbLine
 10
133.7459999361
 20
68.5211317731
 30
0.0
 11
133.8883047816
 21
68.5211317731
 31
0.0
  0
LINE
  5
18C
330
1F
100
AcDbEntity
  8
0
  6
Continuous
 62
     7
370
    25
100
AcDbLine
 10
147.2459999361
 20
56.5211317731
 30
0.0
 11
147.1036950907
 21
56.5211317731
 31
0.0
  0
ARC
  5
18D
330
1F
100
AcDbEntity
  8
0
  6
Continuous
 62
     7
370
    25
100
AcDbCircle
 10
133.7459999361
 20
56.7711317731
 30
0.0
 40
0.2500000000000052
100
AcDbArc
 50
186.2681361829
 51
270.0
  0
ARC
  5
18E
330
1F
100
AcDbEntity
  8
0
  6
Continuous
 62
     7
370
    25
100
AcDbCircle
 10
147.2459999361
 20
56.7711317731
 30
0.0
 40
0.25
100
AcDbArc
 50
270.0
 51
353.8245252309
  0
LINE
  5
18F
330
1F
100
AcDbEntity
  8
0
  6
Continuous
 62
     7
370
    25
100
AcDbLine
 10
133.7459999361
 20
69.5211317731
 30
0.0
 11
133.7459999361
 21
68.5211317731
 31
0.0
  0
LINE
  5
190
330
1F
100
AcDbEntity
  8
0
  6
Continuous
 62
     7
370
    25
100
AcDbLine
 10
133.7459999361
 20
69.5211317731
 30
0.0
 11
133.4959999361
 21
69.5211317731
 31
0.0
  0
LINE
  5
191
330
1F
100
AcDbEntity
  8
0
  6
Continuous
 62
     7
370
    25
100
AcDbLine
 10
133.4959999361
 20
68.2711317731
 30
0.0
 11
133.4959999361
 21
69.5211317731
 31
0.0
  0
LINE
  5
192
330
1F
100
AcDbEntity
  8
0
  6
Continuous
 62
     7
370
    25
100
AcDbLine
 10
147.2459999361
 20
68.5211317731
 30
0.0
 11
147.2459999361
 21
69.5211317731
 31
0.0
  0
LINE
  5
193
330
1F
100
AcDbEntity
  8
0
  6
Continuous
 62
     7
370
    25
100
AcDbLine
 10
147.2459999361
 20
69.5211317731
 30
0.0
 11
147.4959999361
 21
69.5211317731
 31
0.0
  0
LINE
  5
194
330
1F
100
AcDbEntity
  8
0
  6
Continuous
 62
     7
370
    25
100
AcDbLine
 10
147.4959999361
 20
69.5211317731
 30
0.0
 11
147.4959999361
 21
68.2711317731
 31
0.0
  0
SPLINE
  5
195
330
1F
100
AcDbEntity
  8
0
  6
Continuous
 62
     7
370
    25
100
AcDbSpline
210
0.0
220
0.0
230
1.0
 70
    24
 71
     3
 72
    14
 73
    10
 74
     0
 42
0.00000001
 43
0.00000001
 40
0.0
 40
0.0
 40
0.0
 40
0.0
 40
0.25
 40
0.25
 40
0.5
 40
0.5
 40
0.75
 40
0.75
 40
1.0
 40
1.0
 40
1.0
 40
1.0
 10
147.4959999361436
 20
70.2711317730843
 30
0.0
 10
147.4959999361436
 20
70.2711317730843
 30
0.0
 10
147.4860752462183
 20
70.2711317730843
 30
0.0
 10
147.4462805435556
 20
70.2711317730843
 30
0.0
 10
147.4164101983339
 20
70.2711317730843
 30
0.0
 10
147.336440658402
 20
70.2711317730843
 30
0.0
 10
147.2863407779661
 20
70.2711317730843
 30
0.0
 10
147.1654562289782
 20
70.2711317730843
 30
0.0
 10
147.0946704803896
 20
70.2711317730843
 30
0.0
 10
147.013241315454
 20
70.2711317730843
 30
0.0
  0
LINE
  5
196
330
1F
100
AcDbEntity
  8
0
  6
Continuous
 62
     7
370
    25
100
AcDbLine
 10
144.7596086302
 20
70.2711317731
 30
0.0
 11
147.0132413155
 21
70.2711317731
 31
0.0
  0
LINE
  5
197
330
1F
100
AcDbEntity
  8
0
  6
Continuous
 62
     7
370
    25
100
AcDbLine
 10
133.9787585568
 20
70.2711317731
 30
0.0
 11
136.2323912421
 21
70.2711317731
 31
0.0
  0
SPLINE
  5
198
330
1F
100
AcDbEntity
  8
0
  6
Continuous
 62
     7
370
    25
100
AcDbSpline
210
0.0
220
0.0
230
1.0
 70
    24
 71
     3
 72
    14
 73
    10
 74
     0
 42
0.00000001
 43
0.00000001
 40
0.0
 40
0.0
 40
0.0
 40
0.0
 40
0.25
 40
0.25
 40
0.5
 40
0.5
 40
0.75
 40
0.75
 40
1.0
 40
1.0
 40
1.0
 40
1.0
 10
133.4959999361436
 20
70.2711317730843
 30
0.0
 10
133.4959999361436
 20
70.2711317730843
 30
0.0
 10
133.505924626069
 20
70.2711317730843
 30
0.0
 10
133.5457193287317
 20
70.2711317730843
 30
0.0
 10
133.5755896739534
 20
70.2711317730843
 30
0.0
 10
133.6555592138853
 20
70.2711317730843
 30
0.0
 10
133.7056590943212
 20
70.2711317730843
 30
0.0
 10
133.8265436433091
 20
70.2711317730843
 30
0.0
 10
133.8973293918977
 20
70.2711317730843
 30
0.0
 10
133.9787585568333
 20
70.2711317730843
 30
0.0
  0
LWPOLYLINE
  5
199
330
1F
100
AcDbEntity
  8
0
  6
Continuous
 62
     7
370
    25
100
AcDbPolyline
 90
        9
 70
   128
 43
0.0
 10
136.2323912421
 20
70.2711317731
 10
136.2294653833
 20
70.2223591926
 10
136.2208002461
 20
70.175460915
 10
136.2067288268
 20
70.1322392148
 10
136.1877918823
 20
70.0943550778
 10
136.1647171485
 20
70.06326437
 10
136.1383913747
 20
70.04016189
 10
136.1098262456
 20
70.025935453
 10
136.080119503
 20
70.0211317731
  0
LWPOLYLINE
  5
19A
330
1F
100
AcDbEntity
  8
0
  6
Continuous
 62
     7
370
    25
100
AcDbPolyline
 90
        9
 70
   128
 43
0.0
 10
144.9118803693
 20
70.0211317731
 10
144.8821736267
 20
70.025935453
 10
144.8536084975
 20
70.04016189
 10
144.8272827237
 20
70.06326437
 10
144.80420799
 20
70.0943550778
 10
144.7852710455
 20
70.1322392148
 10
144.7711996262
 20
70.175460915
 10
144.762534489
 20
70.2223591926
 10
144.7596086302
 20
70.2711317731
  0
LINE
  5
19B
330
1F
100
AcDbEntity
  8
0
  6
Continuous
 62
     7
370
    25
100
AcDbLine
 10
133.7459999361
 20
70.0211317731
 30
0.0
 11
133.7459999361
 21
69.7711317731
 31
0.0
  0
LINE
  5
19C
330
1F
100
AcDbEntity
  8
0
  6
Continuous
 62
     7
370
    25
100
AcDbLine
 10
133.4959999361
 20
69.7711317731
 30
0.0
 11
133.7459999361
 21
69.7711317731
 31
0.0
  0
ARC
  5
19D
330
1F
100
AcDbEntity
  8
0
  6
Continuous
 62
     7
370
    25
100
AcDbCircle
 10
133.7459999361
 20
69.7711317731
 30
0.0
 40
0.25
100
AcDbArc
 50
90.0
 51
180.0
  0
LINE
  5
19E
330
1F
100
AcDbEntity
  8
0
  6
Continuous
 62
     7
370
    25
100
AcDbLine
 10
133.7459999361
 20
69.7711317731
 30
0.0
 11
133.7459999361
 21
69.5211317731
 31
0.0
  0
LINE
  5
19F
330
1F
100
AcDbEntity
  8
0
  6
Continuous
 62
     7
370
    25
100
AcDbLine
 10
147.2459999361
 20
69.7711317731
 30
0.0
 11
147.2459999361
 21
70.0211317731
 31
0.0
  0
ARC
  5
1A0
330
1F
100
AcDbEntity
  8
0
  6
Continuous
 62
     7
370
    25
100
AcDbCircle
 10
147.2459999361
 20
69.7711317731
 30
0.0
 40
0.25
100
AcDbArc
 50
0.0
 51
90.0
  0
LINE
  5
1A1
330
1F
100
AcDbEntity
  8
0
  6
Continuous
 62
     7
370
    25
100
AcDbLine
 10
147.2459999361
 20
69.7711317731
 30
0.0
 11
147.4959999361
 21
69.7711317731
 31
0.0
  0
LINE
  5
1A2
330
1F
100
AcDbEntity
  8
0
  6
Continuous
 62
     7
370
    25
100
AcDbLine
 10
147.2459999361
 20
69.5211317731
 30
0.0
 11
147.2459999361
 21
69.7711317731
 31
0.0
  0
LINE
  5
1A3
330
1F
100
AcDbEntity
  8
0
  6
Continuous
 62
     7
370
    25
100
AcDbLine
 10
147.4959999361
 20
69.7711317731
 30
0.0
 11
147.4959999361
 21
69.5211317731
 31
0.0
  0
LINE
  5
1A4
330
1F
100
AcDbEntity
  8
0
  6
Continuous
 62
     7
370
    25
100
AcDbLine
 10
133.4959999361
 20
69.5211317731
 30
0.0
 11
133.4959999361
 21
69.7711317731
 31
0.0
  0
LINE
  5
1A5
330
1F
100
AcDbEntity
  8
0
  6
Continuous
 62
     7
370
    25
100
AcDbLine
 10
133.7459999361
 20
70.0211317731
 30
0.0
 11
136.080119503
 21
70.0211317731
 31
0.0
  0
LINE
  5
1A6
330
1F
100
AcDbEntity
  8
0
  6
Continuous
 62
     7
370
    25
100
AcDbLine
 10
144.9118803693
 20
70.0211317731
 30
0.0
 11
147.2459999361
 21
70.0211317731
 31
0.0
  0
SPLINE
  5
1A7
330
1F
100
AcDbEntity
  8
0
  6
Continuous
 62
     7
370
    25
100
AcDbSpline
210
0.0
220
0.0
230
1.0
 70
     8
 71
     3
 72
     8
 73
     4
 74
     0
 42
0.00000001
 43
0.00000001
 40
0.0
 40
0.0
 40
0.0
 40
0.0
 40
1.0
 40
1.0
 40
1.0
 40
1.0
 10
133.9787585568333
 20
70.2711317730843
 30
0.0
 10
133.9771886541365
 20
70.20567909264814
 30
0.0
 10
133.9505333197326
 20
70.14062952763992
 30
0.0
 10
133.9058317561111
 20
70.09434906715758
 30
0.0
  0
SPLINE
  5
1A8
330
1F
100
AcDbEntity
  8
0
  6
Continuous
 62
     7
370
    25
100
AcDbSpline
210
0.0
220
0.0
230
1.0
 70
     8
 71
     3
 72
    14
 73
    10
 74
     0
 42
0.00000001
 43
0.00000001
 40
0.0
 40
0.0
 40
0.0
 40
0.0
 40
0.2455893235675696
 40
0.4556181963142487
 40
0.6303106213393677
 40
0.7701164303669036
 40
0.8759901151610805
 40
0.9502659312389182
 40
1.0
 40
1.0
 40
1.0
 40
1.0
 10
133.9058317561111
 20
70.09434906715758
 30
0.0
 10
133.8939408155719
 20
70.08338402784229
 30
0.0
 10
133.8718806999193
 20
70.06304164747013
 30
0.0
 10
133.8363170015992
 20
70.04288963499366
 30
0.0
 10
133.805524692996
 20
70.0307700755228
 30
0.0
 10
133.7802851104231
 20
70.0245642522904
 30
0.0
 10
133.7623028174883
 20
70.02194455331656
 30
0.0
 10
133.7493806540724
 20
70.02116435897153
 30
0.0
 10
133.7469676639664
 20
70.02114110076865
 30
0.0
 10
133.7459999361436
 20
70.0211317730843
 30
0.0
  0
SPLINE
  5
1A9
330
1F
100
AcDbEntity
  8
0
  6
Continuous
 62
     7
370
    25
100
AcDbSpline
210
0.0
220
0.0
230
1.0
 70
     8
 71
     3
 72
    15
 73
    11
 74
     0
 42
0.00000001
 43
0.00000001
 40
0.0
 40
0.0
 40
0.0
 40
0.0
 40
0.0425877399909108
 40
0.1028282325346858
 40
0.1864706729280343
 40
0.2956205441869044
 40
0.4311891005861843
 40
0.5936297641565587
 40
0.7831876993469675
 40
1.0
 40
1.0
 40
1.0
 40
1.0
 10
147.2459999361436
 20
70.0211317730843
 30
0.0
 10
147.2452844345468
 20
70.02113756618644
 30
0.0
 10
147.2435568536845
 20
70.02115155364984
 30
0.0
 10
147.2336826745896
 20
70.02164325448159
 30
0.0
 10
147.2197889947673
 20
70.02327060844017
 30
0.0
 10
147.2002917369456
 20
70.02709575682425
 30
0.0
 10
147.1760868840964
 20
70.03446806686506
 30
0.0
 10
147.1477182274323
 20
70.04708605584189
 30
0.0
 10
147.1161790566887
 20
70.06633025804605
 30
0.0
 10
147.0966092641163
 20
70.08460100441631
 30
0.0
 10
147.0861681161762
 20
70.09434906715757
 30
0.0
  0
SPLINE
  5
1AA
330
1F
100
AcDbEntity
  8
0
  6
Continuous
 62
     7
370
    25
100
AcDbSpline
210
0.0
220
0.0
230
1.0
 70
     8
 71
     3
 72
     8
 73
     4
 74
     0
 42
0.00000001
 43
0.00000001
 40
0.0
 40
0.0
 40
0.0
 40
0.0
 40
1.0
 40
1.0
 40
1.0
 40
1.0
 10
147.0861681161762
 20
70.09434906715757
 30
0.0
 10
147.0414665525547
 20
70.14062952763992
 30
0.0
 10
147.0148112181508
 20
70.20567909264814
 30
0.0
 10
147.013241315454
 20
70.2711317730843
 30
0.0
  0
LINE
  5
1AB
330
1F
100
AcDbEntity
  8
0
  6
Continuous
 62
     7
370
    25
100
AcDbLine
 10
143.3244270609
 20
61.5211317731
 30
0.0
 11
137.6675728114
 21
61.5211317731
 31
0.0
  0
SPLINE
  5
1AC
330
1F
100
AcDbEntity
  8
0
  6
Continuous
 62
     7
370
    25
100
AcDbSpline
210
0.0
220
0.0
230
1.0
 70
     8
 71
     3
 72
    12
 73
     8
 74
     0
 42
0.00000001
 43
0.00000001
 40
0.0
 40
0.0
 40
0.0
 40
0.0
 40
0.25
 40
0.25
 40
0.5
 40
0.5
 40
1.0
 40
1.0
 40
1.0
 40
1.0
 10
133.4971094754257
 20
70.02285153073862
 30
0.0
 10
133.4971180828109
 20
70.01260943228954
 30
0.0
 10
133.5057278931411
 20
70.00507022073621
 30
0.0
 10
133.5272090034113
 20
69.99074070511186
 30
0.0
 10
133.5400803033514
 20
69.98395040104084
 30
0.0
 10
133.5656750631666
 20
69.95771755058757
 30
0.0
 10
133.5693496063654
 20
69.94803483389927
 30
0.0
 10
133.5692232408455
 20
69.94790846837944
 30
0.0
  0
LINE
  5
1AD
330
1F
100
AcDbEntity
  8
0
  6
Continuous
 62
     7
370
    25
100
AcDbLine
 10
133.495644873
 20
69.829265644
 30
0.0
 11
133.4952592636
 21
69.89240081
 31
0.0
  0
LINE
  5
1AE
330
1F
100
AcDbEntity
  8
0
  6
Continuous
 62
     7
370
    25
100
AcDbLine
 10
147.4963549992
 20
69.829265644
 30
0.0
 11
147.4967406087
 21
69.89240081
 31
0.0
  0
SPLINE
  5
1AF
330
1F
100
AcDbEntity
  8
0
  6
Continuous
 62
     7
370
    25
100
AcDbSpline
210
0.0
220
0.0
230
1.0
 70
     8
 71
     3
 72
    12
 73
     8
 74
     0
 42
0.00000001
 43
0.00000001
 40
0.0
 40
0.0
 40
0.0
 40
0.0
 40
0.25
 40
0.25
 40
0.5
 40
0.5
 40
1.0
 40
1.0
 40
1.0
 40
1.0
 10
147.4948903968616
 20
70.02285153073862
 30
0.0
 10
147.4948817894764
 20
70.01260943228954
 30
0.0
 10
147.4862719791462
 20
70.00507022073621
 30
0.0
 10
147.464790868876
 20
69.99074070511186
 30
0.0
 10
147.4519195689359
 20
69.98395040104086
 30
0.0
 10
147.4263248091206
 20
69.95771755058757
 30
0.0
 10
147.4226502659219
 20
69.94803483389927
 30
0.0
 10
147.4227766314418
 20
69.94790846837944
 30
0.0
  0
SPLINE
  5
1B0
330
1F
100
AcDbEntity
  8
0
  6
Continuous
 62
     7
370
    25
100
AcDbSpline
210
0.0
220
0.0
230
1.0
 70
     8
 71
     3
 72
    14
 73
    10
 74
     0
 42
0.00000001
 43
0.00000001
 40
0.0
 40
0.0
 40
0.0
 40
0.0
 40
0.25
 40
0.25
 40
0.5
 40
0.5
 40
0.75
 40
0.75
 40
1.0
 40
1.0
 40
1.0
 40
1.0
 10
147.4948903968616
 20
70.02285153073862
 30
0.0
 10
147.4948990042468
 20
70.03309362918768
 30
0.0
 10
147.486307869062
 20
70.04777634365108
 30
0.0
 10
147.4499982695517
 20
70.07959873430896
 30
0.0
 10
147.4222798052263
 20
70.0967384105034
 30
0.0
 10
147.3457877034341
 20
70.12705045432577
 30
0.0
 10
147.3012619673283
 20
70.13292025251533
 30
0.0
 10
147.2013928471321
 20
70.12682569843504
 30
0.0
 10
147.1460494630417
 20
70.1148613461652
 30
0.0
 10
147.0861681161762
 20
70.09434906715758
 30
0.0
  0
SPLINE
  5
1B1
330
1F
100
AcDbEntity
  8
0
  6
Continuous
 62
     7
370
    25
100
AcDbSpline
210
0.0
220
0.0
230
1.0
 70
     8
 71
     3
 72
    12
 73
     8
 74
     0
 42
0.00000001
 43
0.00000001
 40
0.0
 40
0.0
 40
0.0
 40
0.0
 40
0.25
 40
0.25
 40
0.5
 40
0.5
 40
1.0
 40
1.0
 40
1.0
 40
1.0
 10
133.4971094754257
 20
70.02285153073862
 30
0.0
 10
133.4971008680405
 20
70.03309362918768
 30
0.0
 10
133.5056920032253
 20
70.04777634365108
 30
0.0
 10
133.5420016027356
 20
70.07959873430895
 30
0.0
 10
133.569720067061
 20
70.0967384105034
 30
0.0
 10
133.6844582197492
 20
70.14220647623695
 30
0.0
 10
133.7860690623802
 20
70.13537362517282
 30
0.0
 10
133.9058317561111
 20
70.09434906715758
 30
0.0
  0
SPLINE
  5
1B2
330
1F
100
AcDbEntity
  8
0
  6
Continuous
 62
     7
370
    25
100
AcDbSpline
210
0.0
220
0.0
230
1.0
 70
     8
 71
     3
 72
    10
 73
     6
 74
     0
 42
0.00000001
 43
0.00000001
 40
0.0
 40
0.0
 40
0.0
 40
0.0
 40
0.5
 40
0.5
 40
1.0
 40
1.0
 40
1.0
 40
1.0
 10
133.4971094754257
 20
70.02285153073862
 30
0.0
 10
133.4970750458849
 20
70.06381992453488
 30
0.0
 10
133.4966933684507
 20
70.10727537160682
 30
0.0
 10
133.5003853825769
 20
70.19636121682404
 30
0.0
 10
133.4959999361436
 20
70.22874844543938
 30
0.0
 10
133.4959999361436
 20
70.2711317730843
 30
0.0
  0
SPLINE
  5
1B3
330
1F
100
AcDbEntity
  8
0
  6
Continuous
 62
     7
370
    25
100
AcDbSpline
210
0.0
220
0.0
230
1.0
 70
     8
 71
     3
 72
     9
 73
     5
 74
     0
 42
0.00000001
 43
0.00000001
 40
0.0
 40
0.0
 40
0.0
 40
0.0
 40
0.1238836936197441
 40
1.0
 40
1.0
 40
1.0
 40
1.0
 10
147.4942654700494
 20
70.15180659329836
 30
0.0
 10
147.4941807743216
 20
70.14648183404523
 30
0.0
 10
147.4934971030063
 20
70.10349991207033
 30
0.0
 10
147.4942397509171
 20
70.06051303484024
 30
0.0
 10
147.4948903968616
 20
70.02285153073862
 30
0.0
  0
LINE
  5
1B4
330
1F
100
AcDbEntity
  8
0
  6
Continuous
 62
     7
370
    25
100
AcDbLine
 10
140.4959999361
 20
73.5211317731
 30
0.0
 11
133.4959999361
 21
73.5211317731
 31
0.0
  0
LINE
  5
1B5
330
1F
100
AcDbEntity
  8
0
  6
Continuous
 62
     7
370
    25
100
AcDbLine
 10
147.4959999361
 20
73.5211317731
 30
0.0
 11
140.4959999361
 21
73.5211317731
 31
0.0
  0
LINE
  5
1B6
330
1F
100
AcDbEntity
  8
0
  6
Continuous
 62
     7
370
    25
100
AcDbLine
 10
147.2459999361
 20
68.4404517397
 30
0.0
 11
147.2459999361
 21
68.5211317731
 31
0.0
  0
LINE
  5
1B7
330
1F
100
AcDbEntity
  8
0
  6
Continuous
 62
     7
370
    25
100
AcDbLine
 10
133.7459999361
 20
56.5211317731
 30
0.0
 11
133.7459999361
 21
56.6025015786
 31
0.0
  0
LINE
  5
1B8
330
1F
100
AcDbEntity
  8
0
  6
Continuous
 62
     7
370
    25
100
AcDbLine
 10
133.7459999361
 20
68.5211317731
 30
0.0
 11
133.7459999361
 21
68.4397619676
 31
0.0
  0
LINE
  5
1B9
330
1F
100
AcDbEntity
  8
0
  6
Continuous
 62
     7
370
    25
100
AcDbLine
 10
147.2459999361
 20
56.6018118064
 30
0.0
 11
147.2459999361
 21
56.5211317731
 31
0.0
  0
LINE
  5
1BA
330
1F
100
AcDbEntity
  8
0
  6
Continuous
 62
     7
370
    25
100
AcDbLine
 10
133.7459999361
 20
69.5211317731
 30
0.0
 11
135.6203555891
 21
69.5211317731
 31
0.0
  0
LINE
  5
1BB
330
1F
100
AcDbEntity
  8
0
  6
Continuous
 62
     7
370
    25
100
AcDbLine
 10
145.3716442832
 20
69.5211317731
 30
0.0
 11
147.2459999361
 21
69.5211317731
 31
0.0
  0
SPLINE
  5
1BC
330
1F
100
AcDbEntity
  8
0
  6
Continuous
 62
     7
370
    25
100
AcDbSpline
210
0.0
220
0.0
230
1.0
 70
     8
 71
     3
 72
     9
 73
     5
 74
     0
 42
0.00000001
 43
0.00000001
 40
0.0
 40
0.0
 40
0.0
 40
0.0
 40
0.3247397226771505
 40
1.0
 40
1.0
 40
1.0
 40
1.0
 10
144.3095077241298
 20
70.13435660135741
 30
0.0
 10
144.3559349432855
 20
70.16363329799577
 30
0.0
 10
144.4989024212799
 20
70.25378764190232
 30
0.0
 10
144.6545237372522
 20
70.26414073832368
 30
0.0
 10
144.7596086302329
 20
70.2711317730843
 30
0.0
  0
SPLINE
  5
1BD
330
1F
100
AcDbEntity
  8
0
  6
Continuous
 62
     7
370
    25
100
AcDbSpline
210
0.0
220
0.0
230
1.0
 70
     8
 71
     3
 72
    10
 73
     6
 74
     0
 42
0.00000001
 43
0.00000001
 40
0.0
 40
0.0
 40
0.0
 40
0.0
 40
0.3884692519613107
 40
0.7768298355678156
 40
1.0
 40
1.0
 40
1.0
 40
1.0
 10
136.2323912420543
 20
70.2711317730843
 30
0.0
 10
136.292046631968
 20
70.26691735517657
 30
0.0
 10
136.4113407241089
 20
70.2584896982803
 30
0.0
 10
136.5673125105804
 20
70.21340900111912
 30
0.0
 10
136.6545248709996
 20
70.15712509685613
 30
0.0
 10
136.6863518835867
 20
70.13658502064649
 30
0.0
  0
LINE
  5
1BE
330
1F
100
AcDbEntity
  8
0
  6
Continuous
 62
     7
370
    25
100
AcDbLine
 10
136.080119503
 20
70.0211317731
 30
0.0
 11
136.4245349308
 21
69.9854249325
 31
0.0
  0
SPLINE
  5
1BF
330
1F
100
AcDbEntity
  8
0
  6
Continuous
 62
     7
370
    25
100
AcDbSpline
210
0.0
220
0.0
230
1.0
 70
     8
 71
     3
 72
     9
 73
     5
 74
     0
 42
0.00000001
 43
0.00000001
 40
0.0
 40
0.0
 40
0.0
 40
0.0
 40
0.0721725411059572
 40
1.0
 40
1.0
 40
1.0
 40
1.0
 10
144.5668573167701
 20
69.98577574477066
 30
0.0
 10
144.5750136556667
 20
69.98805445396378
 30
0.0
 10
144.6880253187117
 20
70.01962753090122
 30
0.0
 10
144.8041431017442
 20
70.02040780933129
 30
0.0
 10
144.9118803693076
 20
70.0211317730843
 30
0.0
  0
LINE
  5
1C0
330
1F
100
AcDbEntity
  8
0
  6
Continuous
 62
     7
370
    25
100
AcDbLine
 10
136.053368291
 20
69.7711317731
 30
0.0
 11
133.7459999361
 21
69.7711317731
 31
0.0
  0
LINE
  5
1C1
330
1F
100
AcDbEntity
  8
0
  6
Continuous
 62
     7
370
    25
100
AcDbLine
 10
147.2459999361
 20
69.7711317731
 30
0.0
 11
144.9386315813
 21
69.7711317731
 31
0.0
  0
SPLINE
  5
1C2
330
1F
100
AcDbEntity
  8
0
  6
Continuous
 62
     7
370
    25
100
AcDbSpline
210
0.0
220
0.0
230
1.0
 70
     8
 71
     3
 72
     9
 73
     5
 74
     0
 42
0.00000001
 43
0.00000001
 40
0.0
 40
0.0
 40
0.0
 40
0.0
 40
0.1250376544250829
 40
1.0
 40
1.0
 40
1.0
 40
1.0
 10
133.4952592636214
 20
69.89240080995724
 30
0.0
 10
133.4952181687355
 20
69.8978385426332
 30
0.0
 10
133.4948895086519
 20
69.94132730368644
 30
0.0
 10
133.4960735147089
 20
69.98480776463788
 30
0.0
 10
133.4971094754257
 20
70.02285153073862
 30
0.0
  0
SPLINE
  5
1C3
330
1F
100
AcDbEntity
  8
0
  6
Continuous
 62
     7
370
    25
100
AcDbSpline
210
0.0
220
0.0
230
1.0
 70
     8
 71
     3
 72
     9
 73
     5
 74
     0
 42
0.00000001
 43
0.00000001
 40
0.0
 40
0.0
 40
0.0
 40
0.0
 40
0.1250376543823382
 40
1.0
 40
1.0
 40
1.0
 40
1.0
 10
147.4967406086659
 20
69.8924008099636
 30
0.0
 10
147.4967817035518
 20
69.89783854263744
 30
0.0
 10
147.4971103636354
 20
69.94132730368855
 30
0.0
 10
147.4959263575784
 20
69.98480776463786
 30
0.0
 10
147.4948903968616
 20
70.02285153073862
 30
0.0
  0
LINE
  5
1C4
330
1F
100
AcDbEntity
  8
0
  6
Continuous
 62
     7
370
    25
100
AcDbLine
 10
147.4959999361
 20
70.2711317731
 30
0.0
 11
147.49426547
 21
70.1518065933
 31
0.0
  0
INSERT
  5
1D0
330
1F
100
AcDbEntity
  8
FORMAT
100
AcDbBlockReference
  2
SW_CENTERMARKSYMBOL_0
 10
140.4959999361
 20
62.5211317731
 30
0.0
  0
ARC
  5
1D1
330
1F
100
AcDbEntity
  8
FORMAT
  6
HIDDEN
100
AcDbCircle
 10
140.4959999361
 20
62.5211317731
 30
0.0
 40
5.722500000000011
100
AcDbArc
 50
75.0
 51
345.0
  0
LINE
  5
1D2
330
1F
100
AcDbEntity
  8
FORMAT
100
AcDbLine
 10
147.9292901525
 20
86.7706511039
 30
0.0
 11
148.3126175797
 21
74.5041734362
 31
0.0
  0
LINE
  5
1D3
330
1F
100
AcDbEntity
  8
FORMAT
100
AcDbLine
 10
133.0627097197
 20
86.7706511039
 30
0.0
 11
132.6793822926
 21
74.5041734362
 31
0.0
  0
LINE
  5
1D4
330
1F
100
AcDbEntity
  8
0
  6
Continuous
 62
     7
370
    25
100
AcDbLine
 10
107.5493570481
 20
121.2302387593
 30
0.0
 11
107.4050194808
 21
120.9802387593
 31
0.0
  0
LINE
  5
1D5
330
1F
100
AcDbEntity
  8
0
  6
Continuous
 62
     7
370
    25
100
AcDbLine
 10
107.4050194808
 20
104.4802387593
 30
0.0
 11
107.5493570481
 21
104.2302387593
 31
0.0
  0
LINE
  5
1D6
330
1F
100
AcDbEntity
  8
0
  6
Continuous
 62
     7
370
    25
100
AcDbLine
 10
120.2050194808
 20
104.4802387593
 30
0.0
 11
120.4050194808
 21
104.6802387593
 31
0.0
  0
LINE
  5
1D7
330
1F
100
AcDbEntity
  8
0
  6
Continuous
 62
     7
370
    25
100
AcDbLine
 10
120.4050194808
 20
120.7802387593
 30
0.0
 11
120.2050194808
 21
120.9802387593
 31
0.0
  0
LINE
  5
1D8
330
1F
100
AcDbEntity
  8
0
  6
Continuous
 62
     7
370
    25
100
AcDbLine
 10
120.2050194808
 20
120.9802387593
 30
0.0
 11
119.3213352752
 21
120.9802387593
 31
0.0
  0
LINE
  5
1D9
330
1F
100
AcDbEntity
  8
0
  6
Continuous
 62
     7
370
    25
100
AcDbLine
 10
119.3213352752
 20
104.4802387593
 30
0.0
 11
120.2050194808
 21
104.4802387593
 31
0.0
  0
SPLINE
  5
1DA
330
1F
100
AcDbEntity
  8
0
  6
Continuous
 62
     7
370
    25
100
AcDbSpline
210
0.0
220
0.0
230
1.0
 70
     8
 71
     3
 72
    13
 73
     9
 74
     0
 42
0.00000001
 43
0.00000001
 40
0.0
 40
0.0
 40
0.0
 40
0.0
 40
0.0198117296791334
 40
0.1946284265587916
 40
0.3862198969018148
 40
0.5929474731645313
 40
0.8122425893967854
 40
1.0
 40
1.0
 40
1.0
 40
1.0
 10
118.7616019780317
 20
104.2287629233212
 30
0.0
 10
118.7639939163457
 20
104.2317321244003
 30
0.0
 10
118.7874920761736
 20
104.2609012551888
 30
0.0
 10
118.8489128682489
 20
104.3158526941551
 30
0.0
 10
118.9475094073596
 20
104.3850226784483
 30
0.0
 10
119.067476815339
 20
104.4399536477753
 30
0.0
 10
119.1945961736954
 20
104.4749835008825
 30
0.0
 10
119.2816123694296
 20
104.4771466402959
 30
0.0
 10
119.3217495372752
 20
104.4781444119057
 30
0.0
  0
SPLINE
  5
1DB
330
1F
100
AcDbEntity
  8
0
  6
Continuous
 62
     7
370
    25
100
AcDbSpline
210
0.0
220
0.0
230
1.0
 70
     8
 71
     3
 72
    13
 73
     9
 74
     0
 42
0.00000001
 43
0.00000001
 40
0.0
 40
0.0
 40
0.0
 40
0.0
 40
0.1578185204236581
 40
0.3598881198442566
 40
0.5489786220426134
 40
0.7252754917374984
 40
0.8879200475693927
 40
1.0
 40
1.0
 40
1.0
 40
1.0
 10
119.321619807177
 20
120.9828879981714
 30
0.0
 10
119.2875751968817
 20
120.9831570846612
 30
0.0
 10
119.2099401337908
 20
120.9837707073884
 30
0.0
 10
119.0943284894543
 20
121.0121215379192
 30
0.0
 10
118.9811630086288
 20
121.0580528855877
 30
0.0
 10
118.8849441571948
 20
121.1171836357134
 30
0.0
 10
118.8102529410537
 20
121.1778119408477
 30
0.0
 10
118.7733147267561
 20
121.2192134065559
 30
0.0
 10
118.7582449634957
 20
121.2361040521576
 30
0.0
  0
LINE
  5
1DC
330
1F
100
AcDbEntity
  8
0
  6
Continuous
 62
     7
370
    25
100
AcDbLine
 10
99.9066855306
 20
105.7302387593
 30
0.0
 11
101.6566855306
 21
105.7302387593
 31
0.0
  0
LINE
  5
1DD
330
1F
100
AcDbEntity
  8
0
  6
Continuous
 62
     7
370
    25
100
AcDbLine
 10
101.6566855306
 20
119.7302387593
 30
0.0
 11
99.9066855306
 21
119.7302387593
 31
0.0
  0
LINE
  5
1DE
330
1F
100
AcDbEntity
  8
0
  6
Continuous
 62
     7
370
    25
100
AcDbLine
 10
101.6566855306
 20
105.7302387593
 30
0.0
 11
102.0781855306
 21
106.1517387593
 31
0.0
  0
LINE
  5
1DF
330
1F
100
AcDbEntity
  8
0
  6
Continuous
 62
     7
370
    25
100
AcDbLine
 10
102.0781855306
 20
119.3087387593
 30
0.0
 11
101.6566855306
 21
119.7302387593
 31
0.0
  0
LINE
  5
1E0
330
1F
100
AcDbEntity
  8
0
  6
Continuous
 62
     7
370
    25
100
AcDbLine
 10
107.4050194808
 20
119.3087387593
 30
0.0
 11
102.0781855306
 21
119.3087387593
 31
0.0
  0
LINE
  5
1E1
330
1F
100
AcDbEntity
  8
0
  6
Continuous
 62
     7
370
    25
100
AcDbLine
 10
102.0781855306
 20
106.1517387593
 30
0.0
 11
107.4050194808
 21
106.1517387593
 31
0.0
  0
SPLINE
  5
1E2
330
1F
100
AcDbEntity
  8
0
  6
Continuous
 62
     7
370
    25
100
AcDbSpline
210
0.0
220
0.0
230
1.0
 70
     8
 71
     3
 72
    10
 73
     6
 74
     0
 42
0.00000001
 43
0.00000001
 40
0.0
 40
0.0
 40
0.0
 40
0.0
 40
0.3089808900029887
 40
0.6190948628358313
 40
1.0
 40
1.0
 40
1.0
 40
1.0
 10
118.6885131298322
 20
118.2473096925936
 30
0.0
 10
118.7126601363689
 20
117.9867261778773
 30
0.0
 10
118.7610427004154
 20
117.464603546607
 30
0.0
 10
118.7684977931321
 20
116.6176112358865
 30
0.0
 10
118.7169354453325
 20
116.0345591388801
 30
0.0
 10
118.6885131298322
 20
115.7131678260045
 30
0.0
  0
SPLINE
  5
1E3
330
1F
100
AcDbEntity
  8
0
  6
Continuous
 62
     7
370
    25
100
AcDbSpline
210
0.0
220
0.0
230
1.0
 70
     8
 71
     3
 72
    11
 73
     7
 74
     0
 42
0.00000001
 43
0.00000001
 40
0.0
 40
0.0
 40
0.0
 40
0.0
 40
0.2488617730236806
 40
0.4977454583558505
 40
0.7488627517928869
 40
1.0
 40
1.0
 40
1.0
 40
1.0
 10
118.6885131298322
 20
115.7131678260045
 30
0.0
 10
118.6553590746158
 20
115.4620856181336
 30
0.0
 10
118.5890480449647
 20
114.9598990945738
 30
0.0
 10
118.4310060388797
 20
114.2115845781523
 30
0.0
 10
118.238153859433
 20
113.4672564052736
 30
0.0
 10
118.0803817325445
 20
112.9759178149822
 30
0.0
 10
118.001492534926
 20
112.7302387592991
 30
0.0
  0
LINE
  5
1E4
330
1F
100
AcDbEntity
  8
0
  6
Continuous
 62
     7
370
    25
100
AcDbLine
 10
108.3085464266
 20
112.7302387593
 30
0.0
 11
118.0014925349
 21
112.7302387593
 31
0.0
  0
SPLINE
  5
1E5
330
1F
100
AcDbEntity
  8
0
  6
Continuous
 62
     7
370
    25
100
AcDbSpline
210
0.0
220
0.0
230
1.0
 70
     8
 71
     3
 72
    15
 73
    11
 74
     0
 42
0.00000001
 43
0.00000001
 40
0.0
 40
0.0
 40
0.0
 40
0.0
 40
0.1323052378296956
 40
0.2645730682660304
 40
0.3997997819746812
 40
0.5350020935366634
 40
0.6501929590834554
 40
0.7654017933211805
 40
0.8826895567076665
 40
1.0
 40
1.0
 40
1.0
 40
1.0
 10
108.3085464266305
 20
112.7302387592991
 30
0.0
 10
108.1929764547905
 20
113.0974725772621
 30
0.0
 10
107.9618691868494
 20
113.831836383135
 30
0.0
 10
107.713206555273
 20
114.9626916377303
 30
0.0
 10
107.5636926081195
 20
116.1148637033233
 30
0.0
 10
107.5340823210711
 20
117.2252999159836
 30
0.0
 10
107.6109037237217
 20
118.2757450222353
 30
0.0
 10
107.7683131948428
 20
119.2671067488969
 30
0.0
 10
107.9992155553738
 20
120.2539862407069
 30
0.0
 10
108.2054294909311
 20
120.9048002805044
 30
0.0
 10
108.3085464266305
 20
121.2302387592991
 30
0.0
  0
LINE
  5
1E6
330
1F
100
AcDbEntity
  8
0
  6
Continuous
 62
     7
370
    25
100
AcDbLine
 10
108.3085464266
 20
121.2302387593
 30
0.0
 11
118.0014925349
 21
121.2302387593
 31
0.0
  0
SPLINE
  5
1E7
330
1F
100
AcDbEntity
  8
0
  6
Continuous
 62
     7
370
    25
100
AcDbSpline
210
0.0
220
0.0
230
1.0
 70
     8
 71
     3
 72
    11
 73
     7
 74
     0
 42
0.00000001
 43
0.00000001
 40
0.0
 40
0.0
 40
0.0
 40
0.0
 40
0.2490252138763564
 40
0.4980311639765297
 40
0.74902692048002
 40
1.0
 40
1.0
 40
1.0
 40
1.0
 10
118.001492534926
 20
121.2302387592991
 30
0.0
 10
118.0797414077514
 20
120.9866319955371
 30
0.0
 10
118.2362331003254
 20
120.4994373126358
 30
0.0
 10
118.4290159886918
 20
119.75730176784
 30
0.0
 10
118.5880818739266
 20
119.0069600063664
 30
0.0
 10
118.6550370527878
 20
118.5005188375092
 30
0.0
 10
118.6885131298322
 20
118.2473096925936
 30
0.0
  0
SPLINE
  5
1E8
330
1F
100
AcDbEntity
  8
0
  6
Continuous
 62
     7
370
    25
100
AcDbSpline
210
0.0
220
0.0
230
1.0
 70
    24
 71
     3
 72
    12
 73
     8
 74
     0
 42
0.00000001
 43
0.00000001
 40
0.0
 40
0.0
 40
0.0
 40
0.0
 40
0.2421119368038702
 40
0.4305522141413738
 40
0.6190123446987332
 40
0.8094966623441782
 40
0.9999999999999999
 40
0.9999999999999999
 40
0.9999999999999999
 40
0.9999999999999999
 10
107.5529740371367
 20
104.2302387592991
 30
0.0
 10
107.5608212002718
 20
104.2302387592991
 30
0.0
 10
107.5747759581707
 20
104.2302387592991
 30
0.0
 10
107.6944810365199
 20
104.2302387592991
 30
0.0
 10
107.8514031261625
 20
104.2302387592991
 30
0.0
 10
108.0551379417175
 20
104.2302387592991
 30
0.0
 10
108.2240741203979
 20
104.2302387592991
 30
0.0
 10
108.3085464266305
 20
104.2302387592991
 30
0.0
  0
SPLINE
  5
1E9
330
1F
100
AcDbEntity
  8
0
  6
Continuous
 62
     7
370
    25
100
AcDbSpline
210
0.0
220
0.0
230
1.0
 70
    24
 71
     3
 72
    12
 73
     8
 74
     0
 42
0.00000001
 43
0.00000001
 40
0.0
 40
0.0
 40
0.0
 40
0.0
 40
0.1885930463455553
 40
0.3771678562647772
 40
0.5675370445981964
 40
0.757885538844639
 40
1.0
 40
1.0
 40
1.0
 40
1.0
 10
108.3085464266305
 20
121.2302387592991
 30
0.0
 10
108.224887581332
 20
121.2302387592991
 30
0.0
 10
108.057577980314
 20
121.2302387592991
 30
0.0
 10
107.8538897924968
 20
121.2302387592991
 30
0.0
 10
107.6955958094322
 20
121.2302387592991
 30
0.0
 10
107.5751332645793
 20
121.2302387592991
 30
0.0
 10
107.56006741327
 20
121.2302387592991
 30
0.0
 10
107.5516327937816
 20
121.2302387592991
 30
0.0
  0
SPLINE
  5
1EA
330
1F
100
AcDbEntity
  8
0
  6
Continuous
 62
     7
370
    25
100
AcDbSpline
210
0.0
220
0.0
230
1.0
 70
     8
 71
     3
 72
    15
 73
    11
 74
     0
 42
0.00000001
 43
0.00000001
 40
0.0
 40
0.0
 40
0.0
 40
0.0
 40
0.1323052378296973
 40
0.2645730682660339
 40
0.3997997819746865
 40
0.5350020935366704
 40
0.6501929590834608
 40
0.7654017933211844
 40
0.8826895567076685
 40
1.0
 40
1.0
 40
1.0
 40
1.0
 10
108.3085464266305
 20
104.2302387592991
 30
0.0
 10
108.1929764547905
 20
104.5974725772621
 30
0.0
 10
107.9618691868494
 20
105.331836383135
 30
0.0
 10
107.713206555273
 20
106.4626916377304
 30
0.0
 10
107.5636926081195
 20
107.6148637033233
 30
0.0
 10
107.5340823210711
 20
108.7252999159836
 30
0.0
 10
107.6109037237218
 20
109.7757450222353
 30
0.0
 10
107.7683131948428
 20
110.7671067488969
 30
0.0
 10
107.9992155553738
 20
111.7539862407069
 30
0.0
 10
108.2054294909311
 20
112.4048002805044
 30
0.0
 10
108.3085464266305
 20
112.7302387592991
 30
0.0
  0
LINE
  5
1EB
330
1F
100
AcDbEntity
  8
0
  6
Continuous
 62
     7
370
    25
100
AcDbLine
 10
107.4050194808
 20
104.4802387593
 30
0.0
 11
107.4050194808
 21
120.9802387593
 31
0.0
  0
LINE
  5
1EC
330
1F
100
AcDbEntity
  8
0
  6
Continuous
 62
     7
370
    25
100
AcDbLine
 10
118.6885131298
 20
109.7473096926
 30
0.0
 11
118.6885131298
 21
115.713167826
 31
0.0
  0
SPLINE
  5
1ED
330
1F
100
AcDbEntity
  8
0
  6
Continuous
 62
     7
370
    25
100
AcDbSpline
210
0.0
220
0.0
230
1.0
 70
     8
 71
     3
 72
    11
 73
     7
 74
     0
 42
0.00000001
 43
0.00000001
 40
0.0
 40
0.0
 40
0.0
 40
0.0
 40
0.2490252138763565
 40
0.4980311639765297
 40
0.7490269204800202
 40
1.0
 40
1.0
 40
1.0
 40
1.0
 10
118.001492534926
 20
112.7302387592991
 30
0.0
 10
118.0797414077515
 20
112.4866319955371
 30
0.0
 10
118.2362331003254
 20
111.9994373126357
 30
0.0
 10
118.4290159886918
 20
111.25730176784
 30
0.0
 10
118.5880818739266
 20
110.5069600063663
 30
0.0
 10
118.6550370527878
 20
110.0005188375091
 30
0.0
 10
118.6885131298322
 20
109.7473096925935
 30
0.0
  0
SPLINE
  5
1EE
330
1F
100
AcDbEntity
  8
0
  6
Continuous
 62
     7
370
    25
100
AcDbSpline
210
0.0
220
0.0
230
1.0
 70
     8
 71
     3
 72
    10
 73
     6
 74
     0
 42
0.00000001
 43
0.00000001
 40
0.0
 40
0.0
 40
0.0
 40
0.0
 40
0.3089808900030074
 40
0.6190948628358686
 40
1.0
 40
1.0
 40
1.0
 40
1.0
 10
118.6885131298322
 20
109.7473096925935
 30
0.0
 10
118.7126601363689
 20
109.4867261778772
 30
0.0
 10
118.7610427004154
 20
108.9646035466069
 30
0.0
 10
118.7684977931321
 20
108.1176112358865
 30
0.0
 10
118.7169354453325
 20
107.5345591388802
 30
0.0
 10
118.6885131298322
 20
107.2131678260047
 30
0.0
  0
SPLINE
  5
1EF
330
1F
100
AcDbEntity
  8
0
  6
Continuous
 62
     7
370
    25
100
AcDbSpline
210
0.0
220
0.0
230
1.0
 70
     8
 71
     3
 72
    11
 73
     7
 74
     0
 42
0.00000001
 43
0.00000001
 40
0.0
 40
0.0
 40
0.0
 40
0.0
 40
0.2488617730236801
 40
0.49774545835585
 40
0.7488627517928869
 40
1.0
 40
1.0
 40
1.0
 40
1.0
 10
118.6885131298322
 20
107.2131678260047
 30
0.0
 10
118.6553590746158
 20
106.9620856181338
 30
0.0
 10
118.5890480449647
 20
106.4598990945739
 30
0.0
 10
118.4310060388797
 20
105.7115845781524
 30
0.0
 10
118.238153859433
 20
104.9672564052736
 30
0.0
 10
118.0803817325445
 20
104.4759178149823
 30
0.0
 10
118.001492534926
 20
104.2302387592991
 30
0.0
  0
LINE
  5
1F0
330
1F
100
AcDbEntity
  8
0
  6
Continuous
 62
     7
370
    25
100
AcDbLine
 10
108.3085464266
 20
104.2302387593
 30
0.0
 11
118.0014925349
 21
104.2302387593
 31
0.0
  0
ARC
  5
1F1
330
1F
100
AcDbEntity
  8
0
  6
Continuous
 62
     7
370
    25
100
AcDbCircle
 10
119.2757363183
 20
116.9627773483
 30
0.0
 40
1.380708162956951
100
AcDbArc
 50
244.8299789717
 51
272.5859934179
  0
LINE
  5
1F2
330
1F
100
AcDbEntity
  8
0
  6
Continuous
 62
     7
370
    25
100
AcDbLine
 10
119.3380321827
 20
115.5834752579
 30
0.0
 11
119.3380321827
 21
109.8770022607
 31
0.0
  0
ARC
  5
1F3
330
1F
100
AcDbEntity
  8
0
  6
Continuous
 62
     7
370
    25
100
AcDbCircle
 10
119.2757363183
 20
108.4977001703
 30
0.0
 40
1.380708162956669
100
AcDbArc
 50
87.4140065821
 51
115.1700210283
  0
LINE
  5
1F4
330
1F
100
AcDbEntity
  8
0
  6
Continuous
 62
     7
370
    25
100
AcDbLine
 10
120.4050194808
 20
120.7802387593
 30
0.0
 11
120.4050194808
 21
104.6802387593
 31
0.0
  0
LINE
  5
1F5
330
1F
100
AcDbEntity
  8
0
  6
Continuous
 62
     7
370
    25
100
AcDbLine
 10
120.2050194808
 20
104.4802387593
 30
0.0
 11
120.2050194808
 21
120.9802387593
 31
0.0
  0
LINE
  5
1F6
330
1F
100
AcDbEntity
  8
0
  6
Continuous
 62
     7
370
    25
100
AcDbLine
 10
119.3380321827
 20
107.4530404753
 30
0.0
 11
119.3380321827
 21
104.5998039767
 31
0.0
  0
SPLINE
  5
1F7
330
1F
100
AcDbEntity
  8
0
  6
Continuous
 62
     7
370
    25
100
AcDbSpline
210
0.0
220
0.0
230
1.0
 70
     8
 71
     3
 72
    11
 73
     7
 74
     0
 42
0.00000001
 43
0.00000001
 40
0.0
 40
0.0
 40
0.0
 40
0.0
 40
0.2858113857233212
 40
0.5527245545214223
 40
0.8220275582231134
 40
1.0
 40
1.0
 40
1.0
 40
1.0
 10
119.3380321826705
 20
109.8770022607111
 30
0.0
 10
119.334091881248
 20
109.6281327340004
 30
0.0
 10
119.3264718162078
 20
109.1468492542084
 30
0.0
 10
119.3150107265568
 20
108.4702746264793
 30
0.0
 10
119.3324481157985
 20
107.910246040463
 30
0.0
 10
119.3364427170577
 20
107.5831808443839
 30
0.0
 10
119.3380321826705
 20
107.4530404752783
 30
0.0
  0
SPLINE
  5
1F8
330
1F
100
AcDbEntity
  8
0
  6
Continuous
 62
     7
370
    25
100
AcDbSpline
210
0.0
220
0.0
230
1.0
 70
     8
 71
     3
 72
    11
 73
     7
 74
     0
 42
0.00000001
 43
0.00000001
 40
0.0
 40
0.0
 40
0.0
 40
0.0
 40
0.2858113857233873
 40
0.5527245545213872
 40
0.822027558222975
 40
1.0
 40
1.0
 40
1.0
 40
1.0
 10
119.3380321826705
 20
118.00743704332
 30
0.0
 10
119.334091881248
 20
117.796685447792
 30
0.0
 10
119.3264718162078
 20
117.389117423663
 30
0.0
 10
119.3150107265568
 20
116.7288965621339
 30
0.0
 10
119.3324481157985
 20
116.1298127980273
 30
0.0
 10
119.3364427170577
 20
115.7389864207954
 30
0.0
 10
119.3380321826705
 20
115.5834752578869
 30
0.0
  0
LINE
  5
1F9
330
1F
100
AcDbEntity
  8
0
  6
Continuous
 62
     7
370
    25
100
AcDbLine
 10
119.3380321827
 20
120.8606735419
 30
0.0
 11
119.3380321827
 21
118.0074370433
 31
0.0
  0
ARC
  5
1FA
330
1F
100
AcDbEntity
  8
0
  6
Continuous
 62
     7
370
    25
100
AcDbCircle
 10
119.2962250832
 20
118.8935423868
 30
0.0
 40
0.8870910400314913
100
AcDbArc
 50
226.7595529446
 51
272.7012537053
  0
ARC
  5
1FB
330
1F
100
AcDbEntity
  8
0
  6
Continuous
 62
     7
370
    25
100
AcDbCircle
 10
119.2962250832
 20
106.5669351318
 30
0.0
 40
0.887091040031548
100
AcDbArc
 50
87.2987462947
 51
133.2404470554
  0
LINE
  5
1FC
330
1F
100
AcDbEntity
  8
0
  6
Continuous
 62
     7
370
    25
100
AcDbLine
 10
118.6885131298
 20
104.2302387593
 30
0.0
 11
118.6885131298
 21
107.213167826
 31
0.0
  0
ARC
  5
1FD
330
1F
100
AcDbEntity
  8
0
  6
Continuous
 62
     7
370
    25
100
AcDbCircle
 10
119.3359960479
 20
103.8478278611
 30
0.0
 40
0.7519788721911909
100
AcDbArc
 50
89.8448599075
 51
149.433409991
  0
SPLINE
  5
1FE
330
1F
100
AcDbEntity
  8
0
  6
Continuous
 62
     7
370
    25
100
AcDbSpline
210
0.0
220
0.0
230
1.0
 70
    24
 71
     3
 72
    11
 73
     7
 74
     0
 42
0.00000001
 43
0.00000001
 40
0.0
 40
0.0
 40
0.0
 40
0.0
 40
0.2490252138763564
 40
0.4980311639765296
 40
0.7490269204800198
 40
1.0
 40
1.0
 40
1.0
 40
1.0
 10
118.001492534926
 20
104.2302387592991
 30
0.0
 10
118.0797414077515
 20
104.2302387592991
 30
0.0
 10
118.2362331003254
 20
104.2302387592991
 30
0.0
 10
118.4290159886918
 20
104.2302387592991
 30
0.0
 10
118.5880818739266
 20
104.2302387592991
 30
0.0
 10
118.6550370527878
 20
104.2302387592991
 30
0.0
 10
118.6885131298322
 20
104.2302387592991
 30
0.0
  0
LINE
  5
1FF
330
1F
100
AcDbEntity
  8
0
  6
Continuous
 62
     7
370
    25
100
AcDbLine
 10
118.6885131298
 20
118.2473096926
 30
0.0
 11
118.6885131298
 21
121.2302387593
 31
0.0
  0
ARC
  5
200
330
1F
100
AcDbEntity
  8
0
  6
Continuous
 62
     7
370
    25
100
AcDbCircle
 10
119.3359960479
 20
121.6126496575
 30
0.0
 40
0.7519788721911482
100
AcDbArc
 50
210.566590009
 51
270.1551400925
  0
SPLINE
  5
201
330
1F
100
AcDbEntity
  8
0
  6
Continuous
 62
     7
370
    25
100
AcDbSpline
210
0.0
220
0.0
230
1.0
 70
    24
 71
     3
 72
    11
 73
     7
 74
     0
 42
0.00000001
 43
0.00000001
 40
0.0
 40
0.0
 40
0.0
 40
0.0
 40
0.2488617730236802
 40
0.4977454583558502
 40
0.748862751792887
 40
0.9999999999999999
 40
0.9999999999999999
 40
0.9999999999999999
 40
0.9999999999999999
 10
118.6885131298322
 20
121.2302387592991
 30
0.0
 10
118.6553590746158
 20
121.2302387592991
 30
0.0
 10
118.5890480449647
 20
121.2302387592991
 30
0.0
 10
118.4310060388798
 20
121.2302387592991
 30
0.0
 10
118.238153859433
 20
121.2302387592991
 30
0.0
 10
118.0803817325445
 20
121.2302387592991
 30
0.0
 10
118.001492534926
 20
121.2302387592991
 30
0.0
  0
SPLINE
  5
202
330
1F
100
AcDbEntity
  8
0
  6
Continuous
 62
     7
370
    25
100
AcDbSpline
210
0.0
220
0.0
230
1.0
 70
    24
 71
     3
 72
     9
 73
     5
 74
     0
 42
0.00000001
 43
0.00000001
 40
0.0
 40
0.0
 40
0.0
 40
0.0
 40
0.1479171988906814
 40
1.0
 40
1.0
 40
1.0
 40
1.0
 10
118.6885131298322
 20
104.2302387592991
 30
0.0
 10
118.6957537698685
 20
104.2302387592991
 30
0.0
 10
118.7447043996171
 20
104.2302387592991
 30
0.0
 10
118.7528780718234
 20
104.2302387592991
 30
0.0
 10
118.7598427173323
 20
104.2302387592991
 30
0.0
  0
SPLINE
  5
203
330
1F
100
AcDbEntity
  8
0
  6
Continuous
 62
     7
370
    25
100
AcDbSpline
210
0.0
220
0.0
230
1.0
 70
    24
 71
     3
 72
     9
 73
     5
 74
     0
 42
0.00000001
 43
0.00000001
 40
0.0
 40
0.0
 40
0.0
 40
0.0
 40
0.8303917494515538
 40
1.0
 40
1.0
 40
1.0
 40
1.0
 10
118.7518397158013
 20
121.2302387592991
 30
0.0
 10
118.7459066470681
 20
121.2302387592991
 30
0.0
 10
118.7387617437895
 20
121.2302387592991
 30
0.0
 10
118.6957998256141
 20
121.2302387592991
 30
0.0
 10
118.6885131298322
 20
121.2302387592991
 30
0.0
  0
CIRCLE
  5
204
330
1F
100
AcDbEntity
  8
0
  6
Continuous
 62
     7
370
    25
100
AcDbCircle
 10
92.1566855306
 20
112.7302387593
 30
0.0
 40
8.197372169802065
  0
CIRCLE
  5
205
330
1F
100
AcDbEntity
  8
0
  6
Continuous
 62
     7
370
    25
100
AcDbCircle
 10
92.1566855306
 20
112.7302387593
 30
0.0
 40
7.0
  0
CIRCLE
  5
206
330
1F
100
AcDbEntity
  8
0
  6
Continuous
 62
     7
370
    25
100
AcDbCircle
 10
92.1566855306
 20
112.7302387593
 30
0.0
 40
5.5
  0
CIRCLE
  5
207
330
1F
100
AcDbEntity
  8
0
  6
Continuous
 62
     7
370
    25
100
AcDbCircle
 10
92.1566855306
 20
112.7302387593
 30
0.0
 40
5.0
  0
CIRCLE
  5
208
330
1F
100
AcDbEntity
  8
0
  6
Continuous
 62
     7
370
    25
100
AcDbCircle
 10
92.1566855306
 20
112.7302387593
 30
0.0
 40
8.53398420169853
  0
LINE
  5
209
330
1F
100
AcDbEntity
  8
0
  6
Continuous
 62
     7
370
    25
100
AcDbLine
 10
97.0381695626
 20
119.7302387593
 30
0.0
 11
97.9066855306
 21
119.7302387593
 31
0.0
  0
LINE
  5
20A
330
1F
100
AcDbEntity
  8
0
  6
Continuous
 62
     7
370
    25
100
AcDbLine
 10
97.9066855306
 20
119.7302387593
 30
0.0
 11
97.9066855306
 21
119.4802387593
 31
0.0
  0
LINE
  5
20B
330
1F
100
AcDbEntity
  8
0
  6
Continuous
 62
     7
370
    25
100
AcDbLine
 10
86.4066855306
 20
119.7302387593
 30
0.0
 11
87.2752014986
 21
119.7302387593
 31
0.0
  0
LINE
  5
20C
330
1F
100
AcDbEntity
  8
0
  6
Continuous
 62
     7
370
    25
100
AcDbLine
 10
86.4066855306
 20
119.7302387593
 30
0.0
 11
86.4066855306
 21
119.4802387593
 31
0.0
  0
LINE
  5
20D
330
1F
100
AcDbEntity
  8
0
  6
Continuous
 62
     7
370
    25
100
AcDbLine
 10
87.2752014986
 20
105.7302387593
 30
0.0
 11
86.4066855306
 21
105.7302387593
 31
0.0
  0
LINE
  5
20E
330
1F
100
AcDbEntity
  8
0
  6
Continuous
 62
     7
370
    25
100
AcDbLine
 10
86.4066855306
 20
105.9802387593
 30
0.0
 11
86.4066855306
 21
105.7302387593
 31
0.0
  0
LINE
  5
20F
330
1F
100
AcDbEntity
  8
0
  6
Continuous
 62
     7
370
    25
100
AcDbLine
 10
97.9066855306
 20
105.9802387593
 30
0.0
 11
97.9066855306
 21
105.7302387593
 31
0.0
  0
LINE
  5
210
330
1F
100
AcDbEntity
  8
0
  6
Continuous
 62
     7
370
    25
100
AcDbLine
 10
97.9066855306
 20
105.7302387593
 30
0.0
 11
97.0381695626
 21
105.7302387593
 31
0.0
  0
LINE
  5
211
330
1F
100
AcDbEntity
  8
0
  6
Continuous
 62
     7
370
    25
100
AcDbLine
 10
86.1566855306
 20
119.4802387593
 30
0.0
 11
86.4066855306
 21
119.4802387593
 31
0.0
  0
ARC
  5
212
330
1F
100
AcDbEntity
  8
0
  6
Continuous
 62
     7
370
    25
100
AcDbCircle
 10
86.4066855306
 20
119.4802387593
 30
0.0
 40
0.25
100
AcDbArc
 50
90.0
 51
180.0
  0
LINE
  5
213
330
1F
100
AcDbEntity
  8
0
  6
Continuous
 62
     7
370
    25
100
AcDbLine
 10
98.1566855306
 20
119.4802387593
 30
0.0
 11
97.9066855306
 21
119.4802387593
 31
0.0
  0
ARC
  5
214
330
1F
100
AcDbEntity
  8
0
  6
Continuous
 62
     7
370
    25
100
AcDbCircle
 10
97.9066855306
 20
119.4802387593
 30
0.0
 40
0.25
100
AcDbArc
 50
0.0
 51
90.0
  0
LINE
  5
215
330
1F
100
AcDbEntity
  8
0
  6
Continuous
 62
     7
370
    25
100
AcDbLine
 10
86.1566855306
 20
118.7989195348
 30
0.0
 11
86.1566855306
 21
119.4802387593
 31
0.0
  0
LINE
  5
216
330
1F
100
AcDbEntity
  8
0
  6
Continuous
 62
     7
370
    25
100
AcDbLine
 10
98.1566855306
 20
119.4802387593
 30
0.0
 11
98.1566855306
 21
118.7989195348
 31
0.0
  0
LINE
  5
217
330
1F
100
AcDbEntity
  8
0
  6
Continuous
 62
     7
370
    25
100
AcDbLine
 10
86.4066855306
 20
105.9802387593
 30
0.0
 11
86.1566855306
 21
105.9802387593
 31
0.0
  0
LINE
  5
218
330
1F
100
AcDbEntity
  8
0
  6
Continuous
 62
     7
370
    25
100
AcDbLine
 10
86.1566855306
 20
105.9802387593
 30
0.0
 11
86.1566855306
 21
106.6615579838
 31
0.0
  0
LINE
  5
219
330
1F
100
AcDbEntity
  8
0
  6
Continuous
 62
     7
370
    25
100
AcDbLine
 10
98.1566855306
 20
106.6615579838
 30
0.0
 11
98.1566855306
 21
105.9802387593
 31
0.0
  0
LINE
  5
21A
330
1F
100
AcDbEntity
  8
0
  6
Continuous
 62
     7
370
    25
100
AcDbLine
 10
97.9066855306
 20
105.9802387593
 30
0.0
 11
98.1566855306
 21
105.9802387593
 31
0.0
  0
ARC
  5
21B
330
1F
100
AcDbEntity
  8
0
  6
Continuous
 62
     7
370
    25
100
AcDbCircle
 10
97.9066855306
 20
105.9802387593
 30
0.0
 40
0.25
100
AcDbArc
 50
270.0
 51
0.0
  0
ARC
  5
21C
330
1F
100
AcDbEntity
  8
0
  6
Continuous
 62
     7
370
    25
100
AcDbCircle
 10
86.4066855306
 20
105.9802387593
 30
0.0
 40
0.25
100
AcDbArc
 50
180.0
 51
270.0
  0
LINE
  5
21D
330
1F
100
AcDbEntity
  8
0
  6
Continuous
 62
     7
370
    25
100
AcDbLine
 10
99.1566855306
 20
119.4802387593
 30
0.0
 11
98.1566855306
 21
119.4802387593
 31
0.0
  0
LINE
  5
21E
330
1F
100
AcDbEntity
  8
0
  6
Continuous
 62
     7
370
    25
100
AcDbLine
 10
99.1566855306
 20
119.7302387593
 30
0.0
 11
99.1566855306
 21
119.4802387593
 31
0.0
  0
LINE
  5
21F
330
1F
100
AcDbEntity
  8
0
  6
Continuous
 62
     7
370
    25
100
AcDbLine
 10
97.9066855306
 20
119.7302387593
 30
0.0
 11
99.1566855306
 21
119.7302387593
 31
0.0
  0
SPLINE
  5
220
330
1F
100
AcDbEntity
  8
0
  6
Continuous
 62
     7
370
    25
100
AcDbSpline
210
0.0
220
0.0
230
1.0
 70
    24
 71
     3
 72
    14
 73
    10
 74
     0
 42
0.00000001
 43
0.00000001
 40
0.0
 40
0.0
 40
0.0
 40
0.0
 40
0.25
 40
0.25
 40
0.5
 40
0.5
 40
0.75
 40
0.75
 40
1.0
 40
1.0
 40
1.0
 40
1.0
 10
99.9066855306178
 20
105.7302387592991
 30
0.0
 10
99.9066855306178
 20
105.7302387592991
 30
0.0
 10
99.9066855306178
 20
105.7401634492245
 30
0.0
 10
99.9066855306178
 20
105.7799581518872
 30
0.0
 10
99.9066855306178
 20
105.8098284971088
 30
0.0
 10
99.9066855306178
 20
105.8897980370408
 30
0.0
 10
99.9066855306178
 20
105.9398979174766
 30
0.0
 10
99.9066855306178
 20
106.0607824664645
 30
0.0
 10
99.9066855306178
 20
106.1315682150531
 30
0.0
 10
99.9066855306178
 20
106.2129973799887
 30
0.0
  0
LINE
  5
221
330
1F
100
AcDbEntity
  8
0
  6
Continuous
 62
     7
370
    25
100
AcDbLine
 10
99.9066855306
 20
108.4666300652
 30
0.0
 11
99.9066855306
 21
106.21299738
 31
0.0
  0
LINE
  5
222
330
1F
100
AcDbEntity
  8
0
  6
Continuous
 62
     7
370
    25
100
AcDbLine
 10
99.9066855306
 20
119.2474801386
 30
0.0
 11
99.9066855306
 21
116.9938474534
 31
0.0
  0
SPLINE
  5
223
330
1F
100
AcDbEntity
  8
0
  6
Continuous
 62
     7
370
    25
100
AcDbSpline
210
0.0
220
0.0
230
1.0
 70
    24
 71
     3
 72
    14
 73
    10
 74
     0
 42
0.00000001
 43
0.00000001
 40
0.0
 40
0.0
 40
0.0
 40
0.0
 40
0.25
 40
0.25
 40
0.5
 40
0.5
 40
0.75
 40
0.75
 40
1.0
 40
1.0
 40
1.0
 40
1.0
 10
99.9066855306178
 20
119.7302387592991
 30
0.0
 10
99.9066855306178
 20
119.7302387592991
 30
0.0
 10
99.9066855306178
 20
119.7203140693737
 30
0.0
 10
99.9066855306178
 20
119.680519366711
 30
0.0
 10
99.9066855306178
 20
119.6506490214893
 30
0.0
 10
99.9066855306178
 20
119.5706794815574
 30
0.0
 10
99.9066855306178
 20
119.5205796011215
 30
0.0
 10
99.9066855306178
 20
119.3996950521336
 30
0.0
 10
99.9066855306178
 20
119.328909303545
 30
0.0
 10
99.9066855306178
 20
119.2474801386094
 30
0.0
  0
LINE
  5
224
330
1F
100
AcDbEntity
  8
0
  6
Continuous
 62
     7
370
    25
100
AcDbLine
 10
101.6566855306
 20
105.7302387593
 30
0.0
 11
101.6566855306
 21
119.7302387593
 31
0.0
  0
LINE
  5
225
330
1F
100
AcDbEntity
  8
0
  6
Continuous
 62
     7
370
    25
100
AcDbLine
 10
102.0781855306
 20
119.3087387593
 30
0.0
 11
102.0781855306
 21
106.1517387593
 31
0.0
  0
LINE
  5
226
330
1F
100
AcDbEntity
  8
0
  6
Continuous
 62
     7
370
    25
100
AcDbLine
 10
98.1566855306
 20
105.9802387593
 30
0.0
 11
99.1566855306
 21
105.9802387593
 31
0.0
  0
LINE
  5
227
330
1F
100
AcDbEntity
  8
0
  6
Continuous
 62
     7
370
    25
100
AcDbLine
 10
99.1566855306
 20
105.9802387593
 30
0.0
 11
99.1566855306
 21
105.7302387593
 31
0.0
  0
LINE
  5
228
330
1F
100
AcDbEntity
  8
0
  6
Continuous
 62
     7
370
    25
100
AcDbLine
 10
99.1566855306
 20
105.7302387593
 30
0.0
 11
97.9066855306
 21
105.7302387593
 31
0.0
  0
LWPOLYLINE
  5
229
330
1F
100
AcDbEntity
  8
0
  6
Continuous
 62
     7
370
    25
100
AcDbPolyline
 90
        9
 70
   128
 43
0.0
 10
99.9066855306
 20
116.9938474534
 10
99.8579129501
 20
116.9967733122
 10
99.8110146725
 20
117.0054384494
 10
99.7677929724
 20
117.0195098686
 10
99.7299088353
 20
117.0384468132
 10
99.6988181275
 20
117.0615215469
 10
99.6757156475
 20
117.0878473207
 10
99.6614892105
 20
117.1164124499
 10
99.6566855306
 20
117.1461191925
  0
LWPOLYLINE
  5
22A
330
1F
100
AcDbEntity
  8
0
  6
Continuous
 62
     7
370
    25
100
AcDbPolyline
 90
        9
 70
   128
 43
0.0
 10
99.6566855306
 20
108.3143583261
 10
99.6614892105
 20
108.3440650687
 10
99.6757156475
 20
108.3726301979
 10
99.6988181275
 20
108.3989559717
 10
99.7299088353
 20
108.4220307054
 10
99.7677929724
 20
108.44096765
 10
99.8110146725
 20
108.4550390692
 10
99.8579129501
 20
108.4637042064
 10
99.9066855306
 20
108.4666300652
  0
LINE
  5
22B
330
1F
100
AcDbEntity
  8
0
  6
Continuous
 62
     7
370
    25
100
AcDbLine
 10
99.6566855306
 20
119.4802387593
 30
0.0
 11
99.4066855306
 21
119.4802387593
 31
0.0
  0
LINE
  5
22C
330
1F
100
AcDbEntity
  8
0
  6
Continuous
 62
     7
370
    25
100
AcDbLine
 10
99.4066855306
 20
119.7302387593
 30
0.0
 11
99.4066855306
 21
119.4802387593
 31
0.0
  0
ARC
  5
22D
330
1F
100
AcDbEntity
  8
0
  6
Continuous
 62
     7
370
    25
100
AcDbCircle
 10
99.4066855306
 20
119.4802387593
 30
0.0
 40
0.25
100
AcDbArc
 50
0.0
 51
90.0
  0
LINE
  5
22E
330
1F
100
AcDbEntity
  8
0
  6
Continuous
 62
     7
370
    25
100
AcDbLine
 10
99.4066855306
 20
119.4802387593
 30
0.0
 11
99.1566855306
 21
119.4802387593
 31
0.0
  0
LINE
  5
22F
330
1F
100
AcDbEntity
  8
0
  6
Continuous
 62
     7
370
    25
100
AcDbLine
 10
99.1566855306
 20
119.7302387593
 30
0.0
 11
99.4066855306
 21
119.7302387593
 31
0.0
  0
LINE
  5
230
330
1F
100
AcDbEntity
  8
0
  6
Continuous
 62
     7
370
    25
100
AcDbLine
 10
99.6566855306
 20
119.4802387593
 30
0.0
 11
99.6566855306
 21
117.1461191925
 31
0.0
  0
LINE
  5
231
330
1F
100
AcDbEntity
  8
0
  6
Continuous
 62
     7
370
    25
100
AcDbLine
 10
99.6566855306
 20
108.3143583261
 30
0.0
 11
99.6566855306
 21
105.9802387593
 31
0.0
  0
LINE
  5
232
330
1F
100
AcDbEntity
  8
0
  6
Continuous
 62
     7
370
    25
100
AcDbLine
 10
99.4066855306
 20
105.9802387593
 30
0.0
 11
99.6566855306
 21
105.9802387593
 31
0.0
  0
LINE
  5
233
330
1F
100
AcDbEntity
  8
0
  6
Continuous
 62
     7
370
    25
100
AcDbLine
 10
99.1566855306
 20
105.9802387593
 30
0.0
 11
99.4066855306
 21
105.9802387593
 31
0.0
  0
LINE
  5
234
330
1F
100
AcDbEntity
  8
0
  6
Continuous
 62
     7
370
    25
100
AcDbLine
 10
99.4066855306
 20
105.9802387593
 30
0.0
 11
99.4066855306
 21
105.7302387593
 31
0.0
  0
LINE
  5
235
330
1F
100
AcDbEntity
  8
0
  6
Continuous
 62
     7
370
    25
100
AcDbLine
 10
99.4066855306
 20
105.7302387593
 30
0.0
 11
99.1566855306
 21
105.7302387593
 31
0.0
  0
ARC
  5
236
330
1F
100
AcDbEntity
  8
0
  6
Continuous
 62
     7
370
    25
100
AcDbCircle
 10
99.4066855306
 20
105.9802387593
 30
0.0
 40
0.25
100
AcDbArc
 50
270.0
 51
0.0
  0
SPLINE
  5
237
330
1F
100
AcDbEntity
  8
0
  6
Continuous
 62
     7
370
    25
100
AcDbSpline
210
0.0
220
0.0
230
1.0
 70
     8
 71
     3
 72
     8
 73
     4
 74
     0
 42
0.00000001
 43
0.00000001
 40
0.0
 40
0.0
 40
0.0
 40
0.0
 40
1.0
 40
1.0
 40
1.0
 40
1.0
 10
99.9066855306178
 20
119.2474801386094
 30
0.0
 10
99.84123285018165
 20
119.2490500413062
 30
0.0
 10
99.77618328517342
 20
119.2757053757101
 30
0.0
 10
99.7299028246911
 20
119.3204069393316
 30
0.0
  0
SPLINE
  5
238
330
1F
100
AcDbEntity
  8
0
  6
Continuous
 62
     7
370
    25
100
AcDbSpline
210
0.0
220
0.0
230
1.0
 70
     8
 71
     3
 72
    14
 73
    10
 74
     0
 42
0.00000001
 43
0.00000001
 40
0.0
 40
0.0
 40
0.0
 40
0.0
 40
0.245589323567575
 40
0.455618196314265
 40
0.6303106213393797
 40
0.77011643036692
 40
0.8759901151610914
 40
0.9502659312389357
 40
1.0
 40
1.0
 40
1.0
 40
1.0
 10
99.7299028246911
 20
119.3204069393316
 30
0.0
 10
99.71893778537579
 20
119.3322978798708
 30
0.0
 10
99.69859540500364
 20
119.3543579955234
 30
0.0
 10
99.67844339252716
 20
119.3899216938435
 30
0.0
 10
99.66632383305631
 20
119.4207140024468
 30
0.0
 10
99.66011800982392
 20
119.4459535850196
 30
0.0
 10
99.65749831085007
 20
119.4639358779544
 30
0.0
 10
99.65671811650503
 20
119.4768580413704
 30
0.0
 10
99.65669485830215
 20
119.4792710314763
 30
0.0
 10
99.6566855306178
 20
119.4802387592991
 30
0.0
  0
SPLINE
  5
239
330
1F
100
AcDbEntity
  8
0
  6
Continuous
 62
     7
370
    25
100
AcDbSpline
210
0.0
220
0.0
230
1.0
 70
     8
 71
     3
 72
    15
 73
    11
 74
     0
 42
0.00000001
 43
0.00000001
 40
0.0
 40
0.0
 40
0.0
 40
0.0
 40
0.0425877399909041
 40
0.1028282325346875
 40
0.1864706729280299
 40
0.2956205441869006
 40
0.4311891005861807
 40
0.5936297641565581
 40
0.7831876993469636
 40
1.0
 40
1.0
 40
1.0
 40
1.0
 10
99.6566855306178
 20
105.9802387592991
 30
0.0
 10
99.65669132371994
 20
105.9809542608959
 30
0.0
 10
99.65670531118334
 20
105.9826818417582
 30
0.0
 10
99.65719701201509
 20
105.9925560208531
 30
0.0
 10
99.65882436597367
 20
106.0064497006754
 30
0.0
 10
99.66264951435775
 20
106.0259469584971
 30
0.0
 10
99.67002182439857
 20
106.0501518113463
 30
0.0
 10
99.68263981337539
 20
106.0785204680105
 30
0.0
 10
99.70188401557955
 20
106.110059638754
 30
0.0
 10
99.72015476194983
 20
106.1296294313264
 30
0.0
 10
99.7299028246911
 20
106.1400705792665
 30
0.0
  0
SPLINE
  5
23A
330
1F
100
AcDbEntity
  8
0
  6
Continuous
 62
     7
370
    25
100
AcDbSpline
210
0.0
220
0.0
230
1.0
 70
     8
 71
     3
 72
     8
 73
     4
 74
     0
 42
0.00000001
 43
0.00000001
 40
0.0
 40
0.0
 40
0.0
 40
0.0
 40
1.0
 40
1.0
 40
1.0
 40
1.0
 10
99.7299028246911
 20
106.1400705792665
 30
0.0
 10
99.77618328517342
 20
106.184772142888
 30
0.0
 10
99.84123285018165
 20
106.2114274772919
 30
0.0
 10
99.9066855306178
 20
106.2129973799887
 30
0.0
  0
SPLINE
  5
23B
330
1F
100
AcDbEntity
  8
0
  6
Continuous
 62
     7
370
    25
100
AcDbSpline
210
0.0
220
0.0
230
1.0
 70
     8
 71
     3
 72
    34
 73
    30
 74
     0
 42
0.00000001
 43
0.00000001
 40
0.0
 40
0.0
 40
0.0
 40
0.0
 40
0.1249999999999998
 40
0.1249999999999998
 40
0.1874999999999998
 40
0.1874999999999998
 40
0.2499999999999997
 40
0.2499999999999997
 40
0.3124999999999996
 40
0.3124999999999996
 40
0.3749999999999996
 40
0.3749999999999996
 40
0.4374999999999996
 40
0.4374999999999996
 40
0.4999999999999997
 40
0.4999999999999997
 40
0.5624999999999997
 40
0.5624999999999997
 40
0.6249999999999997
 40
0.6249999999999997
 40
0.6874999999999998
 40
0.6874999999999998
 40
0.7499999999999998
 40
0.7499999999999998
 40
0.8124999999999998
 40
0.8124999999999998
 40
0.8749999999999998
 40
0.8749999999999998
 40
1.0
 40
1.0
 40
1.0
 40
1.0
 10
96.27979115623546
 20
115.5586658840452
 30
0.0
 10
95.93765794390224
 20
115.4905449301293
 30
0.0
 10
95.60173380834506
 20
115.4010642664473
 30
0.0
 10
95.11535393499129
 20
115.2168837830705
 30
0.0
 10
94.9557072155357
 20
115.1466925914912
 30
0.0
 10
94.65160682322818
 20
114.9840224417805
 30
0.0
 10
94.50560263702047
 20
114.8909590965114
 30
0.0
 10
94.24205135224528
 20
114.6710264059866
 30
0.0
 10
94.12616706796274
 20
114.5456535533216
 30
0.0
 10
93.9464912085924
 20
114.2450367164971
 30
0.0
 10
93.88953786278432
 20
114.0769685442893
 30
0.0
 10
93.82912187079218
 20
113.7102432094688
 30
0.0
 10
93.82448187686131
 20
113.520184934439
 30
0.0
 10
93.82420808661124
 20
113.1286103480764
 30
0.0
 10
93.8281349704989
 20
112.9282252268549
 30
0.0
 10
93.82811812013634
 20
112.5303065097137
 30
0.0
 10
93.82417073847824
 20
112.3292674908675
 30
0.0
 10
93.82452265467249
 20
111.9386042228063
 30
0.0
 10
93.82926641866977
 20
111.7479204681287
 30
0.0
 10
93.89018296702147
 20
111.3810484240325
 30
0.0
 10
93.94767796381575
 20
111.212850362271
 30
0.0
 10
94.12736087554897
 20
110.9134395503624
 30
0.0
 10
94.24456412036767
 20
110.7869158373941
 30
0.0
 10
94.50906235301464
 20
110.567079705812
 30
0.0
 10
94.6534886309371
 20
110.475368811741
 30
0.0
 10
94.95620766567687
 20
110.3135974982306
 30
0.0
 10
95.11529798172704
 20
110.2436132194415
 30
0.0
 10
95.60197155456937
 20
110.0593266324861
 30
0.0
 10
95.9378610895232
 20
109.9698921408508
 30
0.0
 10
96.27979115623546
 20
109.9018116345529
 30
0.0
  0
SPLINE
  5
23C
330
1F
100
AcDbEntity
  8
0
  6
Continuous
 62
     7
370
    25
100
AcDbSpline
210
0.0
220
0.0
230
1.0
 70
     8
 71
     3
 72
    12
 73
     8
 74
     0
 42
0.00000001
 43
0.00000001
 40
0.0
 40
0.0
 40
0.0
 40
0.0
 40
0.25
 40
0.25
 40
0.5
 40
0.5
 40
1.0
 40
1.0
 40
1.0
 40
1.0
 10
99.65840528827212
 20
119.729129220017
 30
0.0
 10
99.64816318982305
 20
119.7291206126318
 30
0.0
 10
99.64062397826972
 20
119.7205108023016
 30
0.0
 10
99.62629446264538
 20
119.6990296920314
 30
0.0
 10
99.61950415857436
 20
119.6861583920913
 30
0.0
 10
99.59327130812107
 20
119.6605636322761
 30
0.0
 10
99.58358859143277
 20
119.6568890890774
 30
0.0
 10
99.58346222591294
 20
119.6570154545972
 30
0.0
  0
SPLINE
  5
23D
330
1F
100
AcDbEntity
  8
0
  6
Continuous
 62
     7
370
    25
100
AcDbSpline
210
0.0
220
0.0
230
1.0
 70
     8
 71
     3
 72
    10
 73
     6
 74
     0
 42
0.00000001
 43
0.00000001
 40
0.0
 40
0.0
 40
0.0
 40
0.0
 40
0.5
 40
0.5
 40
1.0
 40
1.0
 40
1.0
 40
1.0
 10
99.65840528827212
 20
119.729129220017
 30
0.0
 10
99.61743689447586
 20
119.7290947904762
 30
0.0
 10
99.57347238473135
 20
119.7294030008132
 30
0.0
 10
99.48242574498752
 20
119.7343577341936
 30
0.0
 10
99.44947730440667
 20
119.7302387592991
 30
0.0
 10
99.4066855306178
 20
119.7302387592991
 30
0.0
  0
SPLINE
  5
23E
330
1F
100
AcDbEntity
  8
0
  6
Continuous
 62
     7
370
    25
100
AcDbSpline
210
0.0
220
0.0
230
1.0
 70
     8
 71
     3
 72
    12
 73
     8
 74
     0
 42
0.00000001
 43
0.00000001
 40
0.0
 40
0.0
 40
0.0
 40
0.0
 40
0.25
 40
0.25
 40
0.5
 40
0.5
 40
1.0
 40
1.0
 40
1.0
 40
1.0
 10
99.65840528827212
 20
119.729129220017
 30
0.0
 10
99.66864738672118
 20
119.7291378274022
 30
0.0
 10
99.6833301011846
 20
119.7205466922174
 30
0.0
 10
99.71515249184246
 20
119.6842370927071
 30
0.0
 10
99.73229216803692
 20
119.6565186283816
 30
0.0
 10
99.77776023377045
 20
119.5417804756934
 30
0.0
 10
99.77092738270632
 20
119.4401696330625
 30
0.0
 10
99.7299028246911
 20
119.3204069393316
 30
0.0
  0
SPLINE
  5
23F
330
1F
100
AcDbEntity
  8
0
  6
Continuous
 62
     7
370
    25
100
AcDbSpline
210
0.0
220
0.0
230
1.0
 70
     8
 71
     3
 72
    14
 73
    10
 74
     0
 42
0.00000001
 43
0.00000001
 40
0.0
 40
0.0
 40
0.0
 40
0.0
 40
0.25
 40
0.25
 40
0.5
 40
0.5
 40
0.75
 40
0.75
 40
1.0
 40
1.0
 40
1.0
 40
1.0
 10
99.65840528827212
 20
105.7313482985811
 30
0.0
 10
99.66864738672118
 20
105.7313396911959
 30
0.0
 10
99.6833301011846
 20
105.7399308263807
 30
0.0
 10
99.71515249184246
 20
105.776240425891
 30
0.0
 10
99.73229216803692
 20
105.8039588902165
 30
0.0
 10
99.76260421185928
 20
105.8804509920086
 30
0.0
 10
99.76847401004883
 20
105.9249767281144
 30
0.0
 10
99.76237945596856
 20
106.0248458483106
 30
0.0
 10
99.7504151036987
 20
106.0801892324011
 30
0.0
 10
99.7299028246911
 20
106.1400705792665
 30
0.0
  0
SPLINE
  5
240
330
1F
100
AcDbEntity
  8
0
  6
Continuous
 62
     7
370
    25
100
AcDbSpline
210
0.0
220
0.0
230
1.0
 70
     8
 71
     3
 72
    12
 73
     8
 74
     0
 42
0.00000001
 43
0.00000001
 40
0.0
 40
0.0
 40
0.0
 40
0.0
 40
0.25
 40
0.25
 40
0.5
 40
0.5
 40
1.0
 40
1.0
 40
1.0
 40
1.0
 10
99.65840528827212
 20
105.7313482985811
 30
0.0
 10
99.64816318982305
 20
105.7313569059663
 30
0.0
 10
99.64062397826973
 20
105.7399667162965
 30
0.0
 10
99.62629446264538
 20
105.7614478265667
 30
0.0
 10
99.61950415857436
 20
105.7743191265068
 30
0.0
 10
99.59327130812107
 20
105.7999138863221
 30
0.0
 10
99.58358859143277
 20
105.8035884295208
 30
0.0
 10
99.58346222591294
 20
105.8034620640009
 30
0.0
  0
SPLINE
  5
241
330
1F
100
AcDbEntity
  8
0
  6
Continuous
 62
     7
370
    25
100
AcDbSpline
210
0.0
220
0.0
230
1.0
 70
     8
 71
     3
 72
    10
 73
     6
 74
     0
 42
0.00000001
 43
0.00000001
 40
0.0
 40
0.0
 40
0.0
 40
0.0
 40
0.5
 40
0.5
 40
1.0
 40
1.0
 40
1.0
 40
1.0
 10
99.65840528827212
 20
105.7313482985811
 30
0.0
 10
99.61743689447586
 20
105.7313827281219
 30
0.0
 10
99.57347238473135
 20
105.7310745177849
 30
0.0
 10
99.48242574498752
 20
105.7261197844045
 30
0.0
 10
99.44947730440667
 20
105.7302387592991
 30
0.0
 10
99.4066855306178
 20
105.7302387592991
 30
0.0
  0
SPLINE
  5
242
330
1F
100
AcDbEntity
  8
0
  6
Continuous
 62
     7
370
    25
100
AcDbSpline
210
0.0
220
0.0
230
1.0
 70
     8
 71
     3
 72
    10
 73
     6
 74
     0
 42
0.00000001
 43
0.00000001
 40
0.0
 40
0.0
 40
0.0
 40
0.0
 40
0.5
 40
0.5
 40
1.0
 40
1.0
 40
1.0
 40
1.0
 10
99.65840528827212
 20
119.729129220017
 30
0.0
 10
99.69937368206838
 20
119.7291636495578
 30
0.0
 10
99.74282912914032
 20
119.729545326992
 30
0.0
 10
99.83191497435756
 20
119.7258533128658
 30
0.0
 10
99.86430220297288
 20
119.7302387592991
 30
0.0
 10
99.9066855306178
 20
119.7302387592991
 30
0.0
  0
SPLINE
  5
243
330
1F
100
AcDbEntity
  8
0
  6
Continuous
 62
     7
370
    25
100
AcDbSpline
210
0.0
220
0.0
230
1.0
 70
     8
 71
     3
 72
    10
 73
     6
 74
     0
 42
0.00000001
 43
0.00000001
 40
0.0
 40
0.0
 40
0.0
 40
0.0
 40
0.5
 40
0.5
 40
1.0
 40
1.0
 40
1.0
 40
1.0
 10
99.65840528827212
 20
105.7313482985811
 30
0.0
 10
99.69937368206838
 20
105.7313138690403
 30
0.0
 10
99.74282912914032
 20
105.7309321916061
 30
0.0
 10
99.83191497435756
 20
105.7346242057323
 30
0.0
 10
99.86430220297288
 20
105.7302387592991
 30
0.0
 10
99.9066855306178
 20
105.7302387592991
 30
0.0
  0
SPLINE
  5
244
330
1F
100
AcDbEntity
  8
0
  6
Continuous
 62
     7
370
    25
100
AcDbSpline
210
0.0
220
0.0
230
1.0
 70
     8
 71
     3
 72
     9
 73
     5
 74
     0
 42
0.00000001
 43
0.00000001
 40
0.0
 40
0.0
 40
0.0
 40
0.0
 40
0.5716350575939018
 40
1.0
 40
1.0
 40
1.0
 40
1.0
 10
119.3380321826705
 20
104.5998039766904
 30
0.0
 10
119.3335727745851
 20
104.5600855709479
 30
0.0
 10
119.3257716293857
 20
104.4906034683113
 30
0.0
 10
119.3226657325523
 20
104.4871372911348
 30
0.0
 10
119.3213352752341
 20
104.4856525023483
 30
0.0
  0
SPLINE
  5
245
330
1F
100
AcDbEntity
  8
0
  6
Continuous
 62
     7
370
    25
100
AcDbSpline
210
0.0
220
0.0
230
1.0
 70
     8
 71
     3
 72
    10
 73
     6
 74
     0
 42
0.00000001
 43
0.00000001
 40
0.0
 40
0.0
 40
0.0
 40
0.0
 40
0.1054683351677822
 40
0.6440627664276094
 40
1.0
 40
1.0
 40
1.0
 40
1.0
 10
119.3213352752332
 20
120.9748250162529
 30
0.0
 10
119.320820332957
 20
120.9765020752902
 30
0.0
 10
119.3176757384543
 20
120.9867433603286
 30
0.0
 10
119.3330543791027
 20
120.9475370291449
 30
0.0
 10
119.3366152856701
 20
120.8853986265421
 30
0.0
 10
119.3380321826705
 20
120.8606735419078
 30
0.0
  0
LINE
  5
246
330
1F
100
AcDbEntity
  8
0
  6
Continuous
 62
     7
370
    25
100
AcDbLine
 10
97.9066855306
 20
119.4802387593
 30
0.0
 11
97.3784080773
 21
119.4802387593
 31
0.0
  0
LINE
  5
247
330
1F
100
AcDbEntity
  8
0
  6
Continuous
 62
     7
370
    25
100
AcDbLine
 10
86.9349629839
 20
119.4802387593
 30
0.0
 11
86.4066855306
 21
119.4802387593
 31
0.0
  0
LINE
  5
248
330
1F
100
AcDbEntity
  8
0
  6
Continuous
 62
     7
370
    25
100
AcDbLine
 10
86.4066855306
 20
119.4802387593
 30
0.0
 11
86.4066855306
 21
119.0362982543
 31
0.0
  0
LINE
  5
249
330
1F
100
AcDbEntity
  8
0
  6
Continuous
 62
     7
370
    25
100
AcDbLine
 10
97.9066855306
 20
119.0362982543
 30
0.0
 11
97.9066855306
 21
119.4802387593
 31
0.0
  0
LINE
  5
24A
330
1F
100
AcDbEntity
  8
0
  6
Continuous
 62
     7
370
    25
100
AcDbLine
 10
86.4066855306
 20
106.4241792643
 30
0.0
 11
86.4066855306
 21
105.9802387593
 31
0.0
  0
LINE
  5
24B
330
1F
100
AcDbEntity
  8
0
  6
Continuous
 62
     7
370
    25
100
AcDbLine
 10
86.4066855306
 20
105.9802387593
 30
0.0
 11
86.9349629839
 21
105.9802387593
 31
0.0
  0
LINE
  5
24C
330
1F
100
AcDbEntity
  8
0
  6
Continuous
 62
     7
370
    25
100
AcDbLine
 10
97.9066855306
 20
105.9802387593
 30
0.0
 11
97.9066855306
 21
106.4241792643
 31
0.0
  0
LINE
  5
24D
330
1F
100
AcDbEntity
  8
0
  6
Continuous
 62
     7
370
    25
100
AcDbLine
 10
97.3784080773
 20
105.9802387593
 30
0.0
 11
97.9066855306
 21
105.9802387593
 31
0.0
  0
LINE
  5
24E
330
1F
100
AcDbEntity
  8
0
  6
Continuous
 62
     7
370
    25
100
AcDbLine
 10
99.1566855306
 20
117.6117227913
 30
0.0
 11
99.1566855306
 21
119.4802387593
 31
0.0
  0
SPLINE
  5
24F
330
1F
100
AcDbEntity
  8
0
  6
Continuous
 62
     7
370
    25
100
AcDbSpline
210
0.0
220
0.0
230
1.0
 70
     8
 71
     3
 72
     9
 73
     5
 74
     0
 42
0.00000001
 43
0.00000001
 40
0.0
 40
0.0
 40
0.0
 40
0.0
 40
0.3233959617138946
 40
1.0
 40
1.0
 40
1.0
 40
1.0
 10
99.77039604116678
 20
108.9158709939811
 30
0.0
 10
99.79948215119977
 20
108.8697258842525
 30
0.0
 10
99.88942177159217
 20
108.72703668837
 30
0.0
 10
99.89971863276595
 20
108.5717187855058
 30
0.0
 10
99.9066855306178
 20
108.4666300652098
 30
0.0
  0
SPLINE
  5
250
330
1F
100
AcDbEntity
  8
0
  6
Continuous
 62
     7
370
    25
100
AcDbSpline
210
0.0
220
0.0
230
1.0
 70
     8
 71
     3
 72
    10
 73
     6
 74
     0
 42
0.00000001
 43
0.00000001
 40
0.0
 40
0.0
 40
0.0
 40
0.0
 40
0.389122428166284
 40
0.7781360052616701
 40
1.0
 40
1.0
 40
1.0
 40
1.0
 10
99.9066855306178
 20
116.9938474533884
 30
0.0
 10
99.90246822540954
 20
116.9341928848689
 30
0.0
 10
99.89403479471987
 20
116.8149004352866
 30
0.0
 10
99.84906686340096
 20
116.659179908498
 30
0.0
 10
99.79295331522096
 20
116.5722024241923
 30
0.0
 10
99.77257349358044
 20
116.5406131614495
 30
0.0
  0
LINE
  5
251
330
1F
100
AcDbEntity
  8
0
  6
Continuous
 62
     7
370
    25
100
AcDbLine
 10
99.1566855306
 20
105.9802387593
 30
0.0
 11
99.1566855306
 21
107.8487547273
 31
0.0
  0
LINE
  5
252
330
1F
100
AcDbEntity
  8
0
  6
Continuous
 62
     7
370
    25
100
AcDbLine
 10
99.6566855306
 20
117.1461191925
 30
0.0
 11
99.6249736202
 21
116.8402374338
 31
0.0
  0
LINE
  5
253
330
1F
100
AcDbEntity
  8
0
  6
Continuous
 62
     7
370
    25
100
AcDbLine
 10
99.6282989265
 20
108.6316138053
 30
0.0
 11
99.6566855306
 21
108.3143583261
 31
0.0
  0
LINE
  5
254
330
1F
100
AcDbEntity
  8
0
  6
Continuous
 62
     7
370
    25
100
AcDbLine
 10
99.4066855306
 20
117.2320590972
 30
0.0
 11
99.4066855306
 21
119.4802387593
 31
0.0
  0
LINE
  5
255
330
1F
100
AcDbEntity
  8
0
  6
Continuous
 62
     7
370
    25
100
AcDbLine
 10
99.4066855306
 20
105.9802387593
 30
0.0
 11
99.4066855306
 21
108.2284184214
 31
0.0
  0
INSERT
  5
261
330
1F
100
AcDbEntity
  8
FORMAT
100
AcDbBlockReference
  2
SW_CENTERMARKSYMBOL_1
 10
92.1566855306
 20
112.7302387593
 30
0.0
  0
LINE
  5
262
330
1F
100
AcDbEntity
  8
FORMAT
100
AcDbLine
 10
112.0126855306
 20
107.0077387593
 30
0.0
 11
104.1566855306
 21
107.0077387593
 31
0.0
  0
LINE
  5
263
330
1F
100
AcDbEntity
  8
FORMAT
100
AcDbLine
 10
112.0126855306
 20
118.4527387593
 30
0.0
 11
104.1566855306
 21
118.4527387593
 31
0.0
  0
LINE
  5
264
330
1F
100
AcDbEntity
  8
FORMAT
100
AcDbLine
 10
104.1566855306
 20
119.3087387593
 30
0.0
 11
104.1566855306
 21
106.1517387593
 31
0.0
  0
ARC
  5
265
330
1F
100
AcDbEntity
  8
FORMAT
100
AcDbCircle
 10
92.1566855306
 20
112.7302387593
 30
0.0
 40
7.474999999999988
100
AcDbArc
 50
75.0
 51
345.0
  0
ENDSEC
  0
SECTION
  2
OBJECTS
  0
DICTIONARY
  5
C
330
0
100
AcDbDictionary
281
     1
  3
ACAD_GROUP
350
D
  3
ACAD_LAYOUT
350
1A
  3
ACAD_MLINESTYLE
350
17
  3
ACAD_PLOTSETTINGS
350
19
  3
ACAD_PLOTSTYLENAME
350
E
  3
ACAD_SCALELIST
350
47
  3
DWGPROPS
350
266
  0
DICTIONARY
  5
D
102
{ACAD_REACTORS
330
C
102
}
330
C
100
AcDbDictionary
281
     1
  0
DICTIONARY
  5
1A
102
{ACAD_REACTORS
330
C
102
}
330
C
100
AcDbDictionary
281
     1
  3
Layout1
350
1E
  3
Layout2
350
26
  3
Model
350
22
  0
DICTIONARY
  5
17
102
{ACAD_REACTORS
330
C
102
}
330
C
100
AcDbDictionary
281
     1
  3
Standard
350
18
  0
DICTIONARY
  5
19
102
{ACAD_REACTORS
330
C
102
}
330
C
100
AcDbDictionary
281
     1
  0
ACDBDICTIONARYWDFLT
  5
E
102
{ACAD_REACTORS
330
C
102
}
330
C
100
AcDbDictionary
281
     1
  3
Normal
350
F
100
AcDbDictionaryWithDefault
340
F
  0
DICTIONARY
  5
47
102
{ACAD_REACTORS
330
C
102
}
330
C
100
AcDbDictionary
281
     1
  3
A0
350
48
  3
A1
350
49
  3
A2
350
4A
  3
A3
350
4B
  3
A4
350
4C
  3
A5
350
4D
  3
A6
350
4E
  3
A7
350
4F
  3
A8
350
50
  3
A9
350
51
  3
B0
350
52
  3
B1
350
53
  3
B2
350
54
  3
B3
350
55
  3
B4
350
56
  3
B5
350
57
  3
B6
350
58
  0
XRECORD
  5
266
102
{ACAD_REACTORS
330
C
102
}
330
C
100
AcDbXrecord
280
     1
  1
DWGPROPS COOKIE
  2

  3

  4

  6

  7

  8
user28
  9

300
=
301
=
302
=
303
=
304
=
305
=
306
=
307
=
308
=
309
=
 40
0.0
 41
2460376.172129537
 42
2460376.172130266
  1

 90
        0
  0
LAYOUT
  5
1E
102
{ACAD_REACTORS
330
1A
102
}
330
1A
100
AcDbPlotSettings
  1

  2
none_device
  4

  6

 40
0.0
 41
0.0
 42
0.0
 43
0.0
 44
0.0
 45
0.0
 46
0.0
 47
0.0
 48
0.0
 49
0.0
140
0.0
141
0.0
142
1.0
143
1.0
 70
   688
 72
     1
 73
     0
 74
     5
  7

 75
    16
147
1.0
148
0.0
149
0.0
100
AcDbLayout
  1
Layout1
 70
     1
 71
     1
 10
0.0
 20
0.0
 11
420.0
 21
297.0
 12
0.0
 22
0.0
 32
0.0
 14
1.0000000000E+20
 24
1.0000000000E+20
 34
1.0000000000E+20
 15
-1.0000000000E+20
 25
-1.0000000000E+20
 35
-1.0000000000E+20
146
0.0
 13
0.0
 23
0.0
 33
0.0
 16
1.0
 26
0.0
 36
0.0
 17
0.0
 27
1.0
 37
0.0
 76
     0
330
1B
  0
LAYOUT
  5
26
102
{ACAD_REACTORS
330
1A
102
}
330
1A
100
AcDbPlotSettings
  1

  2
none_device
  4

  6

 40
0.0
 41
0.0
 42
0.0
 43
0.0
 44
0.0
 45
0.0
 46
0.0
 47
0.0
 48
0.0
 49
0.0
140
0.0
141
0.0
142
1.0
143
1.0
 70
   688
 72
     1
 73
     0
 74
     5
  7

 75
    16
147
1.0
148
0.0
149
0.0
100
AcDbLayout
  1
Layout2
 70
     1
 71
     2
 10
0.0
 20
0.0
 11
0.0
 21
0.0
 12
0.0
 22
0.0
 32
0.0
 14
0.0
 24
0.0
 34
0.0
 15
0.0
 25
0.0
 35
0.0
146
0.0
 13
0.0
 23
0.0
 33
0.0
 16
1.0
 26
0.0
 36
0.0
 17
0.0
 27
1.0
 37
0.0
 76
     0
330
23
  0
LAYOUT
  5
22
102
{ACAD_REACTORS
330
1A
102
}
330
1A
100
AcDbPlotSettings
  1

  2
none_device
  4
Letter_(8.50_x_11.00_Inches)
  6

 40
6.35
 41
6.35
 42
6.35000508
 43
6.35000508
 44
215.9
 45
279.4
 46
0.0
 47
0.0
 48
0.0
 49
0.0
140
0.0
141
0.0
142
1.0
143
1.0
 70
  1712
 72
     1
 73
     0
 74
     0
  7

 75
     0
147
1.0
148
0.0
149
0.0
100
AcDbLayout
  1
Model
 70
     1
 71
     0
 10
0.0
 20
0.0
 11
297.0
 21
210.0
 12
0.0
 22
0.0
 32
0.0
 14
0.0
 24
0.0
 34
0.0
 15
297.0
 25
210.0
 35
0.0
146
0.0
 13
0.0
 23
0.0
 33
0.0
 16
1.0
 26
0.0
 36
0.0
 17
0.0
 27
1.0
 37
0.0
 76
     0
330
1F
331
29
  0
MLINESTYLE
  5
18
102
{ACAD_REACTORS
330
17
102
}
330
17
100
AcDbMlineStyle
  2
Standard
 70
     0
  3

 62
   256
 51
90.0
 52
90.0
 71
     2
 49
0.5
 62
   256
  6
BYLAYER
 49
-0.5
 62
   256
  6
BYLAYER
  0
ACDBPLACEHOLDER
  5
F
102
{ACAD_REACTORS
330
E
102
}
330
E
  0
SCALE
  5
48
102
{ACAD_REACTORS
330
47
102
}
330
47
100
AcDbScale
 70
     0
300
1:1
140
1.0
141
1.0
290
     1
  0
SCALE
  5
49
102
{ACAD_REACTORS
330
47
102
}
330
47
100
AcDbScale
 70
     0
300
1:2
140
1.0
141
2.0
290
     0
  0
SCALE
  5
4A
102
{ACAD_REACTORS
330
47
102
}
330
47
100
AcDbScale
 70
     0
300
1:4
140
1.0
141
4.0
290
     0
  0
SCALE
  5
4B
102
{ACAD_REACTORS
330
47
102
}
330
47
100
AcDbScale
 70
     0
300
1:5
140
1.0
141
5.0
290
     0
  0
SCALE
  5
4C
102
{ACAD_REACTORS
330
47
102
}
330
47
100
AcDbScale
 70
     0
300
1:8
140
1.0
141
8.0
290
     0
  0
SCALE
  5
4D
102
{ACAD_REACTORS
330
47
102
}
330
47
100
AcDbScale
 70
     0
300
1:10
140
1.0
141
10.0
290
     0
  0
SCALE
  5
4E
102
{ACAD_REACTORS
330
47
102
}
330
47
100
AcDbScale
 70
     0
300
1:16
140
1.0
141
16.0
290
     0
  0
SCALE
  5
4F
102
{ACAD_REACTORS
330
47
102
}
330
47
100
AcDbScale
 70
     0
300
1:20
140
1.0
141
20.0
290
     0
  0
SCALE
  5
50
102
{ACAD_REACTORS
330
47
102
}
330
47
100
AcDbScale
 70
     0
300
1:30
140
1.0
141
30.0
290
     0
  0
SCALE
  5
51
102
{ACAD_REACTORS
330
47
102
}
330
47
100
AcDbScale
 70
     0
300
1:40
140
1.0
141
40.0
290
     0
  0
SCALE
  5
52
102
{ACAD_REACTORS
330
47
102
}
330
47
100
AcDbScale
 70
     0
300
1:50
140
1.0
141
50.0
290
     0
  0
SCALE
  5
53
102
{ACAD_REACTORS
330
47
102
}
330
47
100
AcDbScale
 70
     0
300
1:100
140
1.0
141
100.0
290
     0
  0
SCALE
  5
54
102
{ACAD_REACTORS
330
47
102
}
330
47
100
AcDbScale
 70
     0
300
2:1
140
2.0
141
1.0
290
     0
  0
SCALE
  5
55
102
{ACAD_REACTORS
330
47
102
}
330
47
100
AcDbScale
 70
     0
300
4:1
140
4.0
141
1.0
290
     0
  0
SCALE
  5
56
102
{ACAD_REACTORS
330
47
102
}
330
47
100
AcDbScale
 70
     0
300
8:1
140
8.0
141
1.0
290
     0
  0
SCALE
  5
57
102
{ACAD_REACTORS
330
47
102
}
330
47
100
AcDbScale
 70
     0
300
10:1
140
10.0
141
1.0
290
     0
  0
SCALE
  5
58
102
{ACAD_REACTORS
330
47
102
}
330
47
100
AcDbScale
 70
     0
300
100:1
140
100.0
141
1.0
290
     0
  0
ENDSEC
  0
EOF
