  0
SECTION
  2
HEADER
  9
$ACADVER
  1
AC1015
  9
$ACADMAINTVER
 70
     6
  9
$DWGCODEPAGE
  3
DOS932
  9
$INSBASE
 10
0.0
 20
0.0
 30
0.0
  9
$EXTMIN
 10
0.0
 20
0.0
 30
0.0
  9
$EXTMAX
 10
297.0
 20
210.0
 30
0.0
  9
$LIMMIN
 10
0.0
 20
0.0
  9
$LIMMAX
 10
297.0
 20
210.0
  9
$ORTHOMODE
 70
     0
  9
$REGENMODE
 70
     1
  9
$FILLMODE
 70
     1
  9
$QTEXTMODE
 70
     0
  9
$MIRRTEXT
 70
     1
  9
$LTSCALE
 40
1.0
  9
$ATTMODE
 70
     1
  9
$TEXTSIZE
 40
3.5277777778
  9
$TRACEWID
 40
1.0
  9
$TEXTSTYLE
  7
Standard
  9
$CLAYER
  8
0
  9
$CELTYPE
  6
ByLayer
  9
$CECOLOR
 62
   256
  9
$CELTSCALE
 40
1.0
  9
$DISPSILH
 70
     0
  9
$DIMSCALE
 40
1.0
  9
$DIMASZ
 40
2.728515625
  9
$DIMEXO
 40
1.0
  9
$DIMDLI
 40
3.75
  9
$DIMRND
 40
0.0
  9
$DIMDLE
 40
0.0
  9
$DIMEXE
 40
1.0
  9
$DIMTP
 40
0.0
  9
$DIMTM
 40
0.0
  9
$DIMTXT
 40
3.5277777778
  9
$DIMCEN
 40
2.5
  9
$DIMTSZ
 40
0.0
  9
$DIMTOL
 70
     0
  9
$DIMLIM
 70
     0
  9
$DIMTIH
 70
     1
  9
$DIMTOH
 70
     1
  9
$DIMSE1
 70
     0
  9
$DIMSE2
 70
     0
  9
$DIMTAD
 70
     1
  9
$DIMZIN
 70
     0
  9
$DIMBLK
  1

  9
$DIMASO
 70
     1
  9
$DIMSHO
 70
     1
  9
$DIMPOST
  1

  9
$DIMAPOST
  1

  9
$DIMALT
 70
     0
  9
$DIMALTD
 70
     3
  9
$DIMALTF
 40
0.0393700787
  9
$DIMLFAC
 40
1.0
  9
$DIMTOFL
 70
     1
  9
$DIMTVP
 40
0.0
  9
$DIMTIX
 70
     0
  9
$DIMSOXD
 70
     0
  9
$DIMSAH
 70
     0
  9
$DIMBLK1
  1

  9
$DIMBLK2
  1

  9
$DIMSTYLE
  2
ISO-25
  9
$DIMCLRD
 70
     0
  9
$DIMCLRE
 70
     0
  9
$DIMCLRT
 70
     0
  9
$DIMTFAC
 40
1.0
  9
$DIMGAP
 40
1.524
  9
$DIMJUST
 70
     0
  9
$DIMSD1
 70
     0
  9
$DIMSD2
 70
     0
  9
$DIMTOLJ
 70
     0
  9
$DIMTZIN
 70
     0
  9
$DIMALTZ
 70
     0
  9
$DIMALTTZ
 70
     0
  9
$DIMUPT
 70
     0
  9
$DIMDEC
 70
     2
  9
$DIMTDEC
 70
     2
  9
$DIMALTU
 70
     2
  9
$DIMALTTD
 70
     3
  9
$DIMTXSTY
  7
Standard
  9
$DIMAUNIT
 70
     0
  9
$DIMADEC
 70
     2
  9
$DIMALTRND
 40
0.0
  9
$DIMAZIN
 70
     0
  9
$DIMDSEP
 70
    44
  9
$DIMATFIT
 70
     3
  9
$DIMFRAC
 70
     0
  9
$DIMLDRBLK
  1

  9
$DIMLUNIT
 70
     2
  9
$DIMLWD
 70
    -2
  9
$DIMLWE
 70
    -2
  9
$DIMTMOVE
 70
     0
  9
$LUNITS
 70
     2
  9
$LUPREC
 70
     2
  9
$SKETCHINC
 40
1.0
  9
$FILLETRAD
 40
0.0
  9
$AUNITS
 70
     0
  9
$AUPREC
 70
     2
  9
$MENU
  1
.
  9
$ELEVATION
 40
0.0
  9
$PELEVATION
 40
0.0
  9
$THICKNESS
 40
0.0
  9
$LIMCHECK
 70
     0
  9
$CHAMFERA
 40
0.0
  9
$CHAMFERB
 40
0.0
  9
$CHAMFERC
 40
0.0
  9
$CHAMFERD
 40
0.0
  9
$SKPOLY
 70
     0
  9
$TDCREATE
 40
2460376.54564316
  9
$TDUCREATE
 40
2460376.17064316
  9
$TDUPDATE
 40
2460376.545643866
  9
$TDUUPDATE
 40
2460376.170643866
  9
$TDINDWG
 40
0.0000000116
  9
$TDUSRTIMER
 40
0.0000000116
  9
$USRTIMER
 70
     1
  9
$ANGBASE
 50
0.0
  9
$ANGDIR
 70
     0
  9
$PDMODE
 70
     0
  9
$PDSIZE
 40
-1.0
  9
$PLINEWID
 40
0.0
  9
$SPLFRAME
 70
     0
  9
$SPLINETYPE
 70
     6
  9
$SPLINESEGS
 70
     8
  9
$HANDSEED
  5
1DA
  9
$SURFTAB1
 70
     6
  9
$SURFTAB2
 70
     6
  9
$SURFTYPE
 70
     6
  9
$SURFU
 70
     6
  9
$SURFV
 70
     6
  9
$UCSBASE
  2

  9
$UCSNAME
  2

  9
$UCSORG
 10
0.0
 20
0.0
 30
0.0
  9
$UCSXDIR
 10
1.0
 20
0.0
 30
0.0
  9
$UCSYDIR
 10
0.0
 20
1.0
 30
0.0
  9
$UCSORTHOREF
  2

  9
$UCSORTHOVIEW
 70
     0
  9
$UCSORGTOP
 10
0.0
 20
0.0
 30
0.0
  9
$UCSORGBOTTOM
 10
0.0
 20
0.0
 30
0.0
  9
$UCSORGLEFT
 10
0.0
 20
0.0
 30
0.0
  9
$UCSORGRIGHT
 10
0.0
 20
0.0
 30
0.0
  9
$UCSORGFRONT
 10
0.0
 20
0.0
 30
0.0
  9
$UCSORGBACK
 10
0.0
 20
0.0
 30
0.0
  9
$PUCSBASE
  2

  9
$PUCSNAME
  2

  9
$PUCSORG
 10
0.0
 20
0.0
 30
0.0
  9
$PUCSXDIR
 10
1.0
 20
0.0
 30
0.0
  9
$PUCSYDIR
 10
0.0
 20
1.0
 30
0.0
  9
$PUCSORTHOREF
  2

  9
$PUCSORTHOVIEW
 70
     0
  9
$PUCSORGTOP
 10
0.0
 20
0.0
 30
0.0
  9
$PUCSORGBOTTOM
 10
0.0
 20
0.0
 30
0.0
  9
$PUCSORGLEFT
 10
0.0
 20
0.0
 30
0.0
  9
$PUCSORGRIGHT
 10
0.0
 20
0.0
 30
0.0
  9
$PUCSORGFRONT
 10
0.0
 20
0.0
 30
0.0
  9
$PUCSORGBACK
 10
0.0
 20
0.0
 30
0.0
  9
$USERI1
 70
     0
  9
$USERI2
 70
     0
  9
$USERI3
 70
     0
  9
$USERI4
 70
     0
  9
$USERI5
 70
     0
  9
$USERR1
 40
0.0
  9
$USERR2
 40
0.0
  9
$USERR3
 40
0.0
  9
$USERR4
 40
0.0
  9
$USERR5
 40
0.0
  9
$WORLDVIEW
 70
     1
  9
$SHADEDGE
 70
     3
  9
$SHADEDIF
 70
    70
  9
$TILEMODE
 70
     1
  9
$MAXACTVP
 70
    64
  9
$PINSBASE
 10
0.0
 20
0.0
 30
0.0
  9
$PLIMCHECK
 70
     0
  9
$PEXTMIN
 10
1.0000000000E+20
 20
1.0000000000E+20
 30
1.0000000000E+20
  9
$PEXTMAX
 10
-1.0000000000E+20
 20
-1.0000000000E+20
 30
-1.0000000000E+20
  9
$PLIMMIN
 10
0.0
 20
0.0
  9
$PLIMMAX
 10
420.0
 20
297.0
  9
$UNITMODE
 70
     0
  9
$VISRETAIN
 70
     1
  9
$PLINEGEN
 70
     0
  9
$PSLTSCALE
 70
     1
  9
$TREEDEPTH
 70
  3020
  9
$CMLSTYLE
  2
Standard
  9
$CMLJUST
 70
     0
  9
$CMLSCALE
 40
20.0
  9
$PROXYGRAPHICS
 70
     1
  9
$MEASUREMENT
 70
     1
  9
$CELWEIGHT
370
    -1
  9
$ENDCAPS
280
     0
  9
$JOINSTYLE
280
     0
  9
$LWDISPLAY
290
     1
  9
$INSUNITS
 70
     4
  9
$HYPERLINKBASE
  1

  9
$STYLESHEET
  1

  9
$XEDIT
290
     1
  9
$CEPSNTYPE
380
     0
  9
$PSTYLEMODE
290
     1
  9
$FINGERPRINTGUID
  2
{dab08107-c335-4234-8a94-2f5bee5f8d15}
  9
$VERSIONGUID
  2
{FAEB1C32-E019-11D5-929B-00C0DF256EC4}
  9
$EXTNAMES
290
     1
  9
$PSVPSCALE
 40
0.0
  9
$OLESTARTUP
290
     0
  0
ENDSEC
  0
SECTION
  2
CLASSES
  0
CLASS
  1
ACDBDICTIONARYWDFLT
  2
AcDbDictionaryWithDefault
  3
ObjectDBX Classes
 90
        0
280
     0
281
     0
  0
CLASS
  1
VISUALSTYLE
  2
AcDbVisualStyle
  3
ObjectDBX Classes
 90
     4095
280
     0
281
     0
  0
CLASS
  1
MATERIAL
  2
AcDbMaterial
  3
ObjectDBX Classes
 90
     1153
280
     0
281
     0
  0
CLASS
  1
SCALE
  2
AcDbScale
  3
ObjectDBX Classes
 90
     1153
280
     0
281
     0
  0
CLASS
  1
TABLESTYLE
  2
AcDbTableStyle
  3
ObjectDBX Classes
 90
     4095
280
     0
281
     0
  0
CLASS
  1
MLEADERSTYLE
  2
AcDbMLeaderStyle
  3
ACDB_MLEADERSTYLE_CLASS
 90
     4095
280
     0
281
     0
  0
CLASS
  1
SUN
  2
AcDbSun
  3
SCENEOE
 90
     1153
280
     0
281
     0
  0
CLASS
  1
ACDBPLACEHOLDER
  2
AcDbPlaceHolder
  3
ObjectDBX Classes
 90
        0
280
     0
281
     0
  0
CLASS
  1
LAYOUT
  2
AcDbLayout
  3
ObjectDBX Classes
 90
        0
280
     0
281
     0
  0
ENDSEC
  0
SECTION
  2
TABLES
  0
TABLE
  2
VPORT
  5
8
330
0
100
AcDbSymbolTable
 70
     1
  0
VPORT
  5
29
330
8
100
AcDbSymbolTableRecord
100
AcDbViewportTableRecord
  2
*Active
 70
     0
 10
0.0
 20
0.0
 11
1.0
 21
1.0
 12
148.5
 22
105.0
 13
0.0
 23
0.0
 14
10.0
 24
10.0
 15
10.0
 25
10.0
 16
0.0
 26
0.0
 36
1.0
 17
0.0
 27
0.0
 37
0.0
 40
210.0
 41
1.4142857143
 42
50.0
 43
0.0
 44
0.0
 50
0.0
 51
0.0
 71
     0
 72
  2000
 73
     1
 74
     3
 75
     0
 76
     0
 77
     0
 78
     0
281
     0
 65
     1
110
0.0
120
0.0
130
0.0
111
1.0
121
0.0
131
0.0
112
0.0
122
1.0
132
0.0
 79
     0
146
0.0
  0
ENDTAB
  0
TABLE
  2
LTYPE
  5
5
330
0
100
AcDbSymbolTable
 70
     6
  0
LTYPE
  5
14
330
5
100
AcDbSymbolTableRecord
100
AcDbLinetypeTableRecord
  2
ByBlock
 70
     0
  3

 72
    65
 73
     0
 40
0.0
  0
LTYPE
  5
15
330
5
100
AcDbSymbolTableRecord
100
AcDbLinetypeTableRecord
  2
ByLayer
 70
     0
  3

 72
    65
 73
     0
 40
0.0
  0
LTYPE
  5
16
330
5
100
AcDbSymbolTableRecord
100
AcDbLinetypeTableRecord
  2
Continuous
 70
     0
  3
Solid line
 72
    65
 73
     0
 40
0.0
  0
LTYPE
  5
5E
330
5
100
AcDbSymbolTableRecord
100
AcDbLinetypeTableRecord
  2
HIDDEN
 70
     0
  3
Hidden __ __ __ __ __ __ __ __ __ __ __ __ __ __
 72
    65
 73
     2
 40
1.905
 49
1.27
 74
     0
 49
-0.635
 74
     0
  0
LTYPE
  5
5F
330
5
100
AcDbSymbolTableRecord
100
AcDbLinetypeTableRecord
  2
PHANTOM
 70
     0
  3
Phantom ______  __  __  ______  __  __  ______
 72
    65
 73
     6
 40
12.7
 49
6.35
 74
     0
 49
-1.27
 74
     0
 49
1.27
 74
     0
 49
-1.27
 74
     0
 49
1.27
 74
     0
 49
-1.27
 74
     0
  0
LTYPE
  5
60
330
5
100
AcDbSymbolTableRecord
100
AcDbLinetypeTableRecord
  2
CENTER
 70
     0
  3
Center ____ _ ____ _ ____ _ ____ _ ____ _ ____
 72
    65
 73
     4
 40
10.16
 49
6.35
 74
     0
 49
-1.27
 74
     0
 49
1.27
 74
     0
 49
-1.27
 74
     0
  0
LTYPE
  5
61
330
5
100
AcDbSymbolTableRecord
100
AcDbLinetypeTableRecord
  2
CENTERX2
 70
     0
  3
Center (2x) ________  __  ________  __  _____
 72
    65
 73
     4
 40
20.32
 49
12.7
 74
     0
 49
-2.54
 74
     0
 49
2.54
 74
     0
 49
-2.54
 74
     0
  0
LTYPE
  5
62
330
5
100
AcDbSymbolTableRecord
100
AcDbLinetypeTableRecord
  2
DOT2
 70
     0
  3
Dot (.5x) ........................................
 72
    65
 73
     2
 40
0.635
 49
0.0
 74
     0
 49
-0.635
 74
     0
  0
ENDTAB
  0
TABLE
  2
LAYER
  5
2
330
0
100
AcDbSymbolTable
 70
     2
  0
LAYER
  5
10
330
2
100
AcDbSymbolTableRecord
100
AcDbLayerTableRecord
  2
0
 70
     0
 62
     7
  6
Continuous
370
    -3
390
F
  0
LAYER
  5
63
330
2
100
AcDbSymbolTableRecord
100
AcDbLayerTableRecord
  2
FORMAT
 70
     0
 62
     7
  6
Continuous
370
    -3
390
F
  0
ENDTAB
  0
TABLE
  2
STYLE
  5
3
330
0
100
AcDbSymbolTable
 70
     2
  0
STYLE
  5
11
330
3
100
AcDbSymbolTableRecord
100
AcDbTextStyleTableRecord
  2
Standard
 70
     0
 40
0.0
 41
1.0
 50
0.0
 71
     0
 42
3.5277777778
  3
txt
  4
bigfont
  0
STYLE
  5
64
330
3
100
AcDbSymbolTableRecord
100
AcDbTextStyleTableRecord
  2
SLDTEXTSTYLE0
 70
     0
 40
0.0
 41
0.7
 50
0.0
 71
     0
 42
3.5277777778
  3
TXT
  4
bigfont
  0
ENDTAB
  0
TABLE
  2
VIEW
  5
6
330
0
100
AcDbSymbolTable
 70
     0
  0
ENDTAB
  0
TABLE
  2
UCS
  5
7
330
0
100
AcDbSymbolTable
 70
     0
  0
ENDTAB
  0
TABLE
  2
APPID
  5
9
330
0
100
AcDbSymbolTable
 70
     1
  0
APPID
  5
12
330
9
100
AcDbSymbolTableRecord
100
AcDbRegAppTableRecord
  2
ACAD
 70
     0
  0
ENDTAB
  0
TABLE
  2
DIMSTYLE
  5
A
330
0
100
AcDbSymbolTable
 70
     1
100
AcDbDimStyleTable
  0
DIMSTYLE
105
27
330
A
100
AcDbSymbolTableRecord
100
AcDbDimStyleTableRecord
  2
ISO-25
 70
     0
 41
2.5
 42
0.625
 43
3.75
 44
1.25
 73
     0
 74
     0
 77
     1
 78
     8
140
2.5
141
2.5
143
0.0393700787
147
0.625
171
     3
172
     1
178
     0
271
     2
272
     2
274
     3
278
    44
283
     0
284
     8
340
11
  0
ENDTAB
  0
TABLE
  2
BLOCK_RECORD
  5
1
330
0
100
AcDbSymbolTable
 70
     3
  0
BLOCK_RECORD
  5
1F
330
1
100
AcDbSymbolTableRecord
100
AcDbBlockTableRecord
  2
*Model_Space
340
22
  0
BLOCK_RECORD
  5
1B
330
1
100
AcDbSymbolTableRecord
100
AcDbBlockTableRecord
  2
*Paper_Space
340
1E
  0
BLOCK_RECORD
  5
23
330
1
100
AcDbSymbolTableRecord
100
AcDbBlockTableRecord
  2
*Paper_Space0
340
26
  0
BLOCK_RECORD
  5
13F
330
1
100
AcDbSymbolTableRecord
100
AcDbBlockTableRecord
  2
SW_CENTERMARKSYMBOL_0
340
0
102
{BLKREFS
331
14A
102
}
  0
BLOCK_RECORD
  5
1CA
330
1
100
AcDbSymbolTableRecord
100
AcDbBlockTableRecord
  2
SW_CENTERMARKSYMBOL_1
340
0
102
{BLKREFS
331
1D5
102
}
  0
ENDTAB
  0
ENDSEC
  0
SECTION
  2
BLOCKS
  0
BLOCK
  5
20
330
1F
100
AcDbEntity
  8
0
100
AcDbBlockBegin
  2
*Model_Space
 70
     0
 10
0.0
 20
0.0
 30
0.0
  3
*Model_Space
  1

  0
ENDBLK
  5
21
330
1F
100
AcDbEntity
  8
0
100
AcDbBlockEnd
  0
BLOCK
  5
1C
330
1B
100
AcDbEntity
 67
     1
  8
0
100
AcDbBlockBegin
  2
*Paper_Space
 70
     0
 10
0.0
 20
0.0
 30
0.0
  3
*Paper_Space
  1

  0
ENDBLK
  5
1D
330
1B
100
AcDbEntity
 67
     1
  8
0
100
AcDbBlockEnd
  0
BLOCK
  5
24
330
23
100
AcDbEntity
  8
0
100
AcDbBlockBegin
  2
*Paper_Space0
 70
     0
 10
0.0
 20
0.0
 30
0.0
  3
*Paper_Space0
  1

  0
ENDBLK
  5
25
330
23
100
AcDbEntity
  8
0
100
AcDbBlockEnd
  0
BLOCK
  5
140
330
13F
100
AcDbEntity
  8
0
100
AcDbBlockBegin
  2
SW_CENTERMARKSYMBOL_0
 70
     0
 10
0.0
 20
0.0
 30
0.0
  3
SW_CENTERMARKSYMBOL_0
  1

  0
LINE
  5
142
330
13F
100
AcDbEntity
  8
FORMAT
 62
     0
100
AcDbLine
 10
0.0
 20
0.0
 30
0.0
 11
0.0
 21
2.5
 31
0.0
  0
LINE
  5
143
330
13F
100
AcDbEntity
  8
FORMAT
 62
     0
100
AcDbLine
 10
0.0
 20
0.0
 30
0.0
 11
-2.5
 21
0.0
 31
0.0
  0
LINE
  5
144
330
13F
100
AcDbEntity
  8
FORMAT
 62
     0
100
AcDbLine
 10
0.0
 20
0.0
 30
0.0
 11
0.0
 21
-2.5
 31
0.0
  0
LINE
  5
145
330
13F
100
AcDbEntity
  8
FORMAT
 62
     0
100
AcDbLine
 10
0.0
 20
0.0
 30
0.0
 11
2.5
 21
0.0
 31
0.0
  0
LINE
  5
146
330
13F
100
AcDbEntity
  8
FORMAT
 62
     0
100
AcDbLine
 10
0.0
 20
5.0
 30
0.0
 11
0.0
 21
29.5862627959
 31
0.0
  0
LINE
  5
147
330
13F
100
AcDbEntity
  8
FORMAT
 62
     0
100
AcDbLine
 10
-5.0
 20
0.0
 30
0.0
 11
-14.05
 21
0.0
 31
0.0
  0
LINE
  5
148
330
13F
100
AcDbEntity
  8
FORMAT
 62
     0
100
AcDbLine
 10
0.0
 20
-5.0
 30
0.0
 11
0.0
 21
-15.3678992652
 31
0.0
  0
LINE
  5
149
330
13F
100
AcDbEntity
  8
FORMAT
 62
     0
100
AcDbLine
 10
5.0
 20
0.0
 30
0.0
 11
14.05
 21
0.0
 31
0.0
  0
ENDBLK
  5
141
330
13F
100
AcDbEntity
  8
0
100
AcDbBlockEnd
  0
BLOCK
  5
1CB
330
1CA
100
AcDbEntity
  8
0
100
AcDbBlockBegin
  2
SW_CENTERMARKSYMBOL_1
 70
     0
 10
0.0
 20
0.0
 30
0.0
  3
SW_CENTERMARKSYMBOL_1
  1

  0
LINE
  5
1CD
330
1CA
100
AcDbEntity
  8
FORMAT
 62
     0
100
AcDbLine
 10
0.0
 20
0.0
 30
0.0
 11
0.0
 21
2.5
 31
0.0
  0
LINE
  5
1CE
330
1CA
100
AcDbEntity
  8
FORMAT
 62
     0
100
AcDbLine
 10
0.0
 20
0.0
 30
0.0
 11
-2.5
 21
0.0
 31
0.0
  0
LINE
  5
1CF
330
1CA
100
AcDbEntity
  8
FORMAT
 62
     0
100
AcDbLine
 10
0.0
 20
0.0
 30
0.0
 11
0.0
 21
-2.5
 31
0.0
  0
LINE
  5
1D0
330
1CA
100
AcDbEntity
  8
FORMAT
 62
     0
100
AcDbLine
 10
0.0
 20
0.0
 30
0.0
 11
2.5
 21
0.0
 31
0.0
  0
LINE
  5
1D1
330
1CA
100
AcDbEntity
  8
FORMAT
 62
     0
100
AcDbLine
 10
0.0
 20
5.0
 30
0.0
 11
0.0
 21
11.0
 31
0.0
  0
LINE
  5
1D2
330
1CA
100
AcDbEntity
  8
FORMAT
 62
     0
100
AcDbLine
 10
-5.0
 20
0.0
 30
0.0
 11
-11.0
 21
0.0
 31
0.0
  0
LINE
  5
1D3
330
1CA
100
AcDbEntity
  8
FORMAT
 62
     0
100
AcDbLine
 10
0.0
 20
-5.0
 30
0.0
 11
0.0
 21
-11.0
 31
0.0
  0
LINE
  5
1D4
330
1CA
100
AcDbEntity
  8
FORMAT
 62
     0
100
AcDbLine
 10
5.0
 20
0.0
 30
0.0
 11
38.409141133
 21
0.0
 31
0.0
  0
ENDBLK
  5
1CC
330
1CA
100
AcDbEntity
  8
0
100
AcDbBlockEnd
  0
ENDSEC
  0
SECTION
  2
ENTITIES
  0
MTEXT
  5
65
330
1F
100
AcDbEntity
  8
FORMAT
100
AcDbMText
 10
125.7068693484
 20
97.4064331445
 30
0.0
 40
3.7041666667
 41
0.0
 71
     2
 72
     1
  1
5R-RL1212
  7
SLDTEXTSTYLE0
 73
     1
 44
1.0
  0
LINE
  5
66
330
1F
100
AcDbEntity
  8
0
  6
Continuous
 62
     7
370
    25
100
AcDbLine
 10
103.1467886067
 20
73.7368387406
 30
0.0
 11
101.9306542696
 21
71.6304322801
 31
0.0
  0
LINE
  5
67
330
1F
100
AcDbEntity
  8
0
  6
Continuous
 62
     7
370
    25
100
AcDbLine
 10
101.9306542696
 20
48.1304322801
 30
0.0
 11
103.1467886067
 21
46.0240258195
 31
0.0
  0
LINE
  5
68
330
1F
100
AcDbEntity
  8
0
  6
Continuous
 62
     7
370
    25
100
AcDbLine
 10
119.7306542696
 20
48.1304322801
 30
0.0
 11
119.9306542696
 21
48.3304322801
 31
0.0
  0
LINE
  5
69
330
1F
100
AcDbEntity
  8
0
  6
Continuous
 62
     7
370
    25
100
AcDbLine
 10
119.9306542696
 20
71.4304322801
 30
0.0
 11
119.7306542696
 21
71.6304322801
 31
0.0
  0
LINE
  5
6A
330
1F
100
AcDbEntity
  8
0
  6
Continuous
 62
     7
370
    25
100
AcDbLine
 10
119.7306542696
 20
71.6304322801
 30
0.0
 11
118.6523421061
 21
71.6304322801
 31
0.0
  0
LINE
  5
6B
330
1F
100
AcDbEntity
  8
0
  6
Continuous
 62
     7
370
    25
100
AcDbLine
 10
118.6523421061
 20
48.1304322801
 30
0.0
 11
119.7306542696
 21
48.1304322801
 31
0.0
  0
ARC
  5
6C
330
1F
100
AcDbEntity
  8
0
  6
Continuous
 62
     7
370
    25
100
AcDbCircle
 10
118.6523421061
 20
72.8804322801
 30
0.0
 40
1.250000000000004
100
AcDbArc
 50
210.0
 51
270.0
  0
LINE
  5
6D
330
1F
100
AcDbEntity
  8
0
  6
Continuous
 62
     7
370
    25
100
AcDbLine
 10
117.5698103514
 20
72.2554322801
 30
0.0
 11
116.7145199326
 21
73.7368387406
 31
0.0
  0
LINE
  5
6E
330
1F
100
AcDbEntity
  8
0
  6
Continuous
 62
     7
370
    25
100
AcDbLine
 10
116.7145199326
 20
46.0240258195
 30
0.0
 11
117.5698103514
 21
47.5054322801
 31
0.0
  0
ARC
  5
6F
330
1F
100
AcDbEntity
  8
0
  6
Continuous
 62
     7
370
    25
100
AcDbCircle
 10
118.6523421061
 20
46.8804322801
 30
0.0
 40
1.250000000000004
100
AcDbArc
 50
90.0
 51
150.0
  0
ARC
  5
70
330
1F
100
AcDbEntity
  8
0
  6
Continuous
 62
     7
370
    25
100
AcDbCircle
 10
100.4465012
 20
51.1304322801
 30
0.0
 40
2.499999999999996
100
AcDbArc
 50
206.7436839504
 51
223.7093197495
  0
ARC
  5
71
330
1F
100
AcDbEntity
  8
0
  6
Continuous
 62
     7
370
    25
100
AcDbCircle
 10
100.4465012
 20
68.6304322801
 30
0.0
 40
2.500000000000006
100
AcDbArc
 50
136.2906802505
 51
153.2563160496
  0
LINE
  5
72
330
1F
100
AcDbEntity
  8
0
  6
Continuous
 62
     7
370
    25
100
AcDbLine
 10
101.9306542696
 20
70.3579322801
 30
0.0
 11
98.639364307
 21
70.3579322801
 31
0.0
  0
LINE
  5
73
330
1F
100
AcDbEntity
  8
0
  6
Continuous
 62
     7
370
    25
100
AcDbLine
 10
98.639364307
 20
49.4029322801
 30
0.0
 11
101.9306542696
 21
49.4029322801
 31
0.0
  0
ARC
  5
74
330
1F
100
AcDbEntity
  8
0
  6
Continuous
 62
     7
370
    25
100
AcDbCircle
 10
95.9813584251
 20
48.8804322801
 30
0.0
 40
2.499999999999996
100
AcDbArc
 50
26.7436839504
 51
90.0
  0
ARC
  5
75
330
1F
100
AcDbEntity
  8
0
  6
Continuous
 62
     7
370
    25
100
AcDbCircle
 10
95.9813584251
 20
70.8804322801
 30
0.0
 40
2.5
100
AcDbArc
 50
270.0
 51
333.2563160496
  0
LINE
  5
76
330
1F
100
AcDbEntity
  8
0
  6
Continuous
 62
     7
370
    25
100
AcDbLine
 10
74.9813584251
 20
72.8759059864
 30
0.0
 11
74.9813584251
 21
54.3760316117
 31
0.0
  0
LINE
  5
77
330
1F
100
AcDbEntity
  8
0
  6
Continuous
 62
     7
370
    25
100
AcDbLine
 10
91.9813584251
 20
68.8804322801
 30
0.0
 11
91.9813584251
 21
72.8759059864
 31
0.0
  0
LINE
  5
78
330
1F
100
AcDbEntity
  8
0
  6
Continuous
 62
     7
370
    25
100
AcDbLine
 10
95.9813584251
 20
68.3804322801
 30
0.0
 11
92.4813584251
 21
68.3804322801
 31
0.0
  0
LINE
  5
79
330
1F
100
AcDbEntity
  8
0
  6
Continuous
 62
     7
370
    25
100
AcDbLine
 10
77.9769577567
 20
51.3804322801
 30
0.0
 11
95.9813584251
 21
51.3804322801
 31
0.0
  0
LINE
  5
7A
330
1F
100
AcDbEntity
  8
0
  6
Continuous
 62
     7
370
    25
100
AcDbLine
 10
91.9813584251
 20
72.8759059864
 30
0.0
 11
90.3095459251
 21
73.8804322801
 31
0.0
  0
LINE
  5
7B
330
1F
100
AcDbEntity
  8
0
  6
Continuous
 62
     7
370
    25
100
AcDbLine
 10
76.6531709251
 20
73.8804322801
 30
0.0
 11
74.9813584251
 21
72.8759059864
 31
0.0
  0
LINE
  5
7C
330
1F
100
AcDbEntity
  8
0
  6
Continuous
 62
     7
370
    25
100
AcDbLine
 10
90.3095459251
 20
73.8804322801
 30
0.0
 11
89.9373205393
 21
85.7916446263
 31
0.0
  0
LINE
  5
7D
330
1F
100
AcDbEntity
  8
0
  6
Continuous
 62
     7
370
    25
100
AcDbLine
 10
77.025396311
 20
85.7916446263
 30
0.0
 11
76.6531709251
 21
73.8804322801
 31
0.0
  0
LINE
  5
7E
330
1F
100
AcDbEntity
  8
0
  6
Continuous
 62
     7
370
    25
100
AcDbLine
 10
89.9373205393
 20
85.7916446263
 30
0.0
 11
88.7313584251
 21
87.8804322801
 31
0.0
  0
LINE
  5
7F
330
1F
100
AcDbEntity
  8
0
  6
Continuous
 62
     7
370
    25
100
AcDbLine
 10
78.2313584251
 20
87.8804322801
 30
0.0
 11
77.025396311
 21
85.7916446263
 31
0.0
  0
SPLINE
  5
80
330
1F
100
AcDbEntity
  8
0
  6
Continuous
 62
     7
370
    25
100
AcDbSpline
210
0.0
220
0.0
230
1.0
 70
     8
 71
     3
 72
    21
 73
    17
 74
     0
 42
0.00000001
 43
0.00000001
 40
0.0
 40
0.0
 40
0.0
 40
0.0
 40
0.082675667536071
 40
0.1577159023869824
 40
0.225107122878268
 40
0.2848508575649881
 40
0.3526127842311548
 40
0.4067896671894032
 40
0.4520101410146769
 40
0.5086861790580107
 40
0.5792250314326626
 40
0.6636251927364243
 40
0.7360318665421361
 40
0.8162246244150331
 40
0.9042198598363963
 40
1.0
 40
1.0
 40
1.0
 40
1.0
 10
74.98135842540971
 20
54.38039265712777
 30
0.0
 10
74.98625614898249
 20
54.25051555030062
 30
0.0
 10
74.99559927152319
 20
54.00275601338828
 30
0.0
 10
75.06464586808787
 20
53.65488686581953
 30
0.0
 10
75.15803397169202
 20
53.35111049832468
 30
0.0
 10
75.2776635755176
 20
53.06898742345093
 30
0.0
 10
75.41495914746645
 20
52.81837687237086
 30
0.0
 10
75.56251097543309
 20
52.6010101051156
 30
0.0
 10
75.71552157566252
 20
52.40941240593497
 30
0.0
 10
75.90108029442594
 20
52.211828235734
 30
0.0
 10
76.15226403519715
 20
51.99339393551521
 30
0.0
 10
76.44877713075566
 20
51.79289616050617
 30
0.0
 10
76.78076028222218
 20
51.62307013004689
 30
0.0
 10
77.13635684825896
 20
51.49358147760803
 30
0.0
 10
77.54205809894177
 20
51.39965064833404
 30
0.0
 10
77.83082113944508
 20
51.38701679711751
 30
0.0
 10
77.9813188021784
 20
51.38043228035909
 30
0.0
  0
SPLINE
  5
81
330
1F
100
AcDbEntity
  8
0
  6
Continuous
 62
     7
370
    25
100
AcDbSpline
210
0.0
220
0.0
230
1.0
 70
     8
 71
     3
 72
    11
 73
     7
 74
     0
 42
0.00000001
 43
0.00000001
 40
0.0
 40
0.0
 40
0.0
 40
0.0
 40
0.2500481156911711
 40
0.5000000000000012
 40
0.7499518843088333
 40
1.0
 40
1.0
 40
1.0
 40
1.0
 10
92.48619175632152
 20
68.38043228009404
 30
0.0
 10
92.4197906228347
 20
68.38752470435337
 30
0.0
 10
92.28701391043423
 20
68.40170682334221
 30
0.0
 10
92.1194156018492
 20
68.51848945679858
 30
0.0
 10
92.00263296839283
 20
68.68608776538359
 30
0.0
 10
91.98845084940399
 20
68.81886447778408
 30
0.0
 10
91.98135842514466
 20
68.8852656112709
 30
0.0
  0
SPLINE
  5
82
330
1F
100
AcDbEntity
  8
0
  6
Continuous
 62
     7
370
    25
100
AcDbSpline
210
0.0
220
0.0
230
1.0
 70
     8
 71
     3
 72
    15
 73
    11
 74
     0
 42
0.00000001
 43
0.00000001
 40
0.0
 40
0.0
 40
0.0
 40
0.0
 40
0.1109312571803502
 40
0.2218878685177186
 40
0.3342489325822944
 40
0.4465909975319765
 40
0.5835720164062189
 40
0.7205960260518425
 40
0.8603243244461249
 40
1.0
 40
1.0
 40
1.0
 40
1.0
 10
118.6523421061155
 20
62.75108466017004
 30
0.0
 10
118.6490819985269
 20
62.54209986490044
 30
0.0
 10
118.642561038228
 20
62.12408250934486
 30
0.0
 10
118.6037879950839
 20
61.48634518125004
 30
0.0
 10
118.5631892809155
 20
60.84191880949526
 30
0.0
 10
118.5321207752579
 20
60.14331456607997
 30
0.0
 10
118.5397599433598
 20
59.3948352128993
 30
0.0
 10
118.5813315063657
 20
58.59723708018434
 30
0.0
 10
118.6367282622857
 20
57.80013892744827
 30
0.0
 10
118.6471381450367
 20
57.2731998279902
 30
0.0
 10
118.6523421061155
 20
57.00977990001805
 30
0.0
  0
ARC
  5
83
330
1F
100
AcDbEntity
  8
0
  6
Continuous
 62
     7
370
    25
100
AcDbCircle
 10
118.5414488942
 20
53.8822897176
 30
0.0
 40
3.129455566920368
100
AcDbArc
 50
87.9692814554
 51
108.0882596308
  0
SPLINE
  5
84
330
1F
100
AcDbEntity
  8
0
  6
Continuous
 62
     7
370
    25
100
AcDbSpline
210
0.0
220
0.0
230
1.0
 70
     8
 71
     3
 72
    12
 73
     8
 74
     0
 42
0.00000001
 43
0.00000001
 40
0.0
 40
0.0
 40
0.0
 40
0.0
 40
0.2129689154671411
 40
0.4084755341932518
 40
0.6039784210818411
 40
0.8019834228453047
 40
1.0
 40
1.0
 40
1.0
 40
1.0
 10
117.569810351385
 20
62.90377893570599
 30
0.0
 10
117.6232198724653
 20
62.47633289760066
 30
0.0
 10
117.725659623386
 20
61.65648907968533
 30
0.0
 10
117.7893829802979
 20
60.4358310462379
 30
0.0
 10
117.7875878590608
 20
59.24438258453817
 30
0.0
 10
117.7197478288817
 20
58.04918143173707
 30
0.0
 10
117.6197904844414
 20
57.25445863660244
 30
0.0
 10
117.569810351385
 20
56.85708562448208
 30
0.0
  0
ARC
  5
85
330
1F
100
AcDbEntity
  8
0
  6
Continuous
 62
     7
370
    25
100
AcDbCircle
 10
118.5414488942
 20
65.8785748425
 30
0.0
 40
3.129455566915207
100
AcDbArc
 50
251.9117403692
 51
272.0307185446
  0
LINE
  5
86
330
1F
100
AcDbEntity
  8
0
  6
Continuous
 62
     7
370
    25
100
AcDbLine
 10
118.6523421061
 20
57.0097799
 30
0.0
 11
118.6523421061
 21
51.4483175058
 31
0.0
  0
ARC
  5
87
330
1F
100
AcDbEntity
  8
0
  6
Continuous
 62
     7
370
    25
100
AcDbCircle
 10
118.5951435346
 20
50.0557231961
 30
0.0
 40
1.393768484391443
100
AcDbArc
 50
87.647990046
 51
137.3626177873
  0
LINE
  5
88
330
1F
100
AcDbEntity
  8
0
  6
Continuous
 62
     7
370
    25
100
AcDbLine
 10
117.5698103514
 20
50.9998007625
 30
0.0
 11
117.5698103514
 21
56.8570856245
 31
0.0
  0
LINE
  5
89
330
1F
100
AcDbEntity
  8
0
  6
Continuous
 62
     7
370
    25
100
AcDbLine
 10
117.5698103514
 20
62.9037789357
 30
0.0
 11
117.5698103514
 21
68.7610637977
 31
0.0
  0
ARC
  5
8A
330
1F
100
AcDbEntity
  8
0
  6
Continuous
 62
     7
370
    25
100
AcDbCircle
 10
118.5951435346
 20
69.7051413641
 30
0.0
 40
1.393768484391298
100
AcDbArc
 50
222.6373822127
 51
272.352009954
  0
LINE
  5
8B
330
1F
100
AcDbEntity
  8
0
  6
Continuous
 62
     7
370
    25
100
AcDbLine
 10
118.6523421061
 20
68.3125470544
 30
0.0
 11
118.6523421061
 21
62.7510846602
 31
0.0
  0
SPLINE
  5
8C
330
1F
100
AcDbEntity
  8
0
  6
Continuous
 62
     7
370
    25
100
AcDbSpline
210
0.0
220
0.0
230
1.0
 70
     8
 71
     3
 72
    11
 73
     7
 74
     0
 42
0.00000001
 43
0.00000001
 40
0.0
 40
0.0
 40
0.0
 40
0.0
 40
0.2896312968534328
 40
0.5811875798131638
 40
0.7902304971769972
 40
1.0
 40
1.0
 40
1.0
 40
1.0
 10
117.569810351385
 20
50.99980076248675
 30
0.0
 10
117.6391571884005
 20
50.70888172223373
 30
0.0
 10
117.7783117646172
 20
50.12511009684967
 30
0.0
 10
117.800202744944
 20
49.32492740297357
 30
0.0
 10
117.7278046939214
 20
48.60721515532079
 30
0.0
 10
117.6225360080886
 20
48.18695082446902
 30
0.0
 10
117.569810351385
 20
47.9764541068748
 30
0.0
  0
SPLINE
  5
8D
330
1F
100
AcDbEntity
  8
0
  6
Continuous
 62
     7
370
    25
100
AcDbSpline
210
0.0
220
0.0
230
1.0
 70
     8
 71
     3
 72
     9
 73
     5
 74
     0
 42
0.00000001
 43
0.00000001
 40
0.0
 40
0.0
 40
0.0
 40
0.0
 40
0.4986680494787146
 40
1.0
 40
1.0
 40
1.0
 40
1.0
 10
117.569810351385
 20
47.9764541068748
 30
0.0
 10
117.4620034608007
 20
47.6481547568085
 30
0.0
 10
117.2458137716939
 20
46.98980227080204
 30
0.0
 10
116.8919321142078
 20
46.34652251450052
 30
0.0
 10
116.7145199326066
 20
46.02402581954301
 30
0.0
  0
LINE
  5
8E
330
1F
100
AcDbEntity
  8
0
  6
Continuous
 62
     7
370
    25
100
AcDbLine
 10
116.7145199326
 20
46.0240258195
 30
0.0
 11
103.1467886067
 21
46.0240258195
 31
0.0
  0
SPLINE
  5
8F
330
1F
100
AcDbEntity
  8
0
  6
Continuous
 62
     7
370
    25
100
AcDbSpline
210
0.0
220
0.0
230
1.0
 70
     8
 71
     3
 72
    15
 73
    11
 74
     0
 42
0.00000001
 43
0.00000001
 40
0.0
 40
0.0
 40
0.0
 40
0.0
 40
0.1323065044264402
 40
0.2645755999739297
 40
0.3998036789671091
 40
0.5350073556765892
 40
0.650196947540502
 40
0.7654045076453764
 40
0.8826909144168967
 40
1.0
 40
1.0
 40
1.0
 40
1.0
 10
103.1467886066504
 20
46.02402581954301
 30
0.0
 10
102.9836295247326
 20
46.32335464231362
 30
0.0
 10
102.6573574931593
 20
46.92192765440656
 30
0.0
 10
102.3063027901395
 20
47.84367743119934
 30
0.0
 10
102.0952260046103
 20
48.78280254494992
 30
0.0
 10
102.0534286943247
 20
49.6879034429931
 30
0.0
 10
102.1618873270255
 20
50.54410014777766
 30
0.0
 10
102.3841132360864
 20
51.35213265658715
 30
0.0
 10
102.7100910093726
 20
52.15651172569709
 30
0.0
 10
103.0012133597661
 20
52.68697284820174
 30
0.0
 10
103.1467886066504
 20
52.95222904981853
 30
0.0
  0
LINE
  5
90
330
1F
100
AcDbEntity
  8
0
  6
Continuous
 62
     7
370
    25
100
AcDbLine
 10
116.7145199326
 20
52.9522290498
 30
0.0
 11
103.1467886067
 21
52.9522290498
 31
0.0
  0
SPLINE
  5
91
330
1F
100
AcDbEntity
  8
0
  6
Continuous
 62
     7
370
    25
100
AcDbSpline
210
0.0
220
0.0
230
1.0
 70
     8
 71
     3
 72
     9
 73
     5
 74
     0
 42
0.00000001
 43
0.00000001
 40
0.0
 40
0.0
 40
0.0
 40
0.0
 40
0.4988470384231425
 40
1.0
 40
1.0
 40
1.0
 40
1.0
 10
116.7145199326066
 20
52.95222904981853
 30
0.0
 10
116.8910959329451
 20
52.63133872988428
 30
0.0
 10
117.245064157146
 20
51.9880747727631
 30
0.0
 10
117.461395338945
 20
51.32973146227311
 30
0.0
 10
117.569810351385
 20
50.99980076248675
 30
0.0
  0
SPLINE
  5
92
330
1F
100
AcDbEntity
  8
0
  6
Continuous
 62
     7
370
    25
100
AcDbSpline
210
0.0
220
0.0
230
1.0
 70
     8
 71
     3
 72
    15
 73
    11
 74
     0
 42
0.00000001
 43
0.00000001
 40
0.0
 40
0.0
 40
0.0
 40
0.0
 40
0.1323065044264404
 40
0.2645755999739298
 40
0.3998036789671092
 40
0.5350073556765892
 40
0.6501969475405018
 40
0.7654045076453763
 40
0.8826909144168966
 40
1.0
 40
1.0
 40
1.0
 40
1.0
 10
103.1467886066504
 20
66.80863551036956
 30
0.0
 10
102.9836295247326
 20
67.10796433314016
 30
0.0
 10
102.6573574931593
 20
67.7065373452331
 30
0.0
 10
102.3063027901394
 20
68.62828712202588
 30
0.0
 10
102.0952260046103
 20
69.56741223577644
 30
0.0
 10
102.0534286943247
 20
70.47251313381965
 30
0.0
 10
102.1618873270255
 20
71.32870983860418
 30
0.0
 10
102.3841132360864
 20
72.13674234741369
 30
0.0
 10
102.7100910093726
 20
72.94112141652363
 30
0.0
 10
103.0012133597661
 20
73.47158253902828
 30
0.0
 10
103.1467886066504
 20
73.73683874064507
 30
0.0
  0
SPLINE
  5
93
330
1F
100
AcDbEntity
  8
0
  6
Continuous
 62
     7
370
    25
100
AcDbSpline
210
0.0
220
0.0
230
1.0
 70
     8
 71
     3
 72
    16
 73
    12
 74
     0
 42
0.00000001
 43
0.00000001
 40
0.0
 40
0.0
 40
0.0
 40
0.0
 40
0.121301252150889
 40
0.2465461112200839
 40
0.3717591011841887
 40
0.5000673345948777
 40
0.6283755856756821
 40
0.7208001477423515
 40
0.8132339918616914
 40
0.9066126185871436
 40
1.0
 40
1.0
 40
1.0
 40
1.0
 10
103.1467886066504
 20
52.95222904981853
 30
0.0
 10
102.9964449852302
 20
53.50088152643489
 30
0.0
 10
102.6908699433355
 20
54.61602363851109
 30
0.0
 10
102.352388703659
 20
56.32758920898798
 30
0.0
 10
102.1262512090469
 20
58.09065455635142
 30
0.0
 10
102.0499914466755
 20
59.88161138380337
 30
0.0
 10
102.1201881600886
 20
61.51869882333492
 30
0.0
 10
102.2900917499555
 20
62.97799236526105
 30
0.0
 10
102.5123485439873
 20
64.26400125551541
 30
0.0
 10
102.7957084291997
 20
65.54269699603353
 30
0.0
 10
103.0297582237926
 20
66.38664281889105
 30
0.0
 10
103.1467886066504
 20
66.80863551036956
 30
0.0
  0
LINE
  5
94
330
1F
100
AcDbEntity
  8
0
  6
Continuous
 62
     7
370
    25
100
AcDbLine
 10
101.9306542696
 20
59.8804322801
 30
0.0
 11
101.9306542696
 21
71.6304322801
 31
0.0
  0
LINE
  5
95
330
1F
100
AcDbEntity
  8
0
  6
Continuous
 62
     7
370
    25
100
AcDbLine
 10
101.9306542696
 20
48.1304322801
 30
0.0
 11
101.9306542696
 21
59.8804322801
 31
0.0
  0
SPLINE
  5
96
330
1F
100
AcDbEntity
  8
0
  6
Continuous
 62
     7
370
    25
100
AcDbSpline
210
0.0
220
0.0
230
1.0
 70
     8
 71
     3
 72
    10
 73
     6
 74
     0
 42
0.00000001
 43
0.00000001
 40
0.0
 40
0.0
 40
0.0
 40
0.0
 40
0.2966942842518304
 40
0.5940284356736806
 40
1.0
 40
1.0
 40
1.0
 40
1.0
 10
117.569810351385
 20
56.85708562448209
 30
0.0
 10
117.5086478907051
 20
56.4661571582315
 30
0.0
 10
117.3861910630273
 20
55.68345712795373
 30
0.0
 10
117.1058427015588
 20
54.37893181958375
 30
0.0
 10
116.8577356276557
 20
53.4743714984869
 30
0.0
 10
116.7145199326066
 20
52.95222904981853
 30
0.0
  0
SPLINE
  5
97
330
1F
100
AcDbEntity
  8
0
  6
Continuous
 62
     7
370
    25
100
AcDbSpline
210
0.0
220
0.0
230
1.0
 70
     8
 71
     3
 72
     9
 73
     5
 74
     0
 42
0.00000001
 43
0.00000001
 40
0.0
 40
0.0
 40
0.0
 40
0.0
 40
0.4986680494787144
 40
1.0
 40
1.0
 40
1.0
 40
1.0
 10
117.569810351385
 20
68.76106379770134
 30
0.0
 10
117.4620034608007
 20
68.43276444763504
 30
0.0
 10
117.2458137716939
 20
67.77441196162859
 30
0.0
 10
116.8919321142078
 20
67.13113220532706
 30
0.0
 10
116.7145199326066
 20
66.80863551036956
 30
0.0
  0
SPLINE
  5
98
330
1F
100
AcDbEntity
  8
0
  6
Continuous
 62
     7
370
    25
100
AcDbSpline
210
0.0
220
0.0
230
1.0
 70
     8
 71
     3
 72
     9
 73
     5
 74
     0
 42
0.00000001
 43
0.00000001
 40
0.0
 40
0.0
 40
0.0
 40
0.0
 40
0.498847038423143
 40
1.0
 40
1.0
 40
1.0
 40
1.0
 10
116.7145199326066
 20
66.80863551036956
 30
0.0
 10
116.8910959329451
 20
66.16685487050106
 30
0.0
 10
117.245064157146
 20
64.8803269562587
 30
0.0
 10
117.461395338945
 20
63.56364033527873
 30
0.0
 10
117.569810351385
 20
62.90377893570599
 30
0.0
  0
SPLINE
  5
99
330
1F
100
AcDbEntity
  8
0
  6
Continuous
 62
     7
370
    25
100
AcDbSpline
210
0.0
220
0.0
230
1.0
 70
     8
 71
     3
 72
    11
 73
     7
 74
     0
 42
0.00000001
 43
0.00000001
 40
0.0
 40
0.0
 40
0.0
 40
0.0
 40
0.2896312968534326
 40
0.5811875798131635
 40
0.7902304971769967
 40
1.0
 40
1.0
 40
1.0
 40
1.0
 10
117.569810351385
 20
71.78441045331328
 30
0.0
 10
117.6391571884005
 20
71.49349141306026
 30
0.0
 10
117.7783117646171
 20
70.90971978767621
 30
0.0
 10
117.800202744944
 20
70.1095370938001
 30
0.0
 10
117.7278046939214
 20
69.39182484614734
 30
0.0
 10
117.6225360080886
 20
68.97156051529555
 30
0.0
 10
117.569810351385
 20
68.76106379770134
 30
0.0
  0
LINE
  5
9A
330
1F
100
AcDbEntity
  8
0
  6
Continuous
 62
     7
370
    25
100
AcDbLine
 10
116.7145199326
 20
66.8086355104
 30
0.0
 11
103.1467886067
 21
66.8086355104
 31
0.0
  0
LINE
  5
9B
330
1F
100
AcDbEntity
  8
0
  6
Continuous
 62
     7
370
    25
100
AcDbLine
 10
116.7145199326
 20
73.7368387406
 30
0.0
 11
103.1467886067
 21
73.7368387406
 31
0.0
  0
SPLINE
  5
9C
330
1F
100
AcDbEntity
  8
0
  6
Continuous
 62
     7
370
    25
100
AcDbSpline
210
0.0
220
0.0
230
1.0
 70
     8
 71
     3
 72
     9
 73
     5
 74
     0
 42
0.00000001
 43
0.00000001
 40
0.0
 40
0.0
 40
0.0
 40
0.0
 40
0.498847038423143
 40
1.0
 40
1.0
 40
1.0
 40
1.0
 10
116.7145199326066
 20
73.73683874064507
 30
0.0
 10
116.8910959329451
 20
73.4159484207108
 30
0.0
 10
117.245064157146
 20
72.77268446358963
 30
0.0
 10
117.461395338945
 20
72.11434115309964
 30
0.0
 10
117.569810351385
 20
71.78441045331328
 30
0.0
  0
LINE
  5
9D
330
1F
100
AcDbEntity
  8
0
  6
Continuous
 62
     7
370
    25
100
AcDbLine
 10
119.9306542696
 20
71.4304322801
 30
0.0
 11
119.9306542696
 21
48.3304322801
 31
0.0
  0
LINE
  5
9E
330
1F
100
AcDbEntity
  8
0
  6
Continuous
 62
     7
370
    25
100
AcDbLine
 10
119.7306542696
 20
48.1304322801
 30
0.0
 11
119.7306542696
 21
71.6304322801
 31
0.0
  0
SPLINE
  5
9F
330
1F
100
AcDbEntity
  8
0
  6
Continuous
 62
     7
370
    25
100
AcDbSpline
210
0.0
220
0.0
230
1.0
 70
     8
 71
     3
 72
    15
 73
    11
 74
     0
 42
0.00000001
 43
0.00000001
 40
0.0
 40
0.0
 40
0.0
 40
0.0
 40
0.1109312571802459
 40
0.2218878685175098
 40
0.3342489325819776
 40
0.4465909975315517
 40
0.5835720164058967
 40
0.7205960260516229
 40
0.8603243244460155
 40
1.0
 40
1.0
 40
1.0
 40
1.0
 10
118.6523421061155
 20
51.44831750580025
 30
0.0
 10
118.6490819985269
 20
51.30127115467891
 30
0.0
 10
118.6425610382281
 20
51.00714484390813
 30
0.0
 10
118.603787995084
 20
50.59825171751084
 30
0.0
 10
118.5631892809156
 20
50.21419093953361
 30
0.0
 10
118.532120775258
 20
49.83220367589433
 30
0.0
 10
118.5397599433598
 20
49.46266835581894
 30
0.0
 10
118.5813315063656
 20
49.11649362764414
 30
0.0
 10
118.6367282622856
 20
48.81489777893885
 30
0.0
 10
118.6471381450367
 20
48.65673274721473
 30
0.0
 10
118.6523421061155
 20
48.57766512572426
 30
0.0
  0
SPLINE
  5
A0
330
1F
100
AcDbEntity
  8
0
  6
Continuous
 62
     7
370
    25
100
AcDbSpline
210
0.0
220
0.0
230
1.0
 70
     8
 71
     3
 72
    15
 73
    11
 74
     0
 42
0.00000001
 43
0.00000001
 40
0.0
 40
0.0
 40
0.0
 40
0.0
 40
0.1109312571802448
 40
0.2218878685175075
 40
0.3342489325819742
 40
0.4465909975315472
 40
0.5835720164058935
 40
0.7205960260516209
 40
0.8603243244460146
 40
1.0
 40
1.0
 40
1.0
 40
1.0
 10
118.6523421061155
 20
71.18319943446383
 30
0.0
 10
118.6490819985269
 20
71.12126099031575
 30
0.0
 10
118.6425610382281
 20
70.99736994553136
 30
0.0
 10
118.603787995084
 20
70.76852574383443
 30
0.0
 10
118.5631892809156
 20
70.50816015005753
 30
0.0
 10
118.532120775258
 20
70.19154317028175
 30
0.0
 10
118.5397599433598
 20
69.81259913717629
 30
0.0
 10
118.5813315063656
 20
69.3611757326355
 30
0.0
 10
118.6367282622856
 20
68.8656734286041
 30
0.0
 10
118.6471381450367
 20
68.49689936086972
 30
0.0
 10
118.6523421061155
 20
68.31254705438785
 30
0.0
  0
ARC
  5
A1
330
1F
100
AcDbEntity
  8
0
  6
Continuous
 62
     7
370
    25
100
AcDbCircle
 10
118.6435353918
 20
47.3183214461
 30
0.0
 40
1.259374472362146
100
AcDbArc
 50
89.599331506
 51
148.4940606845
  0
ARC
  5
A2
330
1F
100
AcDbEntity
  8
0
  6
Continuous
 62
     7
370
    25
100
AcDbCircle
 10
118.6435353918
 20
72.4425431141
 30
0.0
 40
1.259374472359669
100
AcDbArc
 50
211.5059393155
 51
270.400668494
  0
LINE
  5
A3
330
1F
100
AcDbEntity
  8
0
  6
Continuous
 62
     7
370
    25
100
AcDbLine
 10
98.639364307
 20
49.4029322801
 30
0.0
 11
98.639364307
 21
70.3579322801
 31
0.0
  0
LINE
  5
A4
330
1F
100
AcDbEntity
  8
0
  6
Continuous
 62
     7
370
    25
100
AcDbLine
 10
91.9813584251
 20
72.8759059864
 30
0.0
 11
74.9813584251
 21
72.8759059864
 31
0.0
  0
SPLINE
  5
A5
330
1F
100
AcDbEntity
  8
0
  6
Continuous
 62
     7
370
    25
100
AcDbSpline
210
0.0
220
0.0
230
1.0
 70
    24
 71
     3
 72
     8
 73
     4
 74
     0
 42
0.00000001
 43
0.00000001
 40
0.0
 40
0.0
 40
0.0
 40
0.0
 40
1.0
 40
1.0
 40
1.0
 40
1.0
 10
83.48135842514466
 20
68.38043228009404
 30
0.0
 10
84.4580117679075
 20
68.38043228009404
 30
0.0
 10
85.43443660228395
 20
68.38043228009404
 30
0.0
 10
86.35363974841367
 20
68.38043228009404
 30
0.0
  0
SPLINE
  5
A6
330
1F
100
AcDbEntity
  8
0
  6
Continuous
 62
     7
370
    25
100
AcDbSpline
210
0.0
220
0.0
230
1.0
 70
    24
 71
     3
 72
     8
 73
     4
 74
     0
 42
0.00000001
 43
0.00000001
 40
0.0
 40
0.0
 40
0.0
 40
0.0
 40
1.0
 40
1.0
 40
1.0
 40
1.0
 10
80.60907710187563
 20
68.38043228009404
 30
0.0
 10
81.52828024800536
 20
68.38043228009404
 30
0.0
 10
82.50470508238182
 20
68.38043228009404
 30
0.0
 10
83.48135842514466
 20
68.38043228009404
 30
0.0
  0
SPLINE
  5
A7
330
1F
100
AcDbEntity
  8
0
  6
Continuous
 62
     7
370
    25
100
AcDbSpline
210
0.0
220
0.0
230
1.0
 70
     8
 71
     3
 72
     8
 73
     4
 74
     0
 42
0.00000001
 43
0.00000001
 40
0.0
 40
0.0
 40
0.0
 40
0.0
 40
1.0
 40
1.0
 40
1.0
 40
1.0
 10
76.58933404909955
 20
68.19078190323937
 30
0.0
 10
76.51726780275712
 20
68.09974997296028
 30
0.0
 10
76.45677484519092
 20
67.989794742786
 30
0.0
 10
76.39802509181133
 20
67.88043228009404
 30
0.0
  0
LINE
  5
A8
330
1F
100
AcDbEntity
  8
0
  6
Continuous
 62
     7
370
    25
100
AcDbLine
 10
76.3980250918
 20
67.8804322801
 30
0.0
 11
76.3980250918
 21
55.8804322801
 31
0.0
  0
SPLINE
  5
A9
330
1F
100
AcDbEntity
  8
0
  6
Continuous
 62
     7
370
    25
100
AcDbSpline
210
0.0
220
0.0
230
1.0
 70
     8
 71
     3
 72
    10
 73
     6
 74
     0
 42
0.00000001
 43
0.00000001
 40
0.0
 40
0.0
 40
0.0
 40
0.0
 40
0.0280934765544326
 40
0.0280934765544326
 40
0.0561869531088653
 40
0.0561869531088653
 40
0.0561869531088653
 40
0.0561869531088653
 10
76.39802509181133
 20
55.88043228009404
 30
0.0
 10
76.39802509181133
 20
55.78678735824592
 30
0.0
 10
76.4016025860559
 20
55.69273145304135
 30
0.0
 10
76.41576406411643
 20
55.50646074093533
 30
0.0
 10
76.42634333596271
 20
55.41427827165121
 30
0.0
 10
76.44002434175451
 20
55.32427493201806
 30
0.0
  0
ELLIPSE
  5
AA
330
1F
100
AcDbEntity
  8
0
  6
Continuous
 62
     7
370
    25
100
AcDbEllipse
 10
88.4813584251
 20
58.341581388
 30
0.0
 11
0.5653269642954513
 21
1.222133505507372E-12
 31
0.0
210
0.0
220
0.0
230
1.0
 40
0.9531667975
 41
0.4357918987532503
 42
2.705800754832182
  0
LINE
  5
AB
330
1F
100
AcDbEntity
  8
0
  6
Continuous
 62
     7
370
    25
100
AcDbLine
 10
86.8767734437
 20
55.5155941708
 30
0.0
 11
87.9688691556
 21
58.5690456628
 31
0.0
  0
ELLIPSE
  5
AC
330
1F
100
AcDbEntity
  8
0
  6
Continuous
 62
     7
370
    25
100
AcDbEllipse
 10
86.3199341786
 20
55.6965353182
 30
0.0
 11
-0.588307735200658
 21
2.131628207280301E-14
 31
0.0
210
0.0
220
0.0
230
1.0
 40
0.9531667975
 41
1.047197551197037
 42
2.813039483038262
  0
LINE
  5
AD
330
1F
100
AcDbEntity
  8
0
  6
Continuous
 62
     7
370
    25
100
AcDbLine
 10
85.9810505505
 20
55.2355221806
 30
0.0
 11
86.025780311
 21
55.2109068966
 31
0.0
  0
LINE
  5
AE
330
1F
100
AcDbEntity
  8
0
  6
Continuous
 62
     7
370
    25
100
AcDbLine
 10
86.6715606788
 20
53.9191795253
 30
0.0
 11
85.9810505505
 21
55.2355221806
 31
0.0
  0
ELLIPSE
  5
AF
330
1F
100
AcDbEntity
  8
0
  6
Continuous
 62
     7
370
    25
100
AcDbEllipse
 10
86.7373354832
 20
53.9505267051
 30
0.0
 11
0.07353846690021726
 21
7.105427357601002E-15
 31
0.0
210
0.0
220
0.0
230
1.0
 40
0.9531667975
 41
3.605240262590457
 42
5.462183310215085
  0
ELLIPSE
  5
B0
330
1F
100
AcDbEntity
  8
0
  6
Continuous
 62
     7
370
    25
100
AcDbEllipse
 10
88.4813584251
 20
52.1653863659
 30
0.0
 11
2.485600181227454
 21
-1.705302565824240E-13
 31
0.0
210
0.0
220
0.0
230
1.0
 40
0.9531667975
 41
0.8210019969645153
 42
2.320590656625373
  0
ELLIPSE
  5
B1
330
1F
100
AcDbEntity
  8
0
  6
Continuous
 62
     7
370
    25
100
AcDbEllipse
 10
90.2253813671
 20
53.9505267051
 30
0.0
 11
0.07353846690018884
 21
3.552713678800501E-14
 31
0.0
210
0.0
220
0.0
230
1.0
 40
0.9531667975
 41
3.962594650553585
 42
5.819537698178405
  0
LINE
  5
B2
330
1F
100
AcDbEntity
  8
0
  6
Continuous
 62
     7
370
    25
100
AcDbLine
 10
90.9816662998
 20
55.2355221806
 30
0.0
 11
90.2911561715
 21
53.9191795253
 31
0.0
  0
LINE
  5
B3
330
1F
100
AcDbEntity
  8
0
  6
Continuous
 62
     7
370
    25
100
AcDbLine
 10
90.9455478779
 20
55.2148819353
 30
0.0
 11
90.9816662998
 21
55.2355221806
 31
0.0
  0
ELLIPSE
  5
B4
330
1F
100
AcDbEntity
  8
0
  6
Continuous
 62
     7
370
    25
100
AcDbEllipse
 10
90.6430372294
 20
55.6958235863
 30
0.0
 11
-0.5883077352015817
 21
-1.492139745096210E-13
 31
0.0
210
0.0
220
0.0
230
1.0
 40
0.9531667975
 41
0.3285531705512132
 42
2.110876526947638
  0
LINE
  5
B5
330
1F
100
AcDbEntity
  8
0
  6
Continuous
 62
     7
370
    25
100
AcDbLine
 10
88.9938476947
 20
58.5690456628
 30
0.0
 11
90.0861979642
 21
55.5148824389
 31
0.0
  0
SPLINE
  5
B6
330
1F
100
AcDbEntity
  8
0
  6
Continuous
 62
     7
370
    25
100
AcDbSpline
210
0.0
220
0.0
230
1.0
 70
     8
 71
     3
 72
    10
 73
     6
 74
     0
 42
0.00000001
 43
0.00000001
 40
-0.2904940295525288
 40
-0.2904940295525288
 40
-0.2904940295525288
 40
-0.2904940295525288
 40
-0.1303072746110114
 40
-0.1303072746110114
 40
0.001056361752625
 40
0.001056361752625
 40
0.001056361752625
 40
0.001056361752625
 10
91.98135842514465
 20
59.88043228009403
 30
0.0
 10
91.85185510937035
 20
59.36241901699693
 30
0.0
 10
91.72006413122071
 20
58.83849321335283
 30
0.0
 10
91.54164019177999
 20
57.88009074975766
 30
0.0
 10
91.48135842514465
 20
57.44602974470381
 30
0.0
 10
91.48135842514465
 20
57.00815095682502
 30
0.0
  0
LINE
  5
B7
330
1F
100
AcDbEntity
  8
0
  6
Continuous
 62
     7
370
    25
100
AcDbLine
 10
91.4813584251
 20
57.0081509568
 30
0.0
 11
91.4813584251
 21
53.3804322801
 31
0.0
  0
LINE
  5
B8
330
1F
100
AcDbEntity
  8
0
  6
Continuous
 62
     7
370
    25
100
AcDbLine
 10
91.4813584251
 20
53.3804322801
 30
0.0
 11
79.4813584251
 21
53.3804322801
 31
0.0
  0
ARC
  5
B9
330
1F
100
AcDbEntity
  8
0
  6
Continuous
 62
     7
370
    25
100
AcDbCircle
 10
79.4813584251
 20
55.8804322801
 30
0.0
 40
2.500000000000007
100
AcDbArc
 50
180.0
 51
270.0
  0
LINE
  5
BA
330
1F
100
AcDbEntity
  8
0
  6
Continuous
 62
     7
370
    25
100
AcDbLine
 10
76.9813584251
 20
55.8804322801
 30
0.0
 11
76.9813584251
 21
67.8804322801
 31
0.0
  0
LINE
  5
BB
330
1F
100
AcDbEntity
  8
0
  6
Continuous
 62
     7
370
    25
100
AcDbLine
 10
76.9813584251
 20
67.8804322801
 30
0.0
 11
80.6090771019
 21
67.8804322801
 31
0.0
  0
SPLINE
  5
BC
330
1F
100
AcDbEntity
  8
0
  6
Continuous
 62
     7
370
    25
100
AcDbSpline
210
0.0
220
0.0
230
1.0
 70
     8
 71
     3
 72
    10
 73
     6
 74
     0
 42
0.00000001
 43
0.00000001
 40
-0.8711658249657241
 40
-0.8711658249657241
 40
-0.8711658249657241
 40
-0.8711658249657241
 40
-0.7398021886020881
 40
-0.7398021886020881
 40
-0.5796154507864705
 40
-0.5796154507864705
 40
-0.5796154507864705
 40
-0.5796154507864705
 10
80.60907710187564
 20
67.88043228009404
 30
0.0
 10
81.04695588975443
 20
67.88043228009404
 30
0.0
 10
81.48101689480883
 20
67.94071404672944
 30
0.0
 10
82.43941930210642
 20
68.11913797568938
 30
0.0
 10
82.96334521741399
 20
68.25092897816128
 30
0.0
 10
83.48135842514466
 20
68.38043228009404
 30
0.0
  0
SPLINE
  5
BD
330
1F
100
AcDbEntity
  8
0
  6
Continuous
 62
     7
370
    25
100
AcDbSpline
210
0.0
220
0.0
230
1.0
 70
     8
 71
     3
 72
    10
 73
     6
 74
     0
 42
0.00000001
 43
0.00000001
 40
-0.2904940295525327
 40
-0.2904940295525327
 40
-0.2904940295525327
 40
-0.2904940295525327
 40
-0.130307291676468
 40
-0.130307291676468
 40
0.0010563446871674
 40
0.0010563446871674
 40
0.0010563446871674
 40
0.0010563446871674
 10
83.48135842514466
 20
68.38043228009404
 30
0.0
 10
83.99937163307082
 20
68.2509289781125
 30
0.0
 10
84.52329754798421
 20
68.11913797572639
 30
0.0
 10
85.48169995548051
 20
67.94071404672944
 30
0.0
 10
85.9157609605349
 20
67.88043228009404
 30
0.0
 10
86.35363974841367
 20
67.88043228009404
 30
0.0
  0
LINE
  5
BE
330
1F
100
AcDbEntity
  8
0
  6
Continuous
 62
     7
370
    25
100
AcDbLine
 10
86.3536397484
 20
67.8804322801
 30
0.0
 11
89.9813584251
 21
67.8804322801
 31
0.0
  0
ARC
  5
BF
330
1F
100
AcDbEntity
  8
0
  6
Continuous
 62
     7
370
    25
100
AcDbCircle
 10
91.4813584251
 20
67.8804322801
 30
0.0
 40
1.5
100
AcDbArc
 50
180.0
 51
270.0
  0
LINE
  5
C0
330
1F
100
AcDbEntity
  8
0
  6
Continuous
 62
     7
370
    25
100
AcDbLine
 10
91.4813584251
 20
66.3804322801
 30
0.0
 11
91.4813584251
 21
62.7527136034
 31
0.0
  0
SPLINE
  5
C1
330
1F
100
AcDbEntity
  8
0
  6
Continuous
 62
     7
370
    25
100
AcDbSpline
210
0.0
220
0.0
230
1.0
 70
     8
 71
     3
 72
    10
 73
     6
 74
     0
 42
0.00000001
 43
0.00000001
 40
-0.8711658421011628
 40
-0.8711658421011628
 40
-0.8711658421011628
 40
-0.8711658421011628
 40
-0.739802205737527
 40
-0.739802205737527
 40
-0.579615450786466
 40
-0.579615450786466
 40
-0.579615450786466
 40
-0.579615450786466
 10
91.48135842514465
 20
62.75271360336306
 30
0.0
 10
91.48135842514465
 20
62.31483481548427
 30
0.0
 10
91.54164019177999
 20
61.88077381043043
 30
0.0
 10
91.72006413122655
 20
60.92237134680388
 30
0.0
 10
91.85185510936262
 20
60.39844554322197
 30
0.0
 10
91.98135842514465
 20
59.88043228009403
 30
0.0
  0
SPLINE
  5
C2
330
1F
100
AcDbEntity
  8
0
  6
Continuous
 62
     7
370
    25
100
AcDbSpline
210
0.0
220
0.0
230
1.0
 70
    24
 71
     3
 72
     8
 73
     4
 74
     0
 42
0.00000001
 43
0.00000001
 40
0.0
 40
0.0
 40
0.0
 40
0.0
 40
1.0
 40
1.0
 40
1.0
 40
1.0
 10
91.98135842514465
 20
59.88043228009404
 30
0.0
 10
91.98135842514465
 20
58.90377893733121
 30
0.0
 10
91.98135842514465
 20
57.92735410295475
 30
0.0
 10
91.98135842514465
 20
57.00815095682502
 30
0.0
  0
SPLINE
  5
C3
330
1F
100
AcDbEntity
  8
0
  6
Continuous
 62
     7
370
    25
100
AcDbSpline
210
0.0
220
0.0
230
1.0
 70
    24
 71
     3
 72
     8
 73
     4
 74
     0
 42
0.00000001
 43
0.00000001
 40
0.0
 40
0.0
 40
0.0
 40
0.0
 40
1.0
 40
1.0
 40
1.0
 40
1.0
 10
91.98135842514465
 20
62.75271360336306
 30
0.0
 10
91.98135842514465
 20
61.83351045723333
 30
0.0
 10
91.98135842514465
 20
60.85708562285687
 30
0.0
 10
91.98135842514465
 20
59.88043228009404
 30
0.0
  0
SPLINE
  5
C4
330
1F
100
AcDbEntity
  8
0
  6
Continuous
 62
     7
370
    25
100
AcDbSpline
210
0.0
220
0.0
230
1.0
 70
     8
 71
     3
 72
    10
 73
     6
 74
     0
 42
0.00000001
 43
0.00000001
 40
0.0
 40
0.0
 40
0.0
 40
0.0
 40
0.0280934765544328
 40
0.0280934765544328
 40
0.0561869531088657
 40
0.0561869531088657
 40
0.0561869531088657
 40
0.0561869531088657
 10
78.92520107706869
 20
52.83909819670389
 30
0.0
 10
79.01520441670182
 20
52.82541719091209
 30
0.0
 10
79.10738688598596
 20
52.8148379190658
 30
0.0
 10
79.29365759809198
 20
52.80067644100528
 30
0.0
 10
79.38771350329655
 20
52.79709894676071
 30
0.0
 10
79.48135842514466
 20
52.79709894676071
 30
0.0
  0
LINE
  5
C5
330
1F
100
AcDbEntity
  8
0
  6
Continuous
 62
     7
370
    25
100
AcDbLine
 10
79.481354992
 20
52.7970989468
 30
0.0
 11
91.4813584251
 21
52.7970989468
 31
0.0
  0
SPLINE
  5
C6
330
1F
100
AcDbEntity
  8
0
  6
Continuous
 62
     7
370
    25
100
AcDbSpline
210
0.0
220
0.0
230
1.0
 70
     8
 71
     3
 72
     8
 73
     4
 74
     0
 42
0.00000001
 43
0.00000001
 40
0.0
 40
0.0
 40
0.0
 40
0.0
 40
1.0
 40
1.0
 40
1.0
 40
1.0
 10
91.79170804828998
 20
52.98840790404893
 30
0.0
 10
91.7006761180109
 20
52.9163416577065
 30
0.0
 10
91.59072088783937
 20
52.85584870013874
 30
0.0
 10
91.48135842514466
 20
52.79709894676071
 30
0.0
  0
LINE
  5
C7
330
1F
100
AcDbEntity
  8
0
  6
Continuous
 62
     7
370
    25
100
AcDbLine
 10
91.9813584251
 20
62.7527136034
 30
0.0
 11
91.9813584251
 21
66.3804322801
 31
0.0
  0
SPLINE
  5
C8
330
1F
100
AcDbEntity
  8
0
  6
Continuous
 62
     7
370
    25
100
AcDbSpline
210
0.0
220
0.0
230
1.0
 70
    24
 71
     3
 72
    10
 73
     6
 74
     0
 42
0.00000001
 43
0.00000001
 40
0.0
 40
0.0
 40
0.0
 40
0.0
 40
0.5
 40
0.5
 40
1.0
 40
1.0
 40
1.0
 40
1.0
 10
91.48135842514465
 20
62.75271360336306
 30
0.0
 10
91.61225811904424
 20
62.75271360336306
 30
0.0
 10
91.7423517545263
 20
62.75271360336306
 30
0.0
 10
91.92747187694957
 20
62.75271360336306
 30
0.0
 10
91.98135842514466
 20
62.75271360336306
 30
0.0
 10
91.98135842514465
 20
62.75271360336306
 30
0.0
  0
LINE
  5
C9
330
1F
100
AcDbEntity
  8
0
  6
Continuous
 62
     7
370
    25
100
AcDbLine
 10
91.4813584251
 20
66.3804322801
 30
0.0
 11
91.9813584251
 21
66.3804322801
 31
0.0
  0
SPLINE
  5
CA
330
1F
100
AcDbEntity
  8
0
  6
Continuous
 62
     7
370
    25
100
AcDbSpline
210
0.0
220
0.0
230
1.0
 70
    24
 71
     3
 72
    10
 73
     6
 74
     0
 42
0.00000001
 43
0.00000001
 40
0.0
 40
0.0
 40
0.0
 40
0.0
 40
0.5
 40
0.5
 40
1.0
 40
1.0
 40
1.0
 40
1.0
 10
91.98135842514465
 20
57.00815095682502
 30
0.0
 10
91.98135842514465
 20
57.00815095682502
 30
0.0
 10
91.92747187694957
 20
57.00815095682502
 30
0.0
 10
91.7423517545263
 20
57.00815095682502
 30
0.0
 10
91.61225811904424
 20
57.00815095682502
 30
0.0
 10
91.48135842514465
 20
57.00815095682502
 30
0.0
  0
LINE
  5
CB
330
1F
100
AcDbEntity
  8
0
  6
Continuous
 62
     7
370
    25
100
AcDbLine
 10
91.9813584251
 20
53.3804322801
 30
0.0
 11
91.9813584251
 21
57.0081509568
 31
0.0
  0
LINE
  5
CC
330
1F
100
AcDbEntity
  8
0
  6
Continuous
 62
     7
370
    25
100
AcDbLine
 10
91.4813584251
 20
53.3804322801
 30
0.0
 11
91.9813584251
 21
53.3804322801
 31
0.0
  0
SPLINE
  5
CD
330
1F
100
AcDbEntity
  8
0
  6
Continuous
 62
     7
370
    25
100
AcDbSpline
210
0.0
220
0.0
230
1.0
 70
    24
 71
     3
 72
    10
 73
     6
 74
     0
 42
0.00000001
 43
0.00000001
 40
0.0
 40
0.0
 40
0.0
 40
0.0
 40
0.5
 40
0.5
 40
1.0
 40
1.0
 40
1.0
 40
1.0
 10
80.60907710187564
 20
67.88043228009404
 30
0.0
 10
80.60907710187564
 20
68.01133197399362
 30
0.0
 10
80.60907710187564
 20
68.14142560947569
 30
0.0
 10
80.60907710187564
 20
68.32654573189895
 30
0.0
 10
80.60907710187564
 20
68.38043228009404
 30
0.0
 10
80.60907710187564
 20
68.38043228009404
 30
0.0
  0
LINE
  5
CE
330
1F
100
AcDbEntity
  8
0
  6
Continuous
 62
     7
370
    25
100
AcDbLine
 10
76.9813584251
 20
68.3804322801
 30
0.0
 11
76.9813584251
 21
67.8804322801
 31
0.0
  0
LINE
  5
CF
330
1F
100
AcDbEntity
  8
0
  6
Continuous
 62
     7
370
    25
100
AcDbLine
 10
80.6090771019
 20
68.3804322801
 30
0.0
 11
76.9813584251
 21
68.3804322801
 31
0.0
  0
LINE
  5
D0
330
1F
100
AcDbEntity
  8
0
  6
Continuous
 62
     7
370
    25
100
AcDbLine
 10
90.4813584251
 20
68.3804322801
 30
0.0
 11
86.3536397484
 21
68.3804322801
 31
0.0
  0
LINE
  5
D1
330
1F
100
AcDbEntity
  8
0
  6
Continuous
 62
     7
370
    25
100
AcDbLine
 10
89.9813584251
 20
67.8804322801
 30
0.0
 11
90.4813584251
 21
68.3804322801
 31
0.0
  0
SPLINE
  5
D2
330
1F
100
AcDbEntity
  8
0
  6
Continuous
 62
     7
370
    25
100
AcDbSpline
210
0.0
220
0.0
230
1.0
 70
    24
 71
     3
 72
    10
 73
     6
 74
     0
 42
0.00000001
 43
0.00000001
 40
0.0
 40
0.0
 40
0.0
 40
0.0
 40
0.5
 40
0.5
 40
1.0
 40
1.0
 40
1.0
 40
1.0
 10
86.35363974841367
 20
68.38043228009404
 30
0.0
 10
86.35363974841367
 20
68.38043228009406
 30
0.0
 10
86.35363974841367
 20
68.32654573189895
 30
0.0
 10
86.35363974841367
 20
68.14142560947569
 30
0.0
 10
86.35363974841367
 20
68.01133197399362
 30
0.0
 10
86.35363974841367
 20
67.88043228009406
 30
0.0
  0
ELLIPSE
  5
D3
330
1F
100
AcDbEntity
  8
0
  6
Continuous
 62
     7
370
    25
100
AcDbEllipse
 10
88.2180175365
 20
55.5859943055
 30
0.0
 11
-0.07353846690021726
 21
0.0
 31
0.0
210
0.0
220
0.0
230
1.0
 40
0.9531667975
 41
5.940161364898055
 42
7.853981633974483
  0
LINE
  5
D4
330
1F
100
AcDbEntity
  8
0
  6
Continuous
 62
     7
370
    25
100
AcDbLine
 10
88.4121041705
 20
56.3123914287
 30
0.0
 11
88.1487632801
 21
55.609569612
 31
0.0
  0
ELLIPSE
  5
D5
330
1F
100
AcDbEntity
  8
0
  6
Continuous
 62
     7
370
    25
100
AcDbEllipse
 10
88.7446993142
 20
55.5859943055
 30
0.0
 11
0.07353846690023147
 21
1.421085471520200E-14
 31
0.0
210
0.0
220
0.0
230
1.0
 40
0.9531667975
 41
4.712388980384518
 42
6.6262092457392
  0
LINE
  5
D6
330
1F
100
AcDbEntity
  8
0
  6
Continuous
 62
     7
370
    25
100
AcDbLine
 10
88.2180175365
 20
55.5158998805
 30
0.0
 11
88.7446993142
 21
55.5158998805
 31
0.0
  0
ELLIPSE
  5
D7
330
1F
100
AcDbEntity
  8
0
  6
Continuous
 62
     7
370
    25
100
AcDbEllipse
 10
88.4813584269
 20
56.2888161223
 30
0.0
 11
0.07353846690023147
 21
0.0
 31
0.0
210
0.0
220
0.0
230
1.0
 40
0.9531667975
 41
0.343023939490359
 42
2.798568712238538
  0
LINE
  5
D8
330
1F
100
AcDbEntity
  8
0
  6
Continuous
 62
     7
370
    25
100
AcDbLine
 10
88.8139535706
 20
55.6095696117
 30
0.0
 11
88.5506126833
 21
56.3123914285
 31
0.0
  0
LINE
  5
D9
330
1F
100
AcDbEntity
  8
0
  6
Continuous
 62
     7
370
    25
100
AcDbLine
 10
76.6531709251
 20
73.8804322801
 30
0.0
 11
90.3095459251
 21
73.8804322801
 31
0.0
  0
LINE
  5
DA
330
1F
100
AcDbEntity
  8
0
  6
Continuous
 62
     7
370
    25
100
AcDbLine
 10
90.4813584251
 20
67.8804322801
 30
0.0
 11
90.4813584251
 21
68.3804322801
 31
0.0
  0
LINE
  5
DB
330
1F
100
AcDbEntity
  8
0
  6
Continuous
 62
     7
370
    25
100
AcDbLine
 10
89.9813584251
 20
67.8804322801
 30
0.0
 11
90.4813584251
 21
67.8804322801
 31
0.0
  0
LINE
  5
DC
330
1F
100
AcDbEntity
  8
0
  6
Continuous
 62
     7
370
    25
100
AcDbLine
 10
79.4813584251
 20
53.3804322801
 30
0.0
 11
79.4813584251
 21
52.8804322801
 31
0.0
  0
ARC
  5
DD
330
1F
100
AcDbEntity
  8
0
  6
Continuous
 62
     7
370
    25
100
AcDbCircle
 10
79.4813584251
 20
55.8804322801
 30
0.0
 40
3.000000000000007
100
AcDbArc
 50
180.0
 51
270.0
  0
LINE
  5
DE
330
1F
100
AcDbEntity
  8
0
  6
Continuous
 62
     7
370
    25
100
AcDbLine
 10
76.9813584251
 20
55.8804322801
 30
0.0
 11
76.4813584251
 21
55.8804322801
 31
0.0
  0
LINE
  5
DF
330
1F
100
AcDbEntity
  8
0
  6
Continuous
 62
     7
370
    25
100
AcDbLine
 10
91.4813584251
 20
52.8804322801
 30
0.0
 11
91.4813584251
 21
53.3804322801
 31
0.0
  0
LINE
  5
E0
330
1F
100
AcDbEntity
  8
0
  6
Continuous
 62
     7
370
    25
100
AcDbLine
 10
79.4813584251
 20
52.8804322801
 30
0.0
 11
91.4813584251
 21
52.8804322801
 31
0.0
  0
ARC
  5
E1
330
1F
100
AcDbEntity
  8
0
  6
Continuous
 62
     7
370
    25
100
AcDbCircle
 10
91.4813584251
 20
67.8804322801
 30
0.0
 40
1.0
100
AcDbArc
 50
180.0
 51
270.0
  0
LINE
  5
E2
330
1F
100
AcDbEntity
  8
0
  6
Continuous
 62
     7
370
    25
100
AcDbLine
 10
91.4813584251
 20
66.3804322801
 30
0.0
 11
91.4813584251
 21
66.8804322801
 31
0.0
  0
ARC
  5
E3
330
1F
100
AcDbEntity
  8
0
  6
Continuous
 62
     7
370
    25
100
AcDbCircle
 10
91.4813584251
 20
53.3804322801
 30
0.0
 40
0.5
100
AcDbArc
 50
270.0
 51
0.0
  0
LINE
  5
E4
330
1F
100
AcDbEntity
  8
0
  6
Continuous
 62
     7
370
    25
100
AcDbLine
 10
76.4813584251
 20
67.8804322801
 30
0.0
 11
76.4813584251
 21
55.8804322801
 31
0.0
  0
LINE
  5
E5
330
1F
100
AcDbEntity
  8
0
  6
Continuous
 62
     7
370
    25
100
AcDbLine
 10
76.9813584251
 20
67.8804322801
 30
0.0
 11
76.4813584251
 21
67.8804322801
 31
0.0
  0
ARC
  5
E6
330
1F
100
AcDbEntity
  8
0
  6
Continuous
 62
     7
370
    25
100
AcDbCircle
 10
76.9813584251
 20
67.8804322801
 30
0.0
 40
0.5
100
AcDbArc
 50
90.0
 51
180.0
  0
ARC
  5
E7
330
1F
100
AcDbEntity
  8
0
  6
Continuous
 62
     7
370
    25
100
AcDbCircle
 10
91.4813584251
 20
66.3804322801
 30
0.0
 40
0.5
100
AcDbArc
 50
0.0
 51
90.0
  0
LINE
  5
E8
330
1F
100
AcDbEntity
  8
0
  6
Continuous
 62
     7
370
    25
100
AcDbLine
 10
89.9373205393
 20
85.7916446263
 30
0.0
 11
77.025396311
 21
85.7916446263
 31
0.0
  0
LINE
  5
E9
330
1F
100
AcDbEntity
  8
0
  6
Continuous
 62
     7
370
    25
100
AcDbLine
 10
83.4813584251
 20
87.8804322801
 30
0.0
 11
88.7313584251
 21
87.8804322801
 31
0.0
  0
LINE
  5
EA
330
1F
100
AcDbEntity
  8
0
  6
Continuous
 62
     7
370
    25
100
AcDbLine
 10
78.2313584251
 20
87.8804322801
 30
0.0
 11
83.4813584251
 21
87.8804322801
 31
0.0
  0
LWPOLYLINE
  5
EB
330
1F
100
AcDbEntity
  8
0
  6
Continuous
 62
     7
370
    25
100
AcDbPolyline
 90
        9
 70
   128
 43
0.0
 10
79.0046521268
 20
52.9185492464
 10
78.995772734
 20
52.9184918532
 10
78.9864790523
 20
52.9155368546
 10
78.9768256399
 20
52.9097015979
 10
78.9668691669
 20
52.9010203389
 10
78.9566680825
 20
52.8895440405
 10
78.9462822719
 20
52.8753400742
 10
78.9357727047
 20
52.8584918238
 10
78.9252010771
 20
52.8390981967
  0
SPLINE
  5
EC
330
1F
100
AcDbEntity
  8
0
  6
Continuous
 62
     7
370
    25
100
AcDbSpline
210
0.0
220
0.0
230
1.0
 70
     8
 71
     3
 72
    14
 73
    10
 74
     0
 42
0.00000001
 43
0.00000001
 40
-0.4399100083495733
 40
-0.4399100083495733
 40
-0.4399100083495733
 40
-0.4399100083495733
 40
-0.2980125372576002
 40
-0.2980125372576002
 40
-0.1727985319285605
 40
-0.1727985319285605
 40
-0.0664609738186771
 40
-0.0664609738186771
 40
0.0
 40
0.0
 40
0.0
 40
0.0
 10
76.44002434175451
 20
55.32427493201806
 30
0.0
 10
76.4976491293303
 20
54.92953011992652
 30
0.0
 10
76.63706651665133
 20
54.54090926897614
 30
0.0
 10
77.03997087513252
 20
53.89078348257442
 30
0.0
 10
77.28634056762003
 20
53.61998175121263
 30
0.0
 10
77.81820879267745
 20
53.21816721995719
 30
0.0
 10
78.0885361912182
 20
53.07402739379897
 30
0.0
 10
78.5553097927004
 20
52.91102666537459
 30
0.0
 10
78.74031318287591
 20
52.86608810335204
 30
0.0
 10
78.92520107706869
 20
52.83909819670389
 30
0.0
  0
LWPOLYLINE
  5
ED
330
1F
100
AcDbEntity
  8
0
  6
Continuous
 62
     7
370
    25
100
AcDbPolyline
 90
        9
 70
   128
 43
0.0
 10
76.5194753915
 20
55.4037259817
 10
76.5194179982
 20
55.394846589
 10
76.5164629996
 20
55.3855529072
 10
76.510627743
 20
55.3758994948
 10
76.5019464839
 20
55.3659430218
 10
76.4904701856
 20
55.3557419374
 10
76.4762662192
 20
55.3453561268
 10
76.4594179689
 20
55.3348465596
 10
76.4400243418
 20
55.324274932
  0
LINE
  5
EE
330
1F
100
AcDbEntity
  8
0
  6
Continuous
 62
     7
370
    25
100
AcDbLine
 10
76.4813584251
 20
55.8804322801
 30
0.0
 11
76.3980250918
 21
55.8804322801
 31
0.0
  0
LWPOLYLINE
  5
EF
330
1F
100
AcDbEntity
  8
0
  6
Continuous
 62
     7
370
    25
100
AcDbPolyline
 90
        9
 70
   128
 43
0.0
 10
79.4813584251
 20
52.8804322801
 10
79.4813584251
 20
52.8790929271
 10
79.4813584251
 20
52.8750820435
 10
79.4813584251
 20
52.8684211174
 10
79.4813584251
 20
52.859145834
 10
79.4813584251
 20
52.8473058848
 10
79.4813584251
 20
52.8329647014
 10
79.4813584251
 20
52.8161991153
 10
79.481354992
 20
52.7970989468
  0
LINE
  5
F0
330
1F
100
AcDbEntity
  8
0
  6
Continuous
 62
     7
370
    25
100
AcDbLine
 10
76.4813584251
 20
67.8804322801
 30
0.0
 11
76.3980250918
 21
67.8804322801
 31
0.0
  0
LINE
  5
F1
330
1F
100
AcDbEntity
  8
0
  6
Continuous
 62
     7
370
    25
100
AcDbLine
 10
91.4813584251
 20
52.7970989468
 30
0.0
 11
91.4813584251
 21
52.8804322801
 31
0.0
  0
LINE
  5
F2
330
1F
100
AcDbEntity
  8
0
  6
Continuous
 62
     7
370
    25
100
AcDbLine
 10
118.6523421061
 20
48.5776651257
 30
0.0
 11
118.6523421061
 21
48.1304322801
 31
0.0
  0
LINE
  5
F3
330
1F
100
AcDbEntity
  8
0
  6
Continuous
 62
     7
370
    25
100
AcDbLine
 10
118.6523421061
 20
71.6304322801
 30
0.0
 11
118.6523421061
 21
71.1831994345
 31
0.0
  0
LINE
  5
F4
330
1F
100
AcDbEntity
  8
0
  6
Continuous
 62
     7
370
    25
100
AcDbLine
 10
117.5698103514
 20
71.7844104533
 30
0.0
 11
117.5698103514
 21
72.2554322801
 31
0.0
  0
LINE
  5
F5
330
1F
100
AcDbEntity
  8
0
  6
Continuous
 62
     7
370
    25
100
AcDbLine
 10
117.5698103514
 20
47.5054322801
 30
0.0
 11
117.5698103514
 21
47.9764541069
 31
0.0
  0
LINE
  5
F6
330
1F
100
AcDbEntity
  8
0
  6
Continuous
 62
     7
370
    25
100
AcDbLine
 10
98.2139298126
 20
69.7554322801
 30
0.0
 11
98.2139298126
 21
50.0054322801
 31
0.0
  0
LINE
  5
F7
330
1F
100
AcDbEntity
  8
0
  6
Continuous
 62
     7
370
    25
100
AcDbLine
 10
95.9813584251
 20
68.3804322801
 30
0.0
 11
95.9813584251
 21
51.3804322801
 31
0.0
  0
SPLINE
  5
F8
330
1F
100
AcDbEntity
  8
0
  6
Continuous
 62
     7
370
    25
100
AcDbSpline
210
0.0
220
0.0
230
1.0
 70
    24
 71
     3
 72
    12
 73
     8
 74
     0
 42
0.00000001
 43
0.00000001
 40
-0.5788447217180464
 40
-0.5788447217180464
 40
-0.5788447217180464
 40
-0.5788447217180464
 40
-0.3728576618289314
 40
-0.3728576618289314
 40
-0.0432783660063474
 40
-0.0432783660063474
 40
0.0
 40
0.0
 40
0.0
 40
0.0
 10
91.98135842514466
 20
68.88043228009404
 30
0.0
 10
91.98135842514485
 20
68.88043228009423
 30
0.0
 10
91.92103666895152
 20
68.8165621853013
 30
0.0
 10
91.61066983439017
 20
68.48793847811868
 30
0.0
 10
91.26773475014808
 20
68.12483074186235
 30
0.0
 10
90.72860873415112
 20
67.55399143080676
 30
0.0
 10
90.66371956600089
 20
67.48528525276534
 30
0.0
 10
90.59659631511377
 20
67.41421357535545
 30
0.0
  0
SPLINE
  5
F9
330
1F
100
AcDbEntity
  8
0
  6
Continuous
 62
     7
370
    25
100
AcDbSpline
210
0.0
220
0.0
230
1.0
 70
     8
 71
     3
 72
    12
 73
     8
 74
     0
 42
0.00000001
 43
0.00000001
 40
0.0
 40
0.0
 40
0.0
 40
0.0
 40
0.0430206627346149
 40
0.0430206627346149
 40
0.3824319177041577
 40
0.3824319177041577
 40
0.594563952060122
 40
0.594563952060122
 40
0.594563952060122
 40
0.594563952060122
 10
76.44007553383423
 20
55.32427491876264
 30
0.0
 10
76.3717707251744
 20
55.28007738775779
 30
0.0
 10
76.30564500698044
 20
55.2372898664114
 30
0.0
 10
75.73785639018261
 20
54.86989472648956
 30
0.0
 10
75.37436908838045
 20
54.63469545076996
 30
0.0
 10
75.04534704222019
 20
54.42179734979496
 30
0.0
 10
74.98135842540971
 20
54.38039265712777
 30
0.0
 10
74.98135842540971
 20
54.38039265712777
 30
0.0
  0
SPLINE
  5
FA
330
1F
100
AcDbEntity
  8
0
  6
Continuous
 62
     7
370
    25
100
AcDbSpline
210
0.0
220
0.0
230
1.0
 70
    24
 71
     3
 72
    12
 73
     8
 74
     0
 42
0.00000001
 43
0.00000001
 40
-0.5788447217180465
 40
-0.5788447217180465
 40
-0.5788447217180465
 40
-0.5788447217180465
 40
-0.535566355711699
 40
-0.535566355711699
 40
-0.205987059889115
 40
-0.205987059889115
 40
0.0
 40
0.0
 40
0.0
 40
0.0
 10
91.01513972040607
 20
66.99567017006314
 30
0.0
 10
91.08621139781596
 20
67.06279342095027
 30
0.0
 10
91.15491757585738
 20
67.1276825891005
 30
0.0
 10
91.72575688691299
 20
67.66680860509746
 30
0.0
 10
92.08886462316931
 20
68.00974368933954
 30
0.0
 10
92.41748833035193
 20
68.3201105239009
 30
0.0
 10
92.48135842514485
 20
68.38043228009421
 30
0.0
 10
92.48135842514466
 20
68.38043228009404
 30
0.0
  0
SPLINE
  5
FB
330
1F
100
AcDbEntity
  8
0
  6
Continuous
 62
     7
370
    25
100
AcDbSpline
210
0.0
220
0.0
230
1.0
 70
     8
 71
     3
 72
    12
 73
     8
 74
     0
 42
0.00000001
 43
0.00000001
 40
0.0
 40
0.0
 40
0.0
 40
0.0
 40
0.2121320343559643
 40
0.2121320343559643
 40
0.5515432893255071
 40
0.5515432893255071
 40
0.5945639520601226
 40
0.5945639520601226
 40
0.5945639520601226
 40
0.5945639520601226
 10
77.9813188021784
 20
51.38043228035909
 30
0.0
 10
77.9813188021784
 20
51.38043228035909
 30
0.0
 10
78.02272349484558
 20
51.44442089716956
 30
0.0
 10
78.23562159582059
 20
51.77344294332983
 30
0.0
 10
78.4708208715402
 20
52.13693024513199
 30
0.0
 10
78.83821601146202
 20
52.70471886192982
 30
0.0
 10
78.8810035328084
 20
52.77084458012378
 30
0.0
 10
78.92520106381326
 20
52.83914938878362
 30
0.0
  0
LINE
  5
FC
330
1F
100
AcDbEntity
  8
FORMAT
100
AcDbLine
 10
108.1433584251
 20
50.5649322801
 30
0.0
 11
98.639364307
 21
50.5649322801
 31
0.0
  0
LINE
  5
FD
330
1F
100
AcDbEntity
  8
FORMAT
100
AcDbLine
 10
108.1433584251
 20
69.1959322801
 30
0.0
 11
98.639364307
 21
69.1959322801
 31
0.0
  0
LINE
  5
FE
330
1F
100
AcDbEntity
  8
FORMAT
100
AcDbLine
 10
89.230896729
 20
87.0152065575
 30
0.0
 11
89.5788584251
 21
75.8804322801
 31
0.0
  0
LINE
  5
FF
330
1F
100
AcDbEntity
  8
FORMAT
100
AcDbLine
 10
77.7318201213
 20
87.0152065575
 30
0.0
 11
77.3838584251
 21
75.8804322801
 31
0.0
  0
LINE
  5
100
330
1F
100
AcDbEntity
  8
FORMAT
100
AcDbLine
 10
76.7156709251
 20
75.8804322801
 30
0.0
 11
90.2470459251
 21
75.8804322801
 31
0.0
  0
LINE
  5
101
330
1F
100
AcDbEntity
  8
FORMAT
  6
CENTERX2
370
    18
100
AcDbLine
 10
83.4813584251
 20
90.001863672
 30
0.0
 11
83.4813584251
 21
49.3290503786
 31
0.0
  0
LINE
  5
102
330
1F
100
AcDbEntity
  8
FORMAT
  6
CENTERX2
370
    18
100
AcDbLine
 10
120.9093571322
 20
59.8804322801
 30
0.0
 11
73.8145206872
 21
59.8804322801
 31
0.0
  0
LINE
  5
103
330
1F
100
AcDbEntity
  8
0
  6
Continuous
 62
     7
370
    25
100
AcDbLine
 10
137.2632036663
 20
72.8759059864
 30
0.0
 11
137.2632036663
 21
68.8293614525
 31
0.0
  0
LINE
  5
104
330
1F
100
AcDbEntity
  8
0
  6
Continuous
 62
     7
370
    25
100
AcDbLine
 10
154.2632036663
 20
68.8293614525
 30
0.0
 11
154.2632036663
 21
72.8759059864
 31
0.0
  0
LINE
  5
105
330
1F
100
AcDbEntity
  8
0
  6
Continuous
 62
     7
370
    25
100
AcDbLine
 10
154.2632036663
 20
72.8759059864
 30
0.0
 11
152.5913911663
 21
73.8804322801
 31
0.0
  0
LINE
  5
106
330
1F
100
AcDbEntity
  8
0
  6
Continuous
 62
     7
370
    25
100
AcDbLine
 10
138.9350161663
 20
73.8804322801
 30
0.0
 11
137.2632036663
 21
72.8759059864
 31
0.0
  0
LINE
  5
107
330
1F
100
AcDbEntity
  8
0
  6
Continuous
 62
     7
370
    25
100
AcDbLine
 10
152.5913911663
 20
73.8804322801
 30
0.0
 11
152.2191657805
 21
85.7916446263
 31
0.0
  0
LINE
  5
108
330
1F
100
AcDbEntity
  8
0
  6
Continuous
 62
     7
370
    25
100
AcDbLine
 10
139.3072415521
 20
85.7916446263
 30
0.0
 11
138.9350161663
 21
73.8804322801
 31
0.0
  0
LINE
  5
109
330
1F
100
AcDbEntity
  8
0
  6
Continuous
 62
     7
370
    25
100
AcDbLine
 10
152.2191657805
 20
85.7916446263
 30
0.0
 11
151.0132036663
 21
87.8804322801
 31
0.0
  0
LINE
  5
10A
330
1F
100
AcDbEntity
  8
0
  6
Continuous
 62
     7
370
    25
100
AcDbLine
 10
140.5132036663
 20
87.8804322801
 30
0.0
 11
139.3072415521
 21
85.7916446263
 31
0.0
  0
CIRCLE
  5
10B
330
1F
100
AcDbEntity
  8
0
  6
Continuous
 62
     7
370
    25
100
AcDbCircle
 10
145.7632036663
 20
59.8804322801
 30
0.0
 40
11.55000000000001
  0
CIRCLE
  5
10C
330
1F
100
AcDbEntity
  8
0
  6
Continuous
 62
     7
370
    25
100
AcDbCircle
 10
145.7632036663
 20
59.8804322801
 30
0.0
 40
11.75000000000003
  0
CIRCLE
  5
10D
330
1F
100
AcDbEntity
  8
0
  6
Continuous
 62
     7
370
    25
100
AcDbCircle
 10
145.7632036663
 20
59.8804322801
 30
0.0
 40
6.174999999999983
  0
CIRCLE
  5
10E
330
1F
100
AcDbEntity
  8
0
  6
Continuous
 62
     7
370
    25
100
AcDbCircle
 10
145.7632036663
 20
59.8804322801
 30
0.0
 40
6.074999999999989
  0
LINE
  5
10F
330
1F
100
AcDbEntity
  8
0
  6
Continuous
 62
     7
370
    25
100
AcDbLine
 10
157.7632036663
 20
62.9037789357
 30
0.0
 11
157.1571430602
 21
62.7510846602
 31
0.0
  0
SPLINE
  5
110
330
1F
100
AcDbEntity
  8
0
  6
Continuous
 62
     7
370
    25
100
AcDbSpline
210
0.0
220
0.0
230
1.0
 70
    24
 71
     3
 72
    12
 73
     8
 74
     0
 42
0.00000001
 43
0.00000001
 40
0.0
 40
0.0
 40
0.0
 40
0.0
 40
0.1955379048913362
 40
0.3910647281628027
 40
0.5890459846401827
 40
0.787031059197018
 40
0.9999999999999999
 40
0.9999999999999999
 40
0.9999999999999999
 40
0.9999999999999999
 10
157.7632036662818
 20
56.85708562448205
 30
0.0
 10
157.7632036662818
 20
57.24947288457802
 30
0.0
 10
157.7632036662818
 20
58.03422516720708
 30
0.0
 10
157.7632036662818
 20
59.22431532241076
 30
0.0
 10
157.7632036662818
 20
60.42079229909324
 30
0.0
 10
157.7632036662818
 20
61.65151330378883
 30
0.0
 10
157.7632036662818
 20
62.47633243353918
 30
0.0
 10
157.7632036662818
 20
62.90377893570604
 30
0.0
  0
LINE
  5
111
330
1F
100
AcDbEntity
  8
0
  6
Continuous
 62
     7
370
    25
100
AcDbLine
 10
157.1571430602
 20
57.0097799
 30
0.0
 11
157.7632036663
 21
56.8570856245
 31
0.0
  0
LINE
  5
112
330
1F
100
AcDbEntity
  8
0
  6
Continuous
 62
     7
370
    25
100
AcDbLine
 10
153.9462312498
 20
51.4483175058
 30
0.0
 11
154.3814986745
 21
50.9998007625
 31
0.0
  0
SPLINE
  5
113
330
1F
100
AcDbEntity
  8
0
  6
Continuous
 62
     7
370
    25
100
AcDbSpline
210
0.0
220
0.0
230
1.0
 70
    24
 71
     3
 72
    11
 73
     7
 74
     0
 42
0.00000001
 43
0.00000001
 40
0.0
 40
0.0
 40
0.0
 40
0.0
 40
0.2896312968534324
 40
0.5811875798131629
 40
0.7902304971769964
 40
1.0
 40
1.0
 40
1.0
 40
1.0
 10
149.1449086580751
 20
47.9764541068748
 30
0.0
 10
149.6487952166825
 20
48.26737314712781
 30
0.0
 10
150.6599173318647
 20
48.85114477251187
 30
0.0
 10
152.0458744129955
 20
49.65132746638798
 30
0.0
 10
153.2889884911446
 20
50.36903971404075
 30
0.0
 10
154.0169076647888
 20
50.78930404489252
 30
0.0
 10
154.3814986744885
 20
50.99980076248675
 30
0.0
  0
LINE
  5
114
330
1F
100
AcDbEntity
  8
0
  6
Continuous
 62
     7
370
    25
100
AcDbLine
 10
148.9741154767
 20
48.5776651257
 30
0.0
 11
149.1449086581
 21
47.9764541069
 31
0.0
  0
SPLINE
  5
115
330
1F
100
AcDbEntity
  8
0
  6
Continuous
 62
     7
370
    25
100
AcDbSpline
210
0.0
220
0.0
230
1.0
 70
    24
 71
     3
 72
    11
 73
     7
 74
     0
 42
0.00000001
 43
0.00000001
 40
0.0
 40
0.0
 40
0.0
 40
0.0
 40
0.2896312968534335
 40
0.5811875798131654
 40
0.7902304971769979
 40
1.0
 40
1.0
 40
1.0
 40
1.0
 10
154.3814986744884
 20
68.76106379770134
 30
0.0
 10
153.877612115881
 20
69.05198283795436
 30
0.0
 10
152.8664900006988
 20
69.63575446333842
 30
0.0
 10
151.480532919568
 20
70.43593715721451
 30
0.0
 10
150.237418841419
 20
71.15364940486728
 30
0.0
 10
149.5094996677748
 20
71.57391373571906
 30
0.0
 10
149.1449086580751
 20
71.78441045331327
 30
0.0
  0
LINE
  5
116
330
1F
100
AcDbEntity
  8
0
  6
Continuous
 62
     7
370
    25
100
AcDbLine
 10
154.3814986745
 20
68.7610637977
 30
0.0
 11
153.9462312498
 21
68.3125470544
 31
0.0
  0
LINE
  5
117
330
1F
100
AcDbEntity
  8
0
  6
Continuous
 62
     7
370
    25
100
AcDbLine
 10
149.1449086581
 20
71.7844104533
 30
0.0
 11
148.9741154767
 21
71.1831994345
 31
0.0
  0
SPLINE
  5
118
330
1F
100
AcDbEntity
  8
0
  6
Continuous
 62
     7
370
    25
100
AcDbSpline
210
0.0
220
0.0
230
1.0
 70
    24
 71
     3
 72
    11
 73
     7
 74
     0
 42
0.00000001
 43
0.00000001
 40
0.0
 40
0.0
 40
0.0
 40
0.0
 40
0.2896312968534326
 40
0.5811875798131635
 40
0.7902304971769967
 40
1.0
 40
1.0
 40
1.0
 40
1.0
 10
142.3814986744884
 20
71.78441045331328
 30
0.0
 10
141.877612115881
 20
71.49349141306026
 30
0.0
 10
140.8664900006987
 20
70.90971978767621
 30
0.0
 10
139.480532919568
 20
70.1095370938001
 30
0.0
 10
138.237418841419
 20
69.39182484614734
 30
0.0
 10
137.5094996677747
 20
68.97156051529555
 30
0.0
 10
137.1449086580751
 20
68.76106379770134
 30
0.0
  0
LINE
  5
119
330
1F
100
AcDbEntity
  8
0
  6
Continuous
 62
     7
370
    25
100
AcDbLine
 10
142.3814986745
 20
71.7844104533
 30
0.0
 11
142.5522918559
 21
71.1831994345
 31
0.0
  0
LINE
  5
11A
330
1F
100
AcDbEntity
  8
0
  6
Continuous
 62
     7
370
    25
100
AcDbLine
 10
137.1449086581
 20
68.7610637977
 30
0.0
 11
137.5801760827
 21
68.3125470544
 31
0.0
  0
LINE
  5
11B
330
1F
100
AcDbEntity
  8
0
  6
Continuous
 62
     7
370
    25
100
AcDbLine
 10
142.5522918559
 20
48.5776651257
 30
0.0
 11
142.3814986745
 21
47.9764541069
 31
0.0
  0
SPLINE
  5
11C
330
1F
100
AcDbEntity
  8
0
  6
Continuous
 62
     7
370
    25
100
AcDbSpline
210
0.0
220
0.0
230
1.0
 70
    24
 71
     3
 72
    11
 73
     7
 74
     0
 42
0.00000001
 43
0.00000001
 40
0.0
 40
0.0
 40
0.0
 40
0.0
 40
0.2896312968534328
 40
0.5811875798131638
 40
0.7902304971769972
 40
1.0
 40
1.0
 40
1.0
 40
1.0
 10
137.1449086580751
 20
50.99980076248675
 30
0.0
 10
137.6487952166825
 20
50.70888172223373
 30
0.0
 10
138.6599173318647
 20
50.12511009684967
 30
0.0
 10
140.0458744129955
 20
49.32492740297357
 30
0.0
 10
141.2889884911446
 20
48.60721515532079
 30
0.0
 10
142.0169076647888
 20
48.18695082446902
 30
0.0
 10
142.3814986744884
 20
47.9764541068748
 30
0.0
  0
LINE
  5
11D
330
1F
100
AcDbEntity
  8
0
  6
Continuous
 62
     7
370
    25
100
AcDbLine
 10
137.5801760827
 20
51.4483175058
 30
0.0
 11
137.1449086581
 21
50.9998007625
 31
0.0
  0
LINE
  5
11E
330
1F
100
AcDbEntity
  8
0
  6
Continuous
 62
     7
370
    25
100
AcDbLine
 10
134.3692642723
 20
57.0097799
 30
0.0
 11
133.7632036663
 21
56.8570856245
 31
0.0
  0
SPLINE
  5
11F
330
1F
100
AcDbEntity
  8
0
  6
Continuous
 62
     7
370
    25
100
AcDbSpline
210
0.0
220
0.0
230
1.0
 70
    24
 71
     3
 72
    12
 73
     8
 74
     0
 42
0.00000001
 43
0.00000001
 40
0.0
 40
0.0
 40
0.0
 40
0.0
 40
0.2129689154671411
 40
0.4084755341932518
 40
0.6039784210818411
 40
0.8019834228453047
 40
1.0
 40
1.0
 40
1.0
 40
1.0
 10
133.7632036662818
 20
62.90377893570599
 30
0.0
 10
133.7632036662818
 20
62.47633289760066
 30
0.0
 10
133.7632036662818
 20
61.65648907968533
 30
0.0
 10
133.7632036662818
 20
60.4358310462379
 30
0.0
 10
133.7632036662818
 20
59.24438258453817
 30
0.0
 10
133.7632036662818
 20
58.04918143173707
 30
0.0
 10
133.7632036662818
 20
57.25445863660244
 30
0.0
 10
133.7632036662818
 20
56.85708562448208
 30
0.0
  0
LINE
  5
120
330
1F
100
AcDbEntity
  8
0
  6
Continuous
 62
     7
370
    25
100
AcDbLine
 10
133.7632036663
 20
62.9037789357
 30
0.0
 11
134.3692642723
 21
62.7510846602
 31
0.0
  0
ARC
  5
121
330
1F
100
AcDbEntity
  8
0
  6
Continuous
 62
     7
370
    25
100
AcDbCircle
 10
145.7632036663
 20
59.8804322801
 30
0.0
 40
12.37500000000001
100
AcDbArc
 50
14.1411102339
 51
45.8588897661
  0
ARC
  5
122
330
1F
100
AcDbEntity
  8
0
  6
Continuous
 62
     7
370
    25
100
AcDbCircle
 10
145.7632036663
 20
59.8804322801
 30
0.0
 40
12.37500000000002
100
AcDbArc
 50
314.1411102339
 51
345.8588897661
  0
ARC
  5
123
330
1F
100
AcDbEntity
  8
0
  6
Continuous
 62
     7
370
    25
100
AcDbCircle
 10
145.7632036663
 20
59.8804322801
 30
0.0
 40
12.375
100
AcDbArc
 50
254.1411102339
 51
285.8588897661
  0
ARC
  5
124
330
1F
100
AcDbEntity
  8
0
  6
Continuous
 62
     7
370
    25
100
AcDbCircle
 10
145.7632036663
 20
59.8804322801
 30
0.0
 40
12.375
100
AcDbArc
 50
74.1411102339
 51
105.8588897661
  0
ARC
  5
125
330
1F
100
AcDbEntity
  8
0
  6
Continuous
 62
     7
370
    25
100
AcDbCircle
 10
145.7632036663
 20
59.8804322801
 30
0.0
 40
12.375
100
AcDbArc
 50
194.1411102339
 51
225.8588897661
  0
ARC
  5
126
330
1F
100
AcDbEntity
  8
0
  6
Continuous
 62
     7
370
    25
100
AcDbCircle
 10
145.7632036663
 20
59.8804322801
 30
0.0
 40
12.37500000000001
100
AcDbArc
 50
134.1411102339
 51
165.8588897661
  0
SPLINE
  5
127
330
1F
100
AcDbEntity
  8
0
  6
Continuous
 62
     7
370
    25
100
AcDbSpline
210
0.0
220
0.0
230
1.0
 70
    24
 71
     3
 72
    10
 73
     6
 74
     0
 42
0.00000001
 43
0.00000001
 40
0.0
 40
0.0
 40
0.0
 40
0.0
 40
0.4059715743866129
 40
0.7026896990791633
 40
1.0
 40
1.0
 40
1.0
 40
1.0
 10
157.7632036662818
 20
52.95222904981852
 30
0.0
 10
157.7632036662818
 20
53.47437139928552
 30
0.0
 10
157.7632036662818
 20
54.3781392332227
 30
0.0
 10
157.7632036662818
 20
55.68264944318249
 30
0.0
 10
157.7632036662818
 20
56.46534681175014
 30
0.0
 10
157.7632036662818
 20
56.85708562448205
 30
0.0
  0
SPLINE
  5
128
330
1F
100
AcDbEntity
  8
0
  6
Continuous
 62
     7
370
    25
100
AcDbSpline
210
0.0
220
0.0
230
1.0
 70
    24
 71
     3
 72
     9
 73
     5
 74
     0
 42
0.00000001
 43
0.00000001
 40
0.0
 40
0.0
 40
0.0
 40
0.0
 40
0.4986680494787148
 40
1.0
 40
1.0
 40
1.0
 40
1.0
 10
154.3814986744885
 20
50.99980076248675
 30
0.0
 10
154.9501298288951
 20
51.32810011255305
 30
0.0
 10
156.0904297839475
 20
51.9864525985595
 30
0.0
 10
157.2046230053423
 20
52.62973235486103
 30
0.0
 10
157.7632036662818
 20
52.95222904981852
 30
0.0
  0
SPLINE
  5
129
330
1F
100
AcDbEntity
  8
0
  6
Continuous
 62
     7
370
    25
100
AcDbSpline
210
0.0
220
0.0
230
1.0
 70
    24
 71
     3
 72
     9
 73
     5
 74
     0
 42
0.00000001
 43
0.00000001
 40
0.0
 40
0.0
 40
0.0
 40
0.0
 40
0.4986680494787147
 40
1.0
 40
1.0
 40
1.0
 40
1.0
 10
157.7632036662818
 20
62.90377893570604
 30
0.0
 10
157.7632036662818
 20
63.56037763583862
 30
0.0
 10
157.7632036662818
 20
64.87708260785152
 30
0.0
 10
157.7632036662818
 20
66.16364212045455
 30
0.0
 10
157.7632036662818
 20
66.80863551036956
 30
0.0
  0
SPLINE
  5
12A
330
1F
100
AcDbEntity
  8
0
  6
Continuous
 62
     7
370
    25
100
AcDbSpline
210
0.0
220
0.0
230
1.0
 70
    24
 71
     3
 72
     9
 73
     5
 74
     0
 42
0.00000001
 43
0.00000001
 40
0.0
 40
0.0
 40
0.0
 40
0.0
 40
0.4988470384231427
 40
1.0
 40
1.0
 40
1.0
 40
1.0
 10
157.7632036662818
 20
66.80863551036956
 30
0.0
 10
157.2074053284986
 20
67.1295258303038
 30
0.0
 10
156.0932394720869
 20
67.77278978742498
 30
0.0
 10
154.9529554094952
 20
68.43113309791497
 30
0.0
 10
154.3814986744884
 20
68.76106379770134
 30
0.0
  0
SPLINE
  5
12B
330
1F
100
AcDbEntity
  8
0
  6
Continuous
 62
     7
370
    25
100
AcDbSpline
210
0.0
220
0.0
230
1.0
 70
    24
 71
     3
 72
     9
 73
     5
 74
     0
 42
0.00000001
 43
0.00000001
 40
0.0
 40
0.0
 40
0.0
 40
0.0
 40
0.4988470384231432
 40
1.0
 40
1.0
 40
1.0
 40
1.0
 10
145.7632036662818
 20
73.73683874064507
 30
0.0
 10
145.2074053284986
 20
73.4159484207108
 30
0.0
 10
144.0932394720869
 20
72.77268446358963
 30
0.0
 10
142.9529554094952
 20
72.11434115309964
 30
0.0
 10
142.3814986744884
 20
71.78441045331328
 30
0.0
  0
SPLINE
  5
12C
330
1F
100
AcDbEntity
  8
0
  6
Continuous
 62
     7
370
    25
100
AcDbSpline
210
0.0
220
0.0
230
1.0
 70
    24
 71
     3
 72
     9
 73
     5
 74
     0
 42
0.00000001
 43
0.00000001
 40
0.0
 40
0.0
 40
0.0
 40
0.0
 40
0.4986680494787147
 40
1.0
 40
1.0
 40
1.0
 40
1.0
 10
149.1449086580751
 20
71.78441045331327
 30
0.0
 10
148.5762775036684
 20
72.11270980337959
 30
0.0
 10
147.435977548616
 20
72.77106228938604
 30
0.0
 10
146.3217843272212
 20
73.41434204568756
 30
0.0
 10
145.7632036662818
 20
73.73683874064507
 30
0.0
  0
SPLINE
  5
12D
330
1F
100
AcDbEntity
  8
0
  6
Continuous
 62
     7
370
    25
100
AcDbSpline
210
0.0
220
0.0
230
1.0
 70
    24
 71
     3
 72
     9
 73
     5
 74
     0
 42
0.00000001
 43
0.00000001
 40
0.0
 40
0.0
 40
0.0
 40
0.0
 40
0.4986680494787147
 40
1.0
 40
1.0
 40
1.0
 40
1.0
 10
142.3814986744884
 20
47.9764541068748
 30
0.0
 10
142.9501298288951
 20
47.64815475680849
 30
0.0
 10
144.0904297839475
 20
46.98980227080204
 30
0.0
 10
145.2046230053423
 20
46.34652251450052
 30
0.0
 10
145.7632036662818
 20
46.02402581954301
 30
0.0
  0
SPLINE
  5
12E
330
1F
100
AcDbEntity
  8
0
  6
Continuous
 62
     7
370
    25
100
AcDbSpline
210
0.0
220
0.0
230
1.0
 70
    24
 71
     3
 72
     9
 73
     5
 74
     0
 42
0.00000001
 43
0.00000001
 40
0.0
 40
0.0
 40
0.0
 40
0.0
 40
0.498847038423143
 40
1.0
 40
1.0
 40
1.0
 40
1.0
 10
145.7632036662818
 20
46.02402581954301
 30
0.0
 10
146.3190020040649
 20
46.34491613947727
 30
0.0
 10
147.4331678604766
 20
46.98818009659845
 30
0.0
 10
148.5734519230683
 20
47.64652340708843
 30
0.0
 10
149.1449086580751
 20
47.9764541068748
 30
0.0
  0
SPLINE
  5
12F
330
1F
100
AcDbEntity
  8
0
  6
Continuous
 62
     7
370
    25
100
AcDbSpline
210
0.0
220
0.0
230
1.0
 70
    24
 71
     3
 72
    10
 73
     6
 74
     0
 42
0.00000001
 43
0.00000001
 40
0.0
 40
0.0
 40
0.0
 40
0.0
 40
0.2966942842518304
 40
0.5940284356736806
 40
1.0
 40
1.0
 40
1.0
 40
1.0
 10
133.7632036662818
 20
56.85708562448209
 30
0.0
 10
133.7632036662818
 20
56.4661571582315
 30
0.0
 10
133.7632036662818
 20
55.68345712795373
 30
0.0
 10
133.7632036662818
 20
54.37893181958375
 30
0.0
 10
133.7632036662818
 20
53.4743714984869
 30
0.0
 10
133.7632036662818
 20
52.95222904981853
 30
0.0
  0
SPLINE
  5
130
330
1F
100
AcDbEntity
  8
0
  6
Continuous
 62
     7
370
    25
100
AcDbSpline
210
0.0
220
0.0
230
1.0
 70
    24
 71
     3
 72
     9
 73
     5
 74
     0
 42
0.00000001
 43
0.00000001
 40
0.0
 40
0.0
 40
0.0
 40
0.0
 40
0.4988470384231425
 40
1.0
 40
1.0
 40
1.0
 40
1.0
 10
133.7632036662818
 20
52.95222904981853
 30
0.0
 10
134.3190020040649
 20
52.63133872988428
 30
0.0
 10
135.4331678604766
 20
51.9880747727631
 30
0.0
 10
136.5734519230683
 20
51.32973146227311
 30
0.0
 10
137.1449086580751
 20
50.99980076248675
 30
0.0
  0
SPLINE
  5
131
330
1F
100
AcDbEntity
  8
0
  6
Continuous
 62
     7
370
    25
100
AcDbSpline
210
0.0
220
0.0
230
1.0
 70
    24
 71
     3
 72
     9
 73
     5
 74
     0
 42
0.00000001
 43
0.00000001
 40
0.0
 40
0.0
 40
0.0
 40
0.0
 40
0.498847038423143
 40
1.0
 40
1.0
 40
1.0
 40
1.0
 10
133.7632036662818
 20
66.80863551036956
 30
0.0
 10
133.7632036662818
 20
66.16685487050106
 30
0.0
 10
133.7632036662818
 20
64.8803269562587
 30
0.0
 10
133.7632036662818
 20
63.56364033527873
 30
0.0
 10
133.7632036662818
 20
62.90377893570599
 30
0.0
  0
SPLINE
  5
132
330
1F
100
AcDbEntity
  8
0
  6
Continuous
 62
     7
370
    25
100
AcDbSpline
210
0.0
220
0.0
230
1.0
 70
    24
 71
     3
 72
     9
 73
     5
 74
     0
 42
0.00000001
 43
0.00000001
 40
0.0
 40
0.0
 40
0.0
 40
0.0
 40
0.4986680494787144
 40
1.0
 40
1.0
 40
1.0
 40
1.0
 10
137.1449086580751
 20
68.76106379770134
 30
0.0
 10
136.5762775036684
 20
68.43276444763504
 30
0.0
 10
135.435977548616
 20
67.77441196162859
 30
0.0
 10
134.3217843272212
 20
67.13113220532706
 30
0.0
 10
133.7632036662818
 20
66.80863551036956
 30
0.0
  0
CIRCLE
  5
133
330
1F
100
AcDbEntity
  8
0
  6
Continuous
 62
     7
370
    25
100
AcDbCircle
 10
145.7632036663
 20
59.8804322801
 30
0.0
 40
5.0
  0
LINE
  5
134
330
1F
100
AcDbEntity
  8
0
  6
Continuous
 62
     7
370
    25
100
AcDbLine
 10
144.2689505411
 20
72.8759059864
 30
0.0
 11
137.2632036663
 21
72.8759059864
 31
0.0
  0
LINE
  5
135
330
1F
100
AcDbEntity
  8
0
  6
Continuous
 62
     7
370
    25
100
AcDbLine
 10
154.2632036663
 20
72.8759059864
 30
0.0
 11
147.255288036
 21
72.8759059864
 31
0.0
  0
LINE
  5
136
330
1F
100
AcDbEntity
  8
0
  6
Continuous
 62
     7
370
    25
100
AcDbLine
 10
138.9350161663
 20
73.8804322801
 30
0.0
 11
152.5913911663
 21
73.8804322801
 31
0.0
  0
LINE
  5
137
330
1F
100
AcDbEntity
  8
0
  6
Continuous
 62
     7
370
    25
100
AcDbLine
 10
145.7632036663
 20
85.7916446263
 30
0.0
 11
139.3072415521
 21
85.7916446263
 31
0.0
  0
LINE
  5
138
330
1F
100
AcDbEntity
  8
0
  6
Continuous
 62
     7
370
    25
100
AcDbLine
 10
152.2191657805
 20
85.7916446263
 30
0.0
 11
145.7632036663
 21
85.7916446263
 31
0.0
  0
LINE
  5
139
330
1F
100
AcDbEntity
  8
0
  6
Continuous
 62
     7
370
    25
100
AcDbLine
 10
140.5132036663
 20
87.8804322801
 30
0.0
 11
151.0132036663
 21
87.8804322801
 31
0.0
  0
SPLINE
  5
13A
330
1F
100
AcDbEntity
  8
0
  6
Continuous
 62
     7
370
    25
100
AcDbSpline
210
0.0
220
0.0
230
1.0
 70
     8
 71
     3
 72
    16
 73
    12
 74
     0
 42
0.00000001
 43
0.00000001
 40
0.0
 40
0.0
 40
0.0
 40
0.0
 40
0.2499999999999999
 40
0.2499999999999999
 40
0.4999999999999998
 40
0.4999999999999998
 40
0.7499999999999999
 40
0.7499999999999999
 40
0.8749999999999999
 40
0.8749999999999999
 40
1.0
 40
1.0
 40
1.0
 40
1.0
 10
141.8902203200743
 20
63.04270994026241
 30
0.0
 10
141.9270778949048
 20
62.71221381906567
 30
0.0
 10
141.9711433431045
 20
62.38039121676168
 30
0.0
 10
142.0653775365613
 20
61.70821820079652
 30
0.0
 10
142.1162559913647
 20
61.36615918143663
 30
0.0
 10
142.199729151693
 20
60.67024210612245
 30
0.0
 10
142.2309423954898
 20
60.31656426709447
 30
0.0
 10
142.2361906528725
 20
59.77005679663017
 30
0.0
 10
142.2310262921231
 20
59.587867944443
 30
0.0
 10
142.209489471737
 20
59.23090682851575
 30
0.0
 10
142.1932534969957
 20
59.05482910590295
 30
0.0
 10
142.1739139022303
 20
58.88043228009404
 30
0.0
  0
SPLINE
  5
13B
330
1F
100
AcDbEntity
  8
0
  6
Continuous
 62
     7
370
    25
100
AcDbSpline
210
0.0
220
0.0
230
1.0
 70
     8
 71
     3
 72
    16
 73
    12
 74
     0
 42
0.00000001
 43
0.00000001
 40
0.0
 40
0.0
 40
0.0
 40
0.0
 40
0.125
 40
0.125
 40
0.2500000000000001
 40
0.2500000000000001
 40
0.5
 40
0.5
 40
0.7499999999999999
 40
0.7499999999999999
 40
1.0
 40
1.0
 40
1.0
 40
1.0
 10
149.3524934303333
 20
58.88043228009404
 30
0.0
 10
149.3331106155529
 20
59.05521884692365
 30
0.0
 10
149.3168359930729
 20
59.23176402690574
 30
0.0
 10
149.295288750192
 20
59.5899013695879
 30
0.0
 10
149.2901841942405
 20
59.77330025845938
 30
0.0
 10
149.295607514097
 20
60.31801270006219
 30
0.0
 10
149.3267772538188
 20
60.67120978780041
 30
0.0
 10
149.4102500188337
 20
61.36683981328797
 30
0.0
 10
149.461114173138
 20
61.7088078183365
 30
0.0
 10
149.5553010053223
 20
62.38066751193422
 30
0.0
 10
149.5993445062365
 20
62.71234893665123
 30
0.0
 10
149.6361870124892
 20
63.04270994026241
 30
0.0
  0
LINE
  5
13C
330
1F
100
AcDbEntity
  8
0
  6
Continuous
 62
     7
370
    25
100
AcDbLine
 10
149.3524934303
 20
58.8804322801
 30
0.0
 11
142.1739139022
 21
58.8804322801
 31
0.0
  0
SPLINE
  5
13D
330
1F
100
AcDbEntity
  8
0
  6
Continuous
 62
     7
370
    25
100
AcDbSpline
210
0.0
220
0.0
230
1.0
 70
    11
 71
     3
 72
    62
 73
    58
 74
     0
 42
0.00000001
 43
0.00000001
 40
0.0
 40
0.0
 40
0.0
 40
0.0
 40
0.0000024117322271
 40
0.0000024117322271
 40
0.0000024117322271
 40
0.0000048234923211
 40
0.0000048234923211
 40
0.0000048234923211
 40
0.0000072342775328
 40
0.0000072342775328
 40
0.0000072342775328
 40
0.0000096421574951
 40
0.0000096421574951
 40
0.0000096421574951
 40
0.0000120464714337
 40
0.0000120464714337
 40
0.0000120464714337
 40
0.0000144481274383
 40
0.0000144481274383
 40
0.0000144481274383
 40
0.0000168492048895
 40
0.0000168492048895
 40
0.0000168492048895
 40
0.0000192520334942
 40
0.0000192520334942
 40
0.0000192520334942
 40
0.0000216581677061
 40
0.0000216581677061
 40
0.0000216581677061
 40
0.0000240677129608
 40
0.0000240677129608
 40
0.0000240677129608
 40
0.0000264792873846
 40
0.0000264792873846
 40
0.0000264792873846
 40
0.0000288906235092
 40
0.0000288906235092
 40
0.0000288906235092
 40
0.0000312995522201
 40
0.0000312995522201
 40
0.0000312995522201
 40
0.0000337049530256
 40
0.0000337049530256
 40
0.0000337049530256
 40
0.0000361072548855
 40
0.0000361072548855
 40
0.0000361072548855
 40
0.0000385082527188
 40
0.0000385082527188
 40
0.0000385082527188
 40
0.0000409103129746
 40
0.0000409103129746
 40
0.0000409103129746
 40
0.0000433153287423
 40
0.0000433153287423
 40
0.0000433153287423
 40
0.0000448079906494
 40
0.0000448079906494
 40
0.0000448079906494
 40
0.0000448079906494
 10
145.7645096398572
 20
59.87339048411879
 30
0.0
 10
145.7637191296791
 20
59.87324431273534
 30
0.0
 10
145.7628924812796
 20
59.87323257972138
 30
0.0
 10
145.7620981497344
 20
59.87335631261841
 30
0.0
 10
145.7613038141695
 20
59.87348004614158
 30
0.0
 10
145.7605198681651
 20
59.87374263777912
 30
0.0
 10
145.7598113249644
 20
59.87412243403273
 30
0.0
 10
145.759103076523
 20
59.87450207228827
 30
0.0
 10
145.7584506079536
 20
59.87500932168487
 30
0.0
 10
145.7579081980535
 20
59.87560222336746
 30
0.0
 10
145.7573664384527
 20
59.87619441421563
 30
0.0
 10
145.7569195120218
 20
59.87688842890401
 30
0.0
 10
145.756604686777
 20
59.87762672340863
 30
0.0
 10
145.7562903209796
 20
59.87836394046621
 30
0.0
 10
145.7560989938458
 20
59.87916567343957
 30
0.0
 10
145.756046668705
 20
59.87996540913613
 30
0.0
 10
145.7559943999682
 20
59.88076428275625
 30
0.0
 10
145.7560793866504
 20
59.88158320172944
 30
0.0
 10
145.7562945484794
 20
59.8823543283985
 30
0.0
 10
145.7565096630478
 20
59.88312528568857
 30
0.0
 10
145.7568608083728
 20
59.88386971599862
 30
0.0
 10
145.7573188147356
 20
59.88452612995057
 30
0.0
 10
145.7577771576978
 20
59.88518302631623
 30
0.0
 10
145.7583551220385
 20
59.88576986968405
 30
0.0
 10
145.7590048401216
 20
59.88623833260502
 30
0.0
 10
145.7596554439966
 20
59.88670743420407
 30
0.0
 10
145.7603959002298
 20
59.88707075602087
 30
0.0
 10
145.7611649942853
 20
59.88729843201668
 30
0.0
 10
145.7619351595605
 20
59.88752642512715
 30
0.0
 10
145.7627552613073
 20
59.88762467821906
 30
0.0
 10
145.7635574895641
 20
59.88758511330222
 30
0.0
 10
145.7643603721811
 20
59.88754551611313
 30
0.0
 10
145.7651675018105
 20
59.88736677494556
 30
0.0
 10
145.7659120033618
 20
59.88706361554004
 30
0.0
 10
145.7666564189505
 20
59.88676049113831
 30
0.0
 10
145.7673587768913
 20
59.88632458958645
 30
0.0
 10
145.7679607039587
 20
59.88579193348852
 30
0.0
 10
145.768562030367
 20
59.88525980892471
 30
0.0
 10
145.7690797345053
 20
59.88461640386755
 30
0.0
 10
145.7694706715656
 20
59.88391503495475
 30
0.0
 10
145.7698610429546
 20
59.88321468089647
 30
0.0
 10
145.7701357908591
 20
59.88243717609204
 30
0.0
 10
145.7702719905949
 20
59.88164702700711
 30
0.0
 10
145.7704080185351
 20
59.88085787457801
 30
0.0
 10
145.7704096033226
 20
59.88003433033654
 30
0.0
 10
145.7702766128417
 20
59.87924466034766
 30
0.0
 10
145.7701436912992
 20
59.87845539970031
 30
0.0
 10
145.7698726822962
 20
59.877678223094
 30
0.0
 10
145.7694861206784
 20
59.87697738765809
 30
0.0
 10
145.7690993837136
 20
59.87627623431824
 30
0.0
 10
145.7685863562402
 20
59.87563217844701
 30
0.0
 10
145.767989564501
 20
59.87509830489911
 30
0.0
 10
145.7673920426472
 20
59.87456377821064
 30
0.0
 10
145.7666941140575
 20
59.87412497958744
 30
0.0
 10
145.7659534990387
 20
59.87381799295544
 30
0.0
 10
145.7654898144254
 20
59.87362579461473
 30
0.0
 10
145.765003212871
 20
59.87348174954744
 30
0.0
 10
145.7645096398572
 20
59.87339048411879
 30
0.0
  0
SPLINE
  5
13E
330
1F
100
AcDbEntity
  8
0
  6
Continuous
 62
     7
370
    25
100
AcDbSpline
210
0.0
220
0.0
230
1.0
 70
     8
 71
     3
 72
    20
 73
    16
 74
     0
 42
0.00000001
 43
0.00000001
 40
0.0
 40
0.0
 40
0.0
 40
0.0
 40
0.25
 40
0.25
 40
0.375
 40
0.375
 40
0.5
 40
0.5
 40
0.5625
 40
0.5625
 40
0.625
 40
0.625
 40
0.75
 40
0.75
 40
1.0
 40
1.0
 40
1.0
 40
1.0
 10
142.1739139022303
 20
58.88043228009404
 30
0.0
 10
142.720405657044
 20
58.66025548751046
 30
0.0
 10
143.2816413579461
 20
58.48111674164541
 30
0.0
 10
144.1655551332633
 20
58.34140000044295
 30
0.0
 10
144.4669432518778
 20
58.3177000306216
 30
0.0
 10
145.0943766152722
 20
58.30733569305166
 30
0.0
 10
145.4152230919471
 20
58.31910740983724
 30
0.0
 10
145.9096245341532
 20
58.31960956699246
 30
0.0
 10
146.0752740915795
 20
58.31706685995028
 30
0.0
 10
146.3977396221509
 20
58.31206766765445
 30
0.0
 10
146.556483593664
 20
58.30999922308826
 30
0.0
 10
147.0288759100511
 20
58.3161477028147
 30
0.0
 10
147.3350075934651
 20
58.33850136399709
 30
0.0
 10
148.2297928433094
 20
58.47650478251555
 30
0.0
 10
148.8020784979043
 20
58.65867487324422
 30
0.0
 10
149.3524934303333
 20
58.88043228009404
 30
0.0
  0
INSERT
  5
14A
330
1F
100
AcDbEntity
  8
FORMAT
100
AcDbBlockReference
  2
SW_CENTERMARKSYMBOL_0
 10
145.7632036663
 20
59.8804322801
 30
0.0
  0
LINE
  5
14B
330
1F
100
AcDbEntity
  8
FORMAT
100
AcDbLine
 10
151.5127419701
 20
87.0152065575
 30
0.0
 11
151.8607036663
 21
75.8804322801
 31
0.0
  0
LINE
  5
14C
330
1F
100
AcDbEntity
  8
FORMAT
100
AcDbLine
 10
140.0136653625
 20
87.0152065575
 30
0.0
 11
139.6657036663
 21
75.8804322801
 31
0.0
  0
LINE
  5
14D
330
1F
100
AcDbEntity
  8
FORMAT
100
AcDbLine
 10
138.9975161663
 20
75.8804322801
 30
0.0
 11
152.5288911663
 21
75.8804322801
 31
0.0
  0
LINE
  5
14E
330
1F
100
AcDbEntity
  8
0
  6
Continuous
 62
     7
370
    25
100
AcDbLine
 10
102.0749918369
 20
127.4588069119
 30
0.0
 11
101.9306542696
 21
127.2088069119
 31
0.0
  0
LINE
  5
14F
330
1F
100
AcDbEntity
  8
0
  6
Continuous
 62
     7
370
    25
100
AcDbLine
 10
101.9306542696
 20
103.7088069119
 30
0.0
 11
102.0749918369
 21
103.4588069119
 31
0.0
  0
LINE
  5
150
330
1F
100
AcDbEntity
  8
0
  6
Continuous
 62
     7
370
    25
100
AcDbLine
 10
119.7306542696
 20
127.2088069119
 30
0.0
 11
118.541809644
 21
127.2088069119
 31
0.0
  0
LINE
  5
151
330
1F
100
AcDbEntity
  8
0
  6
Continuous
 62
     7
370
    25
100
AcDbLine
 10
118.541809644
 20
103.7088069119
 30
0.0
 11
119.7306542696
 21
103.7088069119
 31
0.0
  0
LINE
  5
152
330
1F
100
AcDbEntity
  8
0
  6
Continuous
 62
     7
370
    25
100
AcDbLine
 10
119.7306542696
 20
103.7088069119
 30
0.0
 11
119.9306542696
 21
103.9088069119
 31
0.0
  0
LINE
  5
153
330
1F
100
AcDbEntity
  8
0
  6
Continuous
 62
     7
370
    25
100
AcDbLine
 10
119.9306542696
 20
127.0088069119
 30
0.0
 11
119.7306542696
 21
127.2088069119
 31
0.0
  0
SPLINE
  5
154
330
1F
100
AcDbEntity
  8
0
  6
Continuous
 62
     7
370
    25
100
AcDbSpline
210
0.0
220
0.0
230
1.0
 70
     8
 71
     3
 72
    13
 73
     9
 74
     0
 42
0.00000001
 43
0.00000001
 40
0.0
 40
0.0
 40
0.0
 40
0.0
 40
0.1242682872906462
 40
0.3323245807808996
 40
0.5282533854422996
 40
0.710482283734761
 40
0.8760448751284863
 40
1.0
 40
1.0
 40
1.0
 40
1.0
 10
118.5418786860926
 20
127.212157936102
 30
0.0
 10
118.5070367300734
 20
127.2116210605675
 30
0.0
 10
118.4138605973681
 20
127.2101853206789
 30
0.0
 10
118.2675988494449
 20
127.2355600444186
 30
0.0
 10
118.1107284511416
 20
127.2810259195121
 30
0.0
 10
117.9739874788053
 20
127.3414433214239
 30
0.0
 10
117.8632664031361
 20
127.4051704913865
 30
0.0
 10
117.8064963981108
 20
127.4476280688453
 30
0.0
 10
117.7821906901471
 20
127.4658060041493
 30
0.0
  0
SPLINE
  5
155
330
1F
100
AcDbEntity
  8
0
  6
Continuous
 62
     7
370
    25
100
AcDbSpline
210
0.0
220
0.0
230
1.0
 70
     8
 71
     3
 72
    13
 73
     9
 74
     0
 42
0.00000001
 43
0.00000001
 40
0.0
 40
0.0
 40
0.0
 40
0.0
 40
0.0284021983873695
 40
0.1982173118133877
 40
0.3944656679935953
 40
0.6083041348442458
 40
0.8356623338072545
 40
0.9999999999999999
 40
0.9999999999999999
 40
0.9999999999999999
 40
0.9999999999999999
 10
117.7831930587245
 20
103.4525463731731
 30
0.0
 10
117.7881736632468
 20
103.4566277465819
 30
0.0
 10
117.8229330162429
 20
103.4851114172665
 30
0.0
 10
117.9124508544595
 20
103.5425770208057
 30
0.0
 10
118.0519296660585
 20
103.6141079000158
 30
0.0
 10
118.2198949318483
 20
103.671224779923
 30
0.0
 10
118.3862798910112
 20
103.7053452216349
 30
0.0
 10
118.4960331278029
 20
103.7053592623104
 30
0.0
 10
118.542080565103
 20
103.7053651531355
 30
0.0
  0
LINE
  5
156
330
1F
100
AcDbEntity
  8
0
  6
Continuous
 62
     7
370
    25
100
AcDbLine
 10
101.9306542696
 20
125.9363069119
 30
0.0
 11
98.639364307
 21
125.9363069119
 31
0.0
  0
LINE
  5
157
330
1F
100
AcDbEntity
  8
0
  6
Continuous
 62
     7
370
    25
100
AcDbLine
 10
98.639364307
 20
104.9813069119
 30
0.0
 11
101.9306542696
 21
104.9813069119
 31
0.0
  0
ARC
  5
158
330
1F
100
AcDbEntity
  8
0
  6
Continuous
 62
     7
370
    25
100
AcDbCircle
 10
100.4465012
 20
106.7088069119
 30
0.0
 40
2.499999999999996
100
AcDbArc
 50
206.7436839504
 51
223.7093197495
  0
ARC
  5
159
330
1F
100
AcDbEntity
  8
0
  6
Continuous
 62
     7
370
    25
100
AcDbCircle
 10
100.4465012
 20
124.2088069119
 30
0.0
 40
2.499999999999996
100
AcDbArc
 50
136.2906802505
 51
153.2563160496
  0
ARC
  5
15A
330
1F
100
AcDbEntity
  8
0
  6
Continuous
 62
     7
370
    25
100
AcDbCircle
 10
95.9813584251
 20
104.4588069119
 30
0.0
 40
2.499999999999996
100
AcDbArc
 50
26.7436839504
 51
90.0
  0
ARC
  5
15B
330
1F
100
AcDbEntity
  8
0
  6
Continuous
 62
     7
370
    25
100
AcDbCircle
 10
95.9813584251
 20
126.4588069119
 30
0.0
 40
2.500000000000003
100
AcDbArc
 50
270.0
 51
333.2563160496
  0
LINE
  5
15C
330
1F
100
AcDbEntity
  8
0
  6
Continuous
 62
     7
370
    25
100
AcDbLine
 10
95.9813584251
 20
123.9588069119
 30
0.0
 11
91.9813584251
 21
123.9588069119
 31
0.0
  0
LINE
  5
15D
330
1F
100
AcDbEntity
  8
0
  6
Continuous
 62
     7
370
    25
100
AcDbLine
 10
91.9813584251
 20
106.9588069119
 30
0.0
 11
95.9813584251
 21
106.9588069119
 31
0.0
  0
SPLINE
  5
15E
330
1F
100
AcDbEntity
  8
0
  6
Continuous
 62
     7
370
    25
100
AcDbSpline
210
0.0
220
0.0
230
1.0
 70
     8
 71
     3
 72
    15
 73
    11
 74
     0
 42
0.00000001
 43
0.00000001
 40
0.0
 40
0.0
 40
0.0
 40
0.0
 40
0.1323065044264403
 40
0.2645755999739298
 40
0.3998036789671092
 40
0.5350073556765892
 40
0.6501969475405018
 40
0.7654045076453763
 40
0.8826909144168966
 40
1.0
 40
1.0
 40
1.0
 40
1.0
 10
103.1467886066504
 20
103.4588069119103
 30
0.0
 10
102.9836295247326
 20
103.9772596411187
 30
0.0
 10
102.6573574931594
 20
105.0140185101032
 30
0.0
 10
102.3063027901394
 20
106.6105359553736
 30
0.0
 10
102.0952260046103
 20
108.2371483670535
 30
0.0
 10
102.0534286943247
 20
109.8048291084405
 30
0.0
 10
102.1618873270255
 20
111.2878053024004
 30
0.0
 10
102.3841132360864
 20
112.6873586618258
 30
0.0
 10
102.7100910093726
 20
114.0805840780692
 30
0.0
 10
103.0012133597661
 20
114.9993696936873
 30
0.0
 10
103.1467886066504
 20
115.4588069119103
 30
0.0
  0
SPLINE
  5
15F
330
1F
100
AcDbEntity
  8
0
  6
Continuous
 62
     7
370
    25
100
AcDbSpline
210
0.0
220
0.0
230
1.0
 70
    24
 71
     3
 72
    13
 73
     9
 74
     0
 42
0.00000001
 43
0.00000001
 40
0.0
 40
0.0
 40
0.0
 40
0.0
 40
0.0001276158021698
 40
0.2567459282232152
 40
0.4415963563446784
 40
0.6264653487024404
 40
0.8132239196020574
 40
1.0
 40
1.0
 40
1.0
 40
1.0
 10
102.0757449441693
 20
103.4588069119103
 30
0.0
 10
102.0757321803809
 20
103.4588069119103
 30
0.0
 10
102.0500531448678
 20
103.458806911912
 30
0.0
 10
102.1286686886271
 20
103.4588069119097
 30
0.0
 10
102.2881407865913
 20
103.4588069119104
 30
0.0
 10
102.5128747629351
 20
103.4588069119102
 30
0.0
 10
102.7955763030698
 20
103.4588069119103
 30
0.0
 10
103.029714180373
 20
103.4588069119103
 30
0.0
 10
103.1467886066504
 20
103.4588069119103
 30
0.0
  0
SPLINE
  5
160
330
1F
100
AcDbEntity
  8
0
  6
Continuous
 62
     7
370
    25
100
AcDbSpline
210
0.0
220
0.0
230
1.0
 70
    24
 71
     3
 72
    13
 73
     9
 74
     0
 42
0.00000001
 43
0.00000001
 40
0.0
 40
0.0
 40
0.0
 40
0.0
 40
0.1849912899957798
 40
0.3699657582059691
 40
0.5566174971595258
 40
0.7432499269573485
 40
0.9934367284291508
 40
1.0
 40
1.0
 40
1.0
 40
1.0
 10
103.1467886066504
 20
127.4588069119102
 30
0.0
 10
103.0307936844319
 20
127.4588069119102
 30
0.0
 10
102.7988143877442
 20
127.4588069119102
 30
0.0
 10
102.51612850776
 20
127.4588069119103
 30
0.0
 10
102.2897987489593
 20
127.4588069119102
 30
0.0
 10
102.130121204589
 20
127.4588069119103
 30
0.0
 10
102.0525477562199
 20
127.4588069119102
 30
0.0
 10
102.076889675512
 20
127.4588069119102
 30
0.0
 10
102.0775119250988
 20
127.4588069119102
 30
0.0
  0
SPLINE
  5
161
330
1F
100
AcDbEntity
  8
0
  6
Continuous
 62
     7
370
    25
100
AcDbSpline
210
0.0
220
0.0
230
1.0
 70
     8
 71
     3
 72
    15
 73
    11
 74
     0
 42
0.00000001
 43
0.00000001
 40
0.0
 40
0.0
 40
0.0
 40
0.0
 40
0.1323065044264402
 40
0.2645755999739298
 40
0.3998036789671094
 40
0.5350073556765894
 40
0.6501969475405022
 40
0.7654045076453767
 40
0.8826909144168967
 40
0.9999999999999999
 40
0.9999999999999999
 40
0.9999999999999999
 40
0.9999999999999999
 10
103.1467886066504
 20
115.4588069119103
 30
0.0
 10
102.9836295247326
 20
115.9772596411187
 30
0.0
 10
102.6573574931594
 20
117.0140185101033
 30
0.0
 10
102.3063027901394
 20
118.6105359553736
 30
0.0
 10
102.0952260046103
 20
120.2371483670535
 30
0.0
 10
102.0534286943247
 20
121.8048291084405
 30
0.0
 10
102.1618873270255
 20
123.2878053024004
 30
0.0
 10
102.3841132360864
 20
124.6873586618258
 30
0.0
 10
102.7100910093726
 20
126.0805840780692
 30
0.0
 10
103.0012133597661
 20
126.9993696936872
 30
0.0
 10
103.1467886066504
 20
127.4588069119102
 30
0.0
  0
LINE
  5
162
330
1F
100
AcDbEntity
  8
0
  6
Continuous
 62
     7
370
    25
100
AcDbLine
 10
101.9306542696
 20
103.7088069119
 30
0.0
 11
101.9306542696
 21
127.2088069119
 31
0.0
  0
SPLINE
  5
163
330
1F
100
AcDbEntity
  8
0
  6
Continuous
 62
     7
370
    25
100
AcDbSpline
210
0.0
220
0.0
230
1.0
 70
     8
 71
     3
 72
    11
 73
     7
 74
     0
 42
0.00000001
 43
0.00000001
 40
0.0
 40
0.0
 40
0.0
 40
0.0
 40
0.2896312968534335
 40
0.5811875798131654
 40
0.7902304971769979
 40
1.0
 40
1.0
 40
1.0
 40
1.0
 10
117.569810351385
 20
124.0771019201169
 30
0.0
 10
117.6391571884005
 20
123.5732153615095
 30
0.0
 10
117.7783117646171
 20
122.5620932463273
 30
0.0
 10
117.800202744944
 20
121.1761361651965
 30
0.0
 10
117.7278046939214
 20
119.9330220870475
 30
0.0
 10
117.6225360080886
 20
119.2051029134033
 30
0.0
 10
117.569810351385
 20
118.8405119037036
 30
0.0
  0
SPLINE
  5
164
330
1F
100
AcDbEntity
  8
0
  6
Continuous
 62
     7
370
    25
100
AcDbSpline
210
0.0
220
0.0
230
1.0
 70
     8
 71
     3
 72
     9
 73
     5
 74
     0
 42
0.00000001
 43
0.00000001
 40
0.0
 40
0.0
 40
0.0
 40
0.0
 40
0.4986680494787147
 40
1.0
 40
1.0
 40
1.0
 40
1.0
 10
117.569810351385
 20
118.8405119037036
 30
0.0
 10
117.4620034608007
 20
118.2718807492969
 30
0.0
 10
117.2458137716939
 20
117.1315807942445
 30
0.0
 10
116.8919321142078
 20
116.0173875728497
 30
0.0
 10
116.7145199326066
 20
115.4588069119103
 30
0.0
  0
LINE
  5
165
330
1F
100
AcDbEntity
  8
0
  6
Continuous
 62
     7
370
    25
100
AcDbLine
 10
116.7145199326
 20
115.4588069119
 30
0.0
 11
103.1467886067
 21
115.4588069119
 31
0.0
  0
LINE
  5
166
330
1F
100
AcDbEntity
  8
0
  6
Continuous
 62
     7
370
    25
100
AcDbLine
 10
116.7145199326
 20
127.4588069119
 30
0.0
 11
103.1467886067
 21
127.4588069119
 31
0.0
  0
SPLINE
  5
167
330
1F
100
AcDbEntity
  8
0
  6
Continuous
 62
     7
370
    25
100
AcDbSpline
210
0.0
220
0.0
230
1.0
 70
     8
 71
     3
 72
     9
 73
     5
 74
     0
 42
0.00000001
 43
0.00000001
 40
0.0
 40
0.0
 40
0.0
 40
0.0
 40
0.4988470384231427
 40
1.0
 40
1.0
 40
1.0
 40
1.0
 10
116.7145199326066
 20
127.4588069119102
 30
0.0
 10
116.8910959329451
 20
126.9030085741271
 30
0.0
 10
117.245064157146
 20
125.7888427177154
 30
0.0
 10
117.461395338945
 20
124.6485586551237
 30
0.0
 10
117.569810351385
 20
124.0771019201169
 30
0.0
  0
LINE
  5
168
330
1F
100
AcDbEntity
  8
0
  6
Continuous
 62
     7
370
    25
100
AcDbLine
 10
117.5698103514
 20
112.0771019201
 30
0.0
 11
117.5698103514
 21
118.8405119037
 31
0.0
  0
SPLINE
  5
169
330
1F
100
AcDbEntity
  8
0
  6
Continuous
 62
     7
370
    25
100
AcDbSpline
210
0.0
220
0.0
230
1.0
 70
     8
 71
     3
 72
     9
 73
     5
 74
     0
 42
0.00000001
 43
0.00000001
 40
0.0
 40
0.0
 40
0.0
 40
0.0
 40
0.4988470384231432
 40
1.0
 40
1.0
 40
1.0
 40
1.0
 10
116.7145199326066
 20
115.4588069119103
 30
0.0
 10
116.8910959329451
 20
114.9030085741271
 30
0.0
 10
117.245064157146
 20
113.7888427177154
 30
0.0
 10
117.461395338945
 20
112.6485586551237
 30
0.0
 10
117.569810351385
 20
112.0771019201169
 30
0.0
  0
SPLINE
  5
16A
330
1F
100
AcDbEntity
  8
0
  6
Continuous
 62
     7
370
    25
100
AcDbSpline
210
0.0
220
0.0
230
1.0
 70
     8
 71
     3
 72
    11
 73
     7
 74
     0
 42
0.00000001
 43
0.00000001
 40
0.0
 40
0.0
 40
0.0
 40
0.0
 40
0.2896312968534326
 40
0.5811875798131635
 40
0.7902304971769967
 40
1.0
 40
1.0
 40
1.0
 40
1.0
 10
117.569810351385
 20
112.0771019201169
 30
0.0
 10
117.6391571884005
 20
111.5732153615095
 30
0.0
 10
117.7783117646171
 20
110.5620932463273
 30
0.0
 10
117.800202744944
 20
109.1761361651965
 30
0.0
 10
117.7278046939214
 20
107.9330220870475
 30
0.0
 10
117.6225360080886
 20
107.2051029134033
 30
0.0
 10
117.569810351385
 20
106.8405119037036
 30
0.0
  0
SPLINE
  5
16B
330
1F
100
AcDbEntity
  8
0
  6
Continuous
 62
     7
370
    25
100
AcDbSpline
210
0.0
220
0.0
230
1.0
 70
     8
 71
     3
 72
     9
 73
     5
 74
     0
 42
0.00000001
 43
0.00000001
 40
0.0
 40
0.0
 40
0.0
 40
0.0
 40
0.4986680494787144
 40
1.0
 40
1.0
 40
1.0
 40
1.0
 10
117.569810351385
 20
106.8405119037036
 30
0.0
 10
117.4620034608007
 20
106.2718807492969
 30
0.0
 10
117.2458137716939
 20
105.1315807942445
 30
0.0
 10
116.8919321142078
 20
104.0173875728497
 30
0.0
 10
116.7145199326066
 20
103.4588069119103
 30
0.0
  0
LINE
  5
16C
330
1F
100
AcDbEntity
  8
0
  6
Continuous
 62
     7
370
    25
100
AcDbLine
 10
116.7145199326
 20
103.4588069119
 30
0.0
 11
103.1467886067
 21
103.4588069119
 31
0.0
  0
ARC
  5
16D
330
1F
100
AcDbEntity
  8
0
  6
Continuous
 62
     7
370
    25
100
AcDbCircle
 10
118.5432164886
 20
121.4941330535
 30
0.0
 40
2.826521663600467
100
AcDbArc
 50
249.8558609029
 51
272.2126105423
  0
LINE
  5
16E
330
1F
100
AcDbEntity
  8
0
  6
Continuous
 62
     7
370
    25
100
AcDbLine
 10
118.6523421061
 20
118.6697187223
 30
0.0
 11
118.6523421061
 21
112.2478951015
 31
0.0
  0
ARC
  5
16F
330
1F
100
AcDbEntity
  8
0
  6
Continuous
 62
     7
370
    25
100
AcDbCircle
 10
118.5432164886
 20
109.4234807703
 30
0.0
 40
2.826521663601396
100
AcDbArc
 50
87.7873894577
 51
110.1441390971
  0
ARC
  5
170
330
1F
100
AcDbEntity
  8
0
  6
Continuous
 62
     7
370
    25
100
AcDbCircle
 10
118.5916083458
 20
125.054575506
 30
0.0
 40
1.414045880661705
100
AcDbArc
 50
223.7299446481
 51
272.4616308106
  0
SPLINE
  5
171
330
1F
100
AcDbEntity
  8
0
  6
Continuous
 62
     7
370
    25
100
AcDbSpline
210
0.0
220
0.0
230
1.0
 70
     8
 71
     3
 72
    15
 73
    11
 74
     0
 42
0.00000001
 43
0.00000001
 40
0.0
 40
0.0
 40
0.0
 40
0.0
 40
0.1109312571802452
 40
0.2218878685175086
 40
0.3342489325819755
 40
0.4465909975315487
 40
0.5835720164058946
 40
0.7205960260516217
 40
0.8603243244460148
 40
1.0
 40
1.0
 40
1.0
 40
1.0
 10
118.6523421061155
 20
123.64183449546
 30
0.0
 10
118.6490819985269
 20
123.4854168902526
 30
0.0
 10
118.6425610382281
 20
123.1725459294405
 30
0.0
 10
118.603787995084
 20
122.6722248499408
 30
0.0
 10
118.5631892809156
 20
122.1498429650808
 30
0.0
 10
118.5321207752579
 20
121.5637047185846
 30
0.0
 10
118.5397599433598
 20
120.9127865230215
 30
0.0
 10
118.5813315063656
 20
120.1916636022629
 30
0.0
 10
118.6367282622856
 20
119.4453803805932
 30
0.0
 10
118.6471381450367
 20
118.9282401423977
 30
0.0
 10
118.6523421061155
 20
118.6697187222999
 30
0.0
  0
SPLINE
  5
172
330
1F
100
AcDbEntity
  8
0
  6
Continuous
 62
     7
370
    25
100
AcDbSpline
210
0.0
220
0.0
230
1.0
 70
     8
 71
     3
 72
    15
 73
    11
 74
     0
 42
0.00000001
 43
0.00000001
 40
0.0
 40
0.0
 40
0.0
 40
0.0
 40
0.1109312571802447
 40
0.2218878685175076
 40
0.3342489325819742
 40
0.4465909975315472
 40
0.5835720164058935
 40
0.7205960260516209
 40
0.8603243244460146
 40
1.0
 40
1.0
 40
1.0
 40
1.0
 10
118.6523421061155
 20
112.2478951015206
 30
0.0
 10
118.6490819985269
 20
112.0423404233121
 30
0.0
 10
118.6425610382281
 20
111.6311840858571
 30
0.0
 10
118.603787995084
 20
111.0269117112144
 30
0.0
 10
118.5631892809156
 20
110.4331143784589
 30
0.0
 10
118.5321207752579
 20
109.809234580977
 30
0.0
 10
118.5397599433598
 20
109.1637485084146
 30
0.0
 10
118.5813315063656
 20
108.5033909392877
 30
0.0
 10
118.6367282622856
 20
107.8690596617982
 30
0.0
 10
118.6471381450367
 20
107.473514607237
 30
0.0
 10
118.6523421061155
 20
107.2757793283605
 30
0.0
  0
ARC
  5
173
330
1F
100
AcDbEntity
  8
0
  6
Continuous
 62
     7
370
    25
100
AcDbCircle
 10
118.5916083458
 20
105.8630383178
 30
0.0
 40
1.414045880661795
100
AcDbArc
 50
87.5383691894
 51
136.2700553519
  0
LINE
  5
174
330
1F
100
AcDbEntity
  8
0
  6
Continuous
 62
     7
370
    25
100
AcDbLine
 10
119.7306542696
 20
103.7088069119
 30
0.0
 11
119.7306542696
 21
127.2088069119
 31
0.0
  0
LINE
  5
175
330
1F
100
AcDbEntity
  8
0
  6
Continuous
 62
     7
370
    25
100
AcDbLine
 10
118.6523421061
 20
107.2757793284
 30
0.0
 11
118.6523421061
 21
104.064867518
 31
0.0
  0
LINE
  5
176
330
1F
100
AcDbEntity
  8
0
  6
Continuous
 62
     7
370
    25
100
AcDbLine
 10
118.6523421061
 20
126.8527463058
 30
0.0
 11
118.6523421061
 21
123.6418344955
 31
0.0
  0
LINE
  5
177
330
1F
100
AcDbEntity
  8
0
  6
Continuous
 62
     7
370
    25
100
AcDbLine
 10
119.9306542696
 20
127.0088069119
 30
0.0
 11
119.9306542696
 21
103.9088069119
 31
0.0
  0
LINE
  5
178
330
1F
100
AcDbEntity
  8
0
  6
Continuous
 62
     7
370
    25
100
AcDbLine
 10
117.5698103514
 20
124.0771019201
 30
0.0
 11
117.5698103514
 21
127.4588069119
 31
0.0
  0
ARC
  5
179
330
1F
100
AcDbEntity
  8
0
  6
Continuous
 62
     7
370
    25
100
AcDbCircle
 10
118.6453029862
 20
128.110000367
 30
0.0
 40
1.257273766365385
100
AcDbArc
 50
211.1942295043
 51
270.3207845255
  0
SPLINE
  5
17A
330
1F
100
AcDbEntity
  8
0
  6
Continuous
 62
     7
370
    25
100
AcDbSpline
210
0.0
220
0.0
230
1.0
 70
    24
 71
     3
 72
     9
 73
     5
 74
     0
 42
0.00000001
 43
0.00000001
 40
0.0
 40
0.0
 40
0.0
 40
0.0
 40
0.4986680494787147
 40
1.0
 40
1.0
 40
1.0
 40
1.0
 10
117.569810351385
 20
127.4588069119102
 30
0.0
 10
117.4620034608007
 20
127.4588069119102
 30
0.0
 10
117.2458137716939
 20
127.4588069119103
 30
0.0
 10
116.8919321142078
 20
127.4588069119102
 30
0.0
 10
116.7145199326066
 20
127.4588069119102
 30
0.0
  0
LINE
  5
17B
330
1F
100
AcDbEntity
  8
0
  6
Continuous
 62
     7
370
    25
100
AcDbLine
 10
117.5698103514
 20
103.4588069119
 30
0.0
 11
117.5698103514
 21
106.8405119037
 31
0.0
  0
ARC
  5
17C
330
1F
100
AcDbEntity
  8
0
  6
Continuous
 62
     7
370
    25
100
AcDbCircle
 10
118.6453029862
 20
102.8076134568
 30
0.0
 40
1.257273766365348
100
AcDbArc
 50
89.6792154745
 51
148.8057704957
  0
SPLINE
  5
17D
330
1F
100
AcDbEntity
  8
0
  6
Continuous
 62
     7
370
    25
100
AcDbSpline
210
0.0
220
0.0
230
1.0
 70
    24
 71
     3
 72
     9
 73
     5
 74
     0
 42
0.00000001
 43
0.00000001
 40
0.0
 40
0.0
 40
0.0
 40
0.0
 40
0.498847038423143
 40
1.0
 40
1.0
 40
1.0
 40
1.0
 10
116.7145199326066
 20
103.4588069119103
 30
0.0
 10
116.8910959329451
 20
103.4588069119103
 30
0.0
 10
117.245064157146
 20
103.4588069119103
 30
0.0
 10
117.461395338945
 20
103.4588069119103
 30
0.0
 10
117.569810351385
 20
103.4588069119103
 30
0.0
  0
SPLINE
  5
17E
330
1F
100
AcDbEntity
  8
0
  6
Continuous
 62
     7
370
    25
100
AcDbSpline
210
0.0
220
0.0
230
1.0
 70
    24
 71
     3
 72
    10
 73
     6
 74
     0
 42
0.00000001
 43
0.00000001
 40
0.0
 40
0.0
 40
0.0
 40
0.0
 40
0.2249595696674928
 40
0.5983503424759558
 40
1.0
 40
1.0
 40
1.0
 40
1.0
 10
117.7771473881907
 20
127.4588069119102
 30
0.0
 10
117.7799429168411
 20
127.4588069119102
 30
0.0
 10
117.7873784997231
 20
127.4588069119103
 30
0.0
 10
117.7244499111731
 20
127.4588069119102
 30
0.0
 10
117.6225947904395
 20
127.4588069119102
 30
0.0
 10
117.569810351385
 20
127.4588069119102
 30
0.0
  0
SPLINE
  5
17F
330
1F
100
AcDbEntity
  8
0
  6
Continuous
 62
     7
370
    25
100
AcDbSpline
210
0.0
220
0.0
230
1.0
 70
    24
 71
     3
 72
    10
 73
     6
 74
     0
 42
0.00000001
 43
0.00000001
 40
0.0
 40
0.0
 40
0.0
 40
0.0
 40
0.4533398961088649
 40
0.869508377915147
 40
1.0
 40
1.0
 40
1.0
 40
1.0
 10
117.569810351385
 20
103.4588069119103
 30
0.0
 10
117.62221249481
 20
103.4588069119103
 30
0.0
 10
117.7227200899276
 20
103.4588069119103
 30
0.0
 10
117.7828484655113
 20
103.4588069119103
 30
0.0
 10
117.7790461098746
 20
103.4588069119103
 30
0.0
 10
117.7781384607683
 20
103.4588069119103
 30
0.0
  0
CIRCLE
  5
180
330
1F
100
AcDbEntity
  8
0
  6
Continuous
 62
     7
370
    25
100
AcDbCircle
 10
83.4813584251
 20
115.4588069119
 30
0.0
 40
5.250000000000014
  0
CIRCLE
  5
181
330
1F
100
AcDbEntity
  8
0
  6
Continuous
 62
     7
370
    25
100
AcDbCircle
 10
83.4813584251
 20
115.4588069119
 30
0.0
 40
6.455962114180096
  0
CIRCLE
  5
182
330
1F
100
AcDbEntity
  8
0
  6
Continuous
 62
     7
370
    25
100
AcDbCircle
 10
83.4813584251
 20
115.4588069119
 30
0.0
 40
4.199999999999989
  0
CIRCLE
  5
183
330
1F
100
AcDbEntity
  8
0
  6
Continuous
 62
     7
370
    25
100
AcDbCircle
 10
83.4813584251
 20
115.4588069119
 30
0.0
 40
4.000000000000014
  0
CIRCLE
  5
184
330
1F
100
AcDbEntity
  8
0
  6
Continuous
 62
     7
370
    25
100
AcDbCircle
 10
83.4813584251
 20
115.4588069119
 30
0.0
 40
6.828187499999999
  0
CIRCLE
  5
185
330
1F
100
AcDbEntity
  8
0
  6
Continuous
 62
     7
370
    25
100
AcDbCircle
 10
83.4813584251
 20
115.4588069119
 30
0.0
 40
8.5
  0
LINE
  5
186
330
1F
100
AcDbEntity
  8
0
  6
Continuous
 62
     7
370
    25
100
AcDbLine
 10
98.639364307
 20
104.9813069119
 30
0.0
 11
98.639364307
 21
125.9363069119
 31
0.0
  0
SPLINE
  5
187
330
1F
100
AcDbEntity
  8
0
  6
Continuous
 62
     7
370
    25
100
AcDbSpline
210
0.0
220
0.0
230
1.0
 70
     8
 71
     3
 72
    19
 73
    15
 74
     0
 42
0.00000001
 43
0.00000001
 40
-0.5788447217180465
 40
-0.5788447217180465
 40
-0.5788447217180465
 40
-0.5788447217180465
 40
-0.535566355711699
 40
-0.535566355711699
 40
-0.205987059889115
 40
-0.205987059889115
 40
0.0
 40
0.0
 40
0.0
 40
0.205987059889115
 40
0.205987059889115
 40
0.535566355711699
 40
0.535566355711699
 40
0.5788447217180465
 40
0.5788447217180465
 40
0.5788447217180465
 40
0.5788447217180465
 10
91.01513972040607
 20
110.8088822132498
 30
0.0
 10
91.08621139781596
 20
110.911491897649
 30
0.0
 10
91.15491757585738
 20
111.0155649510704
 30
0.0
 10
91.72575688691299
 20
111.92407338372
 30
0.0
 10
92.08886462316931
 20
112.8062056600451
 30
0.0
 10
92.41748833035155
 20
114.2915643829372
 30
0.0
 10
92.48135842514466
 20
114.8751769088911
 30
0.0
 10
92.48135842514466
 20
115.4588069119103
 30
0.0
 10
92.48135842514466
 20
116.0424369149294
 30
0.0
 10
92.41748833035155
 20
116.6260494408833
 30
0.0
 10
92.08886462316931
 20
118.1114081637755
 30
0.0
 10
91.72575688691299
 20
118.9935404401005
 30
0.0
 10
91.15491757585738
 20
119.9020488727502
 30
0.0
 10
91.08621139781596
 20
120.0061219261716
 30
0.0
 10
91.01513972040607
 20
120.1087316105707
 30
0.0
  0
SPLINE
  5
188
330
1F
100
AcDbEntity
  8
0
  6
Continuous
 62
     7
370
    25
100
AcDbSpline
210
0.0
220
0.0
230
1.0
 70
     8
 71
     3
 72
    10
 73
     6
 74
     0
 42
0.00000001
 43
0.00000001
 40
0.0
 40
0.0
 40
0.0
 40
0.0
 40
0.5
 40
0.5
 40
1.0
 40
1.0
 40
1.0
 40
1.0
 10
91.0152741360151
 20
110.8089154586908
 30
0.0
 10
90.93764014225239
 20
110.8715046156886
 30
0.0
 10
90.85025069883011
 20
110.90350125044
 30
0.0
 10
90.69810608915782
 20
110.9034601069016
 30
0.0
 10
90.6375177721021
 20
110.8715073840976
 30
0.0
 10
90.59661810424447
 20
110.8089154586908
 30
0.0
  0
SPLINE
  5
189
330
1F
100
AcDbEntity
  8
0
  6
Continuous
 62
     7
370
    25
100
AcDbSpline
210
0.0
220
0.0
230
1.0
 70
     8
 71
     3
 72
    10
 73
     6
 74
     0
 42
0.00000001
 43
0.00000001
 40
0.0
 40
0.0
 40
0.0
 40
0.0
 40
0.5
 40
0.5
 40
1.0
 40
1.0
 40
1.0
 40
1.0
 10
90.59661810424447
 20
120.1086983651297
 30
0.0
 10
90.6375159690177
 20
120.0461091991226
 30
0.0
 10
90.69823261841886
 20
120.0141130990317
 30
0.0
 10
90.8504134323178
 20
120.0141531902663
 30
0.0
 10
90.93763678077238
 20
120.0461064980792
 30
0.0
 10
91.01527413601508
 20
120.1086983651297
 30
0.0
  0
SPLINE
  5
18A
330
1F
100
AcDbEntity
  8
0
  6
Continuous
 62
     7
370
    25
100
AcDbSpline
210
0.0
220
0.0
230
1.0
 70
    24
 71
     3
 72
     8
 73
     4
 74
     0
 42
0.00000001
 43
0.00000001
 40
0.0
 40
0.0
 40
0.0
 40
0.0
 40
1.0
 40
1.0
 40
1.0
 40
1.0
 10
91.98135842514465
 20
107.4588069119103
 30
0.0
 10
91.98135842514465
 20
107.1287806582955
 30
0.0
 10
91.98135842514465
 20
106.9588069119103
 30
0.0
 10
91.98135842514465
 20
106.9588069119103
 30
0.0
  0
SPLINE
  5
18B
330
1F
100
AcDbEntity
  8
0
  6
Continuous
 62
     7
370
    25
100
AcDbSpline
210
0.0
220
0.0
230
1.0
 70
     8
 71
     3
 72
    14
 73
    10
 74
     0
 42
0.00000001
 43
0.00000001
 40
0.0
 40
0.0
 40
0.0
 40
0.0
 40
0.25
 40
0.25
 40
0.5
 40
0.5
 40
0.75
 40
0.75
 40
1.0
 40
1.0
 40
1.0
 40
1.0
 10
91.98135842514465
 20
109.9815813368586
 30
0.0
 10
91.98135842514465
 20
110.0489423276582
 30
0.0
 10
91.97197057512261
 20
110.1159407796154
 30
0.0
 10
91.93531092840733
 20
110.2491501183441
 30
0.0
 10
91.90760838314446
 20
110.3161964175781
 30
0.0
 10
91.8312221220662
 20
110.4423360941027
 30
0.0
 10
91.78201897737856
 20
110.5030936946402
 30
0.0
 10
91.65335220418352
 20
110.6007055602077
 30
0.0
 10
91.57042720397297
 20
110.6369815314138
 30
0.0
 10
91.48135842514465
 20
110.6369815314138
 30
0.0
  0
SPLINE
  5
18C
330
1F
100
AcDbEntity
  8
0
  6
Continuous
 62
     7
370
    25
100
AcDbSpline
210
0.0
220
0.0
230
1.0
 70
     8
 71
     3
 72
    10
 73
     6
 74
     0
 42
0.00000001
 43
0.00000001
 40
0.0
 40
0.0
 40
0.0
 40
0.0
 40
0.5
 40
0.5
 40
1.0
 40
1.0
 40
1.0
 40
1.0
 10
91.01520266250382
 20
110.8088021989546
 30
0.0
 10
91.0783648436429
 20
110.7578772618946
 30
0.0
 10
91.14946892912292
 20
110.7149143274268
 30
0.0
 10
91.30770973869129
 20
110.6540203522709
 30
0.0
 10
91.39326270972033
 20
110.6369815314137
 30
0.0
 10
91.48135842514465
 20
110.6369815314137
 30
0.0
  0
SPLINE
  5
18D
330
1F
100
AcDbEntity
  8
0
  6
Continuous
 62
     7
370
    25
100
AcDbSpline
210
0.0
220
0.0
230
1.0
 70
     8
 71
     3
 72
     8
 73
     4
 74
     0
 42
0.00000001
 43
0.00000001
 40
0.0
 40
0.0
 40
0.0
 40
0.0
 40
1.0
 40
1.0
 40
1.0
 40
1.0
 10
91.48135842514465
 20
120.2806322924068
 30
0.0
 10
91.30510351744255
 20
120.2806322924068
 30
0.0
 10
91.1416454293733
 20
120.2107569634913
 30
0.0
 10
91.01520266250368
 20
120.1088116248661
 30
0.0
  0
SPLINE
  5
18E
330
1F
100
AcDbEntity
  8
0
  6
Continuous
 62
     7
370
    25
100
AcDbSpline
210
0.0
220
0.0
230
1.0
 70
     8
 71
     3
 72
    14
 73
    10
 74
     0
 42
0.00000001
 43
0.00000001
 40
0.0
 40
0.0
 40
0.0
 40
0.0
 40
0.25
 40
0.25
 40
0.5
 40
0.5
 40
0.75
 40
0.75
 40
1.0
 40
1.0
 40
1.0
 40
1.0
 10
91.48135842514465
 20
120.2806322924068
 30
0.0
 10
91.57045825339762
 20
120.2806322924067
 30
0.0
 10
91.65337307045638
 20
120.3169244660885
 30
0.0
 10
91.78199518431198
 20
120.414501706328
 30
0.0
 10
91.83116217934597
 20
120.4752418590007
 30
0.0
 10
91.90733282258361
 20
120.6008995244971
 30
0.0
 10
91.93501664443589
 20
120.6675667857233
 30
0.0
 10
91.9719877290927
 20
120.8015642519763
 30
0.0
 10
91.98135842514465
 20
120.8687354161214
 30
0.0
 10
91.98135842514465
 20
120.9360324869619
 30
0.0
  0
SPLINE
  5
18F
330
1F
100
AcDbEntity
  8
0
  6
Continuous
 62
     7
370
    25
100
AcDbSpline
210
0.0
220
0.0
230
1.0
 70
    24
 71
     3
 72
     8
 73
     4
 74
     0
 42
0.00000001
 43
0.00000001
 40
0.0
 40
0.0
 40
0.0
 40
0.0
 40
1.0
 40
1.0
 40
1.0
 40
1.0
 10
91.98135842514465
 20
123.9588069119103
 30
0.0
 10
91.98135842514465
 20
123.9588069119103
 30
0.0
 10
91.98135842514465
 20
123.7888331655251
 30
0.0
 10
91.98135842514465
 20
123.4588069119103
 30
0.0
  0
LINE
  5
190
330
1F
100
AcDbEntity
  8
0
  6
Continuous
 62
     7
370
    25
100
AcDbLine
 10
90.4813584251
 20
110.6369815314
 30
0.0
 11
90.4813584251
 21
107.4588069119
 31
0.0
  0
LINE
  5
191
330
1F
100
AcDbEntity
  8
0
  6
Continuous
 62
     7
370
    25
100
AcDbLine
 10
90.4813584251
 20
107.4588069119
 30
0.0
 11
86.3536397484
 21
107.4588069119
 31
0.0
  0
ARC
  5
192
330
1F
100
AcDbEntity
  8
0
  6
Continuous
 62
     7
370
    25
100
AcDbCircle
 10
89.9813584251
 20
107.4588069119
 30
0.0
 40
0.5
100
AcDbArc
 50
270.0
 51
0.0
  0
SPLINE
  5
193
330
1F
100
AcDbEntity
  8
0
  6
Continuous
 62
     7
370
    25
100
AcDbSpline
210
0.0
220
0.0
230
1.0
 70
    24
 71
     3
 72
    10
 73
     6
 74
     0
 42
0.00000001
 43
0.00000001
 40
0.0
 40
0.0
 40
0.0
 40
0.0
 40
0.5
 40
0.5
 40
1.0
 40
1.0
 40
1.0
 40
1.0
 10
86.35363974841367
 20
107.4588069119103
 30
0.0
 10
86.35363974841367
 20
107.3279072180107
 30
0.0
 10
86.35363974841367
 20
107.1978135825286
 30
0.0
 10
86.35363974841367
 20
107.0126934601054
 30
0.0
 10
86.35363974841367
 20
106.9588069119103
 30
0.0
 10
86.35363974841367
 20
106.9588069119103
 30
0.0
  0
LINE
  5
194
330
1F
100
AcDbEntity
  8
0
  6
Continuous
 62
     7
370
    25
100
AcDbLine
 10
86.3536397484
 20
106.9588069119
 30
0.0
 11
89.9813584251
 21
106.9588069119
 31
0.0
  0
SPLINE
  5
195
330
1F
100
AcDbEntity
  8
0
  6
Continuous
 62
     7
370
    25
100
AcDbSpline
210
0.0
220
0.0
230
1.0
 70
    24
 71
     3
 72
    10
 73
     6
 74
     0
 42
0.00000001
 43
0.00000001
 40
0.0
 40
0.0
 40
0.0
 40
0.0
 40
0.5
 40
0.5
 40
1.0
 40
1.0
 40
1.0
 40
1.0
 10
80.60907710187564
 20
123.4588069119103
 30
0.0
 10
80.60907710187564
 20
123.5897066058098
 30
0.0
 10
80.60907710187564
 20
123.7198002412919
 30
0.0
 10
80.60907710187564
 20
123.9049203637152
 30
0.0
 10
80.60907710187564
 20
123.9588069119103
 30
0.0
 10
80.60907710187564
 20
123.9588069119103
 30
0.0
  0
LINE
  5
196
330
1F
100
AcDbEntity
  8
0
  6
Continuous
 62
     7
370
    25
100
AcDbLine
 10
76.9813584251
 20
123.4588069119
 30
0.0
 11
80.6090771019
 21
123.4588069119
 31
0.0
  0
LINE
  5
197
330
1F
100
AcDbEntity
  8
0
  6
Continuous
 62
     7
370
    25
100
AcDbLine
 10
76.9813584251
 20
123.9588069119
 30
0.0
 11
76.9813584251
 21
123.4588069119
 31
0.0
  0
LINE
  5
198
330
1F
100
AcDbEntity
  8
0
  6
Continuous
 62
     7
370
    25
100
AcDbLine
 10
80.6090771019
 20
123.9588069119
 30
0.0
 11
76.9813584251
 21
123.9588069119
 31
0.0
  0
LINE
  5
199
330
1F
100
AcDbEntity
  8
0
  6
Continuous
 62
     7
370
    25
100
AcDbLine
 10
76.9813584251
 20
123.4588069119
 30
0.0
 11
76.9813584251
 21
120.936032487
 31
0.0
  0
LINE
  5
19A
330
1F
100
AcDbEntity
  8
0
  6
Continuous
 62
     7
370
    25
100
AcDbLine
 10
80.6090771019
 20
107.4588069119
 30
0.0
 11
76.9813584251
 21
107.4588069119
 31
0.0
  0
LINE
  5
19B
330
1F
100
AcDbEntity
  8
0
  6
Continuous
 62
     7
370
    25
100
AcDbLine
 10
76.9813584251
 20
109.9815813369
 30
0.0
 11
76.9813584251
 21
107.4588069119
 31
0.0
  0
SPLINE
  5
19C
330
1F
100
AcDbEntity
  8
0
  6
Continuous
 62
     7
370
    25
100
AcDbSpline
210
0.0
220
0.0
230
1.0
 70
    24
 71
     3
 72
    10
 73
     6
 74
     0
 42
0.00000001
 43
0.00000001
 40
0.0
 40
0.0
 40
0.0
 40
0.0
 40
0.5
 40
0.5
 40
1.0
 40
1.0
 40
1.0
 40
1.0
 10
80.60907710187564
 20
106.9588069119103
 30
0.0
 10
80.60907710187564
 20
106.9588069119103
 30
0.0
 10
80.60907710187564
 20
107.0126934601054
 30
0.0
 10
80.60907710187564
 20
107.1978135825286
 30
0.0
 10
80.60907710187564
 20
107.3279072180107
 30
0.0
 10
80.60907710187564
 20
107.4588069119103
 30
0.0
  0
LINE
  5
19D
330
1F
100
AcDbEntity
  8
0
  6
Continuous
 62
     7
370
    25
100
AcDbLine
 10
76.9813584251
 20
107.4588069119
 30
0.0
 11
76.9813584251
 21
106.9588069119
 31
0.0
  0
LINE
  5
19E
330
1F
100
AcDbEntity
  8
0
  6
Continuous
 62
     7
370
    25
100
AcDbLine
 10
76.9813584251
 20
106.9588069119
 30
0.0
 11
80.6090771019
 21
106.9588069119
 31
0.0
  0
ARC
  5
19F
330
1F
100
AcDbEntity
  8
0
  6
Continuous
 62
     7
370
    25
100
AcDbCircle
 10
89.9813584251
 20
123.4588069119
 30
0.0
 40
0.5
100
AcDbArc
 50
0.0
 51
90.0
  0
LINE
  5
1A0
330
1F
100
AcDbEntity
  8
0
  6
Continuous
 62
     7
370
    25
100
AcDbLine
 10
86.3536397484
 20
123.4588069119
 30
0.0
 11
90.4813584251
 21
123.4588069119
 31
0.0
  0
SPLINE
  5
1A1
330
1F
100
AcDbEntity
  8
0
  6
Continuous
 62
     7
370
    25
100
AcDbSpline
210
0.0
220
0.0
230
1.0
 70
    24
 71
     3
 72
    10
 73
     6
 74
     0
 42
0.00000001
 43
0.00000001
 40
0.0
 40
0.0
 40
0.0
 40
0.0
 40
0.5
 40
0.5
 40
1.0
 40
1.0
 40
1.0
 40
1.0
 10
86.35363974841367
 20
123.9588069119103
 30
0.0
 10
86.35363974841367
 20
123.9588069119103
 30
0.0
 10
86.35363974841367
 20
123.9049203637152
 30
0.0
 10
86.35363974841367
 20
123.7198002412919
 30
0.0
 10
86.35363974841367
 20
123.5897066058098
 30
0.0
 10
86.35363974841367
 20
123.4588069119103
 30
0.0
  0
LINE
  5
1A2
330
1F
100
AcDbEntity
  8
0
  6
Continuous
 62
     7
370
    25
100
AcDbLine
 10
89.9813584251
 20
123.9588069119
 30
0.0
 11
86.3536397484
 21
123.9588069119
 31
0.0
  0
LINE
  5
1A3
330
1F
100
AcDbEntity
  8
0
  6
Continuous
 62
     7
370
    25
100
AcDbLine
 10
90.4813584251
 20
123.4588069119
 30
0.0
 11
90.4813584251
 21
120.2806322924
 31
0.0
  0
SPLINE
  5
1A4
330
1F
100
AcDbEntity
  8
0
  6
Continuous
 62
     7
370
    25
100
AcDbSpline
210
0.0
220
0.0
230
1.0
 70
    24
 71
     3
 72
    10
 73
     6
 74
     0
 42
0.00000001
 43
0.00000001
 40
-0.2904940295525327
 40
-0.2904940295525327
 40
-0.2904940295525327
 40
-0.2904940295525327
 40
-0.130307291676468
 40
-0.130307291676468
 40
0.0010563446871674
 40
0.0010563446871674
 40
0.0010563446871674
 40
0.0010563446871674
 10
83.48135842514466
 20
106.9588069119103
 30
0.0
 10
83.99937163307082
 20
106.9588069119103
 30
0.0
 10
84.52329754798421
 20
106.9588069119103
 30
0.0
 10
85.48169995548051
 20
106.9588069119103
 30
0.0
 10
85.9157609605349
 20
106.9588069119103
 30
0.0
 10
86.35363974841367
 20
106.9588069119103
 30
0.0
  0
SPLINE
  5
1A5
330
1F
100
AcDbEntity
  8
0
  6
Continuous
 62
     7
370
    25
100
AcDbSpline
210
0.0
220
0.0
230
1.0
 70
    24
 71
     3
 72
    10
 73
     6
 74
     0
 42
0.00000001
 43
0.00000001
 40
-0.8711658249657241
 40
-0.8711658249657241
 40
-0.8711658249657241
 40
-0.8711658249657241
 40
-0.7398021886020881
 40
-0.7398021886020881
 40
-0.5796154507864705
 40
-0.5796154507864705
 40
-0.5796154507864705
 40
-0.5796154507864705
 10
80.60907710187564
 20
106.9588069119103
 30
0.0
 10
81.04695588975443
 20
106.9588069119103
 30
0.0
 10
81.48101689480883
 20
106.9588069119103
 30
0.0
 10
82.43941930210642
 20
106.9588069119103
 30
0.0
 10
82.96334521741399
 20
106.9588069119103
 30
0.0
 10
83.48135842514466
 20
106.9588069119103
 30
0.0
  0
SPLINE
  5
1A6
330
1F
100
AcDbEntity
  8
0
  6
Continuous
 62
     7
370
    25
100
AcDbSpline
210
0.0
220
0.0
230
1.0
 70
    24
 71
     3
 72
    10
 73
     6
 74
     0
 42
0.00000001
 43
0.00000001
 40
-0.8711658249912583
 40
-0.8711658249912583
 40
-0.8711658249912583
 40
-0.8711658249912583
 40
-0.7398021886276228
 40
-0.7398021886276228
 40
-0.5796154507864709
 40
-0.5796154507864709
 40
-0.5796154507864709
 40
-0.5796154507864709
 10
86.35363974841367
 20
123.9588069119103
 30
0.0
 10
85.9157609605349
 20
123.9588069119103
 30
0.0
 10
85.48169995548051
 20
123.9588069119103
 30
0.0
 10
84.52329754809898
 20
123.9588069119103
 30
0.0
 10
83.99937163295792
 20
123.9588069119103
 30
0.0
 10
83.48135842514466
 20
123.9588069119103
 30
0.0
  0
SPLINE
  5
1A7
330
1F
100
AcDbEntity
  8
0
  6
Continuous
 62
     7
370
    25
100
AcDbSpline
210
0.0
220
0.0
230
1.0
 70
    24
 71
     3
 72
    10
 73
     6
 74
     0
 42
0.00000001
 43
0.00000001
 40
-0.2904940295525331
 40
-0.2904940295525331
 40
-0.2904940295525331
 40
-0.2904940295525331
 40
-0.1303072916667038
 40
-0.1303072916667038
 40
0.0010563446969323
 40
0.0010563446969323
 40
0.0010563446969323
 40
0.0010563446969323
 10
83.48135842514466
 20
123.9588069119103
 30
0.0
 10
82.96334521718693
 20
123.9588069119103
 30
0.0
 10
82.43941930233721
 20
123.9588069119103
 30
0.0
 10
81.48101689480883
 20
123.9588069119103
 30
0.0
 10
81.04695588975443
 20
123.9588069119103
 30
0.0
 10
80.60907710187564
 20
123.9588069119103
 30
0.0
  0
LINE
  5
1A8
330
1F
100
AcDbEntity
  8
0
  6
Continuous
 62
     7
370
    25
100
AcDbLine
 10
76.9813584251
 20
123.4588069119
 30
0.0
 11
76.4813584251
 21
123.4588069119
 31
0.0
  0
ARC
  5
1A9
330
1F
100
AcDbEntity
  8
0
  6
Continuous
 62
     7
370
    25
100
AcDbCircle
 10
76.9813584251
 20
123.4588069119
 30
0.0
 40
0.5
100
AcDbArc
 50
90.0
 51
180.0
  0
LINE
  5
1AA
330
1F
100
AcDbEntity
  8
0
  6
Continuous
 62
     7
370
    25
100
AcDbLine
 10
76.5893340491
 20
120.4337440974
 30
0.0
 11
76.4813584251
 21
120.4337440974
 31
0.0
  0
LINE
  5
1AB
330
1F
100
AcDbEntity
  8
0
  6
Continuous
 62
     7
370
    25
100
AcDbLine
 10
76.4813584251
 20
120.4337440974
 30
0.0
 11
76.4813584251
 21
123.4588069119
 31
0.0
  0
LINE
  5
1AC
330
1F
100
AcDbEntity
  8
0
  6
Continuous
 62
     7
370
    25
100
AcDbLine
 10
76.4813584251
 20
107.4588069119
 30
0.0
 11
76.9813584251
 21
107.4588069119
 31
0.0
  0
LINE
  5
1AD
330
1F
100
AcDbEntity
  8
0
  6
Continuous
 62
     7
370
    25
100
AcDbLine
 10
76.4813584251
 20
107.4588069119
 30
0.0
 11
76.4813584251
 21
110.4838697264
 31
0.0
  0
LINE
  5
1AE
330
1F
100
AcDbEntity
  8
0
  6
Continuous
 62
     7
370
    25
100
AcDbLine
 10
76.4813584251
 20
110.4838697264
 30
0.0
 11
76.5893340491
 21
110.4838697264
 31
0.0
  0
ARC
  5
1AF
330
1F
100
AcDbEntity
  8
0
  6
Continuous
 62
     7
370
    25
100
AcDbCircle
 10
76.9813584251
 20
107.4588069119
 30
0.0
 40
0.5
100
AcDbArc
 50
180.0
 51
270.0
  0
ARC
  5
1B0
330
1F
100
AcDbEntity
  8
0
  6
Continuous
 62
     7
370
    25
100
AcDbCircle
 10
75.9813584251
 20
120.4337440974
 30
0.0
 40
0.4999999999999976
100
AcDbArc
 50
326.4426902381
 51
0.0
  0
ARC
  5
1B1
330
1F
100
AcDbEntity
  8
0
  6
Continuous
 62
     7
370
    25
100
AcDbCircle
 10
75.9813584251
 20
110.4838697264
 30
0.0
 40
0.4999999999999976
100
AcDbArc
 50
0.0
 51
33.5573097619
  0
LINE
  5
1B2
330
1F
100
AcDbEntity
  8
0
  6
Continuous
 62
     7
370
    25
100
AcDbLine
 10
91.4813584251
 20
120.2806322924
 30
0.0
 11
91.4813584251
 21
123.4588069119
 31
0.0
  0
LINE
  5
1B3
330
1F
100
AcDbEntity
  8
0
  6
Continuous
 62
     7
370
    25
100
AcDbLine
 10
90.4813584251
 20
123.4588069119
 30
0.0
 11
91.4813584251
 21
123.4588069119
 31
0.0
  0
LINE
  5
1B4
330
1F
100
AcDbEntity
  8
0
  6
Continuous
 62
     7
370
    25
100
AcDbLine
 10
91.4813584251
 20
107.4588069119
 30
0.0
 11
91.4813584251
 21
110.6369815314
 31
0.0
  0
LINE
  5
1B5
330
1F
100
AcDbEntity
  8
0
  6
Continuous
 62
     7
370
    25
100
AcDbLine
 10
91.4813584251
 20
107.4588069119
 30
0.0
 11
90.4813584251
 21
107.4588069119
 31
0.0
  0
LINE
  5
1B6
330
1F
100
AcDbEntity
  8
0
  6
Continuous
 62
     7
370
    25
100
AcDbLine
 10
91.4813584251
 20
123.9588069119
 30
0.0
 11
91.4813584251
 21
123.4588069119
 31
0.0
  0
LINE
  5
1B7
330
1F
100
AcDbEntity
  8
0
  6
Continuous
 62
     7
370
    25
100
AcDbLine
 10
91.4813584251
 20
123.9588069119
 30
0.0
 11
89.9813584251
 21
123.9588069119
 31
0.0
  0
LINE
  5
1B8
330
1F
100
AcDbEntity
  8
0
  6
Continuous
 62
     7
370
    25
100
AcDbLine
 10
91.4813584251
 20
106.9588069119
 30
0.0
 11
91.4813584251
 21
107.4588069119
 31
0.0
  0
LINE
  5
1B9
330
1F
100
AcDbEntity
  8
0
  6
Continuous
 62
     7
370
    25
100
AcDbLine
 10
89.9813584251
 20
106.9588069119
 30
0.0
 11
91.4813584251
 21
106.9588069119
 31
0.0
  0
ARC
  5
1BA
330
1F
100
AcDbEntity
  8
0
  6
Continuous
 62
     7
370
    25
100
AcDbCircle
 10
91.4813584251
 20
123.4588069119
 30
0.0
 40
0.5
100
AcDbArc
 50
0.0
 51
90.0
  0
LINE
  5
1BB
330
1F
100
AcDbEntity
  8
0
  6
Continuous
 62
     7
370
    25
100
AcDbLine
 10
91.4813584251
 20
123.4588069119
 30
0.0
 11
91.9813584251
 21
123.4588069119
 31
0.0
  0
LINE
  5
1BC
330
1F
100
AcDbEntity
  8
0
  6
Continuous
 62
     7
370
    25
100
AcDbLine
 10
91.9813584251
 20
120.936032487
 30
0.0
 11
91.9813584251
 21
123.4588069119
 31
0.0
  0
LINE
  5
1BD
330
1F
100
AcDbEntity
  8
0
  6
Continuous
 62
     7
370
    25
100
AcDbLine
 10
91.9813584251
 20
107.4588069119
 30
0.0
 11
91.9813584251
 21
109.9815813369
 31
0.0
  0
LINE
  5
1BE
330
1F
100
AcDbEntity
  8
0
  6
Continuous
 62
     7
370
    25
100
AcDbLine
 10
91.4813584251
 20
107.4588069119
 30
0.0
 11
91.9813584251
 21
107.4588069119
 31
0.0
  0
ARC
  5
1BF
330
1F
100
AcDbEntity
  8
0
  6
Continuous
 62
     7
370
    25
100
AcDbCircle
 10
91.4813584251
 20
107.4588069119
 30
0.0
 40
0.5
100
AcDbArc
 50
270.0
 51
0.0
  0
LINE
  5
1C0
330
1F
100
AcDbEntity
  8
0
  6
Continuous
 62
     7
370
    25
100
AcDbLine
 10
82.4813584251
 20
111.5858235657
 30
0.0
 11
82.4813584251
 21
119.3317902581
 31
0.0
  0
SPLINE
  5
1C1
330
1F
100
AcDbEntity
  8
0
  6
Continuous
 62
     7
370
    25
100
AcDbSpline
210
0.0
220
0.0
230
1.0
 70
     8
 71
     3
 72
    20
 73
    16
 74
     0
 42
0.00000001
 43
0.00000001
 40
0.0
 40
0.0
 40
0.0
 40
0.0
 40
0.25
 40
0.25
 40
0.375
 40
0.375
 40
0.5
 40
0.5
 40
0.5625
 40
0.5625
 40
0.625
 40
0.625
 40
0.75
 40
0.75
 40
1.0
 40
1.0
 40
1.0
 40
1.0
 10
81.71585595001892
 20
111.8695171478588
 30
0.0
 10
81.43504388935628
 20
112.4160089026725
 30
0.0
 10
81.16849034621058
 20
112.9772446035746
 30
0.0
 10
80.80346485160823
 20
113.8611583788918
 30
0.0
 10
80.68630659092089
 20
114.1625464975063
 30
0.0
 10
80.49139359806716
 20
114.7899798609007
 30
0.0
 10
80.4175906338983
 20
115.1108263375756
 30
0.0
 10
80.41379141340789
 20
115.6052277797817
 30
0.0
 10
80.43049492101943
 20
115.770877337208
 30
0.0
 10
80.48943083376265
 20
116.0933428677794
 30
0.0
 10
80.53107066962878
 20
116.2520868392926
 30
0.0
 10
80.67505079844804
 20
116.7244791556796
 30
0.0
 10
80.79330082669642
 20
117.0306108390936
 30
0.0
 10
81.16134389641152
 20
117.925396088938
 30
0.0
 10
81.43302798411936
 20
118.4976817435329
 30
0.0
 10
81.71585595001892
 20
119.0480966759618
 30
0.0
  0
SPLINE
  5
1C2
330
1F
100
AcDbEntity
  8
0
  6
Continuous
 62
     7
370
    25
100
AcDbSpline
210
0.0
220
0.0
230
1.0
 70
    24
 71
     3
 72
    10
 73
     6
 74
     0
 42
0.00000001
 43
0.00000001
 40
-0.2904940295525288
 40
-0.2904940295525288
 40
-0.2904940295525288
 40
-0.2904940295525288
 40
-0.1303072746364131
 40
-0.1303072746364131
 40
0.0010563617272233
 40
0.0010563617272233
 40
0.0010563617272233
 40
0.0010563617272233
 10
91.98135842514465
 20
123.9588069119103
 30
0.0
 10
91.85185510939101
 20
123.9588069119103
 30
0.0
 10
91.72006413120516
 20
123.9588069119103
 30
0.0
 10
91.54164019177998
 20
123.9588069119103
 30
0.0
 10
91.48135842514465
 20
123.9588069119103
 30
0.0
 10
91.48135842514465
 20
123.9588069119103
 30
0.0
  0
SPLINE
  5
1C3
330
1F
100
AcDbEntity
  8
0
  6
Continuous
 62
     7
370
    25
100
AcDbSpline
210
0.0
220
0.0
230
1.0
 70
    24
 71
     3
 72
    10
 73
     6
 74
     0
 42
0.00000001
 43
0.00000001
 40
-0.8711658421011628
 40
-0.8711658421011628
 40
-0.8711658421011628
 40
-0.8711658421011628
 40
-0.739802205737527
 40
-0.739802205737527
 40
-0.579615450786466
 40
-0.579615450786466
 40
-0.579615450786466
 40
-0.579615450786466
 10
91.48135842514465
 20
106.9588069119103
 30
0.0
 10
91.48135842514465
 20
106.9588069119103
 30
0.0
 10
91.54164019177999
 20
106.9588069119103
 30
0.0
 10
91.72006413122655
 20
106.9588069119103
 30
0.0
 10
91.85185510936262
 20
106.9588069119103
 30
0.0
 10
91.98135842514465
 20
106.9588069119103
 30
0.0
  0
SPLINE
  5
1C4
330
1F
100
AcDbEntity
  8
0
  6
Continuous
 62
     7
370
    25
100
AcDbSpline
210
0.0
220
0.0
230
1.0
 70
     8
 71
     3
 72
    12
 73
     8
 74
     0
 42
0.00000001
 43
0.00000001
 40
0.0
 40
0.0
 40
0.0
 40
0.0
 40
0.2218514802639133
 40
0.4437536663199391
 40
0.6684646181324465
 40
0.8931375736049681
 40
1.0
 40
1.0
 40
1.0
 40
1.0
 10
118.6523421061155
 20
104.0648675179709
 30
0.0
 10
118.6491091818965
 20
104.0157660851528
 30
0.0
 10
118.6426425945497
 20
103.9175519970221
 30
0.0
 10
118.6034599617869
 20
103.8130636879152
 30
0.0
 10
118.5644367074398
 20
103.7437138292943
 30
0.0
 10
118.5356746905712
 20
103.7083050826052
 30
0.0
 10
118.5403142076716
 20
103.7135398655966
 30
0.0
 10
118.5418096440014
 20
103.7152271715154
 30
0.0
  0
SPLINE
  5
1C5
330
1F
100
AcDbEntity
  8
0
  6
Continuous
 62
     7
370
    25
100
AcDbSpline
210
0.0
220
0.0
230
1.0
 70
     8
 71
     3
 72
    11
 73
     7
 74
     0
 42
0.00000001
 43
0.00000001
 40
0.0
 40
0.0
 40
0.0
 40
0.0
 40
0.1671026074590442
 40
0.4411642576015753
 40
0.7206347542586012
 40
1.0
 40
1.0
 40
1.0
 40
1.0
 10
118.5418096440024
 20
127.2023866523041
 30
0.0
 10
118.541768605077
 20
127.2029738562254
 30
0.0
 10
118.5416602590294
 20
127.2045241215739
 30
0.0
 10
118.5824629965165
 20
127.1456028324401
 30
0.0
 10
118.636443215288
 20
127.0354996542748
 30
0.0
 10
118.6470431413017
 20
126.9136564393561
 30
0.0
 10
118.6523421061155
 20
126.8527463058497
 30
0.0
  0
LINE
  5
1C6
330
1F
100
AcDbEntity
  8
0
  6
Continuous
 62
     7
370
    25
100
AcDbLine
 10
98.2139298126
 20
115.4588069119
 30
0.0
 11
98.2139298126
 21
105.5838069119
 31
0.0
  0
LINE
  5
1C7
330
1F
100
AcDbEntity
  8
0
  6
Continuous
 62
     7
370
    25
100
AcDbLine
 10
98.2139298126
 20
125.3338069119
 30
0.0
 11
98.2139298126
 21
115.4588069119
 31
0.0
  0
LINE
  5
1C8
330
1F
100
AcDbEntity
  8
0
  6
Continuous
 62
     7
370
    25
100
AcDbLine
 10
95.9813584251
 20
115.4588069119
 30
0.0
 11
95.9813584251
 21
106.9588069119
 31
0.0
  0
LINE
  5
1C9
330
1F
100
AcDbEntity
  8
0
  6
Continuous
 62
     7
370
    25
100
AcDbLine
 10
95.9813584251
 20
123.9588069119
 30
0.0
 11
95.9813584251
 21
115.4588069119
 31
0.0
  0
INSERT
  5
1D5
330
1F
100
AcDbEntity
  8
FORMAT
100
AcDbBlockReference
  2
SW_CENTERMARKSYMBOL_1
 10
83.4813584251
 20
115.4588069119
 30
0.0
  0
LINE
  5
1D6
330
1F
100
AcDbEntity
  8
FORMAT
100
AcDbLine
 10
108.1433584251
 20
106.1433069119
 30
0.0
 11
97.828642851
 21
106.1433069119
 31
0.0
  0
LINE
  5
1D7
330
1F
100
AcDbEntity
  8
FORMAT
100
AcDbLine
 10
108.1433584251
 20
124.7743069119
 30
0.0
 11
97.828642851
 21
124.7743069119
 31
0.0
  0
ARC
  5
1D8
330
1F
100
AcDbEntity
  8
FORMAT
100
AcDbCircle
 10
83.4813584251
 20
115.4588069119
 30
0.0
 40
5.722500000000011
100
AcDbArc
 50
75.0
 51
345.0
  0
ENDSEC
  0
SECTION
  2
OBJECTS
  0
DICTIONARY
  5
C
330
0
100
AcDbDictionary
281
     1
  3
ACAD_GROUP
350
D
  3
ACAD_LAYOUT
350
1A
  3
ACAD_MLINESTYLE
350
17
  3
ACAD_PLOTSETTINGS
350
19
  3
ACAD_PLOTSTYLENAME
350
E
  3
ACAD_SCALELIST
350
47
  3
DWGPROPS
350
1D9
  0
DICTIONARY
  5
D
102
{ACAD_REACTORS
330
C
102
}
330
C
100
AcDbDictionary
281
     1
  0
DICTIONARY
  5
1A
102
{ACAD_REACTORS
330
C
102
}
330
C
100
AcDbDictionary
281
     1
  3
Layout1
350
1E
  3
Layout2
350
26
  3
Model
350
22
  0
DICTIONARY
  5
17
102
{ACAD_REACTORS
330
C
102
}
330
C
100
AcDbDictionary
281
     1
  3
Standard
350
18
  0
DICTIONARY
  5
19
102
{ACAD_REACTORS
330
C
102
}
330
C
100
AcDbDictionary
281
     1
  0
ACDBDICTIONARYWDFLT
  5
E
102
{ACAD_REACTORS
330
C
102
}
330
C
100
AcDbDictionary
281
     1
  3
Normal
350
F
100
AcDbDictionaryWithDefault
340
F
  0
DICTIONARY
  5
47
102
{ACAD_REACTORS
330
C
102
}
330
C
100
AcDbDictionary
281
     1
  3
A0
350
48
  3
A1
350
49
  3
A2
350
4A
  3
A3
350
4B
  3
A4
350
4C
  3
A5
350
4D
  3
A6
350
4E
  3
A7
350
4F
  3
A8
350
50
  3
A9
350
51
  3
B0
350
52
  3
B1
350
53
  3
B2
350
54
  3
B3
350
55
  3
B4
350
56
  3
B5
350
57
  3
B6
350
58
  0
XRECORD
  5
1D9
102
{ACAD_REACTORS
330
C
102
}
330
C
100
AcDbXrecord
280
     1
  1
DWGPROPS COOKIE
  2

  3

  4

  6

  7

  8
user28
  9

300
=
301
=
302
=
303
=
304
=
305
=
306
=
307
=
308
=
309
=
 40
0.0
 41
2460376.17064316
 42
2460376.170643866
  1

 90
        0
  0
LAYOUT
  5
1E
102
{ACAD_REACTORS
330
1A
102
}
330
1A
100
AcDbPlotSettings
  1

  2
none_device
  4

  6

 40
0.0
 41
0.0
 42
0.0
 43
0.0
 44
0.0
 45
0.0
 46
0.0
 47
0.0
 48
0.0
 49
0.0
140
0.0
141
0.0
142
1.0
143
1.0
 70
   688
 72
     1
 73
     0
 74
     5
  7

 75
    16
147
1.0
148
0.0
149
0.0
100
AcDbLayout
  1
Layout1
 70
     1
 71
     1
 10
0.0
 20
0.0
 11
420.0
 21
297.0
 12
0.0
 22
0.0
 32
0.0
 14
1.0000000000E+20
 24
1.0000000000E+20
 34
1.0000000000E+20
 15
-1.0000000000E+20
 25
-1.0000000000E+20
 35
-1.0000000000E+20
146
0.0
 13
0.0
 23
0.0
 33
0.0
 16
1.0
 26
0.0
 36
0.0
 17
0.0
 27
1.0
 37
0.0
 76
     0
330
1B
  0
LAYOUT
  5
26
102
{ACAD_REACTORS
330
1A
102
}
330
1A
100
AcDbPlotSettings
  1

  2
none_device
  4

  6

 40
0.0
 41
0.0
 42
0.0
 43
0.0
 44
0.0
 45
0.0
 46
0.0
 47
0.0
 48
0.0
 49
0.0
140
0.0
141
0.0
142
1.0
143
1.0
 70
   688
 72
     1
 73
     0
 74
     5
  7

 75
    16
147
1.0
148
0.0
149
0.0
100
AcDbLayout
  1
Layout2
 70
     1
 71
     2
 10
0.0
 20
0.0
 11
0.0
 21
0.0
 12
0.0
 22
0.0
 32
0.0
 14
0.0
 24
0.0
 34
0.0
 15
0.0
 25
0.0
 35
0.0
146
0.0
 13
0.0
 23
0.0
 33
0.0
 16
1.0
 26
0.0
 36
0.0
 17
0.0
 27
1.0
 37
0.0
 76
     0
330
23
  0
LAYOUT
  5
22
102
{ACAD_REACTORS
330
1A
102
}
330
1A
100
AcDbPlotSettings
  1

  2
none_device
  4
Letter_(8.50_x_11.00_Inches)
  6

 40
6.35
 41
6.35
 42
6.35000508
 43
6.35000508
 44
215.9
 45
279.4
 46
0.0
 47
0.0
 48
0.0
 49
0.0
140
0.0
141
0.0
142
1.0
143
1.0
 70
  1712
 72
     1
 73
     0
 74
     0
  7

 75
     0
147
1.0
148
0.0
149
0.0
100
AcDbLayout
  1
Model
 70
     1
 71
     0
 10
0.0
 20
0.0
 11
297.0
 21
210.0
 12
0.0
 22
0.0
 32
0.0
 14
0.0
 24
0.0
 34
0.0
 15
297.0
 25
210.0
 35
0.0
146
0.0
 13
0.0
 23
0.0
 33
0.0
 16
1.0
 26
0.0
 36
0.0
 17
0.0
 27
1.0
 37
0.0
 76
     0
330
1F
331
29
  0
MLINESTYLE
  5
18
102
{ACAD_REACTORS
330
17
102
}
330
17
100
AcDbMlineStyle
  2
Standard
 70
     0
  3

 62
   256
 51
90.0
 52
90.0
 71
     2
 49
0.5
 62
   256
  6
BYLAYER
 49
-0.5
 62
   256
  6
BYLAYER
  0
ACDBPLACEHOLDER
  5
F
102
{ACAD_REACTORS
330
E
102
}
330
E
  0
SCALE
  5
48
102
{ACAD_REACTORS
330
47
102
}
330
47
100
AcDbScale
 70
     0
300
1:1
140
1.0
141
1.0
290
     1
  0
SCALE
  5
49
102
{ACAD_REACTORS
330
47
102
}
330
47
100
AcDbScale
 70
     0
300
1:2
140
1.0
141
2.0
290
     0
  0
SCALE
  5
4A
102
{ACAD_REACTORS
330
47
102
}
330
47
100
AcDbScale
 70
     0
300
1:4
140
1.0
141
4.0
290
     0
  0
SCALE
  5
4B
102
{ACAD_REACTORS
330
47
102
}
330
47
100
AcDbScale
 70
     0
300
1:5
140
1.0
141
5.0
290
     0
  0
SCALE
  5
4C
102
{ACAD_REACTORS
330
47
102
}
330
47
100
AcDbScale
 70
     0
300
1:8
140
1.0
141
8.0
290
     0
  0
SCALE
  5
4D
102
{ACAD_REACTORS
330
47
102
}
330
47
100
AcDbScale
 70
     0
300
1:10
140
1.0
141
10.0
290
     0
  0
SCALE
  5
4E
102
{ACAD_REACTORS
330
47
102
}
330
47
100
AcDbScale
 70
     0
300
1:16
140
1.0
141
16.0
290
     0
  0
SCALE
  5
4F
102
{ACAD_REACTORS
330
47
102
}
330
47
100
AcDbScale
 70
     0
300
1:20
140
1.0
141
20.0
290
     0
  0
SCALE
  5
50
102
{ACAD_REACTORS
330
47
102
}
330
47
100
AcDbScale
 70
     0
300
1:30
140
1.0
141
30.0
290
     0
  0
SCALE
  5
51
102
{ACAD_REACTORS
330
47
102
}
330
47
100
AcDbScale
 70
     0
300
1:40
140
1.0
141
40.0
290
     0
  0
SCALE
  5
52
102
{ACAD_REACTORS
330
47
102
}
330
47
100
AcDbScale
 70
     0
300
1:50
140
1.0
141
50.0
290
     0
  0
SCALE
  5
53
102
{ACAD_REACTORS
330
47
102
}
330
47
100
AcDbScale
 70
     0
300
1:100
140
1.0
141
100.0
290
     0
  0
SCALE
  5
54
102
{ACAD_REACTORS
330
47
102
}
330
47
100
AcDbScale
 70
     0
300
2:1
140
2.0
141
1.0
290
     0
  0
SCALE
  5
55
102
{ACAD_REACTORS
330
47
102
}
330
47
100
AcDbScale
 70
     0
300
4:1
140
4.0
141
1.0
290
     0
  0
SCALE
  5
56
102
{ACAD_REACTORS
330
47
102
}
330
47
100
AcDbScale
 70
     0
300
8:1
140
8.0
141
1.0
290
     0
  0
SCALE
  5
57
102
{ACAD_REACTORS
330
47
102
}
330
47
100
AcDbScale
 70
     0
300
10:1
140
10.0
141
1.0
290
     0
  0
SCALE
  5
58
102
{ACAD_REACTORS
330
47
102
}
330
47
100
AcDbScale
 70
     0
300
100:1
140
100.0
141
1.0
290
     0
  0
ENDSEC
  0
EOF
