  0
SECTION
  2
HEADER
  9
$ACADVER
  1
AC1015
  9
$ACADMAINTVER
 70
     6
  9
$DWGCODEPAGE
  3
DOS932
  9
$INSBASE
 10
0.0
 20
0.0
 30
0.0
  9
$EXTMIN
 10
0.0
 20
0.0
 30
0.0
  9
$EXTMAX
 10
297.0
 20
210.0
 30
0.0
  9
$LIMMIN
 10
0.0
 20
0.0
  9
$LIMMAX
 10
297.0
 20
210.0
  9
$ORTHOMODE
 70
     0
  9
$REGENMODE
 70
     1
  9
$FILLMODE
 70
     1
  9
$QTEXTMODE
 70
     0
  9
$MIRRTEXT
 70
     1
  9
$LTSCALE
 40
1.0
  9
$ATTMODE
 70
     1
  9
$TEXTSIZE
 40
3.5277777778
  9
$TRACEWID
 40
1.0
  9
$TEXTSTYLE
  7
Standard
  9
$CLAYER
  8
0
  9
$CELTYPE
  6
ByLayer
  9
$CECOLOR
 62
   256
  9
$CELTSCALE
 40
1.0
  9
$DISPSILH
 70
     0
  9
$DIMSCALE
 40
1.0
  9
$DIMASZ
 40
2.728515625
  9
$DIMEXO
 40
1.0
  9
$DIMDLI
 40
3.75
  9
$DIMRND
 40
0.0
  9
$DIMDLE
 40
0.0
  9
$DIMEXE
 40
1.0
  9
$DIMTP
 40
0.0
  9
$DIMTM
 40
0.0
  9
$DIMTXT
 40
3.5277777778
  9
$DIMCEN
 40
2.5
  9
$DIMTSZ
 40
0.0
  9
$DIMTOL
 70
     0
  9
$DIMLIM
 70
     0
  9
$DIMTIH
 70
     1
  9
$DIMTOH
 70
     1
  9
$DIMSE1
 70
     0
  9
$DIMSE2
 70
     0
  9
$DIMTAD
 70
     1
  9
$DIMZIN
 70
     0
  9
$DIMBLK
  1

  9
$DIMASO
 70
     1
  9
$DIMSHO
 70
     1
  9
$DIMPOST
  1

  9
$DIMAPOST
  1

  9
$DIMALT
 70
     0
  9
$DIMALTD
 70
     3
  9
$DIMALTF
 40
0.0393700787
  9
$DIMLFAC
 40
1.0
  9
$DIMTOFL
 70
     1
  9
$DIMTVP
 40
0.0
  9
$DIMTIX
 70
     0
  9
$DIMSOXD
 70
     0
  9
$DIMSAH
 70
     0
  9
$DIMBLK1
  1

  9
$DIMBLK2
  1

  9
$DIMSTYLE
  2
ISO-25
  9
$DIMCLRD
 70
     0
  9
$DIMCLRE
 70
     0
  9
$DIMCLRT
 70
     0
  9
$DIMTFAC
 40
1.0
  9
$DIMGAP
 40
1.524
  9
$DIMJUST
 70
     0
  9
$DIMSD1
 70
     0
  9
$DIMSD2
 70
     0
  9
$DIMTOLJ
 70
     0
  9
$DIMTZIN
 70
     0
  9
$DIMALTZ
 70
     0
  9
$DIMALTTZ
 70
     0
  9
$DIMUPT
 70
     0
  9
$DIMDEC
 70
     2
  9
$DIMTDEC
 70
     2
  9
$DIMALTU
 70
     2
  9
$DIMALTTD
 70
     3
  9
$DIMTXSTY
  7
Standard
  9
$DIMAUNIT
 70
     0
  9
$DIMADEC
 70
     2
  9
$DIMALTRND
 40
0.0
  9
$DIMAZIN
 70
     0
  9
$DIMDSEP
 70
    44
  9
$DIMATFIT
 70
     3
  9
$DIMFRAC
 70
     0
  9
$DIMLDRBLK
  1

  9
$DIMLUNIT
 70
     2
  9
$DIMLWD
 70
    -2
  9
$DIMLWE
 70
    -2
  9
$DIMTMOVE
 70
     0
  9
$LUNITS
 70
     2
  9
$LUPREC
 70
     2
  9
$SKETCHINC
 40
1.0
  9
$FILLETRAD
 40
0.0
  9
$AUNITS
 70
     0
  9
$AUPREC
 70
     2
  9
$MENU
  1
.
  9
$ELEVATION
 40
0.0
  9
$PELEVATION
 40
0.0
  9
$THICKNESS
 40
0.0
  9
$LIMCHECK
 70
     0
  9
$CHAMFERA
 40
0.0
  9
$CHAMFERB
 40
0.0
  9
$CHAMFERC
 40
0.0
  9
$CHAMFERD
 40
0.0
  9
$SKPOLY
 70
     0
  9
$TDCREATE
 40
2460376.543561319
  9
$TDUCREATE
 40
2460376.168561319
  9
$TDUPDATE
 40
2460376.543562118
  9
$TDUUPDATE
 40
2460376.168562118
  9
$TDINDWG
 40
0.0000000116
  9
$TDUSRTIMER
 40
0.0000000116
  9
$USRTIMER
 70
     1
  9
$ANGBASE
 50
0.0
  9
$ANGDIR
 70
     0
  9
$PDMODE
 70
     0
  9
$PDSIZE
 40
-1.0
  9
$PLINEWID
 40
0.0
  9
$SPLFRAME
 70
     0
  9
$SPLINETYPE
 70
     6
  9
$SPLINESEGS
 70
     8
  9
$HANDSEED
  5
275
  9
$SURFTAB1
 70
     6
  9
$SURFTAB2
 70
     6
  9
$SURFTYPE
 70
     6
  9
$SURFU
 70
     6
  9
$SURFV
 70
     6
  9
$UCSBASE
  2

  9
$UCSNAME
  2

  9
$UCSORG
 10
0.0
 20
0.0
 30
0.0
  9
$UCSXDIR
 10
1.0
 20
0.0
 30
0.0
  9
$UCSYDIR
 10
0.0
 20
1.0
 30
0.0
  9
$UCSORTHOREF
  2

  9
$UCSORTHOVIEW
 70
     0
  9
$UCSORGTOP
 10
0.0
 20
0.0
 30
0.0
  9
$UCSORGBOTTOM
 10
0.0
 20
0.0
 30
0.0
  9
$UCSORGLEFT
 10
0.0
 20
0.0
 30
0.0
  9
$UCSORGRIGHT
 10
0.0
 20
0.0
 30
0.0
  9
$UCSORGFRONT
 10
0.0
 20
0.0
 30
0.0
  9
$UCSORGBACK
 10
0.0
 20
0.0
 30
0.0
  9
$PUCSBASE
  2

  9
$PUCSNAME
  2

  9
$PUCSORG
 10
0.0
 20
0.0
 30
0.0
  9
$PUCSXDIR
 10
1.0
 20
0.0
 30
0.0
  9
$PUCSYDIR
 10
0.0
 20
1.0
 30
0.0
  9
$PUCSORTHOREF
  2

  9
$PUCSORTHOVIEW
 70
     0
  9
$PUCSORGTOP
 10
0.0
 20
0.0
 30
0.0
  9
$PUCSORGBOTTOM
 10
0.0
 20
0.0
 30
0.0
  9
$PUCSORGLEFT
 10
0.0
 20
0.0
 30
0.0
  9
$PUCSORGRIGHT
 10
0.0
 20
0.0
 30
0.0
  9
$PUCSORGFRONT
 10
0.0
 20
0.0
 30
0.0
  9
$PUCSORGBACK
 10
0.0
 20
0.0
 30
0.0
  9
$USERI1
 70
     0
  9
$USERI2
 70
     0
  9
$USERI3
 70
     0
  9
$USERI4
 70
     0
  9
$USERI5
 70
     0
  9
$USERR1
 40
0.0
  9
$USERR2
 40
0.0
  9
$USERR3
 40
0.0
  9
$USERR4
 40
0.0
  9
$USERR5
 40
0.0
  9
$WORLDVIEW
 70
     1
  9
$SHADEDGE
 70
     3
  9
$SHADEDIF
 70
    70
  9
$TILEMODE
 70
     1
  9
$MAXACTVP
 70
    64
  9
$PINSBASE
 10
0.0
 20
0.0
 30
0.0
  9
$PLIMCHECK
 70
     0
  9
$PEXTMIN
 10
1.0000000000E+20
 20
1.0000000000E+20
 30
1.0000000000E+20
  9
$PEXTMAX
 10
-1.0000000000E+20
 20
-1.0000000000E+20
 30
-1.0000000000E+20
  9
$PLIMMIN
 10
0.0
 20
0.0
  9
$PLIMMAX
 10
420.0
 20
297.0
  9
$UNITMODE
 70
     0
  9
$VISRETAIN
 70
     1
  9
$PLINEGEN
 70
     0
  9
$PSLTSCALE
 70
     1
  9
$TREEDEPTH
 70
  3020
  9
$CMLSTYLE
  2
Standard
  9
$CMLJUST
 70
     0
  9
$CMLSCALE
 40
20.0
  9
$PROXYGRAPHICS
 70
     1
  9
$MEASUREMENT
 70
     1
  9
$CELWEIGHT
370
    -1
  9
$ENDCAPS
280
     0
  9
$JOINSTYLE
280
     0
  9
$LWDISPLAY
290
     1
  9
$INSUNITS
 70
     4
  9
$HYPERLINKBASE
  1

  9
$STYLESHEET
  1

  9
$XEDIT
290
     1
  9
$CEPSNTYPE
380
     0
  9
$PSTYLEMODE
290
     1
  9
$FINGERPRINTGUID
  2
{f03eedf0-613c-433a-acdb-d13e9ae19cf6}
  9
$VERSIONGUID
  2
{FAEB1C32-E019-11D5-929B-00C0DF256EC4}
  9
$EXTNAMES
290
     1
  9
$PSVPSCALE
 40
0.0
  9
$OLESTARTUP
290
     0
  0
ENDSEC
  0
SECTION
  2
CLASSES
  0
CLASS
  1
ACDBDICTIONARYWDFLT
  2
AcDbDictionaryWithDefault
  3
ObjectDBX Classes
 90
        0
280
     0
281
     0
  0
CLASS
  1
VISUALSTYLE
  2
AcDbVisualStyle
  3
ObjectDBX Classes
 90
     4095
280
     0
281
     0
  0
CLASS
  1
MATERIAL
  2
AcDbMaterial
  3
ObjectDBX Classes
 90
     1153
280
     0
281
     0
  0
CLASS
  1
SCALE
  2
AcDbScale
  3
ObjectDBX Classes
 90
     1153
280
     0
281
     0
  0
CLASS
  1
TABLESTYLE
  2
AcDbTableStyle
  3
ObjectDBX Classes
 90
     4095
280
     0
281
     0
  0
CLASS
  1
MLEADERSTYLE
  2
AcDbMLeaderStyle
  3
ACDB_MLEADERSTYLE_CLASS
 90
     4095
280
     0
281
     0
  0
CLASS
  1
SUN
  2
AcDbSun
  3
SCENEOE
 90
     1153
280
     0
281
     0
  0
CLASS
  1
ACDBPLACEHOLDER
  2
AcDbPlaceHolder
  3
ObjectDBX Classes
 90
        0
280
     0
281
     0
  0
CLASS
  1
LAYOUT
  2
AcDbLayout
  3
ObjectDBX Classes
 90
        0
280
     0
281
     0
  0
ENDSEC
  0
SECTION
  2
TABLES
  0
TABLE
  2
VPORT
  5
8
330
0
100
AcDbSymbolTable
 70
     1
  0
VPORT
  5
29
330
8
100
AcDbSymbolTableRecord
100
AcDbViewportTableRecord
  2
*Active
 70
     0
 10
0.0
 20
0.0
 11
1.0
 21
1.0
 12
148.5
 22
105.0
 13
0.0
 23
0.0
 14
10.0
 24
10.0
 15
10.0
 25
10.0
 16
0.0
 26
0.0
 36
1.0
 17
0.0
 27
0.0
 37
0.0
 40
210.0
 41
1.4142857143
 42
50.0
 43
0.0
 44
0.0
 50
0.0
 51
0.0
 71
     0
 72
  2000
 73
     1
 74
     3
 75
     0
 76
     0
 77
     0
 78
     0
281
     0
 65
     1
110
0.0
120
0.0
130
0.0
111
1.0
121
0.0
131
0.0
112
0.0
122
1.0
132
0.0
 79
     0
146
0.0
  0
ENDTAB
  0
TABLE
  2
LTYPE
  5
5
330
0
100
AcDbSymbolTable
 70
     6
  0
LTYPE
  5
14
330
5
100
AcDbSymbolTableRecord
100
AcDbLinetypeTableRecord
  2
ByBlock
 70
     0
  3

 72
    65
 73
     0
 40
0.0
  0
LTYPE
  5
15
330
5
100
AcDbSymbolTableRecord
100
AcDbLinetypeTableRecord
  2
ByLayer
 70
     0
  3

 72
    65
 73
     0
 40
0.0
  0
LTYPE
  5
16
330
5
100
AcDbSymbolTableRecord
100
AcDbLinetypeTableRecord
  2
Continuous
 70
     0
  3
Solid line
 72
    65
 73
     0
 40
0.0
  0
LTYPE
  5
5E
330
5
100
AcDbSymbolTableRecord
100
AcDbLinetypeTableRecord
  2
HIDDEN
 70
     0
  3
Hidden __ __ __ __ __ __ __ __ __ __ __ __ __ __
 72
    65
 73
     2
 40
1.905
 49
1.27
 74
     0
 49
-0.635
 74
     0
  0
LTYPE
  5
5F
330
5
100
AcDbSymbolTableRecord
100
AcDbLinetypeTableRecord
  2
PHANTOM
 70
     0
  3
Phantom ______  __  __  ______  __  __  ______
 72
    65
 73
     6
 40
12.7
 49
6.35
 74
     0
 49
-1.27
 74
     0
 49
1.27
 74
     0
 49
-1.27
 74
     0
 49
1.27
 74
     0
 49
-1.27
 74
     0
  0
LTYPE
  5
60
330
5
100
AcDbSymbolTableRecord
100
AcDbLinetypeTableRecord
  2
CENTER
 70
     0
  3
Center ____ _ ____ _ ____ _ ____ _ ____ _ ____
 72
    65
 73
     4
 40
10.16
 49
6.35
 74
     0
 49
-1.27
 74
     0
 49
1.27
 74
     0
 49
-1.27
 74
     0
  0
LTYPE
  5
61
330
5
100
AcDbSymbolTableRecord
100
AcDbLinetypeTableRecord
  2
CENTERX2
 70
     0
  3
Center (2x) ________  __  ________  __  _____
 72
    65
 73
     4
 40
20.32
 49
12.7
 74
     0
 49
-2.54
 74
     0
 49
2.54
 74
     0
 49
-2.54
 74
     0
  0
LTYPE
  5
62
330
5
100
AcDbSymbolTableRecord
100
AcDbLinetypeTableRecord
  2
DOT2
 70
     0
  3
Dot (.5x) ........................................
 72
    65
 73
     2
 40
0.635
 49
0.0
 74
     0
 49
-0.635
 74
     0
  0
ENDTAB
  0
TABLE
  2
LAYER
  5
2
330
0
100
AcDbSymbolTable
 70
     2
  0
LAYER
  5
10
330
2
100
AcDbSymbolTableRecord
100
AcDbLayerTableRecord
  2
0
 70
     0
 62
     7
  6
Continuous
370
    -3
390
F
  0
LAYER
  5
63
330
2
100
AcDbSymbolTableRecord
100
AcDbLayerTableRecord
  2
FORMAT
 70
     0
 62
     7
  6
Continuous
370
    -3
390
F
  0
ENDTAB
  0
TABLE
  2
STYLE
  5
3
330
0
100
AcDbSymbolTable
 70
     2
  0
STYLE
  5
11
330
3
100
AcDbSymbolTableRecord
100
AcDbTextStyleTableRecord
  2
Standard
 70
     0
 40
0.0
 41
1.0
 50
0.0
 71
     0
 42
3.5277777778
  3
txt
  4
bigfont
  0
STYLE
  5
64
330
3
100
AcDbSymbolTableRecord
100
AcDbTextStyleTableRecord
  2
SLDTEXTSTYLE0
 70
     0
 40
0.0
 41
0.7
 50
0.0
 71
     0
 42
3.5277777778
  3
TXT
  4
bigfont
  0
ENDTAB
  0
TABLE
  2
VIEW
  5
6
330
0
100
AcDbSymbolTable
 70
     0
  0
ENDTAB
  0
TABLE
  2
UCS
  5
7
330
0
100
AcDbSymbolTable
 70
     0
  0
ENDTAB
  0
TABLE
  2
APPID
  5
9
330
0
100
AcDbSymbolTable
 70
     1
  0
APPID
  5
12
330
9
100
AcDbSymbolTableRecord
100
AcDbRegAppTableRecord
  2
ACAD
 70
     0
  0
ENDTAB
  0
TABLE
  2
DIMSTYLE
  5
A
330
0
100
AcDbSymbolTable
 70
     1
100
AcDbDimStyleTable
  0
DIMSTYLE
105
27
330
A
100
AcDbSymbolTableRecord
100
AcDbDimStyleTableRecord
  2
ISO-25
 70
     0
 41
2.5
 42
0.625
 43
3.75
 44
1.25
 73
     0
 74
     0
 77
     1
 78
     8
140
2.5
141
2.5
143
0.0393700787
147
0.625
171
     3
172
     1
178
     0
271
     2
272
     2
274
     3
278
    44
283
     0
284
     8
340
11
  0
ENDTAB
  0
TABLE
  2
BLOCK_RECORD
  5
1
330
0
100
AcDbSymbolTable
 70
     3
  0
BLOCK_RECORD
  5
1F
330
1
100
AcDbSymbolTableRecord
100
AcDbBlockTableRecord
  2
*Model_Space
340
22
  0
BLOCK_RECORD
  5
1B
330
1
100
AcDbSymbolTableRecord
100
AcDbBlockTableRecord
  2
*Paper_Space
340
1E
  0
BLOCK_RECORD
  5
23
330
1
100
AcDbSymbolTableRecord
100
AcDbBlockTableRecord
  2
*Paper_Space0
340
26
  0
BLOCK_RECORD
  5
182
330
1
100
AcDbSymbolTableRecord
100
AcDbBlockTableRecord
  2
SW_CENTERMARKSYMBOL_0
340
0
102
{BLKREFS
331
18D
102
}
  0
BLOCK_RECORD
  5
264
330
1
100
AcDbSymbolTableRecord
100
AcDbBlockTableRecord
  2
SW_CENTERMARKSYMBOL_1
340
0
102
{BLKREFS
331
26F
102
}
  0
ENDTAB
  0
ENDSEC
  0
SECTION
  2
BLOCKS
  0
BLOCK
  5
20
330
1F
100
AcDbEntity
  8
0
100
AcDbBlockBegin
  2
*Model_Space
 70
     0
 10
0.0
 20
0.0
 30
0.0
  3
*Model_Space
  1

  0
ENDBLK
  5
21
330
1F
100
AcDbEntity
  8
0
100
AcDbBlockEnd
  0
BLOCK
  5
1C
330
1B
100
AcDbEntity
 67
     1
  8
0
100
AcDbBlockBegin
  2
*Paper_Space
 70
     0
 10
0.0
 20
0.0
 30
0.0
  3
*Paper_Space
  1

  0
ENDBLK
  5
1D
330
1B
100
AcDbEntity
 67
     1
  8
0
100
AcDbBlockEnd
  0
BLOCK
  5
24
330
23
100
AcDbEntity
  8
0
100
AcDbBlockBegin
  2
*Paper_Space0
 70
     0
 10
0.0
 20
0.0
 30
0.0
  3
*Paper_Space0
  1

  0
ENDBLK
  5
25
330
23
100
AcDbEntity
  8
0
100
AcDbBlockEnd
  0
BLOCK
  5
183
330
182
100
AcDbEntity
  8
0
100
AcDbBlockBegin
  2
SW_CENTERMARKSYMBOL_0
 70
     0
 10
0.0
 20
0.0
 30
0.0
  3
SW_CENTERMARKSYMBOL_0
  1

  0
LINE
  5
185
330
182
100
AcDbEntity
  8
FORMAT
 62
     0
100
AcDbLine
 10
0.0
 20
0.0
 30
0.0
 11
0.0
 21
2.5
 31
0.0
  0
LINE
  5
186
330
182
100
AcDbEntity
  8
FORMAT
 62
     0
100
AcDbLine
 10
0.0
 20
0.0
 30
0.0
 11
-2.5
 21
0.0
 31
0.0
  0
LINE
  5
187
330
182
100
AcDbEntity
  8
FORMAT
 62
     0
100
AcDbLine
 10
0.0
 20
0.0
 30
0.0
 11
0.0
 21
-2.5
 31
0.0
  0
LINE
  5
188
330
182
100
AcDbEntity
  8
FORMAT
 62
     0
100
AcDbLine
 10
0.0
 20
0.0
 30
0.0
 11
2.5
 21
0.0
 31
0.0
  0
LINE
  5
189
330
182
100
AcDbEntity
  8
FORMAT
 62
     0
100
AcDbLine
 10
0.0
 20
5.0
 30
0.0
 11
0.0
 21
25.1977893691
 31
0.0
  0
LINE
  5
18A
330
182
100
AcDbEntity
  8
FORMAT
 62
     0
100
AcDbLine
 10
-5.0
 20
0.0
 30
0.0
 11
-12.55
 21
0.0
 31
0.0
  0
LINE
  5
18B
330
182
100
AcDbEntity
  8
FORMAT
 62
     0
100
AcDbLine
 10
0.0
 20
-5.0
 30
0.0
 11
0.0
 21
-13.2451547744
 31
0.0
  0
LINE
  5
18C
330
182
100
AcDbEntity
  8
FORMAT
 62
     0
100
AcDbLine
 10
5.0
 20
0.0
 30
0.0
 11
12.55
 21
0.0
 31
0.0
  0
ENDBLK
  5
184
330
182
100
AcDbEntity
  8
0
100
AcDbBlockEnd
  0
BLOCK
  5
265
330
264
100
AcDbEntity
  8
0
100
AcDbBlockBegin
  2
SW_CENTERMARKSYMBOL_1
 70
     0
 10
0.0
 20
0.0
 30
0.0
  3
SW_CENTERMARKSYMBOL_1
  1

  0
LINE
  5
267
330
264
100
AcDbEntity
  8
FORMAT
 62
     0
100
AcDbLine
 10
0.0
 20
0.0
 30
0.0
 11
0.0
 21
2.5
 31
0.0
  0
LINE
  5
268
330
264
100
AcDbEntity
  8
FORMAT
 62
     0
100
AcDbLine
 10
0.0
 20
0.0
 30
0.0
 11
-2.5
 21
0.0
 31
0.0
  0
LINE
  5
269
330
264
100
AcDbEntity
  8
FORMAT
 62
     0
100
AcDbLine
 10
0.0
 20
0.0
 30
0.0
 11
0.0
 21
-2.5
 31
0.0
  0
LINE
  5
26A
330
264
100
AcDbEntity
  8
FORMAT
 62
     0
100
AcDbLine
 10
0.0
 20
0.0
 30
0.0
 11
2.5
 21
0.0
 31
0.0
  0
LINE
  5
26B
330
264
100
AcDbEntity
  8
FORMAT
 62
     0
100
AcDbLine
 10
0.0
 20
5.0
 30
0.0
 11
0.0
 21
9.5
 31
0.0
  0
LINE
  5
26C
330
264
100
AcDbEntity
  8
FORMAT
 62
     0
100
AcDbLine
 10
-5.0
 20
0.0
 30
0.0
 11
-9.5
 21
0.0
 31
0.0
  0
LINE
  5
26D
330
264
100
AcDbEntity
  8
FORMAT
 62
     0
100
AcDbLine
 10
0.0
 20
-5.0
 30
0.0
 11
0.0
 21
-9.5
 31
0.0
  0
LINE
  5
26E
330
264
100
AcDbEntity
  8
FORMAT
 62
     0
100
AcDbLine
 10
5.0
 20
0.0
 30
0.0
 11
31.0303989738
 21
0.0
 31
0.0
  0
ENDBLK
  5
266
330
264
100
AcDbEntity
  8
0
100
AcDbBlockEnd
  0
ENDSEC
  0
SECTION
  2
ENTITIES
  0
MTEXT
  5
65
330
1F
100
AcDbEntity
  8
FORMAT
100
AcDbMText
 10
125.7068693484
 20
97.4064331445
 30
0.0
 40
3.7041666667
 41
0.0
 71
     2
 72
     1
  1
5R-RL1210
  7
SLDTEXTSTYLE0
 73
     1
 44
1.0
  0
LINE
  5
66
330
1F
100
AcDbEntity
  8
0
  6
Continuous
 62
     7
370
    25
100
AcDbLine
 10
107.8551313928
 20
74.3322609622
 30
0.0
 11
106.772971652
 21
72.4579053092
 31
0.0
  0
LINE
  5
67
330
1F
100
AcDbEntity
  8
0
  6
Continuous
 62
     7
370
    25
100
AcDbLine
 10
106.772971652
 20
51.9579053092
 30
0.0
 11
107.8551313928
 21
50.0835496562
 31
0.0
  0
LINE
  5
68
330
1F
100
AcDbEntity
  8
0
  6
Continuous
 62
     7
370
    25
100
AcDbLine
 10
121.572971652
 20
72.4579053092
 30
0.0
 11
120.8503219212
 21
72.4579053092
 31
0.0
  0
LINE
  5
69
330
1F
100
AcDbEntity
  8
0
  6
Continuous
 62
     7
370
    25
100
AcDbLine
 10
120.8503219212
 20
51.9579053092
 30
0.0
 11
121.572971652
 21
51.9579053092
 31
0.0
  0
LINE
  5
6A
330
1F
100
AcDbEntity
  8
0
  6
Continuous
 62
     7
370
    25
100
AcDbLine
 10
121.572971652
 20
51.9579053092
 30
0.0
 11
121.772971652
 21
52.1579053092
 31
0.0
  0
LINE
  5
6B
330
1F
100
AcDbEntity
  8
0
  6
Continuous
 62
     7
370
    25
100
AcDbLine
 10
121.772971652
 20
72.2579053092
 30
0.0
 11
121.572971652
 21
72.4579053092
 31
0.0
  0
LINE
  5
6C
330
1F
100
AcDbEntity
  8
0
  6
Continuous
 62
     7
370
    25
100
AcDbLine
 10
119.9842965174
 20
72.9579053092
 30
0.0
 11
119.1908119112
 21
74.3322609622
 31
0.0
  0
ARC
  5
6D
330
1F
100
AcDbEntity
  8
0
  6
Continuous
 62
     7
370
    25
100
AcDbCircle
 10
120.8503219212
 20
73.4579053092
 30
0.0
 40
1.000000000000008
100
AcDbArc
 50
210.0
 51
270.0
  0
ARC
  5
6E
330
1F
100
AcDbEntity
  8
0
  6
Continuous
 62
     7
370
    25
100
AcDbCircle
 10
120.8503219212
 20
50.9579053092
 30
0.0
 40
1.000000000000008
100
AcDbArc
 50
90.0
 51
150.0
  0
LINE
  5
6F
330
1F
100
AcDbEntity
  8
0
  6
Continuous
 62
     7
370
    25
100
AcDbLine
 10
119.1908119112
 20
50.0835496562
 30
0.0
 11
119.9842965174
 21
51.4579053092
 31
0.0
  0
ARC
  5
70
330
1F
100
AcDbEntity
  8
0
  6
Continuous
 62
     7
370
    25
100
AcDbCircle
 10
105.193771997
 20
70.2079053092
 30
0.0
 40
1.000000000000003
100
AcDbArc
 50
160.6705173466
 51
180.0
  0
ARC
  5
71
330
1F
100
AcDbEntity
  8
0
  6
Continuous
 62
     7
370
    25
100
AcDbCircle
 10
105.193771997
 20
54.2079053092
 30
0.0
 40
1.000000000000001
100
AcDbArc
 50
180.0
 51
199.3294826534
  0
LINE
  5
72
330
1F
100
AcDbEntity
  8
0
  6
Continuous
 62
     7
370
    25
100
AcDbLine
 10
106.772971652
 20
70.5389053092
 30
0.0
 11
104.2501412429
 21
70.5389053092
 31
0.0
  0
LINE
  5
73
330
1F
100
AcDbEntity
  8
0
  6
Continuous
 62
     7
370
    25
100
AcDbLine
 10
104.2501412429
 20
53.8769053092
 30
0.0
 11
106.772971652
 21
53.8769053092
 31
0.0
  0
ARC
  5
74
330
1F
100
AcDbEntity
  8
0
  6
Continuous
 62
     7
370
    25
100
AcDbCircle
 10
103.193771997
 20
70.2079053092
 30
0.0
 40
1.0
100
AcDbArc
 50
270.0
 51
0.0
  0
ARC
  5
75
330
1F
100
AcDbEntity
  8
0
  6
Continuous
 62
     7
370
    25
100
AcDbCircle
 10
103.193771997
 20
54.2079053092
 30
0.0
 40
1.0
100
AcDbArc
 50
0.0
 51
90.0
  0
LINE
  5
76
330
1F
100
AcDbEntity
  8
0
  6
Continuous
 62
     7
370
    25
100
AcDbLine
 10
99.193771997
 20
69.2079053092
 30
0.0
 11
99.193771997
 21
72.2079053092
 31
0.0
  0
LINE
  5
77
330
1F
100
AcDbEntity
  8
0
  6
Continuous
 62
     7
370
    25
100
AcDbLine
 10
85.193771997
 20
72.2079053092
 30
0.0
 11
85.193771997
 21
57.2079053092
 31
0.0
  0
LINE
  5
78
330
1F
100
AcDbEntity
  8
0
  6
Continuous
 62
     7
370
    25
100
AcDbLine
 10
87.193771997
 20
55.2079053092
 30
0.0
 11
103.193771997
 21
55.2079053092
 31
0.0
  0
LINE
  5
79
330
1F
100
AcDbEntity
  8
0
  6
Continuous
 62
     7
370
    25
100
AcDbLine
 10
103.193771997
 20
69.2079053092
 30
0.0
 11
99.193771997
 21
69.2079053092
 31
0.0
  0
LINE
  5
7A
330
1F
100
AcDbEntity
  8
0
  6
Continuous
 62
     7
370
    25
100
AcDbLine
 10
99.021959497
 20
72.2079053092
 30
0.0
 11
98.646959497
 21
84.2079053092
 31
0.0
  0
LINE
  5
7B
330
1F
100
AcDbEntity
  8
0
  6
Continuous
 62
     7
370
    25
100
AcDbLine
 10
85.740584497
 20
84.2079053092
 30
0.0
 11
85.365584497
 21
72.2079053092
 31
0.0
  0
LINE
  5
7C
330
1F
100
AcDbEntity
  8
0
  6
Continuous
 62
     7
370
    25
100
AcDbLine
 10
98.5984725353
 20
84.2079053092
 30
0.0
 11
97.443771997
 21
86.2079053092
 31
0.0
  0
LINE
  5
7D
330
1F
100
AcDbEntity
  8
0
  6
Continuous
 62
     7
370
    25
100
AcDbLine
 10
86.943771997
 20
86.2079053092
 30
0.0
 11
85.7890714586
 21
84.2079053092
 31
0.0
  0
ARC
  5
7E
330
1F
100
AcDbEntity
  8
0
  6
Continuous
 62
     7
370
    25
100
AcDbCircle
 10
87.193771997
 20
57.2079053092
 30
0.0
 40
2.000000000000002
100
AcDbArc
 50
179.9454788421
 51
270.0502095449
  0
SPLINE
  5
7F
330
1F
100
AcDbEntity
  8
0
  6
Continuous
 62
     7
370
    25
100
AcDbSpline
210
0.0
220
0.0
230
1.0
 70
     8
 71
     3
 72
    10
 73
     6
 74
     0
 42
0.00000001
 43
0.00000001
 40
0.0
 40
0.0
 40
0.0
 40
0.0
 40
0.3258684952272098
 40
0.6527960511516884
 40
1.0
 40
1.0
 40
1.0
 40
1.0
 10
119.9842965174113
 20
59.90301919484679
 30
0.0
 10
119.92527956182
 20
59.48959958768695
 30
0.0
 10
119.8070538476892
 20
58.66141677475666
 30
0.0
 10
119.537589787048
 20
57.40763747932186
 30
0.0
 10
119.3086993765187
 20
56.57471497388191
 30
0.0
 10
119.1908119111997
 20
56.14572748267891
 30
0.0
  0
LINE
  5
80
330
1F
100
AcDbEntity
  8
0
  6
Continuous
 62
     7
370
    25
100
AcDbLine
 10
119.9842965174
 20
54.2670816266
 30
0.0
 11
119.9842965174
 21
59.9030191948
 31
0.0
  0
SPLINE
  5
81
330
1F
100
AcDbEntity
  8
0
  6
Continuous
 62
     7
370
    25
100
AcDbSpline
210
0.0
220
0.0
230
1.0
 70
     8
 71
     3
 72
    10
 73
     6
 74
     0
 42
0.00000001
 43
0.00000001
 40
0.0
 40
0.0
 40
0.0
 40
0.0
 40
0.4984982470945959
 40
0.7492571451420811
 40
1.0
 40
1.0
 40
1.0
 40
1.0
 10
119.1908119111997
 20
56.14572748267891
 30
0.0
 10
119.3573385270663
 20
55.83730460679988
 30
0.0
 10
119.6076328009611
 20
55.37373618940925
 30
0.0
 10
119.8520222767126
 20
54.74446881227857
 30
0.0
 10
119.9402060441867
 20
54.42620729472947
 30
0.0
 10
119.9842965174113
 20
54.26708162659501
 30
0.0
  0
SPLINE
  5
82
330
1F
100
AcDbEntity
  8
0
  6
Continuous
 62
     7
370
    25
100
AcDbSpline
210
0.0
220
0.0
230
1.0
 70
     8
 71
     3
 72
    11
 73
     7
 74
     0
 42
0.00000001
 43
0.00000001
 40
0.0
 40
0.0
 40
0.0
 40
0.0
 40
0.2491624812892785
 40
0.4983406089177418
 40
0.7491635688579431
 40
0.9999999999999999
 40
0.9999999999999999
 40
0.9999999999999999
 40
0.9999999999999999
 10
119.9842965174113
 20
70.14872899174505
 30
0.0
 10
119.9406884214247
 20
69.99056824292514
 30
0.0
 10
119.8534694910495
 20
69.67423681346612
 30
0.0
 10
119.6680563933019
 20
69.20310858841022
 30
0.0
 10
119.4502195845577
 20
68.73445230699697
 30
0.0
 10
119.277282683627
 20
68.42487563048981
 30
0.0
 10
119.1908119111997
 20
68.2700831356611
 30
0.0
  0
LINE
  5
83
330
1F
100
AcDbEntity
  8
0
  6
Continuous
 62
     7
370
    25
100
AcDbLine
 10
119.9842965174
 20
64.5127914235
 30
0.0
 11
119.9842965174
 21
70.1487289917
 31
0.0
  0
SPLINE
  5
84
330
1F
100
AcDbEntity
  8
0
  6
Continuous
 62
     7
370
    25
100
AcDbSpline
210
0.0
220
0.0
230
1.0
 70
     8
 71
     3
 72
    10
 73
     6
 74
     0
 42
0.00000001
 43
0.00000001
 40
0.0
 40
0.0
 40
0.0
 40
0.0
 40
0.4984982470945969
 40
0.7492571451420821
 40
1.0
 40
1.0
 40
1.0
 40
1.0
 10
119.1908119111997
 20
68.2700831356611
 30
0.0
 10
119.3573385270663
 20
67.653237383903
 30
0.0
 10
119.6076328009611
 20
66.72610054912174
 30
0.0
 10
119.8520222767126
 20
65.46756579486038
 30
0.0
 10
119.9402060441867
 20
64.83104275976216
 30
0.0
 10
119.9842965174113
 20
64.51279142349325
 30
0.0
  0
SPLINE
  5
85
330
1F
100
AcDbEntity
  8
0
  6
Continuous
 62
     7
370
    25
100
AcDbSpline
210
0.0
220
0.0
230
1.0
 70
     8
 71
     3
 72
    16
 73
    12
 74
     0
 42
0.00000001
 43
0.00000001
 40
0.0
 40
0.0
 40
0.0
 40
0.0
 40
0.1322996825587257
 40
0.2645619585584918
 40
0.3546998975276411
 40
0.4449068940618417
 40
0.5350279613378792
 40
0.6502124383324805
 40
0.7654148828573636
 40
0.8826961023800923
 40
0.9999999999999999
 40
0.9999999999999999
 40
0.9999999999999999
 40
0.9999999999999999
 10
107.8551313928124
 20
68.2700831356611
 30
0.0
 10
107.712349574884
 20
68.53198896934957
 30
0.0
 10
107.4268263093167
 20
69.05572658518068
 30
0.0
 10
107.154535628204
 20
69.77138402915259
 30
0.0
 10
106.9941905976261
 20
70.40786776184204
 30
0.0
 10
106.9194698963191
 20
70.96176557249177
 30
0.0
 10
106.9100876301167
 20
71.5682967924058
 30
0.0
 10
106.9933569749157
 20
72.2251518393757
 30
0.0
 10
107.1877840027096
 20
72.93216766423602
 30
0.0
 10
107.4730206348038
 20
73.63600632882965
 30
0.0
 10
107.7277529315463
 20
74.100161127266
 30
0.0
 10
107.8551313928124
 20
74.33226096215219
 30
0.0
  0
SPLINE
  5
86
330
1F
100
AcDbEntity
  8
0
  6
Continuous
 62
     7
370
    25
100
AcDbSpline
210
0.0
220
0.0
230
1.0
 70
     8
 71
     3
 72
    16
 73
    12
 74
     0
 42
0.00000001
 43
0.00000001
 40
0.0
 40
0.0
 40
0.0
 40
0.0
 40
0.1151108105905589
 40
0.2406803956034897
 40
0.366217666915262
 40
0.494847722290026
 40
0.6234766707927398
 40
0.7171032364566066
 40
0.810739512423133
 40
0.9053651295077384
 40
1.0
 40
1.0
 40
1.0
 40
1.0
 10
107.8551313928124
 20
56.14572748267891
 30
0.0
 10
107.730006963234
 20
56.60120458555401
 30
0.0
 10
107.468389509095
 20
57.55354267392203
 30
0.0
 10
107.1718445827774
 20
59.02785156911526
 30
0.0
 10
106.9680554928377
 20
60.57378163544857
 30
0.0
 10
106.8954375783147
 20
62.14458150668262
 30
0.0
 10
106.9522446070664
 20
63.58482226453103
 30
0.0
 10
107.0987652305216
 20
64.873238333196
 30
0.0
 10
107.2938140463956
 20
66.0136192514753
 30
0.0
 10
107.5439901244304
 20
67.1475433510854
 30
0.0
 10
107.7514142561942
 20
67.89589101128735
 30
0.0
 10
107.8551313928124
 20
68.2700831356611
 30
0.0
  0
SPLINE
  5
87
330
1F
100
AcDbEntity
  8
0
  6
Continuous
 62
     7
370
    25
100
AcDbSpline
210
0.0
220
0.0
230
1.0
 70
     8
 71
     3
 72
    16
 73
    12
 74
     0
 42
0.00000001
 43
0.00000001
 40
0.0
 40
0.0
 40
0.0
 40
0.0
 40
0.1322996825587259
 40
0.2645619585584918
 40
0.354699897527641
 40
0.4449068940618417
 40
0.5350279613378793
 40
0.6502124383324805
 40
0.7654148828573637
 40
0.8826961023800924
 40
1.0
 40
1.0
 40
1.0
 40
1.0
 10
107.8551313928124
 20
50.08354965618789
 30
0.0
 10
107.712349574884
 20
50.34545548987637
 30
0.0
 10
107.4268263093167
 20
50.86919310570747
 30
0.0
 10
107.154535628204
 20
51.58485054967937
 30
0.0
 10
106.9941905976261
 20
52.22133428236882
 30
0.0
 10
106.9194698963191
 20
52.77523209301854
 30
0.0
 10
106.9100876301167
 20
53.38176331293256
 30
0.0
 10
106.9933569749157
 20
54.03861835990244
 30
0.0
 10
107.1877840027096
 20
54.74563418476276
 30
0.0
 10
107.4730206348038
 20
55.44947284935638
 30
0.0
 10
107.7277529315463
 20
55.91362764779272
 30
0.0
 10
107.8551313928124
 20
56.14572748267891
 30
0.0
  0
LINE
  5
88
330
1F
100
AcDbEntity
  8
0
  6
Continuous
 62
     7
370
    25
100
AcDbLine
 10
106.772971652
 20
62.2079053092
 30
0.0
 11
106.772971652
 21
72.4579053092
 31
0.0
  0
LINE
  5
89
330
1F
100
AcDbEntity
  8
0
  6
Continuous
 62
     7
370
    25
100
AcDbLine
 10
106.772971652
 20
51.9579053092
 30
0.0
 11
106.772971652
 21
62.2079053092
 31
0.0
  0
SPLINE
  5
8A
330
1F
100
AcDbEntity
  8
0
  6
Continuous
 62
     7
370
    25
100
AcDbSpline
210
0.0
220
0.0
230
1.0
 70
     8
 71
     3
 72
    11
 73
     7
 74
     0
 42
0.00000001
 43
0.00000001
 40
0.0
 40
0.0
 40
0.0
 40
0.0
 40
0.2958382525912819
 40
0.5932610319616778
 40
0.7963744598462189
 40
1.0
 40
1.0
 40
1.0
 40
1.0
 10
119.9842965174113
 20
72.45361510606826
 30
0.0
 10
120.0313986532422
 20
72.22688767657016
 30
0.0
 10
120.1258552066658
 20
71.77221845235765
 30
0.0
 10
120.1372711669264
 20
71.15807485535991
 30
0.0
 10
120.0872136994291
 20
70.61609579240402
 30
0.0
 10
120.0186310281802
 20
70.30464863641117
 30
0.0
 10
119.9842965174113
 20
70.14872899174505
 30
0.0
  0
LINE
  5
8B
330
1F
100
AcDbEntity
  8
0
  6
Continuous
 62
     7
370
    25
100
AcDbLine
 10
119.1908119112
 20
68.2700831357
 30
0.0
 11
107.8551313928
 21
68.2700831357
 31
0.0
  0
LINE
  5
8C
330
1F
100
AcDbEntity
  8
0
  6
Continuous
 62
     7
370
    25
100
AcDbLine
 10
119.1908119112
 20
74.3322609622
 30
0.0
 11
107.8551313928
 21
74.3322609622
 31
0.0
  0
SPLINE
  5
8D
330
1F
100
AcDbEntity
  8
0
  6
Continuous
 62
     7
370
    25
100
AcDbSpline
210
0.0
220
0.0
230
1.0
 70
     8
 71
     3
 72
    10
 73
     6
 74
     0
 42
0.00000001
 43
0.00000001
 40
0.0
 40
0.0
 40
0.0
 40
0.0
 40
0.4984982470945961
 40
0.7492571451420814
 40
1.0
 40
1.0
 40
1.0
 40
1.0
 10
119.1908119111997
 20
74.33226096215219
 30
0.0
 10
119.3573385270663
 20
74.02383808627314
 30
0.0
 10
119.6076328009611
 20
73.56026966888251
 30
0.0
 10
119.8520222767126
 20
72.93100229175182
 30
0.0
 10
119.9402060441867
 20
72.6127407742027
 30
0.0
 10
119.9842965174113
 20
72.45361510606826
 30
0.0
  0
SPLINE
  5
8E
330
1F
100
AcDbEntity
  8
0
  6
Continuous
 62
     7
370
    25
100
AcDbSpline
210
0.0
220
0.0
230
1.0
 70
     8
 71
     3
 72
    12
 73
     8
 74
     0
 42
0.00000001
 43
0.00000001
 40
0.0
 40
0.0
 40
0.0
 40
0.0
 40
0.1850710896720204
 40
0.3877424800495118
 40
0.5904108230733411
 40
0.7952015463110217
 40
1.0
 40
1.0
 40
1.0
 40
1.0
 10
119.9842965174113
 20
64.51279142349325
 30
0.0
 10
120.0157953788586
 20
64.22940509549248
 30
0.0
 10
120.0817886502981
 20
63.63568233832996
 30
0.0
 10
120.1287601864587
 20
62.72682561278967
 30
0.0
 10
120.1315546918353
 20
61.78671774760252
 30
0.0
 10
120.0875415016816
 20
60.84396775789344
 30
0.0
 10
120.0187119451901
 20
60.21667266231606
 30
0.0
 10
119.9842965174113
 20
59.90301919484679
 30
0.0
  0
LINE
  5
8F
330
1F
100
AcDbEntity
  8
0
  6
Continuous
 62
     7
370
    25
100
AcDbLine
 10
119.1908119112
 20
56.1457274827
 30
0.0
 11
107.8551313928
 21
56.1457274827
 31
0.0
  0
SPLINE
  5
90
330
1F
100
AcDbEntity
  8
0
  6
Continuous
 62
     7
370
    25
100
AcDbSpline
210
0.0
220
0.0
230
1.0
 70
     8
 71
     3
 72
    13
 73
     9
 74
     0
 42
0.00000001
 43
0.00000001
 40
0.0
 40
0.0
 40
0.0
 40
0.0
 40
0.1365245485709977
 40
0.2730742214951815
 40
0.4115382417990804
 40
0.5499846193303997
 40
0.773937035610281
 40
1.0
 40
1.0
 40
1.0
 40
1.0
 10
120.8503219211957
 20
64.40558741817587
 30
0.0
 10
120.8475923322936
 20
64.20789156961028
 30
0.0
 10
120.8421326521683
 20
63.81246349088786
 30
0.0
 10
120.8132933993443
 20
63.20949584950897
 30
0.0
 10
120.7922404014818
 20
62.60037814256485
 30
0.0
 10
120.7859937686943
 20
61.86028147537153
 30
0.0
 10
120.8276929318063
 20
60.99157670407915
 30
0.0
 10
120.8427553773774
 20
60.33836221516218
 30
0.0
 10
120.8503219211957
 20
60.01022320016415
 30
0.0
  0
ARC
  5
91
330
1F
100
AcDbEntity
  8
0
  6
Continuous
 62
     7
370
    25
100
AcDbCircle
 10
120.7603132102
 20
57.185734337
 30
0.0
 40
2.825922664582354
100
AcDbArc
 50
88.1747583904
 51
105.9385646811
  0
ARC
  5
92
330
1F
100
AcDbEntity
  8
0
  6
Continuous
 62
     7
370
    25
100
AcDbCircle
 10
120.7603132102
 20
67.2300762813
 30
0.0
 40
2.825922664589506
100
AcDbArc
 50
254.061435319
 51
271.8252416096
  0
ARC
  5
93
330
1F
100
AcDbEntity
  8
0
  6
Continuous
 62
     7
370
    25
100
AcDbCircle
 10
120.8074558794
 20
70.878869787
 30
0.0
 40
1.100316734466008
100
AcDbArc
 50
221.5729649515
 51
272.2326889081
  0
LINE
  5
94
330
1F
100
AcDbEntity
  8
0
  6
Continuous
 62
     7
370
    25
100
AcDbLine
 10
120.8503219212
 20
69.7793883553
 30
0.0
 11
120.8503219212
 21
64.4055874182
 31
0.0
  0
LINE
  5
95
330
1F
100
AcDbEntity
  8
0
  6
Continuous
 62
     7
370
    25
100
AcDbLine
 10
120.8503219212
 20
60.0102232002
 30
0.0
 11
120.8503219212
 21
54.636422263
 31
0.0
  0
ARC
  5
96
330
1F
100
AcDbEntity
  8
0
  6
Continuous
 62
     7
370
    25
100
AcDbCircle
 10
120.8074558794
 20
53.5369408313
 30
0.0
 40
1.100316734466036
100
AcDbArc
 50
87.7673110919
 51
138.4270350485
  0
SPLINE
  5
97
330
1F
100
AcDbEntity
  8
0
  6
Continuous
 62
     7
370
    25
100
AcDbSpline
210
0.0
220
0.0
230
1.0
 70
     8
 71
     3
 72
    11
 73
     7
 74
     0
 42
0.00000001
 43
0.00000001
 40
0.0
 40
0.0
 40
0.0
 40
0.0
 40
0.2958382525912817
 40
0.5932610319616778
 40
0.796374459846219
 40
1.0
 40
1.0
 40
1.0
 40
1.0
 10
119.9842965174113
 20
54.26708162659501
 30
0.0
 10
120.0313986532422
 20
54.04035419709691
 30
0.0
 10
120.1258552066658
 20
53.58568497288442
 30
0.0
 10
120.1372711669264
 20
52.97154137588668
 30
0.0
 10
120.0872136994291
 20
52.42956231293079
 30
0.0
 10
120.0186310281802
 20
52.11811515693794
 30
0.0
 10
119.9842965174113
 20
51.96219551227181
 30
0.0
  0
SPLINE
  5
98
330
1F
100
AcDbEntity
  8
0
  6
Continuous
 62
     7
370
    25
100
AcDbSpline
210
0.0
220
0.0
230
1.0
 70
     8
 71
     3
 72
    11
 73
     7
 74
     0
 42
0.00000001
 43
0.00000001
 40
0.0
 40
0.0
 40
0.0
 40
0.0
 40
0.2491624812892784
 40
0.4983406089177418
 40
0.7491635688579431
 40
0.9999999999999999
 40
0.9999999999999999
 40
0.9999999999999999
 40
0.9999999999999999
 10
119.9842965174113
 20
51.96219551227181
 30
0.0
 10
119.9406884214247
 20
51.80403476345192
 30
0.0
 10
119.8534694910495
 20
51.48770333399291
 30
0.0
 10
119.6680563933019
 20
51.016575108937
 30
0.0
 10
119.4502195845577
 20
50.54791882752377
 30
0.0
 10
119.277282683627
 20
50.23834215101661
 30
0.0
 10
119.1908119111997
 20
50.08354965618789
 30
0.0
  0
LINE
  5
99
330
1F
100
AcDbEntity
  8
0
  6
Continuous
 62
     7
370
    25
100
AcDbLine
 10
119.1908119112
 20
50.0835496562
 30
0.0
 11
107.8551313928
 21
50.0835496562
 31
0.0
  0
LINE
  5
9A
330
1F
100
AcDbEntity
  8
0
  6
Continuous
 62
     7
370
    25
100
AcDbLine
 10
121.572971652
 20
51.9579053092
 30
0.0
 11
121.572971652
 21
72.4579053092
 31
0.0
  0
SPLINE
  5
9B
330
1F
100
AcDbEntity
  8
0
  6
Continuous
 62
     7
370
    25
100
AcDbSpline
210
0.0
220
0.0
230
1.0
 70
     8
 71
     3
 72
    13
 73
     9
 74
     0
 42
0.00000001
 43
0.00000001
 40
0.0
 40
0.0
 40
0.0
 40
0.0
 40
0.1365245485709984
 40
0.2730742214951827
 40
0.411538241799082
 40
0.5499846193304023
 40
0.7739370356102826
 40
1.0
 40
1.0
 40
1.0
 40
1.0
 10
120.8503219211957
 20
54.63642226299384
 30
0.0
 10
120.8475923322936
 20
54.5030459620972
 30
0.0
 10
120.8421326521683
 20
54.23626881531673
 30
0.0
 10
120.8132933993443
 20
53.86957034433991
 30
0.0
 10
120.7922404014818
 20
53.52839807471639
 30
0.0
 10
120.7859937686943
 20
53.15379900959547
 30
0.0
 10
120.8276929318062
 20
52.76777667416145
 30
0.0
 10
120.8427553773774
 20
52.54876138405175
 30
0.0
 10
120.8503219211957
 20
52.43874015398801
 30
0.0
  0
SPLINE
  5
9C
330
1F
100
AcDbEntity
  8
0
  6
Continuous
 62
     7
370
    25
100
AcDbSpline
210
0.0
220
0.0
230
1.0
 70
     8
 71
     3
 72
    13
 73
     9
 74
     0
 42
0.00000001
 43
0.00000001
 40
0.0
 40
0.0
 40
0.0
 40
0.0
 40
0.136524548570992
 40
0.2730742214951701
 40
0.411538241799063
 40
0.5499846193303763
 40
0.773937035610269
 40
1.0
 40
1.0
 40
1.0
 40
1.0
 10
120.8503219211957
 20
71.97707046435207
 30
0.0
 10
120.8475923322936
 20
71.91275091668314
 30
0.0
 10
120.8421326521683
 20
71.78409998474118
 30
0.0
 10
120.8132933993443
 20
71.54783081433914
 30
0.0
 10
120.7922404014818
 20
71.27988537701854
 30
0.0
 10
120.7859937686943
 20
70.91438777494614
 30
0.0
 10
120.8276929318063
 20
70.43170533908778
 30
0.0
 10
120.8427553773774
 20
69.99750614028049
 30
0.0
 10
120.8503219211957
 20
69.7793883553462
 30
0.0
  0
LINE
  5
9D
330
1F
100
AcDbEntity
  8
0
  6
Continuous
 62
     7
370
    25
100
AcDbLine
 10
121.772971652
 20
72.2579053092
 30
0.0
 11
121.772971652
 21
52.1579053092
 31
0.0
  0
ARC
  5
9E
330
1F
100
AcDbEntity
  8
0
  6
Continuous
 62
     7
370
    25
100
AcDbCircle
 10
120.8416778758
 20
72.9865486807
 30
0.0
 40
1.009515224607434
100
AcDbArc
 50
211.8643766323
 51
270.4906051505
  0
ARC
  5
9F
330
1F
100
AcDbEntity
  8
0
  6
Continuous
 62
     7
370
    25
100
AcDbCircle
 10
120.8416778758
 20
51.4292619377
 30
0.0
 40
1.009515224614123
100
AcDbArc
 50
89.5093948497
 51
148.1356233675
  0
LINE
  5
A0
330
1F
100
AcDbEntity
  8
0
  6
Continuous
 62
     7
370
    25
100
AcDbLine
 10
104.2501412429
 20
53.8769053092
 30
0.0
 11
104.2501412429
 21
70.5389053092
 31
0.0
  0
LINE
  5
A1
330
1F
100
AcDbEntity
  8
0
  6
Continuous
 62
     7
370
    25
100
AcDbLine
 10
104.193771997
 20
54.2079053092
 30
0.0
 11
104.193771997
 21
70.2079053092
 31
0.0
  0
LINE
  5
A2
330
1F
100
AcDbEntity
  8
0
  6
Continuous
 62
     7
370
    25
100
AcDbLine
 10
99.693771997
 20
67.9579053092
 30
0.0
 11
99.693771997
 21
64.8536566202
 31
0.0
  0
SPLINE
  5
A3
330
1F
100
AcDbEntity
  8
0
  6
Continuous
 62
     7
370
    25
100
AcDbSpline
210
0.0
220
0.0
230
1.0
 70
     8
 71
     3
 72
    12
 73
     8
 74
     0
 42
0.00000001
 43
0.00000001
 40
0.0
 40
0.0
 40
0.0
 40
0.0
 40
0.25
 40
0.25
 40
0.5
 40
0.5
 40
1.0
 40
1.0
 40
1.0
 40
1.0
 10
99.62054869224974
 20
64.84029067216703
 30
0.0
 10
99.63482599400444
 20
64.83859652734112
 30
0.0
 10
99.64654110142584
 20
64.83667031778502
 30
0.0
 10
99.66562445921602
 20
64.83375485649452
 30
0.0
 10
99.67299270958479
 20
64.83276560476013
 30
0.0
 10
99.6897434725331
 20
64.83330491721274
 30
0.0
 10
99.69377199695461
 20
64.83834054905553
 30
0.0
 10
99.69377199695461
 20
64.85365662023463
 30
0.0
  0
SPLINE
  5
A4
330
1F
100
AcDbEntity
  8
0
  6
Continuous
 62
     7
370
    25
100
AcDbSpline
210
0.0
220
0.0
230
1.0
 70
     8
 71
     3
 72
    10
 73
     6
 74
     0
 42
0.00000001
 43
0.00000001
 40
0.0
 40
0.0
 40
0.0
 40
0.0
 40
0.5
 40
0.5
 40
1.0
 40
1.0
 40
1.0
 40
1.0
 10
99.62054869224974
 20
64.84029067216703
 30
0.0
 10
99.59199408874035
 20
64.84367896181881
 30
0.0
 10
99.5589725536635
 20
64.8470204488357
 30
0.0
 10
99.49603414651757
 20
64.85200927804364
 30
0.0
 10
99.46611727444848
 20
64.85365662023463
 30
0.0
 10
99.44377199695461
 20
64.85365662023463
 30
0.0
  0
LINE
  5
A5
330
1F
100
AcDbEntity
  8
0
  6
Continuous
 62
     7
370
    25
100
AcDbLine
 10
99.443771997
 20
64.8536566202
 30
0.0
 11
99.443771997
 21
67.9579053092
 31
0.0
  0
LINE
  5
A6
330
1F
100
AcDbEntity
  8
0
  6
Continuous
 62
     7
370
    25
100
AcDbLine
 10
99.443771997
 20
67.9579053092
 30
0.0
 11
99.693771997
 21
67.9579053092
 31
0.0
  0
LINE
  5
A7
330
1F
100
AcDbEntity
  8
0
  6
Continuous
 62
     7
370
    25
100
AcDbLine
 10
99.443771997
 20
56.4579053092
 30
0.0
 11
99.443771997
 21
59.5621539981
 31
0.0
  0
SPLINE
  5
A8
330
1F
100
AcDbEntity
  8
0
  6
Continuous
 62
     7
370
    25
100
AcDbSpline
210
0.0
220
0.0
230
1.0
 70
     8
 71
     3
 72
    10
 73
     6
 74
     0
 42
0.00000001
 43
0.00000001
 40
0.0
 40
0.0
 40
0.0
 40
0.0
 40
0.5
 40
0.5
 40
1.0
 40
1.0
 40
1.0
 40
1.0
 10
99.62054869224974
 20
59.57551994617307
 30
0.0
 10
99.59199408874035
 20
59.57213165652128
 30
0.0
 10
99.5589725536635
 20
59.56879016950438
 30
0.0
 10
99.49603414651757
 20
59.56380134029646
 30
0.0
 10
99.46611727444848
 20
59.56215399810545
 30
0.0
 10
99.44377199695461
 20
59.56215399810545
 30
0.0
  0
SPLINE
  5
A9
330
1F
100
AcDbEntity
  8
0
  6
Continuous
 62
     7
370
    25
100
AcDbSpline
210
0.0
220
0.0
230
1.0
 70
     8
 71
     3
 72
    12
 73
     8
 74
     0
 42
0.00000001
 43
0.00000001
 40
0.0
 40
0.0
 40
0.0
 40
0.0
 40
0.25
 40
0.25
 40
0.5
 40
0.5
 40
1.0
 40
1.0
 40
1.0
 40
1.0
 10
99.62054869224974
 20
59.57551994617307
 30
0.0
 10
99.63482599400444
 20
59.57721409099896
 30
0.0
 10
99.64654110142584
 20
59.57914030055507
 30
0.0
 10
99.66562445921602
 20
59.58205576184557
 30
0.0
 10
99.67299270958479
 20
59.58304501357996
 30
0.0
 10
99.6897434725331
 20
59.58250570112735
 30
0.0
 10
99.69377199695461
 20
59.57747006928455
 30
0.0
 10
99.69377199695461
 20
59.56215399810545
 30
0.0
  0
LINE
  5
AA
330
1F
100
AcDbEntity
  8
0
  6
Continuous
 62
     7
370
    25
100
AcDbLine
 10
99.693771997
 20
59.5621539981
 30
0.0
 11
99.693771997
 21
56.4579053092
 31
0.0
  0
LINE
  5
AB
330
1F
100
AcDbEntity
  8
0
  6
Continuous
 62
     7
370
    25
100
AcDbLine
 10
99.443771997
 20
56.4579053092
 30
0.0
 11
99.693771997
 21
56.4579053092
 31
0.0
  0
SPLINE
  5
AC
330
1F
100
AcDbEntity
  8
0
  6
Continuous
 62
     7
370
    25
100
AcDbSpline
210
0.0
220
0.0
230
1.0
 70
     8
 71
     3
 72
    12
 73
     8
 74
     0
 42
0.00000001
 43
0.00000001
 40
0.0
 40
0.0
 40
0.0
 40
0.0
 40
0.25
 40
0.25
 40
0.5
 40
0.5
 40
1.0
 40
1.0
 40
1.0
 40
1.0
 10
94.8261573599516
 20
69.63468200446518
 30
0.0
 10
94.82446321512569
 20
69.64895930621988
 30
0.0
 10
94.82253700556959
 20
69.66067441364127
 30
0.0
 10
94.81962154427909
 20
69.67975777143145
 30
0.0
 10
94.81863229254469
 20
69.68712602180022
 30
0.0
 10
94.81917160499731
 20
69.70387678474853
 30
0.0
 10
94.82420723684011
 20
69.70790530917003
 30
0.0
 10
94.8395233080192
 20
69.70790530917003
 30
0.0
  0
LINE
  5
AD
330
1F
100
AcDbEntity
  8
0
  6
Continuous
 62
     7
370
    25
100
AcDbLine
 10
94.839523308
 20
69.7079053092
 30
0.0
 11
97.943771997
 21
69.7079053092
 31
0.0
  0
LINE
  5
AE
330
1F
100
AcDbEntity
  8
0
  6
Continuous
 62
     7
370
    25
100
AcDbLine
 10
97.943771997
 20
69.7079053092
 30
0.0
 11
97.943771997
 21
69.4579053092
 31
0.0
  0
LINE
  5
AF
330
1F
100
AcDbEntity
  8
0
  6
Continuous
 62
     7
370
    25
100
AcDbLine
 10
97.943771997
 20
69.4579053092
 30
0.0
 11
94.839523308
 21
69.4579053092
 31
0.0
  0
SPLINE
  5
B0
330
1F
100
AcDbEntity
  8
0
  6
Continuous
 62
     7
370
    25
100
AcDbSpline
210
0.0
220
0.0
230
1.0
 70
     8
 71
     3
 72
    10
 73
     6
 74
     0
 42
0.00000001
 43
0.00000001
 40
0.0
 40
0.0
 40
0.0
 40
0.0
 40
0.5
 40
0.5
 40
1.0
 40
1.0
 40
1.0
 40
1.0
 10
94.8261573599516
 20
69.63468200446518
 30
0.0
 10
94.82954564960339
 20
69.60612740095577
 30
0.0
 10
94.83288713662029
 20
69.57310586587893
 30
0.0
 10
94.8378759658282
 20
69.510167458733
 30
0.0
 10
94.83952330801921
 20
69.4802505866639
 30
0.0
 10
94.83952330801921
 20
69.45790530917003
 30
0.0
  0
LINE
  5
B1
330
1F
100
AcDbEntity
  8
0
  6
Continuous
 62
     7
370
    25
100
AcDbLine
 10
85.193771997
 20
72.2079053092
 30
0.0
 11
99.193771997
 21
72.2079053092
 31
0.0
  0
SPLINE
  5
B2
330
1F
100
AcDbEntity
  8
0
  6
Continuous
 62
     7
370
    25
100
AcDbSpline
210
0.0
220
0.0
230
1.0
 70
     8
 71
     3
 72
     8
 73
     4
 74
     0
 42
0.00000001
 43
0.00000001
 40
0.0
 40
0.0
 40
0.0
 40
0.0
 40
1.0
 40
1.0
 40
1.0
 40
1.0
 10
86.1782710234366
 20
57.91111889951431
 30
0.0
 10
86.165755165752
 20
58.00853431862566
 30
0.0
 10
86.15928923833394
 20
58.10741505615291
 30
0.0
 10
86.15928923833394
 20
58.20790530917004
 30
0.0
  0
LINE
  5
B3
330
1F
100
AcDbEntity
  8
0
  6
Continuous
 62
     7
370
    25
100
AcDbLine
 10
98.5620584857
 20
68.5761917979
 30
0.0
 11
99.193771997
 21
69.2079053092
 31
0.0
  0
SPLINE
  5
B4
330
1F
100
AcDbEntity
  8
0
  6
Continuous
 62
     7
370
    25
100
AcDbSpline
210
0.0
220
0.0
230
1.0
 70
     8
 71
     3
 72
    12
 73
     8
 74
     0
 42
0.00000001
 43
0.00000001
 40
0.0
 40
0.0
 40
0.0
 40
0.0
 40
0.2500000000000002
 40
0.2500000000000002
 40
0.5000000000000004
 40
0.5000000000000004
 40
1.0
 40
1.0
 40
1.0
 40
1.0
 10
98.2282547555753
 20
69.20790530917004
 30
0.0
 10
98.2282547555753
 20
69.12109953205342
 30
0.0
 10
98.24335360851352
 20
69.03761433351654
 30
0.0
 10
98.29080546670001
 20
68.89363414477826
 30
0.0
 10
98.32171047861625
 20
68.83439801185503
 30
0.0
 10
98.42104423036541
 20
68.68408444369804
 30
0.0
 10
98.49337650210094
 20
68.62171567076929
 30
0.0
 10
98.5620584856519
 20
68.57619179786734
 30
0.0
  0
LINE
  5
B5
330
1F
100
AcDbEntity
  8
0
  6
Continuous
 62
     7
370
    25
100
AcDbLine
 10
98.2282547556
 20
69.4579053092
 30
0.0
 11
98.2282547556
 21
69.2079053092
 31
0.0
  0
SPLINE
  5
B6
330
1F
100
AcDbEntity
  8
0
  6
Continuous
 62
     7
370
    25
100
AcDbSpline
210
0.0
220
0.0
230
1.0
 70
     8
 71
     3
 72
    14
 73
    10
 74
     0
 42
0.00000001
 43
0.00000001
 40
0.0
 40
0.0
 40
0.0
 40
0.0
 40
0.25
 40
0.25
 40
0.5
 40
0.5
 40
0.75
 40
0.75
 40
1.0
 40
1.0
 40
1.0
 40
1.0
 10
98.2282547555753
 20
69.45790530917003
 30
0.0
 10
98.2282547555753
 20
69.54970770378299
 30
0.0
 10
98.2027445616362
 20
69.63387164269841
 30
0.0
 10
98.1357781938467
 20
69.76096732326978
 30
0.0
 10
98.09396356124525
 20
69.80908979252092
 30
0.0
 10
98.00400304356371
 20
69.8844075722997
 30
0.0
 10
97.95499605146402
 20
69.91178378539301
 30
0.0
 10
97.85368220092474
 20
69.94834563601515
 30
0.0
 10
97.80081358427412
 20
69.95790530917004
 30
0.0
 10
97.74549613488564
 20
69.95790530917004
 30
0.0
  0
LINE
  5
B7
330
1F
100
AcDbEntity
  8
0
  6
Continuous
 62
     7
370
    25
100
AcDbLine
 10
94.7482905042
 20
69.9579053092
 30
0.0
 11
97.7454961349
 21
69.9579053092
 31
0.0
  0
SPLINE
  5
B8
330
1F
100
AcDbEntity
  8
0
  6
Continuous
 62
     7
370
    25
100
AcDbSpline
210
0.0
220
0.0
230
1.0
 70
    24
 71
     3
 72
    14
 73
    10
 74
     0
 42
0.00000001
 43
0.00000001
 40
0.0
 40
0.0
 40
0.0
 40
0.0
 40
0.25
 40
0.25
 40
0.5
 40
0.5
 40
0.75
 40
0.75
 40
1.0
 40
1.0
 40
1.0
 40
1.0
 10
92.19377199695462
 20
69.95790530917004
 30
0.0
 10
92.40906822747722
 20
69.95790530917004
 30
0.0
 10
92.62436558862045
 20
69.95790530917004
 30
0.0
 10
93.05409935321647
 20
69.95790530917004
 30
0.0
 10
93.26853802261293
 20
69.95790530917004
 30
0.0
 10
93.69562782632303
 20
69.95790530917004
 30
0.0
 10
93.9082812377576
 20
69.95790530917004
 30
0.0
 10
94.33073794026998
 20
69.95790530917004
 30
0.0
 10
94.54054351715524
 20
69.95790530917004
 30
0.0
 10
94.7482905041894
 20
69.95790530917004
 30
0.0
  0
SPLINE
  5
B9
330
1F
100
AcDbEntity
  8
0
  6
Continuous
 62
     7
370
    25
100
AcDbSpline
210
0.0
220
0.0
230
1.0
 70
    24
 71
     3
 72
    14
 73
    10
 74
     0
 42
0.00000001
 43
0.00000001
 40
0.0
 40
0.0
 40
0.0
 40
0.0
 40
0.25
 40
0.25
 40
0.5
 40
0.5
 40
0.75
 40
0.75
 40
1.0
 40
1.0
 40
1.0
 40
1.0
 10
92.19377199695462
 20
69.95790530917004
 30
0.0
 10
91.97847576643201
 20
69.95790530917004
 30
0.0
 10
91.7631784052888
 20
69.95790530917004
 30
0.0
 10
91.33344464069278
 20
69.95790530917004
 30
0.0
 10
91.1190059712963
 20
69.95790530917004
 30
0.0
 10
90.6919161675862
 20
69.95790530917004
 30
0.0
 10
90.47926275615163
 20
69.95790530917004
 30
0.0
 10
90.05680605363925
 20
69.95790530917004
 30
0.0
 10
89.84700047675399
 20
69.95790530917004
 30
0.0
 10
89.63925348971983
 20
69.95790530917004
 30
0.0
  0
LINE
  5
BA
330
1F
100
AcDbEntity
  8
0
  6
Continuous
 62
     7
370
    25
100
AcDbLine
 10
86.642047859
 20
69.9579053092
 30
0.0
 11
89.6392534897
 21
69.9579053092
 31
0.0
  0
SPLINE
  5
BB
330
1F
100
AcDbEntity
  8
0
  6
Continuous
 62
     7
370
    25
100
AcDbSpline
210
0.0
220
0.0
230
1.0
 70
     8
 71
     3
 72
    14
 73
    10
 74
     0
 42
0.00000001
 43
0.00000001
 40
0.0
 40
0.0
 40
0.0
 40
0.0
 40
0.25
 40
0.25
 40
0.5
 40
0.5
 40
0.75
 40
0.75
 40
1.0
 40
1.0
 40
1.0
 40
1.0
 10
86.64204785902359
 20
69.95790530917004
 30
0.0
 10
86.58676908239799
 20
69.95790530917004
 30
0.0
 10
86.53379040423175
 20
69.9483567449339
 30
0.0
 10
86.4320489365056
 20
69.91156662680909
 30
0.0
 10
86.38300466278318
 20
69.8840155795209
 30
0.0
 10
86.29355661781496
 20
69.80901249195077
 30
0.0
 10
86.25168204949038
 20
69.76083211175877
 30
0.0
 10
86.18481042128668
 20
69.63386873398196
 30
0.0
 10
86.15928923833394
 20
69.54984625389316
 30
0.0
 10
86.15928923833394
 20
69.45790530917004
 30
0.0
  0
LINE
  5
BC
330
1F
100
AcDbEntity
  8
0
  6
Continuous
 62
     7
370
    25
100
AcDbLine
 10
86.1592892383
 20
58.2079053092
 30
0.0
 11
86.1592892383
 21
69.4579053092
 31
0.0
  0
LINE
  5
BD
330
1F
100
AcDbEntity
  8
0
  6
Continuous
 62
     7
370
    25
100
AcDbLine
 10
97.943771997
 20
69.2079053092
 30
0.0
 11
97.943771997
 21
69.4579053092
 31
0.0
  0
ARC
  5
BE
330
1F
100
AcDbEntity
  8
0
  6
Continuous
 62
     7
370
    25
100
AcDbCircle
 10
99.193771997
 20
69.2079053092
 30
0.0
 40
1.25
100
AcDbArc
 50
180.0
 51
270.0
  0
LINE
  5
BF
330
1F
100
AcDbEntity
  8
0
  6
Continuous
 62
     7
370
    25
100
AcDbLine
 10
99.443771997
 20
67.9579053092
 30
0.0
 11
99.193771997
 21
67.9579053092
 31
0.0
  0
LINE
  5
C0
330
1F
100
AcDbEntity
  8
0
  6
Continuous
 62
     7
370
    25
100
AcDbLine
 10
99.443771997
 20
64.8536566202
 30
0.0
 11
99.443771997
 21
62.2079053092
 31
0.0
  0
LINE
  5
C1
330
1F
100
AcDbEntity
  8
0
  6
Continuous
 62
     7
370
    25
100
AcDbLine
 10
99.443771997
 20
62.2079053092
 30
0.0
 11
99.443771997
 21
59.5621539981
 31
0.0
  0
LINE
  5
C2
330
1F
100
AcDbEntity
  8
0
  6
Continuous
 62
     7
370
    25
100
AcDbLine
 10
88.193771997
 20
56.4579053092
 30
0.0
 11
99.443771997
 21
56.4579053092
 31
0.0
  0
ARC
  5
C3
330
1F
100
AcDbEntity
  8
0
  6
Continuous
 62
     7
370
    25
100
AcDbCircle
 10
88.193771997
 20
58.2079053092
 30
0.0
 40
1.75
100
AcDbArc
 50
180.0
 51
270.0
  0
LINE
  5
C4
330
1F
100
AcDbEntity
  8
0
  6
Continuous
 62
     7
370
    25
100
AcDbLine
 10
86.443771997
 20
69.4579053092
 30
0.0
 11
86.443771997
 21
58.2079053092
 31
0.0
  0
LINE
  5
C5
330
1F
100
AcDbEntity
  8
0
  6
Continuous
 62
     7
370
    25
100
AcDbLine
 10
89.5480206859
 20
69.4579053092
 30
0.0
 11
86.443771997
 21
69.4579053092
 31
0.0
  0
LINE
  5
C6
330
1F
100
AcDbEntity
  8
0
  6
Continuous
 62
     7
370
    25
100
AcDbLine
 10
89.5480206859
 20
69.4579053092
 30
0.0
 11
92.193771997
 21
69.4579053092
 31
0.0
  0
LINE
  5
C7
330
1F
100
AcDbEntity
  8
0
  6
Continuous
 62
     7
370
    25
100
AcDbLine
 10
92.193771997
 20
69.4579053092
 30
0.0
 11
94.839523308
 21
69.4579053092
 31
0.0
  0
LINE
  5
C8
330
1F
100
AcDbEntity
  8
0
  6
Continuous
 62
     7
370
    25
100
AcDbLine
 10
97.0456737646
 20
62.0269508138
 30
0.0
 11
98.0209492835
 21
59.3001234342
 31
0.0
  0
SPLINE
  5
C9
330
1F
100
AcDbEntity
  8
0
  6
Continuous
 62
     7
370
    25
100
AcDbSpline
210
0.0
220
0.0
230
1.0
 70
     8
 71
     3
 72
    14
 73
    10
 74
     0
 42
0.00000001
 43
0.00000001
 40
0.0
 40
0.0
 40
0.0
 40
0.0
 40
0.25
 40
0.25
 40
0.5
 40
0.5
 40
0.75
 40
0.75
 40
1.0
 40
1.0
 40
1.0
 40
1.0
 10
95.67202622660085
 20
62.02695081381281
 30
0.0
 10
95.73242264979967
 20
62.15758819411766
 30
0.0
 10
95.8319522114571
 20
62.26765255928319
 30
0.0
 10
96.07303790220347
 20
62.41742984275636
 30
0.0
 10
96.21435493549686
 20
62.45777577989077
 30
0.0
 10
96.5019481496095
 20
62.45803421082034
 30
0.0
 10
96.64340580549842
 20
62.41821317372258
 30
0.0
 10
96.88702574259676
 20
62.26685575956751
 30
0.0
 10
96.9852827415638
 20
62.15757651366785
 30
0.0
 10
97.04567376464352
 20
62.02695081381336
 30
0.0
  0
LINE
  5
CA
330
1F
100
AcDbEntity
  8
0
  6
Continuous
 62
     7
370
    25
100
AcDbLine
 10
94.6969770095
 20
59.3007561639
 30
0.0
 11
95.6720262266
 21
62.0269508138
 31
0.0
  0
SPLINE
  5
CB
330
1F
100
AcDbEntity
  8
0
  6
Continuous
 62
     7
370
    25
100
AcDbSpline
210
0.0
220
0.0
230
1.0
 70
     8
 71
     3
 72
    10
 73
     6
 74
     0
 42
0.00000001
 43
0.00000001
 40
0.0
 40
0.0
 40
0.0
 40
0.0
 40
0.5
 40
0.5
 40
1.0
 40
1.0
 40
1.0
 40
1.0
 10
94.2963730511378
 20
59.16472244088511
 30
0.0
 10
94.3668249493948
 20
59.12595197875496
 30
0.0
 10
94.4521569444896
 20
59.11862963870138
 30
0.0
 10
94.60414285765125
 20
59.16759495374377
 30
0.0
 10
94.6698474229163
 20
59.22490303526845
 30
0.0
 10
94.69697700946536
 20
59.30075616391567
 30
0.0
  0
LINE
  5
CC
330
1F
100
AcDbEntity
  8
0
  6
Continuous
 62
     7
370
    25
100
AcDbLine
 10
93.5287635474
 20
59.5871464767
 30
0.0
 11
94.2963730511
 21
59.1647224409
 31
0.0
  0
LINE
  5
CD
330
1F
100
AcDbEntity
  8
0
  6
Continuous
 62
     7
370
    25
100
AcDbLine
 10
94.5285508978
 20
57.6812182629
 30
0.0
 11
93.5287635474
 21
59.5871464767
 31
0.0
  0
SPLINE
  5
CE
330
1F
100
AcDbEntity
  8
0
  6
Continuous
 62
     7
370
    25
100
AcDbSpline
210
0.0
220
0.0
230
1.0
 70
     8
 71
     3
 72
    10
 73
     6
 74
     0
 42
0.00000001
 43
0.00000001
 40
0.0
 40
0.0
 40
0.0
 40
0.0
 40
0.5
 40
0.5
 40
1.0
 40
1.0
 40
1.0
 40
1.0
 10
95.01892274134026
 20
57.59264422166484
 30
0.0
 10
94.9468117470182
 20
57.52863845186086
 30
0.0
 10
94.8457076201784
 20
57.50105311360727
 30
0.0
 10
94.65814976213844
 20
57.53485387357102
 30
0.0
 10
94.57334653654605
 20
57.59582283174143
 30
0.0
 10
94.52855089776247
 20
57.68121826286748
 30
0.0
  0
SPLINE
  5
CF
330
1F
100
AcDbEntity
  8
0
  6
Continuous
 62
     7
370
    25
100
AcDbSpline
210
0.0
220
0.0
230
1.0
 70
     8
 71
     3
 72
    14
 73
    10
 74
     0
 42
0.00000001
 43
0.00000001
 40
0.0
 40
0.0
 40
0.0
 40
0.0
 40
0.4999999999999987
 40
0.4999999999999987
 40
0.6249999999999988
 40
0.6249999999999988
 40
0.7499999999999993
 40
0.7499999999999993
 40
1.0
 40
1.0
 40
1.0
 40
1.0
 10
97.69877724990424
 20
57.59264422166475
 30
0.0
 10
97.33075676133433
 20
57.91929946884293
 30
0.0
 10
96.846708977613
 20
58.09442231223502
 30
0.0
 10
96.23698319154141
 20
58.09444541072418
 30
0.0
 10
96.11387633290072
 20
58.08347852833423
 30
0.0
 10
95.87480824044383
 20
58.04059804440406
 30
0.0
 10
95.75762130833172
 20
58.00875218767759
 30
0.0
 10
95.41338424600912
 20
57.88074582774881
 30
0.0
 10
95.20295345944204
 20
57.75599001782829
 30
0.0
 10
95.01892274134025
 20
57.59264422166484
 30
0.0
  0
SPLINE
  5
D0
330
1F
100
AcDbEntity
  8
0
  6
Continuous
 62
     7
370
    25
100
AcDbSpline
210
0.0
220
0.0
230
1.0
 70
     8
 71
     3
 72
    10
 73
     6
 74
     0
 42
0.00000001
 43
0.00000001
 40
0.0
 40
0.0
 40
0.0
 40
0.0
 40
0.5
 40
0.5
 40
1.0
 40
1.0
 40
1.0
 40
1.0
 10
98.18914909348211
 20
57.68121826286783
 30
0.0
 10
98.14435010409485
 20
57.59581644437309
 30
0.0
 10
98.05906625843731
 20
57.53462799459736
 30
0.0
 10
97.87157639883652
 20
57.50111747652426
 30
0.0
 10
97.77089733351724
 20
57.52863038419963
 30
0.0
 10
97.69877724990423
 20
57.59264422166474
 30
0.0
  0
LINE
  5
D1
330
1F
100
AcDbEntity
  8
0
  6
Continuous
 62
     7
370
    25
100
AcDbLine
 10
99.2004960534
 20
59.6091829489
 30
0.0
 11
98.1891490935
 21
57.6812182629
 31
0.0
  0
LINE
  5
D2
330
1F
100
AcDbEntity
  8
0
  6
Continuous
 62
     7
370
    25
100
AcDbLine
 10
98.4254744879
 20
59.1662888685
 30
0.0
 11
99.2004960534
 21
59.6091829489
 31
0.0
  0
SPLINE
  5
D3
330
1F
100
AcDbEntity
  8
0
  6
Continuous
 62
     7
370
    25
100
AcDbSpline
210
0.0
220
0.0
230
1.0
 70
     8
 71
     3
 72
    10
 73
     6
 74
     0
 42
0.00000001
 43
0.00000001
 40
0.0
 40
0.0
 40
0.0
 40
0.0
 40
0.5
 40
0.5
 40
1.0
 40
1.0
 40
1.0
 40
1.0
 10
98.0209492835119
 20
59.30012343423979
 30
0.0
 10
98.04839145870204
 20
59.22339632152553
 30
0.0
 10
98.11547408937444
 20
59.16578913616047
 30
0.0
 10
98.26828194383458
 20
59.11783338727701
 30
0.0
 10
98.35487442899948
 20
59.12594373552376
 30
0.0
 10
98.42547448785015
 20
59.16628886852061
 30
0.0
  0
LINE
  5
D4
330
1F
100
AcDbEntity
  8
0
  6
Continuous
 62
     7
370
    25
100
AcDbLine
 10
86.443771997
 20
69.7079053092
 30
0.0
 11
89.5480206859
 21
69.7079053092
 31
0.0
  0
SPLINE
  5
D5
330
1F
100
AcDbEntity
  8
0
  6
Continuous
 62
     7
370
    25
100
AcDbSpline
210
0.0
220
0.0
230
1.0
 70
     8
 71
     3
 72
    12
 73
     8
 74
     0
 42
0.00000001
 43
0.00000001
 40
0.0
 40
0.0
 40
0.0
 40
0.0
 40
0.25
 40
0.25
 40
0.5
 40
0.5
 40
1.0
 40
1.0
 40
1.0
 40
1.0
 10
89.56138663395764
 20
69.63468200446518
 30
0.0
 10
89.56308077878353
 20
69.64895930621988
 30
0.0
 10
89.56500698833963
 20
69.66067441364127
 30
0.0
 10
89.56792244963015
 20
69.67975777143145
 30
0.0
 10
89.56891170136454
 20
69.68712602180021
 30
0.0
 10
89.56837238891191
 20
69.70387678474853
 30
0.0
 10
89.56333675706912
 20
69.70790530917003
 30
0.0
 10
89.54802068589002
 20
69.70790530917003
 30
0.0
  0
SPLINE
  5
D6
330
1F
100
AcDbEntity
  8
0
  6
Continuous
 62
     7
370
    25
100
AcDbSpline
210
0.0
220
0.0
230
1.0
 70
     8
 71
     3
 72
    10
 73
     6
 74
     0
 42
0.00000001
 43
0.00000001
 40
0.0
 40
0.0
 40
0.0
 40
0.0
 40
0.5
 40
0.5
 40
1.0
 40
1.0
 40
1.0
 40
1.0
 10
89.56138663395764
 20
69.63468200446518
 30
0.0
 10
89.55799834430584
 20
69.60612740095577
 30
0.0
 10
89.55465685728895
 20
69.57310586587893
 30
0.0
 10
89.54966802808103
 20
69.510167458733
 30
0.0
 10
89.54802068589002
 20
69.4802505866639
 30
0.0
 10
89.54802068589002
 20
69.45790530917003
 30
0.0
  0
LINE
  5
D7
330
1F
100
AcDbEntity
  8
0
  6
Continuous
 62
     7
370
    25
100
AcDbLine
 10
86.443771997
 20
69.7079053092
 30
0.0
 11
86.443771997
 21
69.4579053092
 31
0.0
  0
SPLINE
  5
D8
330
1F
100
AcDbEntity
  8
0
  6
Continuous
 62
     7
370
    25
100
AcDbSpline
210
0.0
220
0.0
230
1.0
 70
    24
 71
     3
 72
    14
 73
    10
 74
     0
 42
0.00000001
 43
0.00000001
 40
0.0
 40
0.0
 40
0.0
 40
0.0
 40
0.25
 40
0.25
 40
0.5
 40
0.5
 40
0.75
 40
0.75
 40
1.0
 40
1.0
 40
1.0
 40
1.0
 10
99.94377199695462
 20
62.20790530917004
 30
0.0
 10
99.94377199695462
 20
61.99260907864745
 30
0.0
 10
99.94377199695462
 20
61.77731171750423
 30
0.0
 10
99.94377199695462
 20
61.3475779529082
 30
0.0
 10
99.94377199695462
 20
61.13313928351174
 30
0.0
 10
99.94377199695462
 20
60.70604947980164
 30
0.0
 10
99.94377199695462
 20
60.49339606836707
 30
0.0
 10
99.94377199695462
 20
60.07093936585468
 30
0.0
 10
99.94377199695462
 20
59.86113378896942
 30
0.0
 10
99.94377199695462
 20
59.65338680193527
 30
0.0
  0
SPLINE
  5
D9
330
1F
100
AcDbEntity
  8
0
  6
Continuous
 62
     7
370
    25
100
AcDbSpline
210
0.0
220
0.0
230
1.0
 70
    24
 71
     3
 72
    14
 73
    10
 74
     0
 42
0.00000001
 43
0.00000001
 40
0.0
 40
0.0
 40
0.0
 40
0.0
 40
0.25
 40
0.25
 40
0.5
 40
0.5
 40
0.75
 40
0.75
 40
1.0
 40
1.0
 40
1.0
 40
1.0
 10
99.94377199695462
 20
62.20790530917004
 30
0.0
 10
99.94377199695462
 20
62.42320153969264
 30
0.0
 10
99.94377199695462
 20
62.63849890083586
 30
0.0
 10
99.94377199695462
 20
63.06823266543189
 30
0.0
 10
99.94377199695462
 20
63.28267133482836
 30
0.0
 10
99.94377199695462
 20
63.70976113853846
 30
0.0
 10
99.94377199695462
 20
63.92241454997302
 30
0.0
 10
99.94377199695462
 20
64.3448712524854
 30
0.0
 10
99.94377199695462
 20
64.55467682937066
 30
0.0
 10
99.94377199695462
 20
64.76242381640482
 30
0.0
  0
LINE
  5
DA
330
1F
100
AcDbEntity
  8
0
  6
Continuous
 62
     7
370
    25
100
AcDbLine
 10
99.943771997
 20
67.7596294471
 30
0.0
 11
99.943771997
 21
64.7624238164
 31
0.0
  0
SPLINE
  5
DB
330
1F
100
AcDbEntity
  8
0
  6
Continuous
 62
     7
370
    25
100
AcDbSpline
210
0.0
220
0.0
230
1.0
 70
     8
 71
     3
 72
    14
 73
    10
 74
     0
 42
0.00000001
 43
0.00000001
 40
0.0
 40
0.0
 40
0.0
 40
0.0
 40
0.25
 40
0.25
 40
0.5
 40
0.5
 40
0.75
 40
0.75
 40
1.0
 40
1.0
 40
1.0
 40
1.0
 10
99.94377199695462
 20
67.75962944710108
 30
0.0
 10
99.94377199695462
 20
67.81490822372668
 30
0.0
 10
99.93422343271848
 20
67.86788690189292
 30
0.0
 10
99.89743331459367
 20
67.96962836961907
 30
0.0
 10
99.86988226730548
 20
68.01867264334149
 30
0.0
 10
99.79487917973533
 20
68.10812068830971
 30
0.0
 10
99.74669879954334
 20
68.14999525663428
 30
0.0
 10
99.61973542176652
 20
68.21686688483798
 30
0.0
 10
99.53571294167773
 20
68.24238806779073
 30
0.0
 10
99.44377199695461
 20
68.24238806779073
 30
0.0
  0
LINE
  5
DC
330
1F
100
AcDbEntity
  8
0
  6
Continuous
 62
     7
370
    25
100
AcDbLine
 10
99.193771997
 20
68.2423880678
 30
0.0
 11
99.443771997
 21
68.2423880678
 31
0.0
  0
SPLINE
  5
DD
330
1F
100
AcDbEntity
  8
0
  6
Continuous
 62
     7
370
    25
100
AcDbSpline
210
0.0
220
0.0
230
1.0
 70
     8
 71
     3
 72
    12
 73
     8
 74
     0
 42
0.00000001
 43
0.00000001
 40
0.0
 40
0.0
 40
0.0
 40
0.0
 40
0.4999999999999991
 40
0.4999999999999991
 40
0.7499999999999996
 40
0.7499999999999996
 40
1.0
 40
1.0
 40
1.0
 40
1.0
 10
98.5620584856519
 20
68.57619179786734
 30
0.0
 10
98.60758235855386
 20
68.50750981431636
 30
0.0
 10
98.6699511314826
 20
68.43517754258083
 30
0.0
 10
98.82026469963961
 20
68.33584379083167
 30
0.0
 10
98.87950083256284
 20
68.30493877891544
 30
0.0
 10
99.02348102130112
 20
68.25748692072894
 30
0.0
 10
99.106966219838
 20
68.24238806779073
 30
0.0
 10
99.19377199695461
 20
68.24238806779073
 30
0.0
  0
SPLINE
  5
DE
330
1F
100
AcDbEntity
  8
0
  6
Continuous
 62
     7
370
    25
100
AcDbSpline
210
0.0
220
0.0
230
1.0
 70
     8
 71
     3
 72
     8
 73
     4
 74
     0
 42
0.00000001
 43
0.00000001
 40
0.0
 40
0.0
 40
0.0
 40
0.0
 40
1.0
 40
1.0
 40
1.0
 40
1.0
 10
88.19377199695462
 20
56.17342255054935
 30
0.0
 10
88.0932817439375
 20
56.17342255054935
 30
0.0
 10
87.99440100641023
 20
56.17988847796744
 30
0.0
 10
87.89698558729889
 20
56.19240433565201
 30
0.0
  0
LINE
  5
DF
330
1F
100
AcDbEntity
  8
0
  6
Continuous
 62
     7
370
    25
100
AcDbLine
 10
99.443771997
 20
56.1734225505
 30
0.0
 11
88.193771997
 21
56.1734225505
 31
0.0
  0
SPLINE
  5
E0
330
1F
100
AcDbEntity
  8
0
  6
Continuous
 62
     7
370
    25
100
AcDbSpline
210
0.0
220
0.0
230
1.0
 70
     8
 71
     3
 72
    14
 73
    10
 74
     0
 42
0.00000001
 43
0.00000001
 40
0.0
 40
0.0
 40
0.0
 40
0.0
 40
0.25
 40
0.25
 40
0.5
 40
0.5
 40
0.75
 40
0.75
 40
1.0
 40
1.0
 40
1.0
 40
1.0
 10
99.44377199695461
 20
56.17342255054935
 30
0.0
 10
99.53557439156755
 20
56.17342255054935
 30
0.0
 10
99.61973833048297
 20
56.19893274448848
 30
0.0
 10
99.74683401105435
 20
56.26589911227796
 30
0.0
 10
99.7949564803055
 20
56.30771374487941
 30
0.0
 10
99.87027426008426
 20
56.39767426256095
 30
0.0
 10
99.89765047317759
 20
56.44668125466064
 30
0.0
 10
99.93421232379971
 20
56.54799510519992
 30
0.0
 10
99.94377199695462
 20
56.60086372185054
 30
0.0
 10
99.94377199695462
 20
56.65618117123901
 30
0.0
  0
LINE
  5
E1
330
1F
100
AcDbEntity
  8
0
  6
Continuous
 62
     7
370
    25
100
AcDbLine
 10
99.943771997
 20
59.6533868019
 30
0.0
 11
99.943771997
 21
56.6561811712
 31
0.0
  0
SPLINE
  5
E2
330
1F
100
AcDbEntity
  8
0
  6
Continuous
 62
     7
370
    25
100
AcDbSpline
210
0.0
220
0.0
230
1.0
 70
    24
 71
     3
 72
    10
 73
     6
 74
     0
 42
0.00000001
 43
0.00000001
 40
0.0
 40
0.0
 40
0.0
 40
0.0
 40
0.5
 40
0.5
 40
1.0
 40
1.0
 40
1.0
 40
1.0
 10
99.69549175460892
 20
62.20790530917004
 30
0.0
 10
99.65452336081266
 20
62.20790530917004
 30
0.0
 10
99.61055885106816
 20
62.20790530917004
 30
0.0
 10
99.51951221132434
 20
62.20790530917004
 30
0.0
 10
99.48656377074349
 20
62.20790530917004
 30
0.0
 10
99.44377199695461
 20
62.20790530917004
 30
0.0
  0
SPLINE
  5
E3
330
1F
100
AcDbEntity
  8
0
  6
Continuous
 62
     7
370
    25
100
AcDbSpline
210
0.0
220
0.0
230
1.0
 70
     8
 71
     3
 72
    12
 73
     8
 74
     0
 42
0.00000001
 43
0.00000001
 40
0.0
 40
0.0
 40
0.0
 40
0.0
 40
0.25
 40
0.25
 40
0.5
 40
0.5
 40
1.0
 40
1.0
 40
1.0
 40
1.0
 10
99.69549175460892
 20
62.20790530917004
 30
0.0
 10
99.68524965615987
 20
62.4265943953764
 30
0.0
 10
99.67771044460653
 20
62.64497719678974
 30
0.0
 10
99.66338092898219
 20
63.08324734881747
 30
0.0
 10
99.65659062491116
 20
63.30313469943184
 30
0.0
 10
99.6303577744579
 20
63.96822925325711
 30
0.0
 10
99.62067505776959
 20
64.40141695832915
 30
0.0
 10
99.62054869224974
 20
64.84029067216703
 30
0.0
  0
SPLINE
  5
E4
330
1F
100
AcDbEntity
  8
0
  6
Continuous
 62
     7
370
    25
100
AcDbSpline
210
0.0
220
0.0
230
1.0
 70
     8
 71
     3
 72
    12
 73
     8
 74
     0
 42
0.00000001
 43
0.00000001
 40
0.0
 40
0.0
 40
0.0
 40
0.0
 40
0.25
 40
0.25
 40
0.5
 40
0.5
 40
1.0
 40
1.0
 40
1.0
 40
1.0
 10
99.69549175460892
 20
62.20790530917004
 30
0.0
 10
99.68524965615987
 20
61.98921622296369
 30
0.0
 10
99.67771044460653
 20
61.77083342155035
 30
0.0
 10
99.66338092898218
 20
61.33256326952262
 30
0.0
 10
99.65659062491116
 20
61.11267591890824
 30
0.0
 10
99.63035777445789
 20
60.44758136508297
 30
0.0
 10
99.62067505776959
 20
60.01439366001093
 30
0.0
 10
99.62054869224974
 20
59.57551994617307
 30
0.0
  0
SPLINE
  5
E5
330
1F
100
AcDbEntity
  8
0
  6
Continuous
 62
     7
370
    25
100
AcDbSpline
210
0.0
220
0.0
230
1.0
 70
    24
 71
     3
 72
    10
 73
     6
 74
     0
 42
0.00000001
 43
0.00000001
 40
0.0
 40
0.0
 40
0.0
 40
0.0
 40
0.5
 40
0.5
 40
1.0
 40
1.0
 40
1.0
 40
1.0
 10
92.19377199695461
 20
69.70962506682436
 30
0.0
 10
92.19377199695461
 20
69.6686566730281
 30
0.0
 10
92.19377199695461
 20
69.62469216328358
 30
0.0
 10
92.19377199695461
 20
69.53364552353978
 30
0.0
 10
92.19377199695461
 20
69.50069708295891
 30
0.0
 10
92.19377199695461
 20
69.45790530917003
 30
0.0
  0
SPLINE
  5
E6
330
1F
100
AcDbEntity
  8
0
  6
Continuous
 62
     7
370
    25
100
AcDbSpline
210
0.0
220
0.0
230
1.0
 70
     8
 71
     3
 72
    12
 73
     8
 74
     0
 42
0.00000001
 43
0.00000001
 40
0.0
 40
0.0
 40
0.0
 40
0.0
 40
0.25
 40
0.25
 40
0.5
 40
0.5
 40
1.0
 40
1.0
 40
1.0
 40
1.0
 10
92.19377199695461
 20
69.70962506682436
 30
0.0
 10
91.97508291074827
 20
69.6993829683753
 30
0.0
 10
91.75670010933491
 20
69.69184375682197
 30
0.0
 10
91.3184299573072
 20
69.67751424119761
 30
0.0
 10
91.09854260669282
 20
69.6707239371266
 30
0.0
 10
90.43344805286755
 20
69.64449108667333
 30
0.0
 10
90.0002603477955
 20
69.63480836998501
 30
0.0
 10
89.56138663395764
 20
69.63468200446518
 30
0.0
  0
SPLINE
  5
E7
330
1F
100
AcDbEntity
  8
0
  6
Continuous
 62
     7
370
    25
100
AcDbSpline
210
0.0
220
0.0
230
1.0
 70
     8
 71
     3
 72
    12
 73
     8
 74
     0
 42
0.00000001
 43
0.00000001
 40
0.0
 40
0.0
 40
0.0
 40
0.0
 40
0.25
 40
0.25
 40
0.5
 40
0.5
 40
1.0
 40
1.0
 40
1.0
 40
1.0
 10
92.19377199695461
 20
69.70962506682436
 30
0.0
 10
92.41246108316096
 20
69.69938296837529
 30
0.0
 10
92.63084388457432
 20
69.69184375682195
 30
0.0
 10
93.06911403660203
 20
69.67751424119761
 30
0.0
 10
93.28900138721642
 20
69.67072393712658
 30
0.0
 10
93.95409594104169
 20
69.64449108667333
 30
0.0
 10
94.38728364611373
 20
69.63480836998501
 30
0.0
 10
94.8261573599516
 20
69.63468200446518
 30
0.0
  0
SPLINE
  5
E8
330
1F
100
AcDbEntity
  8
0
  6
Continuous
 62
     7
370
    25
100
AcDbSpline
210
0.0
220
0.0
230
1.0
 70
     8
 71
     3
 72
    10
 73
     6
 74
     0
 42
0.00000001
 43
0.00000001
 40
0.0
 40
0.0
 40
0.0
 40
0.0
 40
0.5
 40
0.5
 40
1.0
 40
1.0
 40
1.0
 40
1.0
 10
96.81445295626024
 20
61.93108260641986
 30
0.0
 10
96.81445295626024
 20
61.93108260641986
 30
0.0
 10
96.83947046369407
 20
61.94166353695027
 30
0.0
 10
96.9246873382047
 20
61.97719832801451
 30
0.0
 10
96.98537692469142
 20
62.00227584620883
 30
0.0
 10
97.04567376464358
 20
62.02695081381337
 30
0.0
  0
SPLINE
  5
E9
330
1F
100
AcDbEntity
  8
0
  6
Continuous
 62
     7
370
    25
100
AcDbSpline
210
0.0
220
0.0
230
1.0
 70
     8
 71
     3
 72
    14
 73
    10
 74
     0
 42
0.00000001
 43
0.00000001
 40
0.0
 40
0.0
 40
0.0
 40
0.0
 40
0.25
 40
0.25
 40
0.5
 40
0.5
 40
0.75
 40
0.75
 40
1.0
 40
1.0
 40
1.0
 40
1.0
 10
96.81445295626025
 20
61.93108260641986
 30
0.0
 10
96.7730049369584
 20
62.01592505090092
 30
0.0
 10
96.70707888173119
 20
62.08608244019699
 30
0.0
 10
96.5452365422716
 20
62.18297238001967
 30
0.0
 10
96.45263227655565
 20
62.20800178020457
 30
0.0
 10
96.26398606160119
 20
62.20780828340309
 30
0.0
 10
96.17114920352357
 20
62.18223513710883
 30
0.0
 10
96.01153739473658
 20
62.08658131309338
 30
0.0
 10
95.94470223456817
 20
62.01593974865201
 30
0.0
 10
95.9032470349843
 20
61.93108260641974
 30
0.0
  0
SPLINE
  5
EA
330
1F
100
AcDbEntity
  8
0
  6
Continuous
 62
     7
370
    25
100
AcDbSpline
210
0.0
220
0.0
230
1.0
 70
     8
 71
     3
 72
    10
 73
     6
 74
     0
 42
0.00000001
 43
0.00000001
 40
0.0
 40
0.0
 40
0.0
 40
0.0
 40
0.5
 40
0.5
 40
1.0
 40
1.0
 40
1.0
 40
1.0
 10
95.9032470349843
 20
61.93108260641974
 30
0.0
 10
95.9032470349843
 20
61.93108260641974
 30
0.0
 10
95.87822952755023
 20
61.94166353694981
 30
0.0
 10
95.7930126530393
 20
61.97719832801415
 30
0.0
 10
95.73232306655338
 20
62.00227584620787
 30
0.0
 10
95.67202622660085
 20
62.02695081381281
 30
0.0
  0
LINE
  5
EB
330
1F
100
AcDbEntity
  8
0
  6
Continuous
 62
     7
370
    25
100
AcDbLine
 10
95.903247035
 20
61.9310826064
 30
0.0
 11
94.9323739471
 21
59.21656423
 31
0.0
  0
LINE
  5
EC
330
1F
100
AcDbEntity
  8
0
  6
Continuous
 62
     7
370
    25
100
AcDbLine
 10
94.6969770095
 20
59.3007561639
 30
0.0
 11
94.9323739471
 21
59.21656423
 31
0.0
  0
LINE
  5
ED
330
1F
100
AcDbEntity
  8
0
  6
Continuous
 62
     7
370
    25
100
AcDbLine
 10
98.0209492835
 20
59.3001234342
 30
0.0
 11
97.7855523458
 21
59.2159315003
 31
0.0
  0
LINE
  5
EE
330
1F
100
AcDbEntity
  8
0
  6
Continuous
 62
     7
370
    25
100
AcDbLine
 10
97.7855523458
 20
59.2159315003
 30
0.0
 11
96.8144529563
 21
61.9310826064
 31
0.0
  0
SPLINE
  5
EF
330
1F
100
AcDbEntity
  8
0
  6
Continuous
 62
     7
370
    25
100
AcDbSpline
210
0.0
220
0.0
230
1.0
 70
     8
 71
     3
 72
     8
 73
     4
 74
     0
 42
0.00000001
 43
0.00000001
 40
0.0
 40
0.0
 40
0.0
 40
0.0
 40
1.0
 40
1.0
 40
1.0
 40
1.0
 10
94.7482905041894
 20
69.95790530917004
 30
0.0
 10
94.74428527393243
 20
69.89245262873389
 30
0.0
 10
94.7501075868579
 20
69.82740306372565
 30
0.0
 10
94.76286839628844
 20
69.78112260324333
 30
0.0
  0
SPLINE
  5
F0
330
1F
100
AcDbEntity
  8
0
  6
Continuous
 62
     7
370
    25
100
AcDbSpline
210
0.0
220
0.0
230
1.0
 70
     8
 71
     3
 72
    12
 73
     8
 74
     0
 42
0.00000001
 43
0.00000001
 40
0.0
 40
0.0
 40
0.0
 40
0.0
 40
0.25
 40
0.25
 40
0.5
 40
0.5
 40
1.0
 40
1.0
 40
1.0
 40
1.0
 10
92.19377199695461
 20
69.70962506682436
 30
0.0
 10
92.41246108316096
 20
69.71986716527343
 30
0.0
 10
92.62963998816944
 20
69.73454987973683
 30
0.0
 10
93.06098902274988
 20
69.76637227039468
 30
0.0
 10
93.27515915232182
 20
69.78351194658914
 30
0.0
 10
93.91317375832165
 20
69.8289800123227
 30
0.0
 10
94.3427003816578
 20
69.82214716125856
 30
0.0
 10
94.76286839628844
 20
69.78112260324333
 30
0.0
  0
SPLINE
  5
F1
330
1F
100
AcDbEntity
  8
0
  6
Continuous
 62
     7
370
    25
100
AcDbSpline
210
0.0
220
0.0
230
1.0
 70
    24
 71
     3
 72
    10
 73
     6
 74
     0
 42
0.00000001
 43
0.00000001
 40
0.0
 40
0.0
 40
0.0
 40
0.0
 40
0.5
 40
0.5
 40
1.0
 40
1.0
 40
1.0
 40
1.0
 10
92.19377199695461
 20
69.70962506682436
 30
0.0
 10
92.19377199695461
 20
69.75059346062062
 30
0.0
 10
92.19377199695461
 20
69.79404890769256
 30
0.0
 10
92.19377199695462
 20
69.88313475290978
 30
0.0
 10
92.19377199695462
 20
69.91552198152512
 30
0.0
 10
92.19377199695462
 20
69.95790530917004
 30
0.0
  0
SPLINE
  5
F2
330
1F
100
AcDbEntity
  8
0
  6
Continuous
 62
     7
370
    25
100
AcDbSpline
210
0.0
220
0.0
230
1.0
 70
     8
 71
     3
 72
    12
 73
     8
 74
     0
 42
0.00000001
 43
0.00000001
 40
0.0
 40
0.0
 40
0.0
 40
0.0
 40
0.25
 40
0.25
 40
0.5
 40
0.5
 40
1.0
 40
1.0
 40
1.0
 40
1.0
 10
92.19377199695461
 20
69.70962506682436
 30
0.0
 10
91.97508291074827
 20
69.71986716527343
 30
0.0
 10
91.75790400573979
 20
69.73454987973683
 30
0.0
 10
91.32655497115935
 20
69.7663722703947
 30
0.0
 10
91.11238484158741
 20
69.78351194658916
 30
0.0
 10
90.47437023558759
 20
69.8289800123227
 30
0.0
 10
90.04484361225143
 20
69.82214716125856
 30
0.0
 10
89.6246755976208
 20
69.78112260324333
 30
0.0
  0
SPLINE
  5
F3
330
1F
100
AcDbEntity
  8
0
  6
Continuous
 62
     7
370
    25
100
AcDbSpline
210
0.0
220
0.0
230
1.0
 70
     8
 71
     3
 72
    10
 73
     6
 74
     0
 42
0.00000001
 43
0.00000001
 40
0.0
 40
0.0
 40
0.0
 40
0.0
 40
0.5
 40
0.5
 40
1.0
 40
1.0
 40
1.0
 40
1.0
 10
89.6246755976208
 20
69.78112260324333
 30
0.0
 10
89.63196757807843
 20
69.80967642520692
 30
0.0
 10
89.63586474070324
 20
69.84403645693935
 30
0.0
 10
89.63940094468498
 20
69.90707928146847
 30
0.0
 10
89.63925348971983
 20
69.93555819144672
 30
0.0
 10
89.63925348971983
 20
69.95790530917004
 30
0.0
  0
SPLINE
  5
F4
330
1F
100
AcDbEntity
  8
0
  6
Continuous
 62
     7
370
    25
100
AcDbSpline
210
0.0
220
0.0
230
1.0
 70
    24
 71
     3
 72
    10
 73
     6
 74
     0
 42
0.00000001
 43
0.00000001
 40
0.0
 40
0.0
 40
0.0
 40
0.0
 40
0.5
 40
0.5
 40
1.0
 40
1.0
 40
1.0
 40
1.0
 10
99.69549175460892
 20
62.20790530917004
 30
0.0
 10
99.7364601484052
 20
62.20790530917004
 30
0.0
 10
99.77991559547712
 20
62.20790530917004
 30
0.0
 10
99.86900144069436
 20
62.20790530917004
 30
0.0
 10
99.90138866930968
 20
62.20790530917004
 30
0.0
 10
99.94377199695462
 20
62.20790530917004
 30
0.0
  0
SPLINE
  5
F5
330
1F
100
AcDbEntity
  8
0
  6
Continuous
 62
     7
370
    25
100
AcDbSpline
210
0.0
220
0.0
230
1.0
 70
     8
 71
     3
 72
    10
 73
     6
 74
     0
 42
0.00000001
 43
0.00000001
 40
0.0
 40
0.0
 40
0.0
 40
0.0
 40
0.5
 40
0.5
 40
1.0
 40
1.0
 40
1.0
 40
1.0
 10
99.7669892910279
 20
59.63880890983622
 30
0.0
 10
99.79554311299148
 20
59.64610089029387
 30
0.0
 10
99.82990314472391
 20
59.64999805291868
 30
0.0
 10
99.89294596925303
 20
59.65353425690041
 30
0.0
 10
99.92142487923128
 20
59.65338680193527
 30
0.0
 10
99.94377199695462
 20
59.65338680193527
 30
0.0
  0
SPLINE
  5
F6
330
1F
100
AcDbEntity
  8
0
  6
Continuous
 62
     7
370
    25
100
AcDbSpline
210
0.0
220
0.0
230
1.0
 70
     8
 71
     3
 72
    14
 73
    10
 74
     0
 42
0.00000001
 43
0.00000001
 40
0.0
 40
0.0
 40
0.0
 40
0.0
 40
0.25
 40
0.25
 40
0.5
 40
0.5
 40
0.75
 40
0.75
 40
1.0
 40
1.0
 40
1.0
 40
1.0
 10
99.69549175460892
 20
62.20790530917004
 30
0.0
 10
99.705733853058
 20
61.98921622296369
 30
0.0
 10
99.7204165675214
 20
61.77203731795521
 30
0.0
 10
99.75223895817926
 20
61.34068828337479
 30
0.0
 10
99.76937863437372
 20
61.12651815380284
 30
0.0
 10
99.79969067819609
 20
60.7011750831363
 30
0.0
 10
99.80556047638564
 20
60.48745765963562
 30
0.0
 10
99.79946592230536
 20
60.06131657664324
 30
0.0
 10
99.78750157003552
 20
59.84889291715154
 30
0.0
 10
99.7669892910279
 20
59.63880890983622
 30
0.0
  0
SPLINE
  5
F7
330
1F
100
AcDbEntity
  8
0
  6
Continuous
 62
     7
370
    25
100
AcDbSpline
210
0.0
220
0.0
230
1.0
 70
     8
 71
     3
 72
    14
 73
    10
 74
     0
 42
0.00000001
 43
0.00000001
 40
0.0
 40
0.0
 40
0.0
 40
0.0
 40
0.25
 40
0.25
 40
0.5
 40
0.5
 40
0.75
 40
0.75
 40
1.0
 40
1.0
 40
1.0
 40
1.0
 10
99.69549175460892
 20
62.20790530917004
 30
0.0
 10
99.705733853058
 20
62.4265943953764
 30
0.0
 10
99.72041656752141
 20
62.64377330038489
 30
0.0
 10
99.75223895817926
 20
63.0751223349653
 30
0.0
 10
99.76937863437372
 20
63.28929246453724
 30
0.0
 10
99.79969067819609
 20
63.71463553520379
 30
0.0
 10
99.80556047638564
 20
63.92835295870447
 30
0.0
 10
99.79946592230536
 20
64.35449404169685
 30
0.0
 10
99.78750157003552
 20
64.56691770118856
 30
0.0
 10
99.7669892910279
 20
64.77700170850386
 30
0.0
  0
SPLINE
  5
F8
330
1F
100
AcDbEntity
  8
0
  6
Continuous
 62
     7
370
    25
100
AcDbSpline
210
0.0
220
0.0
230
1.0
 70
     8
 71
     3
 72
     8
 73
     4
 74
     0
 42
0.00000001
 43
0.00000001
 40
0.0
 40
0.0
 40
0.0
 40
0.0
 40
1.0
 40
1.0
 40
1.0
 40
1.0
 10
99.7669892910279
 20
64.77700170850386
 30
0.0
 10
99.81326975151022
 20
64.76424089907331
 30
0.0
 10
99.87831931651847
 20
64.75841858614785
 30
0.0
 10
99.94377199695462
 20
64.76242381640482
 30
0.0
  0
SPLINE
  5
F9
330
1F
100
AcDbEntity
  8
0
  6
Continuous
 62
     7
370
    25
100
AcDbSpline
210
0.0
220
0.0
230
1.0
 70
     8
 71
     3
 72
    12
 73
     8
 74
     0
 42
0.00000001
 43
0.00000001
 40
0.0
 40
0.0
 40
0.0
 40
0.0
 40
0.25
 40
0.25
 40
0.5
 40
0.5
 40
1.0
 40
1.0
 40
1.0
 40
1.0
 10
89.6246755976208
 20
69.78112260324333
 30
0.0
 10
89.62102960739197
 20
69.76684569226154
 30
0.0
 10
89.61647307445953
 20
69.754083156012
 30
0.0
 10
89.60585446047558
 20
69.73293640313314
 30
0.0
 10
89.59979237942406
 20
69.72455218650379
 30
0.0
 10
89.5798211200231
 20
69.70799137127956
 30
0.0
 10
89.56447032705388
 20
69.70790530917003
 30
0.0
 10
89.54802068589002
 20
69.70790530917003
 30
0.0
  0
SPLINE
  5
FA
330
1F
100
AcDbEntity
  8
0
  6
Continuous
 62
     7
370
    25
100
AcDbSpline
210
0.0
220
0.0
230
1.0
 70
     8
 71
     3
 72
    15
 73
    11
 74
     0
 42
0.00000001
 43
0.00000001
 40
0.0
 40
0.0
 40
0.0
 40
0.0
 40
0.0425877399909041
 40
0.1028282325346875
 40
0.1864706729280299
 40
0.2956205441869006
 40
0.4311891005861807
 40
0.5936297641565581
 40
0.7831876993469636
 40
1.0
 40
1.0
 40
1.0
 40
1.0
 10
99.69377199695461
 20
64.85365662023463
 30
0.0
 10
99.69377779005676
 20
64.85083729675414
 30
0.0
 10
99.69379177752016
 20
64.84403003131798
 30
0.0
 10
99.69428347835189
 20
64.8354898349771
 30
0.0
 10
99.69591083231049
 20
64.82619215244671
 30
0.0
 10
99.69973598069457
 20
64.81638441681969
 30
0.0
 10
99.70710829073538
 20
64.8060587707706
 30
0.0
 10
99.7197262797122
 20
64.79559205931864
 30
0.0
 10
99.73897048191638
 20
64.78525882407796
 30
0.0
 10
99.75724122828663
 20
64.77987445303621
 30
0.0
 10
99.7669892910279
 20
64.77700170850386
 30
0.0
  0
SPLINE
  5
FB
330
1F
100
AcDbEntity
  8
0
  6
Continuous
 62
     7
370
    25
100
AcDbSpline
210
0.0
220
0.0
230
1.0
 70
     8
 71
     3
 72
    12
 73
     8
 74
     0
 42
0.00000001
 43
0.00000001
 40
0.0
 40
0.0
 40
0.0
 40
0.0
 40
0.25
 40
0.25
 40
0.5
 40
0.5
 40
1.0
 40
1.0
 40
1.0
 40
1.0
 10
99.7669892910279
 20
59.63880890983622
 30
0.0
 10
99.7527123800461
 20
59.6351629196074
 30
0.0
 10
99.73994984379657
 20
59.63060638667496
 30
0.0
 10
99.7188030909177
 20
59.61998777269101
 30
0.0
 10
99.71041887428837
 20
59.61392569163949
 30
0.0
 10
99.69385805906414
 20
59.59395443223853
 30
0.0
 10
99.69377199695461
 20
59.57860363926931
 30
0.0
 10
99.69377199695461
 20
59.56215399810545
 30
0.0
  0
SPLINE
  5
FC
330
1F
100
AcDbEntity
  8
0
  6
Continuous
 62
     7
370
    25
100
AcDbSpline
210
0.0
220
0.0
230
1.0
 70
     8
 71
     3
 72
    14
 73
    10
 74
     0
 42
0.00000001
 43
0.00000001
 40
0.0
 40
0.0
 40
0.0
 40
0.0
 40
0.2455893235675696
 40
0.4556181963142487
 40
0.6303106213393677
 40
0.7701164303669036
 40
0.8759901151610805
 40
0.9502659312389182
 40
1.0
 40
1.0
 40
1.0
 40
1.0
 10
94.76286839628844
 20
69.78112260324333
 30
0.0
 10
94.76615997376169
 20
69.77015756392802
 30
0.0
 10
94.7722665201278
 20
69.74981518355587
 30
0.0
 10
94.784189510387
 20
69.7296631710794
 30
0.0
 10
94.79611859290152
 20
69.71754361160855
 30
0.0
 10
94.80756580026564
 20
69.71133778837616
 30
0.0
 10
94.81845132531244
 20
69.70871808940231
 30
0.0
 10
94.82813858710351
 20
69.70793789505727
 30
0.0
 10
94.83626444069684
 20
69.70791463685438
 30
0.0
 10
94.8395233080192
 20
69.70790530917003
 30
0.0
  0
ARC
  5
FD
330
1F
100
AcDbEntity
  8
0
  6
Continuous
 62
     7
370
    25
100
AcDbCircle
 10
99.193771997
 20
69.2079053092
 30
0.0
 40
1.0
100
AcDbArc
 50
180.0
 51
270.0
  0
LINE
  5
FE
330
1F
100
AcDbEntity
  8
0
  6
Continuous
 62
     7
370
    25
100
AcDbLine
 10
99.193771997
 20
68.2079053092
 30
0.0
 11
99.193771997
 21
67.9579053092
 31
0.0
  0
LINE
  5
FF
330
1F
100
AcDbEntity
  8
0
  6
Continuous
 62
     7
370
    25
100
AcDbLine
 10
98.193771997
 20
69.2079053092
 30
0.0
 11
97.943771997
 21
69.2079053092
 31
0.0
  0
LINE
  5
100
330
1F
100
AcDbEntity
  8
0
  6
Continuous
 62
     7
370
    25
100
AcDbLine
 10
98.4254744879
 20
59.1662888685
 30
0.0
 11
98.5495144192
 21
58.9492310526
 31
0.0
  0
SPLINE
  5
101
330
1F
100
AcDbEntity
  8
0
  6
Continuous
 62
     7
370
    25
100
AcDbSpline
210
0.0
220
0.0
230
1.0
 70
     8
 71
     3
 72
    10
 73
     6
 74
     0
 42
0.00000001
 43
0.00000001
 40
0.0
 40
0.0
 40
0.0
 40
0.0
 40
0.5
 40
0.5
 40
1.0
 40
1.0
 40
1.0
 40
1.0
 10
98.54951441915962
 20
58.94923105262645
 30
0.0
 10
98.4150798715677
 20
58.87240704156653
 30
0.0
 10
98.24941450440615
 20
58.85815755108107
 30
0.0
 10
97.96063506269614
 20
58.95624360612533
 30
0.0
 10
97.83775227425537
 20
59.06998280044297
 30
0.0
 10
97.78555234584184
 20
59.21593150032946
 30
0.0
  0
SPLINE
  5
102
330
1F
100
AcDbEntity
  8
0
  6
Continuous
 62
     7
370
    25
100
AcDbSpline
210
0.0
220
0.0
230
1.0
 70
     8
 71
     3
 72
    23
 73
    19
 74
     0
 42
0.00000001
 43
0.00000001
 40
0.0
 40
0.0
 40
0.0
 40
0.0
 40
0.0000210594021204
 40
0.0000210594021204
 40
0.0000210594021204
 40
0.0000429122282046
 40
0.0000429122282046
 40
0.0000429122282046
 40
0.0000655452306719
 40
0.0000655452306719
 40
0.0000655452306719
 40
0.000088492665435
 40
0.000088492665435
 40
0.000088492665435
 40
0.0001110534468608
 40
0.0001110534468608
 40
0.0001110534468608
 40
0.000119364715226
 40
0.000119364715226
 40
0.000119364715226
 40
0.000119364715226
 10
94.74993979914461
 20
57.79735161012316
 30
0.0
 10
94.75320073095722
 20
57.79113518625754
 30
0.0
 10
94.75760466224692
 20
57.78541368232275
 30
0.0
 10
94.76274357752101
 20
57.78063151212827
 30
0.0
 10
94.76807531041193
 20
57.77566990977527
 30
0.0
 10
94.77434456911584
 20
57.77157709374065
 30
0.0
 10
94.78101086025976
 20
57.76864359141174
 30
0.0
 10
94.78791300816172
 20
57.76560630028421
 30
0.0
 10
94.7954327410522
 20
57.7637242567207
 30
0.0
 10
94.80294963341531
 20
57.76312333055603
 30
0.0
 10
94.81056913430709
 20
57.76251420151354
 30
0.0
 10
94.8183988407108
 20
57.76320416225224
 30
0.0
 10
94.82579158268773
 20
57.76514714915211
 30
0.0
 10
94.83305991717992
 20
57.76705743883166
 30
0.0
 10
94.84010775524007
 20
57.77023439221152
 30
0.0
 10
94.8463265511871
 20
57.77445392653646
 30
0.0
 10
94.84864642127458
 20
57.77602798870973
 30
0.0
 10
94.85086968670359
 20
57.77775508114163
 30
0.0
 10
94.85296637022078
 20
57.77961609892143
 30
0.0
  0
LINE
  5
103
330
1F
100
AcDbEntity
  8
0
  6
Continuous
 62
     7
370
    25
100
AcDbLine
 10
94.8529663702
 20
57.7796160989
 30
0.0
 11
95.0189227413
 21
57.5926442217
 31
0.0
  0
LINE
  5
104
330
1F
100
AcDbEntity
  8
0
  6
Continuous
 62
     7
370
    25
100
AcDbLine
 10
94.7499397991
 20
57.7973516101
 30
0.0
 11
94.5285508978
 21
57.6812182629
 31
0.0
  0
LINE
  5
105
330
1F
100
AcDbEntity
  8
0
  6
Continuous
 62
     7
370
    25
100
AcDbLine
 10
94.1360762951
 20
58.9675802307
 30
0.0
 11
94.7499397991
 21
57.7973516101
 31
0.0
  0
LINE
  5
106
330
1F
100
AcDbEntity
  8
0
  6
Continuous
 62
     7
370
    25
100
AcDbLine
 10
94.1360762951
 20
58.9675802307
 30
0.0
 11
93.5287635474
 21
59.5871464767
 31
0.0
  0
ARC
  5
107
330
1F
100
AcDbEntity
  8
0
  6
Continuous
 62
     7
370
    25
100
AcDbCircle
 10
99.443771997
 20
56.4579053092
 30
0.0
 40
0.25
100
AcDbArc
 50
270.0
 51
0.0
  0
LINE
  5
108
330
1F
100
AcDbEntity
  8
0
  6
Continuous
 62
     7
370
    25
100
AcDbLine
 10
99.443771997
 20
56.4579053092
 30
0.0
 11
99.443771997
 21
56.2079053092
 31
0.0
  0
LINE
  5
109
330
1F
100
AcDbEntity
  8
0
  6
Continuous
 62
     7
370
    25
100
AcDbLine
 10
97.9677601921
 20
57.7973516101
 30
0.0
 11
98.5816236961
 21
58.9675802307
 31
0.0
  0
LINE
  5
10A
330
1F
100
AcDbEntity
  8
0
  6
Continuous
 62
     7
370
    25
100
AcDbLine
 10
98.5816236961
 20
58.9675802307
 30
0.0
 11
99.2004960534
 21
59.6091829489
 31
0.0
  0
LINE
  5
10B
330
1F
100
AcDbEntity
  8
0
  6
Continuous
 62
     7
370
    25
100
AcDbLine
 10
97.9677601921
 20
57.7973516101
 30
0.0
 11
98.1891490935
 21
57.6812182629
 31
0.0
  0
LINE
  5
10C
330
1F
100
AcDbEntity
  8
0
  6
Continuous
 62
     7
370
    25
100
AcDbLine
 10
99.193771997
 20
68.2079053092
 30
0.0
 11
99.443771997
 21
68.2079053092
 31
0.0
  0
LINE
  5
10D
330
1F
100
AcDbEntity
  8
0
  6
Continuous
 62
     7
370
    25
100
AcDbLine
 10
99.443771997
 20
68.2079053092
 30
0.0
 11
99.443771997
 21
67.9579053092
 31
0.0
  0
LINE
  5
10E
330
1F
100
AcDbEntity
  8
0
  6
Continuous
 62
     7
370
    25
100
AcDbLine
 10
86.443771997
 20
58.2079053092
 30
0.0
 11
86.193771997
 21
58.2079053092
 31
0.0
  0
LINE
  5
10F
330
1F
100
AcDbEntity
  8
0
  6
Continuous
 62
     7
370
    25
100
AcDbLine
 10
86.193771997
 20
58.2079053092
 30
0.0
 11
86.193771997
 21
69.4579053092
 31
0.0
  0
LINE
  5
110
330
1F
100
AcDbEntity
  8
0
  6
Continuous
 62
     7
370
    25
100
AcDbLine
 10
86.193771997
 20
69.4579053092
 30
0.0
 11
86.443771997
 21
69.4579053092
 31
0.0
  0
LINE
  5
111
330
1F
100
AcDbEntity
  8
0
  6
Continuous
 62
     7
370
    25
100
AcDbLine
 10
99.443771997
 20
56.2079053092
 30
0.0
 11
88.193771997
 21
56.2079053092
 31
0.0
  0
LINE
  5
112
330
1F
100
AcDbEntity
  8
0
  6
Continuous
 62
     7
370
    25
100
AcDbLine
 10
88.193771997
 20
56.4579053092
 30
0.0
 11
88.193771997
 21
56.2079053092
 31
0.0
  0
SPLINE
  5
113
330
1F
100
AcDbEntity
  8
0
  6
Continuous
 62
     7
370
    25
100
AcDbSpline
210
0.0
220
0.0
230
1.0
 70
     8
 71
     3
 72
    10
 73
     6
 74
     0
 42
0.00000001
 43
0.00000001
 40
0.0
 40
0.0
 40
0.0
 40
0.0
 40
0.5
 40
0.5
 40
1.0
 40
1.0
 40
1.0
 40
1.0
 10
94.93237394713536
 20
59.2165642300052
 30
0.0
 10
94.88075702913501
 20
59.07224560154572
 30
0.0
 10
94.76017680506504
 20
58.95912633987398
 30
0.0
 10
94.4736091815899
 20
58.85928658965607
 30
0.0
 10
94.31000155679584
 20
58.87186722735574
 30
0.0
 10
94.17584105211832
 20
58.94569724321971
 30
0.0
  0
LINE
  5
114
330
1F
100
AcDbEntity
  8
0
  6
Continuous
 62
     7
370
    25
100
AcDbLine
 10
94.2963730511
 20
59.1647224409
 30
0.0
 11
94.1758410521
 21
58.9456972432
 31
0.0
  0
LINE
  5
115
330
1F
100
AcDbEntity
  8
0
  6
Continuous
 62
     7
370
    25
100
AcDbLine
 10
94.1758410521
 20
58.9456972432
 30
0.0
 11
94.1360762951
 21
58.9675802307
 31
0.0
  0
ARC
  5
116
330
1F
100
AcDbEntity
  8
0
  6
Continuous
 62
     7
370
    25
100
AcDbCircle
 10
86.443771997
 20
69.4579053092
 30
0.0
 40
0.25
100
AcDbArc
 50
90.0
 51
180.0
  0
SPLINE
  5
117
330
1F
100
AcDbEntity
  8
0
  6
Continuous
 62
     7
370
    25
100
AcDbSpline
210
0.0
220
0.0
230
1.0
 70
     8
 71
     3
 72
    20
 73
    16
 74
     0
 42
0.00000001
 43
0.00000001
 40
0.0
 40
0.0
 40
0.0
 40
0.0
 40
0.2500000000000003
 40
0.2500000000000003
 40
0.3750000000000002
 40
0.3750000000000002
 40
0.5000000000000002
 40
0.5000000000000002
 40
0.6250000000000002
 40
0.6250000000000002
 40
0.7500000000000001
 40
0.7500000000000001
 40
0.8750000000000001
 40
0.8750000000000001
 40
1.0
 40
1.0
 40
1.0
 40
1.0
 10
94.85296637022078
 20
57.77961609892144
 30
0.0
 10
95.05982158659864
 20
57.96322093597434
 30
0.0
 10
95.29617131324669
 20
58.1036570357989
 30
0.0
 10
95.68305363650641
 20
58.24786161980725
 30
0.0
 10
95.81476242503983
 20
58.28375080772729
 30
0.0
 10
96.08347080756452
 20
58.33208070305762
 30
0.0
 10
96.22185250855661
 20
58.34444565964064
 30
0.0
 10
96.49601215629305
 20
58.34443592245601
 30
0.0
 10
96.6317818238087
 20
58.33237699220351
 30
0.0
 10
96.90071614538915
 20
58.28429176879557
 30
0.0
 10
97.03504894846746
 20
58.24768323017512
 30
0.0
 10
97.29133855839079
 20
58.15221168806661
 30
0.0
 10
97.41416012594384
 20
58.09342410887654
 30
0.0
 10
97.64894144074292
 20
57.95329824594871
 30
0.0
 10
97.76131619037453
 20
57.87140948385628
 30
0.0
 10
97.86473362102362
 20
57.77961609892142
 30
0.0
  0
LINE
  5
118
330
1F
100
AcDbEntity
  8
0
  6
Continuous
 62
     7
370
    25
100
AcDbLine
 10
97.864733621
 20
57.7796160989
 30
0.0
 11
97.6987772499
 21
57.5926442217
 31
0.0
  0
SPLINE
  5
119
330
1F
100
AcDbEntity
  8
0
  6
Continuous
 62
     7
370
    25
100
AcDbSpline
210
0.0
220
0.0
230
1.0
 70
     8
 71
     3
 72
    23
 73
    19
 74
     0
 42
0.00000001
 43
0.00000001
 40
0.0
 40
0.0
 40
0.0
 40
0.0
 40
0.0000221251499261
 40
0.0000221251499261
 40
0.0000221251499261
 40
0.0000448428854419
 40
0.0000448428854419
 40
0.0000448428854419
 40
0.000067774629955
 40
0.000067774629955
 40
0.000067774629955
 40
0.0000902663208602
 40
0.0000902663208602
 40
0.0000902663208602
 40
0.000111841557339
 40
0.000111841557339
 40
0.000111841557339
 40
0.0001193253350659
 40
0.0001193253350659
 40
0.0001193253350659
 40
0.0001193253350659
 10
97.86473362102362
 20
57.7796160989214
 30
0.0
 10
97.87024932877863
 20
57.77472035279846
 30
0.0
 10
97.87670296307387
 20
57.77073447860742
 30
0.0
 10
97.88353017533225
 20
57.7679451175842
 30
0.0
 10
97.89053954429274
 20
57.76508133368007
 30
0.0
 10
97.89813917647676
 20
57.76339501705048
 30
0.0
 10
97.90570064257226
 20
57.76299911054585
 30
0.0
 10
97.9133320736599
 20
57.76259954078397
 30
0.0
 10
97.92113827686468
 20
57.76350307036686
 30
0.0
 10
97.92847260973316
 20
57.76564921989903
 30
0.0
 10
97.93566652354495
 20
57.76775428044623
 30
0.0
 10
97.94260604840039
 20
57.77111583172886
 30
0.0
 10
97.94868912855823
 20
57.77549530791126
 30
0.0
 10
97.95452616004142
 20
57.77969764286221
 30
0.0
 10
97.9597334366269
 20
57.78495626646446
 30
0.0
 10
97.96383100400965
 20
57.7908673151971
 30
0.0
 10
97.96527082013738
 20
57.79294435811113
 30
0.0
 10
97.966586183073
 20
57.79511355727447
 30
0.0
 10
97.96776019209977
 20
57.79735161012314
 30
0.0
  0
LINE
  5
11A
330
1F
100
AcDbEntity
  8
0
  6
Continuous
 62
     7
370
    25
100
AcDbLine
 10
98.193771997
 20
69.4579053092
 30
0.0
 11
98.193771997
 21
69.2079053092
 31
0.0
  0
LINE
  5
11B
330
1F
100
AcDbEntity
  8
0
  6
Continuous
 62
     7
370
    25
100
AcDbLine
 10
97.943771997
 20
69.4579053092
 30
0.0
 11
98.193771997
 21
69.4579053092
 31
0.0
  0
ARC
  5
11C
330
1F
100
AcDbEntity
  8
0
  6
Continuous
 62
     7
370
    25
100
AcDbCircle
 10
88.193771997
 20
58.2079053092
 30
0.0
 40
2.0
100
AcDbArc
 50
180.0
 51
270.0
  0
ELLIPSE
  5
11D
330
1F
100
AcDbEntity
  8
0
  6
Continuous
 62
     7
370
    25
100
AcDbEllipse
 10
96.3588499972
 20
59.9039585448
 30
0.0
 11
0.06537569707428759
 21
0.0
 31
0.0
210
0.0
220
0.0
230
1.0
 40
0.9531667975
 41
0.343023940420318
 42
2.798568713169368
  0
LINE
  5
11E
330
1F
100
AcDbEntity
  8
0
  6
Continuous
 62
     7
370
    25
100
AcDbLine
 10
96.4204170311
 20
59.9249169922
 30
0.0
 11
96.65452708
 21
59.300108397
 31
0.0
  0
ELLIPSE
  5
11F
330
1F
100
AcDbEntity
  8
0
  6
Continuous
 62
     7
370
    25
100
AcDbEllipse
 10
96.592960046
 20
59.2791499498
 30
0.0
 11
0.06537569707428759
 21
7.105427357601002E-15
 31
0.0
210
0.0
220
0.0
230
1.0
 40
0.9531667975
 41
4.7123889803846
 42
6.626209245739328
  0
ELLIPSE
  5
120
330
1F
100
AcDbEntity
  8
0
  6
Continuous
 62
     7
370
    25
100
AcDbEllipse
 10
96.1247399456
 20
59.2791499498
 30
0.0
 11
-0.0653756970743018
 21
0.0
 31
0.0
210
0.0
220
0.0
230
1.0
 40
0.9531667975
 41
5.940161364895863
 42
7.853981633974483
  0
LINE
  5
121
330
1F
100
AcDbEntity
  8
0
  6
Continuous
 62
     7
370
    25
100
AcDbLine
 10
96.592960046
 20
59.2168360059
 30
0.0
 11
96.1247399456
 21
59.2168360059
 31
0.0
  0
LINE
  5
122
330
1F
100
AcDbEntity
  8
0
  6
Continuous
 62
     7
370
    25
100
AcDbLine
 10
96.0631729117
 20
59.3001083972
 30
0.0
 11
96.2972829632
 21
59.9249169922
 31
0.0
  0
ARC
  5
123
330
1F
100
AcDbEntity
  8
0
  6
Continuous
 62
     7
370
    25
100
AcDbCircle
 10
97.943771997
 20
69.4579053092
 30
0.0
 40
0.25
100
AcDbArc
 50
0.0
 51
90.0
  0
ARC
  5
124
330
1F
100
AcDbEntity
  8
0
  6
Continuous
 62
     7
370
    25
100
AcDbCircle
 10
99.443771997
 20
67.9579053092
 30
0.0
 40
0.25
100
AcDbArc
 50
0.0
 51
90.0
  0
LINE
  5
125
330
1F
100
AcDbEntity
  8
0
  6
Continuous
 62
     7
370
    25
100
AcDbLine
 10
98.5816236961
 20
58.9675802307
 30
0.0
 11
98.5495144192
 21
58.9492310526
 31
0.0
  0
LINE
  5
126
330
1F
100
AcDbEntity
  8
0
  6
Continuous
 62
     7
370
    25
100
AcDbLine
 10
98.646959497
 20
84.2079053092
 30
0.0
 11
85.740584497
 21
84.2079053092
 31
0.0
  0
ARC
  5
127
330
1F
100
AcDbEntity
  8
0
  6
Continuous
 62
     7
370
    25
100
AcDbCircle
 10
97.9730073793
 20
69.9347186266
 30
0.0
 40
0.2286897211609632
100
AcDbArc
 50
174.1808239121
 51
262.6552867776
  0
ARC
  5
128
330
1F
100
AcDbEntity
  8
0
  6
Continuous
 62
     7
370
    25
100
AcDbCircle
 10
99.9205853144
 20
56.4286699269
 30
0.0
 40
0.2286897211609605
100
AcDbArc
 50
84.1808239121
 51
172.6552867776
  0
ARC
  5
129
330
1F
100
AcDbEntity
  8
0
  6
Continuous
 62
     7
370
    25
100
AcDbCircle
 10
86.4145366146
 20
69.9347186266
 30
0.0
 40
0.2286897211609356
100
AcDbArc
 50
277.3447132224
 51
5.8191760879
  0
ARC
  5
12A
330
1F
100
AcDbEntity
  8
0
  6
Continuous
 62
     7
370
    25
100
AcDbCircle
 10
99.9205853144
 20
67.9871406915
 30
0.0
 40
0.2286897211609455
100
AcDbArc
 50
187.3447132224
 51
275.8191760879
  0
LINE
  5
12B
330
1F
100
AcDbEntity
  8
0
  6
Continuous
 62
     7
370
    25
100
AcDbLine
 10
86.943771997
 20
86.2079053092
 30
0.0
 11
97.443771997
 21
86.2079053092
 31
0.0
  0
LINE
  5
12C
330
1F
100
AcDbEntity
  8
0
  6
Continuous
 62
     7
370
    25
100
AcDbLine
 10
98.2282547556
 20
69.4579053092
 30
0.0
 11
98.193771997
 21
69.4579053092
 31
0.0
  0
LINE
  5
12D
330
1F
100
AcDbEntity
  8
0
  6
Continuous
 62
     7
370
    25
100
AcDbLine
 10
99.443771997
 20
56.2079053092
 30
0.0
 11
99.443771997
 21
56.1734225505
 31
0.0
  0
LINE
  5
12E
330
1F
100
AcDbEntity
  8
0
  6
Continuous
 62
     7
370
    25
100
AcDbLine
 10
86.1592892383
 20
69.4579053092
 30
0.0
 11
86.193771997
 21
69.4579053092
 31
0.0
  0
LINE
  5
12F
330
1F
100
AcDbEntity
  8
0
  6
Continuous
 62
     7
370
    25
100
AcDbLine
 10
99.443771997
 20
68.2079053092
 30
0.0
 11
99.443771997
 21
68.2423880678
 31
0.0
  0
LWPOLYLINE
  5
130
330
1F
100
AcDbEntity
  8
0
  6
Continuous
 62
     7
370
    25
100
AcDbPolyline
 90
        9
 70
   128
 43
0.0
 10
87.929961855
 20
56.2253806034
 10
87.9261907852
 20
56.2252838166
 10
87.9222810807
 20
56.2240111296
 10
87.9182513006
 20
56.2215685838
 10
87.9141205741
 20
56.2179677738
 10
87.9099085092
 20
56.2132257923
 10
87.9056351002
 20
56.2073651491
 10
87.9013206328
 20
56.2004136642
 10
87.8969855873
 20
56.1924043357
  0
SPLINE
  5
131
330
1F
100
AcDbEntity
  8
0
  6
Continuous
 62
     7
370
    25
100
AcDbSpline
210
0.0
220
0.0
230
1.0
 70
     8
 71
     3
 72
    14
 73
    10
 74
     0
 42
0.00000001
 43
0.00000001
 40
0.0
 40
0.0
 40
0.0
 40
0.0
 40
0.25
 40
0.25
 40
0.5
 40
0.5
 40
0.75
 40
0.75
 40
1.0
 40
1.0
 40
1.0
 40
1.0
 10
87.89698558729889
 20
56.19240433565201
 30
0.0
 10
87.68112631520115
 20
56.2188552725684
 30
0.0
 10
87.47329482080897
 20
56.27924111842378
 30
0.0
 10
87.07589142989828
 20
56.47152168370437
 30
0.0
 10
86.89740862201789
 20
56.59808947561486
 30
0.0
 10
86.58359280918268
 20
56.91199792008646
 30
0.0
 10
86.45666138509108
 20
57.09128023085141
 30
0.0
 10
86.26499452258027
 20
57.48791039013295
 30
0.0
 10
86.20472077267466
 20
57.69526931975287
 30
0.0
 10
86.1782710234366
 20
57.91111889951431
 30
0.0
  0
LWPOLYLINE
  5
132
330
1F
100
AcDbEntity
  8
0
  6
Continuous
 62
     7
370
    25
100
AcDbPolyline
 90
        9
 70
   128
 43
0.0
 10
86.2112472912
 20
57.9440951673
 10
86.2111505043
 20
57.9403240974
 10
86.2098778174
 20
57.9364143929
 10
86.2074352716
 20
57.9323846129
 10
86.2038344616
 20
57.9282538863
 10
86.1990924801
 20
57.9240418214
 10
86.1932318369
 20
57.9197684125
 10
86.186280352
 20
57.915453945
 10
86.1782710234
 20
57.9111188995
  0
LINE
  5
133
330
1F
100
AcDbEntity
  8
0
  6
Continuous
 62
     7
370
    25
100
AcDbLine
 10
88.193771997
 20
56.2079053092
 30
0.0
 11
88.193771997
 21
56.1734225505
 31
0.0
  0
LINE
  5
134
330
1F
100
AcDbEntity
  8
0
  6
Continuous
 62
     7
370
    25
100
AcDbLine
 10
86.1592892383
 20
58.2079053092
 30
0.0
 11
86.193771997
 21
58.2079053092
 31
0.0
  0
SPLINE
  5
135
330
1F
100
AcDbEntity
  8
0
  6
Continuous
 62
     7
370
    25
100
AcDbSpline
210
0.0
220
0.0
230
1.0
 70
    24
 71
     3
 72
    10
 73
     6
 74
     0
 42
0.00000001
 43
0.00000001
 40
0.0
 40
0.0
 40
0.0
 40
0.0
 40
0.5
 40
0.5
 40
1.0
 40
1.0
 40
1.0
 40
1.0
 10
98.5620584856519
 20
68.57619179786734
 30
0.0
 10
98.5371671151401
 20
68.55130042735553
 30
0.0
 10
98.51922041796921
 20
68.53335373018463
 30
0.0
 10
98.4937034799027
 20
68.50783679211814
 30
0.0
 10
98.48666521576843
 20
68.50079852798419
 30
0.0
 10
98.48666521576773
 20
68.50079852798315
 30
0.0
  0
LINE
  5
136
330
1F
100
AcDbEntity
  8
0
  6
Continuous
 62
     7
370
    25
100
AcDbLine
 10
98.2282547556
 20
69.2079053092
 30
0.0
 11
98.193771997
 21
69.2079053092
 31
0.0
  0
LINE
  5
137
330
1F
100
AcDbEntity
  8
0
  6
Continuous
 62
     7
370
    25
100
AcDbLine
 10
99.193771997
 20
68.2079053092
 30
0.0
 11
99.193771997
 21
68.2423880678
 31
0.0
  0
LINE
  5
138
330
1F
100
AcDbEntity
  8
0
  6
Continuous
 62
     7
370
    25
100
AcDbLine
 10
120.8503219212
 20
52.438740154
 30
0.0
 11
120.8503219212
 21
51.9579053092
 31
0.0
  0
LINE
  5
139
330
1F
100
AcDbEntity
  8
0
  6
Continuous
 62
     7
370
    25
100
AcDbLine
 10
120.8503219212
 20
72.4579053092
 30
0.0
 11
120.8503219212
 21
71.9770704644
 31
0.0
  0
LINE
  5
13A
330
1F
100
AcDbEntity
  8
0
  6
Continuous
 62
     7
370
    25
100
AcDbLine
 10
119.9842965174
 20
72.4536151061
 30
0.0
 11
119.9842965174
 21
72.9579053092
 31
0.0
  0
LINE
  5
13B
330
1F
100
AcDbEntity
  8
0
  6
Continuous
 62
     7
370
    25
100
AcDbLine
 10
119.9842965174
 20
51.4579053092
 30
0.0
 11
119.9842965174
 21
51.9621955123
 31
0.0
  0
LINE
  5
13C
330
1F
100
AcDbEntity
  8
0
  6
Continuous
 62
     7
370
    25
100
AcDbLine
 10
103.193771997
 20
55.2079053092
 30
0.0
 11
103.193771997
 21
69.2079053092
 31
0.0
  0
LINE
  5
13D
330
1F
100
AcDbEntity
  8
0
  6
Continuous
 62
     7
370
    25
100
AcDbLine
 10
85.193771997
 20
57.2079053092
 30
0.0
 11
86.1782710234
 21
57.9111188995
 31
0.0
  0
LINE
  5
13E
330
1F
100
AcDbEntity
  8
0
  6
Continuous
 62
     7
370
    25
100
AcDbLine
 10
87.8969855873
 20
56.1924043357
 30
0.0
 11
87.193771997
 21
55.2079053092
 31
0.0
  0
LINE
  5
13F
330
1F
100
AcDbEntity
  8
FORMAT
100
AcDbLine
 10
112.049771997
 20
54.7329053092
 30
0.0
 11
104.2502312429
 21
54.7329053092
 31
0.0
  0
LINE
  5
140
330
1F
100
AcDbEntity
  8
FORMAT
100
AcDbLine
 10
112.049771997
 20
69.6829053092
 30
0.0
 11
104.2502312429
 21
69.6829053092
 31
0.0
  0
LINE
  5
141
330
1F
100
AcDbEntity
  8
FORMAT
100
AcDbLine
 10
104.2502312429
 20
70.5389053092
 30
0.0
 11
104.2502312429
 21
53.8769053092
 31
0.0
  0
LINE
  5
142
330
1F
100
AcDbEntity
  8
FORMAT
100
AcDbLine
 10
97.8772338056
 20
85.4571274335
 30
0.0
 11
98.228771997
 21
74.2079053092
 31
0.0
  0
LINE
  5
143
330
1F
100
AcDbEntity
  8
FORMAT
100
AcDbLine
 10
86.5103101883
 20
85.4571274335
 30
0.0
 11
86.158771997
 21
74.2079053092
 31
0.0
  0
LINE
  5
144
330
1F
100
AcDbEntity
  8
FORMAT
100
AcDbLine
 10
85.428084497
 20
74.2079053092
 30
0.0
 11
98.959459497
 21
74.2079053092
 31
0.0
  0
LINE
  5
145
330
1F
100
AcDbEntity
  8
FORMAT
  6
CENTERX2
370
    18
100
AcDbLine
 10
92.193771997
 20
87.7624737423
 30
0.0
 11
92.193771997
 21
53.3332940685
 31
0.0
  0
LINE
  5
146
330
1F
100
AcDbEntity
  8
FORMAT
  6
CENTERX2
370
    18
100
AcDbLine
 10
123.2241709707
 20
62.2079053092
 30
0.0
 11
83.5325001033
 21
62.2079053092
 31
0.0
  0
LINE
  5
147
330
1F
100
AcDbEntity
  8
0
  6
Continuous
 62
     7
370
    25
100
AcDbLine
 10
153.5212471132
 20
70.2908090778
 30
0.0
 11
153.5212471132
 21
72.2079053092
 31
0.0
  0
LINE
  5
148
330
1F
100
AcDbEntity
  8
0
  6
Continuous
 62
     7
370
    25
100
AcDbLine
 10
139.5212471132
 20
72.2079053092
 30
0.0
 11
139.5212471132
 21
70.2908090778
 31
0.0
  0
LINE
  5
149
330
1F
100
AcDbEntity
  8
0
  6
Continuous
 62
     7
370
    25
100
AcDbLine
 10
153.3494346132
 20
72.2079053092
 30
0.0
 11
152.9744346132
 21
84.2079053092
 31
0.0
  0
LINE
  5
14A
330
1F
100
AcDbEntity
  8
0
  6
Continuous
 62
     7
370
    25
100
AcDbLine
 10
140.0680596132
 20
84.2079053092
 30
0.0
 11
139.6930596132
 21
72.2079053092
 31
0.0
  0
LINE
  5
14B
330
1F
100
AcDbEntity
  8
0
  6
Continuous
 62
     7
370
    25
100
AcDbLine
 10
152.9259476515
 20
84.2079053092
 30
0.0
 11
151.7712471132
 21
86.2079053092
 31
0.0
  0
LINE
  5
14C
330
1F
100
AcDbEntity
  8
0
  6
Continuous
 62
     7
370
    25
100
AcDbLine
 10
141.2712471132
 20
86.2079053092
 30
0.0
 11
140.1165465748
 21
84.2079053092
 31
0.0
  0
CIRCLE
  5
14D
330
1F
100
AcDbEntity
  8
0
  6
Continuous
 62
     7
370
    25
100
AcDbCircle
 10
146.5212471132
 20
62.2079053092
 30
0.0
 40
5.05000000000001
  0
CIRCLE
  5
14E
330
1F
100
AcDbEntity
  8
0
  6
Continuous
 62
     7
370
    25
100
AcDbCircle
 10
146.5212471132
 20
62.2079053092
 30
0.0
 40
10.04999999999998
  0
CIRCLE
  5
14F
330
1F
100
AcDbEntity
  8
0
  6
Continuous
 62
     7
370
    25
100
AcDbCircle
 10
146.5212471132
 20
62.2079053092
 30
0.0
 40
10.25
  0
CIRCLE
  5
150
330
1F
100
AcDbEntity
  8
0
  6
Continuous
 62
     7
370
    25
100
AcDbCircle
 10
146.5212471132
 20
62.2079053092
 30
0.0
 40
5.175000000000011
  0
CIRCLE
  5
151
330
1F
100
AcDbEntity
  8
0
  6
Continuous
 62
     7
370
    25
100
AcDbCircle
 10
146.5212471132
 20
62.2079053092
 30
0.0
 40
5.074999999999989
  0
LINE
  5
152
330
1F
100
AcDbEntity
  8
0
  6
Continuous
 62
     7
370
    25
100
AcDbLine
 10
157.0212471132
 20
64.5127914235
 30
0.0
 11
156.5328750201
 21
64.4055874182
 31
0.0
  0
SPLINE
  5
153
330
1F
100
AcDbEntity
  8
0
  6
Continuous
 62
     7
370
    25
100
AcDbSpline
210
0.0
220
0.0
230
1.0
 70
    24
 71
     3
 72
    12
 73
     8
 74
     0
 42
0.00000001
 43
0.00000001
 40
0.0
 40
0.0
 40
0.0
 40
0.0
 40
0.2026897557151971
 40
0.4053720478393041
 40
0.6101489154744589
 40
0.814928899681259
 40
1.0
 40
1.0
 40
1.0
 40
1.0
 10
157.021247113164
 20
59.90301919484694
 30
0.0
 10
157.021247113164
 20
60.2134370154934
 30
0.0
 10
157.0212471131639
 20
60.83426122635328
 30
0.0
 10
157.0212471131639
 20
61.77371307647488
 30
0.0
 10
157.0212471131639
 20
62.71708138141749
 30
0.0
 10
157.0212471131639
 20
63.63245307268531
 30
0.0
 10
157.0212471131639
 20
64.22940492088178
 30
0.0
 10
157.0212471131639
 20
64.51279142349337
 30
0.0
  0
LINE
  5
154
330
1F
100
AcDbEntity
  8
0
  6
Continuous
 62
     7
370
    25
100
AcDbLine
 10
156.5328750201
 20
60.0102232002
 30
0.0
 11
157.0212471132
 21
59.9030191948
 31
0.0
  0
LINE
  5
155
330
1F
100
AcDbEntity
  8
0
  6
Continuous
 62
     7
370
    25
100
AcDbLine
 10
143.4186816955
 20
52.438740154
 30
0.0
 11
143.267337041
 21
51.9621955123
 31
0.0
  0
SPLINE
  5
156
330
1F
100
AcDbEntity
  8
0
  6
Continuous
 62
     7
370
    25
100
AcDbSpline
210
0.0
220
0.0
230
1.0
 70
    24
 71
     3
 72
    11
 73
     7
 74
     0
 42
0.00000001
 43
0.00000001
 40
0.0
 40
0.0
 40
0.0
 40
0.0
 40
0.2958382525912817
 40
0.5932610319616778
 40
0.796374459846219
 40
1.0
 40
1.0
 40
1.0
 40
1.0
 10
139.2751571853301
 20
54.26708162659501
 30
0.0
 10
139.6678606126903
 20
54.04035419709691
 30
0.0
 10
140.4553708096642
 20
53.58568497288442
 30
0.0
 10
141.5190987228074
 20
52.97154137588668
 30
0.0
 10
142.4578339964856
 20
52.42956231293079
 30
0.0
 10
142.9972762945381
 20
52.11811515693794
 30
0.0
 10
143.2673370409979
 20
51.96219551227181
 30
0.0
  0
LINE
  5
157
330
1F
100
AcDbEntity
  8
0
  6
Continuous
 62
     7
370
    25
100
AcDbLine
 10
139.6121846238
 20
54.636422263
 30
0.0
 11
139.2751571853
 21
54.2670816266
 31
0.0
  0
SPLINE
  5
158
330
1F
100
AcDbEntity
  8
0
  6
Continuous
 62
     7
370
    25
100
AcDbSpline
210
0.0
220
0.0
230
1.0
 70
    24
 71
     3
 72
    11
 73
     7
 74
     0
 42
0.00000001
 43
0.00000001
 40
0.0
 40
0.0
 40
0.0
 40
0.0
 40
0.295838252591294
 40
0.5932610319617023
 40
0.7963744598462312
 40
1.0
 40
1.0
 40
1.0
 40
1.0
 10
153.7673370409976
 20
70.14872899174522
 30
0.0
 10
153.3746336136375
 20
70.37545642124331
 30
0.0
 10
152.5871234166635
 20
70.83012564545578
 30
0.0
 10
151.5233955035204
 20
71.44426924245347
 30
0.0
 10
150.5846602298423
 20
71.9862483054093
 30
0.0
 10
150.0452179317899
 20
72.2976954614021
 30
0.0
 10
149.7751571853302
 20
72.45361510606821
 30
0.0
  0
LINE
  5
159
330
1F
100
AcDbEntity
  8
0
  6
Continuous
 62
     7
370
    25
100
AcDbLine
 10
153.767337041
 20
70.1487289917
 30
0.0
 11
153.4303096025
 21
69.7793883553
 31
0.0
  0
LINE
  5
15A
330
1F
100
AcDbEntity
  8
0
  6
Continuous
 62
     7
370
    25
100
AcDbLine
 10
149.7751571853
 20
72.4536151061
 30
0.0
 11
149.6238125308
 21
71.9770704644
 31
0.0
  0
LINE
  5
15B
330
1F
100
AcDbEntity
  8
0
  6
Continuous
 62
     7
370
    25
100
AcDbLine
 10
136.5096192062
 20
60.0102232002
 30
0.0
 11
136.0212471132
 21
59.9030191948
 31
0.0
  0
SPLINE
  5
15C
330
1F
100
AcDbEntity
  8
0
  6
Continuous
 62
     7
370
    25
100
AcDbSpline
210
0.0
220
0.0
230
1.0
 70
    24
 71
     3
 72
    12
 73
     8
 74
     0
 42
0.00000001
 43
0.00000001
 40
0.0
 40
0.0
 40
0.0
 40
0.0
 40
0.1850710896720204
 40
0.3877424800495118
 40
0.5904108230733411
 40
0.7952015463110217
 40
1.0
 40
1.0
 40
1.0
 40
1.0
 10
136.0212471131639
 20
64.51279142349325
 30
0.0
 10
136.0212471131639
 20
64.22940509549248
 30
0.0
 10
136.0212471131639
 20
63.63568233832996
 30
0.0
 10
136.0212471131639
 20
62.72682561278967
 30
0.0
 10
136.0212471131639
 20
61.78671774760252
 30
0.0
 10
136.0212471131639
 20
60.84396775789344
 30
0.0
 10
136.0212471131639
 20
60.21667266231606
 30
0.0
 10
136.0212471131639
 20
59.90301919484679
 30
0.0
  0
LINE
  5
15D
330
1F
100
AcDbEntity
  8
0
  6
Continuous
 62
     7
370
    25
100
AcDbLine
 10
136.0212471132
 20
64.5127914235
 30
0.0
 11
136.5096192062
 21
64.4055874182
 31
0.0
  0
LINE
  5
15E
330
1F
100
AcDbEntity
  8
0
  6
Continuous
 62
     7
370
    25
100
AcDbLine
 10
153.4303096025
 20
54.636422263
 30
0.0
 11
153.767337041
 21
54.2670816266
 31
0.0
  0
SPLINE
  5
15F
330
1F
100
AcDbEntity
  8
0
  6
Continuous
 62
     7
370
    25
100
AcDbSpline
210
0.0
220
0.0
230
1.0
 70
    24
 71
     3
 72
    11
 73
     7
 74
     0
 42
0.00000001
 43
0.00000001
 40
0.0
 40
0.0
 40
0.0
 40
0.0
 40
0.2958382525912818
 40
0.5932610319616776
 40
0.7963744598462186
 40
1.0
 40
1.0
 40
1.0
 40
1.0
 10
149.7751571853301
 20
51.96219551227186
 30
0.0
 10
150.1678606126903
 20
52.18892294176995
 30
0.0
 10
150.9553708096643
 20
52.64359216598246
 30
0.0
 10
152.0190987228075
 20
53.25773576298021
 30
0.0
 10
152.9578339964856
 20
53.79971482593611
 30
0.0
 10
153.4972762945381
 20
54.11116198192897
 30
0.0
 10
153.7673370409979
 20
54.2670816265951
 30
0.0
  0
LINE
  5
160
330
1F
100
AcDbEntity
  8
0
  6
Continuous
 62
     7
370
    25
100
AcDbLine
 10
149.6238125308
 20
52.438740154
 30
0.0
 11
149.7751571853
 21
51.9621955123
 31
0.0
  0
SPLINE
  5
161
330
1F
100
AcDbEntity
  8
0
  6
Continuous
 62
     7
370
    25
100
AcDbSpline
210
0.0
220
0.0
230
1.0
 70
    24
 71
     3
 72
    11
 73
     7
 74
     0
 42
0.00000001
 43
0.00000001
 40
0.0
 40
0.0
 40
0.0
 40
0.0
 40
0.2958382525912819
 40
0.5932610319616778
 40
0.7963744598462189
 40
1.0
 40
1.0
 40
1.0
 40
1.0
 10
143.2673370409978
 20
72.45361510606826
 30
0.0
 10
142.8746336136377
 20
72.22688767657016
 30
0.0
 10
142.0871234166636
 20
71.77221845235765
 30
0.0
 10
141.0233955035204
 20
71.15807485535991
 30
0.0
 10
140.0846602298423
 20
70.61609579240402
 30
0.0
 10
139.5452179317898
 20
70.30464863641117
 30
0.0
 10
139.27515718533
 20
70.14872899174505
 30
0.0
  0
LINE
  5
162
330
1F
100
AcDbEntity
  8
0
  6
Continuous
 62
     7
370
    25
100
AcDbLine
 10
143.267337041
 20
72.4536151061
 30
0.0
 11
143.4186816955
 21
71.9770704644
 31
0.0
  0
LINE
  5
163
330
1F
100
AcDbEntity
  8
0
  6
Continuous
 62
     7
370
    25
100
AcDbLine
 10
139.2751571853
 20
70.1487289917
 30
0.0
 11
139.6121846238
 21
69.7793883553
 31
0.0
  0
ARC
  5
164
330
1F
100
AcDbEntity
  8
0
  6
Continuous
 62
     7
370
    25
100
AcDbCircle
 10
146.5212471132
 20
62.2079053092
 30
0.0
 40
10.75000000000002
100
AcDbArc
 50
312.3807989171
 51
347.6192010829
  0
ARC
  5
165
330
1F
100
AcDbEntity
  8
0
  6
Continuous
 62
     7
370
    25
100
AcDbCircle
 10
146.5212471132
 20
62.2079053092
 30
0.0
 40
10.74999999999999
100
AcDbArc
 50
12.3807989171
 51
47.6192010829
  0
ARC
  5
166
330
1F
100
AcDbEntity
  8
0
  6
Continuous
 62
     7
370
    25
100
AcDbCircle
 10
146.5212471132
 20
62.2079053092
 30
0.0
 40
10.75000000000001
100
AcDbArc
 50
72.3807989171
 51
107.6192010829
  0
ARC
  5
167
330
1F
100
AcDbEntity
  8
0
  6
Continuous
 62
     7
370
    25
100
AcDbCircle
 10
146.5212471132
 20
62.2079053092
 30
0.0
 40
10.75000000000001
100
AcDbArc
 50
192.3807989171
 51
227.6192010829
  0
ARC
  5
168
330
1F
100
AcDbEntity
  8
0
  6
Continuous
 62
     7
370
    25
100
AcDbCircle
 10
146.5212471132
 20
62.2079053092
 30
0.0
 40
10.75000000000002
100
AcDbArc
 50
132.3807989171
 51
167.6192010829
  0
ARC
  5
169
330
1F
100
AcDbEntity
  8
0
  6
Continuous
 62
     7
370
    25
100
AcDbCircle
 10
146.5212471132
 20
62.2079053092
 30
0.0
 40
10.75
100
AcDbArc
 50
252.3807989171
 51
287.6192010829
  0
SPLINE
  5
16A
330
1F
100
AcDbEntity
  8
0
  6
Continuous
 62
     7
370
    25
100
AcDbSpline
210
0.0
220
0.0
230
1.0
 70
    24
 71
     3
 72
    11
 73
     7
 74
     0
 42
0.00000001
 43
0.00000001
 40
0.0
 40
0.0
 40
0.0
 40
0.0
 40
0.2491624812892785
 40
0.4983406089177418
 40
0.7491635688579431
 40
0.9999999999999999
 40
0.9999999999999999
 40
0.9999999999999999
 40
0.9999999999999999
 10
139.27515718533
 20
70.14872899174505
 30
0.0
 10
139.0012147326108
 20
69.99056824292514
 30
0.0
 10
138.4533126247569
 20
69.67423681346612
 30
0.0
 10
137.6372946020803
 20
69.20310858841022
 30
0.0
 10
136.8255581113863
 20
68.73445230699697
 30
0.0
 10
136.2893555788376
 20
68.42487563048981
 30
0.0
 10
136.0212471131639
 20
68.2700831356611
 30
0.0
  0
SPLINE
  5
16B
330
1F
100
AcDbEntity
  8
0
  6
Continuous
 62
     7
370
    25
100
AcDbSpline
210
0.0
220
0.0
230
1.0
 70
    24
 71
     3
 72
    10
 73
     6
 74
     0
 42
0.00000001
 43
0.00000001
 40
0.0
 40
0.0
 40
0.0
 40
0.0
 40
0.4984982470945969
 40
0.7492571451420821
 40
1.0
 40
1.0
 40
1.0
 40
1.0
 10
136.0212471131639
 20
68.2700831356611
 30
0.0
 10
136.0212471131639
 20
67.653237383903
 30
0.0
 10
136.0212471131639
 20
66.72610054912174
 30
0.0
 10
136.0212471131639
 20
65.46756579486038
 30
0.0
 10
136.0212471131639
 20
64.83104275976216
 30
0.0
 10
136.0212471131639
 20
64.51279142349325
 30
0.0
  0
SPLINE
  5
16C
330
1F
100
AcDbEntity
  8
0
  6
Continuous
 62
     7
370
    25
100
AcDbSpline
210
0.0
220
0.0
230
1.0
 70
    24
 71
     3
 72
    10
 73
     6
 74
     0
 42
0.00000001
 43
0.00000001
 40
0.0
 40
0.0
 40
0.0
 40
0.0
 40
0.4984982470945956
 40
0.7492571451420811
 40
1.0
 40
1.0
 40
1.0
 40
1.0
 10
157.0212471131639
 20
68.27008313566124
 30
0.0
 10
156.4870430219248
 20
68.5785060115403
 30
0.0
 10
155.6841189702199
 20
69.04207442893093
 30
0.0
 10
154.5941959014839
 20
69.67134180606165
 30
0.0
 10
154.0429507829949
 20
69.98960332361077
 30
0.0
 10
153.7673370409976
 20
70.14872899174522
 30
0.0
  0
SPLINE
  5
16D
330
1F
100
AcDbEntity
  8
0
  6
Continuous
 62
     7
370
    25
100
AcDbSpline
210
0.0
220
0.0
230
1.0
 70
    24
 71
     3
 72
    11
 73
     7
 74
     0
 42
0.00000001
 43
0.00000001
 40
0.0
 40
0.0
 40
0.0
 40
0.0
 40
0.2491624812892783
 40
0.4983406089177417
 40
0.749163568857943
 40
1.0
 40
1.0
 40
1.0
 40
1.0
 10
157.0212471131639
 20
64.51279142349337
 30
0.0
 10
157.0212471131639
 20
64.82911292113316
 30
0.0
 10
157.0212471131639
 20
65.46177578005117
 30
0.0
 10
157.0212471131639
 20
66.404032230163
 30
0.0
 10
157.0212471131639
 20
67.34134479298949
 30
0.0
 10
157.0212471131639
 20
67.96049814600381
 30
0.0
 10
157.0212471131639
 20
68.27008313566124
 30
0.0
  0
SPLINE
  5
16E
330
1F
100
AcDbEntity
  8
0
  6
Continuous
 62
     7
370
    25
100
AcDbSpline
210
0.0
220
0.0
230
1.0
 70
    24
 71
     3
 72
    11
 73
     7
 74
     0
 42
0.00000001
 43
0.00000001
 40
0.0
 40
0.0
 40
0.0
 40
0.0
 40
0.2491624812892781
 40
0.4983406089177413
 40
0.7491635688579427
 40
1.0
 40
1.0
 40
1.0
 40
1.0
 10
149.7751571853302
 20
72.45361510606821
 30
0.0
 10
149.5012147326109
 20
72.61177585488811
 30
0.0
 10
148.953312624757
 20
72.92810728434713
 30
0.0
 10
148.1372946020804
 20
73.39923550940306
 30
0.0
 10
147.3255581113863
 20
73.8678917908163
 30
0.0
 10
146.7893555788376
 20
74.17746846732348
 30
0.0
 10
146.5212471131639
 20
74.33226096215219
 30
0.0
  0
SPLINE
  5
16F
330
1F
100
AcDbEntity
  8
0
  6
Continuous
 62
     7
370
    25
100
AcDbSpline
210
0.0
220
0.0
230
1.0
 70
    24
 71
     3
 72
    10
 73
     6
 74
     0
 42
0.00000001
 43
0.00000001
 40
0.0
 40
0.0
 40
0.0
 40
0.0
 40
0.4984982470945961
 40
0.7492571451420814
 40
1.0
 40
1.0
 40
1.0
 40
1.0
 10
146.5212471131639
 20
74.33226096215219
 30
0.0
 10
145.9870430219249
 20
74.02383808627314
 30
0.0
 10
145.1841189702201
 20
73.56026966888251
 30
0.0
 10
144.0941959014841
 20
72.93100229175182
 30
0.0
 10
143.5429507829951
 20
72.6127407742027
 30
0.0
 10
143.2673370409978
 20
72.45361510606826
 30
0.0
  0
SPLINE
  5
170
330
1F
100
AcDbEntity
  8
0
  6
Continuous
 62
     7
370
    25
100
AcDbSpline
210
0.0
220
0.0
230
1.0
 70
    24
 71
     3
 72
    10
 73
     6
 74
     0
 42
0.00000001
 43
0.00000001
 40
0.0
 40
0.0
 40
0.0
 40
0.0
 40
0.4984982470945963
 40
0.7492571451420812
 40
1.0
 40
1.0
 40
1.0
 40
1.0
 10
146.521247113164
 20
50.08354965618789
 30
0.0
 10
147.055451204403
 20
50.39197253206694
 30
0.0
 10
147.8583752561079
 20
50.85554094945758
 30
0.0
 10
148.9482983248438
 20
51.48480832658828
 30
0.0
 10
149.4995434433329
 20
51.80306984413739
 30
0.0
 10
149.7751571853301
 20
51.96219551227186
 30
0.0
  0
SPLINE
  5
171
330
1F
100
AcDbEntity
  8
0
  6
Continuous
 62
     7
370
    25
100
AcDbSpline
210
0.0
220
0.0
230
1.0
 70
    24
 71
     3
 72
    11
 73
     7
 74
     0
 42
0.00000001
 43
0.00000001
 40
0.0
 40
0.0
 40
0.0
 40
0.0
 40
0.2491624812892784
 40
0.4983406089177418
 40
0.7491635688579431
 40
0.9999999999999999
 40
0.9999999999999999
 40
0.9999999999999999
 40
0.9999999999999999
 10
143.2673370409979
 20
51.96219551227181
 30
0.0
 10
143.5412794937171
 20
51.80403476345192
 30
0.0
 10
144.089181601571
 20
51.48770333399291
 30
0.0
 10
144.9051996242476
 20
51.016575108937
 30
0.0
 10
145.7169361149416
 20
50.54791882752377
 30
0.0
 10
146.2531386474903
 20
50.23834215101661
 30
0.0
 10
146.521247113164
 20
50.08354965618789
 30
0.0
  0
SPLINE
  5
172
330
1F
100
AcDbEntity
  8
0
  6
Continuous
 62
     7
370
    25
100
AcDbSpline
210
0.0
220
0.0
230
1.0
 70
    24
 71
     3
 72
    10
 73
     6
 74
     0
 42
0.00000001
 43
0.00000001
 40
0.0
 40
0.0
 40
0.0
 40
0.0
 40
0.3258684952272098
 40
0.6527960511516884
 40
1.0
 40
1.0
 40
1.0
 40
1.0
 10
136.0212471131639
 20
59.90301919484679
 30
0.0
 10
136.0212471131639
 20
59.48959958768695
 30
0.0
 10
136.0212471131639
 20
58.66141677475666
 30
0.0
 10
136.0212471131639
 20
57.40763747932186
 30
0.0
 10
136.0212471131639
 20
56.57471497388191
 30
0.0
 10
136.0212471131639
 20
56.14572748267891
 30
0.0
  0
SPLINE
  5
173
330
1F
100
AcDbEntity
  8
0
  6
Continuous
 62
     7
370
    25
100
AcDbSpline
210
0.0
220
0.0
230
1.0
 70
    24
 71
     3
 72
    10
 73
     6
 74
     0
 42
0.00000001
 43
0.00000001
 40
0.0
 40
0.0
 40
0.0
 40
0.0
 40
0.4984982470945959
 40
0.7492571451420811
 40
1.0
 40
1.0
 40
1.0
 40
1.0
 10
136.0212471131639
 20
56.14572748267891
 30
0.0
 10
136.555451204403
 20
55.83730460679988
 30
0.0
 10
137.3583752561078
 20
55.37373618940925
 30
0.0
 10
138.4482983248438
 20
54.74446881227857
 30
0.0
 10
138.9995434433328
 20
54.42620729472947
 30
0.0
 10
139.2751571853301
 20
54.26708162659501
 30
0.0
  0
SPLINE
  5
174
330
1F
100
AcDbEntity
  8
0
  6
Continuous
 62
     7
370
    25
100
AcDbSpline
210
0.0
220
0.0
230
1.0
 70
    24
 71
     3
 72
    11
 73
     7
 74
     0
 42
0.00000001
 43
0.00000001
 40
0.0
 40
0.0
 40
0.0
 40
0.0
 40
0.2491624812892784
 40
0.4983406089177418
 40
0.7491635688579432
 40
0.9999999999999999
 40
0.9999999999999999
 40
0.9999999999999999
 40
0.9999999999999999
 10
153.7673370409979
 20
54.2670816265951
 30
0.0
 10
154.0412794937171
 20
54.425242375415
 30
0.0
 10
154.589181601571
 20
54.74157380487402
 30
0.0
 10
155.4051996242476
 20
55.21270202992993
 30
0.0
 10
156.2169361149416
 20
55.6813583113432
 30
0.0
 10
156.7531386474903
 20
55.99093498785036
 30
0.0
 10
157.021247113164
 20
56.14572748267907
 30
0.0
  0
SPLINE
  5
175
330
1F
100
AcDbEntity
  8
0
  6
Continuous
 62
     7
370
    25
100
AcDbSpline
210
0.0
220
0.0
230
1.0
 70
    24
 71
     3
 72
    10
 73
     6
 74
     0
 42
0.00000001
 43
0.00000001
 40
0.0
 40
0.0
 40
0.0
 40
0.0
 40
0.3472039737939142
 40
0.6731184750787441
 40
1.0
 40
1.0
 40
1.0
 40
1.0
 10
157.021247113164
 20
56.14572748267907
 30
0.0
 10
157.021247113164
 20
56.57471491152875
 30
0.0
 10
157.021247113164
 20
57.40638558850852
 30
0.0
 10
157.021247113164
 20
58.660138263887
 30
0.0
 10
157.021247113164
 20
59.48831660873559
 30
0.0
 10
157.021247113164
 20
59.90301919484694
 30
0.0
  0
CIRCLE
  5
176
330
1F
100
AcDbEntity
  8
0
  6
Continuous
 62
     7
370
    25
100
AcDbCircle
 10
146.5212471132
 20
62.2079053092
 30
0.0
 40
5.0
  0
CIRCLE
  5
177
330
1F
100
AcDbEntity
  8
0
  6
Continuous
 62
     7
370
    25
100
AcDbCircle
 10
146.5212471132
 20
62.2079053092
 30
0.0
 40
3.999999999999972
  0
LINE
  5
178
330
1F
100
AcDbEntity
  8
0
  6
Continuous
 62
     7
370
    25
100
AcDbLine
 10
150.2075525537
 20
72.2079053092
 30
0.0
 11
153.5212471132
 21
72.2079053092
 31
0.0
  0
LINE
  5
179
330
1F
100
AcDbEntity
  8
0
  6
Continuous
 62
     7
370
    25
100
AcDbLine
 10
139.5212471132
 20
72.2079053092
 30
0.0
 11
142.8386646105
 21
72.2079053092
 31
0.0
  0
LINE
  5
17A
330
1F
100
AcDbEntity
  8
0
  6
Continuous
 62
     7
370
    25
100
AcDbLine
 10
146.5212471132
 20
84.2079053092
 30
0.0
 11
140.0680596132
 21
84.2079053092
 31
0.0
  0
LINE
  5
17B
330
1F
100
AcDbEntity
  8
0
  6
Continuous
 62
     7
370
    25
100
AcDbLine
 10
152.9744346132
 20
84.2079053092
 30
0.0
 11
146.5212471132
 21
84.2079053092
 31
0.0
  0
LINE
  5
17C
330
1F
100
AcDbEntity
  8
0
  6
Continuous
 62
     7
370
    25
100
AcDbLine
 10
146.5212471132
 20
86.2079053092
 30
0.0
 11
151.7712471132
 21
86.2079053092
 31
0.0
  0
LINE
  5
17D
330
1F
100
AcDbEntity
  8
0
  6
Continuous
 62
     7
370
    25
100
AcDbLine
 10
141.2712471132
 20
86.2079053092
 30
0.0
 11
146.5212471132
 21
86.2079053092
 31
0.0
  0
SPLINE
  5
17E
330
1F
100
AcDbEntity
  8
0
  6
Continuous
 62
     7
370
    25
100
AcDbSpline
210
0.0
220
0.0
230
1.0
 70
     8
 71
     3
 72
    12
 73
     8
 74
     0
 42
0.00000001
 43
0.00000001
 40
0.0
 40
0.0
 40
0.0
 40
0.0
 40
0.25
 40
0.25
 40
0.5
 40
0.5
 40
1.0
 40
1.0
 40
1.0
 40
1.0
 10
150.1753625360226
 20
61.20790530917004
 30
0.0
 10
150.1558052456101
 20
61.41336993194074
 30
0.0
 10
150.1401500565661
 20
61.62073709062722
 30
0.0
 10
150.1226466733226
 20
62.04085958437739
 30
0.0
 10
150.1210703401509
 20
62.25574681097235
 30
0.0
 10
150.1396028131194
 20
62.89215429042464
 30
0.0
 10
150.1817013479004
 20
63.30296285999164
 30
0.0
 10
150.2293463567117
 20
63.70790530917002
 30
0.0
  0
LINE
  5
17F
330
1F
100
AcDbEntity
  8
0
  6
Continuous
 62
     7
370
    25
100
AcDbLine
 10
150.175362536
 20
61.2079053092
 30
0.0
 11
142.8671316903
 21
61.2079053092
 31
0.0
  0
SPLINE
  5
180
330
1F
100
AcDbEntity
  8
0
  6
Continuous
 62
     7
370
    25
100
AcDbSpline
210
0.0
220
0.0
230
1.0
 70
     8
 71
     3
 72
    10
 73
     6
 74
     0
 42
0.00000001
 43
0.00000001
 40
0.0
 40
0.0
 40
0.0
 40
0.0
 40
0.5
 40
0.5
 40
1.0
 40
1.0
 40
1.0
 40
1.0
 10
142.8131478696161
 20
63.70790530917003
 30
0.0
 10
142.8606087432304
 20
63.30452785409116
 30
0.0
 10
142.9029951030188
 20
62.89342060296199
 30
0.0
 10
142.9276721691834
 20
62.03631889304074
 30
0.0
 10
142.9062247061105
 20
61.61860799732221
 30
0.0
 10
142.8671316903052
 20
61.20790530917004
 30
0.0
  0
SPLINE
  5
181
330
1F
100
AcDbEntity
  8
0
  6
Continuous
 62
     7
370
    25
100
AcDbSpline
210
0.0
220
0.0
230
1.0
 70
     8
 71
     3
 72
    18
 73
    14
 74
     0
 42
0.00000001
 43
0.00000001
 40
0.0
 40
0.0
 40
0.0
 40
0.0
 40
0.2500000000000001
 40
0.2500000000000001
 40
0.3750000000000001
 40
0.3750000000000001
 40
0.5000000000000001
 40
0.5000000000000001
 40
0.625
 40
0.625
 40
0.7500000000000001
 40
0.7500000000000001
 40
1.0
 40
1.0
 40
1.0
 40
1.0
 10
142.8671316903052
 20
61.20790530917004
 30
0.0
 10
143.4215429215813
 20
60.97301420342626
 30
0.0
 10
143.9925927629662
 20
60.77504935223968
 30
0.0
 10
144.9014900754479
 20
60.60568764712795
 30
0.0
 10
145.2161953966787
 20
60.57217662003038
 30
0.0
 10
145.8559971363295
 20
60.54659110710926
 30
0.0
 10
146.1812936583877
 20
60.55206954094023
 30
0.0
 10
146.8581116081518
 20
60.55208827584977
 30
0.0
 10
147.1843788908644
 20
60.54658964629557
 30
0.0
 10
147.8240952094446
 20
60.57200581308991
 30
0.0
 10
148.1391427793627
 20
60.60541657308853
 30
0.0
 10
149.0491736676471
 20
60.77476275226143
 30
0.0
 10
149.620642109339
 20
60.97288320454478
 30
0.0
 10
150.1753625360226
 20
61.20790530917004
 30
0.0
  0
INSERT
  5
18D
330
1F
100
AcDbEntity
  8
FORMAT
100
AcDbBlockReference
  2
SW_CENTERMARKSYMBOL_0
 10
146.5212471132
 20
62.2079053092
 30
0.0
  0
LINE
  5
18E
330
1F
100
AcDbEntity
  8
FORMAT
100
AcDbLine
 10
152.2047089218
 20
85.4571274335
 30
0.0
 11
152.5562471132
 21
74.2079053092
 31
0.0
  0
LINE
  5
18F
330
1F
100
AcDbEntity
  8
FORMAT
100
AcDbLine
 10
140.8377853045
 20
85.4571274335
 30
0.0
 11
140.4862471132
 21
74.2079053092
 31
0.0
  0
LINE
  5
190
330
1F
100
AcDbEntity
  8
FORMAT
100
AcDbLine
 10
139.7555596132
 20
74.2079053092
 30
0.0
 11
153.2869346132
 21
74.2079053092
 31
0.0
  0
LINE
  5
191
330
1F
100
AcDbEntity
  8
0
  6
Continuous
 62
     7
370
    25
100
AcDbLine
 10
106.9173092193
 20
125.641108545
 30
0.0
 11
106.772971652
 21
125.391108545
 31
0.0
  0
LINE
  5
192
330
1F
100
AcDbEntity
  8
0
  6
Continuous
 62
     7
370
    25
100
AcDbLine
 10
106.772971652
 20
104.891108545
 30
0.0
 11
106.9173092193
 21
104.641108545
 31
0.0
  0
LINE
  5
193
330
1F
100
AcDbEntity
  8
0
  6
Continuous
 62
     7
370
    25
100
AcDbLine
 10
121.572971652
 20
125.391108545
 30
0.0
 11
120.7927058793
 21
125.391108545
 31
0.0
  0
LINE
  5
194
330
1F
100
AcDbEntity
  8
0
  6
Continuous
 62
     7
370
    25
100
AcDbLine
 10
120.7927058793
 20
104.891108545
 30
0.0
 11
121.572971652
 21
104.891108545
 31
0.0
  0
LINE
  5
195
330
1F
100
AcDbEntity
  8
0
  6
Continuous
 62
     7
370
    25
100
AcDbLine
 10
121.572971652
 20
104.891108545
 30
0.0
 11
121.772971652
 21
105.091108545
 31
0.0
  0
LINE
  5
196
330
1F
100
AcDbEntity
  8
0
  6
Continuous
 62
     7
370
    25
100
AcDbLine
 10
121.772971652
 20
125.191108545
 30
0.0
 11
121.572971652
 21
125.391108545
 31
0.0
  0
SPLINE
  5
197
330
1F
100
AcDbEntity
  8
0
  6
Continuous
 62
     7
370
    25
100
AcDbSpline
210
0.0
220
0.0
230
1.0
 70
     8
 71
     3
 72
    13
 73
     9
 74
     0
 42
0.00000001
 43
0.00000001
 40
0.0
 40
0.0
 40
0.0
 40
0.0
 40
0.1659429193321287
 40
0.3628941871765909
 40
0.5485034448596937
 40
0.7218256225861628
 40
0.8806111786280226
 40
1.0
 40
1.0
 40
1.0
 40
1.0
 10
120.7930201896397
 20
125.3931417449497
 30
0.0
 10
120.7518491357494
 20
125.3937659770275
 30
0.0
 10
120.6618137416703
 20
125.3951310861468
 30
0.0
 10
120.5283567306666
 20
125.4234001999172
 30
0.0
 10
120.3985459574658
 20
125.4683961996346
 30
0.0
 10
120.2856557185333
 20
125.5260888311746
 30
0.0
 10
120.1942105776122
 20
125.5866836010646
 30
0.0
 10
120.146841722291
 20
125.6279080773459
 30
0.0
 10
120.1265116262588
 20
125.6456010858848
 30
0.0
  0
SPLINE
  5
198
330
1F
100
AcDbEntity
  8
0
  6
Continuous
 62
     7
370
    25
100
AcDbSpline
210
0.0
220
0.0
230
1.0
 70
     8
 71
     3
 72
    13
 73
     9
 74
     0
 42
0.00000001
 43
0.00000001
 40
0.0
 40
0.0
 40
0.0
 40
0.0
 40
0.0546434514382513
 40
0.2234536393536122
 40
0.4129937721984867
 40
0.6161637856311067
 40
0.8320549566554429
 40
1.0
 40
1.0
 40
1.0
 40
1.0
 10
120.1267408596056
 20
104.636216747666
 30
0.0
 10
120.1353675825856
 20
104.6443136857742
 30
0.0
 10
120.1706448682411
 20
104.6774245204722
 30
0.0
 10
120.2524931379022
 20
104.7359962512413
 30
0.0
 10
120.3719016019326
 20
104.8027298545333
 30
0.0
 10
120.5131836873544
 20
104.8551333872253
 30
0.0
 10
120.6559317646238
 20
104.8871000805295
 30
0.0
 10
120.7512944985418
 20
104.8879736290532
 30
0.0
 10
120.7930198435764
 20
104.8883558445378
 30
0.0
  0
LINE
  5
199
330
1F
100
AcDbEntity
  8
0
  6
Continuous
 62
     7
370
    25
100
AcDbLine
 10
106.772971652
 20
123.472108545
 30
0.0
 11
104.2501412429
 21
123.472108545
 31
0.0
  0
LINE
  5
19A
330
1F
100
AcDbEntity
  8
0
  6
Continuous
 62
     7
370
    25
100
AcDbLine
 10
104.2501412429
 20
106.810108545
 30
0.0
 11
106.772971652
 21
106.810108545
 31
0.0
  0
ARC
  5
19B
330
1F
100
AcDbEntity
  8
0
  6
Continuous
 62
     7
370
    25
100
AcDbCircle
 10
105.193771997
 20
123.141108545
 30
0.0
 40
1.0
100
AcDbArc
 50
160.6705173466
 51
180.0
  0
ARC
  5
19C
330
1F
100
AcDbEntity
  8
0
  6
Continuous
 62
     7
370
    25
100
AcDbCircle
 10
105.193771997
 20
107.141108545
 30
0.0
 40
1.0
100
AcDbArc
 50
180.0
 51
199.3294826534
  0
ARC
  5
19D
330
1F
100
AcDbEntity
  8
0
  6
Continuous
 62
     7
370
    25
100
AcDbCircle
 10
103.193771997
 20
123.141108545
 30
0.0
 40
1.0
100
AcDbArc
 50
270.0
 51
0.0
  0
ARC
  5
19E
330
1F
100
AcDbEntity
  8
0
  6
Continuous
 62
     7
370
    25
100
AcDbCircle
 10
103.193771997
 20
107.141108545
 30
0.0
 40
1.0
100
AcDbArc
 50
0.0
 51
90.0
  0
ARC
  5
19F
330
1F
100
AcDbEntity
  8
0
  6
Continuous
 62
     7
370
    25
100
AcDbCircle
 10
98.4437712953
 20
111.4668739324
 30
0.0
 40
0.2499994075801616
100
AcDbArc
 50
172.5144907769
 51
179.9783679046
  0
LINE
  5
1A0
330
1F
100
AcDbEntity
  8
0
  6
Continuous
 62
     7
370
    25
100
AcDbLine
 10
92.193771997
 20
122.1435430708
 30
0.0
 11
89.5480206859
 21
122.141108545
 31
0.0
  0
LINE
  5
1A1
330
1F
100
AcDbEntity
  8
0
  6
Continuous
 62
     7
370
    25
100
AcDbLine
 10
94.839523308
 20
122.141108545
 30
0.0
 11
92.193771997
 21
122.1435430708
 31
0.0
  0
SPLINE
  5
1A2
330
1F
100
AcDbEntity
  8
0
  6
Continuous
 62
     7
370
    25
100
AcDbSpline
210
0.0
220
0.0
230
1.0
 70
     8
 71
     3
 72
     9
 73
     5
 74
     0
 42
0.00000001
 43
0.00000001
 40
0.0
 40
0.0
 40
0.0
 40
0.0
 40
0.4601727869103512
 40
1.0
 40
1.0
 40
1.0
 40
1.0
 10
91.01071895051304
 20
108.1409802153113
 30
0.0
 10
91.19189471868539
 20
108.1404395954182
 30
0.0
 10
91.58560719653264
 20
108.1392647760709
 30
0.0
 10
91.98056371844116
 20
108.1388811247311
 30
0.0
 10
92.19377199695461
 20
108.1386740192976
 30
0.0
  0
SPLINE
  5
1A3
330
1F
100
AcDbEntity
  8
0
  6
Continuous
 62
     7
370
    25
100
AcDbSpline
210
0.0
220
0.0
230
1.0
 70
     8
 71
     3
 72
    11
 73
     7
 74
     0
 42
0.00000001
 43
0.00000001
 40
0.0
 40
0.0
 40
0.0
 40
0.0
 40
0.3234163975740418
 40
0.6442171888132711
 40
0.9226326100275655
 40
1.0
 40
1.0
 40
1.0
 40
1.0
 10
92.19377199695461
 20
108.1386740192976
 30
0.0
 10
92.31835430820118
 20
108.1385935498373
 30
0.0
 10
92.56651138041256
 20
108.1384332617075
 30
0.0
 10
92.92193448163334
 20
108.1399069274764
 30
0.0
 10
93.18100573016737
 20
108.1409624562603
 30
0.0
 10
93.31761733787044
 20
108.1409930999796
 30
0.0
 10
93.34732446029345
 20
108.1409997636646
 30
0.0
  0
LINE
  5
1A4
330
1F
100
AcDbEntity
  8
0
  6
Continuous
 62
     7
370
    25
100
AcDbLine
 10
99.943771997
 20
108.141108545
 30
0.0
 11
103.193771997
 21
108.141108545
 31
0.0
  0
LINE
  5
1A5
330
1F
100
AcDbEntity
  8
0
  6
Continuous
 62
     7
370
    25
100
AcDbLine
 10
103.193771997
 20
122.141108545
 30
0.0
 11
99.943771997
 21
122.141108545
 31
0.0
  0
SPLINE
  5
1A6
330
1F
100
AcDbEntity
  8
0
  6
Continuous
 62
     7
370
    25
100
AcDbSpline
210
0.0
220
0.0
230
1.0
 70
     8
 71
     3
 72
    11
 73
     7
 74
     0
 42
0.00000001
 43
0.00000001
 40
0.0
 40
0.0
 40
0.0
 40
0.0
 40
0.295838252591294
 40
0.5932610319617023
 40
0.7963744598462312
 40
1.0
 40
1.0
 40
1.0
 40
1.0
 10
119.9842965174113
 20
122.3871984728683
 30
0.0
 10
120.0313986532421
 20
121.9944950455082
 30
0.0
 10
120.1258552066658
 20
121.2069848485342
 30
0.0
 10
120.1372711669263
 20
120.1432569353911
 30
0.0
 10
120.0872136994291
 20
119.204521661713
 30
0.0
 10
120.0186310281802
 20
118.6650793636607
 30
0.0
 10
119.9842965174113
 20
118.3950186172009
 30
0.0
  0
SPLINE
  5
1A7
330
1F
100
AcDbEntity
  8
0
  6
Continuous
 62
     7
370
    25
100
AcDbSpline
210
0.0
220
0.0
230
1.0
 70
     8
 71
     3
 72
    11
 73
     7
 74
     0
 42
0.00000001
 43
0.00000001
 40
0.0
 40
0.0
 40
0.0
 40
0.0
 40
0.2491624812892781
 40
0.4983406089177413
 40
0.7491635688579427
 40
1.0
 40
1.0
 40
1.0
 40
1.0
 10
119.9842965174113
 20
118.3950186172009
 30
0.0
 10
119.9406884214247
 20
118.1210761644817
 30
0.0
 10
119.8534694910495
 20
117.5731740566277
 30
0.0
 10
119.6680563933019
 20
116.7571560339511
 30
0.0
 10
119.4502195845577
 20
115.945419543257
 30
0.0
 10
119.277282683627
 20
115.4092170107083
 30
0.0
 10
119.1908119111997
 20
115.1411085450346
 30
0.0
  0
LINE
  5
1A8
330
1F
100
AcDbEntity
  8
0
  6
Continuous
 62
     7
370
    25
100
AcDbLine
 10
119.1908119112
 20
115.141108545
 30
0.0
 11
107.8551313928
 21
115.141108545
 31
0.0
  0
SPLINE
  5
1A9
330
1F
100
AcDbEntity
  8
0
  6
Continuous
 62
     7
370
    25
100
AcDbSpline
210
0.0
220
0.0
230
1.0
 70
     8
 71
     3
 72
    16
 73
    12
 74
     0
 42
0.00000001
 43
0.00000001
 40
0.0
 40
0.0
 40
0.0
 40
0.0
 40
0.1322996825587275
 40
0.2645619585584952
 40
0.3546998975276455
 40
0.4449068940618474
 40
0.5350279613378861
 40
0.6502124383324858
 40
0.7654148828573671
 40
0.8826961023800941
 40
0.9999999999999999
 40
0.9999999999999999
 40
0.9999999999999999
 40
0.9999999999999999
 10
107.8551313928124
 20
115.1411085450346
 30
0.0
 10
107.712349574884
 20
115.5947427557818
 30
0.0
 10
107.4268263093167
 20
116.5018829162362
 30
0.0
 10
107.154535628204
 20
117.7414379700105
 30
0.0
 10
106.9941905976261
 20
118.8438601332197
 30
0.0
 10
106.9194698963191
 20
119.8032392834662
 30
0.0
 10
106.9100876301167
 20
120.853782172734
 30
0.0
 10
106.9933569749157
 20
121.9914884872939
 30
0.0
 10
107.1877840027096
 20
123.2160758177072
 30
0.0
 10
107.4730206348038
 20
124.4351601451147
 30
0.0
 10
107.7277529315463
 20
125.2390998385833
 30
0.0
 10
107.8551313928124
 20
125.6411085450346
 30
0.0
  0
LINE
  5
1AA
330
1F
100
AcDbEntity
  8
0
  6
Continuous
 62
     7
370
    25
100
AcDbLine
 10
119.1908119112
 20
125.641108545
 30
0.0
 11
107.8551313928
 21
125.641108545
 31
0.0
  0
SPLINE
  5
1AB
330
1F
100
AcDbEntity
  8
0
  6
Continuous
 62
     7
370
    25
100
AcDbSpline
210
0.0
220
0.0
230
1.0
 70
     8
 71
     3
 72
    10
 73
     6
 74
     0
 42
0.00000001
 43
0.00000001
 40
0.0
 40
0.0
 40
0.0
 40
0.0
 40
0.4984982470945956
 40
0.7492571451420811
 40
1.0
 40
1.0
 40
1.0
 40
1.0
 10
119.1908119111997
 20
125.6411085450346
 30
0.0
 10
119.3573385270663
 20
125.1069044537956
 30
0.0
 10
119.6076328009611
 20
124.3039804020906
 30
0.0
 10
119.8520222767126
 20
123.2140573333546
 30
0.0
 10
119.9402060441866
 20
122.6628122148656
 30
0.0
 10
119.9842965174113
 20
122.3871984728683
 30
0.0
  0
SPLINE
  5
1AC
330
1F
100
AcDbEntity
  8
0
  6
Continuous
 62
     7
370
    25
100
AcDbSpline
210
0.0
220
0.0
230
1.0
 70
     8
 71
     3
 72
    16
 73
    12
 74
     0
 42
0.00000001
 43
0.00000001
 40
0.0
 40
0.0
 40
0.0
 40
0.0
 40
0.1322996825587257
 40
0.2645619585584918
 40
0.3546998975276411
 40
0.4449068940618417
 40
0.5350279613378792
 40
0.6502124383324805
 40
0.7654148828573636
 40
0.8826961023800923
 40
0.9999999999999999
 40
0.9999999999999999
 40
0.9999999999999999
 40
0.9999999999999999
 10
107.8551313928124
 20
104.6411085450346
 30
0.0
 10
107.712349574884
 20
105.0947427557818
 30
0.0
 10
107.4268263093167
 20
106.0018829162362
 30
0.0
 10
107.154535628204
 20
107.2414379700104
 30
0.0
 10
106.9941905976261
 20
108.3438601332197
 30
0.0
 10
106.9194698963191
 20
109.3032392834661
 30
0.0
 10
106.9100876301167
 20
110.353782172734
 30
0.0
 10
106.9933569749156
 20
111.4914884872939
 30
0.0
 10
107.1877840027096
 20
112.7160758177072
 30
0.0
 10
107.4730206348038
 20
113.9351601451148
 30
0.0
 10
107.7277529315463
 20
114.7390998385834
 30
0.0
 10
107.8551313928124
 20
115.1411085450346
 30
0.0
  0
SPLINE
  5
1AD
330
1F
100
AcDbEntity
  8
0
  6
Continuous
 62
     7
370
    25
100
AcDbSpline
210
0.0
220
0.0
230
1.0
 70
    24
 71
     3
 72
    12
 73
     8
 74
     0
 42
0.00000001
 43
0.00000001
 40
0.0
 40
0.0
 40
0.0
 40
0.0
 40
0.2470036895710679
 40
0.434244301331983
 40
0.6215043323997743
 40
0.8107429134109049
 40
1.0
 40
1.0
 40
1.0
 40
1.0
 10
106.9205313874789
 20
104.6411085450346
 30
0.0
 10
106.9312184699468
 20
104.6411085450346
 30
0.0
 10
106.9500068721267
 20
104.6411085450346
 30
0.0
 10
107.0998535149533
 20
104.6411085450346
 30
0.0
 10
107.2935203992909
 20
104.6411085450346
 30
0.0
 10
107.5440638658247
 20
104.6411085450346
 30
0.0
 10
107.7514388374601
 20
104.6411085450346
 30
0.0
 10
107.8551313928124
 20
104.6411085450346
 30
0.0
  0
SPLINE
  5
1AE
330
1F
100
AcDbEntity
  8
0
  6
Continuous
 62
     7
370
    25
100
AcDbSpline
210
0.0
220
0.0
230
1.0
 70
    24
 71
     3
 72
    12
 73
     8
 74
     0
 42
0.00000001
 43
0.00000001
 40
0.0
 40
0.0
 40
0.0
 40
0.0
 40
0.1873895425259089
 40
0.3747613298897489
 40
0.5638878049844146
 40
0.7529940528819861
 40
1.0
 40
1.0
 40
1.0
 40
1.0
 10
107.8551313928124
 20
125.6411085450346
 30
0.0
 10
107.7524217636273
 20
125.6411085450346
 30
0.0
 10
107.5470122369961
 20
125.6411085450346
 30
0.0
 10
107.2965328157342
 20
125.6411085450346
 30
0.0
 10
107.1012130477914
 20
125.6411085450346
 30
0.0
 10
106.9504479188585
 20
125.6411085450346
 30
0.0
 10
106.9302707075997
 20
125.6411085450346
 30
0.0
 10
106.9188427052779
 20
125.6411085450346
 30
0.0
  0
LINE
  5
1AF
330
1F
100
AcDbEntity
  8
0
  6
Continuous
 62
     7
370
    25
100
AcDbLine
 10
106.772971652
 20
104.891108545
 30
0.0
 11
106.772971652
 21
125.391108545
 31
0.0
  0
LINE
  5
1B0
330
1F
100
AcDbEntity
  8
0
  6
Continuous
 62
     7
370
    25
100
AcDbLine
 10
119.9842965174
 20
111.8871984729
 30
0.0
 11
119.9842965174
 21
118.3950186172
 31
0.0
  0
SPLINE
  5
1B1
330
1F
100
AcDbEntity
  8
0
  6
Continuous
 62
     7
370
    25
100
AcDbSpline
210
0.0
220
0.0
230
1.0
 70
     8
 71
     3
 72
    10
 73
     6
 74
     0
 42
0.00000001
 43
0.00000001
 40
0.0
 40
0.0
 40
0.0
 40
0.0
 40
0.4984982470945961
 40
0.7492571451420814
 40
1.0
 40
1.0
 40
1.0
 40
1.0
 10
119.1908119111997
 20
115.1411085450346
 30
0.0
 10
119.3573385270663
 20
114.6069044537956
 30
0.0
 10
119.6076328009611
 20
113.8039804020907
 30
0.0
 10
119.8520222767125
 20
112.7140573333548
 30
0.0
 10
119.9402060441866
 20
112.1628122148658
 30
0.0
 10
119.9842965174113
 20
111.8871984728685
 30
0.0
  0
SPLINE
  5
1B2
330
1F
100
AcDbEntity
  8
0
  6
Continuous
 62
     7
370
    25
100
AcDbSpline
210
0.0
220
0.0
230
1.0
 70
     8
 71
     3
 72
    11
 73
     7
 74
     0
 42
0.00000001
 43
0.00000001
 40
0.0
 40
0.0
 40
0.0
 40
0.0
 40
0.2958382525912819
 40
0.5932610319616778
 40
0.7963744598462189
 40
1.0
 40
1.0
 40
1.0
 40
1.0
 10
119.9842965174113
 20
111.8871984728685
 30
0.0
 10
120.0313986532422
 20
111.4944950455083
 30
0.0
 10
120.1258552066658
 20
110.7069848485344
 30
0.0
 10
120.1372711669264
 20
109.6432569353912
 30
0.0
 10
120.0872136994291
 20
108.704521661713
 30
0.0
 10
120.0186310281802
 20
108.1650793636605
 30
0.0
 10
119.9842965174113
 20
107.8950186172007
 30
0.0
  0
SPLINE
  5
1B3
330
1F
100
AcDbEntity
  8
0
  6
Continuous
 62
     7
370
    25
100
AcDbSpline
210
0.0
220
0.0
230
1.0
 70
     8
 71
     3
 72
    11
 73
     7
 74
     0
 42
0.00000001
 43
0.00000001
 40
0.0
 40
0.0
 40
0.0
 40
0.0
 40
0.2491624812892785
 40
0.4983406089177418
 40
0.7491635688579431
 40
0.9999999999999999
 40
0.9999999999999999
 40
0.9999999999999999
 40
0.9999999999999999
 10
119.9842965174113
 20
107.8950186172007
 30
0.0
 10
119.9406884214247
 20
107.6210761644815
 30
0.0
 10
119.8534694910495
 20
107.0731740566276
 30
0.0
 10
119.6680563933019
 20
106.257156033951
 30
0.0
 10
119.4502195845577
 20
105.445419543257
 30
0.0
 10
119.277282683627
 20
104.9092170107083
 30
0.0
 10
119.1908119111997
 20
104.6411085450346
 30
0.0
  0
LINE
  5
1B4
330
1F
100
AcDbEntity
  8
0
  6
Continuous
 62
     7
370
    25
100
AcDbLine
 10
119.1908119112
 20
104.641108545
 30
0.0
 11
107.8551313928
 21
104.641108545
 31
0.0
  0
ARC
  5
1B5
330
1F
100
AcDbEntity
  8
0
  6
Continuous
 62
     7
370
    25
100
AcDbCircle
 10
120.7646201011
 20
120.3067309625
 30
0.0
 40
2.06483630983854
100
AcDbArc
 50
247.7956780275
 51
272.378766539
  0
LINE
  5
1B6
330
1F
100
AcDbEntity
  8
0
  6
Continuous
 62
     7
370
    25
100
AcDbLine
 10
120.8503219212
 20
118.2436739627
 30
0.0
 11
120.8503219212
 21
112.0385431274
 31
0.0
  0
ARC
  5
1B7
330
1F
100
AcDbEntity
  8
0
  6
Continuous
 62
     7
370
    25
100
AcDbCircle
 10
120.7646201011
 20
109.9754861276
 30
0.0
 40
2.064836309822365
100
AcDbArc
 50
87.6212334609
 51
112.2043219726
  0
LINE
  5
1B8
330
1F
100
AcDbEntity
  8
0
  6
Continuous
 62
     7
370
    25
100
AcDbLine
 10
121.572971652
 20
104.891108545
 30
0.0
 11
121.572971652
 21
125.391108545
 31
0.0
  0
LINE
  5
1B9
330
1F
100
AcDbEntity
  8
0
  6
Continuous
 62
     7
370
    25
100
AcDbLine
 10
120.8503219212
 20
108.2320460557
 30
0.0
 11
120.8503219212
 21
105.1294806381
 31
0.0
  0
SPLINE
  5
1BA
330
1F
100
AcDbEntity
  8
0
  6
Continuous
 62
     7
370
    25
100
AcDbSpline
210
0.0
220
0.0
230
1.0
 70
     8
 71
     3
 72
    13
 73
     9
 74
     0
 42
0.00000001
 43
0.00000001
 40
0.0
 40
0.0
 40
0.0
 40
0.0
 40
0.136524548570992
 40
0.2730742214951701
 40
0.411538241799063
 40
0.5499846193303763
 40
0.773937035610269
 40
1.0
 40
1.0
 40
1.0
 40
1.0
 10
120.8503219211957
 20
112.0385431273879
 30
0.0
 10
120.8475923322936
 20
111.8473985327747
 30
0.0
 10
120.8421326521683
 20
111.4650741675718
 30
0.0
 10
120.8132933993443
 20
110.9052371765792
 30
0.0
 10
120.7922404014818
 20
110.3565870027997
 30
0.0
 10
120.7859937686942
 20
109.7130171216836
 30
0.0
 10
120.8276929318062
 20
108.9886000888555
 30
0.0
 10
120.8427553773774
 20
108.4850179911392
 30
0.0
 10
120.8503219211957
 20
108.2320460557046
 30
0.0
  0
SPLINE
  5
1BB
330
1F
100
AcDbEntity
  8
0
  6
Continuous
 62
     7
370
    25
100
AcDbSpline
210
0.0
220
0.0
230
1.0
 70
     8
 71
     3
 72
    13
 73
     9
 74
     0
 42
0.00000001
 43
0.00000001
 40
0.0
 40
0.0
 40
0.0
 40
0.0
 40
0.1365245485710107
 40
0.2730742214952071
 40
0.4115382417991188
 40
0.5499846193304512
 40
0.7739370356103075
 40
1.0
 40
1.0
 40
1.0
 40
1.0
 10
120.8503219211957
 20
122.0501710343645
 30
0.0
 10
120.8475923322936
 20
121.8988963748166
 30
0.0
 10
120.8421326521683
 20
121.5963192169329
 30
0.0
 10
120.8132933993443
 20
121.1117856177373
 30
0.0
 10
120.7922404014818
 20
120.6054129752998
 30
0.0
 10
120.7859937686943
 20
119.9670978263247
 30
0.0
 10
120.8276929318063
 20
119.186874058497
 30
0.0
 10
120.8427553773774
 20
118.559055473169
 30
0.0
 10
120.8503219211957
 20
118.2436739626815
 30
0.0
  0
LINE
  5
1BC
330
1F
100
AcDbEntity
  8
0
  6
Continuous
 62
     7
370
    25
100
AcDbLine
 10
120.8503219212
 20
125.152736452
 30
0.0
 11
120.8503219212
 21
122.0501710344
 31
0.0
  0
LINE
  5
1BD
330
1F
100
AcDbEntity
  8
0
  6
Continuous
 62
     7
370
    25
100
AcDbLine
 10
121.772971652
 20
125.191108545
 30
0.0
 11
121.772971652
 21
105.091108545
 31
0.0
  0
ARC
  5
1BE
330
1F
100
AcDbEntity
  8
0
  6
Continuous
 62
     7
370
    25
100
AcDbCircle
 10
120.7988420976
 20
107.0831457945
 30
0.0
 40
1.150053034581317
100
AcDbArc
 50
87.4344117638
 51
135.0941563294
  0
ARC
  5
1BF
330
1F
100
AcDbEntity
  8
0
  6
Continuous
 62
     7
370
    25
100
AcDbCircle
 10
120.7988420976
 20
123.1990712955
 30
0.0
 40
1.150053034573244
100
AcDbArc
 50
224.9058436705
 51
272.5655882364
  0
LINE
  5
1C0
330
1F
100
AcDbEntity
  8
0
  6
Continuous
 62
     7
370
    25
100
AcDbLine
 10
119.9842965174
 20
122.3871984729
 30
0.0
 11
119.9842965174
 21
125.641108545
 31
0.0
  0
ARC
  5
1C1
330
1F
100
AcDbEntity
  8
0
  6
Continuous
 62
     7
370
    25
100
AcDbCircle
 10
120.8459847668
 20
126.1570886083
 30
0.0
 40
1.004361520936657
100
AcDbArc
 50
210.9132304404
 51
270.2474222794
  0
SPLINE
  5
1C2
330
1F
100
AcDbEntity
  8
0
  6
Continuous
 62
     7
370
    25
100
AcDbSpline
210
0.0
220
0.0
230
1.0
 70
    24
 71
     3
 72
    11
 73
     7
 74
     0
 42
0.00000001
 43
0.00000001
 40
0.0
 40
0.0
 40
0.0
 40
0.0
 40
0.2491624812892783
 40
0.4983406089177417
 40
0.749163568857943
 40
1.0
 40
1.0
 40
1.0
 40
1.0
 10
119.9842965174113
 20
125.6411085450346
 30
0.0
 10
119.9406884214247
 20
125.6411085450346
 30
0.0
 10
119.8534694910495
 20
125.6411085450346
 30
0.0
 10
119.6680563933019
 20
125.6411085450346
 30
0.0
 10
119.4502195845577
 20
125.6411085450346
 30
0.0
 10
119.2772826836269
 20
125.6411085450346
 30
0.0
 10
119.1908119111997
 20
125.6411085450346
 30
0.0
  0
LINE
  5
1C3
330
1F
100
AcDbEntity
  8
0
  6
Continuous
 62
     7
370
    25
100
AcDbLine
 10
119.9842965174
 20
104.641108545
 30
0.0
 11
119.9842965174
 21
107.8950186172
 31
0.0
  0
ARC
  5
1C4
330
1F
100
AcDbEntity
  8
0
  6
Continuous
 62
     7
370
    25
100
AcDbCircle
 10
120.8459847668
 20
104.1251284818
 30
0.0
 40
1.004361520936831
100
AcDbArc
 50
89.7525777206
 51
149.0867695596
  0
SPLINE
  5
1C5
330
1F
100
AcDbEntity
  8
0
  6
Continuous
 62
     7
370
    25
100
AcDbSpline
210
0.0
220
0.0
230
1.0
 70
    24
 71
     3
 72
    10
 73
     6
 74
     0
 42
0.00000001
 43
0.00000001
 40
0.0
 40
0.0
 40
0.0
 40
0.0
 40
0.4984982470945969
 40
0.7492571451420821
 40
1.0
 40
1.0
 40
1.0
 40
1.0
 10
119.1908119111997
 20
104.6411085450346
 30
0.0
 10
119.3573385270663
 20
104.6411085450346
 30
0.0
 10
119.607632800961
 20
104.6411085450346
 30
0.0
 10
119.8520222767126
 20
104.6411085450346
 30
0.0
 10
119.9402060441867
 20
104.6411085450346
 30
0.0
 10
119.9842965174113
 20
104.6411085450346
 30
0.0
  0
SPLINE
  5
1C6
330
1F
100
AcDbEntity
  8
0
  6
Continuous
 62
     7
370
    25
100
AcDbSpline
210
0.0
220
0.0
230
1.0
 70
    24
 71
     3
 72
    10
 73
     6
 74
     0
 42
0.00000001
 43
0.00000001
 40
0.0
 40
0.0
 40
0.0
 40
0.0
 40
0.2637938767050049
 40
0.6505063530465235
 40
1.0
 40
1.0
 40
1.0
 40
1.0
 10
120.122760722457
 20
125.6411085450346
 30
0.0
 10
120.1241623742791
 20
125.6411085450346
 30
0.0
 10
120.1276187980081
 20
125.6411085450346
 30
0.0
 10
120.0812234754674
 20
125.6411085450346
 30
0.0
 10
120.0154979204026
 20
125.6411085450346
 30
0.0
 10
119.9842965174113
 20
125.6411085450346
 30
0.0
  0
SPLINE
  5
1C7
330
1F
100
AcDbEntity
  8
0
  6
Continuous
 62
     7
370
    25
100
AcDbSpline
210
0.0
220
0.0
230
1.0
 70
    24
 71
     3
 72
    10
 73
     6
 74
     0
 42
0.00000001
 43
0.00000001
 40
0.0
 40
0.0
 40
0.0
 40
0.0
 40
0.3936708354296337
 40
0.8247798525591458
 40
1.0
 40
1.0
 40
1.0
 40
1.0
 10
119.9842965174113
 20
104.6411085450346
 30
0.0
 10
120.0153191346464
 20
104.6411085450346
 30
0.0
 10
120.0803146267336
 20
104.6411085450346
 30
0.0
 10
120.1241097536752
 20
104.6411085450346
 30
0.0
 10
120.1226664765122
 20
104.6411085450346
 30
0.0
 10
120.1222493907904
 20
104.6411085450346
 30
0.0
  0
CIRCLE
  5
1C8
330
1F
100
AcDbEntity
  8
0
  6
Continuous
 62
     7
370
    25
100
AcDbCircle
 10
92.193771997
 20
115.141108545
 30
0.0
 40
5.249999999999986
  0
CIRCLE
  5
1C9
330
1F
100
AcDbEntity
  8
0
  6
Continuous
 62
     7
370
    25
100
AcDbCircle
 10
92.193771997
 20
115.141108545
 30
0.0
 40
6.404700538379245
  0
CIRCLE
  5
1CA
330
1F
100
AcDbEntity
  8
0
  6
Continuous
 62
     7
370
    25
100
AcDbCircle
 10
92.193771997
 20
115.141108545
 30
0.0
 40
4.75
  0
CIRCLE
  5
1CB
330
1F
100
AcDbEntity
  8
0
  6
Continuous
 62
     7
370
    25
100
AcDbCircle
 10
92.193771997
 20
115.141108545
 30
0.0
 40
4.77679491924313
  0
CIRCLE
  5
1CC
330
1F
100
AcDbEntity
  8
0
  6
Continuous
 62
     7
370
    25
100
AcDbCircle
 10
92.193771997
 20
115.141108545
 30
0.0
 40
4.723205080756898
  0
CIRCLE
  5
1CD
330
1F
100
AcDbEntity
  8
0
  6
Continuous
 62
     7
370
    25
100
AcDbCircle
 10
92.193771997
 20
115.141108545
 30
0.0
 40
4.200000000000003
  0
CIRCLE
  5
1CE
330
1F
100
AcDbEntity
  8
0
  6
Continuous
 62
     7
370
    25
100
AcDbCircle
 10
92.193771997
 20
115.141108545
 30
0.0
 40
3.999999999999986
  0
CIRCLE
  5
1CF
330
1F
100
AcDbEntity
  8
0
  6
Continuous
 62
     7
370
    25
100
AcDbCircle
 10
92.193771997
 20
115.141108545
 30
0.0
 40
6.453187499999999
  0
CIRCLE
  5
1D0
330
1F
100
AcDbEntity
  8
0
  6
Continuous
 62
     7
370
    25
100
AcDbCircle
 10
92.193771997
 20
115.141108545
 30
0.0
 40
6.828187499999999
  0
CIRCLE
  5
1D1
330
1F
100
AcDbEntity
  8
0
  6
Continuous
 62
     7
370
    25
100
AcDbCircle
 10
92.193771997
 20
115.141108545
 30
0.0
 40
6.999999999999986
  0
LINE
  5
1D2
330
1F
100
AcDbEntity
  8
0
  6
Continuous
 62
     7
370
    25
100
AcDbLine
 10
104.2501412429
 20
106.810108545
 30
0.0
 11
104.2501412429
 21
123.472108545
 31
0.0
  0
LINE
  5
1D3
330
1F
100
AcDbEntity
  8
0
  6
Continuous
 62
     7
370
    25
100
AcDbLine
 10
104.193771997
 20
107.1411085467
 30
0.0
 11
104.193771997
 21
123.141108545
 31
0.0
  0
SPLINE
  5
1D4
330
1F
100
AcDbEntity
  8
0
  6
Continuous
 62
     7
370
    25
100
AcDbSpline
210
0.0
220
0.0
230
1.0
 70
     8
 71
     3
 72
    16
 73
    12
 74
     0
 42
0.00000001
 43
0.00000001
 40
0.0
 40
0.0
 40
0.0
 40
0.0
 40
0.5000000000000019
 40
0.5000000000000019
 40
0.7500000000000013
 40
0.7500000000000013
 40
0.8750000000000006
 40
0.8750000000000006
 40
0.9375000000000003
 40
0.9375000000000003
 40
1.0
 40
1.0
 40
1.0
 40
1.0
 10
86.44377199695461
 20
119.5569889781986
 30
0.0
 10
86.39221058003238
 20
119.4227108192719
 30
0.0
 10
86.34428605236863
 20
119.2881306379656
 30
0.0
 10
86.27790279037896
 20
119.088430113941
 30
0.0
 10
86.25669497959025
 20
119.0221792843864
 30
0.0
 10
86.2274748701679
 20
118.9278481026144
 30
0.0
 10
86.21806725128005
 20
118.8969092698212
 30
0.0
 10
86.20575647027373
 20
118.8558483762357
 30
0.0
 10
86.20196020555362
 20
118.8430781905321
 30
0.0
 10
86.19588750332542
 20
118.8225501086142
 30
0.0
 10
86.19377199695461
 20
118.8153431592094
 30
0.0
 10
86.19377199695461
 20
118.8153431592094
 30
0.0
  0
LINE
  5
1D5
330
1F
100
AcDbEntity
  8
0
  6
Continuous
 62
     7
370
    25
100
AcDbLine
 10
86.443771997
 20
119.5569889782
 30
0.0
 11
86.642047859
 21
119.4047172391
 31
0.0
  0
ARC
  5
1D6
330
1F
100
AcDbEntity
  8
0
  6
Continuous
 62
     7
370
    25
100
AcDbCircle
 10
85.943771997
 20
118.8153431592
 30
0.0
 40
0.25
100
AcDbArc
 50
329.5496859786
 51
0.0
  0
ARC
  5
1D7
330
1F
100
AcDbEntity
  8
0
  6
Continuous
 62
     7
370
    25
100
AcDbCircle
 10
98.443771997
 20
111.4668739309
 30
0.0
 40
0.2499999999999892
100
AcDbArc
 50
149.5496859786
 51
172.5145187188
  0
SPLINE
  5
1D8
330
1F
100
AcDbEntity
  8
0
  6
Continuous
 62
     7
370
    25
100
AcDbSpline
210
0.0
220
0.0
230
1.0
 70
     8
 71
     3
 72
    16
 73
    12
 74
     0
 42
0.00000001
 43
0.00000001
 40
0.0
 40
0.0
 40
0.0
 40
0.0
 40
0.5000000000000004
 40
0.5000000000000004
 40
0.7499999999999992
 40
0.7499999999999992
 40
0.8749999999999993
 40
0.8749999999999993
 40
0.9374999999999997
 40
0.9374999999999997
 40
1.0
 40
1.0
 40
1.0
 40
1.0
 10
97.9437719969546
 20
110.7252281118707
 30
0.0
 10
97.99533341387682
 20
110.8595062707974
 30
0.0
 10
98.04325794154057
 20
110.9940864521037
 30
0.0
 10
98.10964120353024
 20
111.1937869761282
 30
0.0
 10
98.13084901431895
 20
111.2600378056829
 30
0.0
 10
98.16006912374131
 20
111.3543689874549
 30
0.0
 10
98.16947674262916
 20
111.3853078202481
 30
0.0
 10
98.18178752363548
 20
111.4263687138336
 30
0.0
 10
98.18558378835559
 20
111.4391388995372
 30
0.0
 10
98.19165649058378
 20
111.4596669814551
 30
0.0
 10
98.1937719969546
 20
111.4668739308599
 30
0.0
 10
98.1937719969546
 20
111.4668739308599
 30
0.0
  0
LINE
  5
1D9
330
1F
100
AcDbEntity
  8
0
  6
Continuous
 62
     7
370
    25
100
AcDbLine
 10
97.7454961349
 20
110.8774998509
 30
0.0
 11
97.943771997
 21
110.7252281119
 31
0.0
  0
SPLINE
  5
1DA
330
1F
100
AcDbEntity
  8
0
  6
Continuous
 62
     7
370
    25
100
AcDbSpline
210
0.0
220
0.0
230
1.0
 70
     8
 71
     3
 72
    16
 73
    12
 74
     0
 42
0.00000001
 43
0.00000001
 40
0.0
 40
0.0
 40
0.0
 40
0.0
 40
0.0624999999999998
 40
0.0624999999999998
 40
0.1249999999999995
 40
0.1249999999999995
 40
0.249999999999999
 40
0.249999999999999
 40
0.4999999999999984
 40
0.4999999999999984
 40
1.0
 40
1.0
 40
1.0
 40
1.0
 10
98.1937719969546
 20
118.8153431592094
 30
0.0
 10
98.1937719969546
 20
118.8153431592094
 30
0.0
 10
98.19163757131213
 20
118.822614205859
 30
0.0
 10
98.18558010127575
 20
118.8430905109636
 30
0.0
 10
98.18181302959825
 20
118.8557631191822
 30
0.0
 10
98.16945899323147
 20
118.8969688406507
 30
0.0
 10
98.16008416617
 20
118.9277991935506
 30
0.0
 10
98.13084724716302
 20
119.0221856840602
 30
0.0
 10
98.1096593948933
 20
119.0883702566498
 30
0.0
 10
98.04343573013016
 20
119.2876060368474
 30
0.0
 10
97.99532206226455
 20
119.4227403815626
 30
0.0
 10
97.94377199695458
 20
119.5569889781985
 30
0.0
  0
ARC
  5
1DB
330
1F
100
AcDbEntity
  8
0
  6
Continuous
 62
     7
370
    25
100
AcDbCircle
 10
98.443771997
 20
118.8153431592
 30
0.0
 40
0.25
100
AcDbArc
 50
180.0
 51
210.4503140214
  0
LINE
  5
1DC
330
1F
100
AcDbEntity
  8
0
  6
Continuous
 62
     7
370
    25
100
AcDbLine
 10
97.943771997
 20
119.5569889782
 30
0.0
 11
97.7454961349
 21
119.4047172391
 31
0.0
  0
LINE
  5
1DD
330
1F
100
AcDbEntity
  8
0
  6
Continuous
 62
     7
370
    25
100
AcDbLine
 10
86.642047859
 20
110.8774998509
 30
0.0
 11
86.443771997
 21
110.7252281119
 31
0.0
  0
SPLINE
  5
1DE
330
1F
100
AcDbEntity
  8
0
  6
Continuous
 62
     7
370
    25
100
AcDbSpline
210
0.0
220
0.0
230
1.0
 70
     8
 71
     3
 72
    16
 73
    12
 74
     0
 42
0.00000001
 43
0.00000001
 40
0.0
 40
0.0
 40
0.0
 40
0.0
 40
0.0625000000000002
 40
0.0625000000000002
 40
0.1250000000000005
 40
0.1250000000000005
 40
0.2500000000000009
 40
0.2500000000000009
 40
0.4999999999999998
 40
0.4999999999999998
 40
1.0
 40
1.0
 40
1.0
 40
1.0
 10
86.19377199695461
 20
111.4668739308599
 30
0.0
 10
86.19377199695461
 20
111.4668739308599
 30
0.0
 10
86.19590642259709
 20
111.4596028842103
 30
0.0
 10
86.20196389263346
 20
111.4391265791057
 30
0.0
 10
86.20573096431096
 20
111.4264539708871
 30
0.0
 10
86.21808500067773
 20
111.3852482494185
 30
0.0
 10
86.22745982773921
 20
111.3544178965187
 30
0.0
 10
86.25669674674619
 20
111.2600314060091
 30
0.0
 10
86.27788459901589
 20
111.1938468334195
 30
0.0
 10
86.34410826377906
 20
110.9946110532219
 30
0.0
 10
86.39222193164466
 20
110.8594767085067
 30
0.0
 10
86.44377199695464
 20
110.7252281118707
 30
0.0
  0
ARC
  5
1DF
330
1F
100
AcDbEntity
  8
0
  6
Continuous
 62
     7
370
    25
100
AcDbCircle
 10
85.943771997
 20
111.4668739309
 30
0.0
 40
0.25
100
AcDbArc
 50
0.0
 51
30.4503140214
  0
ARC
  5
1E0
330
1F
100
AcDbEntity
  8
0
  6
Continuous
 62
     7
370
    25
100
AcDbCircle
 10
92.193771997
 20
115.141108545
 30
0.0
 40
7.250000000000004
100
AcDbArc
 50
111.4033496394
 51
142.4764867979
  0
SPLINE
  5
1E1
330
1F
100
AcDbEntity
  8
0
  6
Continuous
 62
     7
370
    25
100
AcDbSpline
210
0.0
220
0.0
230
1.0
 70
     8
 71
     3
 72
    12
 73
     8
 74
     0
 42
0.00000001
 43
0.00000001
 40
0.0
 40
0.0
 40
0.0
 40
0.0
 40
0.25
 40
0.25
 40
0.5
 40
0.5
 40
1.0
 40
1.0
 40
1.0
 40
1.0
 10
89.62467559762078
 20
121.7312767250672
 30
0.0
 10
89.62102960739196
 20
121.7451798349617
 30
0.0
 10
89.61647307445952
 20
121.7614500416758
 30
0.0
 10
89.60585446047557
 20
121.7953362831045
 30
0.0
 10
89.59979237942406
 20
121.812952317819
 30
0.0
 10
89.57982112002308
 20
121.8627366155044
 30
0.0
 10
89.56447032705387
 20
121.8911085450346
 30
0.0
 10
89.54802068589001
 20
121.8911085450346
 30
0.0
  0
SPLINE
  5
1E2
330
1F
100
AcDbEntity
  8
0
  6
Continuous
 62
     7
370
    25
100
AcDbSpline
210
0.0
220
0.0
230
1.0
 70
     8
 71
     3
 72
    10
 73
     6
 74
     0
 42
0.00000001
 43
0.00000001
 40
0.0
 40
0.0
 40
0.0
 40
0.0
 40
0.5
 40
0.5
 40
1.0
 40
1.0
 40
1.0
 40
1.0
 10
89.62467559762078
 20
121.7312767250672
 30
0.0
 10
89.63196757807843
 20
121.7034705052782
 30
0.0
 10
89.63586474070323
 20
121.6838152113667
 30
0.0
 10
89.63940094468495
 20
121.6615819090646
 30
0.0
 10
89.63925348971982
 20
121.658349924345
 30
0.0
 10
89.63925348971982
 20
121.658349924345
 30
0.0
  0
SPLINE
  5
1E3
330
1F
100
AcDbEntity
  8
0
  6
Continuous
 62
     7
370
    25
100
AcDbSpline
210
0.0
220
0.0
230
1.0
 70
     8
 71
     3
 72
    15
 73
    11
 74
     0
 42
0.00000001
 43
0.00000001
 40
0.0
 40
0.0
 40
0.0
 40
0.0
 40
0.0425877399909108
 40
0.1028282325346858
 40
0.1864706729280343
 40
0.2956205441869044
 40
0.4311891005861843
 40
0.5936297641565587
 40
0.7831876993469675
 40
1.0
 40
1.0
 40
1.0
 40
1.0
 10
94.8395233080192
 20
121.8911085450346
 30
0.0
 10
94.8367039845387
 20
121.8903930434378
 30
0.0
 10
94.82989671910255
 20
121.8886654625755
 30
0.0
 10
94.82135652276166
 20
121.8787912834806
 30
0.0
 10
94.81205884023126
 20
121.8648976036583
 30
0.0
 10
94.80225110460427
 20
121.8454003458366
 30
0.0
 10
94.79192545855517
 20
121.8211954929874
 30
0.0
 10
94.7814587471032
 20
121.7928268363232
 30
0.0
 10
94.77112551186252
 20
121.7612876655797
 30
0.0
 10
94.76574114082078
 20
121.7417178730073
 30
0.0
 10
94.76286839628843
 20
121.7312767250672
 30
0.0
  0
ARC
  5
1E4
330
1F
100
AcDbEntity
  8
0
  6
Continuous
 62
     7
370
    25
100
AcDbCircle
 10
92.193771997
 20
115.141108545
 30
0.0
 40
7.249999999999998
100
AcDbArc
 50
37.5235132021
 51
68.5966503606
  0
SPLINE
  5
1E5
330
1F
100
AcDbEntity
  8
0
  6
Continuous
 62
     7
370
    25
100
AcDbSpline
210
0.0
220
0.0
230
1.0
 70
     8
 71
     3
 72
     8
 73
     4
 74
     0
 42
0.00000001
 43
0.00000001
 40
0.0
 40
0.0
 40
0.0
 40
0.0
 40
1.0
 40
1.0
 40
1.0
 40
1.0
 10
94.76286839628843
 20
121.7312767250672
 30
0.0
 10
94.75010758685788
 20
121.6865751614457
 30
0.0
 10
94.74428527393242
 20
121.6599198270418
 30
0.0
 10
94.74829050418938
 20
121.658349924345
 30
0.0
  0
SPLINE
  5
1E6
330
1F
100
AcDbEntity
  8
0
  6
Continuous
 62
     7
370
    25
100
AcDbSpline
210
0.0
220
0.0
230
1.0
 70
     8
 71
     3
 72
    10
 73
     6
 74
     0
 42
0.00000001
 43
0.00000001
 40
0.0
 40
0.0
 40
0.0
 40
0.0
 40
0.5
 40
0.5
 40
1.0
 40
1.0
 40
1.0
 40
1.0
 10
89.62467559762078
 20
108.5509403650021
 30
0.0
 10
89.63196757807843
 20
108.578746584791
 30
0.0
 10
89.63586474070323
 20
108.5984018787025
 30
0.0
 10
89.63940094468497
 20
108.6206351810047
 30
0.0
 10
89.63925348971982
 20
108.6238671657243
 30
0.0
 10
89.63925348971982
 20
108.6238671657243
 30
0.0
  0
SPLINE
  5
1E7
330
1F
100
AcDbEntity
  8
0
  6
Continuous
 62
     7
370
    25
100
AcDbSpline
210
0.0
220
0.0
230
1.0
 70
     8
 71
     3
 72
    12
 73
     8
 74
     0
 42
0.00000001
 43
0.00000001
 40
0.0
 40
0.0
 40
0.0
 40
0.0
 40
0.25
 40
0.25
 40
0.5
 40
0.5
 40
1.0
 40
1.0
 40
1.0
 40
1.0
 10
89.62467559762078
 20
108.5509403650021
 30
0.0
 10
89.62102960739196
 20
108.5370372551076
 30
0.0
 10
89.61647307445952
 20
108.5207670483934
 30
0.0
 10
89.60585446047557
 20
108.4868808069648
 30
0.0
 10
89.59979237942404
 20
108.4692647722503
 30
0.0
 10
89.57982112002308
 20
108.4194804745649
 30
0.0
 10
89.56447032705387
 20
108.3911085450346
 30
0.0
 10
89.54802068589001
 20
108.3911085450346
 30
0.0
  0
ARC
  5
1E8
330
1F
100
AcDbEntity
  8
0
  6
Continuous
 62
     7
370
    25
100
AcDbCircle
 10
92.193771997
 20
115.141108545
 30
0.0
 40
7.250000000000017
100
AcDbArc
 50
217.5235132021
 51
248.5966503606
  0
SPLINE
  5
1E9
330
1F
100
AcDbEntity
  8
0
  6
Continuous
 62
     7
370
    25
100
AcDbSpline
210
0.0
220
0.0
230
1.0
 70
     8
 71
     3
 72
     8
 73
     4
 74
     0
 42
0.00000001
 43
0.00000001
 40
0.0
 40
0.0
 40
0.0
 40
0.0
 40
1.0
 40
1.0
 40
1.0
 40
1.0
 10
94.74829050418938
 20
108.6238671657243
 30
0.0
 10
94.74428527393242
 20
108.6222972630275
 30
0.0
 10
94.75010758685788
 20
108.5956419286236
 30
0.0
 10
94.76286839628843
 20
108.5509403650021
 30
0.0
  0
ARC
  5
1EA
330
1F
100
AcDbEntity
  8
0
  6
Continuous
 62
     7
370
    25
100
AcDbCircle
 10
92.193771997
 20
115.141108545
 30
0.0
 40
7.250000000000012
100
AcDbArc
 50
291.4033496394
 51
322.4764867979
  0
SPLINE
  5
1EB
330
1F
100
AcDbEntity
  8
0
  6
Continuous
 62
     7
370
    25
100
AcDbSpline
210
0.0
220
0.0
230
1.0
 70
     8
 71
     3
 72
    14
 73
    10
 74
     0
 42
0.00000001
 43
0.00000001
 40
0.0
 40
0.0
 40
0.0
 40
0.0
 40
0.2455893235675696
 40
0.4556181963142487
 40
0.6303106213393677
 40
0.7701164303669036
 40
0.8759901151610805
 40
0.9502659312389182
 40
1.0
 40
1.0
 40
1.0
 40
1.0
 10
94.76286839628843
 20
108.5509403650021
 30
0.0
 10
94.76615997376167
 20
108.5390494244629
 30
0.0
 10
94.77226652012777
 20
108.5169893088103
 30
0.0
 10
94.78418951038698
 20
108.4814256104901
 30
0.0
 10
94.79611859290151
 20
108.4506333018869
 30
0.0
 10
94.80756580026562
 20
108.4253937193141
 30
0.0
 10
94.81845132531242
 20
108.4074114263793
 30
0.0
 10
94.8281385871035
 20
108.3944892629633
 30
0.0
 10
94.83626444069682
 20
108.3920762728574
 30
0.0
 10
94.8395233080192
 20
108.3911085450346
 30
0.0
  0
SPLINE
  5
1EC
330
1F
100
AcDbEntity
  8
0
  6
Continuous
 62
     7
370
    25
100
AcDbSpline
210
0.0
220
0.0
230
1.0
 70
     8
 71
     3
 72
    12
 73
     8
 74
     0
 42
0.00000001
 43
0.00000001
 40
0.0
 40
0.0
 40
0.0
 40
0.0
 40
0.25
 40
0.25
 40
0.5
 40
0.5
 40
1.0
 40
1.0
 40
1.0
 40
1.0
 10
89.56138663395762
 20
122.0678852403328
 30
0.0
 10
89.56308077878353
 20
122.0536079385783
 30
0.0
 10
89.56500698833963
 20
122.0361711611969
 30
0.0
 10
89.56792244963013
 20
121.9995475850503
 30
0.0
 10
89.56891170136453
 20
121.9803607862852
 30
0.0
 10
89.56837238891191
 20
121.9270287527199
 30
0.0
 10
89.56333675706911
 20
121.8971118806498
 30
0.0
 10
89.54802068589001
 20
121.8911085450346
 30
0.0
  0
SPLINE
  5
1ED
330
1F
100
AcDbEntity
  8
0
  6
Continuous
 62
     7
370
    25
100
AcDbSpline
210
0.0
220
0.0
230
1.0
 70
     8
 71
     3
 72
    12
 73
     8
 74
     0
 42
0.00000001
 43
0.00000001
 40
0.0
 40
0.0
 40
0.0
 40
0.0
 40
0.25
 40
0.25
 40
0.5
 40
0.5
 40
1.0
 40
1.0
 40
1.0
 40
1.0
 10
94.82615735995158
 20
122.0678852403328
 30
0.0
 10
94.82446321512569
 20
122.0536079385783
 30
0.0
 10
94.82253700556959
 20
122.0361711611969
 30
0.0
 10
94.81962154427907
 20
121.9995475850503
 30
0.0
 10
94.81863229254468
 20
121.9803607862852
 30
0.0
 10
94.8191716049973
 20
121.9270287527199
 30
0.0
 10
94.8242072368401
 20
121.8971118806498
 30
0.0
 10
94.8395233080192
 20
121.8911085450346
 30
0.0
  0
SPLINE
  5
1EE
330
1F
100
AcDbEntity
  8
0
  6
Continuous
 62
     7
370
    25
100
AcDbSpline
210
0.0
220
0.0
230
1.0
 70
     8
 71
     3
 72
    12
 73
     8
 74
     0
 42
0.00000001
 43
0.00000001
 40
0.0
 40
0.0
 40
0.0
 40
0.0
 40
0.25
 40
0.25
 40
0.5
 40
0.5
 40
1.0
 40
1.0
 40
1.0
 40
1.0
 10
89.56138663395762
 20
108.2143318497365
 30
0.0
 10
89.56308077878352
 20
108.2286091514909
 30
0.0
 10
89.56500698833963
 20
108.2460459288724
 30
0.0
 10
89.56792244963013
 20
108.282669505019
 30
0.0
 10
89.56891170136453
 20
108.3018563037841
 30
0.0
 10
89.56837238891191
 20
108.3551883373494
 30
0.0
 10
89.56333675706911
 20
108.3851052094195
 30
0.0
 10
89.54802068589001
 20
108.3911085450346
 30
0.0
  0
SPLINE
  5
1EF
330
1F
100
AcDbEntity
  8
0
  6
Continuous
 62
     7
370
    25
100
AcDbSpline
210
0.0
220
0.0
230
1.0
 70
     8
 71
     3
 72
    12
 73
     8
 74
     0
 42
0.00000001
 43
0.00000001
 40
0.0
 40
0.0
 40
0.0
 40
0.0
 40
0.25
 40
0.25
 40
0.5
 40
0.5
 40
1.0
 40
1.0
 40
1.0
 40
1.0
 10
94.82615735995158
 20
108.2143318497365
 30
0.0
 10
94.82446321512569
 20
108.2286091514909
 30
0.0
 10
94.82253700556959
 20
108.2460459288724
 30
0.0
 10
94.81962154427907
 20
108.282669505019
 30
0.0
 10
94.81863229254468
 20
108.3018563037841
 30
0.0
 10
94.8191716049973
 20
108.3551883373494
 30
0.0
 10
94.8242072368401
 20
108.3851052094195
 30
0.0
 10
94.8395233080192
 20
108.3911085450346
 30
0.0
  0
LINE
  5
1F0
330
1F
100
AcDbEntity
  8
0
  6
Continuous
 62
     7
370
    25
100
AcDbLine
 10
97.943771997
 20
121.891108545
 30
0.0
 11
94.839523308
 21
121.891108545
 31
0.0
  0
SPLINE
  5
1F1
330
1F
100
AcDbEntity
  8
0
  6
Continuous
 62
     7
370
    25
100
AcDbSpline
210
0.0
220
0.0
230
1.0
 70
     8
 71
     3
 72
    10
 73
     6
 74
     0
 42
0.00000001
 43
0.00000001
 40
0.0
 40
0.0
 40
0.0
 40
0.0
 40
0.5
 40
0.5
 40
1.0
 40
1.0
 40
1.0
 40
1.0
 10
94.82615735995158
 20
122.0678852403328
 30
0.0
 10
94.82954564960338
 20
122.0964398438417
 30
0.0
 10
94.83288713662027
 20
122.1147456700171
 30
0.0
 10
94.83787596582819
 20
122.1370800206136
 30
0.0
 10
94.8395233080192
 20
122.1411085450346
 30
0.0
 10
94.8395233080192
 20
122.1411085450346
 30
0.0
  0
LINE
  5
1F2
330
1F
100
AcDbEntity
  8
0
  6
Continuous
 62
     7
370
    25
100
AcDbLine
 10
94.839523308
 20
122.141108545
 30
0.0
 11
97.943771997
 21
122.141108545
 31
0.0
  0
LINE
  5
1F3
330
1F
100
AcDbEntity
  8
0
  6
Continuous
 62
     7
370
    25
100
AcDbLine
 10
97.943771997
 20
122.141108545
 30
0.0
 11
97.943771997
 21
121.891108545
 31
0.0
  0
LINE
  5
1F4
330
1F
100
AcDbEntity
  8
0
  6
Continuous
 62
     7
370
    25
100
AcDbLine
 10
86.443771997
 20
122.141108545
 30
0.0
 11
89.5480206859
 21
122.141108545
 31
0.0
  0
SPLINE
  5
1F5
330
1F
100
AcDbEntity
  8
0
  6
Continuous
 62
     7
370
    25
100
AcDbSpline
210
0.0
220
0.0
230
1.0
 70
     8
 71
     3
 72
    10
 73
     6
 74
     0
 42
0.00000001
 43
0.00000001
 40
0.0
 40
0.0
 40
0.0
 40
0.0
 40
0.5
 40
0.5
 40
1.0
 40
1.0
 40
1.0
 40
1.0
 10
89.56138663395762
 20
122.0678852403328
 30
0.0
 10
89.55799834430583
 20
122.0964398438417
 30
0.0
 10
89.55465685728893
 20
122.1147456700171
 30
0.0
 10
89.54966802808103
 20
122.1370800206136
 30
0.0
 10
89.54802068589001
 20
122.1411085450346
 30
0.0
 10
89.54802068589001
 20
122.1411085450346
 30
0.0
  0
LINE
  5
1F6
330
1F
100
AcDbEntity
  8
0
  6
Continuous
 62
     7
370
    25
100
AcDbLine
 10
89.5480206859
 20
121.891108545
 30
0.0
 11
86.443771997
 21
121.891108545
 31
0.0
  0
LINE
  5
1F7
330
1F
100
AcDbEntity
  8
0
  6
Continuous
 62
     7
370
    25
100
AcDbLine
 10
86.443771997
 20
122.141108545
 30
0.0
 11
86.443771997
 21
121.891108545
 31
0.0
  0
LINE
  5
1F8
330
1F
100
AcDbEntity
  8
0
  6
Continuous
 62
     7
370
    25
100
AcDbLine
 10
97.943771997
 20
119.5569889782
 30
0.0
 11
97.943771997
 21
121.891108545
 31
0.0
  0
LINE
  5
1F9
330
1F
100
AcDbEntity
  8
0
  6
Continuous
 62
     7
370
    25
100
AcDbLine
 10
86.443771997
 20
121.891108545
 30
0.0
 11
86.443771997
 21
119.5569889782
 31
0.0
  0
LINE
  5
1FA
330
1F
100
AcDbEntity
  8
0
  6
Continuous
 62
     7
370
    25
100
AcDbLine
 10
97.943771997
 20
108.391108545
 30
0.0
 11
97.943771997
 21
110.7252281119
 31
0.0
  0
LINE
  5
1FB
330
1F
100
AcDbEntity
  8
0
  6
Continuous
 62
     7
370
    25
100
AcDbLine
 10
94.839523308
 20
108.391108545
 30
0.0
 11
97.943771997
 21
108.391108545
 31
0.0
  0
LINE
  5
1FC
330
1F
100
AcDbEntity
  8
0
  6
Continuous
 62
     7
370
    25
100
AcDbLine
 10
86.443771997
 20
110.7252281119
 30
0.0
 11
86.443771997
 21
108.391108545
 31
0.0
  0
LINE
  5
1FD
330
1F
100
AcDbEntity
  8
0
  6
Continuous
 62
     7
370
    25
100
AcDbLine
 10
86.443771997
 20
108.391108545
 30
0.0
 11
89.5480206859
 21
108.391108545
 31
0.0
  0
LINE
  5
1FE
330
1F
100
AcDbEntity
  8
0
  6
Continuous
 62
     7
370
    25
100
AcDbLine
 10
97.943771997
 20
108.391108545
 30
0.0
 11
97.943771997
 21
108.141108545
 31
0.0
  0
LINE
  5
1FF
330
1F
100
AcDbEntity
  8
0
  6
Continuous
 62
     7
370
    25
100
AcDbLine
 10
97.943771997
 20
108.141108545
 30
0.0
 11
94.839523308
 21
108.141108545
 31
0.0
  0
SPLINE
  5
200
330
1F
100
AcDbEntity
  8
0
  6
Continuous
 62
     7
370
    25
100
AcDbSpline
210
0.0
220
0.0
230
1.0
 70
     8
 71
     3
 72
    10
 73
     6
 74
     0
 42
0.00000001
 43
0.00000001
 40
0.0
 40
0.0
 40
0.0
 40
0.0
 40
0.5
 40
0.5
 40
1.0
 40
1.0
 40
1.0
 40
1.0
 10
94.82615735995158
 20
108.2143318497365
 30
0.0
 10
94.82954564960338
 20
108.1857772462276
 30
0.0
 10
94.83288713662027
 20
108.1674714200521
 30
0.0
 10
94.83787596582819
 20
108.1451370694556
 30
0.0
 10
94.8395233080192
 20
108.1411085450346
 30
0.0
 10
94.8395233080192
 20
108.1411085450346
 30
0.0
  0
SPLINE
  5
201
330
1F
100
AcDbEntity
  8
0
  6
Continuous
 62
     7
370
    25
100
AcDbSpline
210
0.0
220
0.0
230
1.0
 70
     8
 71
     3
 72
    10
 73
     6
 74
     0
 42
0.00000001
 43
0.00000001
 40
0.0
 40
0.0
 40
0.0
 40
0.0
 40
0.5
 40
0.5
 40
1.0
 40
1.0
 40
1.0
 40
1.0
 10
89.56138663395762
 20
108.2143318497365
 30
0.0
 10
89.55799834430583
 20
108.1857772462276
 30
0.0
 10
89.55465685728893
 20
108.1674714200521
 30
0.0
 10
89.54966802808103
 20
108.1451370694556
 30
0.0
 10
89.54802068589001
 20
108.1411085450346
 30
0.0
 10
89.54802068589001
 20
108.1411085450346
 30
0.0
  0
LINE
  5
202
330
1F
100
AcDbEntity
  8
0
  6
Continuous
 62
     7
370
    25
100
AcDbLine
 10
89.5480206859
 20
108.141108545
 30
0.0
 11
86.443771997
 21
108.141108545
 31
0.0
  0
LINE
  5
203
330
1F
100
AcDbEntity
  8
0
  6
Continuous
 62
     7
370
    25
100
AcDbLine
 10
86.443771997
 20
108.391108545
 30
0.0
 11
86.443771997
 21
108.141108545
 31
0.0
  0
LINE
  5
204
330
1F
100
AcDbEntity
  8
0
  6
Continuous
 62
     7
370
    25
100
AcDbLine
 10
91.9824586868
 20
122.141108545
 30
0.0
 11
89.5480206859
 21
122.141108545
 31
0.0
  0
LINE
  5
205
330
1F
100
AcDbEntity
  8
0
  6
Continuous
 62
     7
370
    25
100
AcDbLine
 10
94.839523308
 20
122.141108545
 30
0.0
 11
92.4050853071
 21
122.141108545
 31
0.0
  0
LINE
  5
206
330
1F
100
AcDbEntity
  8
0
  6
Continuous
 62
     7
370
    25
100
AcDbLine
 10
89.5480206859
 20
108.141108545
 30
0.0
 11
91.0107189505
 21
108.141108545
 31
0.0
  0
LINE
  5
207
330
1F
100
AcDbEntity
  8
0
  6
Continuous
 62
     7
370
    25
100
AcDbLine
 10
93.3473244603
 20
108.141108545
 30
0.0
 11
94.839523308
 21
108.141108545
 31
0.0
  0
LINE
  5
208
330
1F
100
AcDbEntity
  8
0
  6
Continuous
 62
     7
370
    25
100
AcDbLine
 10
86.193771997
 20
121.891108545
 30
0.0
 11
86.443771997
 21
121.891108545
 31
0.0
  0
ARC
  5
209
330
1F
100
AcDbEntity
  8
0
  6
Continuous
 62
     7
370
    25
100
AcDbCircle
 10
86.443771997
 20
121.891108545
 30
0.0
 40
0.25
100
AcDbArc
 50
90.0
 51
180.0
  0
LINE
  5
20A
330
1F
100
AcDbEntity
  8
0
  6
Continuous
 62
     7
370
    25
100
AcDbLine
 10
98.193771997
 20
121.891108545
 30
0.0
 11
97.943771997
 21
121.891108545
 31
0.0
  0
ARC
  5
20B
330
1F
100
AcDbEntity
  8
0
  6
Continuous
 62
     7
370
    25
100
AcDbCircle
 10
97.943771997
 20
121.891108545
 30
0.0
 40
0.25
100
AcDbArc
 50
0.0
 51
90.0
  0
LINE
  5
20C
330
1F
100
AcDbEntity
  8
0
  6
Continuous
 62
     7
370
    25
100
AcDbLine
 10
98.193771997
 20
121.891108545
 30
0.0
 11
98.193771997
 21
118.8153431592
 31
0.0
  0
LINE
  5
20D
330
1F
100
AcDbEntity
  8
0
  6
Continuous
 62
     7
370
    25
100
AcDbLine
 10
86.193771997
 20
118.8153431592
 30
0.0
 11
86.193771997
 21
121.891108545
 31
0.0
  0
LINE
  5
20E
330
1F
100
AcDbEntity
  8
0
  6
Continuous
 62
     7
370
    25
100
AcDbLine
 10
86.443771997
 20
108.391108545
 30
0.0
 11
86.193771997
 21
108.391108545
 31
0.0
  0
LINE
  5
20F
330
1F
100
AcDbEntity
  8
0
  6
Continuous
 62
     7
370
    25
100
AcDbLine
 10
86.193771997
 20
108.391108545
 30
0.0
 11
86.193771997
 21
111.4668739309
 31
0.0
  0
LINE
  5
210
330
1F
100
AcDbEntity
  8
0
  6
Continuous
 62
     7
370
    25
100
AcDbLine
 10
98.193771997
 20
111.4668739309
 30
0.0
 11
98.193771997
 21
108.391108545
 31
0.0
  0
LINE
  5
211
330
1F
100
AcDbEntity
  8
0
  6
Continuous
 62
     7
370
    25
100
AcDbLine
 10
97.943771997
 20
108.391108545
 30
0.0
 11
98.193771997
 21
108.391108545
 31
0.0
  0
ARC
  5
212
330
1F
100
AcDbEntity
  8
0
  6
Continuous
 62
     7
370
    25
100
AcDbCircle
 10
97.943771997
 20
108.391108545
 30
0.0
 40
0.25
100
AcDbArc
 50
270.0
 51
0.0
  0
ARC
  5
213
330
1F
100
AcDbEntity
  8
0
  6
Continuous
 62
     7
370
    25
100
AcDbCircle
 10
86.443771997
 20
108.391108545
 30
0.0
 40
0.25
100
AcDbArc
 50
180.0
 51
270.0
  0
SPLINE
  5
214
330
1F
100
AcDbEntity
  8
0
  6
Continuous
 62
     7
370
    25
100
AcDbSpline
210
0.0
220
0.0
230
1.0
 70
     8
 71
     3
 72
    10
 73
     6
 74
     0
 42
0.00000001
 43
0.00000001
 40
0.0
 40
0.0
 40
0.0
 40
0.0
 40
0.5
 40
0.5
 40
1.0
 40
1.0
 40
1.0
 40
1.0
 10
98.1937719969546
 20
118.8153431592094
 30
0.0
 10
98.1937719969546
 20
118.8153431592094
 30
0.0
 10
98.23094154736309
 20
118.7684848063071
 30
0.0
 10
98.34108926113112
 20
118.6215960502257
 30
0.0
 10
98.41263250758111
 20
118.52287959702
 30
0.0
 10
98.48666521576806
 20
118.4130913082011
 30
0.0
  0
SPLINE
  5
215
330
1F
100
AcDbEntity
  8
0
  6
Continuous
 62
     7
370
    25
100
AcDbSpline
210
0.0
220
0.0
230
1.0
 70
     8
 71
     3
 72
    10
 73
     6
 74
     0
 42
0.00000001
 43
0.00000001
 40
0.0
 40
0.0
 40
0.0
 40
0.0
 40
0.5
 40
0.5
 40
1.0
 40
1.0
 40
1.0
 40
1.0
 10
98.56205848565186
 20
118.047124236299
 30
0.0
 10
98.53716711513997
 20
118.101671559974
 30
0.0
 10
98.5192204179691
 20
118.1604334904381
 30
0.0
 10
98.49370347990259
 20
118.2842546501613
 30
0.0
 10
98.4866652157689
 20
118.3490823927563
 30
0.0
 10
98.48666521576806
 20
118.4130913082002
 30
0.0
  0
SPLINE
  5
216
330
1F
100
AcDbEntity
  8
0
  6
Continuous
 62
     7
370
    25
100
AcDbSpline
210
0.0
220
0.0
230
1.0
 70
     8
 71
     3
 72
    10
 73
     6
 74
     0
 42
0.00000001
 43
0.00000001
 40
0.0
 40
0.0
 40
0.0
 40
0.0
 40
0.5
 40
0.5
 40
1.0
 40
1.0
 40
1.0
 40
1.0
 10
98.56205848565189
 20
112.2350928537701
 30
0.0
 10
98.53716711514008
 20
112.1805455300953
 30
0.0
 10
98.51922041796918
 20
112.1217835996315
 30
0.0
 10
98.49370347990269
 20
111.9979624399086
 30
0.0
 10
98.48666521576841
 20
111.9331346973138
 30
0.0
 10
98.48666521576772
 20
111.86912578187
 30
0.0
  0
SPLINE
  5
217
330
1F
100
AcDbEntity
  8
0
  6
Continuous
 62
     7
370
    25
100
AcDbSpline
210
0.0
220
0.0
230
1.0
 70
     8
 71
     3
 72
    10
 73
     6
 74
     0
 42
0.00000001
 43
0.00000001
 40
0.0
 40
0.0
 40
0.0
 40
0.0
 40
0.5
 40
0.5
 40
1.0
 40
1.0
 40
1.0
 40
1.0
 10
98.48666521576806
 20
111.8691257818681
 30
0.0
 10
98.41263250758111
 20
111.7593374930492
 30
0.0
 10
98.34108926113112
 20
111.6606210398435
 30
0.0
 10
98.23094154736309
 20
111.5137322837621
 30
0.0
 10
98.1937719969546
 20
111.4668739308599
 30
0.0
 10
98.1937719969546
 20
111.4668739308599
 30
0.0
  0
LINE
  5
218
330
1F
100
AcDbEntity
  8
0
  6
Continuous
 62
     7
370
    25
100
AcDbLine
 10
99.193771997
 20
121.891108545
 30
0.0
 11
98.193771997
 21
121.891108545
 31
0.0
  0
LINE
  5
219
330
1F
100
AcDbEntity
  8
0
  6
Continuous
 62
     7
370
    25
100
AcDbLine
 10
99.193771997
 20
122.141108545
 30
0.0
 11
99.193771997
 21
121.891108545
 31
0.0
  0
LINE
  5
21A
330
1F
100
AcDbEntity
  8
0
  6
Continuous
 62
     7
370
    25
100
AcDbLine
 10
97.943771997
 20
122.141108545
 30
0.0
 11
99.193771997
 21
122.141108545
 31
0.0
  0
LINE
  5
21B
330
1F
100
AcDbEntity
  8
0
  6
Continuous
 62
     7
370
    25
100
AcDbLine
 10
99.193771997
 20
118.8153431592
 30
0.0
 11
99.193771997
 21
121.891108545
 31
0.0
  0
SPLINE
  5
21C
330
1F
100
AcDbEntity
  8
0
  6
Continuous
 62
     7
370
    25
100
AcDbSpline
210
0.0
220
0.0
230
1.0
 70
     8
 71
     3
 72
    10
 73
     6
 74
     0
 42
0.00000001
 43
0.00000001
 40
0.0
 40
0.0
 40
0.0
 40
0.0
 40
0.5
 40
0.5
 40
1.0
 40
1.0
 40
1.0
 40
1.0
 10
98.48666521576806
 20
118.4130913082011
 30
0.0
 10
98.56069792395502
 20
118.52287959702
 30
0.0
 10
98.6550995536733
 20
118.6215960502257
 30
0.0
 10
98.89344987911868
 20
118.7684848063071
 30
0.0
 10
99.04127711527975
 20
118.8153431592094
 30
0.0
 10
99.19377199695461
 20
118.8153431592094
 30
0.0
  0
SPLINE
  5
21D
330
1F
100
AcDbEntity
  8
0
  6
Continuous
 62
     7
370
    25
100
AcDbSpline
210
0.0
220
0.0
230
1.0
 70
    24
 71
     3
 72
    14
 73
    10
 74
     0
 42
0.00000001
 43
0.00000001
 40
0.0
 40
0.0
 40
0.0
 40
0.0
 40
0.25
 40
0.25
 40
0.5
 40
0.5
 40
0.75
 40
0.75
 40
1.0
 40
1.0
 40
1.0
 40
1.0
 10
99.94377199695462
 20
108.1411085450346
 30
0.0
 10
99.94377199695462
 20
108.1411085450346
 30
0.0
 10
99.94377199695462
 20
108.15103323496
 30
0.0
 10
99.94377199695462
 20
108.1908279376227
 30
0.0
 10
99.94377199695462
 20
108.2206982828444
 30
0.0
 10
99.94377199695461
 20
108.3006678227763
 30
0.0
 10
99.94377199695461
 20
108.3507677032122
 30
0.0
 10
99.94377199695461
 20
108.4716522522001
 30
0.0
 10
99.94377199695461
 20
108.5424380007887
 30
0.0
 10
99.94377199695461
 20
108.6238671657243
 30
0.0
  0
LINE
  5
21E
330
1F
100
AcDbEntity
  8
0
  6
Continuous
 62
     7
370
    25
100
AcDbLine
 10
99.943771997
 20
110.8774998509
 30
0.0
 11
99.943771997
 21
108.6238671657
 31
0.0
  0
SPLINE
  5
21F
330
1F
100
AcDbEntity
  8
0
  6
Continuous
 62
     7
370
    25
100
AcDbSpline
210
0.0
220
0.0
230
1.0
 70
     8
 71
     3
 72
    14
 73
    10
 74
     0
 42
0.00000001
 43
0.00000001
 40
0.0
 40
0.0
 40
0.0
 40
0.0
 40
0.25
 40
0.25
 40
0.5
 40
0.5
 40
0.75
 40
0.75
 40
1.0
 40
1.0
 40
1.0
 40
1.0
 10
99.94377199695461
 20
110.8774998509453
 30
0.0
 10
99.94377199695461
 20
110.9494793735814
 30
0.0
 10
99.93422343271847
 20
111.0213577232464
 30
0.0
 10
99.89743331459366
 20
111.1648935309444
 30
0.0
 10
99.86988226730547
 20
111.2370536712504
 30
0.0
 10
99.79487917973532
 20
111.3736000912742
 30
0.0
 10
99.74669879954332
 20
111.4403399798118
 30
0.0
 10
99.6197354217665
 20
111.549938582579
 30
0.0
 10
99.53571294167773
 20
111.5935716761762
 30
0.0
 10
99.44377199695461
 20
111.5935716761762
 30
0.0
  0
LINE
  5
220
330
1F
100
AcDbEntity
  8
0
  6
Continuous
 62
     7
370
    25
100
AcDbLine
 10
99.193771997
 20
111.5935716762
 30
0.0
 11
99.443771997
 21
111.5935716762
 31
0.0
  0
SPLINE
  5
221
330
1F
100
AcDbEntity
  8
0
  6
Continuous
 62
     7
370
    25
100
AcDbSpline
210
0.0
220
0.0
230
1.0
 70
     8
 71
     3
 72
    12
 73
     8
 74
     0
 42
0.00000001
 43
0.00000001
 40
0.0
 40
0.0
 40
0.0
 40
0.0
 40
0.4999999999999991
 40
0.4999999999999991
 40
0.7499999999999996
 40
0.7499999999999996
 40
1.0
 40
1.0
 40
1.0
 40
1.0
 10
98.56205848565189
 20
112.2350928537701
 30
0.0
 10
98.60758235855384
 20
112.084582122125
 30
0.0
 10
98.6699511314826
 20
111.9410238245352
 30
0.0
 10
98.8202646996396
 20
111.7568456434834
 30
0.0
 10
98.87950083256284
 20
111.701855769983
 30
0.0
 10
99.02348102130111
 20
111.619058132706
 30
0.0
 10
99.10696621983799
 20
111.5935716761762
 30
0.0
 10
99.19377199695461
 20
111.5935716761762
 30
0.0
  0
SPLINE
  5
222
330
1F
100
AcDbEntity
  8
0
  6
Continuous
 62
     7
370
    25
100
AcDbSpline
210
0.0
220
0.0
230
1.0
 70
     8
 71
     3
 72
    12
 73
     8
 74
     0
 42
0.00000001
 43
0.00000001
 40
0.0
 40
0.0
 40
0.0
 40
0.0
 40
0.2500000000000002
 40
0.2500000000000002
 40
0.5000000000000004
 40
0.5000000000000004
 40
1.0
 40
1.0
 40
1.0
 40
1.0
 10
99.19377199695461
 20
118.688645413893
 30
0.0
 10
99.10696621983799
 20
118.688645413893
 30
0.0
 10
99.02348102130111
 20
118.6631589573633
 30
0.0
 10
98.87950083256284
 20
118.5803613200863
 30
0.0
 10
98.8202646996396
 20
118.5253714465859
 30
0.0
 10
98.6699511314826
 20
118.3411932655341
 30
0.0
 10
98.60758235855376
 20
118.1976349679441
 30
0.0
 10
98.56205848565182
 20
118.0471242362989
 30
0.0
  0
LINE
  5
223
330
1F
100
AcDbEntity
  8
0
  6
Continuous
 62
     7
370
    25
100
AcDbLine
 10
99.443771997
 20
118.6886454139
 30
0.0
 11
99.193771997
 21
118.6886454139
 31
0.0
  0
SPLINE
  5
224
330
1F
100
AcDbEntity
  8
0
  6
Continuous
 62
     7
370
    25
100
AcDbSpline
210
0.0
220
0.0
230
1.0
 70
     8
 71
     3
 72
    14
 73
    10
 74
     0
 42
0.00000001
 43
0.00000001
 40
0.0
 40
0.0
 40
0.0
 40
0.0
 40
0.25
 40
0.25
 40
0.5
 40
0.5
 40
0.75
 40
0.75
 40
1.0
 40
1.0
 40
1.0
 40
1.0
 10
99.44377199695461
 20
118.688645413893
 30
0.0
 10
99.53557439156754
 20
118.688645413893
 30
0.0
 10
99.61973833048296
 20
118.7322617280149
 30
0.0
 10
99.74683401105433
 20
118.8420131402412
 30
0.0
 10
99.79495648030549
 20
118.9086642542406
 30
0.0
 10
99.87027426008424
 20
119.0459711165365
 30
0.0
 10
99.89765047317758
 20
119.1180381923554
 30
0.0
 10
99.9342123237997
 20
119.2609493804301
 30
0.0
 10
99.94377199695461
 20
119.3326873599644
 30
0.0
 10
99.94377199695461
 20
119.4047172391239
 30
0.0
  0
LINE
  5
225
330
1F
100
AcDbEntity
  8
0
  6
Continuous
 62
     7
370
    25
100
AcDbLine
 10
99.943771997
 20
121.6583499243
 30
0.0
 11
99.943771997
 21
119.4047172391
 31
0.0
  0
SPLINE
  5
226
330
1F
100
AcDbEntity
  8
0
  6
Continuous
 62
     7
370
    25
100
AcDbSpline
210
0.0
220
0.0
230
1.0
 70
    24
 71
     3
 72
    14
 73
    10
 74
     0
 42
0.00000001
 43
0.00000001
 40
0.0
 40
0.0
 40
0.0
 40
0.0
 40
0.25
 40
0.25
 40
0.5
 40
0.5
 40
0.75
 40
0.75
 40
1.0
 40
1.0
 40
1.0
 40
1.0
 10
99.94377199695462
 20
122.1411085450346
 30
0.0
 10
99.94377199695462
 20
122.1411085450346
 30
0.0
 10
99.94377199695462
 20
122.1311838551093
 30
0.0
 10
99.94377199695461
 20
122.0913891524465
 30
0.0
 10
99.94377199695461
 20
122.0615188072249
 30
0.0
 10
99.94377199695461
 20
121.9815492672929
 30
0.0
 10
99.94377199695461
 20
121.931449386857
 30
0.0
 10
99.94377199695461
 20
121.8105648378692
 30
0.0
 10
99.94377199695461
 20
121.7397790892806
 30
0.0
 10
99.94377199695461
 20
121.658349924345
 30
0.0
  0
LINE
  5
227
330
1F
100
AcDbEntity
  8
0
  6
Continuous
 62
     7
370
    25
100
AcDbLine
 10
98.193771997
 20
108.391108545
 30
0.0
 11
99.193771997
 21
108.391108545
 31
0.0
  0
SPLINE
  5
228
330
1F
100
AcDbEntity
  8
0
  6
Continuous
 62
     7
370
    25
100
AcDbSpline
210
0.0
220
0.0
230
1.0
 70
     8
 71
     3
 72
    10
 73
     6
 74
     0
 42
0.00000001
 43
0.00000001
 40
0.0
 40
0.0
 40
0.0
 40
0.0
 40
0.5
 40
0.5
 40
1.0
 40
1.0
 40
1.0
 40
1.0
 10
99.19377199695461
 20
111.4668739308599
 30
0.0
 10
99.04127711527975
 20
111.4668739308599
 30
0.0
 10
98.89344987911869
 20
111.5137322837621
 30
0.0
 10
98.6550995536733
 20
111.6606210398435
 30
0.0
 10
98.56069792395502
 20
111.7593374930492
 30
0.0
 10
98.48666521576806
 20
111.8691257818681
 30
0.0
  0
LINE
  5
229
330
1F
100
AcDbEntity
  8
0
  6
Continuous
 62
     7
370
    25
100
AcDbLine
 10
99.193771997
 20
108.391108545
 30
0.0
 11
99.193771997
 21
111.4668739309
 31
0.0
  0
LINE
  5
22A
330
1F
100
AcDbEntity
  8
0
  6
Continuous
 62
     7
370
    25
100
AcDbLine
 10
99.193771997
 20
108.391108545
 30
0.0
 11
99.193771997
 21
108.141108545
 31
0.0
  0
LINE
  5
22B
330
1F
100
AcDbEntity
  8
0
  6
Continuous
 62
     7
370
    25
100
AcDbLine
 10
99.193771997
 20
108.141108545
 30
0.0
 11
97.943771997
 21
108.141108545
 31
0.0
  0
LINE
  5
22C
330
1F
100
AcDbEntity
  8
0
  6
Continuous
 62
     7
370
    25
100
AcDbLine
 10
99.193771997
 20
118.6886454139
 30
0.0
 11
99.193771997
 21
118.8153431592
 31
0.0
  0
LINE
  5
22D
330
1F
100
AcDbEntity
  8
0
  6
Continuous
 62
     7
370
    25
100
AcDbLine
 10
99.193771997
 20
111.4668739309
 30
0.0
 11
99.193771997
 21
111.5935716762
 31
0.0
  0
LINE
  5
22E
330
1F
100
AcDbEntity
  8
0
  6
Continuous
 62
     7
370
    25
100
AcDbLine
 10
99.443771997
 20
118.6886454139
 30
0.0
 11
99.443771997
 21
118.8153431592
 31
0.0
  0
SPLINE
  5
22F
330
1F
100
AcDbEntity
  8
0
  6
Continuous
 62
     7
370
    25
100
AcDbSpline
210
0.0
220
0.0
230
1.0
 70
     8
 71
     3
 72
    16
 73
    12
 74
     0
 42
0.00000001
 43
0.00000001
 40
0.0
 40
0.0
 40
0.0
 40
0.0
 40
0.499999999999999
 40
0.499999999999999
 40
0.7499999999999998
 40
0.7499999999999998
 40
0.8749999999999996
 40
0.8749999999999996
 40
0.9374999999999998
 40
0.9374999999999998
 40
1.0
 40
1.0
 40
1.0
 40
1.0
 10
99.69377199695461
 20
119.5569889781985
 30
0.0
 10
99.69377199695461
 20
119.4227108192719
 30
0.0
 10
99.67941646079069
 20
119.2881306379656
 30
0.0
 10
99.63276630357959
 20
119.088430113941
 30
0.0
 10
99.61317671431898
 20
119.0221792843864
 30
0.0
 10
99.57032038737117
 20
118.9278481026144
 30
0.0
 10
99.55376345231616
 20
118.8969092698212
 30
0.0
 10
99.52112700440497
 20
118.8558483762357
 30
0.0
 10
99.50898762574315
 20
118.8430781905321
 30
0.0
 10
99.47953927972867
 20
118.8225501086142
 30
0.0
 10
99.46209394606429
 20
118.8153431592094
 30
0.0
 10
99.44377199695461
 20
118.8153431592094
 30
0.0
  0
LWPOLYLINE
  5
230
330
1F
100
AcDbEntity
  8
0
  6
Continuous
 62
     7
370
    25
100
AcDbPolyline
 90
        9
 70
   128
 43
0.0
 10
99.943771997
 20
119.4047172391
 10
99.8949994165
 20
119.4076430979
 10
99.8481011389
 20
119.4163082351
 10
99.8048794387
 20
119.4303796543
 10
99.7669953017
 20
119.4493165989
 10
99.7359045939
 20
119.4723913326
 10
99.7128021138
 20
119.4987171064
 10
99.6985756769
 20
119.5272822356
 10
99.693771997
 20
119.5569889782
  0
SPLINE
  5
231
330
1F
100
AcDbEntity
  8
0
  6
Continuous
 62
     7
370
    25
100
AcDbSpline
210
0.0
220
0.0
230
1.0
 70
     8
 71
     3
 72
    16
 73
    12
 74
     0
 42
0.00000001
 43
0.00000001
 40
0.0
 40
0.0
 40
0.0
 40
0.0
 40
0.0625000000000002
 40
0.0625000000000002
 40
0.1250000000000003
 40
0.1250000000000003
 40
0.2500000000000007
 40
0.2500000000000007
 40
0.5000000000000006
 40
0.5000000000000006
 40
1.0
 40
1.0
 40
1.0
 40
1.0
 10
99.44377199695461
 20
111.4668739308599
 30
0.0
 10
99.46217714250047
 20
111.4668739308599
 30
0.0
 10
99.47964758910865
 20
111.4596028842103
 30
0.0
 10
99.50898887934409
 20
111.4391265791057
 30
0.0
 10
99.52105522495945
 20
111.4264539708871
 30
0.0
 10
99.55381881391456
 20
111.3852482494185
 30
0.0
 10
99.5702962654672
 20
111.3544178965187
 30
0.0
 10
99.61318342234283
 20
111.2600314060091
 30
0.0
 10
99.63274198762991
 20
111.1938468334195
 30
0.0
 10
99.67931453018014
 20
110.9946110532219
 30
0.0
 10
99.69377199695461
 20
110.8594767085067
 30
0.0
 10
99.69377199695461
 20
110.7252281118707
 30
0.0
  0
LINE
  5
232
330
1F
100
AcDbEntity
  8
0
  6
Continuous
 62
     7
370
    25
100
AcDbLine
 10
99.443771997
 20
111.4668739309
 30
0.0
 11
99.443771997
 21
111.5935716762
 31
0.0
  0
LWPOLYLINE
  5
233
330
1F
100
AcDbEntity
  8
0
  6
Continuous
 62
     7
370
    25
100
AcDbPolyline
 90
        9
 70
   128
 43
0.0
 10
99.693771997
 20
110.7252281119
 10
99.6985756769
 20
110.7549348545
 10
99.7128021138
 20
110.7834999836
 10
99.7359045939
 20
110.8098257574
 10
99.7669953017
 20
110.8329004912
 10
99.8048794387
 20
110.8518374357
 10
99.8481011389
 20
110.865908855
 10
99.8949994165
 20
110.8745739922
 10
99.943771997
 20
110.8774998509
  0
LINE
  5
234
330
1F
100
AcDbEntity
  8
0
  6
Continuous
 62
     7
370
    25
100
AcDbLine
 10
99.193771997
 20
118.8153431592
 30
0.0
 11
99.443771997
 21
118.8153431592
 31
0.0
  0
LINE
  5
235
330
1F
100
AcDbEntity
  8
0
  6
Continuous
 62
     7
370
    25
100
AcDbLine
 10
99.443771997
 20
111.4668739309
 30
0.0
 11
99.193771997
 21
111.4668739309
 31
0.0
  0
LINE
  5
236
330
1F
100
AcDbEntity
  8
0
  6
Continuous
 62
     7
370
    25
100
AcDbLine
 10
99.443771997
 20
122.141108545
 30
0.0
 11
99.443771997
 21
121.891108545
 31
0.0
  0
LINE
  5
237
330
1F
100
AcDbEntity
  8
0
  6
Continuous
 62
     7
370
    25
100
AcDbLine
 10
99.443771997
 20
121.891108545
 30
0.0
 11
99.193771997
 21
121.891108545
 31
0.0
  0
LINE
  5
238
330
1F
100
AcDbEntity
  8
0
  6
Continuous
 62
     7
370
    25
100
AcDbLine
 10
99.193771997
 20
122.141108545
 30
0.0
 11
99.443771997
 21
122.141108545
 31
0.0
  0
LINE
  5
239
330
1F
100
AcDbEntity
  8
0
  6
Continuous
 62
     7
370
    25
100
AcDbLine
 10
99.693771997
 20
121.891108545
 30
0.0
 11
99.443771997
 21
121.891108545
 31
0.0
  0
ARC
  5
23A
330
1F
100
AcDbEntity
  8
0
  6
Continuous
 62
     7
370
    25
100
AcDbCircle
 10
99.443771997
 20
121.891108545
 30
0.0
 40
0.25
100
AcDbArc
 50
0.0
 51
90.0
  0
LINE
  5
23B
330
1F
100
AcDbEntity
  8
0
  6
Continuous
 62
     7
370
    25
100
AcDbLine
 10
99.693771997
 20
121.891108545
 30
0.0
 11
99.693771997
 21
119.5569889782
 31
0.0
  0
LINE
  5
23C
330
1F
100
AcDbEntity
  8
0
  6
Continuous
 62
     7
370
    25
100
AcDbLine
 10
99.443771997
 20
118.8153431592
 30
0.0
 11
99.443771997
 21
121.891108545
 31
0.0
  0
LINE
  5
23D
330
1F
100
AcDbEntity
  8
0
  6
Continuous
 62
     7
370
    25
100
AcDbLine
 10
99.193771997
 20
108.391108545
 30
0.0
 11
99.443771997
 21
108.391108545
 31
0.0
  0
LINE
  5
23E
330
1F
100
AcDbEntity
  8
0
  6
Continuous
 62
     7
370
    25
100
AcDbLine
 10
99.443771997
 20
108.391108545
 30
0.0
 11
99.443771997
 21
111.4668739309
 31
0.0
  0
LINE
  5
23F
330
1F
100
AcDbEntity
  8
0
  6
Continuous
 62
     7
370
    25
100
AcDbLine
 10
99.693771997
 20
110.7252281119
 30
0.0
 11
99.693771997
 21
108.391108545
 31
0.0
  0
LINE
  5
240
330
1F
100
AcDbEntity
  8
0
  6
Continuous
 62
     7
370
    25
100
AcDbLine
 10
99.443771997
 20
108.391108545
 30
0.0
 11
99.693771997
 21
108.391108545
 31
0.0
  0
ARC
  5
241
330
1F
100
AcDbEntity
  8
0
  6
Continuous
 62
     7
370
    25
100
AcDbCircle
 10
99.443771997
 20
108.391108545
 30
0.0
 40
0.25
100
AcDbArc
 50
270.0
 51
0.0
  0
LINE
  5
242
330
1F
100
AcDbEntity
  8
0
  6
Continuous
 62
     7
370
    25
100
AcDbLine
 10
99.443771997
 20
108.391108545
 30
0.0
 11
99.443771997
 21
108.141108545
 31
0.0
  0
LINE
  5
243
330
1F
100
AcDbEntity
  8
0
  6
Continuous
 62
     7
370
    25
100
AcDbLine
 10
99.443771997
 20
108.141108545
 30
0.0
 11
99.193771997
 21
108.141108545
 31
0.0
  0
SPLINE
  5
244
330
1F
100
AcDbEntity
  8
0
  6
Continuous
 62
     7
370
    25
100
AcDbSpline
210
0.0
220
0.0
230
1.0
 70
     8
 71
     3
 72
     8
 73
     4
 74
     0
 42
0.00000001
 43
0.00000001
 40
0.0
 40
0.0
 40
0.0
 40
0.0
 40
1.0
 40
1.0
 40
1.0
 40
1.0
 10
99.94377199695461
 20
121.658349924345
 30
0.0
 10
99.87831931651844
 20
121.6599198270418
 30
0.0
 10
99.8132697515102
 20
121.6865751614457
 30
0.0
 10
99.76698929102788
 20
121.7312767250672
 30
0.0
  0
SPLINE
  5
245
330
1F
100
AcDbEntity
  8
0
  6
Continuous
 62
     7
370
    25
100
AcDbSpline
210
0.0
220
0.0
230
1.0
 70
     8
 71
     3
 72
    14
 73
    10
 74
     0
 42
0.00000001
 43
0.00000001
 40
0.0
 40
0.0
 40
0.0
 40
0.0
 40
0.245589323567575
 40
0.455618196314265
 40
0.6303106213393797
 40
0.77011643036692
 40
0.8759901151610914
 40
0.9502659312389357
 40
1.0
 40
1.0
 40
1.0
 40
1.0
 10
99.76698929102788
 20
121.7312767250672
 30
0.0
 10
99.75602425171257
 20
121.7431676656064
 30
0.0
 10
99.73568187134043
 20
121.7652277812589
 30
0.0
 10
99.71552985886396
 20
121.8007914795791
 30
0.0
 10
99.70341029939311
 20
121.8315837881823
 30
0.0
 10
99.6972044761607
 20
121.8568233707552
 30
0.0
 10
99.69458477718688
 20
121.87480566369
 30
0.0
 10
99.69380458284182
 20
121.8877278271059
 30
0.0
 10
99.69378132463895
 20
121.8901408172119
 30
0.0
 10
99.69377199695461
 20
121.8911085450346
 30
0.0
  0
SPLINE
  5
246
330
1F
100
AcDbEntity
  8
0
  6
Continuous
 62
     7
370
    25
100
AcDbSpline
210
0.0
220
0.0
230
1.0
 70
     8
 71
     3
 72
    15
 73
    11
 74
     0
 42
0.00000001
 43
0.00000001
 40
0.0
 40
0.0
 40
0.0
 40
0.0
 40
0.0425877399909041
 40
0.1028282325346875
 40
0.1864706729280299
 40
0.2956205441869006
 40
0.4311891005861807
 40
0.5936297641565581
 40
0.7831876993469636
 40
1.0
 40
1.0
 40
1.0
 40
1.0
 10
99.69377199695461
 20
108.3911085450346
 30
0.0
 10
99.69377779005676
 20
108.3918240466315
 30
0.0
 10
99.69379177752015
 20
108.3935516274937
 30
0.0
 10
99.69428347835188
 20
108.4034258065886
 30
0.0
 10
99.69591083231047
 20
108.417319486411
 30
0.0
 10
99.69973598069456
 20
108.4368167442326
 30
0.0
 10
99.70710829073536
 20
108.4610215970819
 30
0.0
 10
99.71972627971218
 20
108.489390253746
 30
0.0
 10
99.73897048191637
 20
108.5209294244896
 30
0.0
 10
99.75724122828662
 20
108.5404992170619
 30
0.0
 10
99.76698929102788
 20
108.5509403650021
 30
0.0
  0
SPLINE
  5
247
330
1F
100
AcDbEntity
  8
0
  6
Continuous
 62
     7
370
    25
100
AcDbSpline
210
0.0
220
0.0
230
1.0
 70
     8
 71
     3
 72
     8
 73
     4
 74
     0
 42
0.00000001
 43
0.00000001
 40
0.0
 40
0.0
 40
0.0
 40
0.0
 40
1.0
 40
1.0
 40
1.0
 40
1.0
 10
99.76698929102788
 20
108.5509403650021
 30
0.0
 10
99.8132697515102
 20
108.5956419286236
 30
0.0
 10
99.87831931651844
 20
108.6222972630275
 30
0.0
 10
99.94377199695461
 20
108.6238671657243
 30
0.0
  0
SPLINE
  5
248
330
1F
100
AcDbEntity
  8
0
  6
Continuous
 62
     7
370
    25
100
AcDbSpline
210
0.0
220
0.0
230
1.0
 70
     8
 71
     3
 72
    10
 73
     6
 74
     0
 42
0.00000001
 43
0.00000001
 40
0.0
 40
0.0
 40
0.0
 40
0.0
 40
0.5
 40
0.5
 40
1.0
 40
1.0
 40
1.0
 40
1.0
 10
93.19377199695462
 20
111.2681251988272
 30
0.0
 10
92.86675530794675
 20
111.2830507045502
 30
0.0
 10
92.53624848301227
 20
111.2926791866658
 30
0.0
 10
91.86599421526937
 20
111.2929420452518
 30
0.0
 10
91.52538383887853
 20
111.2832604338498
 30
0.0
 10
91.19377199695458
 20
111.2681251988272
 30
0.0
  0
LINE
  5
249
330
1F
100
AcDbEntity
  8
0
  6
Continuous
 62
     7
370
    25
100
AcDbLine
 10
90.693771997
 20
111.4330093015
 30
0.0
 11
90.693771997
 21
118.8492077886
 31
0.0
  0
SPLINE
  5
24A
330
1F
100
AcDbEntity
  8
0
  6
Continuous
 62
     7
370
    25
100
AcDbSpline
210
0.0
220
0.0
230
1.0
 70
     8
 71
     3
 72
    10
 73
     6
 74
     0
 42
0.00000001
 43
0.00000001
 40
0.0
 40
0.0
 40
0.0
 40
0.0
 40
0.5
 40
0.5
 40
1.0
 40
1.0
 40
1.0
 40
1.0
 10
91.19377199695458
 20
119.014091891242
 30
0.0
 10
91.52078868596244
 20
118.9991663855191
 30
0.0
 10
91.85129551089693
 20
118.9895379034035
 30
0.0
 10
92.52154977863984
 20
118.9892750448174
 30
0.0
 10
92.86216015503068
 20
118.9989566562195
 30
0.0
 10
93.19377199695462
 20
119.014091891242
 30
0.0
  0
SPLINE
  5
24B
330
1F
100
AcDbEntity
  8
0
  6
Continuous
 62
     7
370
    25
100
AcDbSpline
210
0.0
220
0.0
230
1.0
 70
     8
 71
     3
 72
    12
 73
     8
 74
     0
 42
0.00000001
 43
0.00000001
 40
0.0
 40
0.0
 40
0.0
 40
0.0
 40
0.25
 40
0.25
 40
0.5
 40
0.5
 40
1.0
 40
1.0
 40
1.0
 40
1.0
 10
99.69549175460891
 20
122.1399990057526
 30
0.0
 10
99.70573385305799
 20
122.1400076131378
 30
0.0
 10
99.72041656752138
 20
122.131416477953
 30
0.0
 10
99.75223895817925
 20
122.0951068784427
 30
0.0
 10
99.76937863437371
 20
122.0673884141172
 30
0.0
 10
99.81484670010727
 20
121.952650261429
 30
0.0
 10
99.80801384904312
 20
121.8510394187981
 30
0.0
 10
99.76698929102788
 20
121.7312767250672
 30
0.0
  0
SPLINE
  5
24C
330
1F
100
AcDbEntity
  8
0
  6
Continuous
 62
     7
370
    25
100
AcDbSpline
210
0.0
220
0.0
230
1.0
 70
     8
 71
     3
 72
    12
 73
     8
 74
     0
 42
0.00000001
 43
0.00000001
 40
0.0
 40
0.0
 40
0.0
 40
0.0
 40
0.25
 40
0.25
 40
0.5
 40
0.5
 40
1.0
 40
1.0
 40
1.0
 40
1.0
 10
99.69549175460891
 20
122.1399990057526
 30
0.0
 10
99.68524965615985
 20
122.1399903983674
 30
0.0
 10
99.67771044460652
 20
122.1313805880372
 30
0.0
 10
99.66338092898216
 20
122.109899477767
 30
0.0
 10
99.65659062491116
 20
122.0970281778269
 30
0.0
 10
99.63035777445789
 20
122.0714334180116
 30
0.0
 10
99.62067505776957
 20
122.0677588748129
 30
0.0
 10
99.62054869224973
 20
122.0678852403328
 30
0.0
  0
SPLINE
  5
24D
330
1F
100
AcDbEntity
  8
0
  6
Continuous
 62
     7
370
    25
100
AcDbSpline
210
0.0
220
0.0
230
1.0
 70
     8
 71
     3
 72
    10
 73
     6
 74
     0
 42
0.00000001
 43
0.00000001
 40
0.0
 40
0.0
 40
0.0
 40
0.0
 40
0.5
 40
0.5
 40
1.0
 40
1.0
 40
1.0
 40
1.0
 10
99.69549175460891
 20
122.1399990057526
 30
0.0
 10
99.65452336081265
 20
122.1399645762118
 30
0.0
 10
99.61055885106815
 20
122.1402727865487
 30
0.0
 10
99.51951221132433
 20
122.1452275199292
 30
0.0
 10
99.48656377074347
 20
122.1411085450346
 30
0.0
 10
99.44377199695461
 20
122.1411085450346
 30
0.0
  0
SPLINE
  5
24E
330
1F
100
AcDbEntity
  8
0
  6
Continuous
 62
     7
370
    25
100
AcDbSpline
210
0.0
220
0.0
230
1.0
 70
     8
 71
     3
 72
    14
 73
    10
 74
     0
 42
0.00000001
 43
0.00000001
 40
0.0
 40
0.0
 40
0.0
 40
0.0
 40
0.25
 40
0.25
 40
0.5
 40
0.5
 40
0.75
 40
0.75
 40
1.0
 40
1.0
 40
1.0
 40
1.0
 10
99.69549175460891
 20
108.1422180843167
 30
0.0
 10
99.70573385305799
 20
108.1422094769315
 30
0.0
 10
99.7204165675214
 20
108.1508006121163
 30
0.0
 10
99.75223895817925
 20
108.1871102116266
 30
0.0
 10
99.76937863437371
 20
108.214828675952
 30
0.0
 10
99.79969067819609
 20
108.2913207777442
 30
0.0
 10
99.80556047638562
 20
108.3358465138499
 30
0.0
 10
99.79946592230534
 20
108.4357156340462
 30
0.0
 10
99.7875015700355
 20
108.4910590181366
 30
0.0
 10
99.76698929102788
 20
108.5509403650021
 30
0.0
  0
SPLINE
  5
24F
330
1F
100
AcDbEntity
  8
0
  6
Continuous
 62
     7
370
    25
100
AcDbSpline
210
0.0
220
0.0
230
1.0
 70
     8
 71
     3
 72
    12
 73
     8
 74
     0
 42
0.00000001
 43
0.00000001
 40
0.0
 40
0.0
 40
0.0
 40
0.0
 40
0.25
 40
0.25
 40
0.5
 40
0.5
 40
1.0
 40
1.0
 40
1.0
 40
1.0
 10
99.69549175460891
 20
108.1422180843167
 30
0.0
 10
99.68524965615985
 20
108.1422266917019
 30
0.0
 10
99.67771044460652
 20
108.150836502032
 30
0.0
 10
99.66338092898216
 20
108.1723176123023
 30
0.0
 10
99.65659062491116
 20
108.1851889122424
 30
0.0
 10
99.63035777445789
 20
108.2107836720576
 30
0.0
 10
99.62067505776957
 20
108.2144582152563
 30
0.0
 10
99.62054869224973
 20
108.2143318497365
 30
0.0
  0
SPLINE
  5
250
330
1F
100
AcDbEntity
  8
0
  6
Continuous
 62
     7
370
    25
100
AcDbSpline
210
0.0
220
0.0
230
1.0
 70
     8
 71
     3
 72
    10
 73
     6
 74
     0
 42
0.00000001
 43
0.00000001
 40
0.0
 40
0.0
 40
0.0
 40
0.0
 40
0.5
 40
0.5
 40
1.0
 40
1.0
 40
1.0
 40
1.0
 10
99.69549175460891
 20
108.1422180843167
 30
0.0
 10
99.65452336081265
 20
108.1422525138575
 30
0.0
 10
99.61055885106815
 20
108.1419443035205
 30
0.0
 10
99.51951221132433
 20
108.1369895701401
 30
0.0
 10
99.48656377074347
 20
108.1411085450346
 30
0.0
 10
99.44377199695461
 20
108.1411085450346
 30
0.0
  0
SPLINE
  5
251
330
1F
100
AcDbEntity
  8
0
  6
Continuous
 62
     7
370
    25
100
AcDbSpline
210
0.0
220
0.0
230
1.0
 70
     8
 71
     3
 72
    10
 73
     6
 74
     0
 42
0.00000001
 43
0.00000001
 40
0.0
 40
0.0
 40
0.0
 40
0.0
 40
0.5
 40
0.5
 40
1.0
 40
1.0
 40
1.0
 40
1.0
 10
99.69549175460891
 20
122.1399990057526
 30
0.0
 10
99.73646014840519
 20
122.1400334352934
 30
0.0
 10
99.7799155954771
 20
122.1404151127276
 30
0.0
 10
99.86900144069436
 20
122.1367230986014
 30
0.0
 10
99.90138866930967
 20
122.1411085450346
 30
0.0
 10
99.94377199695462
 20
122.1411085450346
 30
0.0
  0
SPLINE
  5
252
330
1F
100
AcDbEntity
  8
0
  6
Continuous
 62
     7
370
    25
100
AcDbSpline
210
0.0
220
0.0
230
1.0
 70
     8
 71
     3
 72
    10
 73
     6
 74
     0
 42
0.00000001
 43
0.00000001
 40
0.0
 40
0.0
 40
0.0
 40
0.0
 40
0.5
 40
0.5
 40
1.0
 40
1.0
 40
1.0
 40
1.0
 10
99.69549175460891
 20
108.1422180843167
 30
0.0
 10
99.73646014840519
 20
108.1421836547759
 30
0.0
 10
99.7799155954771
 20
108.1418019773417
 30
0.0
 10
99.86900144069436
 20
108.1454939914679
 30
0.0
 10
99.90138866930967
 20
108.1411085450346
 30
0.0
 10
99.94377199695462
 20
108.1411085450346
 30
0.0
  0
SPLINE
  5
253
330
1F
100
AcDbEntity
  8
0
  6
Continuous
 62
     7
370
    25
100
AcDbSpline
210
0.0
220
0.0
230
1.0
 70
     8
 71
     3
 72
    18
 73
    14
 74
     0
 42
0.00000001
 43
0.00000001
 40
0.0
 40
0.0
 40
0.0
 40
0.0
 40
0.2500000000000001
 40
0.2500000000000001
 40
0.3750000000000001
 40
0.3750000000000001
 40
0.5000000000000001
 40
0.5000000000000001
 40
0.625
 40
0.625
 40
0.7500000000000001
 40
0.7500000000000001
 40
1.0
 40
1.0
 40
1.0
 40
1.0
 10
90.56667627868045
 20
111.4869931221759
 30
0.0
 10
90.28262117723989
 20
112.041404353452
 30
0.0
 10
90.01391669696156
 20
112.612454194837
 30
0.0
 10
89.65204980757736
 20
113.5213515073186
 30
0.0
 10
89.53625919470532
 20
113.8360568285495
 30
0.0
 10
89.35225070019423
 20
114.4758585682003
 30
0.0
 10
89.28544612147022
 20
114.8011550902585
 30
0.0
 10
89.28505553817442
 20
115.4779730400225
 30
0.0
 10
89.35176628084577
 20
115.8042403227351
 30
0.0
 10
89.53550148840094
 20
116.4439566413153
 30
0.0
 10
89.6513456596323
 20
116.7590042112334
 30
0.0
 10
90.01355333289298
 20
117.6690350995178
 30
0.0
 10
90.28246275957459
 20
118.2405035412097
 30
0.0
 10
90.56667627868045
 20
118.7952239678933
 30
0.0
  0
SPLINE
  5
254
330
1F
100
AcDbEntity
  8
0
  6
Continuous
 62
     7
370
    25
100
AcDbSpline
210
0.0
220
0.0
230
1.0
 70
     8
 71
     3
 72
    11
 73
     7
 74
     0
 42
0.00000001
 43
0.00000001
 40
0.0
 40
0.0
 40
0.0
 40
0.0
 40
0.2730152397279397
 40
0.546080721931536
 40
0.822974424145863
 40
0.9999999999999999
 40
0.9999999999999999
 40
0.9999999999999999
 40
0.9999999999999999
 10
120.8503219211957
 20
105.1294806380579
 30
0.0
 10
120.8475466209549
 20
105.0895373583392
 30
0.0
 10
120.8419955097401
 20
105.0096434482161
 30
0.0
 10
120.8138452920127
 20
104.9354456254467
 30
0.0
 10
120.7930009436065
 20
104.8945289085387
 30
0.0
 10
120.7927886661195
 20
104.89511855147
 30
0.0
 10
120.7927058792757
 20
104.8953485083908
 30
0.0
  0
SPLINE
  5
255
330
1F
100
AcDbEntity
  8
0
  6
Continuous
 62
     7
370
    25
100
AcDbSpline
210
0.0
220
0.0
230
1.0
 70
     8
 71
     3
 72
    10
 73
     6
 74
     0
 42
0.00000001
 43
0.00000001
 40
0.0
 40
0.0
 40
0.0
 40
0.0
 40
0.0998576094651713
 40
0.5478179948556599
 40
1.0
 40
1.0
 40
1.0
 40
1.0
 10
120.7927058792771
 20
125.3868685816765
 30
0.0
 10
120.7920009235601
 20
125.3878919893121
 30
0.0
 10
120.7881335425022
 20
125.3935063948828
 30
0.0
 10
120.8292370900869
 20
125.3368747717625
 30
0.0
 10
120.84327170363
 20
125.2143075032436
 30
0.0
 10
120.8503219211957
 20
125.1527364520114
 30
0.0
  0
LINE
  5
256
330
1F
100
AcDbEntity
  8
0
  6
Continuous
 62
     7
370
    25
100
AcDbLine
 10
103.193771997
 20
108.141108545
 30
0.0
 11
103.193771997
 21
122.141108545
 31
0.0
  0
SPLINE
  5
257
330
1F
100
AcDbEntity
  8
0
  6
Continuous
 62
     7
370
    25
100
AcDbSpline
210
0.0
220
0.0
230
1.0
 70
     8
 71
     3
 72
    10
 73
     6
 74
     0
 42
0.00000001
 43
0.00000001
 40
0.0
 40
0.0
 40
0.0
 40
0.0
 40
0.3861542501539379
 40
0.7692177900157684
 40
1.0
 40
1.0
 40
1.0
 40
1.0
 10
94.76286839628843
 20
121.7312767250672
 30
0.0
 10
94.52608456124504
 20
121.7943048032351
 30
0.0
 10
94.05441206707745
 20
121.9198564939854
 30
0.0
 10
93.43113158490317
 20
122.0511776834147
 30
0.0
 10
93.04398972874185
 20
122.0899274397907
 30
0.0
 10
92.89843939599994
 20
122.104495846292
 30
0.0
  0
SPLINE
  5
258
330
1F
100
AcDbEntity
  8
0
  6
Continuous
 62
     7
370
    25
100
AcDbSpline
210
0.0
220
0.0
230
1.0
 70
     8
 71
     3
 72
     9
 73
     5
 74
     0
 42
0.00000001
 43
0.00000001
 40
0.0
 40
0.0
 40
0.0
 40
0.0
 40
0.2605081177402453
 40
0.9999999999999999
 40
0.9999999999999999
 40
0.9999999999999999
 40
0.9999999999999999
 10
92.87449140179724
 20
122.1072213681932
 30
0.0
 10
92.8388943901131
 20
122.1116365559049
 30
0.0
 10
92.70224985099881
 20
122.1285849249229
 30
0.0
 10
92.56422480958044
 20
122.1296043443616
 30
0.0
 10
92.46215641190297
 20
122.130358196761
 30
0.0
  0
SPLINE
  5
259
330
1F
100
AcDbEntity
  8
0
  6
Continuous
 62
     7
370
    25
100
AcDbSpline
210
0.0
220
0.0
230
1.0
 70
     8
 71
     3
 72
    10
 73
     6
 74
     0
 42
0.00000001
 43
0.00000001
 40
0.0
 40
0.0
 40
0.0
 40
0.0
 40
0.4326501492478546
 40
0.8618374432542324
 40
1.0
 40
1.0
 40
1.0
 40
1.0
 10
89.62467559762078
 20
121.7312767250672
 30
0.0
 10
89.86149439912201
 20
121.7939826623281
 30
0.0
 10
90.33323654633999
 20
121.9188926496231
 30
0.0
 10
90.88913237800548
 20
122.0398060596449
 30
0.0
 10
91.20833631278738
 20
122.073245240935
 30
0.0
 10
91.28606971078565
 20
122.0813884400147
 30
0.0
  0
LINE
  5
25A
330
1F
100
AcDbEntity
  8
0
  6
Continuous
 62
     7
370
    25
100
AcDbLine
 10
91.7964834469
 20
122.1257277485
 30
0.0
 11
91.925387582
 21
122.1303581968
 31
0.0
  0
SPLINE
  5
25B
330
1F
100
AcDbEntity
  8
0
  6
Continuous
 62
     7
370
    25
100
AcDbSpline
210
0.0
220
0.0
230
1.0
 70
     8
 71
     3
 72
    10
 73
     6
 74
     0
 42
0.00000001
 43
0.00000001
 40
0.0
 40
0.0
 40
0.0
 40
0.0
 40
0.4326501492475562
 40
0.8618374432536398
 40
1.0
 40
1.0
 40
1.0
 40
1.0
 10
94.76286839628843
 20
108.5509403650021
 30
0.0
 10
94.5260495947872
 20
108.4882344277412
 30
0.0
 10
94.05430744756922
 20
108.3633244404461
 30
0.0
 10
93.49841161590334
 20
108.2424110304243
 30
0.0
 10
93.17920768112106
 20
108.2089718491342
 30
0.0
 10
93.1014742831224
 20
108.2008286500545
 30
0.0
  0
SPLINE
  5
25C
330
1F
100
AcDbEntity
  8
0
  6
Continuous
 62
     7
370
    25
100
AcDbSpline
210
0.0
220
0.0
230
1.0
 70
     8
 71
     3
 72
    11
 73
     7
 74
     0
 42
0.00000001
 43
0.00000001
 40
0.0
 40
0.0
 40
0.0
 40
0.0
 40
0.3139856888776112
 40
0.6254582918580656
 40
0.8694178120865053
 40
1.0
 40
1.0
 40
1.0
 40
1.0
 10
89.62467559762078
 20
108.5509403650021
 30
0.0
 10
89.86141056084439
 20
108.4873604462998
 30
0.0
 10
90.33298570253385
 20
108.3607094913149
 30
0.0
 10
91.00010210059348
 20
108.2278976986423
 30
0.0
 10
91.53116432791431
 20
108.1614316298258
 30
0.0
 10
91.8234748919757
 20
108.1543335908795
 30
0.0
 10
91.92538758200622
 20
108.1518588933082
 30
0.0
  0
SPLINE
  5
25D
330
1F
100
AcDbEntity
  8
0
  6
Continuous
 62
     7
370
    25
100
AcDbSpline
210
0.0
220
0.0
230
1.0
 70
     8
 71
     3
 72
    10
 73
     6
 74
     0
 42
0.00000001
 43
0.00000001
 40
0.0
 40
0.0
 40
0.0
 40
0.0
 40
0.6488064347635762
 40
0.9044325560718984
 40
1.0
 40
1.0
 40
1.0
 40
1.0
 10
89.56138663395762
 20
122.0678852403328
 30
0.0
 10
90.0532842183948
 20
122.0696059719534
 30
0.0
 10
90.73898671112704
 20
122.0720046622478
 30
0.0
 10
91.4951880299301
 20
122.1224671520195
 30
0.0
 10
91.76113550330658
 20
122.1285987831307
 30
0.0
 10
91.83350562270957
 20
122.130267333954
 30
0.0
  0
LINE
  5
25E
330
1F
100
AcDbEntity
  8
0
  6
Continuous
 62
     7
370
    25
100
AcDbLine
 10
91.8944827598
 20
122.1319144749
 30
0.0
 11
91.9379779542
 21
122.133089386
 31
0.0
  0
SPLINE
  5
25F
330
1F
100
AcDbEntity
  8
0
  6
Continuous
 62
     7
370
    25
100
AcDbSpline
210
0.0
220
0.0
230
1.0
 70
     8
 71
     3
 72
    10
 73
     6
 74
     0
 42
0.00000001
 43
0.00000001
 40
0.0
 40
0.0
 40
0.0
 40
0.0
 40
0.6202783382451331
 40
0.8646645484326967
 40
1.0
 40
1.0
 40
1.0
 40
1.0
 10
94.82615735995158
 20
122.0678852403328
 30
0.0
 10
94.33426707846125
 20
122.0698320307395
 30
0.0
 10
93.64857476599622
 20
122.0725458457224
 30
0.0
 10
92.85755646144112
 20
122.1241695617611
 30
0.0
 10
92.55676884604983
 20
122.1307456294966
 30
0.0
 10
92.44956603974506
 20
122.1330893859534
 30
0.0
  0
SPLINE
  5
260
330
1F
100
AcDbEntity
  8
0
  6
Continuous
 62
     7
370
    25
100
AcDbSpline
210
0.0
220
0.0
230
1.0
 70
     8
 71
     3
 72
    10
 73
     6
 74
     0
 42
0.00000001
 43
0.00000001
 40
0.0
 40
0.0
 40
0.0
 40
0.0
 40
0.6202783382441904
 40
0.8646645484313825
 40
1.0
 40
1.0
 40
1.0
 40
1.0
 10
89.56138663395762
 20
108.2143318497365
 30
0.0
 10
90.05327691544795
 20
108.2123850593298
 30
0.0
 10
90.738969227913
 20
108.2096712443469
 30
0.0
 10
91.52998753246929
 20
108.1580475283081
 30
0.0
 10
91.83077514786179
 20
108.1514714605726
 30
0.0
 10
91.93797795416775
 20
108.1491277041158
 30
0.0
  0
SPLINE
  5
261
330
1F
100
AcDbEntity
  8
0
  6
Continuous
 62
     7
370
    25
100
AcDbSpline
210
0.0
220
0.0
230
1.0
 70
     8
 71
     3
 72
    10
 73
     6
 74
     0
 42
0.00000001
 43
0.00000001
 40
0.0
 40
0.0
 40
0.0
 40
0.0
 40
0.6202783382435989
 40
0.864664548430558
 40
1.0
 40
1.0
 40
1.0
 40
1.0
 10
94.82615735995158
 20
108.2143318497365
 30
0.0
 10
94.33426707846125
 20
108.2123850593298
 30
0.0
 10
93.64857476599622
 20
108.2096712443469
 30
0.0
 10
92.85755646143916
 20
108.1580475283081
 30
0.0
 10
92.55676884604591
 20
108.1514714605726
 30
0.0
 10
92.4495660397392
 20
108.1491277041157
 30
0.0
  0
LINE
  5
262
330
1F
100
AcDbEntity
  8
0
  6
Continuous
 62
     7
370
    25
100
AcDbLine
 10
92.193771997
 20
122.141108545
 30
0.0
 11
92.193771997
 21
122.1416661468
 31
0.0
  0
LINE
  5
263
330
1F
100
AcDbEntity
  8
0
  6
Continuous
 62
     7
370
    25
100
AcDbLine
 10
92.193771997
 20
108.141108545
 30
0.0
 11
92.193771997
 21
108.1405509434
 31
0.0
  0
INSERT
  5
26F
330
1F
100
AcDbEntity
  8
FORMAT
100
AcDbBlockReference
  2
SW_CENTERMARKSYMBOL_1
 10
92.193771997
 20
115.141108545
 30
0.0
  0
LINE
  5
270
330
1F
100
AcDbEntity
  8
FORMAT
100
AcDbLine
 10
112.049771997
 20
107.666108545
 30
0.0
 11
104.2502312429
 21
107.666108545
 31
0.0
  0
LINE
  5
271
330
1F
100
AcDbEntity
  8
FORMAT
100
AcDbLine
 10
112.049771997
 20
122.616108545
 30
0.0
 11
104.2502312429
 21
122.616108545
 31
0.0
  0
LINE
  5
272
330
1F
100
AcDbEntity
  8
FORMAT
100
AcDbLine
 10
104.2502312429
 20
123.472108545
 30
0.0
 11
104.2502312429
 21
106.810108545
 31
0.0
  0
ARC
  5
273
330
1F
100
AcDbEntity
  8
FORMAT
100
AcDbCircle
 10
92.193771997
 20
115.141108545
 30
0.0
 40
5.722500000000001
100
AcDbArc
 50
75.0
 51
345.0
  0
ENDSEC
  0
SECTION
  2
OBJECTS
  0
DICTIONARY
  5
C
330
0
100
AcDbDictionary
281
     1
  3
ACAD_GROUP
350
D
  3
ACAD_LAYOUT
350
1A
  3
ACAD_MLINESTYLE
350
17
  3
ACAD_PLOTSETTINGS
350
19
  3
ACAD_PLOTSTYLENAME
350
E
  3
ACAD_SCALELIST
350
47
  3
DWGPROPS
350
274
  0
DICTIONARY
  5
D
102
{ACAD_REACTORS
330
C
102
}
330
C
100
AcDbDictionary
281
     1
  0
DICTIONARY
  5
1A
102
{ACAD_REACTORS
330
C
102
}
330
C
100
AcDbDictionary
281
     1
  3
Layout1
350
1E
  3
Layout2
350
26
  3
Model
350
22
  0
DICTIONARY
  5
17
102
{ACAD_REACTORS
330
C
102
}
330
C
100
AcDbDictionary
281
     1
  3
Standard
350
18
  0
DICTIONARY
  5
19
102
{ACAD_REACTORS
330
C
102
}
330
C
100
AcDbDictionary
281
     1
  0
ACDBDICTIONARYWDFLT
  5
E
102
{ACAD_REACTORS
330
C
102
}
330
C
100
AcDbDictionary
281
     1
  3
Normal
350
F
100
AcDbDictionaryWithDefault
340
F
  0
DICTIONARY
  5
47
102
{ACAD_REACTORS
330
C
102
}
330
C
100
AcDbDictionary
281
     1
  3
A0
350
48
  3
A1
350
49
  3
A2
350
4A
  3
A3
350
4B
  3
A4
350
4C
  3
A5
350
4D
  3
A6
350
4E
  3
A7
350
4F
  3
A8
350
50
  3
A9
350
51
  3
B0
350
52
  3
B1
350
53
  3
B2
350
54
  3
B3
350
55
  3
B4
350
56
  3
B5
350
57
  3
B6
350
58
  0
XRECORD
  5
274
102
{ACAD_REACTORS
330
C
102
}
330
C
100
AcDbXrecord
280
     1
  1
DWGPROPS COOKIE
  2

  3

  4

  6

  7

  8
user28
  9

300
=
301
=
302
=
303
=
304
=
305
=
306
=
307
=
308
=
309
=
 40
0.0
 41
2460376.168561319
 42
2460376.168562118
  1

 90
        0
  0
LAYOUT
  5
1E
102
{ACAD_REACTORS
330
1A
102
}
330
1A
100
AcDbPlotSettings
  1

  2
none_device
  4

  6

 40
0.0
 41
0.0
 42
0.0
 43
0.0
 44
0.0
 45
0.0
 46
0.0
 47
0.0
 48
0.0
 49
0.0
140
0.0
141
0.0
142
1.0
143
1.0
 70
   688
 72
     1
 73
     0
 74
     5
  7

 75
    16
147
1.0
148
0.0
149
0.0
100
AcDbLayout
  1
Layout1
 70
     1
 71
     1
 10
0.0
 20
0.0
 11
420.0
 21
297.0
 12
0.0
 22
0.0
 32
0.0
 14
1.0000000000E+20
 24
1.0000000000E+20
 34
1.0000000000E+20
 15
-1.0000000000E+20
 25
-1.0000000000E+20
 35
-1.0000000000E+20
146
0.0
 13
0.0
 23
0.0
 33
0.0
 16
1.0
 26
0.0
 36
0.0
 17
0.0
 27
1.0
 37
0.0
 76
     0
330
1B
  0
LAYOUT
  5
26
102
{ACAD_REACTORS
330
1A
102
}
330
1A
100
AcDbPlotSettings
  1

  2
none_device
  4

  6

 40
0.0
 41
0.0
 42
0.0
 43
0.0
 44
0.0
 45
0.0
 46
0.0
 47
0.0
 48
0.0
 49
0.0
140
0.0
141
0.0
142
1.0
143
1.0
 70
   688
 72
     1
 73
     0
 74
     5
  7

 75
    16
147
1.0
148
0.0
149
0.0
100
AcDbLayout
  1
Layout2
 70
     1
 71
     2
 10
0.0
 20
0.0
 11
0.0
 21
0.0
 12
0.0
 22
0.0
 32
0.0
 14
0.0
 24
0.0
 34
0.0
 15
0.0
 25
0.0
 35
0.0
146
0.0
 13
0.0
 23
0.0
 33
0.0
 16
1.0
 26
0.0
 36
0.0
 17
0.0
 27
1.0
 37
0.0
 76
     0
330
23
  0
LAYOUT
  5
22
102
{ACAD_REACTORS
330
1A
102
}
330
1A
100
AcDbPlotSettings
  1

  2
none_device
  4
Letter_(8.50_x_11.00_Inches)
  6

 40
6.35
 41
6.35
 42
6.35000508
 43
6.35000508
 44
215.9
 45
279.4
 46
0.0
 47
0.0
 48
0.0
 49
0.0
140
0.0
141
0.0
142
1.0
143
1.0
 70
  1712
 72
     1
 73
     0
 74
     0
  7

 75
     0
147
1.0
148
0.0
149
0.0
100
AcDbLayout
  1
Model
 70
     1
 71
     0
 10
0.0
 20
0.0
 11
297.0
 21
210.0
 12
0.0
 22
0.0
 32
0.0
 14
0.0
 24
0.0
 34
0.0
 15
297.0
 25
210.0
 35
0.0
146
0.0
 13
0.0
 23
0.0
 33
0.0
 16
1.0
 26
0.0
 36
0.0
 17
0.0
 27
1.0
 37
0.0
 76
     0
330
1F
331
29
  0
MLINESTYLE
  5
18
102
{ACAD_REACTORS
330
17
102
}
330
17
100
AcDbMlineStyle
  2
Standard
 70
     0
  3

 62
   256
 51
90.0
 52
90.0
 71
     2
 49
0.5
 62
   256
  6
BYLAYER
 49
-0.5
 62
   256
  6
BYLAYER
  0
ACDBPLACEHOLDER
  5
F
102
{ACAD_REACTORS
330
E
102
}
330
E
  0
SCALE
  5
48
102
{ACAD_REACTORS
330
47
102
}
330
47
100
AcDbScale
 70
     0
300
1:1
140
1.0
141
1.0
290
     1
  0
SCALE
  5
49
102
{ACAD_REACTORS
330
47
102
}
330
47
100
AcDbScale
 70
     0
300
1:2
140
1.0
141
2.0
290
     0
  0
SCALE
  5
4A
102
{ACAD_REACTORS
330
47
102
}
330
47
100
AcDbScale
 70
     0
300
1:4
140
1.0
141
4.0
290
     0
  0
SCALE
  5
4B
102
{ACAD_REACTORS
330
47
102
}
330
47
100
AcDbScale
 70
     0
300
1:5
140
1.0
141
5.0
290
     0
  0
SCALE
  5
4C
102
{ACAD_REACTORS
330
47
102
}
330
47
100
AcDbScale
 70
     0
300
1:8
140
1.0
141
8.0
290
     0
  0
SCALE
  5
4D
102
{ACAD_REACTORS
330
47
102
}
330
47
100
AcDbScale
 70
     0
300
1:10
140
1.0
141
10.0
290
     0
  0
SCALE
  5
4E
102
{ACAD_REACTORS
330
47
102
}
330
47
100
AcDbScale
 70
     0
300
1:16
140
1.0
141
16.0
290
     0
  0
SCALE
  5
4F
102
{ACAD_REACTORS
330
47
102
}
330
47
100
AcDbScale
 70
     0
300
1:20
140
1.0
141
20.0
290
     0
  0
SCALE
  5
50
102
{ACAD_REACTORS
330
47
102
}
330
47
100
AcDbScale
 70
     0
300
1:30
140
1.0
141
30.0
290
     0
  0
SCALE
  5
51
102
{ACAD_REACTORS
330
47
102
}
330
47
100
AcDbScale
 70
     0
300
1:40
140
1.0
141
40.0
290
     0
  0
SCALE
  5
52
102
{ACAD_REACTORS
330
47
102
}
330
47
100
AcDbScale
 70
     0
300
1:50
140
1.0
141
50.0
290
     0
  0
SCALE
  5
53
102
{ACAD_REACTORS
330
47
102
}
330
47
100
AcDbScale
 70
     0
300
1:100
140
1.0
141
100.0
290
     0
  0
SCALE
  5
54
102
{ACAD_REACTORS
330
47
102
}
330
47
100
AcDbScale
 70
     0
300
2:1
140
2.0
141
1.0
290
     0
  0
SCALE
  5
55
102
{ACAD_REACTORS
330
47
102
}
330
47
100
AcDbScale
 70
     0
300
4:1
140
4.0
141
1.0
290
     0
  0
SCALE
  5
56
102
{ACAD_REACTORS
330
47
102
}
330
47
100
AcDbScale
 70
     0
300
8:1
140
8.0
141
1.0
290
     0
  0
SCALE
  5
57
102
{ACAD_REACTORS
330
47
102
}
330
47
100
AcDbScale
 70
     0
300
10:1
140
10.0
141
1.0
290
     0
  0
SCALE
  5
58
102
{ACAD_REACTORS
330
47
102
}
330
47
100
AcDbScale
 70
     0
300
100:1
140
100.0
141
1.0
290
     0
  0
ENDSEC
  0
EOF
