  0
SECTION
  2
HEADER
  9
$ACADVER
  1
AC1015
  9
$ACADMAINTVER
 70
     6
  9
$DWGCODEPAGE
  3
DOS932
  9
$INSBASE
 10
0.0
 20
0.0
 30
0.0
  9
$EXTMIN
 10
0.0
 20
0.0
 30
0.0
  9
$EXTMAX
 10
297.0
 20
210.0
 30
0.0
  9
$LIMMIN
 10
0.0
 20
0.0
  9
$LIMMAX
 10
297.0
 20
210.0
  9
$ORTHOMODE
 70
     0
  9
$REGENMODE
 70
     1
  9
$FILLMODE
 70
     1
  9
$QTEXTMODE
 70
     0
  9
$MIRRTEXT
 70
     1
  9
$LTSCALE
 40
1.0
  9
$ATTMODE
 70
     1
  9
$TEXTSIZE
 40
3.5277777778
  9
$TRACEWID
 40
1.0
  9
$TEXTSTYLE
  7
Standard
  9
$CLAYER
  8
0
  9
$CELTYPE
  6
ByLayer
  9
$CECOLOR
 62
   256
  9
$CELTSCALE
 40
1.0
  9
$DISPSILH
 70
     0
  9
$DIMSCALE
 40
1.0
  9
$DIMASZ
 40
2.728515625
  9
$DIMEXO
 40
1.0
  9
$DIMDLI
 40
3.75
  9
$DIMRND
 40
0.0
  9
$DIMDLE
 40
0.0
  9
$DIMEXE
 40
1.0
  9
$DIMTP
 40
0.0
  9
$DIMTM
 40
0.0
  9
$DIMTXT
 40
3.5277777778
  9
$DIMCEN
 40
2.5
  9
$DIMTSZ
 40
0.0
  9
$DIMTOL
 70
     0
  9
$DIMLIM
 70
     0
  9
$DIMTIH
 70
     1
  9
$DIMTOH
 70
     1
  9
$DIMSE1
 70
     0
  9
$DIMSE2
 70
     0
  9
$DIMTAD
 70
     1
  9
$DIMZIN
 70
     0
  9
$DIMBLK
  1

  9
$DIMASO
 70
     1
  9
$DIMSHO
 70
     1
  9
$DIMPOST
  1

  9
$DIMAPOST
  1

  9
$DIMALT
 70
     0
  9
$DIMALTD
 70
     3
  9
$DIMALTF
 40
0.0393700787
  9
$DIMLFAC
 40
1.0
  9
$DIMTOFL
 70
     1
  9
$DIMTVP
 40
0.0
  9
$DIMTIX
 70
     0
  9
$DIMSOXD
 70
     0
  9
$DIMSAH
 70
     0
  9
$DIMBLK1
  1

  9
$DIMBLK2
  1

  9
$DIMSTYLE
  2
ISO-25
  9
$DIMCLRD
 70
     0
  9
$DIMCLRE
 70
     0
  9
$DIMCLRT
 70
     0
  9
$DIMTFAC
 40
1.0
  9
$DIMGAP
 40
1.524
  9
$DIMJUST
 70
     0
  9
$DIMSD1
 70
     0
  9
$DIMSD2
 70
     0
  9
$DIMTOLJ
 70
     0
  9
$DIMTZIN
 70
     0
  9
$DIMALTZ
 70
     0
  9
$DIMALTTZ
 70
     0
  9
$DIMUPT
 70
     0
  9
$DIMDEC
 70
     2
  9
$DIMTDEC
 70
     2
  9
$DIMALTU
 70
     2
  9
$DIMALTTD
 70
     3
  9
$DIMTXSTY
  7
Standard
  9
$DIMAUNIT
 70
     0
  9
$DIMADEC
 70
     2
  9
$DIMALTRND
 40
0.0
  9
$DIMAZIN
 70
     0
  9
$DIMDSEP
 70
    44
  9
$DIMATFIT
 70
     3
  9
$DIMFRAC
 70
     0
  9
$DIMLDRBLK
  1

  9
$DIMLUNIT
 70
     2
  9
$DIMLWD
 70
    -2
  9
$DIMLWE
 70
    -2
  9
$DIMTMOVE
 70
     0
  9
$LUNITS
 70
     2
  9
$LUPREC
 70
     2
  9
$SKETCHINC
 40
1.0
  9
$FILLETRAD
 40
0.0
  9
$AUNITS
 70
     0
  9
$AUPREC
 70
     2
  9
$MENU
  1
.
  9
$ELEVATION
 40
0.0
  9
$PELEVATION
 40
0.0
  9
$THICKNESS
 40
0.0
  9
$LIMCHECK
 70
     0
  9
$CHAMFERA
 40
0.0
  9
$CHAMFERB
 40
0.0
  9
$CHAMFERC
 40
0.0
  9
$CHAMFERD
 40
0.0
  9
$SKPOLY
 70
     0
  9
$TDCREATE
 40
2460376.500246713
  9
$TDUCREATE
 40
2460376.125246713
  9
$TDUPDATE
 40
2460376.500247488
  9
$TDUUPDATE
 40
2460376.125247488
  9
$TDINDWG
 40
0.0000000116
  9
$TDUSRTIMER
 40
0.0000000116
  9
$USRTIMER
 70
     1
  9
$ANGBASE
 50
0.0
  9
$ANGDIR
 70
     0
  9
$PDMODE
 70
     0
  9
$PDSIZE
 40
-1.0
  9
$PLINEWID
 40
0.0
  9
$SPLFRAME
 70
     0
  9
$SPLINETYPE
 70
     6
  9
$SPLINESEGS
 70
     8
  9
$HANDSEED
  5
253
  9
$SURFTAB1
 70
     6
  9
$SURFTAB2
 70
     6
  9
$SURFTYPE
 70
     6
  9
$SURFU
 70
     6
  9
$SURFV
 70
     6
  9
$UCSBASE
  2

  9
$UCSNAME
  2

  9
$UCSORG
 10
0.0
 20
0.0
 30
0.0
  9
$UCSXDIR
 10
1.0
 20
0.0
 30
0.0
  9
$UCSYDIR
 10
0.0
 20
1.0
 30
0.0
  9
$UCSORTHOREF
  2

  9
$UCSORTHOVIEW
 70
     0
  9
$UCSORGTOP
 10
0.0
 20
0.0
 30
0.0
  9
$UCSORGBOTTOM
 10
0.0
 20
0.0
 30
0.0
  9
$UCSORGLEFT
 10
0.0
 20
0.0
 30
0.0
  9
$UCSORGRIGHT
 10
0.0
 20
0.0
 30
0.0
  9
$UCSORGFRONT
 10
0.0
 20
0.0
 30
0.0
  9
$UCSORGBACK
 10
0.0
 20
0.0
 30
0.0
  9
$PUCSBASE
  2

  9
$PUCSNAME
  2

  9
$PUCSORG
 10
0.0
 20
0.0
 30
0.0
  9
$PUCSXDIR
 10
1.0
 20
0.0
 30
0.0
  9
$PUCSYDIR
 10
0.0
 20
1.0
 30
0.0
  9
$PUCSORTHOREF
  2

  9
$PUCSORTHOVIEW
 70
     0
  9
$PUCSORGTOP
 10
0.0
 20
0.0
 30
0.0
  9
$PUCSORGBOTTOM
 10
0.0
 20
0.0
 30
0.0
  9
$PUCSORGLEFT
 10
0.0
 20
0.0
 30
0.0
  9
$PUCSORGRIGHT
 10
0.0
 20
0.0
 30
0.0
  9
$PUCSORGFRONT
 10
0.0
 20
0.0
 30
0.0
  9
$PUCSORGBACK
 10
0.0
 20
0.0
 30
0.0
  9
$USERI1
 70
     0
  9
$USERI2
 70
     0
  9
$USERI3
 70
     0
  9
$USERI4
 70
     0
  9
$USERI5
 70
     0
  9
$USERR1
 40
0.0
  9
$USERR2
 40
0.0
  9
$USERR3
 40
0.0
  9
$USERR4
 40
0.0
  9
$USERR5
 40
0.0
  9
$WORLDVIEW
 70
     1
  9
$SHADEDGE
 70
     3
  9
$SHADEDIF
 70
    70
  9
$TILEMODE
 70
     1
  9
$MAXACTVP
 70
    64
  9
$PINSBASE
 10
0.0
 20
0.0
 30
0.0
  9
$PLIMCHECK
 70
     0
  9
$PEXTMIN
 10
1.0000000000E+20
 20
1.0000000000E+20
 30
1.0000000000E+20
  9
$PEXTMAX
 10
-1.0000000000E+20
 20
-1.0000000000E+20
 30
-1.0000000000E+20
  9
$PLIMMIN
 10
0.0
 20
0.0
  9
$PLIMMAX
 10
420.0
 20
297.0
  9
$UNITMODE
 70
     0
  9
$VISRETAIN
 70
     1
  9
$PLINEGEN
 70
     0
  9
$PSLTSCALE
 70
     1
  9
$TREEDEPTH
 70
  3020
  9
$CMLSTYLE
  2
Standard
  9
$CMLJUST
 70
     0
  9
$CMLSCALE
 40
20.0
  9
$PROXYGRAPHICS
 70
     1
  9
$MEASUREMENT
 70
     1
  9
$CELWEIGHT
370
    -1
  9
$ENDCAPS
280
     0
  9
$JOINSTYLE
280
     0
  9
$LWDISPLAY
290
     1
  9
$INSUNITS
 70
     4
  9
$HYPERLINKBASE
  1

  9
$STYLESHEET
  1

  9
$XEDIT
290
     1
  9
$CEPSNTYPE
380
     0
  9
$PSTYLEMODE
290
     1
  9
$FINGERPRINTGUID
  2
{77b6dbbf-eeb5-4d4c-9d7c-4aad4e9b9b47}
  9
$VERSIONGUID
  2
{FAEB1C32-E019-11D5-929B-00C0DF256EC4}
  9
$EXTNAMES
290
     1
  9
$PSVPSCALE
 40
0.0
  9
$OLESTARTUP
290
     0
  0
ENDSEC
  0
SECTION
  2
CLASSES
  0
CLASS
  1
ACDBDICTIONARYWDFLT
  2
AcDbDictionaryWithDefault
  3
ObjectDBX Classes
 90
        0
280
     0
281
     0
  0
CLASS
  1
VISUALSTYLE
  2
AcDbVisualStyle
  3
ObjectDBX Classes
 90
     4095
280
     0
281
     0
  0
CLASS
  1
MATERIAL
  2
AcDbMaterial
  3
ObjectDBX Classes
 90
     1153
280
     0
281
     0
  0
CLASS
  1
SCALE
  2
AcDbScale
  3
ObjectDBX Classes
 90
     1153
280
     0
281
     0
  0
CLASS
  1
TABLESTYLE
  2
AcDbTableStyle
  3
ObjectDBX Classes
 90
     4095
280
     0
281
     0
  0
CLASS
  1
MLEADERSTYLE
  2
AcDbMLeaderStyle
  3
ACDB_MLEADERSTYLE_CLASS
 90
     4095
280
     0
281
     0
  0
CLASS
  1
SUN
  2
AcDbSun
  3
SCENEOE
 90
     1153
280
     0
281
     0
  0
CLASS
  1
ACDBPLACEHOLDER
  2
AcDbPlaceHolder
  3
ObjectDBX Classes
 90
        0
280
     0
281
     0
  0
CLASS
  1
LAYOUT
  2
AcDbLayout
  3
ObjectDBX Classes
 90
        0
280
     0
281
     0
  0
ENDSEC
  0
SECTION
  2
TABLES
  0
TABLE
  2
VPORT
  5
8
330
0
100
AcDbSymbolTable
 70
     1
  0
VPORT
  5
29
330
8
100
AcDbSymbolTableRecord
100
AcDbViewportTableRecord
  2
*Active
 70
     0
 10
0.0
 20
0.0
 11
1.0
 21
1.0
 12
148.5
 22
105.0
 13
0.0
 23
0.0
 14
10.0
 24
10.0
 15
10.0
 25
10.0
 16
0.0
 26
0.0
 36
1.0
 17
0.0
 27
0.0
 37
0.0
 40
210.0
 41
1.4142857143
 42
50.0
 43
0.0
 44
0.0
 50
0.0
 51
0.0
 71
     0
 72
  2000
 73
     1
 74
     3
 75
     0
 76
     0
 77
     0
 78
     0
281
     0
 65
     1
110
0.0
120
0.0
130
0.0
111
1.0
121
0.0
131
0.0
112
0.0
122
1.0
132
0.0
 79
     0
146
0.0
  0
ENDTAB
  0
TABLE
  2
LTYPE
  5
5
330
0
100
AcDbSymbolTable
 70
     6
  0
LTYPE
  5
14
330
5
100
AcDbSymbolTableRecord
100
AcDbLinetypeTableRecord
  2
ByBlock
 70
     0
  3

 72
    65
 73
     0
 40
0.0
  0
LTYPE
  5
15
330
5
100
AcDbSymbolTableRecord
100
AcDbLinetypeTableRecord
  2
ByLayer
 70
     0
  3

 72
    65
 73
     0
 40
0.0
  0
LTYPE
  5
16
330
5
100
AcDbSymbolTableRecord
100
AcDbLinetypeTableRecord
  2
Continuous
 70
     0
  3
Solid line
 72
    65
 73
     0
 40
0.0
  0
LTYPE
  5
5E
330
5
100
AcDbSymbolTableRecord
100
AcDbLinetypeTableRecord
  2
HIDDEN
 70
     0
  3
Hidden __ __ __ __ __ __ __ __ __ __ __ __ __ __
 72
    65
 73
     2
 40
1.905
 49
1.27
 74
     0
 49
-0.635
 74
     0
  0
LTYPE
  5
5F
330
5
100
AcDbSymbolTableRecord
100
AcDbLinetypeTableRecord
  2
PHANTOM
 70
     0
  3
Phantom ______  __  __  ______  __  __  ______
 72
    65
 73
     6
 40
12.7
 49
6.35
 74
     0
 49
-1.27
 74
     0
 49
1.27
 74
     0
 49
-1.27
 74
     0
 49
1.27
 74
     0
 49
-1.27
 74
     0
  0
LTYPE
  5
60
330
5
100
AcDbSymbolTableRecord
100
AcDbLinetypeTableRecord
  2
CENTER
 70
     0
  3
Center ____ _ ____ _ ____ _ ____ _ ____ _ ____
 72
    65
 73
     4
 40
10.16
 49
6.35
 74
     0
 49
-1.27
 74
     0
 49
1.27
 74
     0
 49
-1.27
 74
     0
  0
LTYPE
  5
61
330
5
100
AcDbSymbolTableRecord
100
AcDbLinetypeTableRecord
  2
CENTERX2
 70
     0
  3
Center (2x) ________  __  ________  __  _____
 72
    65
 73
     4
 40
20.32
 49
12.7
 74
     0
 49
-2.54
 74
     0
 49
2.54
 74
     0
 49
-2.54
 74
     0
  0
LTYPE
  5
62
330
5
100
AcDbSymbolTableRecord
100
AcDbLinetypeTableRecord
  2
DOT2
 70
     0
  3
Dot (.5x) ........................................
 72
    65
 73
     2
 40
0.635
 49
0.0
 74
     0
 49
-0.635
 74
     0
  0
ENDTAB
  0
TABLE
  2
LAYER
  5
2
330
0
100
AcDbSymbolTable
 70
     2
  0
LAYER
  5
10
330
2
100
AcDbSymbolTableRecord
100
AcDbLayerTableRecord
  2
0
 70
     0
 62
     7
  6
Continuous
370
    -3
390
F
  0
LAYER
  5
63
330
2
100
AcDbSymbolTableRecord
100
AcDbLayerTableRecord
  2
FORMAT
 70
     0
 62
     7
  6
Continuous
370
    -3
390
F
  0
ENDTAB
  0
TABLE
  2
STYLE
  5
3
330
0
100
AcDbSymbolTable
 70
     2
  0
STYLE
  5
11
330
3
100
AcDbSymbolTableRecord
100
AcDbTextStyleTableRecord
  2
Standard
 70
     0
 40
0.0
 41
1.0
 50
0.0
 71
     0
 42
3.5277777778
  3
txt
  4
bigfont
  0
STYLE
  5
64
330
3
100
AcDbSymbolTableRecord
100
AcDbTextStyleTableRecord
  2
SLDTEXTSTYLE0
 70
     0
 40
0.0
 41
0.7
 50
0.0
 71
     0
 42
3.5277777778
  3
TXT
  4
bigfont
  0
ENDTAB
  0
TABLE
  2
VIEW
  5
6
330
0
100
AcDbSymbolTable
 70
     0
  0
ENDTAB
  0
TABLE
  2
UCS
  5
7
330
0
100
AcDbSymbolTable
 70
     0
  0
ENDTAB
  0
TABLE
  2
APPID
  5
9
330
0
100
AcDbSymbolTable
 70
     1
  0
APPID
  5
12
330
9
100
AcDbSymbolTableRecord
100
AcDbRegAppTableRecord
  2
ACAD
 70
     0
  0
ENDTAB
  0
TABLE
  2
DIMSTYLE
  5
A
330
0
100
AcDbSymbolTable
 70
     1
100
AcDbDimStyleTable
  0
DIMSTYLE
105
27
330
A
100
AcDbSymbolTableRecord
100
AcDbDimStyleTableRecord
  2
ISO-25
 70
     0
 41
2.5
 42
0.625
 43
3.75
 44
1.25
 73
     0
 74
     0
 77
     1
 78
     8
140
2.5
141
2.5
143
0.0393700787
147
0.625
171
     3
172
     1
178
     0
271
     2
272
     2
274
     3
278
    44
283
     0
284
     8
340
11
  0
ENDTAB
  0
TABLE
  2
BLOCK_RECORD
  5
1
330
0
100
AcDbSymbolTable
 70
     3
  0
BLOCK_RECORD
  5
1F
330
1
100
AcDbSymbolTableRecord
100
AcDbBlockTableRecord
  2
*Model_Space
340
22
  0
BLOCK_RECORD
  5
1B
330
1
100
AcDbSymbolTableRecord
100
AcDbBlockTableRecord
  2
*Paper_Space
340
1E
  0
BLOCK_RECORD
  5
23
330
1
100
AcDbSymbolTableRecord
100
AcDbBlockTableRecord
  2
*Paper_Space0
340
26
  0
BLOCK_RECORD
  5
19A
330
1
100
AcDbSymbolTableRecord
100
AcDbBlockTableRecord
  2
SW_CENTERMARKSYMBOL_0
340
0
102
{BLKREFS
331
1A5
102
}
  0
BLOCK_RECORD
  5
243
330
1
100
AcDbSymbolTableRecord
100
AcDbBlockTableRecord
  2
SW_CENTERMARKSYMBOL_1
340
0
102
{BLKREFS
331
24E
102
}
  0
ENDTAB
  0
ENDSEC
  0
SECTION
  2
BLOCKS
  0
BLOCK
  5
20
330
1F
100
AcDbEntity
  8
0
100
AcDbBlockBegin
  2
*Model_Space
 70
     0
 10
0.0
 20
0.0
 30
0.0
  3
*Model_Space
  1

  0
ENDBLK
  5
21
330
1F
100
AcDbEntity
  8
0
100
AcDbBlockEnd
  0
BLOCK
  5
1C
330
1B
100
AcDbEntity
 67
     1
  8
0
100
AcDbBlockBegin
  2
*Paper_Space
 70
     0
 10
0.0
 20
0.0
 30
0.0
  3
*Paper_Space
  1

  0
ENDBLK
  5
1D
330
1B
100
AcDbEntity
 67
     1
  8
0
100
AcDbBlockEnd
  0
BLOCK
  5
24
330
23
100
AcDbEntity
  8
0
100
AcDbBlockBegin
  2
*Paper_Space0
 70
     0
 10
0.0
 20
0.0
 30
0.0
  3
*Paper_Space0
  1

  0
ENDBLK
  5
25
330
23
100
AcDbEntity
  8
0
100
AcDbBlockEnd
  0
BLOCK
  5
19B
330
19A
100
AcDbEntity
  8
0
100
AcDbBlockBegin
  2
SW_CENTERMARKSYMBOL_0
 70
     0
 10
0.0
 20
0.0
 30
0.0
  3
SW_CENTERMARKSYMBOL_0
  1

  0
LINE
  5
19D
330
19A
100
AcDbEntity
  8
FORMAT
 62
     0
100
AcDbLine
 10
0.0
 20
0.0
 30
0.0
 11
0.0
 21
2.5
 31
0.0
  0
LINE
  5
19E
330
19A
100
AcDbEntity
  8
FORMAT
 62
     0
100
AcDbLine
 10
0.0
 20
0.0
 30
0.0
 11
-2.5
 21
0.0
 31
0.0
  0
LINE
  5
19F
330
19A
100
AcDbEntity
  8
FORMAT
 62
     0
100
AcDbLine
 10
0.0
 20
0.0
 30
0.0
 11
0.0
 21
-2.5
 31
0.0
  0
LINE
  5
1A0
330
19A
100
AcDbEntity
  8
FORMAT
 62
     0
100
AcDbLine
 10
0.0
 20
0.0
 30
0.0
 11
2.5
 21
0.0
 31
0.0
  0
LINE
  5
1A1
330
19A
100
AcDbEntity
  8
FORMAT
 62
     0
100
AcDbLine
 10
0.0
 20
5.0
 30
0.0
 11
0.0
 21
22.9836939645
 31
0.0
  0
LINE
  5
1A2
330
19A
100
AcDbEntity
  8
FORMAT
 62
     0
100
AcDbLine
 10
-5.0
 20
0.0
 30
0.0
 11
-10.55
 21
0.0
 31
0.0
  0
LINE
  5
1A3
330
19A
100
AcDbEntity
  8
FORMAT
 62
     0
100
AcDbLine
 10
0.0
 20
-5.0
 30
0.0
 11
0.0
 21
-10.55
 31
0.0
  0
LINE
  5
1A4
330
19A
100
AcDbEntity
  8
FORMAT
 62
     0
100
AcDbLine
 10
5.0
 20
0.0
 30
0.0
 11
10.55
 21
0.0
 31
0.0
  0
ENDBLK
  5
19C
330
19A
100
AcDbEntity
  8
0
100
AcDbBlockEnd
  0
BLOCK
  5
244
330
243
100
AcDbEntity
  8
0
100
AcDbBlockBegin
  2
SW_CENTERMARKSYMBOL_1
 70
     0
 10
0.0
 20
0.0
 30
0.0
  3
SW_CENTERMARKSYMBOL_1
  1

  0
LINE
  5
246
330
243
100
AcDbEntity
  8
FORMAT
 62
     0
100
AcDbLine
 10
0.0
 20
0.0
 30
0.0
 11
0.0
 21
2.5
 31
0.0
  0
LINE
  5
247
330
243
100
AcDbEntity
  8
FORMAT
 62
     0
100
AcDbLine
 10
0.0
 20
0.0
 30
0.0
 11
-2.5
 21
0.0
 31
0.0
  0
LINE
  5
248
330
243
100
AcDbEntity
  8
FORMAT
 62
     0
100
AcDbLine
 10
0.0
 20
0.0
 30
0.0
 11
0.0
 21
-2.5
 31
0.0
  0
LINE
  5
249
330
243
100
AcDbEntity
  8
FORMAT
 62
     0
100
AcDbLine
 10
0.0
 20
0.0
 30
0.0
 11
2.5
 21
0.0
 31
0.0
  0
LINE
  5
24A
330
243
100
AcDbEntity
  8
FORMAT
 62
     0
100
AcDbLine
 10
0.0
 20
5.0
 30
0.0
 11
0.0
 21
8.9559621142
 31
0.0
  0
LINE
  5
24B
330
243
100
AcDbEntity
  8
FORMAT
 62
     0
100
AcDbLine
 10
-5.0
 20
0.0
 30
0.0
 11
-8.9559621142
 21
0.0
 31
0.0
  0
LINE
  5
24C
330
243
100
AcDbEntity
  8
FORMAT
 62
     0
100
AcDbLine
 10
0.0
 20
-5.0
 30
0.0
 11
0.0
 21
-8.9559621142
 31
0.0
  0
LINE
  5
24D
330
243
100
AcDbEntity
  8
FORMAT
 62
     0
100
AcDbLine
 10
5.0
 20
0.0
 30
0.0
 11
27.3436075472
 21
0.0
 31
0.0
  0
ENDBLK
  5
245
330
243
100
AcDbEntity
  8
0
100
AcDbBlockEnd
  0
ENDSEC
  0
SECTION
  2
ENTITIES
  0
MTEXT
  5
65
330
1F
100
AcDbEntity
  8
FORMAT
100
AcDbMText
 10
125.7068693484
 20
97.4064331445
 30
0.0
 40
3.7041666667
 41
0.0
 71
     2
 72
     1
  1
5R-RL1208
  7
SLDTEXTSTYLE0
 73
     1
 44
1.0
  0
LINE
  5
66
330
1F
100
AcDbEntity
  8
0
  6
Continuous
 62
     7
370
    25
100
AcDbLine
 10
110.0770640665
 20
73.3842475486
 30
0.0
 11
109.1735371207
 21
71.8192929724
 31
0.0
  0
LINE
  5
67
330
1F
100
AcDbEntity
  8
0
  6
Continuous
 62
     7
370
    25
100
AcDbLine
 10
109.1735371207
 20
55.3192929724
 30
0.0
 11
110.0770640665
 21
53.7543383962
 31
0.0
  0
LINE
  5
68
330
1F
100
AcDbEntity
  8
0
  6
Continuous
 62
     7
370
    25
100
AcDbLine
 10
121.9735371207
 20
55.3192929724
 30
0.0
 11
122.1735371207
 21
55.5192929724
 31
0.0
  0
LINE
  5
69
330
1F
100
AcDbEntity
  8
0
  6
Continuous
 62
     7
370
    25
100
AcDbLine
 10
122.1735371207
 20
71.6192929724
 30
0.0
 11
121.9735371207
 21
71.8192929724
 31
0.0
  0
LINE
  5
6A
330
1F
100
AcDbEntity
  8
0
  6
Continuous
 62
     7
370
    25
100
AcDbLine
 10
121.9735371207
 20
71.8192929724
 30
0.0
 11
121.1065498226
 21
71.8192929724
 31
0.0
  0
LINE
  5
6B
330
1F
100
AcDbEntity
  8
0
  6
Continuous
 62
     7
370
    25
100
AcDbLine
 10
121.1065498226
 20
55.3192929724
 30
0.0
 11
121.9735371207
 21
55.3192929724
 31
0.0
  0
LINE
  5
6C
330
1F
100
AcDbEntity
  8
0
  6
Continuous
 62
     7
370
    25
100
AcDbLine
 10
120.4570307697
 20
72.1942929724
 30
0.0
 11
119.7700101748
 21
73.3842475486
 31
0.0
  0
ARC
  5
6D
330
1F
100
AcDbEntity
  8
0
  6
Continuous
 62
     7
370
    25
100
AcDbCircle
 10
121.1065498226
 20
72.5692929724
 30
0.0
 40
0.75
100
AcDbArc
 50
210.0
 51
270.0
  0
ARC
  5
6E
330
1F
100
AcDbEntity
  8
0
  6
Continuous
 62
     7
370
    25
100
AcDbCircle
 10
121.1065498226
 20
54.5692929724
 30
0.0
 40
0.7500000000000071
100
AcDbArc
 50
90.0
 51
150.0
  0
LINE
  5
6F
330
1F
100
AcDbEntity
  8
0
  6
Continuous
 62
     7
370
    25
100
AcDbLine
 10
119.7700101748
 20
53.7543383962
 30
0.0
 11
120.4570307697
 21
54.9442929724
 31
0.0
  0
ARC
  5
70
330
1F
100
AcDbEntity
  8
0
  6
Continuous
 62
     7
370
    25
100
AcDbCircle
 10
89.4783120618
 20
74.0692929724
 30
0.0
 40
0.5
100
AcDbArc
 50
268.2029309138
 51
270.0
  0
ARC
  5
71
330
1F
100
AcDbEntity
  8
0
  6
Continuous
 62
     7
370
    25
100
AcDbCircle
 10
102.9783120618
 20
74.0692929724
 30
0.0
 40
0.5
100
AcDbArc
 50
270.0
 51
271.7970690862
  0
LINE
  5
72
330
1F
100
AcDbEntity
  8
0
  6
Continuous
 62
     7
370
    25
100
AcDbLine
 10
102.9939918769
 20
73.5695388895
 30
0.0
 11
102.684274176
 21
83.4805053186
 31
0.0
  0
LINE
  5
73
330
1F
100
AcDbEntity
  8
0
  6
Continuous
 62
     7
370
    25
100
AcDbLine
 10
89.7723499477
 20
83.4805053186
 30
0.0
 11
89.4626322468
 21
73.5695388895
 31
0.0
  0
LINE
  5
74
330
1F
100
AcDbEntity
  8
0
  6
Continuous
 62
     7
370
    25
100
AcDbLine
 10
109.1735371207
 20
70.1477929724
 30
0.0
 11
106.2283120618
 21
70.1477929724
 31
0.0
  0
LINE
  5
75
330
1F
100
AcDbEntity
  8
0
  6
Continuous
 62
     7
370
    25
100
AcDbLine
 10
106.2283120618
 20
56.9907929724
 30
0.0
 11
109.1735371207
 21
56.9907929724
 31
0.0
  0
ARC
  5
76
330
1F
100
AcDbEntity
  8
0
  6
Continuous
 62
     7
370
    25
100
AcDbCircle
 10
105.7283120618
 20
70.0692929724
 30
0.0
 40
0.5
100
AcDbArc
 50
270.0
 51
0.0
  0
ARC
  5
77
330
1F
100
AcDbEntity
  8
0
  6
Continuous
 62
     7
370
    25
100
AcDbCircle
 10
105.7283120618
 20
57.0692929724
 30
0.0
 40
0.5
100
AcDbArc
 50
0.0
 51
90.0
  0
ARC
  5
78
330
1F
100
AcDbEntity
  8
0
  6
Continuous
 62
     7
370
    25
100
AcDbCircle
 10
89.7283120618
 20
73.0692929724
 30
0.0
 40
0.5
100
AcDbArc
 50
0.0
 51
90.0
  0
ARC
  5
79
330
1F
100
AcDbEntity
  8
0
  6
Continuous
 62
     7
370
    25
100
AcDbCircle
 10
102.7283120618
 20
73.0692929724
 30
0.0
 40
0.5
100
AcDbArc
 50
90.0
 51
180.0
  0
LINE
  5
7A
330
1F
100
AcDbEntity
  8
0
  6
Continuous
 62
     7
370
    25
100
AcDbLine
 10
102.684274176
 20
83.4805053186
 30
0.0
 11
101.4783120618
 21
85.5692929724
 31
0.0
  0
LINE
  5
7B
330
1F
100
AcDbEntity
  8
0
  6
Continuous
 62
     7
370
    25
100
AcDbLine
 10
90.9783120618
 20
85.5692929724
 30
0.0
 11
89.7723499477
 21
83.4805053186
 31
0.0
  0
LINE
  5
7C
330
1F
100
AcDbEntity
  8
0
  6
Continuous
 62
     7
370
    25
100
AcDbLine
 10
102.2283120618
 20
69.5692929724
 30
0.0
 11
102.2283120618
 21
73.0692929724
 31
0.0
  0
LINE
  5
7D
330
1F
100
AcDbEntity
  8
0
  6
Continuous
 62
     7
370
    25
100
AcDbLine
 10
90.2283120618
 20
73.0692929724
 30
0.0
 11
90.2283120618
 21
59.5692929724
 31
0.0
  0
LINE
  5
7E
330
1F
100
AcDbEntity
  8
0
  6
Continuous
 62
     7
370
    25
100
AcDbLine
 10
92.2283120618
 20
57.5692929724
 30
0.0
 11
105.7283120618
 21
57.5692929724
 31
0.0
  0
LINE
  5
7F
330
1F
100
AcDbEntity
  8
0
  6
Continuous
 62
     7
370
    25
100
AcDbLine
 10
105.7283120618
 20
69.5692929724
 30
0.0
 11
102.2283120618
 21
69.5692929724
 31
0.0
  0
ARC
  5
80
330
1F
100
AcDbEntity
  8
0
  6
Continuous
 62
     7
370
    25
100
AcDbCircle
 10
92.2283120618
 20
59.5692929724
 30
0.0
 40
2.000000000000002
100
AcDbArc
 50
179.7640391503
 51
270.1775680981
  0
SPLINE
  5
81
330
1F
100
AcDbEntity
  8
0
  6
Continuous
 62
     7
370
    25
100
AcDbSpline
210
0.0
220
0.0
230
1.0
 70
     8
 71
     3
 72
    16
 73
    12
 74
     0
 42
0.00000001
 43
0.00000001
 40
0.0
 40
0.0
 40
0.0
 40
0.0
 40
0.1120102749541304
 40
0.2377440458013614
 40
0.3634452870972628
 40
0.4922378783757058
 40
0.6210287926568644
 40
0.7152556882666299
 40
0.8094925111982042
 40
0.9047415002555057
 40
1.0
 40
1.0
 40
1.0
 40
1.0
 10
110.0770640665307
 20
58.66181568427804
 30
0.0
 10
109.9783873740749
 20
59.02056671532922
 30
0.0
 10
109.7689441234415
 20
59.7820229441658
 30
0.0
 10
109.528786569979
 20
60.96607629279734
 30
0.0
 10
109.3614170996966
 20
62.21886950909959
 30
0.0
 10
109.3002399646691
 20
63.49198206714221
 30
0.0
 10
109.3443409524603
 20
64.66104799959265
 30
0.0
 10
109.4620630640759
 20
65.70872083428984
 30
0.0
 10
109.6201732672533
 20
66.63800495271381
 30
0.0
 10
109.8235921681923
 20
67.56204028913112
 30
0.0
 10
109.9925706217862
 20
68.1718501222188
 30
0.0
 10
110.0770640665307
 20
68.47677026050171
 30
0.0
  0
SPLINE
  5
82
330
1F
100
AcDbEntity
  8
0
  6
Continuous
 62
     7
370
    25
100
AcDbSpline
210
0.0
220
0.0
230
1.0
 70
     8
 71
     3
 72
    15
 73
    11
 74
     0
 42
0.00000001
 43
0.00000001
 40
0.0
 40
0.0
 40
0.0
 40
0.0
 40
0.1323052378296956
 40
0.2645730682660305
 40
0.3997997819746812
 40
0.5350020935366635
 40
0.6501929590834554
 40
0.7654017933211805
 40
0.8826895567076665
 40
1.0
 40
1.0
 40
1.0
 40
1.0
 10
110.0770640665307
 20
53.75433839616613
 30
0.0
 10
109.9614940946907
 20
53.96636093982263
 30
0.0
 10
109.7303868267496
 20
54.39034608082645
 30
0.0
 10
109.4817241951732
 20
55.04324566648159
 30
0.0
 10
109.3322102480197
 20
55.70845251870446
 30
0.0
 10
109.3025999609713
 20
56.34956316500182
 30
0.0
 10
109.379421363622
 20
56.95603792986515
 30
0.0
 10
109.536830834743
 20
57.52840088961754
 30
0.0
 10
109.767733195274
 20
58.09817602987179
 30
0.0
 10
109.9739471308313
 20
58.47392369094126
 30
0.0
 10
110.0770640665307
 20
58.66181568427804
 30
0.0
  0
SPLINE
  5
83
330
1F
100
AcDbEntity
  8
0
  6
Continuous
 62
     7
370
    25
100
AcDbSpline
210
0.0
220
0.0
230
1.0
 70
     8
 71
     3
 72
    15
 73
    11
 74
     0
 42
0.00000001
 43
0.00000001
 40
0.0
 40
0.0
 40
0.0
 40
0.0
 40
0.1323052378296974
 40
0.2645730682660339
 40
0.3997997819746865
 40
0.5350020935366704
 40
0.650192959083461
 40
0.7654017933211844
 40
0.8826895567076685
 40
1.0
 40
1.0
 40
1.0
 40
1.0
 10
110.0770640665307
 20
68.47677026050171
 30
0.0
 10
109.9614940946907
 20
68.6887928041582
 30
0.0
 10
109.7303868267496
 20
69.11277794516201
 30
0.0
 10
109.4817241951732
 20
69.76567753081714
 30
0.0
 10
109.3322102480197
 20
70.43088438303998
 30
0.0
 10
109.3025999609713
 20
71.07199502933733
 30
0.0
 10
109.379421363622
 20
71.67846979420064
 30
0.0
 10
109.536830834743
 20
72.250832753953
 30
0.0
 10
109.767733195274
 20
72.82060789420721
 30
0.0
 10
109.9739471308313
 20
73.19635555527667
 30
0.0
 10
110.0770640665307
 20
73.38424754861343
 30
0.0
  0
LINE
  5
84
330
1F
100
AcDbEntity
  8
0
  6
Continuous
 62
     7
370
    25
100
AcDbLine
 10
109.1735371207
 20
63.5692929724
 30
0.0
 11
109.1735371207
 21
71.8192929724
 31
0.0
  0
LINE
  5
85
330
1F
100
AcDbEntity
  8
0
  6
Continuous
 62
     7
370
    25
100
AcDbLine
 10
109.1735371207
 20
55.3192929724
 30
0.0
 11
109.1735371207
 21
63.5692929724
 31
0.0
  0
SPLINE
  5
86
330
1F
100
AcDbEntity
  8
0
  6
Continuous
 62
     7
370
    25
100
AcDbSpline
210
0.0
220
0.0
230
1.0
 70
     8
 71
     3
 72
    11
 73
     7
 74
     0
 42
0.00000001
 43
0.00000001
 40
0.0
 40
0.0
 40
0.0
 40
0.0
 40
0.2488617730236801
 40
0.49774545835585
 40
0.7488627517928869
 40
1.0
 40
1.0
 40
1.0
 40
1.0
 10
120.4570307697324
 20
70.1989651601377
 30
0.0
 10
120.423876714516
 20
70.0540027798347
 30
0.0
 10
120.3575656848649
 20
69.764065255274
 30
0.0
 10
120.19952367878
 20
69.33202566777956
 30
0.0
 10
120.0066714993332
 20
68.90228759680261
 30
0.0
 10
119.8488993724447
 20
68.61861312943465
 30
0.0
 10
119.7700101748262
 20
68.47677026050171
 30
0.0
  0
LINE
  5
87
330
1F
100
AcDbEntity
  8
0
  6
Continuous
 62
     7
370
    25
100
AcDbLine
 10
120.4570307697
 20
65.0323804612
 30
0.0
 11
120.4570307697
 21
70.1989651601
 31
0.0
  0
SPLINE
  5
88
330
1F
100
AcDbEntity
  8
0
  6
Continuous
 62
     7
370
    25
100
AcDbSpline
210
0.0
220
0.0
230
1.0
 70
     8
 71
     3
 72
    11
 73
     7
 74
     0
 42
0.00000001
 43
0.00000001
 40
0.0
 40
0.0
 40
0.0
 40
0.0
 40
0.2490252138763564
 40
0.4980311639765295
 40
0.7490269204800197
 40
0.9999999999999999
 40
0.9999999999999999
 40
0.9999999999999999
 40
0.9999999999999999
 10
119.7700101748262
 20
68.47677026050171
 30
0.0
 10
119.8482590476517
 20
68.19547739923294
 30
0.0
 10
120.0047507402256
 20
67.63291343659128
 30
0.0
 10
120.197533628592
 20
66.77596912346526
 30
0.0
 10
120.3565995138269
 20
65.9095490875232
 30
0.0
 10
120.423554692688
 20
65.32476119718642
 30
0.0
 10
120.4570307697324
 20
65.03238046122983
 30
0.0
  0
SPLINE
  5
89
330
1F
100
AcDbEntity
  8
0
  6
Continuous
 62
     7
370
    25
100
AcDbSpline
210
0.0
220
0.0
230
1.0
 70
     8
 71
     3
 72
    10
 73
     6
 74
     0
 42
0.00000001
 43
0.00000001
 40
0.0
 40
0.0
 40
0.0
 40
0.0
 40
0.0789477693778934
 40
0.5375793028234306
 40
1.0
 40
1.0
 40
1.0
 40
1.0
 10
120.4570307697324
 20
65.03238046122983
 30
0.0
 10
120.4641610675459
 20
64.95561080686142
 30
0.0
 10
120.5127134276409
 20
64.43286294965702
 30
0.0
 10
120.5546302425196
 20
63.45469124375784
 30
0.0
 10
120.4896530316816
 20
62.55693184966697
 30
0.0
 10
120.4570307697324
 20
62.10620548354991
 30
0.0
  0
SPLINE
  5
8A
330
1F
100
AcDbEntity
  8
0
  6
Continuous
 62
     7
370
    25
100
AcDbSpline
210
0.0
220
0.0
230
1.0
 70
     8
 71
     3
 72
    10
 73
     6
 74
     0
 42
0.00000001
 43
0.00000001
 40
0.0
 40
0.0
 40
0.0
 40
0.0
 40
0.3355445600395944
 40
0.6726666839999051
 40
0.9999999999999999
 40
0.9999999999999999
 40
0.9999999999999999
 40
0.9999999999999999
 10
120.4570307697324
 20
62.10620548354991
 30
0.0
 10
120.409896553748
 20
61.71557591724647
 30
0.0
 10
120.3154065200981
 20
60.93248023836956
 30
0.0
 10
120.0769907420827
 20
59.78322826895478
 30
0.0
 10
119.871327079685
 20
59.03193048719388
 30
0.0
 10
119.7700101748262
 20
58.66181568427804
 30
0.0
  0
LINE
  5
8B
330
1F
100
AcDbEntity
  8
0
  6
Continuous
 62
     7
370
    25
100
AcDbLine
 10
110.0770640665
 20
58.6618156843
 30
0.0
 11
119.7700101748
 21
58.6618156843
 31
0.0
  0
LINE
  5
8C
330
1F
100
AcDbEntity
  8
0
  6
Continuous
 62
     7
370
    25
100
AcDbLine
 10
110.0770640665
 20
68.4767702605
 30
0.0
 11
119.7700101748
 21
68.4767702605
 31
0.0
  0
LINE
  5
8D
330
1F
100
AcDbEntity
  8
0
  6
Continuous
 62
     7
370
    25
100
AcDbLine
 10
120.4570307697
 20
56.9396207846
 30
0.0
 11
120.4570307697
 21
62.1062054835
 31
0.0
  0
SPLINE
  5
8E
330
1F
100
AcDbEntity
  8
0
  6
Continuous
 62
     7
370
    25
100
AcDbSpline
210
0.0
220
0.0
230
1.0
 70
     8
 71
     3
 72
    11
 73
     7
 74
     0
 42
0.00000001
 43
0.00000001
 40
0.0
 40
0.0
 40
0.0
 40
0.0
 40
0.2490252138763566
 40
0.4980311639765298
 40
0.74902692048002
 40
1.0
 40
1.0
 40
1.0
 40
1.0
 10
119.7700101748262
 20
58.66181568427804
 30
0.0
 10
119.8482590476517
 20
58.52116925364366
 30
0.0
 10
120.0047507402256
 20
58.23988727232281
 30
0.0
 10
120.197533628592
 20
57.81141511575979
 30
0.0
 10
120.3565995138269
 20
57.37820509778877
 30
0.0
 10
120.423554692688
 20
57.08581115262037
 30
0.0
 10
120.4570307697324
 20
56.93962078464207
 30
0.0
  0
SPLINE
  5
8F
330
1F
100
AcDbEntity
  8
0
  6
Continuous
 62
     7
370
    25
100
AcDbSpline
210
0.0
220
0.0
230
1.0
 70
     8
 71
     3
 72
    11
 73
     7
 74
     0
 42
0.00000001
 43
0.00000001
 40
0.0
 40
0.0
 40
0.0
 40
0.0
 40
0.2858113857234067
 40
0.5527245545213759
 40
0.8220275582229318
 40
1.0
 40
1.0
 40
1.0
 40
1.0
 10
121.1065498225707
 20
64.96876796171503
 30
0.0
 10
121.1026095211482
 20
64.70340558306525
 30
0.0
 10
121.094989456108
 20
64.1902269280068
 30
0.0
 10
121.083528366457
 20
63.41842769243213
 30
0.0
 10
121.1009657556987
 20
62.74921386506769
 30
0.0
 10
121.1049603569579
 20
62.33473897196757
 30
0.0
 10
121.1065498225707
 20
62.16981798306469
 30
0.0
  0
ARC
  5
90
330
1F
100
AcDbEntity
  8
0
  6
Continuous
 62
     7
370
    25
100
AcDbCircle
 10
121.0378265583
 20
59.5237388822
 30
0.0
 40
2.646971381585088
100
AcDbArc
 50
88.5122636654
 51
102.674909816
  0
ARC
  5
91
330
1F
100
AcDbEntity
  8
0
  6
Continuous
 62
     7
370
    25
100
AcDbCircle
 10
121.0378265583
 20
67.6148470625
 30
0.0
 40
2.646971381583548
100
AcDbArc
 50
257.325090184
 51
271.4877363346
  0
SPLINE
  5
92
330
1F
100
AcDbEntity
  8
0
  6
Continuous
 62
     7
370
    25
100
AcDbSpline
210
0.0
220
0.0
230
1.0
 70
     8
 71
     3
 72
    10
 73
     6
 74
     0
 42
0.00000001
 43
0.00000001
 40
0.0
 40
0.0
 40
0.0
 40
0.0
 40
0.3089808900029882
 40
0.6190948628358305
 40
1.0
 40
1.0
 40
1.0
 40
1.0
 10
120.4570307697324
 20
56.93962078464207
 30
0.0
 10
120.4811777762691
 20
56.7891728222742
 30
0.0
 10
120.5295603403157
 20
56.4877251805603
 30
0.0
 10
120.5370154330323
 20
55.99871394196425
 30
0.0
 10
120.4854530852327
 20
55.66208865680604
 30
0.0
 10
120.4570307697324
 20
55.47653329580209
 30
0.0
  0
SPLINE
  5
93
330
1F
100
AcDbEntity
  8
0
  6
Continuous
 62
     7
370
    25
100
AcDbSpline
210
0.0
220
0.0
230
1.0
 70
     8
 71
     3
 72
    11
 73
     7
 74
     0
 42
0.00000001
 43
0.00000001
 40
0.0
 40
0.0
 40
0.0
 40
0.0
 40
0.2488617730236804
 40
0.4977454583558503
 40
0.748862751792887
 40
0.9999999999999999
 40
0.9999999999999999
 40
0.9999999999999999
 40
0.9999999999999999
 10
120.4570307697324
 20
55.47653329580209
 30
0.0
 10
120.423876714516
 20
55.33157091549911
 30
0.0
 10
120.3575656848649
 20
55.04163339093842
 30
0.0
 10
120.19952367878
 20
54.60959380344396
 30
0.0
 10
120.0066714993332
 20
54.17985573246703
 30
0.0
 10
119.8488993724447
 20
53.89618126509907
 30
0.0
 10
119.7700101748262
 20
53.75433839616613
 30
0.0
  0
LINE
  5
94
330
1F
100
AcDbEntity
  8
0
  6
Continuous
 62
     7
370
    25
100
AcDbLine
 10
110.0770640665
 20
53.7543383962
 30
0.0
 11
119.7700101748
 21
53.7543383962
 31
0.0
  0
LINE
  5
95
330
1F
100
AcDbEntity
  8
0
  6
Continuous
 62
     7
370
    25
100
AcDbLine
 10
121.1065498226
 20
62.1698179831
 30
0.0
 11
121.1065498226
 21
57.2278674015
 31
0.0
  0
ARC
  5
96
330
1F
100
AcDbEntity
  8
0
  6
Continuous
 62
     7
370
    25
100
AcDbCircle
 10
121.077597523
 20
56.4171883781
 30
0.0
 40
0.8111958547049577
100
AcDbArc
 50
87.9546284054
 51
139.9072030665
  0
ARC
  5
97
330
1F
100
AcDbEntity
  8
0
  6
Continuous
 62
     7
370
    25
100
AcDbCircle
 10
121.077597523
 20
70.7213975667
 30
0.0
 40
0.811195854704996
100
AcDbArc
 50
220.0927969335
 51
272.0453715946
  0
LINE
  5
98
330
1F
100
AcDbEntity
  8
0
  6
Continuous
 62
     7
370
    25
100
AcDbLine
 10
121.1065498226
 20
69.9107185433
 30
0.0
 11
121.1065498226
 21
64.9687679617
 31
0.0
  0
SPLINE
  5
99
330
1F
100
AcDbEntity
  8
0
  6
Continuous
 62
     7
370
    25
100
AcDbSpline
210
0.0
220
0.0
230
1.0
 70
     8
 71
     3
 72
    10
 73
     6
 74
     0
 42
0.00000001
 43
0.00000001
 40
0.0
 40
0.0
 40
0.0
 40
0.0
 40
0.3089808900030074
 40
0.6190948628358683
 40
1.0
 40
1.0
 40
1.0
 40
1.0
 10
120.4570307697324
 20
71.66205264897744
 30
0.0
 10
120.4811777762691
 20
71.51160468660959
 30
0.0
 10
120.5295603403156
 20
71.21015704489572
 30
0.0
 10
120.5370154330323
 20
70.72114580629973
 30
0.0
 10
120.4854530852327
 20
70.38452052114158
 30
0.0
 10
120.4570307697324
 20
70.1989651601377
 30
0.0
  0
LINE
  5
9A
330
1F
100
AcDbEntity
  8
0
  6
Continuous
 62
     7
370
    25
100
AcDbLine
 10
110.0770640665
 20
73.3842475486
 30
0.0
 11
119.7700101748
 21
73.3842475486
 31
0.0
  0
SPLINE
  5
9B
330
1F
100
AcDbEntity
  8
0
  6
Continuous
 62
     7
370
    25
100
AcDbSpline
210
0.0
220
0.0
230
1.0
 70
     8
 71
     3
 72
    11
 73
     7
 74
     0
 42
0.00000001
 43
0.00000001
 40
0.0
 40
0.0
 40
0.0
 40
0.0
 40
0.2490252138763565
 40
0.4980311639765297
 40
0.7490269204800201
 40
1.0
 40
1.0
 40
1.0
 40
1.0
 10
119.7700101748262
 20
73.38424754861343
 30
0.0
 10
119.8482590476517
 20
73.24360111797904
 30
0.0
 10
120.0047507402256
 20
72.96231913665821
 30
0.0
 10
120.197533628592
 20
72.53384698009519
 30
0.0
 10
120.3565995138269
 20
72.10063696212414
 30
0.0
 10
120.423554692688
 20
71.80824301695574
 30
0.0
 10
120.4570307697324
 20
71.66205264897744
 30
0.0
  0
LINE
  5
9C
330
1F
100
AcDbEntity
  8
0
  6
Continuous
 62
     7
370
    25
100
AcDbLine
 10
122.1735371207
 20
63.5692929724
 30
0.0
 11
122.1735371207
 21
55.5192929724
 31
0.0
  0
LINE
  5
9D
330
1F
100
AcDbEntity
  8
0
  6
Continuous
 62
     7
370
    25
100
AcDbLine
 10
122.1735371207
 20
71.6192929724
 30
0.0
 11
122.1735371207
 21
63.5692929724
 31
0.0
  0
LINE
  5
9E
330
1F
100
AcDbEntity
  8
0
  6
Continuous
 62
     7
370
    25
100
AcDbLine
 10
121.9735371207
 20
63.5692929724
 30
0.0
 11
121.9735371207
 21
71.8192929724
 31
0.0
  0
LINE
  5
9F
330
1F
100
AcDbEntity
  8
0
  6
Continuous
 62
     7
370
    25
100
AcDbLine
 10
121.9735371207
 20
55.3192929724
 30
0.0
 11
121.9735371207
 21
63.5692929724
 31
0.0
  0
SPLINE
  5
A0
330
1F
100
AcDbEntity
  8
0
  6
Continuous
 62
     7
370
    25
100
AcDbSpline
210
0.0
220
0.0
230
1.0
 70
     8
 71
     3
 72
    11
 73
     7
 74
     0
 42
0.00000001
 43
0.00000001
 40
0.0
 40
0.0
 40
0.0
 40
0.0
 40
0.2858113857233992
 40
0.5527245545213819
 40
0.8220275582229517
 40
1.0
 40
1.0
 40
1.0
 40
1.0
 10
121.1065498225707
 20
57.22786740150067
 30
0.0
 10
121.1026095211482
 20
57.06217511543175
 30
0.0
 10
121.094989456108
 20
56.74174633064672
 30
0.0
 10
121.083528366457
 20
56.34168393588268
 30
0.0
 10
121.1009657556987
 20
56.0408997985759
 30
0.0
 10
121.1049603569579
 20
55.88888115467942
 30
0.0
 10
121.1065498225707
 20
55.82839241217548
 30
0.0
  0
SPLINE
  5
A1
330
1F
100
AcDbEntity
  8
0
  6
Continuous
 62
     7
370
    25
100
AcDbSpline
210
0.0
220
0.0
230
1.0
 70
     8
 71
     3
 72
    11
 73
     7
 74
     0
 42
0.00000001
 43
0.00000001
 40
0.0
 40
0.0
 40
0.0
 40
0.0
 40
0.2858113857233212
 40
0.5527245545214222
 40
0.8220275582231134
 40
1.0
 40
1.0
 40
1.0
 40
1.0
 10
121.1065498225707
 20
71.31019353260405
 30
0.0
 10
121.1026095211482
 20
71.21052344002324
 30
0.0
 10
121.094989456108
 20
71.0177735697498
 30
0.0
 10
121.0835283664571
 20
70.64603672893912
 30
0.0
 10
121.1009657556987
 20
70.27760703888147
 30
0.0
 10
121.1049603569579
 20
70.0151507896779
 30
0.0
 10
121.1065498225707
 20
69.91071854327909
 30
0.0
  0
ARC
  5
A2
330
1F
100
AcDbEntity
  8
0
  6
Continuous
 62
     7
370
    25
100
AcDbCircle
 10
121.0980862878
 20
55.0685920279
 30
0.0
 40
0.7598475211238762
100
AcDbArc
 50
89.3617997906
 51
147.5290082717
  0
ARC
  5
A3
330
1F
100
AcDbEntity
  8
0
  6
Continuous
 62
     7
370
    25
100
AcDbCircle
 10
121.0980862878
 20
72.0699939169
 30
0.0
 40
0.7598475211157922
100
AcDbArc
 50
212.4709917279
 51
270.6382002097
  0
LINE
  5
A4
330
1F
100
AcDbEntity
  8
0
  6
Continuous
 62
     7
370
    25
100
AcDbLine
 10
102.9783120618
 20
73.5692929724
 30
0.0
 11
89.4783120624
 21
73.5692929724
 31
0.0
  0
LINE
  5
A5
330
1F
100
AcDbEntity
  8
0
  6
Continuous
 62
     7
370
    25
100
AcDbLine
 10
89.4626322468
 20
73.5695388895
 30
0.0
 11
102.9939918769
 21
73.5695388895
 31
0.0
  0
LINE
  5
A6
330
1F
100
AcDbEntity
  8
0
  6
Continuous
 62
     7
370
    25
100
AcDbLine
 10
89.7723499477
 20
83.4805053186
 30
0.0
 11
102.684274176
 21
83.4805053186
 31
0.0
  0
LINE
  5
A7
330
1F
100
AcDbEntity
  8
0
  6
Continuous
 62
     7
370
    25
100
AcDbLine
 10
106.2283120618
 20
70.1477929724
 30
0.0
 11
106.2283120618
 21
56.9907929724
 31
0.0
  0
LINE
  5
A8
330
1F
100
AcDbEntity
  8
0
  6
Continuous
 62
     7
370
    25
100
AcDbLine
 10
101.4783120618
 20
85.5692929724
 30
0.0
 11
90.9783120618
 21
85.5692929724
 31
0.0
  0
SPLINE
  5
A9
330
1F
100
AcDbEntity
  8
0
  6
Continuous
 62
     7
370
    25
100
AcDbSpline
210
0.0
220
0.0
230
1.0
 70
    24
 71
     3
 72
    14
 73
    10
 74
     0
 42
0.00000001
 43
0.00000001
 40
0.0
 40
0.0
 40
0.0
 40
0.0
 40
0.25
 40
0.25
 40
0.5
 40
0.5
 40
0.75
 40
0.75
 40
1.0
 40
1.0
 40
1.0
 40
1.0
 10
96.22831206184259
 20
70.31929297238979
 30
0.0
 10
96.4268493764316
 20
70.31929297238979
 30
0.0
 10
96.62538810726497
 20
70.31929297238979
 30
0.0
 10
97.0215569435385
 20
70.31929297238979
 30
0.0
 10
97.2191898888598
 20
70.31929297238979
 30
0.0
 10
97.61255631774998
 20
70.31929297238979
 30
0.0
 10
97.80829265840629
 20
70.31929297238979
 30
0.0
 10
98.19670457129808
 20
70.31929297238979
 30
0.0
 10
98.38938301237692
 20
70.31929297238979
 30
0.0
 10
98.57982221491443
 20
70.31929297238979
 30
0.0
  0
SPLINE
  5
AA
330
1F
100
AcDbEntity
  8
0
  6
Continuous
 62
     7
370
    25
100
AcDbSpline
210
0.0
220
0.0
230
1.0
 70
    24
 71
     3
 72
    14
 73
    10
 74
     0
 42
0.00000001
 43
0.00000001
 40
0.0
 40
0.0
 40
0.0
 40
0.0
 40
0.25
 40
0.25
 40
0.5
 40
0.5
 40
0.75
 40
0.75
 40
1.0
 40
1.0
 40
1.0
 40
1.0
 10
96.22831206184259
 20
70.31929297238979
 30
0.0
 10
96.02977474725355
 20
70.31929297238979
 30
0.0
 10
95.83123601642019
 20
70.31929297238979
 30
0.0
 10
95.43506718014666
 20
70.31929297238979
 30
0.0
 10
95.23743423482534
 20
70.31929297238979
 30
0.0
 10
94.84406780593517
 20
70.31929297238979
 30
0.0
 10
94.64833146527887
 20
70.31929297238979
 30
0.0
 10
94.25991955238707
 20
70.31929297238979
 30
0.0
 10
94.06724111130823
 20
70.31929297238979
 30
0.0
 10
93.87680190877072
 20
70.31929297238979
 30
0.0
  0
LINE
  5
AB
330
1F
100
AcDbEntity
  8
0
  6
Continuous
 62
     7
370
    25
100
AcDbLine
 10
91.6683120618
 20
70.3192929724
 30
0.0
 11
93.8768019088
 21
70.3192929724
 31
0.0
  0
SPLINE
  5
AC
330
1F
100
AcDbEntity
  8
0
  6
Continuous
 62
     7
370
    25
100
AcDbSpline
210
0.0
220
0.0
230
1.0
 70
     8
 71
     3
 72
    14
 73
    10
 74
     0
 42
0.00000001
 43
0.00000001
 40
0.0
 40
0.0
 40
0.0
 40
0.0
 40
0.25
 40
0.25
 40
0.5
 40
0.5
 40
0.75
 40
0.75
 40
1.0
 40
1.0
 40
1.0
 40
1.0
 10
91.66831206184258
 20
70.31929297238979
 30
0.0
 10
91.61215882151174
 20
70.31929297238977
 30
0.0
 10
91.5584052291932
 20
70.30933966583726
 30
0.0
 10
91.45528182078372
 20
70.27096805002127
 30
0.0
 10
91.40610384477607
 20
70.24242911804811
 30
0.0
 10
91.3169393324503
 20
70.16524157076799
 30
0.0
 10
91.27569066817844
 20
70.11581288558007
 30
0.0
 10
91.21130331517642
 20
69.988304398403
 30
0.0
 10
91.18831206184258
 20
69.90668818834887
 30
0.0
 10
91.18831206184258
 20
69.81929297238979
 30
0.0
  0
LINE
  5
AD
330
1F
100
AcDbEntity
  8
0
  6
Continuous
 62
     7
370
    25
100
AcDbLine
 10
91.1883120618
 20
60.5692929724
 30
0.0
 11
91.1883120618
 21
69.8192929724
 31
0.0
  0
SPLINE
  5
AE
330
1F
100
AcDbEntity
  8
0
  6
Continuous
 62
     7
370
    25
100
AcDbSpline
210
0.0
220
0.0
230
1.0
 70
     8
 71
     3
 72
     8
 73
     4
 74
     0
 42
0.00000001
 43
0.00000001
 40
0.0
 40
0.0
 40
0.0
 40
0.0
 40
1.0
 40
1.0
 40
1.0
 40
1.0
 10
91.21358087939785
 20
60.22613885075996
 30
0.0
 10
91.19693288497277
 20
60.33851481470553
 30
0.0
 10
91.18831206184258
 20
60.45282638516758
 30
0.0
 10
91.18831206184258
 20
60.56929297238977
 30
0.0
  0
LINE
  5
AF
330
1F
100
AcDbEntity
  8
0
  6
Continuous
 62
     7
370
    25
100
AcDbLine
 10
101.5980458247
 20
68.9390267353
 30
0.0
 11
102.2283120618
 21
69.5692929724
 31
0.0
  0
SPLINE
  5
B0
330
1F
100
AcDbEntity
  8
0
  6
Continuous
 62
     7
370
    25
100
AcDbSpline
210
0.0
220
0.0
230
1.0
 70
     8
 71
     3
 72
    12
 73
     8
 74
     0
 42
0.00000001
 43
0.00000001
 40
0.0
 40
0.0
 40
0.0
 40
0.0
 40
0.2499999999999999
 40
0.2499999999999999
 40
0.4999999999999998
 40
0.4999999999999998
 40
1.0
 40
1.0
 40
1.0
 40
1.0
 10
101.2683120618426
 20
69.56929297238979
 30
0.0
 10
101.2683120618426
 20
69.48647402417531
 30
0.0
 10
101.281961668687
 20
69.40603371535163
 30
0.0
 10
101.3264830939503
 20
69.26474619378651
 30
0.0
 10
101.356410225303
 20
69.20458647406147
 30
0.0
 10
101.4545783255692
 20
69.0511131210095
 30
0.0
 10
101.5280216303318
 20
68.98607488979953
 30
0.0
 10
101.5980458247042
 20
68.9390267352511
 30
0.0
  0
LINE
  5
B1
330
1F
100
AcDbEntity
  8
0
  6
Continuous
 62
     7
370
    25
100
AcDbLine
 10
101.2683120618
 20
69.8192929724
 30
0.0
 11
101.2683120618
 21
69.5692929724
 31
0.0
  0
SPLINE
  5
B2
330
1F
100
AcDbEntity
  8
0
  6
Continuous
 62
     7
370
    25
100
AcDbSpline
210
0.0
220
0.0
230
1.0
 70
     8
 71
     3
 72
    14
 73
    10
 74
     0
 42
0.00000001
 43
0.00000001
 40
0.0
 40
0.0
 40
0.0
 40
0.0
 40
0.25
 40
0.25
 40
0.5
 40
0.5
 40
0.75
 40
0.75
 40
1.0
 40
1.0
 40
1.0
 40
1.0
 10
101.2683120618426
 20
69.81929297238979
 30
0.0
 10
101.2683120618426
 20
69.90661100139617
 30
0.0
 10
101.2453592630561
 20
69.98823910921776
 30
0.0
 10
101.1808636638945
 20
70.1159402273512
 30
0.0
 10
101.1396311770882
 20
70.16533102017678
 30
0.0
 10
101.0501693371191
 20
70.2426896877348
 30
0.0
 10
101.0006944997589
 20
70.27125849730668
 30
0.0
 10
100.8981222418267
 20
70.30932586627378
 30
0.0
 10
100.8445124805455
 20
70.31929297238979
 30
0.0
 10
100.7883120618426
 20
70.31929297238979
 30
0.0
  0
LINE
  5
B3
330
1F
100
AcDbEntity
  8
0
  6
Continuous
 62
     7
370
    25
100
AcDbLine
 10
98.5798222149
 20
70.3192929724
 30
0.0
 11
100.7883120618
 21
70.3192929724
 31
0.0
  0
SPLINE
  5
B4
330
1F
100
AcDbEntity
  8
0
  6
Continuous
 62
     7
370
    25
100
AcDbSpline
210
0.0
220
0.0
230
1.0
 70
     8
 71
     3
 72
     8
 73
     4
 74
     0
 42
0.00000001
 43
0.00000001
 40
0.0
 40
0.0
 40
0.0
 40
0.0
 40
1.0
 40
1.0
 40
1.0
 40
1.0
 10
93.22831206184259
 20
58.52929297238978
 30
0.0
 10
93.11184547462038
 20
58.52929297238978
 30
0.0
 10
92.99753390415833
 20
58.53791379551998
 30
0.0
 10
92.88515794021276
 20
58.55456178994505
 30
0.0
  0
LINE
  5
B5
330
1F
100
AcDbEntity
  8
0
  6
Continuous
 62
     7
370
    25
100
AcDbLine
 10
102.4783120618
 20
58.5292929724
 30
0.0
 11
93.2283120618
 21
58.5292929724
 31
0.0
  0
SPLINE
  5
B6
330
1F
100
AcDbEntity
  8
0
  6
Continuous
 62
     7
370
    25
100
AcDbSpline
210
0.0
220
0.0
230
1.0
 70
     8
 71
     3
 72
    14
 73
    10
 74
     0
 42
0.00000001
 43
0.00000001
 40
0.0
 40
0.0
 40
0.0
 40
0.0
 40
0.25
 40
0.25
 40
0.5
 40
0.5
 40
0.75
 40
0.75
 40
1.0
 40
1.0
 40
1.0
 40
1.0
 10
102.4783120618426
 20
58.52929297238978
 30
0.0
 10
102.565630090849
 20
58.52929297238978
 30
0.0
 10
102.6472581986706
 20
58.55224577117622
 30
0.0
 10
102.774959316804
 20
58.61674137033791
 30
0.0
 10
102.8243501096296
 20
58.65797385714419
 30
0.0
 10
102.9017087771876
 20
58.74743569711326
 30
0.0
 10
102.9302775867595
 20
58.79691053447344
 30
0.0
 10
102.9683449557266
 20
58.89948279240561
 30
0.0
 10
102.9783120618426
 20
58.9530925536869
 30
0.0
 10
102.9783120618426
 20
59.00929297238978
 30
0.0
  0
LINE
  5
B7
330
1F
100
AcDbEntity
  8
0
  6
Continuous
 62
     7
370
    25
100
AcDbLine
 10
102.9783120618
 20
61.2177828193
 30
0.0
 11
102.9783120618
 21
59.0092929724
 31
0.0
  0
SPLINE
  5
B8
330
1F
100
AcDbEntity
  8
0
  6
Continuous
 62
     7
370
    25
100
AcDbSpline
210
0.0
220
0.0
230
1.0
 70
    24
 71
     3
 72
    14
 73
    10
 74
     0
 42
0.00000001
 43
0.00000001
 40
0.0
 40
0.0
 40
0.0
 40
0.0
 40
0.25
 40
0.25
 40
0.5
 40
0.5
 40
0.75
 40
0.75
 40
1.0
 40
1.0
 40
1.0
 40
1.0
 10
102.9783120618426
 20
63.56929297238978
 30
0.0
 10
102.9783120618426
 20
63.37075565780076
 30
0.0
 10
102.9783120618426
 20
63.17221692696739
 30
0.0
 10
102.9783120618426
 20
62.77604809069386
 30
0.0
 10
102.9783120618426
 20
62.57841514537255
 30
0.0
 10
102.9783120618426
 20
62.18504871648237
 30
0.0
 10
102.9783120618426
 20
61.98931237582607
 30
0.0
 10
102.9783120618426
 20
61.60090046293428
 30
0.0
 10
102.9783120618426
 20
61.40822202185543
 30
0.0
 10
102.9783120618426
 20
61.21778281931793
 30
0.0
  0
SPLINE
  5
B9
330
1F
100
AcDbEntity
  8
0
  6
Continuous
 62
     7
370
    25
100
AcDbSpline
210
0.0
220
0.0
230
1.0
 70
    24
 71
     3
 72
    14
 73
    10
 74
     0
 42
0.00000001
 43
0.00000001
 40
0.0
 40
0.0
 40
0.0
 40
0.0
 40
0.25
 40
0.25
 40
0.5
 40
0.5
 40
0.75
 40
0.75
 40
1.0
 40
1.0
 40
1.0
 40
1.0
 10
102.9783120618426
 20
63.56929297238978
 30
0.0
 10
102.9783120618426
 20
63.7678302869788
 30
0.0
 10
102.9783120618426
 20
63.96636901781216
 30
0.0
 10
102.9783120618426
 20
64.3625378540857
 30
0.0
 10
102.9783120618426
 20
64.56017079940702
 30
0.0
 10
102.9783120618426
 20
64.9535372282972
 30
0.0
 10
102.9783120618426
 20
65.14927356895349
 30
0.0
 10
102.9783120618426
 20
65.53768548184529
 30
0.0
 10
102.9783120618426
 20
65.73036392292413
 30
0.0
 10
102.9783120618426
 20
65.92080312546165
 30
0.0
  0
LINE
  5
BA
330
1F
100
AcDbEntity
  8
0
  6
Continuous
 62
     7
370
    25
100
AcDbLine
 10
102.9783120618
 20
68.1292929724
 30
0.0
 11
102.9783120618
 21
65.9208031255
 31
0.0
  0
SPLINE
  5
BB
330
1F
100
AcDbEntity
  8
0
  6
Continuous
 62
     7
370
    25
100
AcDbSpline
210
0.0
220
0.0
230
1.0
 70
     8
 71
     3
 72
    14
 73
    10
 74
     0
 42
0.00000001
 43
0.00000001
 40
0.0
 40
0.0
 40
0.0
 40
0.0
 40
0.25
 40
0.25
 40
0.5
 40
0.5
 40
0.75
 40
0.75
 40
1.0
 40
1.0
 40
1.0
 40
1.0
 10
102.9783120618426
 20
68.12929297238978
 30
0.0
 10
102.9783120618426
 20
68.18544621272062
 30
0.0
 10
102.9683587552901
 20
68.23919980503916
 30
0.0
 10
102.9299871394741
 20
68.34232321344865
 30
0.0
 10
102.9014482075009
 20
68.39150118945628
 30
0.0
 10
102.8242606602208
 20
68.48066570178206
 30
0.0
 10
102.7748319750329
 20
68.52191436605392
 30
0.0
 10
102.6473234878558
 20
68.58630171905594
 30
0.0
 10
102.5657072778017
 20
68.60929297238978
 30
0.0
 10
102.4783120618426
 20
68.60929297238978
 30
0.0
  0
LINE
  5
BC
330
1F
100
AcDbEntity
  8
0
  6
Continuous
 62
     7
370
    25
100
AcDbLine
 10
102.2283120618
 20
68.6092929724
 30
0.0
 11
102.4783120618
 21
68.6092929724
 31
0.0
  0
SPLINE
  5
BD
330
1F
100
AcDbEntity
  8
0
  6
Continuous
 62
     7
370
    25
100
AcDbSpline
210
0.0
220
0.0
230
1.0
 70
     8
 71
     3
 72
    12
 73
     8
 74
     0
 42
0.00000001
 43
0.00000001
 40
0.0
 40
0.0
 40
0.0
 40
0.0
 40
0.5000000000000009
 40
0.5000000000000009
 40
0.7500000000000004
 40
0.7500000000000004
 40
1.0
 40
1.0
 40
1.0
 40
1.0
 10
101.5980458247042
 20
68.93902673525145
 30
0.0
 10
101.6450939792527
 20
68.86900254087911
 30
0.0
 10
101.7101322104623
 20
68.79555923611639
 30
0.0
 10
101.8636055635143
 20
68.6973911358502
 30
0.0
 10
101.9237652832393
 20
68.66746400449748
 30
0.0
 10
102.0650528048044
 20
68.6229425792342
 30
0.0
 10
102.1454931136281
 20
68.60929297238978
 30
0.0
 10
102.2283120618426
 20
68.60929297238978
 30
0.0
  0
LINE
  5
BE
330
1F
100
AcDbEntity
  8
0
  6
Continuous
 62
     7
370
    25
100
AcDbLine
 10
102.7283120618
 20
68.3192929724
 30
0.0
 11
102.7283120618
 21
66.0187827152
 31
0.0
  0
SPLINE
  5
BF
330
1F
100
AcDbEntity
  8
0
  6
Continuous
 62
     7
370
    25
100
AcDbSpline
210
0.0
220
0.0
230
1.0
 70
     8
 71
     3
 72
    12
 73
     8
 74
     0
 42
0.00000001
 43
0.00000001
 40
0.0
 40
0.0
 40
0.0
 40
0.0
 40
0.25
 40
0.25
 40
0.5
 40
0.5
 40
1.0
 40
1.0
 40
1.0
 40
1.0
 10
102.6550887571384
 20
66.00452662536063
 30
0.0
 10
102.6693029025673
 20
66.00273117816057
 30
0.0
 10
102.6809864318257
 20
66.00070391835379
 30
0.0
 10
102.7000461059936
 20
65.99765228794351
 30
0.0
 10
102.707422250903
 20
65.99662791734
 30
0.0
 10
102.7242203810954
 20
65.99725891095957
 30
0.0
 10
102.7283120618426
 20
66.0026183806127
 30
0.0
 10
102.7283120618426
 20
66.01878271517296
 30
0.0
  0
SPLINE
  5
C0
330
1F
100
AcDbEntity
  8
0
  6
Continuous
 62
     7
370
    25
100
AcDbSpline
210
0.0
220
0.0
230
1.0
 70
     8
 71
     3
 72
    10
 73
     6
 74
     0
 42
0.00000001
 43
0.00000001
 40
0.0
 40
0.0
 40
0.0
 40
0.0
 40
0.5
 40
0.5
 40
1.0
 40
1.0
 40
1.0
 40
1.0
 10
102.6550887571384
 20
66.00452662536063
 30
0.0
 10
102.6266604662807
 20
66.00811751976072
 30
0.0
 10
102.5937265378439
 20
66.01168154221381
 30
0.0
 10
102.530812581012
 20
66.01701413991992
 30
0.0
 10
102.5008325526169
 20
66.01878271517296
 30
0.0
 10
102.4783120618426
 20
66.01878271517296
 30
0.0
  0
LINE
  5
C1
330
1F
100
AcDbEntity
  8
0
  6
Continuous
 62
     7
370
    25
100
AcDbLine
 10
102.4783120618
 20
66.0187827152
 30
0.0
 11
102.4783120618
 21
68.3192929724
 31
0.0
  0
LINE
  5
C2
330
1F
100
AcDbEntity
  8
0
  6
Continuous
 62
     7
370
    25
100
AcDbLine
 10
102.7283120618
 20
68.3192929724
 30
0.0
 11
102.4783120618
 21
68.3192929724
 31
0.0
  0
LINE
  5
C3
330
1F
100
AcDbEntity
  8
0
  6
Continuous
 62
     7
370
    25
100
AcDbLine
 10
100.9783120618
 20
69.8192929724
 30
0.0
 11
98.6778018046
 21
69.8192929724
 31
0.0
  0
LINE
  5
C4
330
1F
100
AcDbEntity
  8
0
  6
Continuous
 62
     7
370
    25
100
AcDbLine
 10
100.9783120618
 20
69.5692929724
 30
0.0
 11
100.9783120618
 21
69.8192929724
 31
0.0
  0
ARC
  5
C5
330
1F
100
AcDbEntity
  8
0
  6
Continuous
 62
     7
370
    25
100
AcDbCircle
 10
102.2283120618
 20
69.5692929724
 30
0.0
 40
1.25
100
AcDbArc
 50
180.0
 51
270.0
  0
LINE
  5
C6
330
1F
100
AcDbEntity
  8
0
  6
Continuous
 62
     7
370
    25
100
AcDbLine
 10
102.4783120618
 20
68.3192929724
 30
0.0
 11
102.2283120618
 21
68.3192929724
 31
0.0
  0
LINE
  5
C7
330
1F
100
AcDbEntity
  8
0
  6
Continuous
 62
     7
370
    25
100
AcDbLine
 10
102.4783120618
 20
66.0187827152
 30
0.0
 11
102.4783120618
 21
63.5692929724
 31
0.0
  0
LINE
  5
C8
330
1F
100
AcDbEntity
  8
0
  6
Continuous
 62
     7
370
    25
100
AcDbLine
 10
102.4783120618
 20
63.5692929724
 30
0.0
 11
102.4783120618
 21
61.1198032296
 31
0.0
  0
LINE
  5
C9
330
1F
100
AcDbEntity
  8
0
  6
Continuous
 62
     7
370
    25
100
AcDbLine
 10
102.4783120618
 20
58.8192929724
 30
0.0
 11
102.4783120618
 21
61.1198032296
 31
0.0
  0
LINE
  5
CA
330
1F
100
AcDbEntity
  8
0
  6
Continuous
 62
     7
370
    25
100
AcDbLine
 10
93.2283120618
 20
58.8192929724
 30
0.0
 11
102.4783120618
 21
58.8192929724
 31
0.0
  0
ARC
  5
CB
330
1F
100
AcDbEntity
  8
0
  6
Continuous
 62
     7
370
    25
100
AcDbCircle
 10
93.2283120618
 20
60.5692929724
 30
0.0
 40
1.750000000000014
100
AcDbArc
 50
180.0
 51
270.0
  0
LINE
  5
CC
330
1F
100
AcDbEntity
  8
0
  6
Continuous
 62
     7
370
    25
100
AcDbLine
 10
91.4783120618
 20
69.8192929724
 30
0.0
 11
91.4783120618
 21
60.5692929724
 31
0.0
  0
LINE
  5
CD
330
1F
100
AcDbEntity
  8
0
  6
Continuous
 62
     7
370
    25
100
AcDbLine
 10
93.7788223191
 20
69.8192929724
 30
0.0
 11
91.4783120618
 21
69.8192929724
 31
0.0
  0
LINE
  5
CE
330
1F
100
AcDbEntity
  8
0
  6
Continuous
 62
     7
370
    25
100
AcDbLine
 10
93.7788223191
 20
69.8192929724
 30
0.0
 11
96.2283120618
 21
69.8192929724
 31
0.0
  0
LINE
  5
CF
330
1F
100
AcDbEntity
  8
0
  6
Continuous
 62
     7
370
    25
100
AcDbLine
 10
96.2283120618
 20
69.8192929724
 30
0.0
 11
98.6778018046
 21
69.8192929724
 31
0.0
  0
SPLINE
  5
D0
330
1F
100
AcDbEntity
  8
0
  6
Continuous
 62
     7
370
    25
100
AcDbSpline
210
0.0
220
0.0
230
1.0
 70
     8
 71
     3
 72
    14
 73
    10
 74
     0
 42
0.00000001
 43
0.00000001
 40
0.0
 40
0.0
 40
0.0
 40
0.0
 40
0.25
 40
0.25
 40
0.5
 40
0.5
 40
0.75
 40
0.75
 40
1.0
 40
1.0
 40
1.0
 40
1.0
 10
98.93517505920491
 20
63.84994027633336
 30
0.0
 10
98.99200104871585
 20
63.97331715398067
 30
0.0
 10
99.08460016639862
 20
64.07660537012046
 30
0.0
 10
99.31437428140512
 20
64.2197051933865
 30
0.0
 10
99.44789905236419
 20
64.2573902559255
 30
0.0
 10
99.71935928189934
 20
64.25715113102524
 30
0.0
 10
99.8527339257378
 20
64.21898667248857
 30
0.0
 10
100.0801614926482
 20
64.0773658093339
 30
0.0
 10
100.173962797413
 20
63.9733274516427
 30
0.0
 10
100.2307935299101
 20
63.8499402763339
 30
0.0
  0
LINE
  5
D1
330
1F
100
AcDbEntity
  8
0
  6
Continuous
 62
     7
370
    25
100
AcDbLine
 10
98.043380684
 20
61.3565224962
 30
0.0
 11
98.9351750592
 21
63.8499402763
 31
0.0
  0
SPLINE
  5
D2
330
1F
100
AcDbEntity
  8
0
  6
Continuous
 62
     7
370
    25
100
AcDbSpline
210
0.0
220
0.0
230
1.0
 70
     8
 71
     3
 72
    10
 73
     6
 74
     0
 42
0.00000001
 43
0.00000001
 40
0.0
 40
0.0
 40
0.0
 40
0.0
 40
0.5
 40
0.5
 40
1.0
 40
1.0
 40
1.0
 40
1.0
 10
97.70762240237345
 20
61.24370594344346
 30
0.0
 10
97.76670628215925
 20
61.21119142814423
 30
0.0
 10
97.83791765200453
 20
61.20508657129831
 30
0.0
 10
97.96493831076647
 20
61.24528698232403
 30
0.0
 10
98.02062755831228
 20
61.29290575931095
 30
0.0
 10
98.04338068398533
 20
61.35652249617797
 30
0.0
  0
LINE
  5
D3
330
1F
100
AcDbEntity
  8
0
  6
Continuous
 62
     7
370
    25
100
AcDbLine
 10
96.9434213064
 20
61.6642542946
 30
0.0
 11
97.7076224024
 21
61.2437059434
 31
0.0
  0
LINE
  5
D4
330
1F
100
AcDbEntity
  8
0
  6
Continuous
 62
     7
370
    25
100
AcDbLine
 10
97.890591785
 20
59.8586313911
 30
0.0
 11
96.9434213064
 21
61.6642542946
 31
0.0
  0
SPLINE
  5
D5
330
1F
100
AcDbEntity
  8
0
  6
Continuous
 62
     7
370
    25
100
AcDbSpline
210
0.0
220
0.0
230
1.0
 70
     8
 71
     3
 72
    10
 73
     6
 74
     0
 42
0.00000001
 43
0.00000001
 40
0.0
 40
0.0
 40
0.0
 40
0.0
 40
0.5000000000000006
 40
0.5000000000000006
 40
1.0
 40
1.0
 40
1.0
 40
1.0
 10
98.37213277959623
 20
59.77157753659171
 30
0.0
 10
98.30130653226936
 20
59.70871210913352
 30
0.0
 10
98.20243258491445
 20
59.68168377580623
 30
0.0
 10
98.01831116220283
 20
59.71463450410426
 30
0.0
 10
97.93458684817666
 20
59.77476212410696
 30
0.0
 10
97.89059178496768
 20
59.8586313911197
 30
0.0
  0
SPLINE
  5
D6
330
1F
100
AcDbEntity
  8
0
  6
Continuous
 62
     7
370
    25
100
AcDbSpline
210
0.0
220
0.0
230
1.0
 70
     8
 71
     3
 72
    14
 73
    10
 74
     0
 42
0.00000001
 43
0.00000001
 40
0.0
 40
0.0
 40
0.0
 40
0.0
 40
0.2500000000000001
 40
0.2500000000000001
 40
0.3750000000000003
 40
0.3750000000000003
 40
0.5000000000000004
 40
0.5000000000000004
 40
1.0
 40
1.0
 40
1.0
 40
1.0
 10
100.7938358095194
 20
59.77157753659137
 30
0.0
 10
100.6275355878134
 20
59.91918573155419
 30
0.0
 10
100.4373648530235
 20
60.03190343030796
 30
0.0
 10
100.1262879912361
 20
60.14755001487139
 30
0.0
 10
100.0203894917098
 20
60.17631997608068
 30
0.0
 10
99.80435065437351
 20
60.21505821092244
 30
0.0
 10
99.6931033177386
 20
60.22496498456527
 30
0.0
 10
99.14213292910658
 20
60.22494286556682
 30
0.0
 10
98.70469590061157
 20
60.06676079913138
 30
0.0
 10
98.37213277959623
 20
59.77157753659171
 30
0.0
  0
SPLINE
  5
D7
330
1F
100
AcDbEntity
  8
0
  6
Continuous
 62
     7
370
    25
100
AcDbSpline
210
0.0
220
0.0
230
1.0
 70
     8
 71
     3
 72
    10
 73
     6
 74
     0
 42
0.00000001
 43
0.00000001
 40
0.0
 40
0.0
 40
0.0
 40
0.0
 40
0.5
 40
0.5
 40
1.0
 40
1.0
 40
1.0
 40
1.0
 10
101.2753768041477
 20
59.85863139111971
 30
0.0
 10
101.231384794097
 20
59.77476794444515
 30
0.0
 10
101.1481307755932
 20
59.71485685162595
 30
0.0
 10
100.9639508926495
 20
59.68162105101878
 30
0.0
 10
100.8646537406781
 20
59.70871949057027
 30
0.0
 10
100.7938358095195
 20
59.77157753659142
 30
0.0
  0
LINE
  5
D8
330
1F
100
AcDbEntity
  8
0
  6
Continuous
 62
     7
370
    25
100
AcDbLine
 10
102.2341068923
 20
61.6862907668
 30
0.0
 11
101.2753768041
 21
59.8586313911
 31
0.0
  0
LINE
  5
D9
330
1F
100
AcDbEntity
  8
0
  6
Continuous
 62
     7
370
    25
100
AcDbLine
 10
101.4618375505
 20
61.2449694731
 30
0.0
 11
102.2341068923
 21
61.6862907668
 31
0.0
  0
SPLINE
  5
DA
330
1F
100
AcDbEntity
  8
0
  6
Continuous
 62
     7
370
    25
100
AcDbSpline
210
0.0
220
0.0
230
1.0
 70
     8
 71
     3
 72
    10
 73
     6
 74
     0
 42
0.00000001
 43
0.00000001
 40
0.0
 40
0.0
 40
0.0
 40
0.0
 40
0.5
 40
0.5
 40
1.0
 40
1.0
 40
1.0
 40
1.0
 10
101.1227948095712
 20
61.35594400047433
 30
0.0
 10
101.145710930985
 20
61.29187153469823
 30
0.0
 10
101.201838581799
 20
61.24402996347878
 30
0.0
 10
101.3309202245677
 20
61.20416617160154
 30
0.0
 10
101.402871389272
 20
61.21127265112886
 30
0.0
 10
101.4618375504823
 20
61.24496947312979
 30
0.0
  0
LINE
  5
DB
330
1F
100
AcDbEntity
  8
0
  6
Continuous
 62
     7
370
    25
100
AcDbLine
 10
100.2307935299
 20
63.8499402763
 30
0.0
 11
101.1227948096
 21
61.3559440005
 31
0.0
  0
SPLINE
  5
DC
330
1F
100
AcDbEntity
  8
0
  6
Continuous
 62
     7
370
    25
100
AcDbSpline
210
0.0
220
0.0
230
1.0
 70
     8
 71
     3
 72
    12
 73
     8
 74
     0
 42
0.00000001
 43
0.00000001
 40
0.0
 40
0.0
 40
0.0
 40
0.0
 40
0.25
 40
0.25
 40
0.5
 40
0.5
 40
1.0
 40
1.0
 40
1.0
 40
1.0
 10
102.6550887571384
 20
61.13405931941893
 30
0.0
 10
102.6693029025673
 20
61.13585476661898
 30
0.0
 10
102.6809864318257
 20
61.13788202642577
 30
0.0
 10
102.7000461059936
 20
61.14093365683605
 30
0.0
 10
102.707422250903
 20
61.14195802743955
 30
0.0
 10
102.7242203810954
 20
61.14132703381998
 30
0.0
 10
102.7283120618426
 20
61.13596756416686
 30
0.0
 10
102.7283120618426
 20
61.1198032296066
 30
0.0
  0
LINE
  5
DD
330
1F
100
AcDbEntity
  8
0
  6
Continuous
 62
     7
370
    25
100
AcDbLine
 10
102.7283120618
 20
61.1198032296
 30
0.0
 11
102.7283120618
 21
58.8192929724
 31
0.0
  0
LINE
  5
DE
330
1F
100
AcDbEntity
  8
0
  6
Continuous
 62
     7
370
    25
100
AcDbLine
 10
102.7283120618
 20
58.8192929724
 30
0.0
 11
102.4783120618
 21
58.8192929724
 31
0.0
  0
SPLINE
  5
DF
330
1F
100
AcDbEntity
  8
0
  6
Continuous
 62
     7
370
    25
100
AcDbSpline
210
0.0
220
0.0
230
1.0
 70
     8
 71
     3
 72
    10
 73
     6
 74
     0
 42
0.00000001
 43
0.00000001
 40
0.0
 40
0.0
 40
0.0
 40
0.0
 40
0.5
 40
0.5
 40
1.0
 40
1.0
 40
1.0
 40
1.0
 10
102.6550887571384
 20
61.13405931941893
 30
0.0
 10
102.6266604662807
 20
61.13046842501884
 30
0.0
 10
102.5937265378439
 20
61.12690440256576
 30
0.0
 10
102.530812581012
 20
61.12157180485963
 30
0.0
 10
102.5008325526169
 20
61.1198032296066
 30
0.0
 10
102.4783120618426
 20
61.1198032296066
 30
0.0
  0
SPLINE
  5
E0
330
1F
100
AcDbEntity
  8
0
  6
Continuous
 62
     7
370
    25
100
AcDbSpline
210
0.0
220
0.0
230
1.0
 70
     8
 71
     3
 72
    10
 73
     6
 74
     0
 42
0.00000001
 43
0.00000001
 40
0.0
 40
0.0
 40
0.0
 40
0.0
 40
0.5
 40
0.5
 40
1.0
 40
1.0
 40
1.0
 40
1.0
 10
98.66354571481342
 20
69.99606966768562
 30
0.0
 10
98.66713660921351
 20
69.9676413768279
 30
0.0
 10
98.6707006316666
 20
69.93470744839108
 30
0.0
 10
98.67603322937272
 20
69.87179349155919
 30
0.0
 10
98.67780180462576
 20
69.84181346316407
 30
0.0
 10
98.67780180462576
 20
69.81929297238979
 30
0.0
  0
SPLINE
  5
E1
330
1F
100
AcDbEntity
  8
0
  6
Continuous
 62
     7
370
    25
100
AcDbSpline
210
0.0
220
0.0
230
1.0
 70
     8
 71
     3
 72
    12
 73
     8
 74
     0
 42
0.00000001
 43
0.00000001
 40
0.0
 40
0.0
 40
0.0
 40
0.0
 40
0.25
 40
0.25
 40
0.5
 40
0.5
 40
1.0
 40
1.0
 40
1.0
 40
1.0
 10
98.66354571481342
 20
69.99606966768562
 30
0.0
 10
98.66175026761339
 20
70.0102838131145
 30
0.0
 10
98.65972300780659
 20
70.02196734237295
 30
0.0
 10
98.65667137739631
 20
70.0410270165408
 30
0.0
 10
98.6556470067928
 20
70.04840316145021
 30
0.0
 10
98.65627800041239
 20
70.06520129164261
 30
0.0
 10
98.6616374700655
 20
70.06929297238979
 30
0.0
 10
98.67780180462576
 20
70.06929297238979
 30
0.0
  0
LINE
  5
E2
330
1F
100
AcDbEntity
  8
0
  6
Continuous
 62
     7
370
    25
100
AcDbLine
 10
98.6778018046
 20
70.0692929724
 30
0.0
 11
100.9783120618
 21
70.0692929724
 31
0.0
  0
LINE
  5
E3
330
1F
100
AcDbEntity
  8
0
  6
Continuous
 62
     7
370
    25
100
AcDbLine
 10
100.9783120618
 20
69.8192929724
 30
0.0
 11
100.9783120618
 21
70.0692929724
 31
0.0
  0
LINE
  5
E4
330
1F
100
AcDbEntity
  8
0
  6
Continuous
 62
     7
370
    25
100
AcDbLine
 10
91.4783120618
 20
70.0692929724
 30
0.0
 11
93.7788223191
 21
70.0692929724
 31
0.0
  0
SPLINE
  5
E5
330
1F
100
AcDbEntity
  8
0
  6
Continuous
 62
     7
370
    25
100
AcDbSpline
210
0.0
220
0.0
230
1.0
 70
     8
 71
     3
 72
    12
 73
     8
 74
     0
 42
0.00000001
 43
0.00000001
 40
0.0
 40
0.0
 40
0.0
 40
0.0
 40
0.25
 40
0.25
 40
0.5
 40
0.5
 40
1.0
 40
1.0
 40
1.0
 40
1.0
 10
93.79307840887174
 20
69.99606966768562
 30
0.0
 10
93.79487385607179
 20
70.0102838131145
 30
0.0
 10
93.79690111587857
 20
70.02196734237295
 30
0.0
 10
93.79995274628885
 20
70.0410270165408
 30
0.0
 10
93.80097711689235
 20
70.04840316145021
 30
0.0
 10
93.80034612327279
 20
70.06520129164261
 30
0.0
 10
93.79498665361966
 20
70.06929297238979
 30
0.0
 10
93.7788223190594
 20
70.06929297238979
 30
0.0
  0
SPLINE
  5
E6
330
1F
100
AcDbEntity
  8
0
  6
Continuous
 62
     7
370
    25
100
AcDbSpline
210
0.0
220
0.0
230
1.0
 70
     8
 71
     3
 72
    10
 73
     6
 74
     0
 42
0.00000001
 43
0.00000001
 40
0.0
 40
0.0
 40
0.0
 40
0.0
 40
0.5
 40
0.5
 40
1.0
 40
1.0
 40
1.0
 40
1.0
 10
93.79307840887174
 20
69.99606966768562
 30
0.0
 10
93.78948751447163
 20
69.9676413768279
 30
0.0
 10
93.78592349201855
 20
69.93470744839108
 30
0.0
 10
93.78059089431243
 20
69.87179349155919
 30
0.0
 10
93.7788223190594
 20
69.84181346316407
 30
0.0
 10
93.7788223190594
 20
69.81929297238979
 30
0.0
  0
LINE
  5
E7
330
1F
100
AcDbEntity
  8
0
  6
Continuous
 62
     7
370
    25
100
AcDbLine
 10
91.4783120618
 20
69.8192929724
 30
0.0
 11
91.4783120618
 21
70.0692929724
 31
0.0
  0
SPLINE
  5
E8
330
1F
100
AcDbEntity
  8
0
  6
Continuous
 62
     7
370
    25
100
AcDbSpline
210
0.0
220
0.0
230
1.0
 70
     8
 71
     3
 72
    12
 73
     8
 74
     0
 42
0.00000001
 43
0.00000001
 40
0.0
 40
0.0
 40
0.0
 40
0.0
 40
0.25
 40
0.25
 40
0.5
 40
0.5
 40
1.0
 40
1.0
 40
1.0
 40
1.0
 10
102.7303196621323
 20
63.56929297238978
 30
0.0
 10
102.7200562028431
 20
63.36708554996949
 30
0.0
 10
102.7124774230464
 20
63.16519872586504
 30
0.0
 10
102.6980639675973
 20
62.75982153871681
 30
0.0
 10
102.691229291945
 20
62.55633117567305
 30
0.0
 10
102.6649035389446
 20
61.94008767477619
 30
0.0
 10
102.6552365875836
 20
61.54009614891243
 30
0.0
 10
102.6550887571384
 20
61.13405931941893
 30
0.0
  0
SPLINE
  5
E9
330
1F
100
AcDbEntity
  8
0
  6
Continuous
 62
     7
370
    25
100
AcDbSpline
210
0.0
220
0.0
230
1.0
 70
    24
 71
     3
 72
    10
 73
     6
 74
     0
 42
0.00000001
 43
0.00000001
 40
0.0
 40
0.0
 40
0.0
 40
0.0
 40
0.5
 40
0.5
 40
1.0
 40
1.0
 40
1.0
 40
1.0
 10
102.7303196621323
 20
63.56929297238978
 30
0.0
 10
102.6892658249757
 20
63.56929297238978
 30
0.0
 10
102.6451914726627
 20
63.56929297238978
 30
0.0
 10
102.5538402031508
 20
63.56929297238978
 30
0.0
 10
102.5210904216538
 20
63.56929297238978
 30
0.0
 10
102.4783120618426
 20
63.56929297238978
 30
0.0
  0
SPLINE
  5
EA
330
1F
100
AcDbEntity
  8
0
  6
Continuous
 62
     7
370
    25
100
AcDbSpline
210
0.0
220
0.0
230
1.0
 70
     8
 71
     3
 72
    12
 73
     8
 74
     0
 42
0.00000001
 43
0.00000001
 40
0.0
 40
0.0
 40
0.0
 40
0.0
 40
0.25
 40
0.25
 40
0.5
 40
0.5
 40
1.0
 40
1.0
 40
1.0
 40
1.0
 10
96.22831206184259
 20
70.07130057267946
 30
0.0
 10
96.43051948426287
 20
70.06103711339033
 30
0.0
 10
96.63240630836732
 20
70.05345833359355
 30
0.0
 10
97.03778349551554
 20
70.03904487814448
 30
0.0
 10
97.24127385855931
 20
70.0322102024922
 30
0.0
 10
97.85751735945617
 20
70.00588444949176
 30
0.0
 10
98.25750888531992
 20
69.99621749813078
 30
0.0
 10
98.66354571481342
 20
69.99606966768562
 30
0.0
  0
SPLINE
  5
EB
330
1F
100
AcDbEntity
  8
0
  6
Continuous
 62
     7
370
    25
100
AcDbSpline
210
0.0
220
0.0
230
1.0
 70
    24
 71
     3
 72
    10
 73
     6
 74
     0
 42
0.00000001
 43
0.00000001
 40
0.0
 40
0.0
 40
0.0
 40
0.0
 40
0.5
 40
0.5
 40
1.0
 40
1.0
 40
1.0
 40
1.0
 10
96.22831206184259
 20
70.07130057267946
 30
0.0
 10
96.22831206184259
 20
70.03024673552294
 30
0.0
 10
96.22831206184259
 20
69.98617238320989
 30
0.0
 10
96.22831206184259
 20
69.89482111369796
 30
0.0
 10
96.22831206184259
 20
69.86207133220094
 30
0.0
 10
96.22831206184259
 20
69.81929297238979
 30
0.0
  0
SPLINE
  5
EC
330
1F
100
AcDbEntity
  8
0
  6
Continuous
 62
     7
370
    25
100
AcDbSpline
210
0.0
220
0.0
230
1.0
 70
     8
 71
     3
 72
    12
 73
     8
 74
     0
 42
0.00000001
 43
0.00000001
 40
0.0
 40
0.0
 40
0.0
 40
0.0
 40
0.25
 40
0.25
 40
0.5
 40
0.5
 40
1.0
 40
1.0
 40
1.0
 40
1.0
 10
96.22831206184259
 20
70.07130057267946
 30
0.0
 10
96.0261046394223
 20
70.06103711339033
 30
0.0
 10
95.82421781531784
 20
70.05345833359355
 30
0.0
 10
95.41884062816962
 20
70.03904487814448
 30
0.0
 10
95.21535026512583
 20
70.0322102024922
 30
0.0
 10
94.59910676422899
 20
70.00588444949176
 30
0.0
 10
94.19911523836522
 20
69.99621749813078
 30
0.0
 10
93.79307840887174
 20
69.99606966768562
 30
0.0
  0
SPLINE
  5
ED
330
1F
100
AcDbEntity
  8
0
  6
Continuous
 62
     7
370
    25
100
AcDbSpline
210
0.0
220
0.0
230
1.0
 70
     8
 71
     3
 72
    12
 73
     8
 74
     0
 42
0.00000001
 43
0.00000001
 40
0.0
 40
0.0
 40
0.0
 40
0.0
 40
0.25
 40
0.25
 40
0.5
 40
0.5
 40
1.0
 40
1.0
 40
1.0
 40
1.0
 10
102.7303196621323
 20
63.56929297238978
 30
0.0
 10
102.7200562028431
 20
63.77150039481007
 30
0.0
 10
102.7124774230464
 20
63.97338721891452
 30
0.0
 10
102.6980639675973
 20
64.37876440606274
 30
0.0
 10
102.691229291945
 20
64.58225476910651
 30
0.0
 10
102.6649035389446
 20
65.19849827000337
 30
0.0
 10
102.6552365875836
 20
65.59848979586714
 30
0.0
 10
102.6550887571384
 20
66.00452662536063
 30
0.0
  0
SPLINE
  5
EE
330
1F
100
AcDbEntity
  8
0
  6
Continuous
 62
     7
370
    25
100
AcDbSpline
210
0.0
220
0.0
230
1.0
 70
     8
 71
     3
 72
    10
 73
     6
 74
     0
 42
0.00000001
 43
0.00000001
 40
0.0
 40
0.0
 40
0.0
 40
0.0
 40
0.5
 40
0.5
 40
1.0
 40
1.0
 40
1.0
 40
1.0
 10
99.99953557285514
 20
63.75417593498954
 30
0.0
 10
99.99953557285514
 20
63.75417593498954
 30
0.0
 10
100.0245516202058
 20
63.76475859875047
 30
0.0
 10
100.109777887505
 20
63.80026489797216
 30
0.0
 10
100.1704797073086
 20
63.82530803250308
 30
0.0
 10
100.2307935299101
 20
63.84994027633391
 30
0.0
  0
SPLINE
  5
EF
330
1F
100
AcDbEntity
  8
0
  6
Continuous
 62
     7
370
    25
100
AcDbSpline
210
0.0
220
0.0
230
1.0
 70
     8
 71
     3
 72
    14
 73
    10
 74
     0
 42
0.00000001
 43
0.00000001
 40
0.0
 40
0.0
 40
0.0
 40
0.0
 40
0.25
 40
0.25
 40
0.5
 40
0.5
 40
0.75
 40
0.75
 40
1.0
 40
1.0
 40
1.0
 40
1.0
 10
99.99953557285517
 20
63.75417593498954
 30
0.0
 10
99.96163389110647
 20
63.83175916776324
 30
0.0
 10
99.90052477911459
 20
63.89634863307609
 30
0.0
 10
99.75459109656188
 20
63.9838033376799
 30
0.0
 10
99.66971247640927
 20
64.00718305504125
 30
0.0
 10
99.49723630812758
 20
64.00735840171292
 30
0.0
 10
99.41257895372124
 20
63.98447814919088
 30
0.0
 10
99.2645994120196
 20
63.89588769239292
 30
0.0
 10
99.20432823364722
 20
63.83174593547251
 30
0.0
 10
99.16643301626017
 20
63.75417593498979
 30
0.0
  0
SPLINE
  5
F0
330
1F
100
AcDbEntity
  8
0
  6
Continuous
 62
     7
370
    25
100
AcDbSpline
210
0.0
220
0.0
230
1.0
 70
     8
 71
     3
 72
    10
 73
     6
 74
     0
 42
0.00000001
 43
0.00000001
 40
0.0
 40
0.0
 40
0.0
 40
0.0
 40
0.5
 40
0.5
 40
1.0
 40
1.0
 40
1.0
 40
1.0
 10
99.16643301626
 20
63.75417593498945
 30
0.0
 10
99.16643301626
 20
63.75417593498945
 30
0.0
 10
99.14141696890918
 20
63.76475859874999
 30
0.0
 10
99.05619070161002
 20
63.80026489797165
 30
0.0
 10
98.9954888818064
 20
63.82530803250247
 30
0.0
 10
98.93517505920491
 20
63.84994027633336
 30
0.0
  0
LINE
  5
F1
330
1F
100
AcDbEntity
  8
0
  6
Continuous
 62
     7
370
    25
100
AcDbLine
 10
101.1227948096
 20
61.3559440005
 30
0.0
 11
100.8873978719
 21
61.2717520666
 31
0.0
  0
LINE
  5
F2
330
1F
100
AcDbEntity
  8
0
  6
Continuous
 62
     7
370
    25
100
AcDbLine
 10
100.8873978719
 20
61.2717520666
 30
0.0
 11
99.9995355729
 21
63.754175935
 31
0.0
  0
LINE
  5
F3
330
1F
100
AcDbEntity
  8
0
  6
Continuous
 62
     7
370
    25
100
AcDbLine
 10
99.1664330163
 20
63.754175935
 30
0.0
 11
98.2787776217
 21
61.2723305623
 31
0.0
  0
LINE
  5
F4
330
1F
100
AcDbEntity
  8
0
  6
Continuous
 62
     7
370
    25
100
AcDbLine
 10
98.043380684
 20
61.3565224962
 30
0.0
 11
98.2787776217
 21
61.2723305623
 31
0.0
  0
SPLINE
  5
F5
330
1F
100
AcDbEntity
  8
0
  6
Continuous
 62
     7
370
    25
100
AcDbSpline
210
0.0
220
0.0
230
1.0
 70
     8
 71
     3
 72
    12
 73
     8
 74
     0
 42
0.00000001
 43
0.00000001
 40
0.0
 40
0.0
 40
0.0
 40
0.0
 40
0.25
 40
0.25
 40
0.5
 40
0.5
 40
1.0
 40
1.0
 40
1.0
 40
1.0
 10
102.7303196621323
 20
63.56929297238978
 30
0.0
 10
102.7405831214214
 20
63.77150039481007
 30
0.0
 10
102.7552480118521
 20
63.97209022734035
 30
0.0
 10
102.7869833900357
 20
64.37006420729426
 30
0.0
 10
102.8040538777884
 20
64.56744835471792
 30
0.0
 10
102.8492778395878
 20
65.15483651133894
 30
0.0
 10
102.8424544123211
 20
65.55075710852016
 30
0.0
 10
102.801527466102
 20
65.93675205150586
 30
0.0
  0
SPLINE
  5
F6
330
1F
100
AcDbEntity
  8
0
  6
Continuous
 62
     7
370
    25
100
AcDbSpline
210
0.0
220
0.0
230
1.0
 70
     8
 71
     3
 72
    10
 73
     6
 74
     0
 42
0.00000001
 43
0.00000001
 40
0.0
 40
0.0
 40
0.0
 40
0.0
 40
0.5
 40
0.5
 40
1.0
 40
1.0
 40
1.0
 40
1.0
 10
102.801527466102
 20
65.93675205150586
 30
0.0
 10
102.8299547261693
 20
65.92888281912562
 30
0.0
 10
102.8641813643361
 20
65.92461597174069
 30
0.0
 10
102.9272034098737
 20
65.92068713542672
 30
0.0
 10
102.9557891291657
 20
65.92080312546165
 30
0.0
 10
102.9783120618426
 20
65.92080312546165
 30
0.0
  0
SPLINE
  5
F7
330
1F
100
AcDbEntity
  8
0
  6
Continuous
 62
     7
370
    25
100
AcDbSpline
210
0.0
220
0.0
230
1.0
 70
    24
 71
     3
 72
    10
 73
     6
 74
     0
 42
0.00000001
 43
0.00000001
 40
0.0
 40
0.0
 40
0.0
 40
0.0
 40
0.5
 40
0.5
 40
1.0
 40
1.0
 40
1.0
 40
1.0
 10
102.7303196621323
 20
63.56929297238978
 30
0.0
 10
102.7713734992888
 20
63.56929297238978
 30
0.0
 10
102.8148503296698
 20
63.56929297238978
 30
0.0
 10
102.9039090293942
 20
63.56929297238978
 30
0.0
 10
102.9360123989178
 20
63.56929297238978
 30
0.0
 10
102.9783120618426
 20
63.56929297238978
 30
0.0
  0
SPLINE
  5
F8
330
1F
100
AcDbEntity
  8
0
  6
Continuous
 62
     7
370
    25
100
AcDbSpline
210
0.0
220
0.0
230
1.0
 70
    24
 71
     3
 72
    10
 73
     6
 74
     0
 42
0.00000001
 43
0.00000001
 40
0.0
 40
0.0
 40
0.0
 40
0.0
 40
0.5
 40
0.5
 40
1.0
 40
1.0
 40
1.0
 40
1.0
 10
96.22831206184259
 20
70.07130057267946
 30
0.0
 10
96.22831206184259
 20
70.112354409836
 30
0.0
 10
96.22831206184259
 20
70.155831240217
 30
0.0
 10
96.22831206184259
 20
70.24488993994134
 30
0.0
 10
96.22831206184259
 20
70.27699330946501
 30
0.0
 10
96.22831206184259
 20
70.31929297238979
 30
0.0
  0
SPLINE
  5
F9
330
1F
100
AcDbEntity
  8
0
  6
Continuous
 62
     7
370
    25
100
AcDbSpline
210
0.0
220
0.0
230
1.0
 70
     8
 71
     3
 72
    10
 73
     6
 74
     0
 42
0.00000001
 43
0.00000001
 40
0.0
 40
0.0
 40
0.0
 40
0.0
 40
0.5
 40
0.5
 40
1.0
 40
1.0
 40
1.0
 40
1.0
 10
98.59577114095866
 20
70.1425083766492
 30
0.0
 10
98.58790190857842
 20
70.1709356367165
 30
0.0
 10
98.58363506119349
 20
70.20516227488334
 30
0.0
 10
98.5797062248795
 20
70.2681843204209
 30
0.0
 10
98.57982221491443
 20
70.29677003971288
 30
0.0
 10
98.57982221491443
 20
70.31929297238979
 30
0.0
  0
SPLINE
  5
FA
330
1F
100
AcDbEntity
  8
0
  6
Continuous
 62
     7
370
    25
100
AcDbSpline
210
0.0
220
0.0
230
1.0
 70
     8
 71
     3
 72
    14
 73
    10
 74
     0
 42
0.00000001
 43
0.00000001
 40
0.0
 40
0.0
 40
0.0
 40
0.0
 40
0.25
 40
0.25
 40
0.5
 40
0.5
 40
0.75
 40
0.75
 40
1.0
 40
1.0
 40
1.0
 40
1.0
 10
96.22831206184259
 20
70.07130057267946
 30
0.0
 10
96.43051948426287
 20
70.08156403196861
 30
0.0
 10
96.63110931679316
 20
70.09622892239935
 30
0.0
 10
97.02908329674707
 20
70.12796430058286
 30
0.0
 10
97.22646744417071
 20
70.14503478833561
 30
0.0
 10
97.61805954858472
 20
70.1751840962019
 30
0.0
 10
97.81493772398353
 20
70.1810155663518
 30
0.0
 10
98.20729478442406
 20
70.17490944313023
 30
0.0
 10
98.4027736694658
 20
70.16297184975878
 30
0.0
 10
98.59577114095866
 20
70.1425083766492
 30
0.0
  0
SPLINE
  5
FB
330
1F
100
AcDbEntity
  8
0
  6
Continuous
 62
     7
370
    25
100
AcDbSpline
210
0.0
220
0.0
230
1.0
 70
     8
 71
     3
 72
     8
 73
     4
 74
     0
 42
0.00000001
 43
0.00000001
 40
0.0
 40
0.0
 40
0.0
 40
0.0
 40
1.0
 40
1.0
 40
1.0
 40
1.0
 10
102.9783120618426
 20
61.21778281931793
 30
0.0
 10
102.9128584905046
 20
61.22198010595402
 30
0.0
 10
102.8478080617065
 20
61.21562391461678
 30
0.0
 10
102.801527466102
 20
61.2018338932737
 30
0.0
  0
SPLINE
  5
FC
330
1F
100
AcDbEntity
  8
0
  6
Continuous
 62
     7
370
    25
100
AcDbSpline
210
0.0
220
0.0
230
1.0
 70
     8
 71
     3
 72
    12
 73
     8
 74
     0
 42
0.00000001
 43
0.00000001
 40
0.0
 40
0.0
 40
0.0
 40
0.0
 40
0.25
 40
0.25
 40
0.5
 40
0.5
 40
1.0
 40
1.0
 40
1.0
 40
1.0
 10
102.7303196621323
 20
63.56929297238978
 30
0.0
 10
102.7405831214214
 20
63.36708554996949
 30
0.0
 10
102.7552480118521
 20
63.16649571743921
 30
0.0
 10
102.7869833900357
 20
62.76852173748529
 30
0.0
 10
102.8040538777884
 20
62.57113759006165
 30
0.0
 10
102.8492778395878
 20
61.98374943344063
 30
0.0
 10
102.8424544123211
 20
61.5878288362594
 30
0.0
 10
102.801527466102
 20
61.2018338932737
 30
0.0
  0
SPLINE
  5
FD
330
1F
100
AcDbEntity
  8
0
  6
Continuous
 62
     7
370
    25
100
AcDbSpline
210
0.0
220
0.0
230
1.0
 70
     8
 71
     3
 72
    14
 73
    10
 74
     0
 42
0.00000001
 43
0.00000001
 40
0.0
 40
0.0
 40
0.0
 40
0.0
 40
0.25
 40
0.25
 40
0.5
 40
0.5
 40
0.75
 40
0.75
 40
1.0
 40
1.0
 40
1.0
 40
1.0
 10
96.22831206184259
 20
70.07130057267946
 30
0.0
 10
96.0261046394223
 20
70.08156403196861
 30
0.0
 10
95.825514806892
 20
70.09622892239936
 30
0.0
 10
95.42754082693808
 20
70.12796430058286
 30
0.0
 10
95.23015667951444
 20
70.14503478833561
 30
0.0
 10
94.83856457510042
 20
70.1751840962019
 30
0.0
 10
94.64168639970163
 20
70.1810155663518
 30
0.0
 10
94.24932933926108
 20
70.17490944313023
 30
0.0
 10
94.05385045421936
 20
70.16297184975876
 30
0.0
 10
93.8608529827265
 20
70.1425083766492
 30
0.0
  0
SPLINE
  5
FE
330
1F
100
AcDbEntity
  8
0
  6
Continuous
 62
     7
370
    25
100
AcDbSpline
210
0.0
220
0.0
230
1.0
 70
     8
 71
     3
 72
     8
 73
     4
 74
     0
 42
0.00000001
 43
0.00000001
 40
0.0
 40
0.0
 40
0.0
 40
0.0
 40
1.0
 40
1.0
 40
1.0
 40
1.0
 10
93.8608529827265
 20
70.1425083766492
 30
0.0
 10
93.87464300406957
 20
70.18878897225366
 30
0.0
 10
93.88099919540682
 20
70.25383940105178
 30
0.0
 10
93.87680190877072
 20
70.31929297238979
 30
0.0
  0
SPLINE
  5
FF
330
1F
100
AcDbEntity
  8
0
  6
Continuous
 62
     7
370
    25
100
AcDbSpline
210
0.0
220
0.0
230
1.0
 70
     8
 71
     3
 72
    14
 73
    10
 74
     0
 42
0.00000001
 43
0.00000001
 40
0.0
 40
0.0
 40
0.0
 40
0.0
 40
0.0526822267945598
 40
0.1287456339724992
 40
0.2353187193853958
 40
0.3749156516620482
 40
0.5485969096886099
 40
0.7568720674016369
 40
0.9999999999999999
 40
0.9999999999999999
 40
0.9999999999999999
 40
0.9999999999999999
 10
93.7788223190594
 20
70.06929297238979
 30
0.0
 10
93.78230300370303
 20
70.06930377339756
 30
0.0
 10
93.790809154228
 20
70.06933016906609
 30
0.0
 10
93.80135881313706
 20
70.07015707553246
 30
0.0
 10
93.81300237039066
 20
70.07286057592653
 30
0.0
 10
93.825277964214
 20
70.0791610166835
 30
0.0
 10
93.83802532918914
 20
70.09133519565867
 30
0.0
 10
93.85077012318484
 20
70.11143948493873
 30
0.0
 10
93.85732337106887
 20
70.13163238240197
 30
0.0
 10
93.8608529827265
 20
70.1425083766492
 30
0.0
  0
SPLINE
  5
100
330
1F
100
AcDbEntity
  8
0
  6
Continuous
 62
     7
370
    25
100
AcDbSpline
210
0.0
220
0.0
230
1.0
 70
     8
 71
     3
 72
    12
 73
     8
 74
     0
 42
0.00000001
 43
0.00000001
 40
0.0
 40
0.0
 40
0.0
 40
0.0
 40
0.25
 40
0.25
 40
0.5
 40
0.5
 40
1.0
 40
1.0
 40
1.0
 40
1.0
 10
102.801527466102
 20
65.93675205150586
 30
0.0
 10
102.7873138360684
 20
65.94068666769599
 30
0.0
 10
102.7746123123158
 20
65.94558420151753
 30
0.0
 10
102.7535448829734
 20
65.95697083528243
 30
0.0
 10
102.7451789773835
 20
65.96345993522577
 30
0.0
 10
102.7285517962588
 20
65.98481318052681
 30
0.0
 10
102.7283120618426
 20
66.00121413651554
 30
0.0
 10
102.7283120618426
 20
66.01878271517296
 30
0.0
  0
SPLINE
  5
101
330
1F
100
AcDbEntity
  8
0
  6
Continuous
 62
     7
370
    25
100
AcDbSpline
210
0.0
220
0.0
230
1.0
 70
     8
 71
     3
 72
    14
 73
    10
 74
     0
 42
0.00000001
 43
0.00000001
 40
0.0
 40
0.0
 40
0.0
 40
0.0
 40
0.243127932598341
 40
0.4514030903113563
 40
0.6250843483379128
 40
0.7646812806145595
 40
0.8712543660274661
 40
0.9473177732054238
 40
1.0
 40
1.0
 40
1.0
 40
1.0
 10
102.801527466102
 20
61.2018338932737
 30
0.0
 10
102.7906514718548
 20
61.19830428161608
 30
0.0
 10
102.7704585743915
 20
61.19175103373205
 30
0.0
 10
102.7503542851115
 20
61.17900623973635
 30
0.0
 10
102.7381801061363
 20
61.16625887476123
 30
0.0
 10
102.7318796653793
 20
61.15398328093789
 30
0.0
 10
102.7291761649853
 20
61.14233972368427
 30
0.0
 10
102.7283492585189
 20
61.1317900647752
 30
0.0
 10
102.7283228628504
 20
61.12328391425024
 30
0.0
 10
102.7283120618426
 20
61.1198032296066
 30
0.0
  0
SPLINE
  5
102
330
1F
100
AcDbEntity
  8
0
  6
Continuous
 62
     7
370
    25
100
AcDbSpline
210
0.0
220
0.0
230
1.0
 70
     8
 71
     3
 72
    12
 73
     8
 74
     0
 42
0.00000001
 43
0.00000001
 40
0.0
 40
0.0
 40
0.0
 40
0.0
 40
0.25
 40
0.25
 40
0.5
 40
0.5
 40
1.0
 40
1.0
 40
1.0
 40
1.0
 10
98.59577114095866
 20
70.1425083766492
 30
0.0
 10
98.59970575714877
 20
70.12829474661557
 30
0.0
 10
98.60460329097033
 20
70.11559322286301
 30
0.0
 10
98.61598992473522
 20
70.09452579352057
 30
0.0
 10
98.62247902467857
 20
70.0861598879307
 30
0.0
 10
98.64383226997963
 20
70.06953270680603
 30
0.0
 10
98.66023322596834
 20
70.06929297238979
 30
0.0
 10
98.67780180462576
 20
70.06929297238979
 30
0.0
  0
LINE
  5
103
330
1F
100
AcDbEntity
  8
0
  6
Continuous
 62
     7
370
    25
100
AcDbLine
 10
100.9783120618
 20
69.8192929724
 30
0.0
 11
101.2283120618
 21
69.8192929724
 31
0.0
  0
LINE
  5
104
330
1F
100
AcDbEntity
  8
0
  6
Continuous
 62
     7
370
    25
100
AcDbLine
 10
101.2283120618
 20
69.8192929724
 30
0.0
 11
101.2283120618
 21
69.5692929724
 31
0.0
  0
LINE
  5
105
330
1F
100
AcDbEntity
  8
0
  6
Continuous
 62
     7
370
    25
100
AcDbLine
 10
100.9783120618
 20
69.5692929724
 30
0.0
 11
101.2283120618
 21
69.5692929724
 31
0.0
  0
LINE
  5
106
330
1F
100
AcDbEntity
  8
0
  6
Continuous
 62
     7
370
    25
100
AcDbLine
 10
102.4783120618
 20
58.8192929724
 30
0.0
 11
102.4783120618
 21
58.5692929724
 31
0.0
  0
LINE
  5
107
330
1F
100
AcDbEntity
  8
0
  6
Continuous
 62
     7
370
    25
100
AcDbLine
 10
102.4783120618
 20
58.5692929724
 30
0.0
 11
93.2283120618
 21
58.5692929724
 31
0.0
  0
LINE
  5
108
330
1F
100
AcDbEntity
  8
0
  6
Continuous
 62
     7
370
    25
100
AcDbLine
 10
93.2283120618
 20
58.8192929724
 30
0.0
 11
93.2283120618
 21
58.5692929724
 31
0.0
  0
LINE
  5
109
330
1F
100
AcDbEntity
  8
0
  6
Continuous
 62
     7
370
    25
100
AcDbLine
 10
102.2283120618
 20
68.5692929724
 30
0.0
 11
102.4783120618
 21
68.5692929724
 31
0.0
  0
LINE
  5
10A
330
1F
100
AcDbEntity
  8
0
  6
Continuous
 62
     7
370
    25
100
AcDbLine
 10
102.4783120618
 20
68.5692929724
 30
0.0
 11
102.4783120618
 21
68.3192929724
 31
0.0
  0
LINE
  5
10B
330
1F
100
AcDbEntity
  8
0
  6
Continuous
 62
     7
370
    25
100
AcDbLine
 10
102.2283120618
 20
68.5692929724
 30
0.0
 11
102.2283120618
 21
68.3192929724
 31
0.0
  0
LINE
  5
10C
330
1F
100
AcDbEntity
  8
0
  6
Continuous
 62
     7
370
    25
100
AcDbLine
 10
97.7076224024
 20
61.2437059434
 30
0.0
 11
97.5870904034
 21
61.0246807458
 31
0.0
  0
LINE
  5
10D
330
1F
100
AcDbEntity
  8
0
  6
Continuous
 62
     7
370
    25
100
AcDbLine
 10
97.5870904034
 20
61.0246807458
 30
0.0
 11
97.5507340541
 21
61.0446880486
 31
0.0
  0
LINE
  5
10E
330
1F
100
AcDbEntity
  8
0
  6
Continuous
 62
     7
370
    25
100
AcDbLine
 10
96.9434213064
 20
61.6642542946
 30
0.0
 11
97.5507340541
 21
61.0446880486
 31
0.0
  0
LINE
  5
10F
330
1F
100
AcDbEntity
  8
0
  6
Continuous
 62
     7
370
    25
100
AcDbLine
 10
101.0539879028
 20
59.9747647384
 30
0.0
 11
101.615234535
 21
61.0446880486
 31
0.0
  0
LINE
  5
110
330
1F
100
AcDbEntity
  8
0
  6
Continuous
 62
     7
370
    25
100
AcDbLine
 10
101.615234535
 20
61.0446880486
 30
0.0
 11
102.2341068923
 21
61.6862907668
 31
0.0
  0
LINE
  5
111
330
1F
100
AcDbEntity
  8
0
  6
Continuous
 62
     7
370
    25
100
AcDbLine
 10
101.0539879028
 20
59.9747647384
 30
0.0
 11
101.2753768041
 21
59.8586313911
 31
0.0
  0
ARC
  5
112
330
1F
100
AcDbEntity
  8
0
  6
Continuous
 62
     7
370
    25
100
AcDbCircle
 10
102.2283120618
 20
69.5692929724
 30
0.0
 40
1.0
100
AcDbArc
 50
180.0
 51
270.0
  0
SPLINE
  5
113
330
1F
100
AcDbEntity
  8
0
  6
Continuous
 62
     7
370
    25
100
AcDbSpline
210
0.0
220
0.0
230
1.0
 70
     8
 71
     3
 72
    14
 73
    10
 74
     0
 42
0.00000001
 43
0.00000001
 40
0.0
 40
0.0
 40
0.0
 40
0.0
 40
0.5000000000000003
 40
0.5000000000000003
 40
0.6250000000000006
 40
0.6250000000000006
 40
0.7500000000000008
 40
0.7500000000000008
 40
1.0
 40
1.0
 40
1.0
 40
1.0
 10
98.20617640847657
 20
59.95854941384815
 30
0.0
 10
98.58438875418139
 20
60.29425096066169
 30
0.0
 10
99.08159050943895
 20
60.47494174112499
 30
0.0
 10
99.70823327872473
 20
60.47496526569198
 30
0.0
 10
99.83475571719413
 20
60.46366046515885
 30
0.0
 10
100.0804352458457
 20
60.4194728072986
 30
0.0
 10
100.2008557264496
 20
60.38665948985429
 30
0.0
 10
100.5545780066584
 20
60.2548146270202
 30
0.0
 10
100.7706674668331
 20
60.12641664421813
 30
0.0
 10
100.9597921806388
 20
59.95854941384808
 30
0.0
  0
LINE
  5
114
330
1F
100
AcDbEntity
  8
0
  6
Continuous
 62
     7
370
    25
100
AcDbLine
 10
100.9597921806
 20
59.9585494138
 30
0.0
 11
100.7938358095
 21
59.7715775366
 31
0.0
  0
LINE
  5
115
330
1F
100
AcDbEntity
  8
0
  6
Continuous
 62
     7
370
    25
100
AcDbLine
 10
98.2061764085
 20
59.9585494138
 30
0.0
 11
98.3721327796
 21
59.7715775366
 31
0.0
  0
LINE
  5
116
330
1F
100
AcDbEntity
  8
0
  6
Continuous
 62
     7
370
    25
100
AcDbLine
 10
91.2283120618
 20
60.5692929724
 30
0.0
 11
91.2283120618
 21
69.8192929724
 31
0.0
  0
LINE
  5
117
330
1F
100
AcDbEntity
  8
0
  6
Continuous
 62
     7
370
    25
100
AcDbLine
 10
91.2283120618
 20
69.8192929724
 30
0.0
 11
91.4783120618
 21
69.8192929724
 31
0.0
  0
LINE
  5
118
330
1F
100
AcDbEntity
  8
0
  6
Continuous
 62
     7
370
    25
100
AcDbLine
 10
91.2283120618
 20
60.5692929724
 30
0.0
 11
91.4783120618
 21
60.5692929724
 31
0.0
  0
LINE
  5
119
330
1F
100
AcDbEntity
  8
0
  6
Continuous
 62
     7
370
    25
100
AcDbLine
 10
99.3126509607
 20
61.3487138009
 30
0.0
 11
99.5266944364
 21
61.9199673734
 31
0.0
  0
ELLIPSE
  5
11A
330
1F
100
AcDbEntity
  8
0
  6
Continuous
 62
     7
370
    25
100
AcDbEllipse
 10
99.582984296
 20
61.9008053644
 30
0.0
 11
0.05977206589648176
 21
0.0
 31
0.0
210
0.0
220
0.0
230
1.0
 40
0.9531667975
 41
0.3430239404214925
 42
2.798568713169086
  0
LINE
  5
11B
330
1F
100
AcDbEntity
  8
0
  6
Continuous
 62
     7
370
    25
100
AcDbLine
 10
99.7970277692
 20
61.2725790431
 30
0.0
 11
99.3689408203
 21
61.2725790431
 31
0.0
  0
ELLIPSE
  5
11C
330
1F
100
AcDbEntity
  8
0
  6
Continuous
 62
     7
370
    25
100
AcDbEllipse
 10
99.3689408203
 20
61.3295517918
 30
0.0
 11
-0.05977206589648176
 21
0.0
 31
0.0
210
0.0
220
0.0
230
1.0
 40
0.9531667975
 41
5.940161364897975
 42
7.853981633974483
  0
ELLIPSE
  5
11D
330
1F
100
AcDbEntity
  8
0
  6
Continuous
 62
     7
370
    25
100
AcDbEllipse
 10
99.7970277692
 20
61.3295517918
 30
0.0
 11
0.05977206589648176
 21
0.0
 31
0.0
210
0.0
220
0.0
230
1.0
 40
0.9531667975
 41
4.712388980384703
 42
6.626209245739766
  0
LINE
  5
11E
330
1F
100
AcDbEntity
  8
0
  6
Continuous
 62
     7
370
    25
100
AcDbLine
 10
99.6392741556
 20
61.9199673734
 30
0.0
 11
99.8533176288
 21
61.3487138007
 31
0.0
  0
LINE
  5
11F
330
1F
100
AcDbEntity
  8
0
  6
Continuous
 62
     7
370
    25
100
AcDbLine
 10
101.615234535
 20
61.0446880486
 30
0.0
 11
101.5858774818
 21
61.0279116572
 31
0.0
  0
LINE
  5
120
330
1F
100
AcDbEntity
  8
0
  6
Continuous
 62
     7
370
    25
100
AcDbLine
 10
101.5858774818
 20
61.0279116572
 30
0.0
 11
101.4618375505
 21
61.2449694731
 31
0.0
  0
ARC
  5
121
330
1F
100
AcDbEntity
  8
0
  6
Continuous
 62
     7
370
    25
100
AcDbCircle
 10
102.4783120618
 20
58.8192929724
 30
0.0
 40
0.25
100
AcDbArc
 50
270.0
 51
0.0
  0
ARC
  5
122
330
1F
100
AcDbEntity
  8
0
  6
Continuous
 62
     7
370
    25
100
AcDbCircle
 10
91.4783120618
 20
69.8192929724
 30
0.0
 40
0.25
100
AcDbArc
 50
90.0
 51
180.0
  0
ARC
  5
123
330
1F
100
AcDbEntity
  8
0
  6
Continuous
 62
     7
370
    25
100
AcDbCircle
 10
102.4783120618
 20
68.3192929724
 30
0.0
 40
0.25
100
AcDbArc
 50
0.0
 51
90.0
  0
ARC
  5
124
330
1F
100
AcDbEntity
  8
0
  6
Continuous
 62
     7
370
    25
100
AcDbCircle
 10
100.9783120618
 20
69.8192929724
 30
0.0
 40
0.25
100
AcDbArc
 50
0.0
 51
90.0
  0
SPLINE
  5
125
330
1F
100
AcDbEntity
  8
0
  6
Continuous
 62
     7
370
    25
100
AcDbSpline
210
0.0
220
0.0
230
1.0
 70
     8
 71
     3
 72
    23
 73
    19
 74
     0
 42
0.00000001
 43
0.00000001
 40
0.0
 40
0.0
 40
0.0
 40
0.0
 40
0.0000076769896581
 40
0.0000076769896581
 40
0.0000076769896581
 40
0.0000285420058146
 40
0.0000285420058146
 40
0.0000285420058146
 40
0.0000497754494318
 40
0.0000497754494318
 40
0.0000497754494318
 40
0.00007072706396
 40
0.00007072706396
 40
0.00007072706396
 40
0.0000909558732107
 40
0.0000909558732107
 40
0.0000909558732107
 40
0.0001104364738497
 40
0.0001104364738497
 40
0.0001104364738497
 40
0.0001104364738497
 10
100.9597921806388
 20
59.95854941384813
 30
0.0
 10
100.9617060221962
 20
59.95685068672174
 30
0.0
 10
100.9637352110506
 20
59.95527401041327
 30
0.0
 10
100.9658524743296
 20
59.95383677015348
 30
0.0
 10
100.9715352441193
 20
59.94997919343637
 30
0.0
 10
100.9779755991353
 20
59.94707397249097
 30
0.0
 10
100.9846178111722
 20
59.94532589072303
 30
0.0
 10
100.9913770691533
 20
59.94354700507834
 30
0.0
 10
100.9985363255833
 20
59.94291390469353
 30
0.0
 10
101.0055036793472
 20
59.9434688678642
 30
0.0
 10
101.0123801199915
 20
59.94401658962946
 30
0.0
 10
101.0192595447505
 20
59.94573690336971
 30
0.0
 10
101.025573784225
 20
59.9485146389448
 30
0.0
 10
101.0316720851805
 20
59.95119737968974
 30
0.0
 10
101.037407171188
 20
59.95494121984885
 30
0.0
 10
101.0422841145163
 20
59.95948014000909
 30
0.0
 10
101.046981464647
 20
59.96385191465825
 30
0.0
 10
101.0510070056585
 20
59.9690821540773
 30
0.0
 10
101.0539879027643
 20
59.974764738373
 30
0.0
  0
LINE
  5
126
330
1F
100
AcDbEntity
  8
0
  6
Continuous
 62
     7
370
    25
100
AcDbLine
 10
97.5507340541
 20
61.0446880486
 30
0.0
 11
98.1119806863
 21
59.9747647384
 31
0.0
  0
LINE
  5
127
330
1F
100
AcDbEntity
  8
0
  6
Continuous
 62
     7
370
    25
100
AcDbLine
 10
98.1119806863
 20
59.9747647384
 30
0.0
 11
97.890591785
 21
59.8586313911
 31
0.0
  0
SPLINE
  5
128
330
1F
100
AcDbEntity
  8
0
  6
Continuous
 62
     7
370
    25
100
AcDbSpline
210
0.0
220
0.0
230
1.0
 70
     8
 71
     3
 72
    10
 73
     6
 74
     0
 42
0.00000001
 43
0.00000001
 40
0.0
 40
0.0
 40
0.0
 40
0.0
 40
0.5
 40
0.5
 40
1.0
 40
1.0
 40
1.0
 40
1.0
 10
101.5858774817916
 20
61.02791165723554
 30
0.0
 10
101.4631954968189
 20
60.95780376949969
 30
0.0
 10
101.3122068680365
 20
60.94440777152086
 30
0.0
 10
101.0467876923887
 20
61.03455280711449
 30
0.0
 10
100.9350258720269
 20
61.13858627672854
 30
0.0
 10
100.8873978719011
 20
61.27175206656398
 30
0.0
  0
SPLINE
  5
129
330
1F
100
AcDbEntity
  8
0
  6
Continuous
 62
     7
370
    25
100
AcDbSpline
210
0.0
220
0.0
230
1.0
 70
     8
 71
     3
 72
    10
 73
     6
 74
     0
 42
0.00000001
 43
0.00000001
 40
0.0
 40
0.0
 40
0.0
 40
0.0
 40
0.5
 40
0.5
 40
1.0
 40
1.0
 40
1.0
 40
1.0
 10
98.27877762165534
 20
61.27233056226751
 30
0.0
 10
98.2315428763341
 20
61.14026429553808
 30
0.0
 10
98.12087135595276
 20
61.03681227954548
 30
0.0
 10
97.85991181158559
 20
60.94586063600886
 30
0.0
 10
97.70984640654251
 20
60.95712675375492
 30
0.0
 10
97.58709040335398
 20
61.02468074577805
 30
0.0
  0
SPLINE
  5
12A
330
1F
100
AcDbEntity
  8
0
  6
Continuous
 62
     7
370
    25
100
AcDbSpline
210
0.0
220
0.0
230
1.0
 70
     8
 71
     3
 72
    23
 73
    19
 74
     0
 42
0.00000001
 43
0.00000001
 40
0.0
 40
0.0
 40
0.0
 40
0.0
 40
0.0000069464595966
 40
0.0000069464595966
 40
0.0000069464595966
 40
0.0000269173558753
 40
0.0000269173558753
 40
0.0000269173558753
 40
0.0000477420212559
 40
0.0000477420212559
 40
0.0000477420212559
 40
0.0000689844307043
 40
0.0000689844307043
 40
0.0000689844307043
 40
0.0000900350769267
 40
0.0000900350769267
 40
0.0000900350769267
 40
0.0001105259114901
 40
0.0001105259114901
 40
0.0001105259114901
 40
0.0001105259114901
 10
98.11198068634981
 20
59.97476473837541
 30
0.0
 10
98.11305630715586
 20
59.9727142462973
 30
0.0
 10
98.1142617121158
 20
59.97072696272209
 30
0.0
 10
98.11558134960211
 20
59.96882432382162
 30
0.0
 10
98.11932663808443
 20
59.96342440783412
 30
0.0
 10
98.12408494664257
 20
59.9586204750391
 30
0.0
 10
98.12941828444767
 20
59.95478097164092
 30
0.0
 10
98.13497785459192
 20
59.95077860216025
 30
0.0
 10
98.14131977403717
 20
59.94770618554991
 30
0.0
 10
98.14789425171186
 20
59.94578160119126
 30
0.0
 10
98.15460021974378
 20
59.94381852491017
 30
0.0
 10
98.16173781227657
 20
59.94299169588869
 30
0.0
 10
98.16871567847859
 20
59.94335646841683
 30
0.0
 10
98.17563164234942
 20
59.94371800496004
 30
0.0
 10
98.1825826586826
 20
59.94526025014268
 30
0.0
 10
98.18899351238541
 20
59.94787983402869
 30
0.0
 10
98.19523459184272
 20
59.95043004526975
 30
0.0
 10
98.20113414610934
 20
59.95407389818826
 30
0.0
 10
98.2061764084746
 20
59.95854941384641
 30
0.0
  0
ARC
  5
12B
330
1F
100
AcDbEntity
  8
0
  6
Continuous
 62
     7
370
    25
100
AcDbCircle
 10
93.2283120618
 20
60.5692929724
 30
0.0
 40
2.000000000000014
100
AcDbArc
 50
180.0
 51
270.0
  0
ARC
  5
12C
330
1F
100
AcDbEntity
  8
0
  6
Continuous
 62
     7
370
    25
100
AcDbCircle
 10
102.9519120618
 20
58.7845561303
 30
0.0
 40
0.2262821429089207
100
AcDbArc
 50
83.3001285963
 51
171.1695393669
  0
ARC
  5
12D
330
1F
100
AcDbEntity
  8
0
  6
Continuous
 62
     7
370
    25
100
AcDbCircle
 10
101.0130489039
 20
70.2928929724
 30
0.0
 40
0.2262821429089012
100
AcDbArc
 50
173.3001285963
 51
261.1695393669
  0
ARC
  5
12E
330
1F
100
AcDbEntity
  8
0
  6
Continuous
 62
     7
370
    25
100
AcDbCircle
 10
102.9519120618
 20
68.3540298145
 30
0.0
 40
0.2262821429089136
100
AcDbArc
 50
188.8304606331
 51
276.6998714037
  0
ARC
  5
12F
330
1F
100
AcDbEntity
  8
0
  6
Continuous
 62
     7
370
    25
100
AcDbCircle
 10
91.4435752197
 20
70.2928929724
 30
0.0
 40
0.2262821429088906
100
AcDbArc
 50
278.8304606331
 51
6.6998714038
  0
LINE
  5
130
330
1F
100
AcDbEntity
  8
0
  6
Continuous
 62
     7
370
    25
100
AcDbLine
 10
101.2283120618
 20
69.8192929724
 30
0.0
 11
101.2683120618
 21
69.8192929724
 31
0.0
  0
LINE
  5
131
330
1F
100
AcDbEntity
  8
0
  6
Continuous
 62
     7
370
    25
100
AcDbLine
 10
102.4783120618
 20
58.5292929724
 30
0.0
 11
102.4783120618
 21
58.5692929724
 31
0.0
  0
LINE
  5
132
330
1F
100
AcDbEntity
  8
0
  6
Continuous
 62
     7
370
    25
100
AcDbLine
 10
91.2283120618
 20
69.8192929724
 30
0.0
 11
91.1883120618
 21
69.8192929724
 31
0.0
  0
LINE
  5
133
330
1F
100
AcDbEntity
  8
0
  6
Continuous
 62
     7
370
    25
100
AcDbLine
 10
102.4783120618
 20
68.6092929724
 30
0.0
 11
102.4783120618
 21
68.5692929724
 31
0.0
  0
LWPOLYLINE
  5
134
330
1F
100
AcDbEntity
  8
0
  6
Continuous
 62
     7
370
    25
100
AcDbPolyline
 90
        9
 70
   128
 43
0.0
 10
92.8851579402
 20
58.5545617899
 10
92.8902164473
 20
58.5638584327
 10
92.895246627
 20
58.5719329193
 10
92.9002203104
 20
58.5787400329
 10
92.9051096451
 20
58.584241654
 10
92.9098872512
 20
58.5884069737
 10
92.9145263741
 20
58.5912126664
 10
92.919001035
 20
58.5926430204
 10
92.9232861759
 20
58.5926900257
  0
SPLINE
  5
135
330
1F
100
AcDbEntity
  8
0
  6
Continuous
 62
     7
370
    25
100
AcDbSpline
210
0.0
220
0.0
230
1.0
 70
     8
 71
     3
 72
    14
 73
    10
 74
     0
 42
0.00000001
 43
0.00000001
 40
0.0
 40
0.0
 40
0.0
 40
0.0
 40
0.2500000000000003
 40
0.2500000000000003
 40
0.5000000000000002
 40
0.5000000000000002
 40
0.7500000000000001
 40
0.7500000000000001
 40
1.0
 40
1.0
 40
1.0
 40
1.0
 10
92.88515794021276
 20
58.55456178994505
 30
0.0
 10
92.6771460505475
 20
58.58431568867061
 30
0.0
 10
92.47718699347
 20
58.64567142821441
 30
0.0
 10
92.09463311407126
 20
58.83542566939613
 30
0.0
 10
91.92233214724085
 20
58.95884231896681
 30
0.0
 10
91.61866052447748
 20
59.26231744323631
 30
0.0
 10
91.49483209360717
 20
59.43503478418821
 30
0.0
 10
91.30503666470419
 20
59.81726918718797
 30
0.0
 10
91.24333645976292
 20
60.01811520461813
 30
0.0
 10
91.21358087939785
 20
60.22613885075996
 30
0.0
  0
LWPOLYLINE
  5
136
330
1F
100
AcDbEntity
  8
0
  6
Continuous
 62
     7
370
    25
100
AcDbPolyline
 90
        9
 70
   128
 43
0.0
 10
91.2517091151
 20
60.2642670865
 10
91.2516621098
 20
60.2599819455
 10
91.2502317559
 20
60.2555072846
 10
91.2474260631
 20
60.2508681617
 10
91.2432607434
 20
60.2460905557
 10
91.2377591223
 20
60.2412012209
 10
91.2309520087
 20
60.2362275375
 10
91.2228775221
 20
60.2311973578
 10
91.2135808794
 20
60.2261388508
  0
LINE
  5
137
330
1F
100
AcDbEntity
  8
0
  6
Continuous
 62
     7
370
    25
100
AcDbLine
 10
93.2283120618
 20
58.5292929724
 30
0.0
 11
93.2283120618
 21
58.5692929724
 31
0.0
  0
LINE
  5
138
330
1F
100
AcDbEntity
  8
0
  6
Continuous
 62
     7
370
    25
100
AcDbLine
 10
91.2283120618
 20
60.5692929724
 30
0.0
 11
91.1883120618
 21
60.5692929724
 31
0.0
  0
SPLINE
  5
139
330
1F
100
AcDbEntity
  8
0
  6
Continuous
 62
     7
370
    25
100
AcDbSpline
210
0.0
220
0.0
230
1.0
 70
    24
 71
     3
 72
    10
 73
     6
 74
     0
 42
0.00000001
 43
0.00000001
 40
0.0
 40
0.0
 40
0.0
 40
0.0
 40
0.5
 40
0.5
 40
1.0
 40
1.0
 40
1.0
 40
1.0
 10
101.5980458247042
 20
68.93902673525145
 30
0.0
 10
101.5727338036859
 20
68.91371471423311
 30
0.0
 10
101.5543878053654
 20
68.89536871591257
 30
0.0
 10
101.5282895691482
 20
68.86927047969543
 30
0.0
 10
101.5212052806568
 20
68.86218619120399
 30
0.0
 10
101.521205280656
 20
68.86218619120324
 30
0.0
  0
LINE
  5
13A
330
1F
100
AcDbEntity
  8
0
  6
Continuous
 62
     7
370
    25
100
AcDbLine
 10
101.2283120618
 20
69.5692929724
 30
0.0
 11
101.2683120618
 21
69.5692929724
 31
0.0
  0
LINE
  5
13B
330
1F
100
AcDbEntity
  8
0
  6
Continuous
 62
     7
370
    25
100
AcDbLine
 10
102.2283120618
 20
68.6092929724
 30
0.0
 11
102.2283120618
 21
68.5692929724
 31
0.0
  0
LINE
  5
13C
330
1F
100
AcDbEntity
  8
0
  6
Continuous
 62
     7
370
    25
100
AcDbLine
 10
121.1065498226
 20
55.8283924122
 30
0.0
 11
121.1065498226
 21
55.3192929724
 31
0.0
  0
LINE
  5
13D
330
1F
100
AcDbEntity
  8
0
  6
Continuous
 62
     7
370
    25
100
AcDbLine
 10
121.1065498226
 20
71.8192929724
 30
0.0
 11
121.1065498226
 21
71.3101935326
 31
0.0
  0
LINE
  5
13E
330
1F
100
AcDbEntity
  8
0
  6
Continuous
 62
     7
370
    25
100
AcDbLine
 10
120.4570307697
 20
71.662052649
 30
0.0
 11
120.4570307697
 21
72.1942929724
 31
0.0
  0
LINE
  5
13F
330
1F
100
AcDbEntity
  8
0
  6
Continuous
 62
     7
370
    25
100
AcDbLine
 10
120.4570307697
 20
54.9442929724
 30
0.0
 11
120.4570307697
 21
55.4765332958
 31
0.0
  0
LINE
  5
140
330
1F
100
AcDbEntity
  8
0
  6
Continuous
 62
     7
370
    25
100
AcDbLine
 10
105.7283120618
 20
57.5692929724
 30
0.0
 11
105.7283120618
 21
69.5692929724
 31
0.0
  0
LINE
  5
141
330
1F
100
AcDbEntity
  8
0
  6
Continuous
 62
     7
370
    25
100
AcDbLine
 10
102.2283120618
 20
73.0692929724
 30
0.0
 11
90.2283120618
 21
73.0692929724
 31
0.0
  0
LINE
  5
142
330
1F
100
AcDbEntity
  8
0
  6
Continuous
 62
     7
370
    25
100
AcDbLine
 10
90.2283120618
 20
59.5692929724
 30
0.0
 11
91.2135808794
 21
60.2261388508
 31
0.0
  0
LINE
  5
143
330
1F
100
AcDbEntity
  8
0
  6
Continuous
 62
     7
370
    25
100
AcDbLine
 10
92.8851579402
 20
58.5545617899
 30
0.0
 11
92.2283120618
 21
57.5692929724
 31
0.0
  0
LINE
  5
144
330
1F
100
AcDbEntity
  8
FORMAT
100
AcDbLine
 10
114.0843120618
 20
57.8467929724
 30
0.0
 11
106.2283120618
 21
57.8467929724
 31
0.0
  0
LINE
  5
145
330
1F
100
AcDbEntity
  8
FORMAT
100
AcDbLine
 10
114.0843120618
 20
69.2917929724
 30
0.0
 11
106.2283120618
 21
69.2917929724
 31
0.0
  0
LINE
  5
146
330
1F
100
AcDbEntity
  8
FORMAT
100
AcDbLine
 10
101.908840482
 20
84.8235958746
 30
0.0
 11
102.2605297628
 21
73.5695388895
 31
0.0
  0
LINE
  5
147
330
1F
100
AcDbEntity
  8
FORMAT
100
AcDbLine
 10
90.5477836417
 20
84.8235958746
 30
0.0
 11
90.1960943609
 21
73.5695388895
 31
0.0
  0
LINE
  5
148
330
1F
100
AcDbEntity
  8
FORMAT
100
AcDbLine
 10
89.4626322468
 20
73.5695388895
 30
0.0
 11
102.9939918769
 21
73.5695388895
 31
0.0
  0
LINE
  5
149
330
1F
100
AcDbEntity
  8
FORMAT
  6
CENTERX2
370
    18
100
AcDbLine
 10
96.2283120618
 20
55.6717584752
 30
0.0
 11
96.2283120618
 21
87.2672809362
 31
0.0
  0
LINE
  5
14A
330
1F
100
AcDbEntity
  8
FORMAT
  6
CENTERX2
370
    18
100
AcDbLine
 10
88.5270027399
 20
63.5692929724
 30
0.0
 11
123.5807415897
 21
63.5692929724
 31
0.0
  0
LINE
  5
14B
330
1F
100
AcDbEntity
  8
0
  6
Continuous
 62
     7
370
    25
100
AcDbLine
 10
151.4101030455
 20
73.5695388895
 30
0.0
 11
151.1003853445
 21
83.4805053186
 31
0.0
  0
LINE
  5
14C
330
1F
100
AcDbEntity
  8
0
  6
Continuous
 62
     7
370
    25
100
AcDbLine
 10
138.1884611162
 20
83.4805053186
 30
0.0
 11
137.8787434153
 21
73.5695388895
 31
0.0
  0
ARC
  5
14D
330
1F
100
AcDbEntity
  8
0
  6
Continuous
 62
     7
370
    25
100
AcDbCircle
 10
137.8944232304
 20
74.0692929724
 30
0.0
 40
0.5
100
AcDbArc
 50
268.2029309138
 51
270.0
  0
ARC
  5
14E
330
1F
100
AcDbEntity
  8
0
  6
Continuous
 62
     7
370
    25
100
AcDbCircle
 10
151.3944232304
 20
74.0692929724
 30
0.0
 40
0.5
100
AcDbArc
 50
270.0
 51
271.7970690862
  0
ARC
  5
14F
330
1F
100
AcDbEntity
  8
0
  6
Continuous
 62
     7
370
    25
100
AcDbCircle
 10
138.1444232304
 20
73.0692929724
 30
0.0
 40
0.5
100
AcDbArc
 50
0.0
 51
90.0
  0
ARC
  5
150
330
1F
100
AcDbEntity
  8
0
  6
Continuous
 62
     7
370
    25
100
AcDbCircle
 10
151.1444232304
 20
73.0692929724
 30
0.0
 40
0.5
100
AcDbArc
 50
90.0
 51
180.0
  0
LINE
  5
151
330
1F
100
AcDbEntity
  8
0
  6
Continuous
 62
     7
370
    25
100
AcDbLine
 10
151.1003853445
 20
83.4805053186
 30
0.0
 11
149.8944232304
 21
85.5692929724
 31
0.0
  0
LINE
  5
152
330
1F
100
AcDbEntity
  8
0
  6
Continuous
 62
     7
370
    25
100
AcDbLine
 10
139.3944232304
 20
85.5692929724
 30
0.0
 11
138.1884611162
 21
83.4805053186
 31
0.0
  0
LINE
  5
153
330
1F
100
AcDbEntity
  8
0
  6
Continuous
 62
     7
370
    25
100
AcDbLine
 10
150.6444232304
 20
70.3192929724
 30
0.0
 11
150.6444232304
 21
73.0692929724
 31
0.0
  0
LINE
  5
154
330
1F
100
AcDbEntity
  8
0
  6
Continuous
 62
     7
370
    25
100
AcDbLine
 10
138.6444232304
 20
73.0692929724
 30
0.0
 11
138.6444232304
 21
70.3192929724
 31
0.0
  0
CIRCLE
  5
155
330
1F
100
AcDbEntity
  8
0
  6
Continuous
 62
     7
370
    25
100
AcDbCircle
 10
144.6444232304
 20
63.5692929724
 30
0.0
 40
4.050000000000016
  0
CIRCLE
  5
156
330
1F
100
AcDbEntity
  8
0
  6
Continuous
 62
     7
370
    25
100
AcDbCircle
 10
144.6444232304
 20
63.5692929724
 30
0.0
 40
8.05000000000004
  0
CIRCLE
  5
157
330
1F
100
AcDbEntity
  8
0
  6
Continuous
 62
     7
370
    25
100
AcDbCircle
 10
144.6444232304
 20
63.5692929724
 30
0.0
 40
4.175000000000011
  0
CIRCLE
  5
158
330
1F
100
AcDbEntity
  8
0
  6
Continuous
 62
     7
370
    25
100
AcDbCircle
 10
144.6444232304
 20
63.5692929724
 30
0.0
 40
4.075000000000045
  0
CIRCLE
  5
159
330
1F
100
AcDbEntity
  8
0
  6
Continuous
 62
     7
370
    25
100
AcDbCircle
 10
144.6444232304
 20
63.5692929724
 30
0.0
 40
8.250000000000028
  0
SPLINE
  5
15A
330
1F
100
AcDbEntity
  8
0
  6
Continuous
 62
     7
370
    25
100
AcDbSpline
210
0.0
220
0.0
230
1.0
 70
    24
 71
     3
 72
    10
 73
     6
 74
     0
 42
0.00000001
 43
0.00000001
 40
0.0
 40
0.0
 40
0.0
 40
0.0
 40
0.3089808900030074
 40
0.6190948628358683
 40
1.0
 40
1.0
 40
1.0
 40
1.0
 10
141.6614941636554
 20
71.66205264897744
 30
0.0
 10
141.4009106489391
 20
71.51160468660959
 30
0.0
 10
140.8787880176689
 20
71.21015704489572
 30
0.0
 10
140.0317957069484
 20
70.72114580629973
 30
0.0
 10
139.4487436099421
 20
70.38452052114158
 30
0.0
 10
139.1273522970666
 20
70.1989651601377
 30
0.0
  0
LINE
  5
15B
330
1F
100
AcDbEntity
  8
0
  6
Continuous
 62
     7
370
    25
100
AcDbLine
 10
141.6614941637
 20
71.662052649
 30
0.0
 11
141.7911867318
 21
71.3101935326
 31
0.0
  0
LINE
  5
15C
330
1F
100
AcDbEntity
  8
0
  6
Continuous
 62
     7
370
    25
100
AcDbLine
 10
139.1273522971
 20
70.1989651601
 30
0.0
 11
139.3672249463
 21
69.9107185433
 31
0.0
  0
SPLINE
  5
15D
330
1F
100
AcDbEntity
  8
0
  6
Continuous
 62
     7
370
    25
100
AcDbSpline
210
0.0
220
0.0
230
1.0
 70
    24
 71
     3
 72
    10
 73
     6
 74
     0
 42
0.00000001
 43
0.00000001
 40
0.0
 40
0.0
 40
0.0
 40
0.0
 40
0.3089808900029886
 40
0.6190948628358313
 40
1.0
 40
1.0
 40
1.0
 40
1.0
 10
150.1614941636556
 20
70.19896516013753
 30
0.0
 10
149.9009106489393
 20
70.3494131225054
 30
0.0
 10
149.378788017669
 20
70.65086076421929
 30
0.0
 10
148.5317957069484
 20
71.13987200281534
 30
0.0
 10
147.948743609942
 20
71.47649728797354
 30
0.0
 10
147.6273522970664
 20
71.66205264897748
 30
0.0
  0
LINE
  5
15E
330
1F
100
AcDbEntity
  8
0
  6
Continuous
 62
     7
370
    25
100
AcDbLine
 10
150.1614941637
 20
70.1989651601
 30
0.0
 11
149.9216215144
 21
69.9107185433
 31
0.0
  0
LINE
  5
15F
330
1F
100
AcDbEntity
  8
0
  6
Continuous
 62
     7
370
    25
100
AcDbLine
 10
147.6273522971
 20
71.662052649
 30
0.0
 11
147.4976597289
 21
71.3101935326
 31
0.0
  0
LINE
  5
160
330
1F
100
AcDbEntity
  8
0
  6
Continuous
 62
     7
370
    25
100
AcDbLine
 10
141.7911867318
 20
55.8283924122
 30
0.0
 11
141.6614941637
 21
55.4765332958
 31
0.0
  0
SPLINE
  5
161
330
1F
100
AcDbEntity
  8
0
  6
Continuous
 62
     7
370
    25
100
AcDbSpline
210
0.0
220
0.0
230
1.0
 70
    24
 71
     3
 72
    10
 73
     6
 74
     0
 42
0.00000001
 43
0.00000001
 40
0.0
 40
0.0
 40
0.0
 40
0.0
 40
0.3089808900029882
 40
0.6190948628358305
 40
1.0
 40
1.0
 40
1.0
 40
1.0
 10
139.1273522970664
 20
56.93962078464207
 30
0.0
 10
139.3879358117827
 20
56.7891728222742
 30
0.0
 10
139.910058443053
 20
56.4877251805603
 30
0.0
 10
140.7570507537736
 20
55.99871394196425
 30
0.0
 10
141.3401028507799
 20
55.66208865680604
 30
0.0
 10
141.6614941636555
 20
55.47653329580209
 30
0.0
  0
LINE
  5
162
330
1F
100
AcDbEntity
  8
0
  6
Continuous
 62
     7
370
    25
100
AcDbLine
 10
139.3672249463
 20
57.2278674015
 30
0.0
 11
139.1273522971
 21
56.9396207846
 31
0.0
  0
LINE
  5
163
330
1F
100
AcDbEntity
  8
0
  6
Continuous
 62
     7
370
    25
100
AcDbLine
 10
149.9216215144
 20
57.2278674015
 30
0.0
 11
150.1614941637
 21
56.9396207846
 31
0.0
  0
SPLINE
  5
164
330
1F
100
AcDbEntity
  8
0
  6
Continuous
 62
     7
370
    25
100
AcDbSpline
210
0.0
220
0.0
230
1.0
 70
    24
 71
     3
 72
    10
 73
     6
 74
     0
 42
0.00000001
 43
0.00000001
 40
0.0
 40
0.0
 40
0.0
 40
0.0
 40
0.3089808900029881
 40
0.6190948628358299
 40
1.0
 40
1.0
 40
1.0
 40
1.0
 10
147.6273522970664
 20
55.47653329580205
 30
0.0
 10
147.8879358117827
 20
55.62698125816991
 30
0.0
 10
148.410058443053
 20
55.9284288998838
 30
0.0
 10
149.2570507537736
 20
56.41744013847986
 30
0.0
 10
149.84010285078
 20
56.75406542363806
 30
0.0
 10
150.1614941636556
 20
56.939620784642
 30
0.0
  0
LINE
  5
165
330
1F
100
AcDbEntity
  8
0
  6
Continuous
 62
     7
370
    25
100
AcDbLine
 10
147.4976597289
 20
55.8283924122
 30
0.0
 11
147.6273522971
 21
55.4765332958
 31
0.0
  0
LINE
  5
166
330
1F
100
AcDbEntity
  8
0
  6
Continuous
 62
     7
370
    25
100
AcDbLine
 10
136.5139884478
 20
62.1698179831
 30
0.0
 11
136.1444232304
 21
62.1062054835
 31
0.0
  0
SPLINE
  5
167
330
1F
100
AcDbEntity
  8
0
  6
Continuous
 62
     7
370
    25
100
AcDbSpline
210
0.0
220
0.0
230
1.0
 70
    24
 71
     3
 72
    10
 73
     6
 74
     0
 42
0.00000001
 43
0.00000001
 40
0.0
 40
0.0
 40
0.0
 40
0.0
 40
0.0789477693778934
 40
0.5375793028234306
 40
1.0
 40
1.0
 40
1.0
 40
1.0
 10
136.144423230361
 20
65.03238046122983
 30
0.0
 10
136.144423230361
 20
64.95561080686142
 30
0.0
 10
136.144423230361
 20
64.43286294965702
 30
0.0
 10
136.144423230361
 20
63.45469124375784
 30
0.0
 10
136.144423230361
 20
62.55693184966697
 30
0.0
 10
136.144423230361
 20
62.10620548354991
 30
0.0
  0
LINE
  5
168
330
1F
100
AcDbEntity
  8
0
  6
Continuous
 62
     7
370
    25
100
AcDbLine
 10
136.1444232304
 20
65.0323804612
 30
0.0
 11
136.5139884478
 21
64.9687679617
 31
0.0
  0
LINE
  5
169
330
1F
100
AcDbEntity
  8
0
  6
Continuous
 62
     7
370
    25
100
AcDbLine
 10
153.1444232304
 20
65.0323804612
 30
0.0
 11
152.774858013
 21
64.9687679617
 31
0.0
  0
SPLINE
  5
16A
330
1F
100
AcDbEntity
  8
0
  6
Continuous
 62
     7
370
    25
100
AcDbSpline
210
0.0
220
0.0
230
1.0
 70
    24
 71
     3
 72
    10
 73
     6
 74
     0
 42
0.00000001
 43
0.00000001
 40
0.0
 40
0.0
 40
0.0
 40
0.0
 40
0.4586421336634354
 40
0.9210522271454904
 40
1.0
 40
1.0
 40
1.0
 40
1.0
 10
153.144423230361
 20
62.10620548354979
 30
0.0
 10
153.144423230361
 20
62.5532366403001
 30
0.0
 10
153.144423230361
 20
63.45097152400891
 30
0.0
 10
153.144423230361
 20
64.4291888202295
 30
0.0
 10
153.144423230361
 20
64.95561082759632
 30
0.0
 10
153.144423230361
 20
65.0323804612297
 30
0.0
  0
LINE
  5
16B
330
1F
100
AcDbEntity
  8
0
  6
Continuous
 62
     7
370
    25
100
AcDbLine
 10
152.774858013
 20
62.1698179831
 30
0.0
 11
153.1444232304
 21
62.1062054835
 31
0.0
  0
ARC
  5
16C
330
1F
100
AcDbEntity
  8
0
  6
Continuous
 62
     7
370
    25
100
AcDbCircle
 10
144.6444232304
 20
63.5692929724
 30
0.0
 40
8.625000000000044
100
AcDbArc
 50
129.766500898
 51
170.233499102
  0
ARC
  5
16D
330
1F
100
AcDbEntity
  8
0
  6
Continuous
 62
     7
370
    25
100
AcDbCircle
 10
144.6444232304
 20
63.5692929724
 30
0.0
 40
8.624999999999995
100
AcDbArc
 50
9.766500898
 51
50.233499102
  0
ARC
  5
16E
330
1F
100
AcDbEntity
  8
0
  6
Continuous
 62
     7
370
    25
100
AcDbCircle
 10
144.6444232304
 20
63.5692929724
 30
0.0
 40
8.625000000000016
100
AcDbArc
 50
249.766500898
 51
290.233499102
  0
ARC
  5
16F
330
1F
100
AcDbEntity
  8
0
  6
Continuous
 62
     7
370
    25
100
AcDbCircle
 10
144.6444232304
 20
63.5692929724
 30
0.0
 40
8.624999999999982
100
AcDbArc
 50
309.766500898
 51
350.233499102
  0
ARC
  5
170
330
1F
100
AcDbEntity
  8
0
  6
Continuous
 62
     7
370
    25
100
AcDbCircle
 10
144.6444232304
 20
63.5692929724
 30
0.0
 40
8.625000000000012
100
AcDbArc
 50
69.766500898
 51
110.233499102
  0
ARC
  5
171
330
1F
100
AcDbEntity
  8
0
  6
Continuous
 62
     7
370
    25
100
AcDbCircle
 10
144.6444232304
 20
63.5692929724
 30
0.0
 40
8.62500000000004
100
AcDbArc
 50
189.766500898
 51
230.233499102
  0
SPLINE
  5
172
330
1F
100
AcDbEntity
  8
0
  6
Continuous
 62
     7
370
    25
100
AcDbSpline
210
0.0
220
0.0
230
1.0
 70
    24
 71
     3
 72
    11
 73
     7
 74
     0
 42
0.00000001
 43
0.00000001
 40
0.0
 40
0.0
 40
0.0
 40
0.0
 40
0.2490252138763564
 40
0.4980311639765297
 40
0.74902692048002
 40
0.9999999999999999
 40
0.9999999999999999
 40
0.9999999999999999
 40
0.9999999999999999
 10
153.144423230361
 20
68.47677026050158
 30
0.0
 10
152.9008164665991
 20
68.61741669113597
 30
0.0
 10
152.4136217836977
 20
68.8986986724568
 30
0.0
 10
151.671486238902
 20
69.32717082901982
 30
0.0
 10
150.9211444774284
 20
69.76038084699084
 30
0.0
 10
150.4147033085712
 20
70.05277479215924
 30
0.0
 10
150.1614941636556
 20
70.19896516013753
 30
0.0
  0
SPLINE
  5
173
330
1F
100
AcDbEntity
  8
0
  6
Continuous
 62
     7
370
    25
100
AcDbSpline
210
0.0
220
0.0
230
1.0
 70
    24
 71
     3
 72
    11
 73
     7
 74
     0
 42
0.00000001
 43
0.00000001
 40
0.0
 40
0.0
 40
0.0
 40
0.0
 40
0.2488617730236801
 40
0.4977454583558502
 40
0.748862751792887
 40
0.9999999999999999
 40
0.9999999999999999
 40
0.9999999999999999
 40
0.9999999999999999
 10
153.144423230361
 20
65.0323804612297
 30
0.0
 10
153.144423230361
 20
65.32230522183569
 30
0.0
 10
153.144423230361
 20
65.90218027095703
 30
0.0
 10
153.144423230361
 20
66.76625944594595
 30
0.0
 10
153.144423230361
 20
67.62573558789981
 30
0.0
 10
153.144423230361
 20
68.1930845226357
 30
0.0
 10
153.144423230361
 20
68.47677026050158
 30
0.0
  0
SPLINE
  5
174
330
1F
100
AcDbEntity
  8
0
  6
Continuous
 62
     7
370
    25
100
AcDbSpline
210
0.0
220
0.0
230
1.0
 70
    24
 71
     3
 72
    11
 73
     7
 74
     0
 42
0.00000001
 43
0.00000001
 40
0.0
 40
0.0
 40
0.0
 40
0.0
 40
0.2490252138763566
 40
0.4980311639765298
 40
0.74902692048002
 40
1.0
 40
1.0
 40
1.0
 40
1.0
 10
136.144423230361
 20
58.66181568427804
 30
0.0
 10
136.3880299941229
 20
58.52116925364366
 30
0.0
 10
136.8752246770242
 20
58.23988727232281
 30
0.0
 10
137.61736022182
 20
57.81141511575979
 30
0.0
 10
138.3677019832936
 20
57.37820509778877
 30
0.0
 10
138.8741431521508
 20
57.08581115262037
 30
0.0
 10
139.1273522970664
 20
56.93962078464207
 30
0.0
  0
SPLINE
  5
175
330
1F
100
AcDbEntity
  8
0
  6
Continuous
 62
     7
370
    25
100
AcDbSpline
210
0.0
220
0.0
230
1.0
 70
    24
 71
     3
 72
    10
 73
     6
 74
     0
 42
0.00000001
 43
0.00000001
 40
0.0
 40
0.0
 40
0.0
 40
0.0
 40
0.3355445600395944
 40
0.6726666839999051
 40
0.9999999999999999
 40
0.9999999999999999
 40
0.9999999999999999
 40
0.9999999999999999
 10
136.144423230361
 20
62.10620548354991
 30
0.0
 10
136.144423230361
 20
61.71557591724647
 30
0.0
 10
136.144423230361
 20
60.93248023836956
 30
0.0
 10
136.144423230361
 20
59.78322826895478
 30
0.0
 10
136.144423230361
 20
59.03193048719388
 30
0.0
 10
136.144423230361
 20
58.66181568427804
 30
0.0
  0
SPLINE
  5
176
330
1F
100
AcDbEntity
  8
0
  6
Continuous
 62
     7
370
    25
100
AcDbSpline
210
0.0
220
0.0
230
1.0
 70
    24
 71
     3
 72
    11
 73
     7
 74
     0
 42
0.00000001
 43
0.00000001
 40
0.0
 40
0.0
 40
0.0
 40
0.0
 40
0.2488617730236801
 40
0.49774545835585
 40
0.7488627517928869
 40
1.0
 40
1.0
 40
1.0
 40
1.0
 10
139.1273522970666
 20
70.1989651601377
 30
0.0
 10
138.8762700891957
 20
70.0540027798347
 30
0.0
 10
138.3740835656359
 20
69.764065255274
 30
0.0
 10
137.6257690492143
 20
69.33202566777956
 30
0.0
 10
136.8814408763356
 20
68.90228759680261
 30
0.0
 10
136.3901022860443
 20
68.61861312943465
 30
0.0
 10
136.144423230361
 20
68.47677026050171
 30
0.0
  0
SPLINE
  5
177
330
1F
100
AcDbEntity
  8
0
  6
Continuous
 62
     7
370
    25
100
AcDbSpline
210
0.0
220
0.0
230
1.0
 70
    24
 71
     3
 72
    11
 73
     7
 74
     0
 42
0.00000001
 43
0.00000001
 40
0.0
 40
0.0
 40
0.0
 40
0.0
 40
0.2490252138763564
 40
0.4980311639765295
 40
0.7490269204800197
 40
0.9999999999999999
 40
0.9999999999999999
 40
0.9999999999999999
 40
0.9999999999999999
 10
136.144423230361
 20
68.47677026050171
 30
0.0
 10
136.144423230361
 20
68.19547739923294
 30
0.0
 10
136.144423230361
 20
67.63291343659128
 30
0.0
 10
136.1444232303611
 20
66.77596912346526
 30
0.0
 10
136.144423230361
 20
65.9095490875232
 30
0.0
 10
136.144423230361
 20
65.32476119718642
 30
0.0
 10
136.144423230361
 20
65.03238046122983
 30
0.0
  0
SPLINE
  5
178
330
1F
100
AcDbEntity
  8
0
  6
Continuous
 62
     7
370
    25
100
AcDbSpline
210
0.0
220
0.0
230
1.0
 70
    24
 71
     3
 72
    11
 73
     7
 74
     0
 42
0.00000001
 43
0.00000001
 40
0.0
 40
0.0
 40
0.0
 40
0.0
 40
0.2490252138763567
 40
0.4980311639765301
 40
0.7490269204800203
 40
1.0
 40
1.0
 40
1.0
 40
1.0
 10
144.644423230361
 20
53.75433839616613
 30
0.0
 10
144.8880299941229
 20
53.89498482680051
 30
0.0
 10
145.3752246770242
 20
54.17626680812134
 30
0.0
 10
146.11736022182
 20
54.60473896468434
 30
0.0
 10
146.8677019832936
 20
55.03794898265537
 30
0.0
 10
147.3741431521508
 20
55.33034292782375
 30
0.0
 10
147.6273522970664
 20
55.47653329580205
 30
0.0
  0
SPLINE
  5
179
330
1F
100
AcDbEntity
  8
0
  6
Continuous
 62
     7
370
    25
100
AcDbSpline
210
0.0
220
0.0
230
1.0
 70
    24
 71
     3
 72
    11
 73
     7
 74
     0
 42
0.00000001
 43
0.00000001
 40
0.0
 40
0.0
 40
0.0
 40
0.0
 40
0.2488617730236804
 40
0.4977454583558503
 40
0.748862751792887
 40
0.9999999999999999
 40
0.9999999999999999
 40
0.9999999999999999
 40
0.9999999999999999
 10
141.6614941636555
 20
55.47653329580209
 30
0.0
 10
141.9125763715264
 20
55.33157091549911
 30
0.0
 10
142.4147628950863
 20
55.04163339093842
 30
0.0
 10
143.1630774115078
 20
54.60959380344396
 30
0.0
 10
143.9074055843865
 20
54.17985573246703
 30
0.0
 10
144.3987441746778
 20
53.89618126509907
 30
0.0
 10
144.644423230361
 20
53.75433839616613
 30
0.0
  0
SPLINE
  5
17A
330
1F
100
AcDbEntity
  8
0
  6
Continuous
 62
     7
370
    25
100
AcDbSpline
210
0.0
220
0.0
230
1.0
 70
    24
 71
     3
 72
    11
 73
     7
 74
     0
 42
0.00000001
 43
0.00000001
 40
0.0
 40
0.0
 40
0.0
 40
0.0
 40
0.2490252138763565
 40
0.4980311639765297
 40
0.7490269204800201
 40
1.0
 40
1.0
 40
1.0
 40
1.0
 10
144.644423230361
 20
73.38424754861343
 30
0.0
 10
144.4008164665991
 20
73.24360111797904
 30
0.0
 10
143.9136217836977
 20
72.96231913665821
 30
0.0
 10
143.1714862389019
 20
72.53384698009519
 30
0.0
 10
142.4211444774283
 20
72.10063696212414
 30
0.0
 10
141.9147033085711
 20
71.80824301695574
 30
0.0
 10
141.6614941636554
 20
71.66205264897744
 30
0.0
  0
SPLINE
  5
17B
330
1F
100
AcDbEntity
  8
0
  6
Continuous
 62
     7
370
    25
100
AcDbSpline
210
0.0
220
0.0
230
1.0
 70
    24
 71
     3
 72
    11
 73
     7
 74
     0
 42
0.00000001
 43
0.00000001
 40
0.0
 40
0.0
 40
0.0
 40
0.0
 40
0.2488617730236806
 40
0.4977454583558505
 40
0.7488627517928871
 40
1.0
 40
1.0
 40
1.0
 40
1.0
 10
147.6273522970664
 20
71.66205264897748
 30
0.0
 10
147.3762700891955
 20
71.80701502928046
 30
0.0
 10
146.8740835656357
 20
72.09695255384115
 30
0.0
 10
146.1257690492142
 20
72.5289921413356
 30
0.0
 10
145.3814408763355
 20
72.95873021231255
 30
0.0
 10
144.8901022860442
 20
73.24240467968049
 30
0.0
 10
144.644423230361
 20
73.38424754861343
 30
0.0
  0
SPLINE
  5
17C
330
1F
100
AcDbEntity
  8
0
  6
Continuous
 62
     7
370
    25
100
AcDbSpline
210
0.0
220
0.0
230
1.0
 70
    24
 71
     3
 72
    11
 73
     7
 74
     0
 42
0.00000001
 43
0.00000001
 40
0.0
 40
0.0
 40
0.0
 40
0.0
 40
0.2488617730236801
 40
0.4977454583558504
 40
0.7488627517928869
 40
1.0
 40
1.0
 40
1.0
 40
1.0
 10
150.1614941636556
 20
56.939620784642
 30
0.0
 10
150.4125763715265
 20
57.08458316494498
 30
0.0
 10
150.9147628950863
 20
57.37452068950566
 30
0.0
 10
151.6630774115078
 20
57.8065602770001
 30
0.0
 10
152.4074055843865
 20
58.23629834797703
 30
0.0
 10
152.8987441746778
 20
58.51997281534498
 30
0.0
 10
153.144423230361
 20
58.66181568427791
 30
0.0
  0
SPLINE
  5
17D
330
1F
100
AcDbEntity
  8
0
  6
Continuous
 62
     7
370
    25
100
AcDbSpline
210
0.0
220
0.0
230
1.0
 70
    24
 71
     3
 72
    10
 73
     6
 74
     0
 42
0.00000001
 43
0.00000001
 40
0.0
 40
0.0
 40
0.0
 40
0.0
 40
0.3273333707077127
 40
0.6629523133412113
 40
0.9999999999999999
 40
0.9999999999999999
 40
0.9999999999999999
 40
0.9999999999999999
 10
153.144423230361
 20
58.66181568427792
 30
0.0
 10
153.144423230361
 20
59.03193047292918
 30
0.0
 10
153.144423230361
 20
59.78152851973892
 30
0.0
 10
153.144423230361
 20
60.93073854029518
 30
0.0
 10
153.144423230361
 20
61.71382874122871
 30
0.0
 10
153.144423230361
 20
62.10620548354979
 30
0.0
  0
CIRCLE
  5
17E
330
1F
100
AcDbEntity
  8
0
  6
Continuous
 62
     7
370
    25
100
AcDbCircle
 10
144.6444232304
 20
63.5692929724
 30
0.0
 40
3.000000000000028
  0
LINE
  5
17F
330
1F
100
AcDbEntity
  8
0
  6
Continuous
 62
     7
370
    25
100
AcDbLine
 10
138.1884611162
 20
83.4805053186
 30
0.0
 11
151.1003853445
 21
83.4805053186
 31
0.0
  0
LINE
  5
180
330
1F
100
AcDbEntity
  8
0
  6
Continuous
 62
     7
370
    25
100
AcDbLine
 10
144.6444232304
 20
73.5695388895
 30
0.0
 11
151.4101030455
 21
73.5695388895
 31
0.0
  0
LINE
  5
181
330
1F
100
AcDbEntity
  8
0
  6
Continuous
 62
     7
370
    25
100
AcDbLine
 10
137.8787434153
 20
73.5695388895
 30
0.0
 11
144.6444232304
 21
73.5695388895
 31
0.0
  0
LINE
  5
182
330
1F
100
AcDbEntity
  8
0
  6
Continuous
 62
     7
370
    25
100
AcDbLine
 10
144.6444232304
 20
73.5692929724
 30
0.0
 11
137.8944232304
 21
73.5692929724
 31
0.0
  0
LINE
  5
183
330
1F
100
AcDbEntity
  8
0
  6
Continuous
 62
     7
370
    25
100
AcDbLine
 10
151.3944232304
 20
73.5692929724
 30
0.0
 11
144.6444232304
 21
73.5692929724
 31
0.0
  0
LINE
  5
184
330
1F
100
AcDbEntity
  8
0
  6
Continuous
 62
     7
370
    25
100
AcDbLine
 10
149.8944232304
 20
85.5692929724
 30
0.0
 11
139.3944232304
 21
85.5692929724
 31
0.0
  0
SPLINE
  5
185
330
1F
100
AcDbEntity
  8
0
  6
Continuous
 62
     7
370
    25
100
AcDbSpline
210
0.0
220
0.0
230
1.0
 70
    24
 71
     3
 72
    14
 73
    10
 74
     0
 42
0.00000001
 43
0.00000001
 40
0.0
 40
0.0
 40
0.0
 40
0.0
 40
0.25
 40
0.25
 40
0.5
 40
0.5
 40
0.75
 40
0.75
 40
1.0
 40
1.0
 40
1.0
 40
1.0
 10
138.644423230361
 20
70.31929297238979
 30
0.0
 10
138.644423230361
 20
70.31929297238979
 30
0.0
 10
138.6542681440986
 20
70.31929297238979
 30
0.0
 10
138.6937602504077
 20
70.31929297238979
 30
0.0
 10
138.7234078895829
 20
70.31929297238979
 30
0.0
 10
138.8028370267866
 20
70.31929297238979
 30
0.0
 10
138.8526194508559
 20
70.31929297238979
 30
0.0
 10
138.9728484371905
 20
70.31929297238979
 30
0.0
 10
139.0432964697976
 20
70.31929297238979
 30
0.0
 10
139.124423230361
 20
70.31929297238979
 30
0.0
  0
SPLINE
  5
186
330
1F
100
AcDbEntity
  8
0
  6
Continuous
 62
     7
370
    25
100
AcDbSpline
210
0.0
220
0.0
230
1.0
 70
    24
 71
     3
 72
    14
 73
    10
 74
     0
 42
0.00000001
 43
0.00000001
 40
0.0
 40
0.0
 40
0.0
 40
0.0
 40
0.25
 40
0.25
 40
0.5
 40
0.5
 40
0.75
 40
0.75
 40
1.0
 40
1.0
 40
1.0
 40
1.0
 10
150.644423230361
 20
70.31929297238979
 30
0.0
 10
150.644423230361
 20
70.31929297238979
 30
0.0
 10
150.6345783166234
 20
70.31929297238979
 30
0.0
 10
150.5950862103143
 20
70.31929297238979
 30
0.0
 10
150.5654385711391
 20
70.31929297238979
 30
0.0
 10
150.4860094339354
 20
70.31929297238979
 30
0.0
 10
150.4362270098662
 20
70.31929297238979
 30
0.0
 10
150.3159980235315
 20
70.31929297238979
 30
0.0
 10
150.2455499909244
 20
70.31929297238979
 30
0.0
 10
150.164423230361
 20
70.31929297238979
 30
0.0
  0
SPLINE
  5
187
330
1F
100
AcDbEntity
  8
0
  6
Continuous
 62
     7
370
    25
100
AcDbSpline
210
0.0
220
0.0
230
1.0
 70
     8
 71
     3
 72
    10
 73
     6
 74
     0
 42
0.00000001
 43
0.00000001
 40
0.0
 40
0.0
 40
0.0
 40
0.0
 40
0.5
 40
0.5
 40
1.0
 40
1.0
 40
1.0
 40
1.0
 10
150.2372109774666
 20
70.1425083766492
 30
0.0
 10
150.2096700306446
 20
70.1709356367165
 30
0.0
 10
150.190056896755
 20
70.20516227488334
 30
0.0
 10
150.1677480234666
 20
70.2681843204209
 30
0.0
 10
150.164423230361
 20
70.29677003971288
 30
0.0
 10
150.164423230361
 20
70.31929297238979
 30
0.0
  0
ARC
  5
188
330
1F
100
AcDbEntity
  8
0
  6
Continuous
 62
     7
370
    25
100
AcDbCircle
 10
138.8944232304
 20
69.8192929724
 30
0.0
 40
0.25
100
AcDbArc
 50
90.0
 51
150.201750927
  0
ARC
  5
189
330
1F
100
AcDbEntity
  8
0
  6
Continuous
 62
     7
370
    25
100
AcDbCircle
 10
150.3944232304
 20
69.8192929724
 30
0.0
 40
0.2500000000000154
100
AcDbArc
 50
30.1805645962
 51
90.0
  0
SPLINE
  5
18A
330
1F
100
AcDbEntity
  8
0
  6
Continuous
 62
     7
370
    25
100
AcDbSpline
210
0.0
220
0.0
230
1.0
 70
     8
 71
     3
 72
    10
 73
     6
 74
     0
 42
0.00000001
 43
0.00000001
 40
0.0
 40
0.0
 40
0.0
 40
0.0
 40
0.5
 40
0.5
 40
1.0
 40
1.0
 40
1.0
 40
1.0
 10
139.0516354832554
 20
70.1425083766492
 30
0.0
 10
139.0791764300774
 20
70.1709356367165
 30
0.0
 10
139.0987895639671
 20
70.20516227488334
 30
0.0
 10
139.1210984372554
 20
70.2681843204209
 30
0.0
 10
139.124423230361
 20
70.29677003971288
 30
0.0
 10
139.124423230361
 20
70.31929297238979
 30
0.0
  0
LINE
  5
18B
330
1F
100
AcDbEntity
  8
0
  6
Continuous
 62
     7
370
    25
100
AcDbLine
 10
147.6024631219
 20
63.0692929724
 30
0.0
 11
141.6863833388
 21
63.0692929724
 31
0.0
  0
SPLINE
  5
18C
330
1F
100
AcDbEntity
  8
0
  6
Continuous
 62
     7
370
    25
100
AcDbSpline
210
0.0
220
0.0
230
1.0
 70
     8
 71
     3
 72
    18
 73
    14
 74
     0
 42
0.00000001
 43
0.00000001
 40
0.0
 40
0.0
 40
0.0
 40
0.0
 40
0.2499999999999999
 40
0.2499999999999999
 40
0.3749999999999998
 40
0.3749999999999998
 40
0.4999999999999998
 40
0.4999999999999998
 40
0.6249999999999998
 40
0.6249999999999998
 40
0.7499999999999998
 40
0.7499999999999998
 40
1.0
 40
1.0
 40
1.0
 40
1.0
 10
147.4240990915273
 20
62.44084177413191
 30
0.0
 10
147.004484971557
 20
62.24197222896349
 30
0.0
 10
146.5716489471385
 20
62.05994883193031
 30
0.0
 10
145.8781917343723
 20
61.84233191837659
 30
0.0
 10
145.636891298163
 20
61.77872138602961
 30
0.0
 10
145.1487719528511
 20
61.68799556526029
 30
0.0
 10
144.9015022427247
 20
61.6611770155593
 30
0.0
 10
144.3990870234719
 20
61.66037507544369
 30
0.0
 10
144.1471799187476
 20
61.68706321449842
 30
0.0
 10
143.6596884738064
 20
61.77690732704433
 30
0.0
 10
143.4198066072259
 20
61.8397181961839
 30
0.0
 10
142.7203321850479
 20
62.05846027489032
 30
0.0
 10
142.2856080880992
 20
62.24138142290798
 30
0.0
 10
141.8647473691948
 20
62.44084177413191
 30
0.0
  0
SPLINE
  5
18D
330
1F
100
AcDbEntity
  8
0
  6
Continuous
 62
     7
370
    25
100
AcDbSpline
210
0.0
220
0.0
230
1.0
 70
     8
 71
     3
 72
    12
 73
     8
 74
     0
 42
0.00000001
 43
0.00000001
 40
0.0
 40
0.0
 40
0.0
 40
0.0
 40
0.25
 40
0.25
 40
0.5
 40
0.5
 40
1.0
 40
1.0
 40
1.0
 40
1.0
 10
150.6431300130325
 20
70.07130057267946
 30
0.0
 10
150.6431198556753
 20
70.06103711339034
 30
0.0
 10
150.6345634295639
 20
70.05345833359355
 30
0.0
 10
150.613190073329
 20
70.0390448781445
 30
0.0
 10
150.6003731432055
 20
70.0322102024922
 30
0.0
 10
150.5747796470619
 20
70.00588444949176
 30
0.0
 10
150.5710520952133
 20
69.99621749813078
 30
0.0
 10
150.5711999256584
 20
69.99606966768562
 30
0.0
  0
SPLINE
  5
18E
330
1F
100
AcDbEntity
  8
0
  6
Continuous
 62
     7
370
    25
100
AcDbSpline
210
0.0
220
0.0
230
1.0
 70
     8
 71
     3
 72
    12
 73
     8
 74
     0
 42
0.00000001
 43
0.00000001
 40
0.0
 40
0.0
 40
0.0
 40
0.0
 40
0.25
 40
0.25
 40
0.5
 40
0.5
 40
1.0
 40
1.0
 40
1.0
 40
1.0
 10
150.6431300130325
 20
70.07130057267946
 30
0.0
 10
150.6431401703896
 20
70.08156403196861
 30
0.0
 10
150.6346057579966
 20
70.09622892239936
 30
0.0
 10
150.5985602698914
 20
70.12796430058286
 30
0.0
 10
150.5710491941792
 20
70.14503478833561
 30
0.0
 10
150.4572196863355
 20
70.19025875013504
 30
0.0
 10
150.3561581352922
 20
70.18343532286833
 30
0.0
 10
150.2372109774666
 20
70.1425083766492
 30
0.0
  0
SPLINE
  5
18F
330
1F
100
AcDbEntity
  8
0
  6
Continuous
 62
     7
370
    25
100
AcDbSpline
210
0.0
220
0.0
230
1.0
 70
     8
 71
     3
 72
    12
 73
     8
 74
     0
 42
0.00000001
 43
0.00000001
 40
0.0
 40
0.0
 40
0.0
 40
0.0
 40
0.25
 40
0.25
 40
0.5
 40
0.5
 40
1.0
 40
1.0
 40
1.0
 40
1.0
 10
138.6457164476896
 20
70.07130057267946
 30
0.0
 10
138.6457266050467
 20
70.06103711339033
 30
0.0
 10
138.6542830311582
 20
70.05345833359355
 30
0.0
 10
138.6756563873931
 20
70.03904487814448
 30
0.0
 10
138.6884733175166
 20
70.0322102024922
 30
0.0
 10
138.7140668136601
 20
70.00588444949176
 30
0.0
 10
138.7177943655088
 20
69.99621749813078
 30
0.0
 10
138.7176465350636
 20
69.99606966768562
 30
0.0
  0
SPLINE
  5
190
330
1F
100
AcDbEntity
  8
0
  6
Continuous
 62
     7
370
    25
100
AcDbSpline
210
0.0
220
0.0
230
1.0
 70
     8
 71
     3
 72
    14
 73
    10
 74
     0
 42
0.00000001
 43
0.00000001
 40
0.0
 40
0.0
 40
0.0
 40
0.0
 40
0.25
 40
0.25
 40
0.5
 40
0.5
 40
0.75
 40
0.75
 40
1.0
 40
1.0
 40
1.0
 40
1.0
 10
138.6457164476896
 20
70.07130057267946
 30
0.0
 10
138.6457062903324
 20
70.08156403196861
 30
0.0
 10
138.6542407027254
 20
70.09622892239935
 30
0.0
 10
138.6902861908306
 20
70.12796430058286
 30
0.0
 10
138.7177972665428
 20
70.14503478833561
 30
0.0
 10
138.7936836051053
 20
70.1751840962019
 30
0.0
 10
138.8379205775068
 20
70.1810155663518
 30
0.0
 10
138.9371597271254
 20
70.17490944313023
 30
0.0
 10
138.9921619043426
 20
70.16297184975878
 30
0.0
 10
139.0516354832554
 20
70.1425083766492
 30
0.0
  0
SPLINE
  5
191
330
1F
100
AcDbEntity
  8
0
  6
Continuous
 62
     7
370
    25
100
AcDbSpline
210
0.0
220
0.0
230
1.0
 70
     8
 71
     3
 72
    10
 73
     6
 74
     0
 42
0.00000001
 43
0.00000001
 40
0.0
 40
0.0
 40
0.0
 40
0.0
 40
0.5
 40
0.5
 40
1.0
 40
1.0
 40
1.0
 40
1.0
 10
150.6431300130325
 20
70.07130057267946
 30
0.0
 10
150.6431706424611
 20
70.112354409836
 30
0.0
 10
150.6436158473093
 20
70.155831240217
 30
0.0
 10
150.6400902463581
 20
70.24488993994134
 30
0.0
 10
150.644423230361
 20
70.27699330946501
 30
0.0
 10
150.644423230361
 20
70.31929297238979
 30
0.0
  0
SPLINE
  5
192
330
1F
100
AcDbEntity
  8
0
  6
Continuous
 62
     7
370
    25
100
AcDbSpline
210
0.0
220
0.0
230
1.0
 70
     8
 71
     3
 72
     9
 73
     5
 74
     0
 42
0.00000001
 43
0.00000001
 40
0.0
 40
0.0
 40
0.0
 40
0.0
 40
0.1237695466188387
 40
1.0
 40
1.0
 40
1.0
 40
1.0
 10
138.6462097906407
 20
70.20034881993338
 30
0.0
 10
138.6462968376759
 20
70.1950251972396
 30
0.0
 10
138.6470001369732
 20
70.15201281786838
 30
0.0
 10
138.6463159516796
 20
70.10899451750797
 30
0.0
 10
138.6457164476896
 20
70.07130057267946
 30
0.0
  0
LINE
  5
193
330
1F
100
AcDbEntity
  8
0
  6
Continuous
 62
     7
370
    25
100
AcDbLine
 10
144.0976449574
 20
73.0692929724
 30
0.0
 11
138.6444232304
 21
73.0692929724
 31
0.0
  0
LINE
  5
194
330
1F
100
AcDbEntity
  8
0
  6
Continuous
 62
     7
370
    25
100
AcDbLine
 10
150.6444232304
 20
73.0692929724
 30
0.0
 11
145.1915491239
 21
73.0692929724
 31
0.0
  0
LINE
  5
195
330
1F
100
AcDbEntity
  8
0
  6
Continuous
 62
     7
370
    25
100
AcDbLine
 10
149.9676243502
 20
70.3192929724
 30
0.0
 11
150.1644232304
 21
70.3192929724
 31
0.0
  0
LINE
  5
196
330
1F
100
AcDbEntity
  8
0
  6
Continuous
 62
     7
370
    25
100
AcDbLine
 10
139.1244232304
 20
70.3192929724
 30
0.0
 11
139.3210254504
 21
70.3192929724
 31
0.0
  0
SPLINE
  5
197
330
1F
100
AcDbEntity
  8
0
  6
Continuous
 62
     7
370
    25
100
AcDbSpline
210
0.0
220
0.0
230
1.0
 70
     8
 71
     3
 72
     9
 73
     5
 74
     0
 42
0.00000001
 43
0.00000001
 40
0.0
 40
0.0
 40
0.0
 40
0.0
 40
0.1251150623302261
 40
1.0
 40
1.0
 40
1.0
 40
1.0
 10
150.6450520403393
 20
69.94050139250474
 30
0.0
 10
150.6450880987768
 20
69.94595709259805
 30
0.0
 10
150.6453763009874
 20
69.9895625545759
 30
0.0
 10
150.6441782072218
 20
70.03315883958588
 30
0.0
 10
150.6431300130325
 20
70.07130057267946
 30
0.0
  0
SPLINE
  5
198
330
1F
100
AcDbEntity
  8
0
  6
Continuous
 62
     7
370
    25
100
AcDbSpline
210
0.0
220
0.0
230
1.0
 70
     8
 71
     3
 72
     9
 73
     5
 74
     0
 42
0.00000001
 43
0.00000001
 40
0.0
 40
0.0
 40
0.0
 40
0.0
 40
0.1251150623495256
 40
1.0
 40
1.0
 40
1.0
 40
1.0
 10
138.6437944203828
 20
69.94050139250186
 30
0.0
 10
138.6437583619453
 20
69.94595709259612
 30
0.0
 10
138.6434701597346
 20
69.98956255457493
 30
0.0
 10
138.6446682535002
 20
70.03315883958587
 30
0.0
 10
138.6457164476896
 20
70.07130057267946
 30
0.0
  0
LINE
  5
199
330
1F
100
AcDbEntity
  8
0
  6
Continuous
 62
     7
370
    25
100
AcDbLine
 10
138.6444232304
 20
70.3192929724
 30
0.0
 11
138.6462097906
 21
70.2003488199
 31
0.0
  0
INSERT
  5
1A5
330
1F
100
AcDbEntity
  8
FORMAT
100
AcDbBlockReference
  2
SW_CENTERMARKSYMBOL_0
 10
144.6444232304
 20
63.5692929724
 30
0.0
  0
LINE
  5
1A6
330
1F
100
AcDbEntity
  8
FORMAT
100
AcDbLine
 10
150.3249516505
 20
84.8235958746
 30
0.0
 11
150.6766409313
 21
73.5695388895
 31
0.0
  0
LINE
  5
1A7
330
1F
100
AcDbEntity
  8
FORMAT
100
AcDbLine
 10
138.9638948102
 20
84.8235958746
 30
0.0
 11
138.6122055294
 21
73.5695388895
 31
0.0
  0
LINE
  5
1A8
330
1F
100
AcDbEntity
  8
FORMAT
100
AcDbLine
 10
137.8787434153
 20
73.5695388895
 30
0.0
 11
151.4101030455
 21
73.5695388895
 31
0.0
  0
LINE
  5
1A9
330
1F
100
AcDbEntity
  8
0
  6
Continuous
 62
     7
370
    25
100
AcDbLine
 10
109.317874688
 20
120.1319873116
 30
0.0
 11
109.1735371207
 21
119.8819873116
 31
0.0
  0
LINE
  5
1AA
330
1F
100
AcDbEntity
  8
0
  6
Continuous
 62
     7
370
    25
100
AcDbLine
 10
109.1735371207
 20
103.3819873116
 30
0.0
 11
109.317874688
 21
103.1319873116
 31
0.0
  0
LINE
  5
1AB
330
1F
100
AcDbEntity
  8
0
  6
Continuous
 62
     7
370
    25
100
AcDbLine
 10
121.9735371207
 20
103.3819873116
 30
0.0
 11
122.1735371207
 21
103.5819873116
 31
0.0
  0
LINE
  5
1AC
330
1F
100
AcDbEntity
  8
0
  6
Continuous
 62
     7
370
    25
100
AcDbLine
 10
122.1735371207
 20
119.6819873116
 30
0.0
 11
121.9735371207
 21
119.8819873116
 31
0.0
  0
LINE
  5
1AD
330
1F
100
AcDbEntity
  8
0
  6
Continuous
 62
     7
370
    25
100
AcDbLine
 10
121.9735371207
 20
119.8819873116
 30
0.0
 11
121.0898529151
 21
119.8819873116
 31
0.0
  0
LINE
  5
1AE
330
1F
100
AcDbEntity
  8
0
  6
Continuous
 62
     7
370
    25
100
AcDbLine
 10
121.0898529151
 20
103.3819873116
 30
0.0
 11
121.9735371207
 21
103.3819873116
 31
0.0
  0
SPLINE
  5
1AF
330
1F
100
AcDbEntity
  8
0
  6
Continuous
 62
     7
370
    25
100
AcDbSpline
210
0.0
220
0.0
230
1.0
 70
     8
 71
     3
 72
    13
 73
     9
 74
     0
 42
0.00000001
 43
0.00000001
 40
0.0
 40
0.0
 40
0.0
 40
0.0
 40
0.1164662692098554
 40
0.2955664373002757
 40
0.4881735373273774
 40
0.69333713118472
 40
0.9071880046062074
 40
1.0
 40
1.0
 40
1.0
 40
1.0
 10
120.5304946088333
 20
103.129959036814
 30
0.0
 10
120.5461183950727
 20
103.1473220002876
 30
0.0
 10
120.5857682170105
 20
103.191385481411
 30
0.0
 10
120.6673218500772
 20
103.2551601620673
 30
0.0
 10
120.7734294078997
 20
103.3163472469309
 30
0.0
 10
120.8963990760321
 20
103.3598725596398
 30
0.0
 10
121.0044325008176
 20
103.3820411804242
 30
0.0
 10
121.069871777962
 20
103.379482333227
 30
0.0
 10
121.0896770772223
 20
103.3787078941331
 30
0.0
  0
SPLINE
  5
1B0
330
1F
100
AcDbEntity
  8
0
  6
Continuous
 62
     7
370
    25
100
AcDbSpline
210
0.0
220
0.0
230
1.0
 70
     8
 71
     3
 72
    14
 73
    10
 74
     0
 42
0.00000001
 43
0.00000001
 40
0.0
 40
0.0
 40
0.0
 40
0.0
 40
0.0191201055278471
 40
0.2219291976981575
 40
0.4125927998592578
 40
0.5917294101412465
 40
0.7591610216314844
 40
0.9136930382393558
 40
1.0
 40
1.0
 40
1.0
 40
1.0
 10
121.0893127360706
 20
119.8831177868637
 30
0.0
 10
121.0852141117529
 20
119.882772728641
 30
0.0
 10
121.0376409220986
 20
119.8787675993585
 30
0.0
 10
120.948752795469
 20
119.8932001018531
 30
0.0
 10
120.8300050618334
 20
119.9246420447128
 30
0.0
 10
120.7249983637986
 20
119.9734213198649
 30
0.0
 10
120.6359633675371
 20
120.032111938436
 30
0.0
 10
120.5698389752936
 20
120.0884038904044
 30
0.0
 10
120.5382852243068
 20
120.1247929309147
 30
0.0
 10
120.5269776344878
 20
120.1378332931896
 30
0.0
  0
LINE
  5
1B1
330
1F
100
AcDbEntity
  8
0
  6
Continuous
 62
     7
370
    25
100
AcDbLine
 10
109.1735371207
 20
118.2104873116
 30
0.0
 11
106.2283120618
 21
118.2104873116
 31
0.0
  0
LINE
  5
1B2
330
1F
100
AcDbEntity
  8
0
  6
Continuous
 62
     7
370
    25
100
AcDbLine
 10
106.2283120618
 20
105.0534873116
 30
0.0
 11
109.1735371207
 21
105.0534873116
 31
0.0
  0
ARC
  5
1B3
330
1F
100
AcDbEntity
  8
0
  6
Continuous
 62
     7
370
    25
100
AcDbCircle
 10
105.7283120618
 20
118.1319873116
 30
0.0
 40
0.5
100
AcDbArc
 50
270.0
 51
0.0
  0
ARC
  5
1B4
330
1F
100
AcDbEntity
  8
0
  6
Continuous
 62
     7
370
    25
100
AcDbCircle
 10
105.7283120618
 20
105.1319873116
 30
0.0
 40
0.5
100
AcDbArc
 50
0.0
 51
90.0
  0
LINE
  5
1B5
330
1F
100
AcDbEntity
  8
0
  6
Continuous
 62
     7
370
    25
100
AcDbLine
 10
102.9783120618
 20
105.6319873116
 30
0.0
 11
105.7283120618
 21
105.6319873116
 31
0.0
  0
LINE
  5
1B6
330
1F
100
AcDbEntity
  8
0
  6
Continuous
 62
     7
370
    25
100
AcDbLine
 10
103.2283120618
 20
117.6319873116
 30
0.0
 11
102.9783120618
 21
117.6319873116
 31
0.0
  0
LINE
  5
1B7
330
1F
100
AcDbEntity
  8
0
  6
Continuous
 62
     7
370
    25
100
AcDbLine
 10
105.7283120618
 20
117.6319873116
 30
0.0
 11
104.2283120593
 21
117.6319873116
 31
0.0
  0
SPLINE
  5
1B8
330
1F
100
AcDbEntity
  8
0
  6
Continuous
 62
     7
370
    25
100
AcDbSpline
210
0.0
220
0.0
230
1.0
 70
     8
 71
     3
 72
    11
 73
     7
 74
     0
 42
0.00000001
 43
0.00000001
 40
0.0
 40
0.0
 40
0.0
 40
0.0
 40
0.2499998770762934
 40
0.4999998432755139
 40
0.7499998938318665
 40
0.9999999999999999
 40
0.9999999999999999
 40
0.9999999999999999
 40
0.9999999999999999
 10
103.4783120627322
 20
117.9319873115817
 30
0.0
 10
103.4455528049527
 20
117.9282294167125
 30
0.0
 10
103.3800342777153
 20
117.9207136256345
 30
0.0
 10
103.2973981294392
 20
117.8629013083947
 30
0.0
 10
103.2395859780576
 20
117.7802650612111
 30
0.0
 10
103.2320703339822
 20
117.7147465318794
 30
0.0
 10
103.2283125115265
 20
117.6819872635699
 30
0.0
  0
SPLINE
  5
1B9
330
1F
100
AcDbEntity
  8
0
  6
Continuous
 62
     7
370
    25
100
AcDbSpline
210
0.0
220
0.0
230
1.0
 70
     8
 71
     3
 72
    11
 73
     7
 74
     0
 42
0.00000001
 43
0.00000001
 40
0.0
 40
0.0
 40
0.0
 40
0.0
 40
0.2500000011601048
 40
0.5000000017466014
 40
0.7500000013777899
 40
1.0
 40
1.0
 40
1.0
 40
1.0
 10
104.2283120639276
 20
117.6819873115425
 30
0.0
 10
104.2245541704115
 20
117.7147465725024
 30
0.0
 10
104.2170383833881
 20
117.780265094347
 30
0.0
 10
104.1592260787609
 20
117.8629013285894
 30
0.0
 10
104.0765898432317
 20
117.9207136319655
 30
0.0
 10
104.0110713208214
 20
117.9282294184098
 30
0.0
 10
103.9783120596823
 20
117.9319873116244
 30
0.0
  0
LINE
  5
1BA
330
1F
100
AcDbEntity
  8
0
  6
Continuous
 62
     7
370
    25
100
AcDbLine
 10
103.2283120618
 20
117.6822873821
 30
0.0
 11
103.2283120618
 21
117.6319873116
 31
0.0
  0
LINE
  5
1BB
330
1F
100
AcDbEntity
  8
0
  6
Continuous
 62
     7
370
    25
100
AcDbLine
 10
104.2283120644
 20
117.6319873114
 30
0.0
 11
104.2283120644
 21
117.6822873819
 31
0.0
  0
LINE
  5
1BC
330
1F
100
AcDbEntity
  8
0
  6
Continuous
 62
     7
370
    25
100
AcDbLine
 10
103.993623031
 20
117.9319873116
 30
0.0
 11
103.4630010938
 21
117.9319873116
 31
0.0
  0
SPLINE
  5
1BD
330
1F
100
AcDbEntity
  8
0
  6
Continuous
 62
     7
370
    25
100
AcDbSpline
210
0.0
220
0.0
230
1.0
 70
    24
 71
     3
 72
    12
 73
     8
 74
     0
 42
0.00000001
 43
0.00000001
 40
0.0
 40
0.0
 40
0.0
 40
0.0
 40
0.2421095746436559
 40
0.4305504393055252
 40
0.6190111572491279
 40
0.8094960685897352
 40
1.0
 40
1.0
 40
1.0
 40
1.0
 10
109.3214922622132
 20
103.1319873116245
 30
0.0
 10
109.3293393621975
 20
103.1319873116245
 30
0.0
 10
109.3432940864188
 20
103.1319873116245
 30
0.0
 10
109.4629987037582
 20
103.1319873116245
 30
0.0
 10
109.6199207586848
 20
103.1319873116245
 30
0.0
 10
109.8236555834707
 20
103.1319873116245
 30
0.0
 10
109.9925917609158
 20
103.1319873116245
 30
0.0
 10
110.0770640665307
 20
103.1319873116245
 30
0.0
  0
SPLINE
  5
1BE
330
1F
100
AcDbEntity
  8
0
  6
Continuous
 62
     7
370
    25
100
AcDbSpline
210
0.0
220
0.0
230
1.0
 70
    24
 71
     3
 72
    12
 73
     8
 74
     0
 42
0.00000001
 43
0.00000001
 40
0.0
 40
0.0
 40
0.0
 40
0.0
 40
0.1885936454475669
 40
0.3771690544108689
 40
0.5675388474885557
 40
0.7578879464135271
 40
0.9999999999999999
 40
0.9999999999999999
 40
0.9999999999999999
 40
0.9999999999999999
 10
110.0770640665307
 20
120.1319873116245
 30
0.0
 10
109.9934052218409
 20
120.1319873116245
 30
0.0
 10
109.8260956220404
 20
120.1319873116245
 30
0.0
 10
109.6224074250639
 20
120.1319873116245
 30
0.0
 10
109.4641134771229
 20
120.1319873116245
 30
0.0
 10
109.3436514032596
 20
120.1319873116245
 30
0.0
 10
109.3285855946009
 20
120.1319873116245
 30
0.0
 10
109.3201510477009
 20
120.1319873116245
 30
0.0
  0
SPLINE
  5
1BF
330
1F
100
AcDbEntity
  8
0
  6
Continuous
 62
     7
370
    25
100
AcDbSpline
210
0.0
220
0.0
230
1.0
 70
     8
 71
     3
 72
    15
 73
    11
 74
     0
 42
0.00000001
 43
0.00000001
 40
0.0
 40
0.0
 40
0.0
 40
0.0
 40
0.1323052378296956
 40
0.2645730682660305
 40
0.3997997819746812
 40
0.5350020935366635
 40
0.6501929590834554
 40
0.7654017933211805
 40
0.8826895567076665
 40
1.0
 40
1.0
 40
1.0
 40
1.0
 10
110.0770640665307
 20
111.6319873116245
 30
0.0
 10
109.9614940946907
 20
111.9992211295875
 30
0.0
 10
109.7303868267496
 20
112.7335849354604
 30
0.0
 10
109.4817241951732
 20
113.8644401900557
 30
0.0
 10
109.3322102480197
 20
115.0166122556487
 30
0.0
 10
109.3025999609713
 20
116.127048468309
 30
0.0
 10
109.379421363622
 20
117.1774935745607
 30
0.0
 10
109.536830834743
 20
118.1688553012223
 30
0.0
 10
109.767733195274
 20
119.1557347930323
 30
0.0
 10
109.9739471308313
 20
119.8065488328298
 30
0.0
 10
110.0770640665307
 20
120.1319873116245
 30
0.0
  0
SPLINE
  5
1C0
330
1F
100
AcDbEntity
  8
0
  6
Continuous
 62
     7
370
    25
100
AcDbSpline
210
0.0
220
0.0
230
1.0
 70
     8
 71
     3
 72
    15
 73
    11
 74
     0
 42
0.00000001
 43
0.00000001
 40
0.0
 40
0.0
 40
0.0
 40
0.0
 40
0.1323052378296974
 40
0.2645730682660339
 40
0.3997997819746865
 40
0.5350020935366704
 40
0.650192959083461
 40
0.7654017933211844
 40
0.8826895567076685
 40
1.0
 40
1.0
 40
1.0
 40
1.0
 10
110.0770640665307
 20
103.1319873116245
 30
0.0
 10
109.9614940946907
 20
103.4992211295876
 30
0.0
 10
109.7303868267496
 20
104.2335849354604
 30
0.0
 10
109.4817241951732
 20
105.3644401900558
 30
0.0
 10
109.3322102480197
 20
106.5166122556488
 30
0.0
 10
109.3025999609713
 20
107.6270484683091
 30
0.0
 10
109.379421363622
 20
108.6774935745607
 30
0.0
 10
109.536830834743
 20
109.6688553012223
 30
0.0
 10
109.767733195274
 20
110.6557347930323
 30
0.0
 10
109.9739471308313
 20
111.3065488328298
 30
0.0
 10
110.0770640665307
 20
111.6319873116245
 30
0.0
  0
LINE
  5
1C1
330
1F
100
AcDbEntity
  8
0
  6
Continuous
 62
     7
370
    25
100
AcDbLine
 10
109.1735371207
 20
103.3819873116
 30
0.0
 11
109.1735371207
 21
119.8819873116
 31
0.0
  0
SPLINE
  5
1C2
330
1F
100
AcDbEntity
  8
0
  6
Continuous
 62
     7
370
    25
100
AcDbSpline
210
0.0
220
0.0
230
1.0
 70
     8
 71
     3
 72
    10
 73
     6
 74
     0
 42
0.00000001
 43
0.00000001
 40
0.0
 40
0.0
 40
0.0
 40
0.0
 40
0.3089808900029886
 40
0.6190948628358313
 40
1.0
 40
1.0
 40
1.0
 40
1.0
 10
120.4570307697324
 20
117.1490582449191
 30
0.0
 10
120.4811777762691
 20
116.8884747302027
 30
0.0
 10
120.5295603403157
 20
116.3663520989324
 30
0.0
 10
120.5370154330323
 20
115.5193597882119
 30
0.0
 10
120.4854530852327
 20
114.9363076912055
 30
0.0
 10
120.4570307697324
 20
114.6149163783299
 30
0.0
  0
SPLINE
  5
1C3
330
1F
100
AcDbEntity
  8
0
  6
Continuous
 62
     7
370
    25
100
AcDbSpline
210
0.0
220
0.0
230
1.0
 70
     8
 71
     3
 72
    11
 73
     7
 74
     0
 42
0.00000001
 43
0.00000001
 40
0.0
 40
0.0
 40
0.0
 40
0.0
 40
0.2488617730236806
 40
0.4977454583558505
 40
0.7488627517928871
 40
1.0
 40
1.0
 40
1.0
 40
1.0
 10
120.4570307697324
 20
114.6149163783299
 30
0.0
 10
120.423876714516
 20
114.363834170459
 30
0.0
 10
120.3575656848649
 20
113.8616476468992
 30
0.0
 10
120.19952367878
 20
113.1133331304777
 30
0.0
 10
120.0066714993332
 20
112.369004957599
 30
0.0
 10
119.8488993724447
 20
111.8776663673077
 30
0.0
 10
119.7700101748262
 20
111.6319873116245
 30
0.0
  0
LINE
  5
1C4
330
1F
100
AcDbEntity
  8
0
  6
Continuous
 62
     7
370
    25
100
AcDbLine
 10
110.0770640665
 20
111.6319873116
 30
0.0
 11
119.7700101748
 21
111.6319873116
 31
0.0
  0
LINE
  5
1C5
330
1F
100
AcDbEntity
  8
0
  6
Continuous
 62
     7
370
    25
100
AcDbLine
 10
110.0770640665
 20
120.1319873116
 30
0.0
 11
119.7700101748
 21
120.1319873116
 31
0.0
  0
SPLINE
  5
1C6
330
1F
100
AcDbEntity
  8
0
  6
Continuous
 62
     7
370
    25
100
AcDbSpline
210
0.0
220
0.0
230
1.0
 70
     8
 71
     3
 72
    11
 73
     7
 74
     0
 42
0.00000001
 43
0.00000001
 40
0.0
 40
0.0
 40
0.0
 40
0.0
 40
0.2490252138763564
 40
0.4980311639765297
 40
0.74902692048002
 40
0.9999999999999999
 40
0.9999999999999999
 40
0.9999999999999999
 40
0.9999999999999999
 10
119.7700101748262
 20
120.1319873116245
 30
0.0
 10
119.8482590476517
 20
119.8883805478625
 30
0.0
 10
120.0047507402256
 20
119.4011858649612
 30
0.0
 10
120.197533628592
 20
118.6590503201654
 30
0.0
 10
120.3565995138269
 20
117.9087085586918
 30
0.0
 10
120.423554692688
 20
117.4022673898346
 30
0.0
 10
120.4570307697324
 20
117.1490582449191
 30
0.0
  0
LINE
  5
1C7
330
1F
100
AcDbEntity
  8
0
  6
Continuous
 62
     7
370
    25
100
AcDbLine
 10
120.4570307697
 20
108.6490582449
 30
0.0
 11
120.4570307697
 21
114.6149163783
 31
0.0
  0
SPLINE
  5
1C8
330
1F
100
AcDbEntity
  8
0
  6
Continuous
 62
     7
370
    25
100
AcDbSpline
210
0.0
220
0.0
230
1.0
 70
     8
 71
     3
 72
    11
 73
     7
 74
     0
 42
0.00000001
 43
0.00000001
 40
0.0
 40
0.0
 40
0.0
 40
0.0
 40
0.2490252138763565
 40
0.4980311639765297
 40
0.7490269204800201
 40
1.0
 40
1.0
 40
1.0
 40
1.0
 10
119.7700101748262
 20
111.6319873116245
 30
0.0
 10
119.8482590476517
 20
111.3883805478625
 30
0.0
 10
120.0047507402256
 20
110.9011858649612
 30
0.0
 10
120.197533628592
 20
110.1590503201654
 30
0.0
 10
120.3565995138269
 20
109.4087085586917
 30
0.0
 10
120.423554692688
 20
108.9022673898345
 30
0.0
 10
120.4570307697324
 20
108.6490582449189
 30
0.0
  0
SPLINE
  5
1C9
330
1F
100
AcDbEntity
  8
0
  6
Continuous
 62
     7
370
    25
100
AcDbSpline
210
0.0
220
0.0
230
1.0
 70
     8
 71
     3
 72
    10
 73
     6
 74
     0
 42
0.00000001
 43
0.00000001
 40
0.0
 40
0.0
 40
0.0
 40
0.0
 40
0.3089808900030074
 40
0.6190948628358683
 40
1.0
 40
1.0
 40
1.0
 40
1.0
 10
120.4570307697324
 20
108.6490582449189
 30
0.0
 10
120.4811777762691
 20
108.3884747302026
 30
0.0
 10
120.5295603403156
 20
107.8663520989323
 30
0.0
 10
120.5370154330323
 20
107.0193597882119
 30
0.0
 10
120.4854530852327
 20
106.4363076912056
 30
0.0
 10
120.4570307697324
 20
106.1149163783301
 30
0.0
  0
SPLINE
  5
1CA
330
1F
100
AcDbEntity
  8
0
  6
Continuous
 62
     7
370
    25
100
AcDbSpline
210
0.0
220
0.0
230
1.0
 70
     8
 71
     3
 72
    11
 73
     7
 74
     0
 42
0.00000001
 43
0.00000001
 40
0.0
 40
0.0
 40
0.0
 40
0.0
 40
0.2488617730236801
 40
0.49774545835585
 40
0.7488627517928869
 40
1.0
 40
1.0
 40
1.0
 40
1.0
 10
120.4570307697324
 20
106.1149163783301
 30
0.0
 10
120.423876714516
 20
105.8638341704592
 30
0.0
 10
120.3575656848649
 20
105.3616476468993
 30
0.0
 10
120.19952367878
 20
104.6133331304778
 30
0.0
 10
120.0066714993332
 20
103.8690049575991
 30
0.0
 10
119.8488993724447
 20
103.3776663673077
 30
0.0
 10
119.7700101748262
 20
103.1319873116245
 30
0.0
  0
LINE
  5
1CB
330
1F
100
AcDbEntity
  8
0
  6
Continuous
 62
     7
370
    25
100
AcDbLine
 10
110.0770640665
 20
103.1319873116
 30
0.0
 11
119.7700101748
 21
103.1319873116
 31
0.0
  0
ARC
  5
1CC
330
1F
100
AcDbEntity
  8
0
  6
Continuous
 62
     7
370
    25
100
AcDbCircle
 10
121.0442539582
 20
115.8645259006
 30
0.0
 40
1.380708162956222
100
AcDbArc
 50
244.8299789717
 51
272.5859934179
  0
LINE
  5
1CD
330
1F
100
AcDbEntity
  8
0
  6
Continuous
 62
     7
370
    25
100
AcDbLine
 10
121.1065498226
 20
114.4852238102
 30
0.0
 11
121.1065498226
 21
108.778750813
 31
0.0
  0
ARC
  5
1CE
330
1F
100
AcDbEntity
  8
0
  6
Continuous
 62
     7
370
    25
100
AcDbCircle
 10
121.0442539582
 20
107.3994487227
 30
0.0
 40
1.380708162956106
100
AcDbArc
 50
87.4140065821
 51
115.1700210283
  0
LINE
  5
1CF
330
1F
100
AcDbEntity
  8
0
  6
Continuous
 62
     7
370
    25
100
AcDbLine
 10
122.1735371207
 20
119.6819873116
 30
0.0
 11
122.1735371207
 21
103.5819873116
 31
0.0
  0
LINE
  5
1D0
330
1F
100
AcDbEntity
  8
0
  6
Continuous
 62
     7
370
    25
100
AcDbLine
 10
121.9735371207
 20
103.3819873116
 30
0.0
 11
121.9735371207
 21
119.8819873116
 31
0.0
  0
LINE
  5
1D1
330
1F
100
AcDbEntity
  8
0
  6
Continuous
 62
     7
370
    25
100
AcDbLine
 10
121.1065498226
 20
106.3547890276
 30
0.0
 11
121.1065498226
 21
103.501552529
 31
0.0
  0
SPLINE
  5
1D2
330
1F
100
AcDbEntity
  8
0
  6
Continuous
 62
     7
370
    25
100
AcDbSpline
210
0.0
220
0.0
230
1.0
 70
     8
 71
     3
 72
    11
 73
     7
 74
     0
 42
0.00000001
 43
0.00000001
 40
0.0
 40
0.0
 40
0.0
 40
0.0
 40
0.2858113857233212
 40
0.5527245545214222
 40
0.8220275582231134
 40
1.0
 40
1.0
 40
1.0
 40
1.0
 10
121.1065498225707
 20
108.7787508130365
 30
0.0
 10
121.1026095211482
 20
108.5298812863259
 30
0.0
 10
121.094989456108
 20
108.0485978065338
 30
0.0
 10
121.0835283664571
 20
107.3720231788047
 30
0.0
 10
121.1009657556987
 20
106.8119945927884
 30
0.0
 10
121.1049603569579
 20
106.4849293967093
 30
0.0
 10
121.1065498225707
 20
106.3547890276038
 30
0.0
  0
SPLINE
  5
1D3
330
1F
100
AcDbEntity
  8
0
  6
Continuous
 62
     7
370
    25
100
AcDbSpline
210
0.0
220
0.0
230
1.0
 70
     8
 71
     3
 72
    11
 73
     7
 74
     0
 42
0.00000001
 43
0.00000001
 40
0.0
 40
0.0
 40
0.0
 40
0.0
 40
0.2858113857233872
 40
0.552724554521387
 40
0.822027558222975
 40
1.0
 40
1.0
 40
1.0
 40
1.0
 10
121.1065498225707
 20
116.9091855956454
 30
0.0
 10
121.1026095211482
 20
116.6984340001174
 30
0.0
 10
121.094989456108
 20
116.2908659759884
 30
0.0
 10
121.083528366457
 20
115.6306451144593
 30
0.0
 10
121.1009657556987
 20
115.0315613503527
 30
0.0
 10
121.1049603569579
 20
114.6407349731209
 30
0.0
 10
121.1065498225707
 20
114.4852238102123
 30
0.0
  0
LINE
  5
1D4
330
1F
100
AcDbEntity
  8
0
  6
Continuous
 62
     7
370
    25
100
AcDbLine
 10
121.1065498226
 20
119.7624220942
 30
0.0
 11
121.1065498226
 21
116.9091855956
 31
0.0
  0
ARC
  5
1D5
330
1F
100
AcDbEntity
  8
0
  6
Continuous
 62
     7
370
    25
100
AcDbCircle
 10
121.0647427231
 20
117.7952909391
 30
0.0
 40
0.8870910400312692
100
AcDbArc
 50
226.7595529446
 51
272.7012537053
  0
ARC
  5
1D6
330
1F
100
AcDbEntity
  8
0
  6
Continuous
 62
     7
370
    25
100
AcDbCircle
 10
121.0647427231
 20
105.4686836841
 30
0.0
 40
0.8870910400314771
100
AcDbArc
 50
87.2987462947
 51
133.2404470554
  0
LINE
  5
1D7
330
1F
100
AcDbEntity
  8
0
  6
Continuous
 62
     7
370
    25
100
AcDbLine
 10
120.4570307697
 20
103.1319873116
 30
0.0
 11
120.4570307697
 21
106.1149163783
 31
0.0
  0
ARC
  5
1D8
330
1F
100
AcDbEntity
  8
0
  6
Continuous
 62
     7
370
    25
100
AcDbCircle
 10
121.1045136878
 20
102.7495764135
 30
0.0
 40
0.7519788721911518
100
AcDbArc
 50
89.8448599075
 51
149.433409991
  0
SPLINE
  5
1D9
330
1F
100
AcDbEntity
  8
0
  6
Continuous
 62
     7
370
    25
100
AcDbSpline
210
0.0
220
0.0
230
1.0
 70
    24
 71
     3
 72
    11
 73
     7
 74
     0
 42
0.00000001
 43
0.00000001
 40
0.0
 40
0.0
 40
0.0
 40
0.0
 40
0.2490252138763564
 40
0.4980311639765295
 40
0.7490269204800197
 40
0.9999999999999999
 40
0.9999999999999999
 40
0.9999999999999999
 40
0.9999999999999999
 10
119.7700101748262
 20
103.1319873116245
 30
0.0
 10
119.8482590476517
 20
103.1319873116245
 30
0.0
 10
120.0047507402256
 20
103.1319873116245
 30
0.0
 10
120.197533628592
 20
103.1319873116245
 30
0.0
 10
120.3565995138269
 20
103.1319873116245
 30
0.0
 10
120.423554692688
 20
103.1319873116245
 30
0.0
 10
120.4570307697324
 20
103.1319873116245
 30
0.0
  0
SPLINE
  5
1DA
330
1F
100
AcDbEntity
  8
0
  6
Continuous
 62
     7
370
    25
100
AcDbSpline
210
0.0
220
0.0
230
1.0
 70
    24
 71
     3
 72
    11
 73
     7
 74
     0
 42
0.00000001
 43
0.00000001
 40
0.0
 40
0.0
 40
0.0
 40
0.0
 40
0.2488617730236801
 40
0.4977454583558502
 40
0.748862751792887
 40
0.9999999999999999
 40
0.9999999999999999
 40
0.9999999999999999
 40
0.9999999999999999
 10
120.4570307697324
 20
120.1319873116245
 30
0.0
 10
120.423876714516
 20
120.1319873116245
 30
0.0
 10
120.3575656848649
 20
120.1319873116245
 30
0.0
 10
120.19952367878
 20
120.1319873116245
 30
0.0
 10
120.0066714993332
 20
120.1319873116245
 30
0.0
 10
119.8488993724447
 20
120.1319873116245
 30
0.0
 10
119.7700101748262
 20
120.1319873116245
 30
0.0
  0
LINE
  5
1DB
330
1F
100
AcDbEntity
  8
0
  6
Continuous
 62
     7
370
    25
100
AcDbLine
 10
120.4570307697
 20
117.1490582449
 30
0.0
 11
120.4570307697
 21
120.1319873116
 31
0.0
  0
ARC
  5
1DC
330
1F
100
AcDbEntity
  8
0
  6
Continuous
 62
     7
370
    25
100
AcDbCircle
 10
121.1045136878
 20
120.5143982098
 30
0.0
 40
0.7519788721911909
100
AcDbArc
 50
210.566590009
 51
270.1551400925
  0
SPLINE
  5
1DD
330
1F
100
AcDbEntity
  8
0
  6
Continuous
 62
     7
370
    25
100
AcDbSpline
210
0.0
220
0.0
230
1.0
 70
    24
 71
     3
 72
     9
 73
     5
 74
     0
 42
0.00000001
 43
0.00000001
 40
0.0
 40
0.0
 40
0.0
 40
0.0
 40
0.1478504077905558
 40
1.0
 40
1.0
 40
1.0
 40
1.0
 10
120.4570307697324
 20
103.1319873116245
 30
0.0
 10
120.4642712754827
 20
103.1319873116245
 30
0.0
 10
120.5132431103158
 20
103.1319873116245
 30
0.0
 10
120.5214195667046
 20
103.1319873116245
 30
0.0
 10
120.5283871306821
 20
103.1319873116245
 30
0.0
  0
SPLINE
  5
1DE
330
1F
100
AcDbEntity
  8
0
  6
Continuous
 62
     7
370
    25
100
AcDbSpline
210
0.0
220
0.0
230
1.0
 70
    24
 71
     3
 72
     9
 73
     5
 74
     0
 42
0.00000001
 43
0.00000001
 40
0.0
 40
0.0
 40
0.0
 40
0.0
 40
0.8303570193356413
 40
1.0
 40
1.0
 40
1.0
 40
1.0
 10
120.5203468785312
 20
120.1319873116245
 30
0.0
 10
120.5144149283053
 20
120.1319873116245
 30
0.0
 10
120.507271073207
 20
120.1319873116245
 30
0.0
 10
120.4643175358412
 20
120.1319873116245
 30
0.0
 10
120.4570307697324
 20
120.1319873116245
 30
0.0
  0
CIRCLE
  5
1DF
330
1F
100
AcDbEntity
  8
0
  6
Continuous
 62
     7
370
    25
100
AcDbCircle
 10
96.2283120618
 20
111.6319873116
 30
0.0
 40
6.45596211418011
  0
CIRCLE
  5
1E0
330
1F
100
AcDbEntity
  8
0
  6
Continuous
 62
     7
370
    25
100
AcDbCircle
 10
96.2283120618
 20
111.6319873116
 30
0.0
 40
5.250000000000014
  0
CIRCLE
  5
1E1
330
1F
100
AcDbEntity
  8
0
  6
Continuous
 62
     7
370
    25
100
AcDbCircle
 10
96.2283120618
 20
111.6319873116
 30
0.0
 40
4.725000000000009
  0
CIRCLE
  5
1E2
330
1F
100
AcDbEntity
  8
0
  6
Continuous
 62
     7
370
    25
100
AcDbCircle
 10
96.2283120618
 20
111.6319873116
 30
0.0
 40
4.751794919243125
  0
CIRCLE
  5
1E3
330
1F
100
AcDbEntity
  8
0
  6
Continuous
 62
     7
370
    25
100
AcDbCircle
 10
96.2283120618
 20
111.6319873116
 30
0.0
 40
4.698205080756907
  0
CIRCLE
  5
1E4
330
1F
100
AcDbEntity
  8
0
  6
Continuous
 62
     7
370
    25
100
AcDbCircle
 10
96.2283120618
 20
111.6319873116
 30
0.0
 40
4.199999999999989
  0
CIRCLE
  5
1E5
330
1F
100
AcDbEntity
  8
0
  6
Continuous
 62
     7
370
    25
100
AcDbCircle
 10
96.2283120618
 20
111.6319873116
 30
0.0
 40
3.999999999999986
  0
CIRCLE
  5
1E6
330
1F
100
AcDbEntity
  8
0
  6
Continuous
 62
     7
370
    25
100
AcDbCircle
 10
96.2283120618
 20
111.6319873116
 30
0.0
 40
6.765679815091744
  0
LINE
  5
1E7
330
1F
100
AcDbEntity
  8
0
  6
Continuous
 62
     7
370
    25
100
AcDbLine
 10
106.2283120618
 20
118.2104873116
 30
0.0
 11
106.2283120618
 21
105.0534873116
 31
0.0
  0
LINE
  5
1E8
330
1F
100
AcDbEntity
  8
0
  6
Continuous
 62
     7
370
    25
100
AcDbLine
 10
91.4783120618
 20
117.3819873116
 30
0.0
 11
91.4783120618
 21
117.6319873116
 31
0.0
  0
LINE
  5
1E9
330
1F
100
AcDbEntity
  8
0
  6
Continuous
 62
     7
370
    25
100
AcDbLine
 10
91.4783120618
 20
117.6319873116
 30
0.0
 11
93.1019046411
 21
117.6319873116
 31
0.0
  0
LINE
  5
1EA
330
1F
100
AcDbEntity
  8
0
  6
Continuous
 62
     7
370
    25
100
AcDbLine
 10
99.3547194826
 20
117.6319873116
 30
0.0
 11
100.9783120618
 21
117.6319873116
 31
0.0
  0
ARC
  5
1EB
330
1F
100
AcDbEntity
  8
0
  6
Continuous
 62
     7
370
    25
100
AcDbCircle
 10
100.9783120618
 20
117.3819873116
 30
0.0
 40
0.25
100
AcDbArc
 50
0.0
 51
90.0
  0
LINE
  5
1EC
330
1F
100
AcDbEntity
  8
0
  6
Continuous
 62
     7
370
    25
100
AcDbLine
 10
101.2283120618
 20
116.1898841249
 30
0.0
 11
101.2283120618
 21
117.3819873116
 31
0.0
  0
LINE
  5
1ED
330
1F
100
AcDbEntity
  8
0
  6
Continuous
 62
     7
370
    25
100
AcDbLine
 10
93.1019046411
 20
105.6319873116
 30
0.0
 11
91.4783120618
 21
105.6319873116
 31
0.0
  0
LINE
  5
1EE
330
1F
100
AcDbEntity
  8
0
  6
Continuous
 62
     7
370
    25
100
AcDbLine
 10
91.4783120618
 20
105.6319873116
 30
0.0
 11
91.4783120618
 21
105.8819873116
 31
0.0
  0
LINE
  5
1EF
330
1F
100
AcDbEntity
  8
0
  6
Continuous
 62
     7
370
    25
100
AcDbLine
 10
100.9783120618
 20
105.6319873116
 30
0.0
 11
99.3547194826
 21
105.6319873116
 31
0.0
  0
LINE
  5
1F0
330
1F
100
AcDbEntity
  8
0
  6
Continuous
 62
     7
370
    25
100
AcDbLine
 10
100.9783120618
 20
105.6319873116
 30
0.0
 11
100.9783120618
 21
105.8819873116
 31
0.0
  0
ARC
  5
1F1
330
1F
100
AcDbEntity
  8
0
  6
Continuous
 62
     7
370
    25
100
AcDbCircle
 10
91.4783120618
 20
117.3819873116
 30
0.0
 40
0.25
100
AcDbArc
 50
90.0
 51
180.0
  0
LINE
  5
1F2
330
1F
100
AcDbEntity
  8
0
  6
Continuous
 62
     7
370
    25
100
AcDbLine
 10
91.2283120618
 20
117.3819873116
 30
0.0
 11
91.4783120618
 21
117.3819873116
 31
0.0
  0
LINE
  5
1F3
330
1F
100
AcDbEntity
  8
0
  6
Continuous
 62
     7
370
    25
100
AcDbLine
 10
91.2283120618
 20
116.1898841249
 30
0.0
 11
91.2283120618
 21
117.3819873116
 31
0.0
  0
LINE
  5
1F4
330
1F
100
AcDbEntity
  8
0
  6
Continuous
 62
     7
370
    25
100
AcDbLine
 10
101.2283120618
 20
107.0740904984
 30
0.0
 11
101.2283120618
 21
105.8819873116
 31
0.0
  0
LINE
  5
1F5
330
1F
100
AcDbEntity
  8
0
  6
Continuous
 62
     7
370
    25
100
AcDbLine
 10
101.2283120618
 20
105.8819873116
 30
0.0
 11
100.9783120618
 21
105.8819873116
 31
0.0
  0
LINE
  5
1F6
330
1F
100
AcDbEntity
  8
0
  6
Continuous
 62
     7
370
    25
100
AcDbLine
 10
91.2283120618
 20
105.8819873116
 30
0.0
 11
91.2283120618
 21
107.0740904984
 31
0.0
  0
LINE
  5
1F7
330
1F
100
AcDbEntity
  8
0
  6
Continuous
 62
     7
370
    25
100
AcDbLine
 10
91.2283120618
 20
105.8819873116
 30
0.0
 11
91.4783120618
 21
105.8819873116
 31
0.0
  0
ARC
  5
1F8
330
1F
100
AcDbEntity
  8
0
  6
Continuous
 62
     7
370
    25
100
AcDbCircle
 10
100.9783120618
 20
105.8819873116
 30
0.0
 40
0.25
100
AcDbArc
 50
270.0
 51
0.0
  0
ARC
  5
1F9
330
1F
100
AcDbEntity
  8
0
  6
Continuous
 62
     7
370
    25
100
AcDbCircle
 10
91.4783120618
 20
105.8819873116
 30
0.0
 40
0.25
100
AcDbArc
 50
180.0
 51
270.0
  0
LINE
  5
1FA
330
1F
100
AcDbEntity
  8
0
  6
Continuous
 62
     7
370
    25
100
AcDbLine
 10
102.2283120618
 20
117.6319873116
 30
0.0
 11
102.2283120618
 21
117.3819873116
 31
0.0
  0
LINE
  5
1FB
330
1F
100
AcDbEntity
  8
0
  6
Continuous
 62
     7
370
    25
100
AcDbLine
 10
102.2283120618
 20
117.3819873116
 30
0.0
 11
101.2283120618
 21
117.3819873116
 31
0.0
  0
LINE
  5
1FC
330
1F
100
AcDbEntity
  8
0
  6
Continuous
 62
     7
370
    25
100
AcDbLine
 10
100.9783120618
 20
117.6319873116
 30
0.0
 11
102.2283120618
 21
117.6319873116
 31
0.0
  0
LINE
  5
1FD
330
1F
100
AcDbEntity
  8
0
  6
Continuous
 62
     7
370
    25
100
AcDbLine
 10
102.2283120618
 20
115.0231523032
 30
0.0
 11
102.2283120618
 21
117.3819873116
 31
0.0
  0
SPLINE
  5
1FE
330
1F
100
AcDbEntity
  8
0
  6
Continuous
 62
     7
370
    25
100
AcDbSpline
210
0.0
220
0.0
230
1.0
 70
     8
 71
     3
 72
    22
 73
    18
 74
     0
 42
0.00000001
 43
0.00000001
 40
0.0
 40
0.0
 40
0.0
 40
0.0
 40
0.0625
 40
0.0625
 40
0.125
 40
0.125
 40
0.1875
 40
0.1875
 40
0.25
 40
0.25
 40
0.3125
 40
0.3125
 40
0.375
 40
0.375
 40
0.4375
 40
0.4375
 40
0.5
 40
0.5
 40
0.5
 40
0.5
 10
104.2283120618257
 20
117.6319873116245
 30
0.0
 10
104.2283054393521
 20
117.6319873117639
 30
0.0
 10
104.2156186879254
 20
117.6308887096906
 30
0.0
 10
104.1648849671321
 20
117.6269844885632
 30
0.0
 10
104.1287306595155
 20
117.6243330673737
 30
0.0
 10
104.0350002381672
 20
117.618814249598
 30
0.0
 10
103.9808825362267
 20
117.6161638541199
 30
0.0
 10
103.8584250187806
 20
117.6122636083847
 30
0.0
 10
103.7944391902514
 20
117.6111605280541
 30
0.0
 10
103.6621849460534
 20
117.6111715356358
 30
0.0
 10
103.5980496027158
 20
117.6122672694812
 30
0.0
 10
103.4758911129305
 20
117.6161601922743
 30
0.0
 10
103.4216145279971
 20
117.6188136969284
 30
0.0
 10
103.3279028396054
 20
117.6243336189965
 30
0.0
 10
103.2917269136495
 20
117.6269843266343
 30
0.0
 10
103.2410176882784
 20
117.6308888708754
 30
0.0
 10
103.2283120673228
 20
117.6319873116245
 30
0.0
 10
103.2283120618426
 20
117.6319873116245
 30
0.0
  0
SPLINE
  5
1FF
330
1F
100
AcDbEntity
  8
0
  6
Continuous
 62
     7
370
    25
100
AcDbSpline
210
0.0
220
0.0
230
1.0
 70
    24
 71
     3
 72
    14
 73
    10
 74
     0
 42
0.00000001
 43
0.00000001
 40
0.0
 40
0.0
 40
0.0
 40
0.0
 40
0.25
 40
0.25
 40
0.5
 40
0.5
 40
0.75
 40
0.75
 40
1.0
 40
1.0
 40
1.0
 40
1.0
 10
102.9783120618426
 20
117.6319873116245
 30
0.0
 10
102.9783120618426
 20
117.6319873116245
 30
0.0
 10
102.9783120618426
 20
117.6221423978869
 30
0.0
 10
102.9783120618426
 20
117.5826502915778
 30
0.0
 10
102.9783120618426
 20
117.5530026524026
 30
0.0
 10
102.9783120618426
 20
117.4735735151989
 30
0.0
 10
102.9783120618426
 20
117.4237910911296
 30
0.0
 10
102.9783120618426
 20
117.303562104795
 30
0.0
 10
102.9783120618426
 20
117.2331140721878
 30
0.0
 10
102.9783120618426
 20
117.1519873116245
 30
0.0
  0
SPLINE
  5
200
330
1F
100
AcDbEntity
  8
0
  6
Continuous
 62
     7
370
    25
100
AcDbSpline
210
0.0
220
0.0
230
1.0
 70
    24
 71
     3
 72
    14
 73
    10
 74
     0
 42
0.00000001
 43
0.00000001
 40
0.0
 40
0.0
 40
0.0
 40
0.0
 40
0.25
 40
0.25
 40
0.5
 40
0.5
 40
0.75
 40
0.75
 40
1.0
 40
1.0
 40
1.0
 40
1.0
 10
102.9783120618426
 20
105.6319873116245
 30
0.0
 10
102.9783120618426
 20
105.6319873116245
 30
0.0
 10
102.9783120618426
 20
105.6418322253621
 30
0.0
 10
102.9783120618426
 20
105.6813243316711
 30
0.0
 10
102.9783120618426
 20
105.7109719708464
 30
0.0
 10
102.9783120618426
 20
105.79040110805
 30
0.0
 10
102.9783120618426
 20
105.8401835321193
 30
0.0
 10
102.9783120618426
 20
105.9604125184539
 30
0.0
 10
102.9783120618426
 20
106.0308605510611
 30
0.0
 10
102.9783120618426
 20
106.1119873116245
 30
0.0
  0
LINE
  5
201
330
1F
100
AcDbEntity
  8
0
  6
Continuous
 62
     7
370
    25
100
AcDbLine
 10
102.9783120618
 20
107.7324488774
 30
0.0
 11
102.9783120618
 21
106.1119873116
 31
0.0
  0
SPLINE
  5
202
330
1F
100
AcDbEntity
  8
0
  6
Continuous
 62
     7
370
    25
100
AcDbSpline
210
0.0
220
0.0
230
1.0
 70
     8
 71
     3
 72
    14
 73
    10
 74
     0
 42
0.00000001
 43
0.00000001
 40
0.0
 40
0.0
 40
0.0
 40
0.0
 40
0.25
 40
0.25
 40
0.5
 40
0.5
 40
0.75
 40
0.75
 40
1.0
 40
1.0
 40
1.0
 40
1.0
 10
102.9783120618426
 20
107.7324488773992
 30
0.0
 10
102.9783120618426
 20
107.7981127451178
 30
0.0
 10
102.9683587552901
 20
107.8638375854258
 30
0.0
 10
102.9299871394741
 20
107.995345384982
 30
0.0
 10
102.9014482075009
 20
108.0609764698216
 30
0.0
 10
102.8242606602208
 20
108.1846363817075
 30
0.0
 10
102.7748319750329
 20
108.2445270276623
 30
0.0
 10
102.6473234878558
 20
108.3406397030793
 30
0.0
 10
102.5657072778017
 20
108.3764689197243
 30
0.0
 10
102.4783120618426
 20
108.3764689197243
 30
0.0
  0
LINE
  5
203
330
1F
100
AcDbEntity
  8
0
  6
Continuous
 62
     7
370
    25
100
AcDbLine
 10
102.2283120618
 20
108.3764689197
 30
0.0
 11
102.4783120618
 21
108.3764689197
 31
0.0
  0
LINE
  5
204
330
1F
100
AcDbEntity
  8
0
  6
Continuous
 62
     7
370
    25
100
AcDbLine
 10
102.4783120618
 20
114.8875057035
 30
0.0
 11
102.2283120618
 21
114.8875057035
 31
0.0
  0
SPLINE
  5
205
330
1F
100
AcDbEntity
  8
0
  6
Continuous
 62
     7
370
    25
100
AcDbSpline
210
0.0
220
0.0
230
1.0
 70
     8
 71
     3
 72
    14
 73
    10
 74
     0
 42
0.00000001
 43
0.00000001
 40
0.0
 40
0.0
 40
0.0
 40
0.0
 40
0.25
 40
0.25
 40
0.5
 40
0.5
 40
0.75
 40
0.75
 40
1.0
 40
1.0
 40
1.0
 40
1.0
 10
102.4783120618426
 20
114.8875057035246
 30
0.0
 10
102.565630090849
 20
114.8875057035246
 30
0.0
 10
102.6472581986706
 20
114.9232780063978
 30
0.0
 10
102.774959316804
 20
115.0195512867724
 30
0.0
 10
102.8243501096296
 20
115.0794201173911
 30
0.0
 10
102.9017087771876
 20
115.2034773114587
 30
0.0
 10
102.9302775867595
 20
115.2694688368084
 30
0.0
 10
102.9683449557266
 20
115.4002467059209
 30
0.0
 10
102.9783120618426
 20
115.4658067091976
 30
0.0
 10
102.9783120618426
 20
115.5315257458497
 30
0.0
  0
LINE
  5
206
330
1F
100
AcDbEntity
  8
0
  6
Continuous
 62
     7
370
    25
100
AcDbLine
 10
102.9783120618
 20
117.1519873116
 30
0.0
 11
102.9783120618
 21
115.5315257458
 31
0.0
  0
LINE
  5
207
330
1F
100
AcDbEntity
  8
0
  6
Continuous
 62
     7
370
    25
100
AcDbLine
 10
101.2283120618
 20
105.8819873116
 30
0.0
 11
102.2283120618
 21
105.8819873116
 31
0.0
  0
LINE
  5
208
330
1F
100
AcDbEntity
  8
0
  6
Continuous
 62
     7
370
    25
100
AcDbLine
 10
102.2283120618
 20
105.8819873116
 30
0.0
 11
102.2283120618
 21
108.2408223201
 31
0.0
  0
LINE
  5
209
330
1F
100
AcDbEntity
  8
0
  6
Continuous
 62
     7
370
    25
100
AcDbLine
 10
102.2283120618
 20
105.8819873116
 30
0.0
 11
102.2283120618
 21
105.6319873116
 31
0.0
  0
LINE
  5
20A
330
1F
100
AcDbEntity
  8
0
  6
Continuous
 62
     7
370
    25
100
AcDbLine
 10
102.2283120618
 20
105.6319873116
 30
0.0
 11
100.9783120618
 21
105.6319873116
 31
0.0
  0
LINE
  5
20B
330
1F
100
AcDbEntity
  8
0
  6
Continuous
 62
     7
370
    25
100
AcDbLine
 10
102.2283120618
 20
115.0231523032
 30
0.0
 11
102.2283120618
 21
114.8875057035
 31
0.0
  0
LINE
  5
20C
330
1F
100
AcDbEntity
  8
0
  6
Continuous
 62
     7
370
    25
100
AcDbLine
 10
102.2283120618
 20
108.3764689197
 30
0.0
 11
102.2283120618
 21
108.2408223201
 31
0.0
  0
SPLINE
  5
20D
330
1F
100
AcDbEntity
  8
0
  6
Continuous
 62
     7
370
    25
100
AcDbSpline
210
0.0
220
0.0
230
1.0
 70
     8
 71
     3
 72
    14
 73
    10
 74
     0
 42
0.00000001
 43
0.00000001
 40
0.0
 40
0.0
 40
0.0
 40
0.0
 40
0.4999999999999984
 40
0.4999999999999984
 40
0.7499999999999981
 40
0.7499999999999981
 40
0.874999999999999
 40
0.874999999999999
 40
1.0
 40
1.0
 40
1.0
 40
1.0
 10
102.7283120618426
 20
115.6940065139425
 30
0.0
 10
102.7283120618426
 20
115.5713334633145
 30
0.0
 10
102.7134083950087
 20
115.4478674342897
 30
0.0
 10
102.6656496414271
 20
115.2658705768071
 30
0.0
 10
102.6455796209738
 20
115.205476931096
 30
0.0
 10
102.6019605171077
 20
115.1204661819624
 30
0.0
 10
102.5850211025113
 20
115.0926658329292
 30
0.0
 10
102.5415668059235
 20
115.0449519286692
 30
0.0
 10
102.5123337495979
 20
115.0231523031871
 30
0.0
 10
102.4783120618426
 20
115.0231523031871
 30
0.0
  0
LWPOLYLINE
  5
20E
330
1F
100
AcDbEntity
  8
0
  6
Continuous
 62
     7
370
    25
100
AcDbPolyline
 90
        9
 70
   128
 43
0.0
 10
102.7283120618
 20
115.6940065139
 10
102.7331157417
 20
115.6623080886
 10
102.7473421787
 20
115.6318278159
 10
102.7704446588
 20
115.6037370358
 10
102.8015353665
 20
115.579115261
 10
102.8394195036
 20
115.5589086927
 10
102.8826412038
 20
115.5438938579
 10
102.9295394813
 20
115.5346477682
 10
102.9783120618
 20
115.5315257458
  0
LINE
  5
20F
330
1F
100
AcDbEntity
  8
0
  6
Continuous
 62
     7
370
    25
100
AcDbLine
 10
102.4783120618
 20
115.0231523032
 30
0.0
 11
102.4783120618
 21
114.8875057035
 31
0.0
  0
LWPOLYLINE
  5
210
330
1F
100
AcDbEntity
  8
0
  6
Continuous
 62
     7
370
    25
100
AcDbPolyline
 90
        9
 70
   128
 43
0.0
 10
102.9783120618
 20
107.7324488774
 10
102.9295394813
 20
107.729326855
 10
102.8826412038
 20
107.7200807654
 10
102.8394195036
 20
107.7050659306
 10
102.8015353665
 20
107.6848593622
 10
102.7704446588
 20
107.6602375875
 10
102.7473421787
 20
107.6321468073
 10
102.7331157417
 20
107.6016665347
 10
102.7283120618
 20
107.5699681093
  0
SPLINE
  5
211
330
1F
100
AcDbEntity
  8
0
  6
Continuous
 62
     7
370
    25
100
AcDbSpline
210
0.0
220
0.0
230
1.0
 70
     8
 71
     3
 72
    14
 73
    10
 74
     0
 42
0.00000001
 43
0.00000001
 40
0.0
 40
0.0
 40
0.0
 40
0.0
 40
0.1250000000000003
 40
0.1250000000000003
 40
0.2500000000000006
 40
0.2500000000000006
 40
0.5000000000000008
 40
0.5000000000000008
 40
1.0
 40
1.0
 40
1.0
 40
1.0
 10
102.4783120618426
 20
108.2408223200618
 30
0.0
 10
102.5124156121394
 20
108.2408223200618
 30
0.0
 10
102.5415160543983
 20
108.2190714551025
 30
0.0
 10
102.5850264769514
 20
108.1713098477553
 30
0.0
 10
102.6019630625376
 20
108.1434995584055
 30
0.0
 10
102.6455312887333
 20
108.0585997266724
 30
0.0
 10
102.6656357594182
 20
107.9981280885591
 30
0.0
 10
102.7133256840418
 20
107.8164799975078
 30
0.0
 10
102.7283120618426
 20
107.6926054192194
 30
0.0
 10
102.7283120618426
 20
107.5699681093065
 30
0.0
  0
LINE
  5
212
330
1F
100
AcDbEntity
  8
0
  6
Continuous
 62
     7
370
    25
100
AcDbLine
 10
102.4783120618
 20
108.3764689197
 30
0.0
 11
102.4783120618
 21
108.2408223201
 31
0.0
  0
LINE
  5
213
330
1F
100
AcDbEntity
  8
0
  6
Continuous
 62
     7
370
    25
100
AcDbLine
 10
102.2283120618
 20
115.0231523032
 30
0.0
 11
102.4783120618
 21
115.0231523032
 31
0.0
  0
LINE
  5
214
330
1F
100
AcDbEntity
  8
0
  6
Continuous
 62
     7
370
    25
100
AcDbLine
 10
102.4783120618
 20
108.2408223201
 30
0.0
 11
102.2283120618
 21
108.2408223201
 31
0.0
  0
ARC
  5
215
330
1F
100
AcDbEntity
  8
0
  6
Continuous
 62
     7
370
    25
100
AcDbCircle
 10
102.4783120618
 20
117.3819873116
 30
0.0
 40
0.25
100
AcDbArc
 50
0.0
 51
90.0
  0
LINE
  5
216
330
1F
100
AcDbEntity
  8
0
  6
Continuous
 62
     7
370
    25
100
AcDbLine
 10
102.4783120618
 20
117.3819873116
 30
0.0
 11
102.7283120618
 21
117.3819873116
 31
0.0
  0
LINE
  5
217
330
1F
100
AcDbEntity
  8
0
  6
Continuous
 62
     7
370
    25
100
AcDbLine
 10
102.4783120618
 20
117.6319873116
 30
0.0
 11
102.4783120618
 21
117.3819873116
 31
0.0
  0
LINE
  5
218
330
1F
100
AcDbEntity
  8
0
  6
Continuous
 62
     7
370
    25
100
AcDbLine
 10
102.4783120618
 20
117.3819873116
 30
0.0
 11
102.2283120618
 21
117.3819873116
 31
0.0
  0
LINE
  5
219
330
1F
100
AcDbEntity
  8
0
  6
Continuous
 62
     7
370
    25
100
AcDbLine
 10
102.2283120618
 20
117.6319873116
 30
0.0
 11
102.4783120618
 21
117.6319873116
 31
0.0
  0
LINE
  5
21A
330
1F
100
AcDbEntity
  8
0
  6
Continuous
 62
     7
370
    25
100
AcDbLine
 10
102.7283120618
 20
117.3819873116
 30
0.0
 11
102.7283120618
 21
115.6940065139
 31
0.0
  0
LINE
  5
21B
330
1F
100
AcDbEntity
  8
0
  6
Continuous
 62
     7
370
    25
100
AcDbLine
 10
102.4783120618
 20
115.0231523032
 30
0.0
 11
102.4783120618
 21
117.3819873116
 31
0.0
  0
LINE
  5
21C
330
1F
100
AcDbEntity
  8
0
  6
Continuous
 62
     7
370
    25
100
AcDbLine
 10
102.2283120618
 20
105.8819873116
 30
0.0
 11
102.4783120618
 21
105.8819873116
 31
0.0
  0
LINE
  5
21D
330
1F
100
AcDbEntity
  8
0
  6
Continuous
 62
     7
370
    25
100
AcDbLine
 10
102.4783120618
 20
105.8819873116
 30
0.0
 11
102.4783120618
 21
108.2408223201
 31
0.0
  0
LINE
  5
21E
330
1F
100
AcDbEntity
  8
0
  6
Continuous
 62
     7
370
    25
100
AcDbLine
 10
102.7283120618
 20
107.5699681093
 30
0.0
 11
102.7283120618
 21
105.8819873116
 31
0.0
  0
LINE
  5
21F
330
1F
100
AcDbEntity
  8
0
  6
Continuous
 62
     7
370
    25
100
AcDbLine
 10
102.7283120618
 20
105.8819873116
 30
0.0
 11
102.4783120618
 21
105.8819873116
 31
0.0
  0
ARC
  5
220
330
1F
100
AcDbEntity
  8
0
  6
Continuous
 62
     7
370
    25
100
AcDbCircle
 10
102.4783120618
 20
105.8819873116
 30
0.0
 40
0.25
100
AcDbArc
 50
270.0
 51
0.0
  0
LINE
  5
221
330
1F
100
AcDbEntity
  8
0
  6
Continuous
 62
     7
370
    25
100
AcDbLine
 10
102.4783120618
 20
105.8819873116
 30
0.0
 11
102.4783120618
 21
105.6319873116
 31
0.0
  0
LINE
  5
222
330
1F
100
AcDbEntity
  8
0
  6
Continuous
 62
     7
370
    25
100
AcDbLine
 10
102.4783120618
 20
105.6319873116
 30
0.0
 11
102.2283120618
 21
105.6319873116
 31
0.0
  0
SPLINE
  5
223
330
1F
100
AcDbEntity
  8
0
  6
Continuous
 62
     7
370
    25
100
AcDbSpline
210
0.0
220
0.0
230
1.0
 70
     8
 71
     3
 72
    12
 73
     8
 74
     0
 42
0.00000001
 43
0.00000001
 40
0.0
 40
0.0
 40
0.0
 40
0.0
 40
0.25
 40
0.25
 40
0.5
 40
0.5
 40
1.0
 40
1.0
 40
1.0
 40
1.0
 10
102.801527466102
 20
117.2247750587301
 30
0.0
 10
102.7873138360684
 20
117.2385455321411
 30
0.0
 10
102.7746123123158
 20
117.2546095519923
 30
0.0
 10
102.7535448829734
 20
117.2880008561877
 30
0.0
 10
102.7451789773835
 20
117.3053281405318
 30
0.0
 10
102.7285517962588
 20
117.3542191477221
 30
0.0
 10
102.7283120618426
 20
117.3819873116245
 30
0.0
 10
102.7283120618426
 20
117.3819873116245
 30
0.0
  0
SPLINE
  5
224
330
1F
100
AcDbEntity
  8
0
  6
Continuous
 62
     7
370
    25
100
AcDbSpline
210
0.0
220
0.0
230
1.0
 70
     8
 71
     3
 72
    10
 73
     6
 74
     0
 42
0.00000001
 43
0.00000001
 40
0.0
 40
0.0
 40
0.0
 40
0.0
 40
0.5
 40
0.5
 40
1.0
 40
1.0
 40
1.0
 40
1.0
 10
102.801527466102
 20
117.2247750587301
 30
0.0
 10
102.8299547261693
 20
117.1972341119081
 30
0.0
 10
102.8641813643361
 20
117.1776209780184
 30
0.0
 10
102.9272034098737
 20
117.1553121047301
 30
0.0
 10
102.9557891291657
 20
117.1519873116245
 30
0.0
 10
102.9783120618426
 20
117.1519873116245
 30
0.0
  0
SPLINE
  5
225
330
1F
100
AcDbEntity
  8
0
  6
Continuous
 62
     7
370
    25
100
AcDbSpline
210
0.0
220
0.0
230
1.0
 70
     8
 71
     3
 72
    10
 73
     6
 74
     0
 42
0.00000001
 43
0.00000001
 40
0.0
 40
0.0
 40
0.0
 40
0.0
 40
0.5
 40
0.5
 40
1.0
 40
1.0
 40
1.0
 40
1.0
 10
102.801527466102
 20
106.0391995645189
 30
0.0
 10
102.8299547261693
 20
106.0667405113409
 30
0.0
 10
102.8641813643361
 20
106.0863536452305
 30
0.0
 10
102.9272034098737
 20
106.1086625185189
 30
0.0
 10
102.9557891291657
 20
106.1119873116245
 30
0.0
 10
102.9783120618426
 20
106.1119873116245
 30
0.0
  0
SPLINE
  5
226
330
1F
100
AcDbEntity
  8
0
  6
Continuous
 62
     7
370
    25
100
AcDbSpline
210
0.0
220
0.0
230
1.0
 70
     8
 71
     3
 72
    12
 73
     8
 74
     0
 42
0.00000001
 43
0.00000001
 40
0.0
 40
0.0
 40
0.0
 40
0.0
 40
0.25
 40
0.25
 40
0.5
 40
0.5
 40
1.0
 40
1.0
 40
1.0
 40
1.0
 10
102.801527466102
 20
106.0391995645189
 30
0.0
 10
102.7873138360684
 20
106.0254290911079
 30
0.0
 10
102.7746123123158
 20
106.0093650712566
 30
0.0
 10
102.7535448829734
 20
105.9759737670613
 30
0.0
 10
102.7451789773835
 20
105.9586464827171
 30
0.0
 10
102.7285517962588
 20
105.9097554755269
 30
0.0
 10
102.7283120618426
 20
105.8819873116245
 30
0.0
 10
102.7283120618426
 20
105.8819873116245
 30
0.0
  0
SPLINE
  5
227
330
1F
100
AcDbEntity
  8
0
  6
Continuous
 62
     7
370
    25
100
AcDbSpline
210
0.0
220
0.0
230
1.0
 70
     8
 71
     3
 72
    14
 73
    10
 74
     0
 42
0.00000001
 43
0.00000001
 40
0.0
 40
0.0
 40
0.0
 40
0.0
 40
0.25
 40
0.25
 40
0.5
 40
0.5
 40
0.75
 40
0.75
 40
1.0
 40
1.0
 40
1.0
 40
1.0
 10
98.92089446540983
 20
114.5900272031743
 30
0.0
 10
98.62761079923504
 20
114.5683478966572
 30
0.0
 10
98.33313833446978
 20
114.5386633830462
 30
0.0
 10
97.7363223121359
 20
114.470844811792
 30
0.0
 10
97.43230512581059
 20
114.4319875221397
 30
0.0
 10
96.81355612312403
 20
114.3693527194982
 30
0.0
 10
96.49834146469742
 20
114.3473654702187
 30
0.0
 10
95.84971583821593
 20
114.3524213272846
 30
0.0
 10
95.53632040487439
 20
114.3786532112339
 30
0.0
 10
95.22831206184259
 20
114.4116631727907
 30
0.0
  0
SPLINE
  5
228
330
1F
100
AcDbEntity
  8
0
  6
Continuous
 62
     7
370
    25
100
AcDbSpline
210
0.0
220
0.0
230
1.0
 70
     8
 71
     3
 72
    16
 73
    12
 74
     0
 42
0.00000001
 43
0.00000001
 40
0.0
 40
0.0
 40
0.0
 40
0.0
 40
0.1249999999999999
 40
0.1249999999999999
 40
0.2499999999999999
 40
0.2499999999999999
 40
0.4999999999999999
 40
0.4999999999999999
 40
0.7499999999999999
 40
0.7499999999999999
 40
1.0
 40
1.0
 40
1.0
 40
1.0
 10
95.22831206184259
 20
108.8523114504582
 30
0.0
 10
95.3823347311696
 20
108.8688184136896
 30
0.0
 10
95.53788208694029
 20
108.8837537050749
 30
0.0
 10
95.85374918007719
 20
108.9058630115045
 30
0.0
 10
96.01549131307982
 20
108.9129168291206
 30
0.0
 10
96.50043224197856
 20
108.9164806525329
 30
0.0
 10
96.8144536556848
 20
108.8945382236461
 30
0.0
 10
97.43214493496059
 20
108.831996132922
 30
0.0
 10
97.73625453217568
 20
108.7931377935076
 30
0.0
 10
98.33313123727636
 20
108.7253117667751
 30
0.0
 10
98.6276129098331
 20
108.6956265705779
 30
0.0
 10
98.92089446540983
 20
108.6739474200747
 30
0.0
  0
LINE
  5
229
330
1F
100
AcDbEntity
  8
0
  6
Continuous
 62
     7
370
    25
100
AcDbLine
 10
95.2283120618
 20
108.8523114505
 30
0.0
 11
95.2283120618
 21
114.4116631728
 31
0.0
  0
SPLINE
  5
22A
330
1F
100
AcDbEntity
  8
0
  6
Continuous
 62
     7
370
    25
100
AcDbSpline
210
0.0
220
0.0
230
1.0
 70
     8
 71
     3
 72
    14
 73
    10
 74
     0
 42
0.00000001
 43
0.00000001
 40
0.0
 40
0.0
 40
0.0
 40
0.0
 40
0.25
 40
0.25
 40
0.5
 40
0.5
 40
0.75
 40
0.75
 40
1.0
 40
1.0
 40
1.0
 40
1.0
 10
102.7303196621323
 20
117.6306940942959
 30
0.0
 10
102.7405831214214
 20
117.6307042516531
 30
0.0
 10
102.7552480118521
 20
117.6221698392601
 30
0.0
 10
102.7869833900357
 20
117.5861243511549
 30
0.0
 10
102.8040538777884
 20
117.5586132754427
 30
0.0
 10
102.8342031856547
 20
117.4827269368802
 30
0.0
 10
102.8400346558046
 20
117.4384899644787
 30
0.0
 10
102.833928532583
 20
117.3392508148601
 30
0.0
 10
102.8219909392116
 20
117.2842486376429
 30
0.0
 10
102.801527466102
 20
117.2247750587301
 30
0.0
  0
SPLINE
  5
22B
330
1F
100
AcDbEntity
  8
0
  6
Continuous
 62
     7
370
    25
100
AcDbSpline
210
0.0
220
0.0
230
1.0
 70
     8
 71
     3
 72
    12
 73
     8
 74
     0
 42
0.00000001
 43
0.00000001
 40
0.0
 40
0.0
 40
0.0
 40
0.0
 40
0.25
 40
0.25
 40
0.5
 40
0.5
 40
1.0
 40
1.0
 40
1.0
 40
1.0
 10
102.7303196621323
 20
117.6306940942959
 30
0.0
 10
102.7200562028431
 20
117.6306839369388
 30
0.0
 10
102.7124774230464
 20
117.6221275108273
 30
0.0
 10
102.6980639675973
 20
117.6007541545924
 30
0.0
 10
102.691229291945
 20
117.5879372244689
 30
0.0
 10
102.6649035389446
 20
117.5623437283254
 30
0.0
 10
102.6552365875836
 20
117.5586161764768
 30
0.0
 10
102.6550887571384
 20
117.5587640069219
 30
0.0
  0
SPLINE
  5
22C
330
1F
100
AcDbEntity
  8
0
  6
Continuous
 62
     7
370
    25
100
AcDbSpline
210
0.0
220
0.0
230
1.0
 70
     8
 71
     3
 72
    10
 73
     6
 74
     0
 42
0.00000001
 43
0.00000001
 40
0.0
 40
0.0
 40
0.0
 40
0.0
 40
0.5
 40
0.5
 40
1.0
 40
1.0
 40
1.0
 40
1.0
 10
102.7303196621323
 20
117.6306940942959
 30
0.0
 10
102.6892658249757
 20
117.6306534648673
 30
0.0
 10
102.6451914726627
 20
117.6310120236241
 30
0.0
 10
102.5538402031508
 20
117.6360105782069
 30
0.0
 10
102.5210904216538
 20
117.6319873116245
 30
0.0
 10
102.4783120618426
 20
117.6319873116245
 30
0.0
  0
SPLINE
  5
22D
330
1F
100
AcDbEntity
  8
0
  6
Continuous
 62
     7
370
    25
100
AcDbSpline
210
0.0
220
0.0
230
1.0
 70
     8
 71
     3
 72
    12
 73
     8
 74
     0
 42
0.00000001
 43
0.00000001
 40
0.0
 40
0.0
 40
0.0
 40
0.0
 40
0.25
 40
0.25
 40
0.5
 40
0.5
 40
1.0
 40
1.0
 40
1.0
 40
1.0
 10
102.7303196621323
 20
105.633280528953
 30
0.0
 10
102.7200562028431
 20
105.6332906863102
 30
0.0
 10
102.7124774230464
 20
105.6418471124216
 30
0.0
 10
102.6980639675973
 20
105.6632204686565
 30
0.0
 10
102.691229291945
 20
105.67603739878
 30
0.0
 10
102.6649035389446
 20
105.7016308949236
 30
0.0
 10
102.6552365875836
 20
105.7053584467722
 30
0.0
 10
102.6550887571384
 20
105.7052106163271
 30
0.0
  0
SPLINE
  5
22E
330
1F
100
AcDbEntity
  8
0
  6
Continuous
 62
     7
370
    25
100
AcDbSpline
210
0.0
220
0.0
230
1.0
 70
     8
 71
     3
 72
    12
 73
     8
 74
     0
 42
0.00000001
 43
0.00000001
 40
0.0
 40
0.0
 40
0.0
 40
0.0
 40
0.25
 40
0.25
 40
0.5
 40
0.5
 40
1.0
 40
1.0
 40
1.0
 40
1.0
 10
102.7303196621323
 20
105.633280528953
 30
0.0
 10
102.7405831214214
 20
105.6332703715959
 30
0.0
 10
102.7552480118521
 20
105.6418047839889
 30
0.0
 10
102.7869833900357
 20
105.6778502720941
 30
0.0
 10
102.8040538777884
 20
105.7053613478063
 30
0.0
 10
102.8492778395878
 20
105.81919085565
 30
0.0
 10
102.8424544123211
 20
105.9202524066933
 30
0.0
 10
102.801527466102
 20
106.0391995645189
 30
0.0
  0
SPLINE
  5
22F
330
1F
100
AcDbEntity
  8
0
  6
Continuous
 62
     7
370
    25
100
AcDbSpline
210
0.0
220
0.0
230
1.0
 70
     8
 71
     3
 72
    10
 73
     6
 74
     0
 42
0.00000001
 43
0.00000001
 40
0.0
 40
0.0
 40
0.0
 40
0.0
 40
0.5
 40
0.5
 40
1.0
 40
1.0
 40
1.0
 40
1.0
 10
102.7303196621323
 20
105.633280528953
 30
0.0
 10
102.6892658249757
 20
105.6333211583816
 30
0.0
 10
102.6451914726627
 20
105.6329625996248
 30
0.0
 10
102.5538402031508
 20
105.627964045042
 30
0.0
 10
102.5210904216538
 20
105.6319873116245
 30
0.0
 10
102.4783120618426
 20
105.6319873116245
 30
0.0
  0
SPLINE
  5
230
330
1F
100
AcDbEntity
  8
0
  6
Continuous
 62
     7
370
    25
100
AcDbSpline
210
0.0
220
0.0
230
1.0
 70
     8
 71
     3
 72
    10
 73
     6
 74
     0
 42
0.00000001
 43
0.00000001
 40
0.0
 40
0.0
 40
0.0
 40
0.0
 40
0.5
 40
0.5
 40
1.0
 40
1.0
 40
1.0
 40
1.0
 10
102.7303196621323
 20
117.6306940942959
 30
0.0
 10
102.7713734992888
 20
117.6307347237246
 30
0.0
 10
102.8148503296698
 20
117.6311799285728
 30
0.0
 10
102.9039090293942
 20
117.6276543276215
 30
0.0
 10
102.9360123989178
 20
117.6319873116245
 30
0.0
 10
102.9783120618426
 20
117.6319873116245
 30
0.0
  0
SPLINE
  5
231
330
1F
100
AcDbEntity
  8
0
  6
Continuous
 62
     7
370
    25
100
AcDbSpline
210
0.0
220
0.0
230
1.0
 70
     8
 71
     3
 72
    10
 73
     6
 74
     0
 42
0.00000001
 43
0.00000001
 40
0.0
 40
0.0
 40
0.0
 40
0.0
 40
0.5
 40
0.5
 40
1.0
 40
1.0
 40
1.0
 40
1.0
 10
102.7303196621323
 20
105.633280528953
 30
0.0
 10
102.7713734992888
 20
105.6332398995244
 30
0.0
 10
102.8148503296698
 20
105.6327946946762
 30
0.0
 10
102.9039090293942
 20
105.6363202956274
 30
0.0
 10
102.9360123989178
 20
105.6319873116245
 30
0.0
 10
102.9783120618426
 20
105.6319873116245
 30
0.0
  0
SPLINE
  5
232
330
1F
100
AcDbEntity
  8
0
  6
Continuous
 62
     7
370
    25
100
AcDbSpline
210
0.0
220
0.0
230
1.0
 70
     8
 71
     3
 72
    18
 73
    14
 74
     0
 42
0.00000001
 43
0.00000001
 40
0.0
 40
0.0
 40
0.0
 40
0.0
 40
0.2499999999999999
 40
0.2499999999999999
 40
0.3749999999999998
 40
0.3749999999999998
 40
0.4999999999999998
 40
0.4999999999999998
 40
0.6249999999999998
 40
0.6249999999999998
 40
0.7499999999999998
 40
0.7499999999999998
 40
1.0
 40
1.0
 40
1.0
 40
1.0
 10
95.22831206184259
 20
114.4116631727907
 30
0.0
 10
95.03964650141376
 20
113.9920490528205
 30
0.0
 10
94.87238157891676
 20
113.559213028402
 30
0.0
 10
94.69405470886977
 20
112.8657558156358
 30
0.0
 10
94.6471231573996
 20
112.6244553794264
 30
0.0
 10
94.58689033935008
 20
112.1363360341146
 30
0.0
 10
94.57271172274997
 20
111.8890663239882
 30
0.0
 10
94.57226486426494
 20
111.3866511047354
 30
0.0
 10
94.58634979709826
 20
111.1347440000111
 30
0.0
 10
94.64584271934993
 20
110.6472525550699
 30
0.0
 10
94.69200649502804
 20
110.4073706884894
 30
0.0
 10
94.87097879727693
 20
109.7078962663113
 30
0.0
 10
95.03908600958243
 20
109.2731721693627
 30
0.0
 10
95.22831206184259
 20
108.8523114504582
 30
0.0
  0
SPLINE
  5
233
330
1F
100
AcDbEntity
  8
0
  6
Continuous
 62
     7
370
    25
100
AcDbSpline
210
0.0
220
0.0
230
1.0
 70
     8
 71
     3
 72
     9
 73
     5
 74
     0
 42
0.00000001
 43
0.00000001
 40
0.0
 40
0.0
 40
0.0
 40
0.0
 40
0.5716350575939028
 40
1.0
 40
1.0
 40
1.0
 40
1.0
 10
121.1065498225707
 20
103.5015525290158
 30
0.0
 10
121.1020904144853
 20
103.4618341232733
 30
0.0
 10
121.0942892692859
 20
103.3923520206367
 30
0.0
 10
121.0911833724525
 20
103.3888858434602
 30
0.0
 10
121.0898529151343
 20
103.3874010546737
 30
0.0
  0
SPLINE
  5
234
330
1F
100
AcDbEntity
  8
0
  6
Continuous
 62
     7
370
    25
100
AcDbSpline
210
0.0
220
0.0
230
1.0
 70
     8
 71
     3
 72
    10
 73
     6
 74
     0
 42
0.00000001
 43
0.00000001
 40
0.0
 40
0.0
 40
0.0
 40
0.0
 40
0.1054683351677837
 40
0.64406276642761
 40
1.0
 40
1.0
 40
1.0
 40
1.0
 10
121.0898529151335
 20
119.8765735685784
 30
0.0
 10
121.0893379728572
 20
119.8782506276156
 30
0.0
 10
121.0861933783545
 20
119.888491912654
 30
0.0
 10
121.1015720190029
 20
119.8492855814703
 30
0.0
 10
121.1051329255703
 20
119.7871471788675
 30
0.0
 10
121.1065498225707
 20
119.7624220942332
 30
0.0
  0
LINE
  5
235
330
1F
100
AcDbEntity
  8
0
  6
Continuous
 62
     7
370
    25
100
AcDbLine
 10
92.6629336303
 20
117.3819873116
 30
0.0
 11
91.4783120618
 21
117.3819873116
 31
0.0
  0
LINE
  5
236
330
1F
100
AcDbEntity
  8
0
  6
Continuous
 62
     7
370
    25
100
AcDbLine
 10
101.2283120618
 20
117.3819873116
 30
0.0
 11
99.7936904934
 21
117.3819873116
 31
0.0
  0
LINE
  5
237
330
1F
100
AcDbEntity
  8
0
  6
Continuous
 62
     7
370
    25
100
AcDbLine
 10
91.4783120618
 20
117.3819873116
 30
0.0
 11
91.4783120618
 21
116.4498627106
 31
0.0
  0
LINE
  5
238
330
1F
100
AcDbEntity
  8
0
  6
Continuous
 62
     7
370
    25
100
AcDbLine
 10
91.4783120618
 20
105.8819873116
 30
0.0
 11
92.6629336303
 21
105.8819873116
 31
0.0
  0
LINE
  5
239
330
1F
100
AcDbEntity
  8
0
  6
Continuous
 62
     7
370
    25
100
AcDbLine
 10
91.4783120618
 20
106.8141119126
 30
0.0
 11
91.4783120618
 21
105.8819873116
 31
0.0
  0
LINE
  5
23A
330
1F
100
AcDbEntity
  8
0
  6
Continuous
 62
     7
370
    25
100
AcDbLine
 10
100.9783120618
 20
105.8819873116
 30
0.0
 11
100.9783120618
 21
106.8141119126
 31
0.0
  0
LINE
  5
23B
330
1F
100
AcDbEntity
  8
0
  6
Continuous
 62
     7
370
    25
100
AcDbLine
 10
99.7936904934
 20
105.8819873116
 30
0.0
 11
100.9783120618
 21
105.8819873116
 31
0.0
  0
LINE
  5
23C
330
1F
100
AcDbEntity
  8
0
  6
Continuous
 62
     7
370
    25
100
AcDbLine
 10
105.7283120618
 20
105.6319873116
 30
0.0
 11
105.7283120618
 21
117.6319873116
 31
0.0
  0
LINE
  5
23D
330
1F
100
AcDbEntity
  8
0
  6
Continuous
 62
     7
370
    25
100
AcDbLine
 10
102.077368765
 20
115.0064087563
 30
0.0
 11
102.2283120618
 21
115.0231523032
 31
0.0
  0
LINE
  5
23E
330
1F
100
AcDbEntity
  8
0
  6
Continuous
 62
     7
370
    25
100
AcDbLine
 10
102.1513818054
 20
108.3873918907
 30
0.0
 11
102.2283120618
 21
108.3764689197
 31
0.0
  0
LINE
  5
23F
330
1F
100
AcDbEntity
  8
0
  6
Continuous
 62
     7
370
    25
100
AcDbLine
 10
102.2283120618
 20
114.8875057035
 30
0.0
 11
102.147062451
 21
114.8759694474
 31
0.0
  0
LINE
  5
240
330
1F
100
AcDbEntity
  8
0
  6
Continuous
 62
     7
370
    25
100
AcDbLine
 10
102.2283120618
 20
108.2408223201
 30
0.0
 11
102.0858160868
 21
108.2566288387
 31
0.0
  0
SPLINE
  5
241
330
1F
100
AcDbEntity
  8
0
  6
Continuous
 62
     7
370
    25
100
AcDbSpline
210
0.0
220
0.0
230
1.0
 70
     8
 71
     3
 72
    14
 73
    10
 74
     0
 42
0.00000001
 43
0.00000001
 40
0.0
 40
0.0
 40
0.0
 40
0.0
 40
0.25
 40
0.25
 40
0.5
 40
0.5
 40
0.75
 40
0.75
 40
1.0
 40
1.0
 40
1.0
 40
1.0
 10
103.4783120618426
 20
117.9319873116245
 30
0.0
 10
103.4783120675701
 20
117.9319873118369
 30
0.0
 10
103.5031104479279
 20
117.9307478878885
 30
0.0
 10
103.5951777315711
 20
117.9278206939482
 30
0.0
 10
103.6613694775582
 20
117.9264356641613
 30
0.0
 10
103.7955809536805
 20
117.9264277872512
 30
0.0
 10
103.86209243453
 20
117.9278406320815
 30
0.0
 10
103.953250832853
 20
117.9307399996437
 30
0.0
 10
103.9783027108002
 20
117.9319874513291
 30
0.0
 10
103.9783120615575
 20
117.9319873116111
 30
0.0
  0
LWPOLYLINE
  5
242
330
1F
100
AcDbEntity
  8
0
  6
Continuous
 62
     7
370
    25
100
AcDbPolyline
 90
       13
 70
   128
 43
0.0
 10
104.2283088673
 20
117.6819869789
 10
104.2283120617
 20
117.6819873116
 10
104.1993627073
 20
117.6790471566
 10
104.1153949904
 20
117.671513278
 10
103.9869981044
 20
117.6628405184
 10
103.8293880898
 20
117.656905761
 10
103.6608222629
 20
117.6563167255
 10
103.5020049808
 20
117.6611996295
 10
103.3684081694
 20
117.6693995892
 10
103.2747258777
 20
117.677369825
 10
103.2308744074
 20
117.6817165214
 10
103.2283120618
 20
117.6819873116
 10
103.2283120618
 20
117.6819873116
  0
INSERT
  5
24E
330
1F
100
AcDbEntity
  8
FORMAT
100
AcDbBlockReference
  2
SW_CENTERMARKSYMBOL_1
 10
96.2283120618
 20
111.6319873116
 30
0.0
  0
LINE
  5
24F
330
1F
100
AcDbEntity
  8
FORMAT
100
AcDbLine
 10
114.0843120618
 20
105.9094873116
 30
0.0
 11
100.0656607074
 21
105.9094873116
 31
0.0
  0
LINE
  5
250
330
1F
100
AcDbEntity
  8
FORMAT
100
AcDbLine
 10
114.0843120618
 20
117.3544873116
 30
0.0
 11
100.0656607074
 21
117.3544873116
 31
0.0
  0
ARC
  5
251
330
1F
100
AcDbEntity
  8
FORMAT
100
AcDbCircle
 10
96.2283120618
 20
111.6319873116
 30
0.0
 40
5.722499999999997
100
AcDbArc
 50
75.0
 51
345.0
  0
ENDSEC
  0
SECTION
  2
OBJECTS
  0
DICTIONARY
  5
C
330
0
100
AcDbDictionary
281
     1
  3
ACAD_GROUP
350
D
  3
ACAD_LAYOUT
350
1A
  3
ACAD_MLINESTYLE
350
17
  3
ACAD_PLOTSETTINGS
350
19
  3
ACAD_PLOTSTYLENAME
350
E
  3
ACAD_SCALELIST
350
47
  3
DWGPROPS
350
252
  0
DICTIONARY
  5
D
102
{ACAD_REACTORS
330
C
102
}
330
C
100
AcDbDictionary
281
     1
  0
DICTIONARY
  5
1A
102
{ACAD_REACTORS
330
C
102
}
330
C
100
AcDbDictionary
281
     1
  3
Layout1
350
1E
  3
Layout2
350
26
  3
Model
350
22
  0
DICTIONARY
  5
17
102
{ACAD_REACTORS
330
C
102
}
330
C
100
AcDbDictionary
281
     1
  3
Standard
350
18
  0
DICTIONARY
  5
19
102
{ACAD_REACTORS
330
C
102
}
330
C
100
AcDbDictionary
281
     1
  0
ACDBDICTIONARYWDFLT
  5
E
102
{ACAD_REACTORS
330
C
102
}
330
C
100
AcDbDictionary
281
     1
  3
Normal
350
F
100
AcDbDictionaryWithDefault
340
F
  0
DICTIONARY
  5
47
102
{ACAD_REACTORS
330
C
102
}
330
C
100
AcDbDictionary
281
     1
  3
A0
350
48
  3
A1
350
49
  3
A2
350
4A
  3
A3
350
4B
  3
A4
350
4C
  3
A5
350
4D
  3
A6
350
4E
  3
A7
350
4F
  3
A8
350
50
  3
A9
350
51
  3
B0
350
52
  3
B1
350
53
  3
B2
350
54
  3
B3
350
55
  3
B4
350
56
  3
B5
350
57
  3
B6
350
58
  0
XRECORD
  5
252
102
{ACAD_REACTORS
330
C
102
}
330
C
100
AcDbXrecord
280
     1
  1
DWGPROPS COOKIE
  2

  3

  4

  6

  7

  8
user28
  9

300
=
301
=
302
=
303
=
304
=
305
=
306
=
307
=
308
=
309
=
 40
0.0
 41
2460376.125246713
 42
2460376.125247488
  1

 90
        0
  0
LAYOUT
  5
1E
102
{ACAD_REACTORS
330
1A
102
}
330
1A
100
AcDbPlotSettings
  1

  2
none_device
  4

  6

 40
0.0
 41
0.0
 42
0.0
 43
0.0
 44
0.0
 45
0.0
 46
0.0
 47
0.0
 48
0.0
 49
0.0
140
0.0
141
0.0
142
1.0
143
1.0
 70
   688
 72
     1
 73
     0
 74
     5
  7

 75
    16
147
1.0
148
0.0
149
0.0
100
AcDbLayout
  1
Layout1
 70
     1
 71
     1
 10
0.0
 20
0.0
 11
420.0
 21
297.0
 12
0.0
 22
0.0
 32
0.0
 14
1.0000000000E+20
 24
1.0000000000E+20
 34
1.0000000000E+20
 15
-1.0000000000E+20
 25
-1.0000000000E+20
 35
-1.0000000000E+20
146
0.0
 13
0.0
 23
0.0
 33
0.0
 16
1.0
 26
0.0
 36
0.0
 17
0.0
 27
1.0
 37
0.0
 76
     0
330
1B
  0
LAYOUT
  5
26
102
{ACAD_REACTORS
330
1A
102
}
330
1A
100
AcDbPlotSettings
  1

  2
none_device
  4

  6

 40
0.0
 41
0.0
 42
0.0
 43
0.0
 44
0.0
 45
0.0
 46
0.0
 47
0.0
 48
0.0
 49
0.0
140
0.0
141
0.0
142
1.0
143
1.0
 70
   688
 72
     1
 73
     0
 74
     5
  7

 75
    16
147
1.0
148
0.0
149
0.0
100
AcDbLayout
  1
Layout2
 70
     1
 71
     2
 10
0.0
 20
0.0
 11
0.0
 21
0.0
 12
0.0
 22
0.0
 32
0.0
 14
0.0
 24
0.0
 34
0.0
 15
0.0
 25
0.0
 35
0.0
146
0.0
 13
0.0
 23
0.0
 33
0.0
 16
1.0
 26
0.0
 36
0.0
 17
0.0
 27
1.0
 37
0.0
 76
     0
330
23
  0
LAYOUT
  5
22
102
{ACAD_REACTORS
330
1A
102
}
330
1A
100
AcDbPlotSettings
  1

  2
none_device
  4
Letter_(8.50_x_11.00_Inches)
  6

 40
6.35
 41
6.35
 42
6.35000508
 43
6.35000508
 44
215.9
 45
279.4
 46
0.0
 47
0.0
 48
0.0
 49
0.0
140
0.0
141
0.0
142
1.0
143
1.0
 70
  1712
 72
     1
 73
     0
 74
     0
  7

 75
     0
147
1.0
148
0.0
149
0.0
100
AcDbLayout
  1
Model
 70
     1
 71
     0
 10
0.0
 20
0.0
 11
297.0
 21
210.0
 12
0.0
 22
0.0
 32
0.0
 14
0.0
 24
0.0
 34
0.0
 15
297.0
 25
210.0
 35
0.0
146
0.0
 13
0.0
 23
0.0
 33
0.0
 16
1.0
 26
0.0
 36
0.0
 17
0.0
 27
1.0
 37
0.0
 76
     0
330
1F
331
29
  0
MLINESTYLE
  5
18
102
{ACAD_REACTORS
330
17
102
}
330
17
100
AcDbMlineStyle
  2
Standard
 70
     0
  3

 62
   256
 51
90.0
 52
90.0
 71
     2
 49
0.5
 62
   256
  6
BYLAYER
 49
-0.5
 62
   256
  6
BYLAYER
  0
ACDBPLACEHOLDER
  5
F
102
{ACAD_REACTORS
330
E
102
}
330
E
  0
SCALE
  5
48
102
{ACAD_REACTORS
330
47
102
}
330
47
100
AcDbScale
 70
     0
300
1:1
140
1.0
141
1.0
290
     1
  0
SCALE
  5
49
102
{ACAD_REACTORS
330
47
102
}
330
47
100
AcDbScale
 70
     0
300
1:2
140
1.0
141
2.0
290
     0
  0
SCALE
  5
4A
102
{ACAD_REACTORS
330
47
102
}
330
47
100
AcDbScale
 70
     0
300
1:4
140
1.0
141
4.0
290
     0
  0
SCALE
  5
4B
102
{ACAD_REACTORS
330
47
102
}
330
47
100
AcDbScale
 70
     0
300
1:5
140
1.0
141
5.0
290
     0
  0
SCALE
  5
4C
102
{ACAD_REACTORS
330
47
102
}
330
47
100
AcDbScale
 70
     0
300
1:8
140
1.0
141
8.0
290
     0
  0
SCALE
  5
4D
102
{ACAD_REACTORS
330
47
102
}
330
47
100
AcDbScale
 70
     0
300
1:10
140
1.0
141
10.0
290
     0
  0
SCALE
  5
4E
102
{ACAD_REACTORS
330
47
102
}
330
47
100
AcDbScale
 70
     0
300
1:16
140
1.0
141
16.0
290
     0
  0
SCALE
  5
4F
102
{ACAD_REACTORS
330
47
102
}
330
47
100
AcDbScale
 70
     0
300
1:20
140
1.0
141
20.0
290
     0
  0
SCALE
  5
50
102
{ACAD_REACTORS
330
47
102
}
330
47
100
AcDbScale
 70
     0
300
1:30
140
1.0
141
30.0
290
     0
  0
SCALE
  5
51
102
{ACAD_REACTORS
330
47
102
}
330
47
100
AcDbScale
 70
     0
300
1:40
140
1.0
141
40.0
290
     0
  0
SCALE
  5
52
102
{ACAD_REACTORS
330
47
102
}
330
47
100
AcDbScale
 70
     0
300
1:50
140
1.0
141
50.0
290
     0
  0
SCALE
  5
53
102
{ACAD_REACTORS
330
47
102
}
330
47
100
AcDbScale
 70
     0
300
1:100
140
1.0
141
100.0
290
     0
  0
SCALE
  5
54
102
{ACAD_REACTORS
330
47
102
}
330
47
100
AcDbScale
 70
     0
300
2:1
140
2.0
141
1.0
290
     0
  0
SCALE
  5
55
102
{ACAD_REACTORS
330
47
102
}
330
47
100
AcDbScale
 70
     0
300
4:1
140
4.0
141
1.0
290
     0
  0
SCALE
  5
56
102
{ACAD_REACTORS
330
47
102
}
330
47
100
AcDbScale
 70
     0
300
8:1
140
8.0
141
1.0
290
     0
  0
SCALE
  5
57
102
{ACAD_REACTORS
330
47
102
}
330
47
100
AcDbScale
 70
     0
300
10:1
140
10.0
141
1.0
290
     0
  0
SCALE
  5
58
102
{ACAD_REACTORS
330
47
102
}
330
47
100
AcDbScale
 70
     0
300
100:1
140
100.0
141
1.0
290
     0
  0
ENDSEC
  0
EOF
