  0
SECTION
  2
HEADER
  9
$ACADVER
  1
AC1015
  9
$ACADMAINTVER
 70
     6
  9
$DWGCODEPAGE
  3
DOS932
  9
$INSBASE
 10
0.0
 20
0.0
 30
0.0
  9
$EXTMIN
 10
0.0
 20
0.0
 30
0.0
  9
$EXTMAX
 10
297.0
 20
210.0
 30
0.0
  9
$LIMMIN
 10
0.0
 20
0.0
  9
$LIMMAX
 10
297.0
 20
210.0
  9
$ORTHOMODE
 70
     0
  9
$REGENMODE
 70
     1
  9
$FILLMODE
 70
     1
  9
$QTEXTMODE
 70
     0
  9
$MIRRTEXT
 70
     1
  9
$LTSCALE
 40
1.0
  9
$ATTMODE
 70
     1
  9
$TEXTSIZE
 40
3.5277777778
  9
$TRACEWID
 40
1.0
  9
$TEXTSTYLE
  7
Standard
  9
$CLAYER
  8
0
  9
$CELTYPE
  6
ByLayer
  9
$CECOLOR
 62
   256
  9
$CELTSCALE
 40
1.0
  9
$DISPSILH
 70
     0
  9
$DIMSCALE
 40
1.0
  9
$DIMASZ
 40
2.728515625
  9
$DIMEXO
 40
1.0
  9
$DIMDLI
 40
3.75
  9
$DIMRND
 40
0.0
  9
$DIMDLE
 40
0.0
  9
$DIMEXE
 40
1.0
  9
$DIMTP
 40
0.0
  9
$DIMTM
 40
0.0
  9
$DIMTXT
 40
3.5277777778
  9
$DIMCEN
 40
2.5
  9
$DIMTSZ
 40
0.0
  9
$DIMTOL
 70
     0
  9
$DIMLIM
 70
     0
  9
$DIMTIH
 70
     1
  9
$DIMTOH
 70
     1
  9
$DIMSE1
 70
     0
  9
$DIMSE2
 70
     0
  9
$DIMTAD
 70
     1
  9
$DIMZIN
 70
     0
  9
$DIMBLK
  1

  9
$DIMASO
 70
     1
  9
$DIMSHO
 70
     1
  9
$DIMPOST
  1

  9
$DIMAPOST
  1

  9
$DIMALT
 70
     0
  9
$DIMALTD
 70
     3
  9
$DIMALTF
 40
0.0393700787
  9
$DIMLFAC
 40
1.0
  9
$DIMTOFL
 70
     1
  9
$DIMTVP
 40
0.0
  9
$DIMTIX
 70
     0
  9
$DIMSOXD
 70
     0
  9
$DIMSAH
 70
     0
  9
$DIMBLK1
  1

  9
$DIMBLK2
  1

  9
$DIMSTYLE
  2
ISO-25
  9
$DIMCLRD
 70
     0
  9
$DIMCLRE
 70
     0
  9
$DIMCLRT
 70
     0
  9
$DIMTFAC
 40
1.0
  9
$DIMGAP
 40
1.524
  9
$DIMJUST
 70
     0
  9
$DIMSD1
 70
     0
  9
$DIMSD2
 70
     0
  9
$DIMTOLJ
 70
     0
  9
$DIMTZIN
 70
     0
  9
$DIMALTZ
 70
     0
  9
$DIMALTTZ
 70
     0
  9
$DIMUPT
 70
     0
  9
$DIMDEC
 70
     2
  9
$DIMTDEC
 70
     2
  9
$DIMALTU
 70
     2
  9
$DIMALTTD
 70
     3
  9
$DIMTXSTY
  7
Standard
  9
$DIMAUNIT
 70
     0
  9
$DIMADEC
 70
     2
  9
$DIMALTRND
 40
0.0
  9
$DIMAZIN
 70
     0
  9
$DIMDSEP
 70
    44
  9
$DIMATFIT
 70
     3
  9
$DIMFRAC
 70
     0
  9
$DIMLDRBLK
  1

  9
$DIMLUNIT
 70
     2
  9
$DIMLWD
 70
    -2
  9
$DIMLWE
 70
    -2
  9
$DIMTMOVE
 70
     0
  9
$LUNITS
 70
     2
  9
$LUPREC
 70
     2
  9
$SKETCHINC
 40
1.0
  9
$FILLETRAD
 40
0.0
  9
$AUNITS
 70
     0
  9
$AUPREC
 70
     2
  9
$MENU
  1
.
  9
$ELEVATION
 40
0.0
  9
$PELEVATION
 40
0.0
  9
$THICKNESS
 40
0.0
  9
$LIMCHECK
 70
     0
  9
$CHAMFERA
 40
0.0
  9
$CHAMFERB
 40
0.0
  9
$CHAMFERC
 40
0.0
  9
$CHAMFERD
 40
0.0
  9
$SKPOLY
 70
     0
  9
$TDCREATE
 40
2460376.499036007
  9
$TDUCREATE
 40
2460376.124036007
  9
$TDUPDATE
 40
2460376.499036747
  9
$TDUUPDATE
 40
2460376.124036747
  9
$TDINDWG
 40
0.0000000116
  9
$TDUSRTIMER
 40
0.0000000116
  9
$USRTIMER
 70
     1
  9
$ANGBASE
 50
0.0
  9
$ANGDIR
 70
     0
  9
$PDMODE
 70
     0
  9
$PDSIZE
 40
-1.0
  9
$PLINEWID
 40
0.0
  9
$SPLFRAME
 70
     0
  9
$SPLINETYPE
 70
     6
  9
$SPLINESEGS
 70
     8
  9
$HANDSEED
  5
254
  9
$SURFTAB1
 70
     6
  9
$SURFTAB2
 70
     6
  9
$SURFTYPE
 70
     6
  9
$SURFU
 70
     6
  9
$SURFV
 70
     6
  9
$UCSBASE
  2

  9
$UCSNAME
  2

  9
$UCSORG
 10
0.0
 20
0.0
 30
0.0
  9
$UCSXDIR
 10
1.0
 20
0.0
 30
0.0
  9
$UCSYDIR
 10
0.0
 20
1.0
 30
0.0
  9
$UCSORTHOREF
  2

  9
$UCSORTHOVIEW
 70
     0
  9
$UCSORGTOP
 10
0.0
 20
0.0
 30
0.0
  9
$UCSORGBOTTOM
 10
0.0
 20
0.0
 30
0.0
  9
$UCSORGLEFT
 10
0.0
 20
0.0
 30
0.0
  9
$UCSORGRIGHT
 10
0.0
 20
0.0
 30
0.0
  9
$UCSORGFRONT
 10
0.0
 20
0.0
 30
0.0
  9
$UCSORGBACK
 10
0.0
 20
0.0
 30
0.0
  9
$PUCSBASE
  2

  9
$PUCSNAME
  2

  9
$PUCSORG
 10
0.0
 20
0.0
 30
0.0
  9
$PUCSXDIR
 10
1.0
 20
0.0
 30
0.0
  9
$PUCSYDIR
 10
0.0
 20
1.0
 30
0.0
  9
$PUCSORTHOREF
  2

  9
$PUCSORTHOVIEW
 70
     0
  9
$PUCSORGTOP
 10
0.0
 20
0.0
 30
0.0
  9
$PUCSORGBOTTOM
 10
0.0
 20
0.0
 30
0.0
  9
$PUCSORGLEFT
 10
0.0
 20
0.0
 30
0.0
  9
$PUCSORGRIGHT
 10
0.0
 20
0.0
 30
0.0
  9
$PUCSORGFRONT
 10
0.0
 20
0.0
 30
0.0
  9
$PUCSORGBACK
 10
0.0
 20
0.0
 30
0.0
  9
$USERI1
 70
     0
  9
$USERI2
 70
     0
  9
$USERI3
 70
     0
  9
$USERI4
 70
     0
  9
$USERI5
 70
     0
  9
$USERR1
 40
0.0
  9
$USERR2
 40
0.0
  9
$USERR3
 40
0.0
  9
$USERR4
 40
0.0
  9
$USERR5
 40
0.0
  9
$WORLDVIEW
 70
     1
  9
$SHADEDGE
 70
     3
  9
$SHADEDIF
 70
    70
  9
$TILEMODE
 70
     1
  9
$MAXACTVP
 70
    64
  9
$PINSBASE
 10
0.0
 20
0.0
 30
0.0
  9
$PLIMCHECK
 70
     0
  9
$PEXTMIN
 10
1.0000000000E+20
 20
1.0000000000E+20
 30
1.0000000000E+20
  9
$PEXTMAX
 10
-1.0000000000E+20
 20
-1.0000000000E+20
 30
-1.0000000000E+20
  9
$PLIMMIN
 10
0.0
 20
0.0
  9
$PLIMMAX
 10
420.0
 20
297.0
  9
$UNITMODE
 70
     0
  9
$VISRETAIN
 70
     1
  9
$PLINEGEN
 70
     0
  9
$PSLTSCALE
 70
     1
  9
$TREEDEPTH
 70
  3020
  9
$CMLSTYLE
  2
Standard
  9
$CMLJUST
 70
     0
  9
$CMLSCALE
 40
20.0
  9
$PROXYGRAPHICS
 70
     1
  9
$MEASUREMENT
 70
     1
  9
$CELWEIGHT
370
    -1
  9
$ENDCAPS
280
     0
  9
$JOINSTYLE
280
     0
  9
$LWDISPLAY
290
     1
  9
$INSUNITS
 70
     4
  9
$HYPERLINKBASE
  1

  9
$STYLESHEET
  1

  9
$XEDIT
290
     1
  9
$CEPSNTYPE
380
     0
  9
$PSTYLEMODE
290
     1
  9
$FINGERPRINTGUID
  2
{f821bd43-af1f-4567-9296-560c167f03d3}
  9
$VERSIONGUID
  2
{FAEB1C32-E019-11D5-929B-00C0DF256EC4}
  9
$EXTNAMES
290
     1
  9
$PSVPSCALE
 40
0.0
  9
$OLESTARTUP
290
     0
  0
ENDSEC
  0
SECTION
  2
CLASSES
  0
CLASS
  1
ACDBDICTIONARYWDFLT
  2
AcDbDictionaryWithDefault
  3
ObjectDBX Classes
 90
        0
280
     0
281
     0
  0
CLASS
  1
VISUALSTYLE
  2
AcDbVisualStyle
  3
ObjectDBX Classes
 90
     4095
280
     0
281
     0
  0
CLASS
  1
MATERIAL
  2
AcDbMaterial
  3
ObjectDBX Classes
 90
     1153
280
     0
281
     0
  0
CLASS
  1
SCALE
  2
AcDbScale
  3
ObjectDBX Classes
 90
     1153
280
     0
281
     0
  0
CLASS
  1
TABLESTYLE
  2
AcDbTableStyle
  3
ObjectDBX Classes
 90
     4095
280
     0
281
     0
  0
CLASS
  1
MLEADERSTYLE
  2
AcDbMLeaderStyle
  3
ACDB_MLEADERSTYLE_CLASS
 90
     4095
280
     0
281
     0
  0
CLASS
  1
SUN
  2
AcDbSun
  3
SCENEOE
 90
     1153
280
     0
281
     0
  0
CLASS
  1
ACDBPLACEHOLDER
  2
AcDbPlaceHolder
  3
ObjectDBX Classes
 90
        0
280
     0
281
     0
  0
CLASS
  1
LAYOUT
  2
AcDbLayout
  3
ObjectDBX Classes
 90
        0
280
     0
281
     0
  0
ENDSEC
  0
SECTION
  2
TABLES
  0
TABLE
  2
VPORT
  5
8
330
0
100
AcDbSymbolTable
 70
     1
  0
VPORT
  5
29
330
8
100
AcDbSymbolTableRecord
100
AcDbViewportTableRecord
  2
*Active
 70
     0
 10
0.0
 20
0.0
 11
1.0
 21
1.0
 12
148.5
 22
105.0
 13
0.0
 23
0.0
 14
10.0
 24
10.0
 15
10.0
 25
10.0
 16
0.0
 26
0.0
 36
1.0
 17
0.0
 27
0.0
 37
0.0
 40
210.0
 41
1.4142857143
 42
50.0
 43
0.0
 44
0.0
 50
0.0
 51
0.0
 71
     0
 72
  2000
 73
     1
 74
     3
 75
     0
 76
     0
 77
     0
 78
     0
281
     0
 65
     1
110
0.0
120
0.0
130
0.0
111
1.0
121
0.0
131
0.0
112
0.0
122
1.0
132
0.0
 79
     0
146
0.0
  0
ENDTAB
  0
TABLE
  2
LTYPE
  5
5
330
0
100
AcDbSymbolTable
 70
     6
  0
LTYPE
  5
14
330
5
100
AcDbSymbolTableRecord
100
AcDbLinetypeTableRecord
  2
ByBlock
 70
     0
  3

 72
    65
 73
     0
 40
0.0
  0
LTYPE
  5
15
330
5
100
AcDbSymbolTableRecord
100
AcDbLinetypeTableRecord
  2
ByLayer
 70
     0
  3

 72
    65
 73
     0
 40
0.0
  0
LTYPE
  5
16
330
5
100
AcDbSymbolTableRecord
100
AcDbLinetypeTableRecord
  2
Continuous
 70
     0
  3
Solid line
 72
    65
 73
     0
 40
0.0
  0
LTYPE
  5
5E
330
5
100
AcDbSymbolTableRecord
100
AcDbLinetypeTableRecord
  2
HIDDEN
 70
     0
  3
Hidden __ __ __ __ __ __ __ __ __ __ __ __ __ __
 72
    65
 73
     2
 40
1.905
 49
1.27
 74
     0
 49
-0.635
 74
     0
  0
LTYPE
  5
5F
330
5
100
AcDbSymbolTableRecord
100
AcDbLinetypeTableRecord
  2
PHANTOM
 70
     0
  3
Phantom ______  __  __  ______  __  __  ______
 72
    65
 73
     6
 40
12.7
 49
6.35
 74
     0
 49
-1.27
 74
     0
 49
1.27
 74
     0
 49
-1.27
 74
     0
 49
1.27
 74
     0
 49
-1.27
 74
     0
  0
LTYPE
  5
60
330
5
100
AcDbSymbolTableRecord
100
AcDbLinetypeTableRecord
  2
CENTER
 70
     0
  3
Center ____ _ ____ _ ____ _ ____ _ ____ _ ____
 72
    65
 73
     4
 40
10.16
 49
6.35
 74
     0
 49
-1.27
 74
     0
 49
1.27
 74
     0
 49
-1.27
 74
     0
  0
LTYPE
  5
61
330
5
100
AcDbSymbolTableRecord
100
AcDbLinetypeTableRecord
  2
CENTERX2
 70
     0
  3
Center (2x) ________  __  ________  __  _____
 72
    65
 73
     4
 40
20.32
 49
12.7
 74
     0
 49
-2.54
 74
     0
 49
2.54
 74
     0
 49
-2.54
 74
     0
  0
LTYPE
  5
62
330
5
100
AcDbSymbolTableRecord
100
AcDbLinetypeTableRecord
  2
DOT2
 70
     0
  3
Dot (.5x) ........................................
 72
    65
 73
     2
 40
0.635
 49
0.0
 74
     0
 49
-0.635
 74
     0
  0
ENDTAB
  0
TABLE
  2
LAYER
  5
2
330
0
100
AcDbSymbolTable
 70
     2
  0
LAYER
  5
10
330
2
100
AcDbSymbolTableRecord
100
AcDbLayerTableRecord
  2
0
 70
     0
 62
     7
  6
Continuous
370
    -3
390
F
  0
LAYER
  5
63
330
2
100
AcDbSymbolTableRecord
100
AcDbLayerTableRecord
  2
FORMAT
 70
     0
 62
     7
  6
Continuous
370
    -3
390
F
  0
ENDTAB
  0
TABLE
  2
STYLE
  5
3
330
0
100
AcDbSymbolTable
 70
     2
  0
STYLE
  5
11
330
3
100
AcDbSymbolTableRecord
100
AcDbTextStyleTableRecord
  2
Standard
 70
     0
 40
0.0
 41
1.0
 50
0.0
 71
     0
 42
3.5277777778
  3
txt
  4
bigfont
  0
STYLE
  5
64
330
3
100
AcDbSymbolTableRecord
100
AcDbTextStyleTableRecord
  2
SLDTEXTSTYLE0
 70
     0
 40
0.0
 41
0.7
 50
0.0
 71
     0
 42
3.5277777778
  3
TXT
  4
bigfont
  0
ENDTAB
  0
TABLE
  2
VIEW
  5
6
330
0
100
AcDbSymbolTable
 70
     0
  0
ENDTAB
  0
TABLE
  2
UCS
  5
7
330
0
100
AcDbSymbolTable
 70
     0
  0
ENDTAB
  0
TABLE
  2
APPID
  5
9
330
0
100
AcDbSymbolTable
 70
     1
  0
APPID
  5
12
330
9
100
AcDbSymbolTableRecord
100
AcDbRegAppTableRecord
  2
ACAD
 70
     0
  0
ENDTAB
  0
TABLE
  2
DIMSTYLE
  5
A
330
0
100
AcDbSymbolTable
 70
     1
100
AcDbDimStyleTable
  0
DIMSTYLE
105
27
330
A
100
AcDbSymbolTableRecord
100
AcDbDimStyleTableRecord
  2
ISO-25
 70
     0
 41
2.5
 42
0.625
 43
3.75
 44
1.25
 73
     0
 74
     0
 77
     1
 78
     8
140
2.5
141
2.5
143
0.0393700787
147
0.625
171
     3
172
     1
178
     0
271
     2
272
     2
274
     3
278
    44
283
     0
284
     8
340
11
  0
ENDTAB
  0
TABLE
  2
BLOCK_RECORD
  5
1
330
0
100
AcDbSymbolTable
 70
     3
  0
BLOCK_RECORD
  5
1F
330
1
100
AcDbSymbolTableRecord
100
AcDbBlockTableRecord
  2
*Model_Space
340
22
  0
BLOCK_RECORD
  5
1B
330
1
100
AcDbSymbolTableRecord
100
AcDbBlockTableRecord
  2
*Paper_Space
340
1E
  0
BLOCK_RECORD
  5
23
330
1
100
AcDbSymbolTableRecord
100
AcDbBlockTableRecord
  2
*Paper_Space0
340
26
  0
BLOCK_RECORD
  5
199
330
1
100
AcDbSymbolTableRecord
100
AcDbBlockTableRecord
  2
SW_CENTERMARKSYMBOL_0
340
0
102
{BLKREFS
331
1A4
102
}
  0
BLOCK_RECORD
  5
243
330
1
100
AcDbSymbolTableRecord
100
AcDbBlockTableRecord
  2
SW_CENTERMARKSYMBOL_1
340
0
102
{BLKREFS
331
24E
102
}
  0
ENDTAB
  0
ENDSEC
  0
SECTION
  2
BLOCKS
  0
BLOCK
  5
20
330
1F
100
AcDbEntity
  8
0
100
AcDbBlockBegin
  2
*Model_Space
 70
     0
 10
0.0
 20
0.0
 30
0.0
  3
*Model_Space
  1

  0
ENDBLK
  5
21
330
1F
100
AcDbEntity
  8
0
100
AcDbBlockEnd
  0
BLOCK
  5
1C
330
1B
100
AcDbEntity
 67
     1
  8
0
100
AcDbBlockBegin
  2
*Paper_Space
 70
     0
 10
0.0
 20
0.0
 30
0.0
  3
*Paper_Space
  1

  0
ENDBLK
  5
1D
330
1B
100
AcDbEntity
 67
     1
  8
0
100
AcDbBlockEnd
  0
BLOCK
  5
24
330
23
100
AcDbEntity
  8
0
100
AcDbBlockBegin
  2
*Paper_Space0
 70
     0
 10
0.0
 20
0.0
 30
0.0
  3
*Paper_Space0
  1

  0
ENDBLK
  5
25
330
23
100
AcDbEntity
  8
0
100
AcDbBlockEnd
  0
BLOCK
  5
19A
330
199
100
AcDbEntity
  8
0
100
AcDbBlockBegin
  2
SW_CENTERMARKSYMBOL_0
 70
     0
 10
0.0
 20
0.0
 30
0.0
  3
SW_CENTERMARKSYMBOL_0
  1

  0
LINE
  5
19C
330
199
100
AcDbEntity
  8
FORMAT
 62
     0
100
AcDbLine
 10
0.0
 20
0.0
 30
0.0
 11
0.0
 21
2.5
 31
0.0
  0
LINE
  5
19D
330
199
100
AcDbEntity
  8
FORMAT
 62
     0
100
AcDbLine
 10
0.0
 20
0.0
 30
0.0
 11
-2.5
 21
0.0
 31
0.0
  0
LINE
  5
19E
330
199
100
AcDbEntity
  8
FORMAT
 62
     0
100
AcDbLine
 10
0.0
 20
0.0
 30
0.0
 11
0.0
 21
-2.5
 31
0.0
  0
LINE
  5
19F
330
199
100
AcDbEntity
  8
FORMAT
 62
     0
100
AcDbLine
 10
0.0
 20
0.0
 30
0.0
 11
2.5
 21
0.0
 31
0.0
  0
LINE
  5
1A0
330
199
100
AcDbEntity
  8
FORMAT
 62
     0
100
AcDbLine
 10
0.0
 20
5.0
 30
0.0
 11
0.0
 21
22.9793975454
 31
0.0
  0
LINE
  5
1A1
330
199
100
AcDbEntity
  8
FORMAT
 62
     0
100
AcDbLine
 10
-5.0
 20
0.0
 30
0.0
 11
-10.55
 21
0.0
 31
0.0
  0
LINE
  5
1A2
330
199
100
AcDbEntity
  8
FORMAT
 62
     0
100
AcDbLine
 10
0.0
 20
-5.0
 30
0.0
 11
0.0
 21
-10.55
 31
0.0
  0
LINE
  5
1A3
330
199
100
AcDbEntity
  8
FORMAT
 62
     0
100
AcDbLine
 10
5.0
 20
0.0
 30
0.0
 11
10.55
 21
0.0
 31
0.0
  0
ENDBLK
  5
19B
330
199
100
AcDbEntity
  8
0
100
AcDbBlockEnd
  0
BLOCK
  5
244
330
243
100
AcDbEntity
  8
0
100
AcDbBlockBegin
  2
SW_CENTERMARKSYMBOL_1
 70
     0
 10
0.0
 20
0.0
 30
0.0
  3
SW_CENTERMARKSYMBOL_1
  1

  0
LINE
  5
246
330
243
100
AcDbEntity
  8
FORMAT
 62
     0
100
AcDbLine
 10
0.0
 20
0.0
 30
0.0
 11
0.0
 21
2.5
 31
0.0
  0
LINE
  5
247
330
243
100
AcDbEntity
  8
FORMAT
 62
     0
100
AcDbLine
 10
0.0
 20
0.0
 30
0.0
 11
-2.5
 21
0.0
 31
0.0
  0
LINE
  5
248
330
243
100
AcDbEntity
  8
FORMAT
 62
     0
100
AcDbLine
 10
0.0
 20
0.0
 30
0.0
 11
0.0
 21
-2.5
 31
0.0
  0
LINE
  5
249
330
243
100
AcDbEntity
  8
FORMAT
 62
     0
100
AcDbLine
 10
0.0
 20
0.0
 30
0.0
 11
2.5
 21
0.0
 31
0.0
  0
LINE
  5
24A
330
243
100
AcDbEntity
  8
FORMAT
 62
     0
100
AcDbLine
 10
0.0
 20
5.0
 30
0.0
 11
0.0
 21
8.9562924967
 31
0.0
  0
LINE
  5
24B
330
243
100
AcDbEntity
  8
FORMAT
 62
     0
100
AcDbLine
 10
-5.0
 20
0.0
 30
0.0
 11
-8.9562924967
 21
0.0
 31
0.0
  0
LINE
  5
24C
330
243
100
AcDbEntity
  8
FORMAT
 62
     0
100
AcDbLine
 10
0.0
 20
-5.0
 30
0.0
 11
0.0
 21
-8.9562924967
 31
0.0
  0
LINE
  5
24D
330
243
100
AcDbEntity
  8
FORMAT
 62
     0
100
AcDbLine
 10
5.0
 20
0.0
 30
0.0
 11
26.5651779678
 21
0.0
 31
0.0
  0
ENDBLK
  5
245
330
243
100
AcDbEntity
  8
0
100
AcDbBlockEnd
  0
ENDSEC
  0
SECTION
  2
ENTITIES
  0
MTEXT
  5
65
330
1F
100
AcDbEntity
  8
FORMAT
100
AcDbMText
 10
125.7068693484
 20
97.4064331445
 30
0.0
 40
3.7041666667
 41
0.0
 71
     2
 72
     1
  1
5R-RL1206
  7
SLDTEXTSTYLE0
 73
     1
 44
1.0
  0
LINE
  5
66
330
1F
100
AcDbEntity
  8
0
  6
Continuous
 62
     7
370
    25
100
AcDbLine
 10
104.1260900896
 20
72.5893506029
 30
0.0
 11
103.2225631437
 21
71.0243960267
 31
0.0
  0
LINE
  5
67
330
1F
100
AcDbEntity
  8
0
  6
Continuous
 62
     7
370
    25
100
AcDbLine
 10
103.2225631437
 20
54.5243960267
 30
0.0
 11
104.1260900896
 21
52.9594414504
 31
0.0
  0
LINE
  5
68
330
1F
100
AcDbEntity
  8
0
  6
Continuous
 62
     7
370
    25
100
AcDbLine
 10
116.0225631437
 20
71.0243960267
 30
0.0
 11
115.1555758456
 21
71.0243960267
 31
0.0
  0
LINE
  5
69
330
1F
100
AcDbEntity
  8
0
  6
Continuous
 62
     7
370
    25
100
AcDbLine
 10
115.1555758456
 20
54.5243960267
 30
0.0
 11
116.0225631437
 21
54.5243960267
 31
0.0
  0
LINE
  5
6A
330
1F
100
AcDbEntity
  8
0
  6
Continuous
 62
     7
370
    25
100
AcDbLine
 10
116.0225631437
 20
54.5243960267
 30
0.0
 11
116.2225631437
 21
54.7243960267
 31
0.0
  0
LINE
  5
6B
330
1F
100
AcDbEntity
  8
0
  6
Continuous
 62
     7
370
    25
100
AcDbLine
 10
116.2225631437
 20
70.8243960267
 30
0.0
 11
116.0225631437
 21
71.0243960267
 31
0.0
  0
LINE
  5
6C
330
1F
100
AcDbEntity
  8
0
  6
Continuous
 62
     7
370
    25
100
AcDbLine
 10
113.8190361979
 20
52.9594414504
 30
0.0
 11
114.5060567928
 21
54.1493960267
 31
0.0
  0
ARC
  5
6D
330
1F
100
AcDbEntity
  8
0
  6
Continuous
 62
     7
370
    25
100
AcDbCircle
 10
115.1555758456
 20
53.7743960267
 30
0.0
 40
0.75
100
AcDbArc
 50
90.0
 51
150.0
  0
LINE
  5
6E
330
1F
100
AcDbEntity
  8
0
  6
Continuous
 62
     7
370
    25
100
AcDbLine
 10
114.5060567928
 20
71.3993960267
 30
0.0
 11
113.8190361979
 21
72.5893506029
 31
0.0
  0
ARC
  5
6F
330
1F
100
AcDbEntity
  8
0
  6
Continuous
 62
     7
370
    25
100
AcDbCircle
 10
115.1555758456
 20
71.7743960267
 30
0.0
 40
0.75
100
AcDbArc
 50
210.0
 51
270.0
  0
ARC
  5
70
330
1F
100
AcDbEntity
  8
0
  6
Continuous
 62
     7
370
    25
100
AcDbCircle
 10
84.787145706
 20
73.2743960267
 30
0.0
 40
0.5
100
AcDbArc
 50
268.1671385201
 51
270.0
  0
ARC
  5
71
330
1F
100
AcDbEntity
  8
0
  6
Continuous
 62
     7
370
    25
100
AcDbCircle
 10
98.287145706
 20
73.2743960267
 30
0.0
 40
0.5
100
AcDbArc
 50
270.0
 51
271.8328614799
  0
LINE
  5
72
330
1F
100
AcDbEntity
  8
0
  6
Continuous
 62
     7
370
    25
100
AcDbLine
 10
98.303137712
 20
72.7746518363
 30
0.0
 11
97.9934382027
 21
82.6850361337
 31
0.0
  0
LINE
  5
73
330
1F
100
AcDbEntity
  8
0
  6
Continuous
 62
     7
370
    25
100
AcDbLine
 10
85.0808532094
 20
82.6850361337
 30
0.0
 11
84.7711537001
 21
72.7746518363
 31
0.0
  0
LINE
  5
74
330
1F
100
AcDbEntity
  8
0
  6
Continuous
 62
     7
370
    25
100
AcDbLine
 10
103.2225631437
 20
69.3528960267
 30
0.0
 11
101.537145706
 21
69.3528960267
 31
0.0
  0
LINE
  5
75
330
1F
100
AcDbEntity
  8
0
  6
Continuous
 62
     7
370
    25
100
AcDbLine
 10
101.537145706
 20
56.1958960267
 30
0.0
 11
103.2225631437
 21
56.1958960267
 31
0.0
  0
ARC
  5
76
330
1F
100
AcDbEntity
  8
0
  6
Continuous
 62
     7
370
    25
100
AcDbCircle
 10
85.037145706
 20
72.2743960267
 30
0.0
 40
0.5
100
AcDbArc
 50
0.0
 51
90.0
  0
ARC
  5
77
330
1F
100
AcDbEntity
  8
0
  6
Continuous
 62
     7
370
    25
100
AcDbCircle
 10
98.037145706
 20
72.2743960267
 30
0.0
 40
0.5
100
AcDbArc
 50
90.0
 51
180.0
  0
ARC
  5
78
330
1F
100
AcDbEntity
  8
0
  6
Continuous
 62
     7
370
    25
100
AcDbCircle
 10
101.037145706
 20
69.2743960267
 30
0.0
 40
0.5
100
AcDbArc
 50
270.0
 51
0.0
  0
ARC
  5
79
330
1F
100
AcDbEntity
  8
0
  6
Continuous
 62
     7
370
    25
100
AcDbCircle
 10
101.037145706
 20
56.2743960267
 30
0.0
 40
0.5
100
AcDbArc
 50
0.0
 51
90.0
  0
LINE
  5
7A
330
1F
100
AcDbEntity
  8
0
  6
Continuous
 62
     7
370
    25
100
AcDbLine
 10
97.9934382027
 20
82.6850361337
 30
0.0
 11
96.787145706
 21
84.7743960267
 31
0.0
  0
LINE
  5
7B
330
1F
100
AcDbEntity
  8
0
  6
Continuous
 62
     7
370
    25
100
AcDbLine
 10
86.287145706
 20
84.7743960267
 30
0.0
 11
85.0808532094
 21
82.6850361337
 31
0.0
  0
LINE
  5
7C
330
1F
100
AcDbEntity
  8
0
  6
Continuous
 62
     7
370
    25
100
AcDbLine
 10
87.537145706
 20
56.7743960267
 30
0.0
 11
101.037145706
 21
56.7743960267
 31
0.0
  0
LINE
  5
7D
330
1F
100
AcDbEntity
  8
0
  6
Continuous
 62
     7
370
    25
100
AcDbLine
 10
101.037145706
 20
68.7743960267
 30
0.0
 11
97.537145706
 21
68.7743960267
 31
0.0
  0
LINE
  5
7E
330
1F
100
AcDbEntity
  8
0
  6
Continuous
 62
     7
370
    25
100
AcDbLine
 10
97.537145706
 20
68.7743960267
 30
0.0
 11
97.537145706
 21
72.2743960267
 31
0.0
  0
LINE
  5
7F
330
1F
100
AcDbEntity
  8
0
  6
Continuous
 62
     7
370
    25
100
AcDbLine
 10
85.537145706
 20
72.2743960267
 30
0.0
 11
85.537145706
 21
58.7743960267
 31
0.0
  0
ARC
  5
80
330
1F
100
AcDbEntity
  8
0
  6
Continuous
 62
     7
370
    25
100
AcDbCircle
 10
87.537145706
 20
58.7743960267
 30
0.0
 40
2.0
100
AcDbArc
 50
179.7579218774
 51
270.1915399971
  0
SPLINE
  5
81
330
1F
100
AcDbEntity
  8
0
  6
Continuous
 62
     7
370
    25
100
AcDbSpline
210
0.0
220
0.0
230
1.0
 70
     8
 71
     3
 72
    15
 73
    11
 74
     0
 42
0.00000001
 43
0.00000001
 40
0.0
 40
0.0
 40
0.0
 40
0.0
 40
0.1323052378296956
 40
0.2645730682660304
 40
0.3997997819746813
 40
0.5350020935366635
 40
0.6501929590834554
 40
0.7654017933211806
 40
0.8826895567076667
 40
1.0
 40
1.0
 40
1.0
 40
1.0
 10
104.1260900895604
 20
67.6818733147653
 30
0.0
 10
104.0105201177204
 20
67.8938958584218
 30
0.0
 10
103.7794128497792
 20
68.31788099942561
 30
0.0
 10
103.5307502182029
 20
68.97078058508073
 30
0.0
 10
103.3812362710493
 20
69.6359874373036
 30
0.0
 10
103.3516259840009
 20
70.27709808360093
 30
0.0
 10
103.4284473866516
 20
70.88357284846425
 30
0.0
 10
103.5858568577726
 20
71.45593580821664
 30
0.0
 10
103.8167592183036
 20
72.02571094847086
 30
0.0
 10
104.022973153861
 20
72.40145860954033
 30
0.0
 10
104.1260900895604
 20
72.58935060287709
 30
0.0
  0
SPLINE
  5
82
330
1F
100
AcDbEntity
  8
0
  6
Continuous
 62
     7
370
    25
100
AcDbSpline
210
0.0
220
0.0
230
1.0
 70
     8
 71
     3
 72
    16
 73
    12
 74
     0
 42
0.00000001
 43
0.00000001
 40
0.0
 40
0.0
 40
0.0
 40
0.0
 40
0.0943034347978453
 40
0.1885977507141886
 40
0.2837893215986493
 40
0.3789705446812176
 40
0.5045422210106498
 40
0.6301147857408415
 40
0.7590343874823243
 40
0.8879898546356783
 40
1.0
 40
1.0
 40
1.0
 40
1.0
 10
104.1260900895604
 20
57.86691873854164
 30
0.0
 10
104.0424117868597
 20
58.16877239360528
 30
0.0
 10
103.8750632729189
 20
58.77245051531841
 30
0.0
 10
103.6716678359754
 20
59.69322902127048
 30
0.0
 10
103.5122512386979
 20
60.62551637873048
 30
0.0
 10
103.3946961213677
 20
61.66884400550075
 30
0.0
 10
103.3499814447646
 20
62.81955675927306
 30
0.0
 10
103.4065616227494
 20
64.08208396519075
 30
0.0
 10
103.5717241387755
 20
65.34605371924982
 30
0.0
 10
103.8151526416924
 20
66.55134326098724
 30
0.0
 10
104.0274200025723
 20
67.32312109783615
 30
0.0
 10
104.1260900895604
 20
67.6818733147653
 30
0.0
  0
SPLINE
  5
83
330
1F
100
AcDbEntity
  8
0
  6
Continuous
 62
     7
370
    25
100
AcDbSpline
210
0.0
220
0.0
230
1.0
 70
     8
 71
     3
 72
    15
 73
    11
 74
     0
 42
0.00000001
 43
0.00000001
 40
0.0
 40
0.0
 40
0.0
 40
0.0
 40
0.1323052378296955
 40
0.2645730682660302
 40
0.399799781974681
 40
0.5350020935366634
 40
0.6501929590834553
 40
0.7654017933211806
 40
0.8826895567076665
 40
1.0
 40
1.0
 40
1.0
 40
1.0
 10
104.1260900895604
 20
52.95944145042979
 30
0.0
 10
104.0105201177204
 20
53.17146399408629
 30
0.0
 10
103.7794128497792
 20
53.5954491350901
 30
0.0
 10
103.5307502182029
 20
54.24834872074523
 30
0.0
 10
103.3812362710493
 20
54.9135555729681
 30
0.0
 10
103.351625984001
 20
55.55466621926544
 30
0.0
 10
103.4284473866516
 20
56.16114098412878
 30
0.0
 10
103.5858568577726
 20
56.73350394388116
 30
0.0
 10
103.8167592183036
 20
57.3032790841354
 30
0.0
 10
104.022973153861
 20
57.67902674520487
 30
0.0
 10
104.1260900895604
 20
57.86691873854164
 30
0.0
  0
LINE
  5
84
330
1F
100
AcDbEntity
  8
0
  6
Continuous
 62
     7
370
    25
100
AcDbLine
 10
103.2225631437
 20
54.5243960267
 30
0.0
 11
103.2225631437
 21
71.0243960267
 31
0.0
  0
SPLINE
  5
85
330
1F
100
AcDbEntity
  8
0
  6
Continuous
 62
     7
370
    25
100
AcDbSpline
210
0.0
220
0.0
230
1.0
 70
     8
 71
     3
 72
    11
 73
     7
 74
     0
 42
0.00000001
 43
0.00000001
 40
0.0
 40
0.0
 40
0.0
 40
0.0
 40
0.285811385772635
 40
0.5527245545033773
 40
0.8220275581359247
 40
0.9999999999999999
 40
0.9999999999999999
 40
0.9999999999999999
 40
0.9999999999999999
 10
115.1555758456003
 20
64.17387101597865
 30
0.0
 10
115.1516355441767
 20
63.90850863728291
 30
0.0
 10
115.1440154791359
 20
63.39532998224067
 30
0.0
 10
115.132554389489
 20
62.62353074674819
 30
0.0
 10
115.149991778725
 20
61.95431691942951
 30
0.0
 10
115.1539863799861
 20
61.53984202631207
 30
0.0
 10
115.1555758456003
 20
61.37492103732829
 30
0.0
  0
ARC
  5
86
330
1F
100
AcDbEntity
  8
0
  6
Continuous
 62
     7
370
    25
100
AcDbCircle
 10
115.0868525813
 20
58.7288419365
 30
0.0
 40
2.646971381582806
100
AcDbArc
 50
88.5122636654
 51
102.674909816
  0
SPLINE
  5
87
330
1F
100
AcDbEntity
  8
0
  6
Continuous
 62
     7
370
    25
100
AcDbSpline
210
0.0
220
0.0
230
1.0
 70
     8
 71
     3
 72
    10
 73
     6
 74
     0
 42
0.00000001
 43
0.00000001
 40
0.0
 40
0.0
 40
0.0
 40
0.0
 40
0.4586421336634355
 40
0.9210522271454904
 40
1.0
 40
1.0
 40
1.0
 40
1.0
 10
114.506056792762
 20
64.23748351549342
 30
0.0
 10
114.5384944281918
 20
63.79045235874312
 30
0.0
 10
114.6036361894104
 20
62.8927174750343
 30
0.0
 10
114.5620814078629
 20
61.91450017881373
 30
0.0
 10
114.5131871786682
 20
61.3880781714469
 30
0.0
 10
114.506056792762
 20
61.31130853781351
 30
0.0
  0
ARC
  5
88
330
1F
100
AcDbEntity
  8
0
  6
Continuous
 62
     7
370
    25
100
AcDbCircle
 10
115.0868525813
 20
66.8199501168
 30
0.0
 40
2.646971381583367
100
AcDbArc
 50
257.325090184
 51
271.4877363346
  0
SPLINE
  5
89
330
1F
100
AcDbEntity
  8
0
  6
Continuous
 62
     7
370
    25
100
AcDbSpline
210
0.0
220
0.0
230
1.0
 70
     8
 71
     3
 72
    11
 73
     7
 74
     0
 42
0.00000001
 43
0.00000001
 40
0.0
 40
0.0
 40
0.0
 40
0.0
 40
0.2488617730236805
 40
0.4977454583558508
 40
0.7488627517928873
 40
1.0
 40
1.0
 40
1.0
 40
1.0
 10
114.506056792762
 20
61.31130853781351
 30
0.0
 10
114.4729027375457
 20
61.02138377720753
 30
0.0
 10
114.4065917078945
 20
60.44150872808617
 30
0.0
 10
114.2485497018096
 20
59.57742955309727
 30
0.0
 10
114.0556975223628
 20
58.71795341114341
 30
0.0
 10
113.8979253954744
 20
58.15060447640752
 30
0.0
 10
113.8190361978559
 20
57.86691873854164
 30
0.0
  0
LINE
  5
8A
330
1F
100
AcDbEntity
  8
0
  6
Continuous
 62
     7
370
    25
100
AcDbLine
 10
114.5060567928
 20
56.1447238389
 30
0.0
 11
114.5060567928
 21
61.3113085378
 31
0.0
  0
SPLINE
  5
8B
330
1F
100
AcDbEntity
  8
0
  6
Continuous
 62
     7
370
    25
100
AcDbSpline
210
0.0
220
0.0
230
1.0
 70
     8
 71
     3
 72
    11
 73
     7
 74
     0
 42
0.00000001
 43
0.00000001
 40
0.0
 40
0.0
 40
0.0
 40
0.0
 40
0.2490252138763563
 40
0.4980311639765294
 40
0.7490269204800196
 40
1.0
 40
1.0
 40
1.0
 40
1.0
 10
113.8190361978559
 20
57.86691873854164
 30
0.0
 10
113.8972850706813
 20
57.72627230790725
 30
0.0
 10
114.0537767632553
 20
57.44499032658642
 30
0.0
 10
114.2465596516217
 20
57.0165181700234
 30
0.0
 10
114.4056255368565
 20
56.58330815205237
 30
0.0
 10
114.4725807157176
 20
56.29091420688398
 30
0.0
 10
114.506056792762
 20
56.14472383890569
 30
0.0
  0
SPLINE
  5
8C
330
1F
100
AcDbEntity
  8
0
  6
Continuous
 62
     7
370
    25
100
AcDbSpline
210
0.0
220
0.0
230
1.0
 70
     8
 71
     3
 72
    10
 73
     6
 74
     0
 42
0.00000001
 43
0.00000001
 40
0.0
 40
0.0
 40
0.0
 40
0.0
 40
0.3089808900029878
 40
0.6190948628358302
 40
0.9999999999999999
 40
0.9999999999999999
 40
0.9999999999999999
 40
0.9999999999999999
 10
114.506056792762
 20
56.14472383890569
 30
0.0
 10
114.5302037992987
 20
55.99427587653783
 30
0.0
 10
114.5785863633453
 20
55.69282823482393
 30
0.0
 10
114.5860414560619
 20
55.20381699622788
 30
0.0
 10
114.5344791082624
 20
54.86719171106967
 30
0.0
 10
114.506056792762
 20
54.68163635006574
 30
0.0
  0
SPLINE
  5
8D
330
1F
100
AcDbEntity
  8
0
  6
Continuous
 62
     7
370
    25
100
AcDbSpline
210
0.0
220
0.0
230
1.0
 70
     8
 71
     3
 72
    11
 73
     7
 74
     0
 42
0.00000001
 43
0.00000001
 40
0.0
 40
0.0
 40
0.0
 40
0.0
 40
0.2488617730236805
 40
0.4977454583558502
 40
0.7488627517928867
 40
0.9999999999999999
 40
0.9999999999999999
 40
0.9999999999999999
 40
0.9999999999999999
 10
114.506056792762
 20
54.68163635006574
 30
0.0
 10
114.4729027375457
 20
54.53667396976275
 30
0.0
 10
114.4065917078945
 20
54.24673644520207
 30
0.0
 10
114.2485497018096
 20
53.81469685770761
 30
0.0
 10
114.0556975223628
 20
53.38495878673068
 30
0.0
 10
113.8979253954744
 20
53.10128431936273
 30
0.0
 10
113.8190361978559
 20
52.95944145042979
 30
0.0
  0
LINE
  5
8E
330
1F
100
AcDbEntity
  8
0
  6
Continuous
 62
     7
370
    25
100
AcDbLine
 10
104.1260900896
 20
52.9594414504
 30
0.0
 11
113.8190361979
 21
52.9594414504
 31
0.0
  0
LINE
  5
8F
330
1F
100
AcDbEntity
  8
0
  6
Continuous
 62
     7
370
    25
100
AcDbLine
 10
104.1260900896
 20
57.8669187385
 30
0.0
 11
113.8190361979
 21
57.8669187385
 31
0.0
  0
SPLINE
  5
90
330
1F
100
AcDbEntity
  8
0
  6
Continuous
 62
     7
370
    25
100
AcDbSpline
210
0.0
220
0.0
230
1.0
 70
     8
 71
     3
 72
    11
 73
     7
 74
     0
 42
0.00000001
 43
0.00000001
 40
0.0
 40
0.0
 40
0.0
 40
0.0
 40
0.2488617730236805
 40
0.4977454583558507
 40
0.7488627517928871
 40
1.0
 40
1.0
 40
1.0
 40
1.0
 10
114.506056792762
 20
69.40406821440122
 30
0.0
 10
114.4729027375457
 20
69.25910583409824
 30
0.0
 10
114.4065917078945
 20
68.96916830953757
 30
0.0
 10
114.2485497018096
 20
68.53712872204311
 30
0.0
 10
114.0556975223628
 20
68.1073906510662
 30
0.0
 10
113.8979253954744
 20
67.82371618369824
 30
0.0
 10
113.8190361978559
 20
67.6818733147653
 30
0.0
  0
LINE
  5
91
330
1F
100
AcDbEntity
  8
0
  6
Continuous
 62
     7
370
    25
100
AcDbLine
 10
114.5060567928
 20
64.2374835155
 30
0.0
 11
114.5060567928
 21
69.4040682144
 31
0.0
  0
SPLINE
  5
92
330
1F
100
AcDbEntity
  8
0
  6
Continuous
 62
     7
370
    25
100
AcDbSpline
210
0.0
220
0.0
230
1.0
 70
     8
 71
     3
 72
    10
 73
     6
 74
     0
 42
0.00000001
 43
0.00000001
 40
0.0
 40
0.0
 40
0.0
 40
0.0
 40
0.3273333707077125
 40
0.6629523133412114
 40
1.0
 40
1.0
 40
1.0
 40
1.0
 10
113.8190361978559
 20
67.6818733147653
 30
0.0
 10
113.9203538239522
 20
67.31175852611403
 30
0.0
 10
114.125553661835
 20
66.5621604793043
 30
0.0
 10
114.3641190839578
 20
65.41295045874804
 30
0.0
 10
114.4586772759558
 20
64.6298602578145
 30
0.0
 10
114.506056792762
 20
64.23748351549342
 30
0.0
  0
LINE
  5
93
330
1F
100
AcDbEntity
  8
0
  6
Continuous
 62
     7
370
    25
100
AcDbLine
 10
104.1260900896
 20
67.6818733148
 30
0.0
 11
113.8190361979
 21
67.6818733148
 31
0.0
  0
LINE
  5
94
330
1F
100
AcDbEntity
  8
0
  6
Continuous
 62
     7
370
    25
100
AcDbLine
 10
115.1555758456
 20
61.3749210373
 30
0.0
 11
115.1555758456
 21
56.4329704558
 31
0.0
  0
ARC
  5
95
330
1F
100
AcDbEntity
  8
0
  6
Continuous
 62
     7
370
    25
100
AcDbCircle
 10
115.126623546
 20
55.6222914323
 30
0.0
 40
0.8111958547050808
100
AcDbArc
 50
87.9546284054
 51
139.9072030665
  0
LINE
  5
96
330
1F
100
AcDbEntity
  8
0
  6
Continuous
 62
     7
370
    25
100
AcDbLine
 10
115.1555758456
 20
69.1158215975
 30
0.0
 11
115.1555758456
 21
64.173871016
 31
0.0
  0
ARC
  5
97
330
1F
100
AcDbEntity
  8
0
  6
Continuous
 62
     7
370
    25
100
AcDbCircle
 10
115.126623546
 20
69.926500621
 30
0.0
 40
0.8111958547161227
100
AcDbArc
 50
220.0927969339
 51
272.0453715942
  0
SPLINE
  5
98
330
1F
100
AcDbEntity
  8
0
  6
Continuous
 62
     7
370
    25
100
AcDbSpline
210
0.0
220
0.0
230
1.0
 70
     8
 71
     3
 72
    10
 73
     6
 74
     0
 42
0.00000001
 43
0.00000001
 40
0.0
 40
0.0
 40
0.0
 40
0.0
 40
0.3089808900029871
 40
0.6190948628358288
 40
1.0
 40
1.0
 40
1.0
 40
1.0
 10
114.506056792762
 20
70.86715570324118
 30
0.0
 10
114.5302037992987
 20
70.71670774087332
 30
0.0
 10
114.5785863633453
 20
70.41526009915941
 30
0.0
 10
114.5860414560619
 20
69.92624886056336
 30
0.0
 10
114.5344791082624
 20
69.58962357540516
 30
0.0
 10
114.506056792762
 20
69.40406821440122
 30
0.0
  0
LINE
  5
99
330
1F
100
AcDbEntity
  8
0
  6
Continuous
 62
     7
370
    25
100
AcDbLine
 10
104.1260900896
 20
72.5893506029
 30
0.0
 11
113.8190361979
 21
72.5893506029
 31
0.0
  0
SPLINE
  5
9A
330
1F
100
AcDbEntity
  8
0
  6
Continuous
 62
     7
370
    25
100
AcDbSpline
210
0.0
220
0.0
230
1.0
 70
     8
 71
     3
 72
    11
 73
     7
 74
     0
 42
0.00000001
 43
0.00000001
 40
0.0
 40
0.0
 40
0.0
 40
0.0
 40
0.2490252138763564
 40
0.4980311639765299
 40
0.7490269204800198
 40
0.9999999999999999
 40
0.9999999999999999
 40
0.9999999999999999
 40
0.9999999999999999
 10
113.8190361978559
 20
72.58935060287709
 30
0.0
 10
113.8972850706813
 20
72.44870417224271
 30
0.0
 10
114.0537767632553
 20
72.16742219092187
 30
0.0
 10
114.2465596516217
 20
71.73895003435888
 30
0.0
 10
114.4056255368565
 20
71.30574001638786
 30
0.0
 10
114.4725807157176
 20
71.01334607121946
 30
0.0
 10
114.506056792762
 20
70.86715570324118
 30
0.0
  0
SPLINE
  5
9B
330
1F
100
AcDbEntity
  8
0
  6
Continuous
 62
     7
370
    25
100
AcDbSpline
210
0.0
220
0.0
230
1.0
 70
     8
 71
     3
 72
    11
 73
     7
 74
     0
 42
0.00000001
 43
0.00000001
 40
0.0
 40
0.0
 40
0.0
 40
0.0
 40
0.2858113857234034
 40
0.5527245545213756
 40
0.8220275582229342
 40
1.0
 40
1.0
 40
1.0
 40
1.0
 10
115.1555758456003
 20
70.51529658686778
 30
0.0
 10
115.1516355441778
 20
70.41562649428694
 30
0.0
 10
115.1440154791376
 20
70.2228766240135
 30
0.0
 10
115.1325543894867
 20
69.85113978320284
 30
0.0
 10
115.1499917787283
 20
69.4827100931452
 30
0.0
 10
115.1539863799876
 20
69.22025384394156
 30
0.0
 10
115.1555758456003
 20
69.11582159754262
 30
0.0
  0
SPLINE
  5
9C
330
1F
100
AcDbEntity
  8
0
  6
Continuous
 62
     7
370
    25
100
AcDbSpline
210
0.0
220
0.0
230
1.0
 70
     8
 71
     3
 72
    11
 73
     7
 74
     0
 42
0.00000001
 43
0.00000001
 40
0.0
 40
0.0
 40
0.0
 40
0.0
 40
0.2858113857233875
 40
0.5527245545213877
 40
0.8220275582229748
 40
1.0
 40
1.0
 40
1.0
 40
1.0
 10
115.1555758456003
 20
56.43297045576428
 30
0.0
 10
115.1516355441778
 20
56.26727816969537
 30
0.0
 10
115.1440154791376
 20
55.94684938491034
 30
0.0
 10
115.1325543894867
 20
55.54678699014632
 30
0.0
 10
115.1499917787283
 20
55.24600285283952
 30
0.0
 10
115.1539863799875
 20
55.09398420894305
 30
0.0
 10
115.1555758456003
 20
55.03349546643912
 30
0.0
  0
LINE
  5
9D
330
1F
100
AcDbEntity
  8
0
  6
Continuous
 62
     7
370
    25
100
AcDbLine
 10
116.0225631437
 20
54.5243960267
 30
0.0
 11
116.0225631437
 21
71.0243960267
 31
0.0
  0
LINE
  5
9E
330
1F
100
AcDbEntity
  8
0
  6
Continuous
 62
     7
370
    25
100
AcDbLine
 10
116.2225631437
 20
70.8243960267
 30
0.0
 11
116.2225631437
 21
54.7243960267
 31
0.0
  0
ARC
  5
9F
330
1F
100
AcDbEntity
  8
0
  6
Continuous
 62
     7
370
    25
100
AcDbCircle
 10
115.1471123109
 20
54.2736950822
 30
0.0
 40
0.7598475211157995
100
AcDbArc
 50
89.3617997903
 51
147.5290082721
  0
ARC
  5
A0
330
1F
100
AcDbEntity
  8
0
  6
Continuous
 62
     7
370
    25
100
AcDbCircle
 10
115.1471123109
 20
71.2750969711
 30
0.0
 40
0.7598475211157639
100
AcDbArc
 50
212.4709917279
 51
270.6382002097
  0
LINE
  5
A1
330
1F
100
AcDbEntity
  8
0
  6
Continuous
 62
     7
370
    25
100
AcDbLine
 10
98.303137712
 20
72.7746518363
 30
0.0
 11
84.7711537001
 21
72.7746518363
 31
0.0
  0
LINE
  5
A2
330
1F
100
AcDbEntity
  8
0
  6
Continuous
 62
     7
370
    25
100
AcDbLine
 10
98.287145706
 20
72.7743960267
 30
0.0
 11
84.787145706
 21
72.7743960267
 31
0.0
  0
LINE
  5
A3
330
1F
100
AcDbEntity
  8
0
  6
Continuous
 62
     7
370
    25
100
AcDbLine
 10
97.9934382027
 20
82.6850361337
 30
0.0
 11
85.0808532094
 21
82.6850361337
 31
0.0
  0
LINE
  5
A4
330
1F
100
AcDbEntity
  8
0
  6
Continuous
 62
     7
370
    25
100
AcDbLine
 10
101.537145706
 20
69.3528960267
 30
0.0
 11
101.537145706
 21
56.1958960267
 31
0.0
  0
LINE
  5
A5
330
1F
100
AcDbEntity
  8
0
  6
Continuous
 62
     7
370
    25
100
AcDbLine
 10
86.287145706
 20
84.7743960267
 30
0.0
 11
96.787145706
 21
84.7743960267
 31
0.0
  0
SPLINE
  5
A6
330
1F
100
AcDbEntity
  8
0
  6
Continuous
 62
     7
370
    25
100
AcDbSpline
210
0.0
220
0.0
230
1.0
 70
     8
 71
     3
 72
     8
 73
     4
 74
     0
 42
0.00000001
 43
0.00000001
 40
0.0
 40
0.0
 40
0.0
 40
0.0
 40
1.0
 40
1.0
 40
1.0
 40
1.0
 10
88.53714570600754
 20
57.73439602665344
 30
0.0
 10
88.42067911878534
 20
57.73439602665344
 30
0.0
 10
88.30636754832328
 20
57.74301684978364
 30
0.0
 10
88.19399158437771
 20
57.75966484420871
 30
0.0
  0
LINE
  5
A7
330
1F
100
AcDbEntity
  8
0
  6
Continuous
 62
     7
370
    25
100
AcDbLine
 10
97.787145706
 20
57.7343960267
 30
0.0
 11
88.537145706
 21
57.7343960267
 31
0.0
  0
SPLINE
  5
A8
330
1F
100
AcDbEntity
  8
0
  6
Continuous
 62
     7
370
    25
100
AcDbSpline
210
0.0
220
0.0
230
1.0
 70
     8
 71
     3
 72
    14
 73
    10
 74
     0
 42
0.00000001
 43
0.00000001
 40
0.0
 40
0.0
 40
0.0
 40
0.0
 40
0.25
 40
0.25
 40
0.5
 40
0.5
 40
0.75
 40
0.75
 40
1.0
 40
1.0
 40
1.0
 40
1.0
 10
97.78714570600754
 20
57.73439602665344
 30
0.0
 10
97.87446373501393
 20
57.73439602665344
 30
0.0
 10
97.95609184283552
 20
57.75734882543988
 30
0.0
 10
98.08379296096898
 20
57.82184442460157
 30
0.0
 10
98.13318375379454
 20
57.86307691140785
 30
0.0
 10
98.21054242135256
 20
57.95253875137692
 30
0.0
 10
98.23911123092444
 20
58.0020135887371
 30
0.0
 10
98.27717859989154
 20
58.10458584666927
 30
0.0
 10
98.28714570600754
 20
58.15819560795056
 30
0.0
 10
98.28714570600754
 20
58.21439602665344
 30
0.0
  0
LINE
  5
A9
330
1F
100
AcDbEntity
  8
0
  6
Continuous
 62
     7
370
    25
100
AcDbLine
 10
98.287145706
 20
60.4228858736
 30
0.0
 11
98.287145706
 21
58.2143960267
 31
0.0
  0
SPLINE
  5
AA
330
1F
100
AcDbEntity
  8
0
  6
Continuous
 62
     7
370
    25
100
AcDbSpline
210
0.0
220
0.0
230
1.0
 70
    24
 71
     3
 72
    14
 73
    10
 74
     0
 42
0.00000001
 43
0.00000001
 40
0.0
 40
0.0
 40
0.0
 40
0.0
 40
0.25
 40
0.25
 40
0.5
 40
0.5
 40
0.75
 40
0.75
 40
1.0
 40
1.0
 40
1.0
 40
1.0
 10
98.28714570600754
 20
62.77439602665344
 30
0.0
 10
98.28714570600754
 20
62.57585871206442
 30
0.0
 10
98.28714570600754
 20
62.37731998123105
 30
0.0
 10
98.28714570600754
 20
61.98115114495751
 30
0.0
 10
98.28714570600754
 20
61.78351819963621
 30
0.0
 10
98.28714570600754
 20
61.39015177074603
 30
0.0
 10
98.28714570600754
 20
61.19441543008973
 30
0.0
 10
98.28714570600754
 20
60.80600351719794
 30
0.0
 10
98.28714570600754
 20
60.61332507611909
 30
0.0
 10
98.28714570600754
 20
60.42288587358158
 30
0.0
  0
SPLINE
  5
AB
330
1F
100
AcDbEntity
  8
0
  6
Continuous
 62
     7
370
    25
100
AcDbSpline
210
0.0
220
0.0
230
1.0
 70
    24
 71
     3
 72
    14
 73
    10
 74
     0
 42
0.00000001
 43
0.00000001
 40
0.0
 40
0.0
 40
0.0
 40
0.0
 40
0.25
 40
0.25
 40
0.5
 40
0.5
 40
0.75
 40
0.75
 40
1.0
 40
1.0
 40
1.0
 40
1.0
 10
98.28714570600754
 20
62.77439602665344
 30
0.0
 10
98.28714570600754
 20
62.97293334124246
 30
0.0
 10
98.28714570600754
 20
63.17147207207582
 30
0.0
 10
98.28714570600754
 20
63.56764090834936
 30
0.0
 10
98.28714570600754
 20
63.76527385367067
 30
0.0
 10
98.28714570600754
 20
64.15864028256085
 30
0.0
 10
98.28714570600754
 20
64.35437662321715
 30
0.0
 10
98.28714570600754
 20
64.74278853610895
 30
0.0
 10
98.28714570600754
 20
64.93546697718779
 30
0.0
 10
98.28714570600754
 20
65.1259061797253
 30
0.0
  0
LINE
  5
AC
330
1F
100
AcDbEntity
  8
0
  6
Continuous
 62
     7
370
    25
100
AcDbLine
 10
98.287145706
 20
67.3343960267
 30
0.0
 11
98.287145706
 21
65.1259061797
 31
0.0
  0
SPLINE
  5
AD
330
1F
100
AcDbEntity
  8
0
  6
Continuous
 62
     7
370
    25
100
AcDbSpline
210
0.0
220
0.0
230
1.0
 70
     8
 71
     3
 72
    14
 73
    10
 74
     0
 42
0.00000001
 43
0.00000001
 40
0.0
 40
0.0
 40
0.0
 40
0.0
 40
0.25
 40
0.25
 40
0.5
 40
0.5
 40
0.75
 40
0.75
 40
1.0
 40
1.0
 40
1.0
 40
1.0
 10
98.28714570600754
 20
67.33439602665344
 30
0.0
 10
98.28714570600754
 20
67.39054926698428
 30
0.0
 10
98.27719239945502
 20
67.44430285930282
 30
0.0
 10
98.23882078363901
 20
67.54742626771231
 30
0.0
 10
98.21028185166585
 20
67.59660424371994
 30
0.0
 10
98.13309430438575
 20
67.68576875604572
 30
0.0
 10
98.08366561919782
 20
67.72701742031758
 30
0.0
 10
97.95615713202076
 20
67.7914047733196
 30
0.0
 10
97.87454092196663
 20
67.81439602665344
 30
0.0
 10
97.78714570600754
 20
67.81439602665344
 30
0.0
  0
LINE
  5
AE
330
1F
100
AcDbEntity
  8
0
  6
Continuous
 62
     7
370
    25
100
AcDbLine
 10
97.537145706
 20
67.8143960267
 30
0.0
 11
97.787145706
 21
67.8143960267
 31
0.0
  0
SPLINE
  5
AF
330
1F
100
AcDbEntity
  8
0
  6
Continuous
 62
     7
370
    25
100
AcDbSpline
210
0.0
220
0.0
230
1.0
 70
     8
 71
     3
 72
    12
 73
     8
 74
     0
 42
0.00000001
 43
0.00000001
 40
0.0
 40
0.0
 40
0.0
 40
0.0
 40
0.5000000000000009
 40
0.5000000000000009
 40
0.7500000000000004
 40
0.7500000000000004
 40
1.0
 40
1.0
 40
1.0
 40
1.0
 10
96.90687946886919
 20
68.1441297895151
 30
0.0
 10
96.95392762341761
 20
68.07410559514277
 30
0.0
 10
97.01896585462724
 20
68.00066229038006
 30
0.0
 10
97.17243920767922
 20
67.90249419011386
 30
0.0
 10
97.23259892740427
 20
67.87256705876113
 30
0.0
 10
97.3738864489694
 20
67.82804563349787
 30
0.0
 10
97.45432675779307
 20
67.81439602665344
 30
0.0
 10
97.53714570600755
 20
67.81439602665344
 30
0.0
  0
LINE
  5
B0
330
1F
100
AcDbEntity
  8
0
  6
Continuous
 62
     7
370
    25
100
AcDbLine
 10
96.9068794689
 20
68.1441297895
 30
0.0
 11
97.537145706
 21
68.7743960267
 31
0.0
  0
SPLINE
  5
B1
330
1F
100
AcDbEntity
  8
0
  6
Continuous
 62
     7
370
    25
100
AcDbSpline
210
0.0
220
0.0
230
1.0
 70
    24
 71
     3
 72
    14
 73
    10
 74
     0
 42
0.00000001
 43
0.00000001
 40
0.0
 40
0.0
 40
0.0
 40
0.0
 40
0.25
 40
0.25
 40
0.5
 40
0.5
 40
0.75
 40
0.75
 40
1.0
 40
1.0
 40
1.0
 40
1.0
 10
91.53714570600755
 20
69.52439602665345
 30
0.0
 10
91.73568302059657
 20
69.52439602665345
 30
0.0
 10
91.93422175142993
 20
69.52439602665345
 30
0.0
 10
92.33039058770346
 20
69.52439602665345
 30
0.0
 10
92.52802353302476
 20
69.52439602665345
 30
0.0
 10
92.92138996191494
 20
69.52439602665345
 30
0.0
 10
93.11712630257124
 20
69.52439602665345
 30
0.0
 10
93.50553821546305
 20
69.52439602665345
 30
0.0
 10
93.69821665654189
 20
69.52439602665345
 30
0.0
 10
93.88865585907939
 20
69.52439602665345
 30
0.0
  0
SPLINE
  5
B2
330
1F
100
AcDbEntity
  8
0
  6
Continuous
 62
     7
370
    25
100
AcDbSpline
210
0.0
220
0.0
230
1.0
 70
    24
 71
     3
 72
    14
 73
    10
 74
     0
 42
0.00000001
 43
0.00000001
 40
0.0
 40
0.0
 40
0.0
 40
0.0
 40
0.25
 40
0.25
 40
0.5
 40
0.5
 40
0.75
 40
0.75
 40
1.0
 40
1.0
 40
1.0
 40
1.0
 10
91.53714570600755
 20
69.52439602665345
 30
0.0
 10
91.33860839141852
 20
69.52439602665345
 30
0.0
 10
91.14006966058516
 20
69.52439602665345
 30
0.0
 10
90.74390082431162
 20
69.52439602665345
 30
0.0
 10
90.5462678789903
 20
69.52439602665345
 30
0.0
 10
90.15290145010013
 20
69.52439602665345
 30
0.0
 10
89.95716510944384
 20
69.52439602665345
 30
0.0
 10
89.56875319655202
 20
69.52439602665345
 30
0.0
 10
89.3760747554732
 20
69.52439602665345
 30
0.0
 10
89.18563555293568
 20
69.52439602665345
 30
0.0
  0
LINE
  5
B3
330
1F
100
AcDbEntity
  8
0
  6
Continuous
 62
     7
370
    25
100
AcDbLine
 10
86.977145706
 20
69.5243960267
 30
0.0
 11
89.1856355529
 21
69.5243960267
 31
0.0
  0
SPLINE
  5
B4
330
1F
100
AcDbEntity
  8
0
  6
Continuous
 62
     7
370
    25
100
AcDbSpline
210
0.0
220
0.0
230
1.0
 70
     8
 71
     3
 72
    14
 73
    10
 74
     0
 42
0.00000001
 43
0.00000001
 40
0.0
 40
0.0
 40
0.0
 40
0.0
 40
0.25
 40
0.25
 40
0.5
 40
0.5
 40
0.75
 40
0.75
 40
1.0
 40
1.0
 40
1.0
 40
1.0
 10
86.97714570600753
 20
69.52439602665345
 30
0.0
 10
86.9209924656767
 20
69.52439602665343
 30
0.0
 10
86.86723887335816
 20
69.51444272010092
 30
0.0
 10
86.76411546494867
 20
69.47607110428493
 30
0.0
 10
86.71493748894105
 20
69.44753217231177
 30
0.0
 10
86.62577297661528
 20
69.37034462503165
 30
0.0
 10
86.58452431234339
 20
69.32091593984373
 30
0.0
 10
86.52013695934139
 20
69.19340745266666
 30
0.0
 10
86.49714570600754
 20
69.11179124261254
 30
0.0
 10
86.49714570600754
 20
69.02439602665345
 30
0.0
  0
LINE
  5
B5
330
1F
100
AcDbEntity
  8
0
  6
Continuous
 62
     7
370
    25
100
AcDbLine
 10
86.497145706
 20
59.7743960267
 30
0.0
 11
86.497145706
 21
69.0243960267
 31
0.0
  0
SPLINE
  5
B6
330
1F
100
AcDbEntity
  8
0
  6
Continuous
 62
     7
370
    25
100
AcDbSpline
210
0.0
220
0.0
230
1.0
 70
     8
 71
     3
 72
     8
 73
     4
 74
     0
 42
0.00000001
 43
0.00000001
 40
0.0
 40
0.0
 40
0.0
 40
0.0
 40
1.0
 40
1.0
 40
1.0
 40
1.0
 10
86.52241452356282
 20
59.43124190502362
 30
0.0
 10
86.50576652913774
 20
59.54361786896919
 30
0.0
 10
86.49714570600754
 20
59.65792943943124
 30
0.0
 10
86.49714570600754
 20
59.77439602665343
 30
0.0
  0
SPLINE
  5
B7
330
1F
100
AcDbEntity
  8
0
  6
Continuous
 62
     7
370
    25
100
AcDbSpline
210
0.0
220
0.0
230
1.0
 70
     8
 71
     3
 72
    12
 73
     8
 74
     0
 42
0.00000001
 43
0.00000001
 40
0.0
 40
0.0
 40
0.0
 40
0.0
 40
0.2499999999999999
 40
0.2499999999999999
 40
0.4999999999999998
 40
0.4999999999999998
 40
1.0
 40
1.0
 40
1.0
 40
1.0
 10
96.57714570600753
 20
68.77439602665345
 30
0.0
 10
96.57714570600753
 20
68.69157707843897
 30
0.0
 10
96.59079531285198
 20
68.61113676961529
 30
0.0
 10
96.63531673811524
 20
68.46984924805017
 30
0.0
 10
96.66524386946796
 20
68.40968952832513
 30
0.0
 10
96.76341196973416
 20
68.25621617527315
 30
0.0
 10
96.83685527449681
 20
68.19117794406318
 30
0.0
 10
96.90687946886916
 20
68.14412978951476
 30
0.0
  0
LINE
  5
B8
330
1F
100
AcDbEntity
  8
0
  6
Continuous
 62
     7
370
    25
100
AcDbLine
 10
96.577145706
 20
69.0243960267
 30
0.0
 11
96.577145706
 21
68.7743960267
 31
0.0
  0
SPLINE
  5
B9
330
1F
100
AcDbEntity
  8
0
  6
Continuous
 62
     7
370
    25
100
AcDbSpline
210
0.0
220
0.0
230
1.0
 70
     8
 71
     3
 72
    14
 73
    10
 74
     0
 42
0.00000001
 43
0.00000001
 40
0.0
 40
0.0
 40
0.0
 40
0.0
 40
0.25
 40
0.25
 40
0.5
 40
0.5
 40
0.75
 40
0.75
 40
1.0
 40
1.0
 40
1.0
 40
1.0
 10
96.57714570600753
 20
69.02439602665345
 30
0.0
 10
96.57714570600753
 20
69.11171405565983
 30
0.0
 10
96.5541929072211
 20
69.19334216348142
 30
0.0
 10
96.4896973080594
 20
69.32104328161486
 30
0.0
 10
96.44846482125314
 20
69.37043407444044
 30
0.0
 10
96.35900298128405
 20
69.44779274199846
 30
0.0
 10
96.30952814392388
 20
69.47636155157033
 30
0.0
 10
96.20695588599169
 20
69.51442892053744
 30
0.0
 10
96.15334612471042
 20
69.52439602665345
 30
0.0
 10
96.09714570600754
 20
69.52439602665345
 30
0.0
  0
LINE
  5
BA
330
1F
100
AcDbEntity
  8
0
  6
Continuous
 62
     7
370
    25
100
AcDbLine
 10
93.8886558591
 20
69.5243960267
 30
0.0
 11
96.097145706
 21
69.5243960267
 31
0.0
  0
LINE
  5
BB
330
1F
100
AcDbEntity
  8
0
  6
Continuous
 62
     7
370
    25
100
AcDbLine
 10
96.287145706
 20
69.0243960267
 30
0.0
 11
93.9866354488
 21
69.0243960267
 31
0.0
  0
LINE
  5
BC
330
1F
100
AcDbEntity
  8
0
  6
Continuous
 62
     7
370
    25
100
AcDbLine
 10
96.287145706
 20
68.7743960267
 30
0.0
 11
96.287145706
 21
69.0243960267
 31
0.0
  0
ARC
  5
BD
330
1F
100
AcDbEntity
  8
0
  6
Continuous
 62
     7
370
    25
100
AcDbCircle
 10
97.537145706
 20
68.7743960267
 30
0.0
 40
1.25
100
AcDbArc
 50
180.0
 51
270.0
  0
LINE
  5
BE
330
1F
100
AcDbEntity
  8
0
  6
Continuous
 62
     7
370
    25
100
AcDbLine
 10
97.787145706
 20
67.5243960267
 30
0.0
 11
97.537145706
 21
67.5243960267
 31
0.0
  0
LINE
  5
BF
330
1F
100
AcDbEntity
  8
0
  6
Continuous
 62
     7
370
    25
100
AcDbLine
 10
97.787145706
 20
65.2238857694
 30
0.0
 11
97.787145706
 21
67.5243960267
 31
0.0
  0
LINE
  5
C0
330
1F
100
AcDbEntity
  8
0
  6
Continuous
 62
     7
370
    25
100
AcDbLine
 10
97.787145706
 20
65.2238857694
 30
0.0
 11
97.787145706
 21
62.7743960267
 31
0.0
  0
LINE
  5
C1
330
1F
100
AcDbEntity
  8
0
  6
Continuous
 62
     7
370
    25
100
AcDbLine
 10
97.787145706
 20
62.7743960267
 30
0.0
 11
97.787145706
 21
60.3249062839
 31
0.0
  0
LINE
  5
C2
330
1F
100
AcDbEntity
  8
0
  6
Continuous
 62
     7
370
    25
100
AcDbLine
 10
97.787145706
 20
58.0243960267
 30
0.0
 11
97.787145706
 21
60.3249062839
 31
0.0
  0
LINE
  5
C3
330
1F
100
AcDbEntity
  8
0
  6
Continuous
 62
     7
370
    25
100
AcDbLine
 10
88.537145706
 20
58.0243960267
 30
0.0
 11
97.787145706
 21
58.0243960267
 31
0.0
  0
ARC
  5
C4
330
1F
100
AcDbEntity
  8
0
  6
Continuous
 62
     7
370
    25
100
AcDbCircle
 10
88.537145706
 20
59.7743960267
 30
0.0
 40
1.75
100
AcDbArc
 50
180.0
 51
270.0
  0
LINE
  5
C5
330
1F
100
AcDbEntity
  8
0
  6
Continuous
 62
     7
370
    25
100
AcDbLine
 10
86.787145706
 20
69.0243960267
 30
0.0
 11
86.787145706
 21
59.7743960267
 31
0.0
  0
LINE
  5
C6
330
1F
100
AcDbEntity
  8
0
  6
Continuous
 62
     7
370
    25
100
AcDbLine
 10
89.0876559632
 20
69.0243960267
 30
0.0
 11
86.787145706
 21
69.0243960267
 31
0.0
  0
LINE
  5
C7
330
1F
100
AcDbEntity
  8
0
  6
Continuous
 62
     7
370
    25
100
AcDbLine
 10
89.0876559632
 20
69.0243960267
 30
0.0
 11
91.537145706
 21
69.0243960267
 31
0.0
  0
LINE
  5
C8
330
1F
100
AcDbEntity
  8
0
  6
Continuous
 62
     7
370
    25
100
AcDbLine
 10
91.537145706
 20
69.0243960267
 30
0.0
 11
93.9866354488
 21
69.0243960267
 31
0.0
  0
SPLINE
  5
C9
330
1F
100
AcDbEntity
  8
0
  6
Continuous
 62
     7
370
    25
100
AcDbSpline
210
0.0
220
0.0
230
1.0
 70
     8
 71
     3
 72
    14
 73
    10
 74
     0
 42
0.00000001
 43
0.00000001
 40
0.0
 40
0.0
 40
0.0
 40
0.0
 40
0.25
 40
0.25
 40
0.5
 40
0.5
 40
0.75
 40
0.75
 40
1.0
 40
1.0
 40
1.0
 40
1.0
 10
94.24400870336987
 20
63.05504333059703
 30
0.0
 10
94.30083469288081
 20
63.17842020824433
 30
0.0
 10
94.39343381056358
 20
63.28170842438411
 30
0.0
 10
94.62320792557009
 20
63.42480824765016
 30
0.0
 10
94.75673269652916
 20
63.46249331018916
 30
0.0
 10
95.02819292606432
 20
63.46225418528891
 30
0.0
 10
95.16156756990277
 20
63.42408972675223
 30
0.0
 10
95.38899513681321
 20
63.28246886359756
 30
0.0
 10
95.48279644157796
 20
63.17843050590636
 30
0.0
 10
95.53962717407504
 20
63.05504333059756
 30
0.0
  0
LINE
  5
CA
330
1F
100
AcDbEntity
  8
0
  6
Continuous
 62
     7
370
    25
100
AcDbLine
 10
93.3522143282
 20
60.5616255504
 30
0.0
 11
94.2440087034
 21
63.0550433306
 31
0.0
  0
SPLINE
  5
CB
330
1F
100
AcDbEntity
  8
0
  6
Continuous
 62
     7
370
    25
100
AcDbSpline
210
0.0
220
0.0
230
1.0
 70
     8
 71
     3
 72
    10
 73
     6
 74
     0
 42
0.00000001
 43
0.00000001
 40
0.0
 40
0.0
 40
0.0
 40
0.0
 40
0.5
 40
0.5
 40
1.0
 40
1.0
 40
1.0
 40
1.0
 10
93.01645604653841
 20
60.44880899770712
 30
0.0
 10
93.07553992632423
 20
60.41629448240788
 30
0.0
 10
93.1467512961695
 20
60.41018962556198
 30
0.0
 10
93.27377195493143
 20
60.45039003658769
 30
0.0
 10
93.32946120247725
 20
60.49800881357461
 30
0.0
 10
93.35221432815028
 20
60.56162555044163
 30
0.0
  0
LINE
  5
CC
330
1F
100
AcDbEntity
  8
0
  6
Continuous
 62
     7
370
    25
100
AcDbLine
 10
92.2522549506
 20
60.8693573489
 30
0.0
 11
93.0164560465
 21
60.4488089977
 31
0.0
  0
LINE
  5
CD
330
1F
100
AcDbEntity
  8
0
  6
Continuous
 62
     7
370
    25
100
AcDbLine
 10
93.1994254291
 20
59.0637344454
 30
0.0
 11
92.2522549506
 21
60.8693573489
 31
0.0
  0
SPLINE
  5
CE
330
1F
100
AcDbEntity
  8
0
  6
Continuous
 62
     7
370
    25
100
AcDbSpline
210
0.0
220
0.0
230
1.0
 70
     8
 71
     3
 72
    10
 73
     6
 74
     0
 42
0.00000001
 43
0.00000001
 40
0.0
 40
0.0
 40
0.0
 40
0.0
 40
0.5000000000000006
 40
0.5000000000000006
 40
1.0
 40
1.0
 40
1.0
 40
1.0
 10
93.68096642376118
 20
58.97668059085537
 30
0.0
 10
93.61014017643431
 20
58.91381516339718
 30
0.0
 10
93.51126622907941
 20
58.88678683006989
 30
0.0
 10
93.3271448063678
 20
58.91973755836792
 30
0.0
 10
93.24342049234161
 20
58.97986517837062
 30
0.0
 10
93.19942542913265
 20
59.06373444538336
 30
0.0
  0
SPLINE
  5
CF
330
1F
100
AcDbEntity
  8
0
  6
Continuous
 62
     7
370
    25
100
AcDbSpline
210
0.0
220
0.0
230
1.0
 70
     8
 71
     3
 72
    14
 73
    10
 74
     0
 42
0.00000001
 43
0.00000001
 40
0.0
 40
0.0
 40
0.0
 40
0.0
 40
0.2500000000000001
 40
0.2500000000000001
 40
0.3750000000000003
 40
0.3750000000000003
 40
0.5000000000000004
 40
0.5000000000000004
 40
1.0
 40
1.0
 40
1.0
 40
1.0
 10
96.1026694536844
 20
58.97668059085503
 30
0.0
 10
95.93636923197839
 20
59.12428878581785
 30
0.0
 10
95.7461984971885
 20
59.23700648457162
 30
0.0
 10
95.43512163540109
 20
59.35265306913505
 30
0.0
 10
95.32922313587473
 20
59.38142303034435
 30
0.0
 10
95.11318429853846
 20
59.4201612651861
 30
0.0
 10
95.00193696190357
 20
59.43006803882893
 30
0.0
 10
94.45096657327154
 20
59.43004591983048
 30
0.0
 10
94.01352954477652
 20
59.27186385339504
 30
0.0
 10
93.68096642376118
 20
58.97668059085537
 30
0.0
  0
SPLINE
  5
D0
330
1F
100
AcDbEntity
  8
0
  6
Continuous
 62
     7
370
    25
100
AcDbSpline
210
0.0
220
0.0
230
1.0
 70
     8
 71
     3
 72
    10
 73
     6
 74
     0
 42
0.00000001
 43
0.00000001
 40
0.0
 40
0.0
 40
0.0
 40
0.0
 40
0.5
 40
0.5
 40
1.0
 40
1.0
 40
1.0
 40
1.0
 10
96.58421044831269
 20
59.06373444538337
 30
0.0
 10
96.54021843826199
 20
58.97987099870881
 30
0.0
 10
96.45696441975812
 20
58.91995990588961
 30
0.0
 10
96.27278453681446
 20
58.88672410528244
 30
0.0
 10
96.173487384843
 20
58.91382254483393
 30
0.0
 10
96.10266945368444
 20
58.97668059085508
 30
0.0
  0
LINE
  5
D1
330
1F
100
AcDbEntity
  8
0
  6
Continuous
 62
     7
370
    25
100
AcDbLine
 10
97.5429405365
 20
60.8913938211
 30
0.0
 11
96.5842104483
 21
59.0637344454
 31
0.0
  0
LINE
  5
D2
330
1F
100
AcDbEntity
  8
0
  6
Continuous
 62
     7
370
    25
100
AcDbLine
 10
96.7706711946
 20
60.4500725274
 30
0.0
 11
97.5429405365
 21
60.8913938211
 31
0.0
  0
SPLINE
  5
D3
330
1F
100
AcDbEntity
  8
0
  6
Continuous
 62
     7
370
    25
100
AcDbSpline
210
0.0
220
0.0
230
1.0
 70
     8
 71
     3
 72
    10
 73
     6
 74
     0
 42
0.00000001
 43
0.00000001
 40
0.0
 40
0.0
 40
0.0
 40
0.0
 40
0.5
 40
0.5
 40
1.0
 40
1.0
 40
1.0
 40
1.0
 10
96.43162845373614
 20
60.56104705473799
 30
0.0
 10
96.45454457514998
 20
60.49697458896189
 30
0.0
 10
96.51067222596397
 20
60.44913301774244
 30
0.0
 10
96.63975386873263
 20
60.4092692258652
 30
0.0
 10
96.71170503343696
 20
60.41637570539252
 30
0.0
 10
96.77067119464729
 20
60.45007252739346
 30
0.0
  0
LINE
  5
D4
330
1F
100
AcDbEntity
  8
0
  6
Continuous
 62
     7
370
    25
100
AcDbLine
 10
95.5396271741
 20
63.0550433306
 30
0.0
 11
96.4316284537
 21
60.5610470547
 31
0.0
  0
LINE
  5
D5
330
1F
100
AcDbEntity
  8
0
  6
Continuous
 62
     7
370
    25
100
AcDbLine
 10
86.787145706
 20
69.2743960267
 30
0.0
 11
89.0876559632
 21
69.2743960267
 31
0.0
  0
SPLINE
  5
D6
330
1F
100
AcDbEntity
  8
0
  6
Continuous
 62
     7
370
    25
100
AcDbSpline
210
0.0
220
0.0
230
1.0
 70
     8
 71
     3
 72
    12
 73
     8
 74
     0
 42
0.00000001
 43
0.00000001
 40
0.0
 40
0.0
 40
0.0
 40
0.0
 40
0.25
 40
0.25
 40
0.5
 40
0.5
 40
1.0
 40
1.0
 40
1.0
 40
1.0
 10
89.10191205303668
 20
69.20117272194928
 30
0.0
 10
89.10370750023675
 20
69.21538686737816
 30
0.0
 10
89.10573476004352
 20
69.2270703966366
 30
0.0
 10
89.10878639045382
 20
69.24613007080445
 30
0.0
 10
89.10981076105732
 20
69.25350621571387
 30
0.0
 10
89.10917976743775
 20
69.27030434590627
 30
0.0
 10
89.10382029778462
 20
69.27439602665345
 30
0.0
 10
89.08765596322435
 20
69.27439602665345
 30
0.0
  0
SPLINE
  5
D7
330
1F
100
AcDbEntity
  8
0
  6
Continuous
 62
     7
370
    25
100
AcDbSpline
210
0.0
220
0.0
230
1.0
 70
     8
 71
     3
 72
    10
 73
     6
 74
     0
 42
0.00000001
 43
0.00000001
 40
0.0
 40
0.0
 40
0.0
 40
0.0
 40
0.5
 40
0.5
 40
1.0
 40
1.0
 40
1.0
 40
1.0
 10
89.10191205303668
 20
69.20117272194928
 30
0.0
 10
89.0983211586366
 20
69.17274443109156
 30
0.0
 10
89.09475713618352
 20
69.13981050265475
 30
0.0
 10
89.0894245384774
 20
69.07689654582285
 30
0.0
 10
89.08765596322436
 20
69.04691651742775
 30
0.0
 10
89.08765596322436
 20
69.02439602665345
 30
0.0
  0
LINE
  5
D8
330
1F
100
AcDbEntity
  8
0
  6
Continuous
 62
     7
370
    25
100
AcDbLine
 10
86.787145706
 20
69.0243960267
 30
0.0
 11
86.787145706
 21
69.2743960267
 31
0.0
  0
SPLINE
  5
D9
330
1F
100
AcDbEntity
  8
0
  6
Continuous
 62
     7
370
    25
100
AcDbSpline
210
0.0
220
0.0
230
1.0
 70
     8
 71
     3
 72
    12
 73
     8
 74
     0
 42
0.00000001
 43
0.00000001
 40
0.0
 40
0.0
 40
0.0
 40
0.0
 40
0.25
 40
0.25
 40
0.5
 40
0.5
 40
1.0
 40
1.0
 40
1.0
 40
1.0
 10
97.96392240130339
 20
60.33916237368259
 30
0.0
 10
97.97813654673226
 20
60.34095782088264
 30
0.0
 10
97.9898200759907
 20
60.34298508068943
 30
0.0
 10
98.00887975015856
 20
60.34603671109971
 30
0.0
 10
98.01625589506796
 20
60.34706108170321
 30
0.0
 10
98.03305402526037
 20
60.34643008808364
 30
0.0
 10
98.03714570600754
 20
60.34107061843052
 30
0.0
 10
98.03714570600754
 20
60.32490628387026
 30
0.0
  0
LINE
  5
DA
330
1F
100
AcDbEntity
  8
0
  6
Continuous
 62
     7
370
    25
100
AcDbLine
 10
98.037145706
 20
60.3249062839
 30
0.0
 11
98.037145706
 21
58.0243960267
 31
0.0
  0
LINE
  5
DB
330
1F
100
AcDbEntity
  8
0
  6
Continuous
 62
     7
370
    25
100
AcDbLine
 10
98.037145706
 20
58.0243960267
 30
0.0
 11
97.787145706
 21
58.0243960267
 31
0.0
  0
SPLINE
  5
DC
330
1F
100
AcDbEntity
  8
0
  6
Continuous
 62
     7
370
    25
100
AcDbSpline
210
0.0
220
0.0
230
1.0
 70
     8
 71
     3
 72
    10
 73
     6
 74
     0
 42
0.00000001
 43
0.00000001
 40
0.0
 40
0.0
 40
0.0
 40
0.0
 40
0.5
 40
0.5
 40
1.0
 40
1.0
 40
1.0
 40
1.0
 10
97.96392240130339
 20
60.33916237368259
 30
0.0
 10
97.93549411044565
 20
60.3355714792825
 30
0.0
 10
97.90256018200886
 20
60.33200745682942
 30
0.0
 10
97.83964622517693
 20
60.32667485912329
 30
0.0
 10
97.80966619678185
 20
60.32490628387026
 30
0.0
 10
97.78714570600754
 20
60.32490628387026
 30
0.0
  0
LINE
  5
DD
330
1F
100
AcDbEntity
  8
0
  6
Continuous
 62
     7
370
    25
100
AcDbLine
 10
98.037145706
 20
67.5243960267
 30
0.0
 11
98.037145706
 21
65.2238857694
 31
0.0
  0
SPLINE
  5
DE
330
1F
100
AcDbEntity
  8
0
  6
Continuous
 62
     7
370
    25
100
AcDbSpline
210
0.0
220
0.0
230
1.0
 70
     8
 71
     3
 72
    12
 73
     8
 74
     0
 42
0.00000001
 43
0.00000001
 40
0.0
 40
0.0
 40
0.0
 40
0.0
 40
0.25
 40
0.25
 40
0.5
 40
0.5
 40
1.0
 40
1.0
 40
1.0
 40
1.0
 10
97.96392240130339
 20
65.2096296796243
 30
0.0
 10
97.97813654673226
 20
65.20783423242423
 30
0.0
 10
97.9898200759907
 20
65.20580697261745
 30
0.0
 10
98.00887975015856
 20
65.20275534220717
 30
0.0
 10
98.01625589506796
 20
65.20173097160367
 30
0.0
 10
98.03305402526037
 20
65.20236196522323
 30
0.0
 10
98.03714570600754
 20
65.20772143487636
 30
0.0
 10
98.03714570600754
 20
65.22388576943662
 30
0.0
  0
SPLINE
  5
DF
330
1F
100
AcDbEntity
  8
0
  6
Continuous
 62
     7
370
    25
100
AcDbSpline
210
0.0
220
0.0
230
1.0
 70
     8
 71
     3
 72
    10
 73
     6
 74
     0
 42
0.00000001
 43
0.00000001
 40
0.0
 40
0.0
 40
0.0
 40
0.0
 40
0.5
 40
0.5
 40
1.0
 40
1.0
 40
1.0
 40
1.0
 10
97.96392240130339
 20
65.2096296796243
 30
0.0
 10
97.93549411044565
 20
65.21322057402438
 30
0.0
 10
97.90256018200886
 20
65.21678459647747
 30
0.0
 10
97.83964622517693
 20
65.22211719418358
 30
0.0
 10
97.80966619678185
 20
65.22388576943662
 30
0.0
 10
97.78714570600754
 20
65.22388576943662
 30
0.0
  0
LINE
  5
E0
330
1F
100
AcDbEntity
  8
0
  6
Continuous
 62
     7
370
    25
100
AcDbLine
 10
98.037145706
 20
67.5243960267
 30
0.0
 11
97.787145706
 21
67.5243960267
 31
0.0
  0
SPLINE
  5
E1
330
1F
100
AcDbEntity
  8
0
  6
Continuous
 62
     7
370
    25
100
AcDbSpline
210
0.0
220
0.0
230
1.0
 70
     8
 71
     3
 72
    10
 73
     6
 74
     0
 42
0.00000001
 43
0.00000001
 40
0.0
 40
0.0
 40
0.0
 40
0.0
 40
0.5
 40
0.5
 40
1.0
 40
1.0
 40
1.0
 40
1.0
 10
93.97237935897839
 20
69.20117272194928
 30
0.0
 10
93.97597025337848
 20
69.17274443109156
 30
0.0
 10
93.97953427583157
 20
69.13981050265475
 30
0.0
 10
93.98486687353768
 20
69.07689654582285
 30
0.0
 10
93.98663544879072
 20
69.04691651742775
 30
0.0
 10
93.98663544879072
 20
69.02439602665345
 30
0.0
  0
SPLINE
  5
E2
330
1F
100
AcDbEntity
  8
0
  6
Continuous
 62
     7
370
    25
100
AcDbSpline
210
0.0
220
0.0
230
1.0
 70
     8
 71
     3
 72
    12
 73
     8
 74
     0
 42
0.00000001
 43
0.00000001
 40
0.0
 40
0.0
 40
0.0
 40
0.0
 40
0.25
 40
0.25
 40
0.5
 40
0.5
 40
1.0
 40
1.0
 40
1.0
 40
1.0
 10
93.97237935897839
 20
69.20117272194928
 30
0.0
 10
93.97058391177835
 20
69.21538686737816
 30
0.0
 10
93.96855665197155
 20
69.2270703966366
 30
0.0
 10
93.96550502156127
 20
69.24613007080445
 30
0.0
 10
93.96448065095778
 20
69.25350621571387
 30
0.0
 10
93.96511164457732
 20
69.27030434590627
 30
0.0
 10
93.97047111423046
 20
69.27439602665345
 30
0.0
 10
93.98663544879072
 20
69.27439602665345
 30
0.0
  0
LINE
  5
E3
330
1F
100
AcDbEntity
  8
0
  6
Continuous
 62
     7
370
    25
100
AcDbLine
 10
93.9866354488
 20
69.2743960267
 30
0.0
 11
96.287145706
 21
69.2743960267
 31
0.0
  0
LINE
  5
E4
330
1F
100
AcDbEntity
  8
0
  6
Continuous
 62
     7
370
    25
100
AcDbLine
 10
96.287145706
 20
69.0243960267
 30
0.0
 11
96.287145706
 21
69.2743960267
 31
0.0
  0
SPLINE
  5
E5
330
1F
100
AcDbEntity
  8
0
  6
Continuous
 62
     7
370
    25
100
AcDbSpline
210
0.0
220
0.0
230
1.0
 70
     8
 71
     3
 72
    12
 73
     8
 74
     0
 42
0.00000001
 43
0.00000001
 40
0.0
 40
0.0
 40
0.0
 40
0.0
 40
0.25
 40
0.25
 40
0.5
 40
0.5
 40
1.0
 40
1.0
 40
1.0
 40
1.0
 10
91.53714570600755
 20
69.27640362694312
 30
0.0
 10
91.73935312842784
 20
69.26614016765399
 30
0.0
 10
91.94123995253229
 20
69.25856138785721
 30
0.0
 10
92.34661713968049
 20
69.24414793240814
 30
0.0
 10
92.55010750272427
 20
69.23731325675587
 30
0.0
 10
93.16635100362113
 20
69.21098750375542
 30
0.0
 10
93.5663425294849
 20
69.20132055239444
 30
0.0
 10
93.97237935897839
 20
69.20117272194928
 30
0.0
  0
SPLINE
  5
E6
330
1F
100
AcDbEntity
  8
0
  6
Continuous
 62
     7
370
    25
100
AcDbSpline
210
0.0
220
0.0
230
1.0
 70
    24
 71
     3
 72
    10
 73
     6
 74
     0
 42
0.00000001
 43
0.00000001
 40
0.0
 40
0.0
 40
0.0
 40
0.0
 40
0.5
 40
0.5
 40
1.0
 40
1.0
 40
1.0
 40
1.0
 10
91.53714570600755
 20
69.27640362694312
 30
0.0
 10
91.53714570600755
 20
69.2353497897866
 30
0.0
 10
91.53714570600755
 20
69.19127543747355
 30
0.0
 10
91.53714570600755
 20
69.09992416796162
 30
0.0
 10
91.53714570600755
 20
69.0671743864646
 30
0.0
 10
91.53714570600755
 20
69.02439602665345
 30
0.0
  0
SPLINE
  5
E7
330
1F
100
AcDbEntity
  8
0
  6
Continuous
 62
     7
370
    25
100
AcDbSpline
210
0.0
220
0.0
230
1.0
 70
     8
 71
     3
 72
    12
 73
     8
 74
     0
 42
0.00000001
 43
0.00000001
 40
0.0
 40
0.0
 40
0.0
 40
0.0
 40
0.25
 40
0.25
 40
0.5
 40
0.5
 40
1.0
 40
1.0
 40
1.0
 40
1.0
 10
98.03915330629722
 20
62.77439602665344
 30
0.0
 10
98.0288898470081
 20
62.57218860423315
 30
0.0
 10
98.02131106721131
 20
62.3703017801287
 30
0.0
 10
98.00689761176224
 20
61.96492459298048
 30
0.0
 10
98.00006293610996
 20
61.7614342299367
 30
0.0
 10
97.97373718310952
 20
61.14519072903985
 30
0.0
 10
97.96407023174854
 20
60.74519920317609
 30
0.0
 10
97.96392240130339
 20
60.33916237368259
 30
0.0
  0
SPLINE
  5
E8
330
1F
100
AcDbEntity
  8
0
  6
Continuous
 62
     7
370
    25
100
AcDbSpline
210
0.0
220
0.0
230
1.0
 70
    24
 71
     3
 72
    10
 73
     6
 74
     0
 42
0.00000001
 43
0.00000001
 40
0.0
 40
0.0
 40
0.0
 40
0.0
 40
0.5
 40
0.5
 40
1.0
 40
1.0
 40
1.0
 40
1.0
 10
98.03915330629722
 20
62.77439602665344
 30
0.0
 10
97.99809946914068
 20
62.77439602665344
 30
0.0
 10
97.95402511682767
 20
62.77439602665344
 30
0.0
 10
97.86267384731573
 20
62.77439602665344
 30
0.0
 10
97.82992406581872
 20
62.77439602665344
 30
0.0
 10
97.78714570600754
 20
62.77439602665344
 30
0.0
  0
SPLINE
  5
E9
330
1F
100
AcDbEntity
  8
0
  6
Continuous
 62
     7
370
    25
100
AcDbSpline
210
0.0
220
0.0
230
1.0
 70
     8
 71
     3
 72
    12
 73
     8
 74
     0
 42
0.00000001
 43
0.00000001
 40
0.0
 40
0.0
 40
0.0
 40
0.0
 40
0.25
 40
0.25
 40
0.5
 40
0.5
 40
1.0
 40
1.0
 40
1.0
 40
1.0
 10
98.03915330629722
 20
62.77439602665344
 30
0.0
 10
98.0288898470081
 20
62.97660344907373
 30
0.0
 10
98.02131106721131
 20
63.17849027317818
 30
0.0
 10
98.00689761176224
 20
63.5838674603264
 30
0.0
 10
98.00006293610997
 20
63.78735782337017
 30
0.0
 10
97.97373718310952
 20
64.40360132426703
 30
0.0
 10
97.96407023174854
 20
64.8035928501308
 30
0.0
 10
97.96392240130339
 20
65.2096296796243
 30
0.0
  0
SPLINE
  5
EA
330
1F
100
AcDbEntity
  8
0
  6
Continuous
 62
     7
370
    25
100
AcDbSpline
210
0.0
220
0.0
230
1.0
 70
     8
 71
     3
 72
    12
 73
     8
 74
     0
 42
0.00000001
 43
0.00000001
 40
0.0
 40
0.0
 40
0.0
 40
0.0
 40
0.25
 40
0.25
 40
0.5
 40
0.5
 40
1.0
 40
1.0
 40
1.0
 40
1.0
 10
91.53714570600755
 20
69.27640362694312
 30
0.0
 10
91.33493828358723
 20
69.26614016765399
 30
0.0
 10
91.1330514594828
 20
69.25856138785721
 30
0.0
 10
90.72767427233458
 20
69.24414793240814
 30
0.0
 10
90.5241839092908
 20
69.23731325675587
 30
0.0
 10
89.90794040839396
 20
69.21098750375542
 30
0.0
 10
89.50794888253019
 20
69.20132055239444
 30
0.0
 10
89.10191205303668
 20
69.20117272194928
 30
0.0
  0
LINE
  5
EB
330
1F
100
AcDbEntity
  8
0
  6
Continuous
 62
     7
370
    25
100
AcDbLine
 10
96.4316284537
 20
60.5610470547
 30
0.0
 11
96.1962315161
 21
60.4768551208
 31
0.0
  0
LINE
  5
EC
330
1F
100
AcDbEntity
  8
0
  6
Continuous
 62
     7
370
    25
100
AcDbLine
 10
96.1962315161
 20
60.4768551208
 30
0.0
 11
95.308369217
 21
62.9592789893
 31
0.0
  0
SPLINE
  5
ED
330
1F
100
AcDbEntity
  8
0
  6
Continuous
 62
     7
370
    25
100
AcDbSpline
210
0.0
220
0.0
230
1.0
 70
     8
 71
     3
 72
    10
 73
     6
 74
     0
 42
0.00000001
 43
0.00000001
 40
0.0
 40
0.0
 40
0.0
 40
0.0
 40
0.5
 40
0.5
 40
1.0
 40
1.0
 40
1.0
 40
1.0
 10
95.3083692170201
 20
62.9592789892532
 30
0.0
 10
95.3083692170201
 20
62.9592789892532
 30
0.0
 10
95.33338526437076
 20
62.96986165301413
 30
0.0
 10
95.41861153166995
 20
63.00536795223582
 30
0.0
 10
95.47931335147356
 20
63.03041108676674
 30
0.0
 10
95.5396271740751
 20
63.05504333059757
 30
0.0
  0
SPLINE
  5
EE
330
1F
100
AcDbEntity
  8
0
  6
Continuous
 62
     7
370
    25
100
AcDbSpline
210
0.0
220
0.0
230
1.0
 70
     8
 71
     3
 72
    14
 73
    10
 74
     0
 42
0.00000001
 43
0.00000001
 40
0.0
 40
0.0
 40
0.0
 40
0.0
 40
0.25
 40
0.25
 40
0.5
 40
0.5
 40
0.75
 40
0.75
 40
1.0
 40
1.0
 40
1.0
 40
1.0
 10
95.30836921702013
 20
62.9592789892532
 30
0.0
 10
95.27046753527144
 20
63.0368622220269
 30
0.0
 10
95.20935842327957
 20
63.10145168733975
 30
0.0
 10
95.06342474072684
 20
63.18890639194356
 30
0.0
 10
94.97854612057422
 20
63.21228610930492
 30
0.0
 10
94.80606995229255
 20
63.21246145597659
 30
0.0
 10
94.72141259788621
 20
63.18958120345454
 30
0.0
 10
94.57343305618457
 20
63.10099074665658
 30
0.0
 10
94.51316187781218
 20
63.03684898973617
 30
0.0
 10
94.47526666042513
 20
62.95927898925345
 30
0.0
  0
SPLINE
  5
EF
330
1F
100
AcDbEntity
  8
0
  6
Continuous
 62
     7
370
    25
100
AcDbSpline
210
0.0
220
0.0
230
1.0
 70
     8
 71
     3
 72
    10
 73
     6
 74
     0
 42
0.00000001
 43
0.00000001
 40
0.0
 40
0.0
 40
0.0
 40
0.0
 40
0.5
 40
0.5
 40
1.0
 40
1.0
 40
1.0
 40
1.0
 10
94.47526666042496
 20
62.95927898925311
 30
0.0
 10
94.47526666042496
 20
62.95927898925311
 30
0.0
 10
94.45025061307415
 20
62.96986165301364
 30
0.0
 10
94.36502434577498
 20
63.00536795223531
 30
0.0
 10
94.30432252597136
 20
63.03041108676613
 30
0.0
 10
94.24400870336987
 20
63.05504333059702
 30
0.0
  0
LINE
  5
F0
330
1F
100
AcDbEntity
  8
0
  6
Continuous
 62
     7
370
    25
100
AcDbLine
 10
94.4752666604
 20
62.9592789893
 30
0.0
 11
93.5876112658
 21
60.4774336165
 31
0.0
  0
LINE
  5
F1
330
1F
100
AcDbEntity
  8
0
  6
Continuous
 62
     7
370
    25
100
AcDbLine
 10
93.3522143282
 20
60.5616255504
 30
0.0
 11
93.5876112658
 21
60.4774336165
 31
0.0
  0
SPLINE
  5
F2
330
1F
100
AcDbEntity
  8
0
  6
Continuous
 62
     7
370
    25
100
AcDbSpline
210
0.0
220
0.0
230
1.0
 70
    24
 71
     3
 72
    10
 73
     6
 74
     0
 42
0.00000001
 43
0.00000001
 40
0.0
 40
0.0
 40
0.0
 40
0.0
 40
0.5
 40
0.5
 40
1.0
 40
1.0
 40
1.0
 40
1.0
 10
91.53714570600755
 20
69.27640362694312
 30
0.0
 10
91.53714570600755
 20
69.31745746409966
 30
0.0
 10
91.53714570600755
 20
69.36093429448066
 30
0.0
 10
91.53714570600755
 20
69.44999299420502
 30
0.0
 10
91.53714570600755
 20
69.48209636372867
 30
0.0
 10
91.53714570600755
 20
69.52439602665345
 30
0.0
  0
SPLINE
  5
F3
330
1F
100
AcDbEntity
  8
0
  6
Continuous
 62
     7
370
    25
100
AcDbSpline
210
0.0
220
0.0
230
1.0
 70
     8
 71
     3
 72
    10
 73
     6
 74
     0
 42
0.00000001
 43
0.00000001
 40
0.0
 40
0.0
 40
0.0
 40
0.0
 40
0.5
 40
0.5
 40
1.0
 40
1.0
 40
1.0
 40
1.0
 10
93.90460478512362
 20
69.34761143091286
 30
0.0
 10
93.89673555274338
 20
69.37603869098015
 30
0.0
 10
93.89246870535844
 20
69.410265329147
 30
0.0
 10
93.88853986904446
 20
69.47328737468456
 30
0.0
 10
93.88865585907939
 20
69.50187309397654
 30
0.0
 10
93.88865585907939
 20
69.52439602665345
 30
0.0
  0
SPLINE
  5
F4
330
1F
100
AcDbEntity
  8
0
  6
Continuous
 62
     7
370
    25
100
AcDbSpline
210
0.0
220
0.0
230
1.0
 70
     8
 71
     3
 72
    14
 73
    10
 74
     0
 42
0.00000001
 43
0.00000001
 40
0.0
 40
0.0
 40
0.0
 40
0.0
 40
0.25
 40
0.25
 40
0.5
 40
0.5
 40
0.75
 40
0.75
 40
1.0
 40
1.0
 40
1.0
 40
1.0
 10
91.53714570600755
 20
69.27640362694312
 30
0.0
 10
91.73935312842784
 20
69.28666708623227
 30
0.0
 10
91.93994296095812
 20
69.30133197666301
 30
0.0
 10
92.33791694091204
 20
69.33306735484652
 30
0.0
 10
92.53530108833567
 20
69.35013784259928
 30
0.0
 10
92.92689319274969
 20
69.38028715046556
 30
0.0
 10
93.1237713681485
 20
69.38611862061546
 30
0.0
 10
93.51612842858903
 20
69.38001249739389
 30
0.0
 10
93.71160731363076
 20
69.36807490402244
 30
0.0
 10
93.90460478512362
 20
69.34761143091286
 30
0.0
  0
SPLINE
  5
F5
330
1F
100
AcDbEntity
  8
0
  6
Continuous
 62
     7
370
    25
100
AcDbSpline
210
0.0
220
0.0
230
1.0
 70
     8
 71
     3
 72
     8
 73
     4
 74
     0
 42
0.00000001
 43
0.00000001
 40
0.0
 40
0.0
 40
0.0
 40
0.0
 40
1.0
 40
1.0
 40
1.0
 40
1.0
 10
98.28714570600754
 20
60.42288587358158
 30
0.0
 10
98.22169213466954
 20
60.42708316021768
 30
0.0
 10
98.15664170587142
 20
60.42072696888044
 30
0.0
 10
98.11036111026696
 20
60.40693694753736
 30
0.0
  0
SPLINE
  5
F6
330
1F
100
AcDbEntity
  8
0
  6
Continuous
 62
     7
370
    25
100
AcDbSpline
210
0.0
220
0.0
230
1.0
 70
     8
 71
     3
 72
    12
 73
     8
 74
     0
 42
0.00000001
 43
0.00000001
 40
0.0
 40
0.0
 40
0.0
 40
0.0
 40
0.25
 40
0.25
 40
0.5
 40
0.5
 40
1.0
 40
1.0
 40
1.0
 40
1.0
 10
98.03915330629722
 20
62.77439602665344
 30
0.0
 10
98.04941676558636
 20
62.57218860423315
 30
0.0
 10
98.06408165601711
 20
62.37159877170286
 30
0.0
 10
98.09581703420062
 20
61.97362479174894
 30
0.0
 10
98.11288752195338
 20
61.77624064432531
 30
0.0
 10
98.1581114837528
 20
61.18885248770429
 30
0.0
 10
98.1512880564861
 20
60.79293189052306
 30
0.0
 10
98.11036111026696
 20
60.40693694753736
 30
0.0
  0
SPLINE
  5
F7
330
1F
100
AcDbEntity
  8
0
  6
Continuous
 62
     7
370
    25
100
AcDbSpline
210
0.0
220
0.0
230
1.0
 70
    24
 71
     3
 72
    10
 73
     6
 74
     0
 42
0.00000001
 43
0.00000001
 40
0.0
 40
0.0
 40
0.0
 40
0.0
 40
0.5
 40
0.5
 40
1.0
 40
1.0
 40
1.0
 40
1.0
 10
98.03915330629722
 20
62.77439602665344
 30
0.0
 10
98.08020714345376
 20
62.77439602665344
 30
0.0
 10
98.12368397383477
 20
62.77439602665344
 30
0.0
 10
98.21274267355912
 20
62.77439602665344
 30
0.0
 10
98.24484604308277
 20
62.77439602665344
 30
0.0
 10
98.28714570600754
 20
62.77439602665344
 30
0.0
  0
SPLINE
  5
F8
330
1F
100
AcDbEntity
  8
0
  6
Continuous
 62
     7
370
    25
100
AcDbSpline
210
0.0
220
0.0
230
1.0
 70
     8
 71
     3
 72
    14
 73
    10
 74
     0
 42
0.00000001
 43
0.00000001
 40
0.0
 40
0.0
 40
0.0
 40
0.0
 40
0.25
 40
0.25
 40
0.5
 40
0.5
 40
0.75
 40
0.75
 40
1.0
 40
1.0
 40
1.0
 40
1.0
 10
91.53714570600755
 20
69.27640362694312
 30
0.0
 10
91.33493828358723
 20
69.28666708623227
 30
0.0
 10
91.13434845105698
 20
69.30133197666302
 30
0.0
 10
90.73637447110303
 20
69.33306735484652
 30
0.0
 10
90.5389903236794
 20
69.35013784259928
 30
0.0
 10
90.1473982192654
 20
69.38028715046556
 30
0.0
 10
89.95052004386659
 20
69.38611862061546
 30
0.0
 10
89.55816298342604
 20
69.38001249739389
 30
0.0
 10
89.3626840983843
 20
69.36807490402242
 30
0.0
 10
89.16968662689145
 20
69.34761143091286
 30
0.0
  0
SPLINE
  5
F9
330
1F
100
AcDbEntity
  8
0
  6
Continuous
 62
     7
370
    25
100
AcDbSpline
210
0.0
220
0.0
230
1.0
 70
     8
 71
     3
 72
     8
 73
     4
 74
     0
 42
0.00000001
 43
0.00000001
 40
0.0
 40
0.0
 40
0.0
 40
0.0
 40
1.0
 40
1.0
 40
1.0
 40
1.0
 10
89.16968662689145
 20
69.34761143091286
 30
0.0
 10
89.18347664823453
 20
69.39389202651732
 30
0.0
 10
89.18983283957178
 20
69.45894245531544
 30
0.0
 10
89.18563555293568
 20
69.52439602665345
 30
0.0
  0
SPLINE
  5
FA
330
1F
100
AcDbEntity
  8
0
  6
Continuous
 62
     7
370
    25
100
AcDbSpline
210
0.0
220
0.0
230
1.0
 70
     8
 71
     3
 72
    12
 73
     8
 74
     0
 42
0.00000001
 43
0.00000001
 40
0.0
 40
0.0
 40
0.0
 40
0.0
 40
0.25
 40
0.25
 40
0.5
 40
0.5
 40
1.0
 40
1.0
 40
1.0
 40
1.0
 10
98.03915330629722
 20
62.77439602665344
 30
0.0
 10
98.04941676558637
 20
62.97660344907373
 30
0.0
 10
98.06408165601712
 20
63.17719328160401
 30
0.0
 10
98.09581703420064
 20
63.57516726155793
 30
0.0
 10
98.11288752195338
 20
63.77255140898158
 30
0.0
 10
98.1581114837528
 20
64.3599395656026
 30
0.0
 10
98.1512880564861
 20
64.75586016278382
 30
0.0
 10
98.11036111026696
 20
65.14185510576952
 30
0.0
  0
SPLINE
  5
FB
330
1F
100
AcDbEntity
  8
0
  6
Continuous
 62
     7
370
    25
100
AcDbSpline
210
0.0
220
0.0
230
1.0
 70
     8
 71
     3
 72
    10
 73
     6
 74
     0
 42
0.00000001
 43
0.00000001
 40
0.0
 40
0.0
 40
0.0
 40
0.0
 40
0.5
 40
0.5
 40
1.0
 40
1.0
 40
1.0
 40
1.0
 10
98.11036111026696
 20
65.14185510576952
 30
0.0
 10
98.13878837033424
 20
65.13398587338928
 30
0.0
 10
98.17301500850111
 20
65.12971902600435
 30
0.0
 10
98.23603705403866
 20
65.12579018969038
 30
0.0
 10
98.26462277333064
 20
65.1259061797253
 30
0.0
 10
98.28714570600754
 20
65.1259061797253
 30
0.0
  0
SPLINE
  5
FC
330
1F
100
AcDbEntity
  8
0
  6
Continuous
 62
     7
370
    25
100
AcDbSpline
210
0.0
220
0.0
230
1.0
 70
     8
 71
     3
 72
    14
 73
    10
 74
     0
 42
0.00000001
 43
0.00000001
 40
0.0
 40
0.0
 40
0.0
 40
0.0
 40
0.0526822267945598
 40
0.1287456339724992
 40
0.2353187193853958
 40
0.3749156516620482
 40
0.5485969096886099
 40
0.7568720674016369
 40
0.9999999999999999
 40
0.9999999999999999
 40
0.9999999999999999
 40
0.9999999999999999
 10
89.08765596322435
 20
69.27439602665345
 30
0.0
 10
89.091136647868
 20
69.27440682766122
 30
0.0
 10
89.09964279839295
 20
69.27443322332975
 30
0.0
 10
89.11019245730202
 20
69.27526012979612
 30
0.0
 10
89.12183601455564
 20
69.27796363019019
 30
0.0
 10
89.13411160837896
 20
69.28426407094716
 30
0.0
 10
89.1468589733541
 20
69.29643824992233
 30
0.0
 10
89.1596037673498
 20
69.31654253920239
 30
0.0
 10
89.16615701523384
 20
69.33673543666563
 30
0.0
 10
89.16968662689145
 20
69.34761143091286
 30
0.0
  0
SPLINE
  5
FD
330
1F
100
AcDbEntity
  8
0
  6
Continuous
 62
     7
370
    25
100
AcDbSpline
210
0.0
220
0.0
230
1.0
 70
     8
 71
     3
 72
    12
 73
     8
 74
     0
 42
0.00000001
 43
0.00000001
 40
0.0
 40
0.0
 40
0.0
 40
0.0
 40
0.25
 40
0.25
 40
0.5
 40
0.5
 40
1.0
 40
1.0
 40
1.0
 40
1.0
 10
98.11036111026696
 20
65.14185510576952
 30
0.0
 10
98.09614748023333
 20
65.14578972195964
 30
0.0
 10
98.08344595648076
 20
65.15068725578121
 30
0.0
 10
98.06237852713832
 20
65.1620738895461
 30
0.0
 10
98.05401262154848
 20
65.16856298948943
 30
0.0
 10
98.0373854404238
 20
65.18991623479047
 30
0.0
 10
98.03714570600754
 20
65.2063171907792
 30
0.0
 10
98.03714570600754
 20
65.22388576943662
 30
0.0
  0
SPLINE
  5
FE
330
1F
100
AcDbEntity
  8
0
  6
Continuous
 62
     7
370
    25
100
AcDbSpline
210
0.0
220
0.0
230
1.0
 70
     8
 71
     3
 72
    14
 73
    10
 74
     0
 42
0.00000001
 43
0.00000001
 40
0.0
 40
0.0
 40
0.0
 40
0.0
 40
0.243127932598341
 40
0.4514030903113563
 40
0.6250843483379128
 40
0.7646812806145595
 40
0.8712543660274661
 40
0.9473177732054238
 40
1.0
 40
1.0
 40
1.0
 40
1.0
 10
98.11036111026696
 20
60.40693694753736
 30
0.0
 10
98.09948511601974
 20
60.40340733587974
 30
0.0
 10
98.07929221855649
 20
60.39685408799571
 30
0.0
 10
98.05918792927643
 20
60.38410929400001
 30
0.0
 10
98.04701375030126
 20
60.37136192902489
 30
0.0
 10
98.0407133095443
 20
60.35908633520155
 30
0.0
 10
98.03800980915022
 20
60.34744277794793
 30
0.0
 10
98.03718290268385
 20
60.33689311903886
 30
0.0
 10
98.03715650701534
 20
60.3283869685139
 30
0.0
 10
98.03714570600754
 20
60.32490628387026
 30
0.0
  0
SPLINE
  5
FF
330
1F
100
AcDbEntity
  8
0
  6
Continuous
 62
     7
370
    25
100
AcDbSpline
210
0.0
220
0.0
230
1.0
 70
     8
 71
     3
 72
    12
 73
     8
 74
     0
 42
0.00000001
 43
0.00000001
 40
0.0
 40
0.0
 40
0.0
 40
0.0
 40
0.25
 40
0.25
 40
0.5
 40
0.5
 40
1.0
 40
1.0
 40
1.0
 40
1.0
 10
93.90460478512362
 20
69.34761143091286
 30
0.0
 10
93.90853940131373
 20
69.33339780087923
 30
0.0
 10
93.9134369351353
 20
69.32069627712667
 30
0.0
 10
93.9248235689002
 20
69.29962884778423
 30
0.0
 10
93.93131266884353
 20
69.29126294219436
 30
0.0
 10
93.95266591414459
 20
69.27463576106969
 30
0.0
 10
93.9690668701333
 20
69.27439602665345
 30
0.0
 10
93.98663544879072
 20
69.27439602665345
 30
0.0
  0
LINE
  5
100
330
1F
100
AcDbEntity
  8
0
  6
Continuous
 62
     7
370
    25
100
AcDbLine
 10
93.0164560465
 20
60.4488089977
 30
0.0
 11
92.8959240475
 21
60.2297838
 31
0.0
  0
LINE
  5
101
330
1F
100
AcDbEntity
  8
0
  6
Continuous
 62
     7
370
    25
100
AcDbLine
 10
92.8959240475
 20
60.2297838
 30
0.0
 11
92.8595676982
 21
60.2497911029
 31
0.0
  0
LINE
  5
102
330
1F
100
AcDbEntity
  8
0
  6
Continuous
 62
     7
370
    25
100
AcDbLine
 10
92.2522549506
 20
60.8693573489
 30
0.0
 11
92.8595676982
 21
60.2497911029
 31
0.0
  0
ARC
  5
103
330
1F
100
AcDbEntity
  8
0
  6
Continuous
 62
     7
370
    25
100
AcDbCircle
 10
97.787145706
 20
58.0243960267
 30
0.0
 40
0.25
100
AcDbArc
 50
270.0
 51
0.0
  0
LINE
  5
104
330
1F
100
AcDbEntity
  8
0
  6
Continuous
 62
     7
370
    25
100
AcDbLine
 10
97.787145706
 20
58.0243960267
 30
0.0
 11
97.787145706
 21
57.7743960267
 31
0.0
  0
ARC
  5
105
330
1F
100
AcDbEntity
  8
0
  6
Continuous
 62
     7
370
    25
100
AcDbCircle
 10
86.787145706
 20
69.0243960267
 30
0.0
 40
0.25
100
AcDbArc
 50
90.0
 51
180.0
  0
LINE
  5
106
330
1F
100
AcDbEntity
  8
0
  6
Continuous
 62
     7
370
    25
100
AcDbLine
 10
86.537145706
 20
69.0243960267
 30
0.0
 11
86.787145706
 21
69.0243960267
 31
0.0
  0
LINE
  5
107
330
1F
100
AcDbEntity
  8
0
  6
Continuous
 62
     7
370
    25
100
AcDbLine
 10
97.537145706
 20
67.7743960267
 30
0.0
 11
97.787145706
 21
67.7743960267
 31
0.0
  0
LINE
  5
108
330
1F
100
AcDbEntity
  8
0
  6
Continuous
 62
     7
370
    25
100
AcDbLine
 10
97.787145706
 20
67.7743960267
 30
0.0
 11
97.787145706
 21
67.5243960267
 31
0.0
  0
LINE
  5
109
330
1F
100
AcDbEntity
  8
0
  6
Continuous
 62
     7
370
    25
100
AcDbLine
 10
97.537145706
 20
67.7743960267
 30
0.0
 11
97.537145706
 21
67.5243960267
 31
0.0
  0
LINE
  5
10A
330
1F
100
AcDbEntity
  8
0
  6
Continuous
 62
     7
370
    25
100
AcDbLine
 10
96.287145706
 20
69.0243960267
 30
0.0
 11
96.537145706
 21
69.0243960267
 31
0.0
  0
LINE
  5
10B
330
1F
100
AcDbEntity
  8
0
  6
Continuous
 62
     7
370
    25
100
AcDbLine
 10
96.537145706
 20
69.0243960267
 30
0.0
 11
96.537145706
 21
68.7743960267
 31
0.0
  0
LINE
  5
10C
330
1F
100
AcDbEntity
  8
0
  6
Continuous
 62
     7
370
    25
100
AcDbLine
 10
96.287145706
 20
68.7743960267
 30
0.0
 11
96.537145706
 21
68.7743960267
 31
0.0
  0
ARC
  5
10D
330
1F
100
AcDbEntity
  8
0
  6
Continuous
 62
     7
370
    25
100
AcDbCircle
 10
97.787145706
 20
67.5243960267
 30
0.0
 40
0.25
100
AcDbArc
 50
0.0
 51
90.0
  0
LINE
  5
10E
330
1F
100
AcDbEntity
  8
0
  6
Continuous
 62
     7
370
    25
100
AcDbLine
 10
92.8595676982
 20
60.2497911029
 30
0.0
 11
93.4208143305
 21
59.1798677926
 31
0.0
  0
LINE
  5
10F
330
1F
100
AcDbEntity
  8
0
  6
Continuous
 62
     7
370
    25
100
AcDbLine
 10
93.4208143305
 20
59.1798677926
 30
0.0
 11
93.1994254291
 21
59.0637344454
 31
0.0
  0
SPLINE
  5
110
330
1F
100
AcDbEntity
  8
0
  6
Continuous
 62
     7
370
    25
100
AcDbSpline
210
0.0
220
0.0
230
1.0
 70
     8
 71
     3
 72
    23
 73
    19
 74
     0
 42
0.00000001
 43
0.00000001
 40
0.0
 40
0.0
 40
0.0
 40
0.0
 40
0.0000069464595966
 40
0.0000069464595966
 40
0.0000069464595966
 40
0.0000269173558753
 40
0.0000269173558753
 40
0.0000269173558753
 40
0.0000477420212559
 40
0.0000477420212559
 40
0.0000477420212559
 40
0.0000689844307043
 40
0.0000689844307043
 40
0.0000689844307043
 40
0.0000900350769267
 40
0.0000900350769267
 40
0.0000900350769267
 40
0.0001105259114901
 40
0.0001105259114901
 40
0.0001105259114901
 40
0.0001105259114901
 10
93.42081433051477
 20
59.17986779263908
 30
0.0
 10
93.42188995132082
 20
59.17781730056096
 30
0.0
 10
93.42309535628077
 20
59.17583001698575
 30
0.0
 10
93.42441499376707
 20
59.17392737808528
 30
0.0
 10
93.4281602822494
 20
59.16852746209778
 30
0.0
 10
93.43291859080753
 20
59.16372352930276
 30
0.0
 10
93.43825192861263
 20
59.15988402590458
 30
0.0
 10
93.44381149875689
 20
59.15588165642391
 30
0.0
 10
93.45015341820213
 20
59.15280923981357
 30
0.0
 10
93.45672789587682
 20
59.15088465545493
 30
0.0
 10
93.46343386390875
 20
59.14892157917384
 30
0.0
 10
93.47057145644152
 20
59.14809475015235
 30
0.0
 10
93.47754932264355
 20
59.14845952268049
 30
0.0
 10
93.48446528651436
 20
59.1488210592237
 30
0.0
 10
93.49141630284757
 20
59.15036330440635
 30
0.0
 10
93.49782715655037
 20
59.15298288829235
 30
0.0
 10
93.50406823600768
 20
59.15553309953341
 30
0.0
 10
93.50996779027432
 20
59.15917695245192
 30
0.0
 10
93.51501005263957
 20
59.16365246811007
 30
0.0
  0
LINE
  5
111
330
1F
100
AcDbEntity
  8
0
  6
Continuous
 62
     7
370
    25
100
AcDbLine
 10
93.5150100526
 20
59.1636524681
 30
0.0
 11
93.6809664238
 21
58.9766805909
 31
0.0
  0
SPLINE
  5
112
330
1F
100
AcDbEntity
  8
0
  6
Continuous
 62
     7
370
    25
100
AcDbSpline
210
0.0
220
0.0
230
1.0
 70
     8
 71
     3
 72
    10
 73
     6
 74
     0
 42
0.00000001
 43
0.00000001
 40
0.0
 40
0.0
 40
0.0
 40
0.0
 40
0.5
 40
0.5
 40
1.0
 40
1.0
 40
1.0
 40
1.0
 10
93.5876112658203
 20
60.47743361653117
 30
0.0
 10
93.54037652049907
 20
60.34536734980174
 30
0.0
 10
93.4297050001177
 20
60.24191533380914
 30
0.0
 10
93.16874545575054
 20
60.15096369027252
 30
0.0
 10
93.01868005070747
 20
60.16222980801858
 30
0.0
 10
92.89592404751893
 20
60.22978380004171
 30
0.0
  0
LINE
  5
113
330
1F
100
AcDbEntity
  8
0
  6
Continuous
 62
     7
370
    25
100
AcDbLine
 10
86.537145706
 20
59.7743960267
 30
0.0
 11
86.537145706
 21
69.0243960267
 31
0.0
  0
LINE
  5
114
330
1F
100
AcDbEntity
  8
0
  6
Continuous
 62
     7
370
    25
100
AcDbLine
 10
86.537145706
 20
59.7743960267
 30
0.0
 11
86.787145706
 21
59.7743960267
 31
0.0
  0
LINE
  5
115
330
1F
100
AcDbEntity
  8
0
  6
Continuous
 62
     7
370
    25
100
AcDbLine
 10
97.787145706
 20
57.7743960267
 30
0.0
 11
88.537145706
 21
57.7743960267
 31
0.0
  0
LINE
  5
116
330
1F
100
AcDbEntity
  8
0
  6
Continuous
 62
     7
370
    25
100
AcDbLine
 10
88.537145706
 20
58.0243960267
 30
0.0
 11
88.537145706
 21
57.7743960267
 31
0.0
  0
ELLIPSE
  5
117
330
1F
100
AcDbEntity
  8
0
  6
Continuous
 62
     7
370
    25
100
AcDbEllipse
 10
94.8918179401
 20
61.1059084187
 30
0.0
 11
0.05977206589648176
 21
0.0
 31
0.0
210
0.0
220
0.0
230
1.0
 40
0.9531667975
 41
0.3430239404213355
 42
2.798568713169242
  0
LINE
  5
118
330
1F
100
AcDbEntity
  8
0
  6
Continuous
 62
     7
370
    25
100
AcDbLine
 10
94.9481077997
 20
61.1250704277
 30
0.0
 11
95.162151273
 21
60.5538168549
 31
0.0
  0
ELLIPSE
  5
119
330
1F
100
AcDbEntity
  8
0
  6
Continuous
 62
     7
370
    25
100
AcDbEllipse
 10
95.1058614134
 20
60.534654846
 30
0.0
 11
0.05977206589648176
 21
0.0
 31
0.0
210
0.0
220
0.0
230
1.0
 40
0.9531667975
 41
4.712388980384703
 42
6.626209245739766
  0
LINE
  5
11A
330
1F
100
AcDbEntity
  8
0
  6
Continuous
 62
     7
370
    25
100
AcDbLine
 10
95.1058614134
 20
60.4776820974
 30
0.0
 11
94.6777744644
 21
60.4776820974
 31
0.0
  0
ELLIPSE
  5
11B
330
1F
100
AcDbEntity
  8
0
  6
Continuous
 62
     7
370
    25
100
AcDbEllipse
 10
94.6777744644
 20
60.534654846
 30
0.0
 11
-0.05977206589648176
 21
0.0
 31
0.0
210
0.0
220
0.0
230
1.0
 40
0.9531667975
 41
5.940161364897895
 42
7.853981633974483
  0
LINE
  5
11C
330
1F
100
AcDbEntity
  8
0
  6
Continuous
 62
     7
370
    25
100
AcDbLine
 10
94.6214846049
 20
60.5538168551
 30
0.0
 11
94.8355280806
 21
61.1250704277
 31
0.0
  0
LINE
  5
11D
330
1F
100
AcDbEntity
  8
0
  6
Continuous
 62
     7
370
    25
100
AcDbLine
 10
96.3628215469
 20
59.1798677926
 30
0.0
 11
96.9240681792
 21
60.2497911029
 31
0.0
  0
LINE
  5
11E
330
1F
100
AcDbEntity
  8
0
  6
Continuous
 62
     7
370
    25
100
AcDbLine
 10
96.9240681792
 20
60.2497911029
 30
0.0
 11
97.5429405365
 21
60.8913938211
 31
0.0
  0
LINE
  5
11F
330
1F
100
AcDbEntity
  8
0
  6
Continuous
 62
     7
370
    25
100
AcDbLine
 10
96.3628215469
 20
59.1798677926
 30
0.0
 11
96.5842104483
 21
59.0637344454
 31
0.0
  0
ARC
  5
120
330
1F
100
AcDbEntity
  8
0
  6
Continuous
 62
     7
370
    25
100
AcDbCircle
 10
96.287145706
 20
69.0243960267
 30
0.0
 40
0.25
100
AcDbArc
 50
0.0
 51
90.0
  0
SPLINE
  5
121
330
1F
100
AcDbEntity
  8
0
  6
Continuous
 62
     7
370
    25
100
AcDbSpline
210
0.0
220
0.0
230
1.0
 70
     8
 71
     3
 72
    14
 73
    10
 74
     0
 42
0.00000001
 43
0.00000001
 40
0.0
 40
0.0
 40
0.0
 40
0.0
 40
0.5000000000000003
 40
0.5000000000000003
 40
0.6250000000000006
 40
0.6250000000000006
 40
0.7500000000000008
 40
0.7500000000000008
 40
1.0
 40
1.0
 40
1.0
 40
1.0
 10
93.51501005264153
 20
59.16365246811182
 30
0.0
 10
93.89322239834635
 20
59.49935401492534
 30
0.0
 10
94.3904241536039
 20
59.68004479538865
 30
0.0
 10
95.0170669228897
 20
59.68006831995564
 30
0.0
 10
95.14358936135908
 20
59.66876351942251
 30
0.0
 10
95.38926889001068
 20
59.62457586156226
 30
0.0
 10
95.50968937061457
 20
59.59176254411795
 30
0.0
 10
95.86341165082337
 20
59.45991768128386
 30
0.0
 10
96.07950111099808
 20
59.33151969848179
 30
0.0
 10
96.26862582480375
 20
59.16365246811174
 30
0.0
  0
LINE
  5
122
330
1F
100
AcDbEntity
  8
0
  6
Continuous
 62
     7
370
    25
100
AcDbLine
 10
96.2686258248
 20
59.1636524681
 30
0.0
 11
96.1026694537
 21
58.9766805909
 31
0.0
  0
ARC
  5
123
330
1F
100
AcDbEntity
  8
0
  6
Continuous
 62
     7
370
    25
100
AcDbCircle
 10
97.537145706
 20
68.7743960267
 30
0.0
 40
1.0
100
AcDbArc
 50
180.0
 51
270.0
  0
LINE
  5
124
330
1F
100
AcDbEntity
  8
0
  6
Continuous
 62
     7
370
    25
100
AcDbLine
 10
96.894711126
 20
60.2330147115
 30
0.0
 11
96.7706711946
 21
60.4500725274
 31
0.0
  0
SPLINE
  5
125
330
1F
100
AcDbEntity
  8
0
  6
Continuous
 62
     7
370
    25
100
AcDbSpline
210
0.0
220
0.0
230
1.0
 70
     8
 71
     3
 72
    10
 73
     6
 74
     0
 42
0.00000001
 43
0.00000001
 40
0.0
 40
0.0
 40
0.0
 40
0.0
 40
0.5
 40
0.5
 40
1.0
 40
1.0
 40
1.0
 40
1.0
 10
96.89471112595658
 20
60.2330147114992
 30
0.0
 10
96.77202914098388
 20
60.16290682376335
 30
0.0
 10
96.62104051220142
 20
60.14951082578452
 30
0.0
 10
96.35562133655365
 20
60.23965586137815
 30
0.0
 10
96.24385951619183
 20
60.3436893309922
 30
0.0
 10
96.19623151606609
 20
60.47685512082764
 30
0.0
  0
LINE
  5
126
330
1F
100
AcDbEntity
  8
0
  6
Continuous
 62
     7
370
    25
100
AcDbLine
 10
96.9240681792
 20
60.2497911029
 30
0.0
 11
96.894711126
 21
60.2330147115
 31
0.0
  0
ARC
  5
127
330
1F
100
AcDbEntity
  8
0
  6
Continuous
 62
     7
370
    25
100
AcDbCircle
 10
88.537145706
 20
59.7743960267
 30
0.0
 40
2.0
100
AcDbArc
 50
180.0
 51
270.0
  0
SPLINE
  5
128
330
1F
100
AcDbEntity
  8
0
  6
Continuous
 62
     7
370
    25
100
AcDbSpline
210
0.0
220
0.0
230
1.0
 70
     8
 71
     3
 72
    23
 73
    19
 74
     0
 42
0.00000001
 43
0.00000001
 40
0.0
 40
0.0
 40
0.0
 40
0.0
 40
0.0000076769896581
 40
0.0000076769896581
 40
0.0000076769896581
 40
0.0000285420058146
 40
0.0000285420058146
 40
0.0000285420058146
 40
0.0000497754494318
 40
0.0000497754494318
 40
0.0000497754494318
 40
0.00007072706396
 40
0.00007072706396
 40
0.00007072706396
 40
0.0000909558732107
 40
0.0000909558732107
 40
0.0000909558732107
 40
0.0001104364738497
 40
0.0001104364738497
 40
0.0001104364738497
 40
0.0001104364738497
 10
96.26862582480379
 20
59.16365246811178
 30
0.0
 10
96.27053966636119
 20
59.1619537409854
 30
0.0
 10
96.27256885521558
 20
59.16037706467693
 30
0.0
 10
96.27468611849453
 20
59.15893982441714
 30
0.0
 10
96.2803688882842
 20
59.15508224770003
 30
0.0
 10
96.28680924330025
 20
59.15217702675463
 30
0.0
 10
96.29345145533718
 20
59.15042894498669
 30
0.0
 10
96.30021071331822
 20
59.148650059342
 30
0.0
 10
96.30736996974831
 20
59.14801695895719
 30
0.0
 10
96.31433732351213
 20
59.14857192212786
 30
0.0
 10
96.32121376415648
 20
59.14911964389313
 30
0.0
 10
96.32809318891543
 20
59.15083995763337
 30
0.0
 10
96.33440742838998
 20
59.15361769320846
 30
0.0
 10
96.34050572934548
 20
59.1563004339534
 30
0.0
 10
96.34624081535299
 20
59.16004427411251
 30
0.0
 10
96.35111775868126
 20
59.16458319427275
 30
0.0
 10
96.35581510881195
 20
59.16895496892191
 30
0.0
 10
96.35984064982344
 20
59.17418520834096
 30
0.0
 10
96.36282154692928
 20
59.17986779263666
 30
0.0
  0
ARC
  5
129
330
1F
100
AcDbEntity
  8
0
  6
Continuous
 62
     7
370
    25
100
AcDbCircle
 10
98.260745706
 20
57.9896591845
 30
0.0
 40
0.2262821429089136
100
AcDbArc
 50
83.3001285963
 51
171.1695393669
  0
ARC
  5
12A
330
1F
100
AcDbEntity
  8
0
  6
Continuous
 62
     7
370
    25
100
AcDbCircle
 10
96.3218825481
 20
69.4979960267
 30
0.0
 40
0.2262821429088887
100
AcDbArc
 50
173.3001285962
 51
261.1695393669
  0
ARC
  5
12B
330
1F
100
AcDbEntity
  8
0
  6
Continuous
 62
     7
370
    25
100
AcDbCircle
 10
98.260745706
 20
67.5591328688
 30
0.0
 40
0.2262821429089136
100
AcDbArc
 50
188.8304606331
 51
276.6998714037
  0
ARC
  5
12C
330
1F
100
AcDbEntity
  8
0
  6
Continuous
 62
     7
370
    25
100
AcDbCircle
 10
86.7524088639
 20
69.4979960267
 30
0.0
 40
0.2262821429088372
100
AcDbArc
 50
278.8304606331
 51
6.6998714038
  0
LINE
  5
12D
330
1F
100
AcDbEntity
  8
0
  6
Continuous
 62
     7
370
    25
100
AcDbLine
 10
96.537145706
 20
69.0243960267
 30
0.0
 11
96.577145706
 21
69.0243960267
 31
0.0
  0
LINE
  5
12E
330
1F
100
AcDbEntity
  8
0
  6
Continuous
 62
     7
370
    25
100
AcDbLine
 10
97.787145706
 20
57.7343960267
 30
0.0
 11
97.787145706
 21
57.7743960267
 31
0.0
  0
LINE
  5
12F
330
1F
100
AcDbEntity
  8
0
  6
Continuous
 62
     7
370
    25
100
AcDbLine
 10
86.537145706
 20
69.0243960267
 30
0.0
 11
86.497145706
 21
69.0243960267
 31
0.0
  0
LINE
  5
130
330
1F
100
AcDbEntity
  8
0
  6
Continuous
 62
     7
370
    25
100
AcDbLine
 10
97.787145706
 20
67.8143960267
 30
0.0
 11
97.787145706
 21
67.7743960267
 31
0.0
  0
LWPOLYLINE
  5
131
330
1F
100
AcDbEntity
  8
0
  6
Continuous
 62
     7
370
    25
100
AcDbPolyline
 90
        9
 70
   128
 43
0.0
 10
88.1939915844
 20
57.7596648442
 10
88.1990500915
 20
57.768961487
 10
88.2040802711
 20
57.7770359735
 10
88.2090539545
 20
57.7838430871
 10
88.2139432893
 20
57.7893447082
 10
88.2187208953
 20
57.7935100279
 10
88.2233600183
 20
57.7963157207
 10
88.2278346792
 20
57.7977460746
 10
88.2321198201
 20
57.7977930799
  0
SPLINE
  5
132
330
1F
100
AcDbEntity
  8
0
  6
Continuous
 62
     7
370
    25
100
AcDbSpline
210
0.0
220
0.0
230
1.0
 70
     8
 71
     3
 72
    14
 73
    10
 74
     0
 42
0.00000001
 43
0.00000001
 40
0.0
 40
0.0
 40
0.0
 40
0.0
 40
0.2500000000000003
 40
0.2500000000000003
 40
0.5000000000000002
 40
0.5000000000000002
 40
0.7500000000000001
 40
0.7500000000000001
 40
1.0
 40
1.0
 40
1.0
 40
1.0
 10
88.19399158437771
 20
57.75966484420871
 30
0.0
 10
87.98597969471247
 20
57.78941874293427
 30
0.0
 10
87.78602063763496
 20
57.85077448247807
 30
0.0
 10
87.40346675823623
 20
58.04052872365979
 30
0.0
 10
87.23116579140581
 20
58.16394537323047
 30
0.0
 10
86.92749416864245
 20
58.46742049749997
 30
0.0
 10
86.80366573777214
 20
58.64013783845187
 30
0.0
 10
86.61387030886915
 20
59.02237224145163
 30
0.0
 10
86.55217010392788
 20
59.22321825888179
 30
0.0
 10
86.52241452356282
 20
59.43124190502362
 30
0.0
  0
LWPOLYLINE
  5
133
330
1F
100
AcDbEntity
  8
0
  6
Continuous
 62
     7
370
    25
100
AcDbPolyline
 90
        9
 70
   128
 43
0.0
 10
86.5605427593
 20
59.4693701408
 10
86.560495754
 20
59.4650849998
 10
86.5590654
 20
59.4606103389
 10
86.5562597073
 20
59.455971216
 10
86.5520943876
 20
59.45119361
 10
86.5465927665
 20
59.4463042752
 10
86.5397856529
 20
59.4413305918
 10
86.5317111663
 20
59.4363004121
 10
86.5224145236
 20
59.431241905
  0
LINE
  5
134
330
1F
100
AcDbEntity
  8
0
  6
Continuous
 62
     7
370
    25
100
AcDbLine
 10
88.537145706
 20
57.7343960267
 30
0.0
 11
88.537145706
 21
57.7743960267
 31
0.0
  0
LINE
  5
135
330
1F
100
AcDbEntity
  8
0
  6
Continuous
 62
     7
370
    25
100
AcDbLine
 10
86.537145706
 20
59.7743960267
 30
0.0
 11
86.497145706
 21
59.7743960267
 31
0.0
  0
SPLINE
  5
136
330
1F
100
AcDbEntity
  8
0
  6
Continuous
 62
     7
370
    25
100
AcDbSpline
210
0.0
220
0.0
230
1.0
 70
    24
 71
     3
 72
    10
 73
     6
 74
     0
 42
0.00000001
 43
0.00000001
 40
0.0
 40
0.0
 40
0.0
 40
0.0
 40
0.5
 40
0.5
 40
1.0
 40
1.0
 40
1.0
 40
1.0
 10
96.90687946886919
 20
68.1441297895151
 30
0.0
 10
96.88156744785087
 20
68.11881776849677
 30
0.0
 10
96.86322144953033
 20
68.10047177017623
 30
0.0
 10
96.83712321331319
 20
68.07437353395909
 30
0.0
 10
96.83003892482175
 20
68.06728924546765
 30
0.0
 10
96.830038924821
 20
68.0672892454669
 30
0.0
  0
LINE
  5
137
330
1F
100
AcDbEntity
  8
0
  6
Continuous
 62
     7
370
    25
100
AcDbLine
 10
96.537145706
 20
68.7743960267
 30
0.0
 11
96.577145706
 21
68.7743960267
 31
0.0
  0
LINE
  5
138
330
1F
100
AcDbEntity
  8
0
  6
Continuous
 62
     7
370
    25
100
AcDbLine
 10
97.537145706
 20
67.8143960267
 30
0.0
 11
97.537145706
 21
67.7743960267
 31
0.0
  0
LINE
  5
139
330
1F
100
AcDbEntity
  8
0
  6
Continuous
 62
     7
370
    25
100
AcDbLine
 10
115.1555758456
 20
71.0243960267
 30
0.0
 11
115.1555758456
 21
70.5152965869
 31
0.0
  0
LINE
  5
13A
330
1F
100
AcDbEntity
  8
0
  6
Continuous
 62
     7
370
    25
100
AcDbLine
 10
115.1555758456
 20
55.0334954664
 30
0.0
 11
115.1555758456
 21
54.5243960267
 31
0.0
  0
LINE
  5
13B
330
1F
100
AcDbEntity
  8
0
  6
Continuous
 62
     7
370
    25
100
AcDbLine
 10
114.5060567928
 20
54.1493960267
 30
0.0
 11
114.5060567928
 21
54.6816363501
 31
0.0
  0
LINE
  5
13C
330
1F
100
AcDbEntity
  8
0
  6
Continuous
 62
     7
370
    25
100
AcDbLine
 10
114.5060567928
 20
70.8671557032
 30
0.0
 11
114.5060567928
 21
71.3993960267
 31
0.0
  0
LINE
  5
13D
330
1F
100
AcDbEntity
  8
0
  6
Continuous
 62
     7
370
    25
100
AcDbLine
 10
97.537145706
 20
72.2743960267
 30
0.0
 11
85.537145706
 21
72.2743960267
 31
0.0
  0
LINE
  5
13E
330
1F
100
AcDbEntity
  8
0
  6
Continuous
 62
     7
370
    25
100
AcDbLine
 10
101.037145706
 20
56.7743960267
 30
0.0
 11
101.037145706
 21
68.7743960267
 31
0.0
  0
LINE
  5
13F
330
1F
100
AcDbEntity
  8
0
  6
Continuous
 62
     7
370
    25
100
AcDbLine
 10
88.1939915844
 20
57.7596648442
 30
0.0
 11
87.537145706
 21
56.7743960267
 31
0.0
  0
LINE
  5
140
330
1F
100
AcDbEntity
  8
0
  6
Continuous
 62
     7
370
    25
100
AcDbLine
 10
85.537145706
 20
58.7743960267
 30
0.0
 11
86.5224145236
 21
59.431241905
 31
0.0
  0
LINE
  5
141
330
1F
100
AcDbEntity
  8
FORMAT
100
AcDbLine
 10
97.2866840098
 20
83.9091703041
 30
0.0
 11
97.631520706
 21
72.8743960267
 31
0.0
  0
LINE
  5
142
330
1F
100
AcDbEntity
  8
FORMAT
100
AcDbLine
 10
85.7876074022
 20
83.9091703041
 30
0.0
 11
85.442770706
 21
72.8743960267
 31
0.0
  0
LINE
  5
143
330
1F
100
AcDbEntity
  8
FORMAT
100
AcDbLine
 10
84.774270706
 20
72.8743960267
 30
0.0
 11
98.300020706
 21
72.8743960267
 31
0.0
  0
LINE
  5
144
330
1F
100
AcDbEntity
  8
FORMAT
100
AcDbLine
 10
109.393145706
 20
57.0518960267
 30
0.0
 11
101.537145706
 21
57.0518960267
 31
0.0
  0
LINE
  5
145
330
1F
100
AcDbEntity
  8
FORMAT
100
AcDbLine
 10
109.393145706
 20
68.4968960267
 30
0.0
 11
101.537145706
 21
68.4968960267
 31
0.0
  0
LINE
  5
146
330
1F
100
AcDbEntity
  8
FORMAT
100
AcDbLine
 10
101.537145706
 20
69.3528960267
 30
0.0
 11
101.537145706
 21
56.1958960267
 31
0.0
  0
LINE
  5
147
330
1F
100
AcDbEntity
  8
FORMAT
  6
CENTERX2
370
    18
100
AcDbLine
 10
91.537145706
 20
87.0113268043
 30
0.0
 11
91.537145706
 21
55.1238769858
 31
0.0
  0
LINE
  5
148
330
1F
100
AcDbEntity
  8
FORMAT
  6
CENTERX2
370
    18
100
AcDbLine
 10
83.2506883792
 20
62.7743960267
 30
0.0
 11
117.3837332554
 21
62.7743960267
 31
0.0
  0
LINE
  5
149
330
1F
100
AcDbEntity
  8
0
  6
Continuous
 62
     7
370
    25
100
AcDbLine
 10
147.1446186516
 20
72.7746518363
 30
0.0
 11
146.8349191423
 21
82.6850361337
 31
0.0
  0
LINE
  5
14A
330
1F
100
AcDbEntity
  8
0
  6
Continuous
 62
     7
370
    25
100
AcDbLine
 10
133.922334149
 20
82.6850361337
 30
0.0
 11
133.6126346397
 21
72.7746518363
 31
0.0
  0
ARC
  5
14B
330
1F
100
AcDbEntity
  8
0
  6
Continuous
 62
     7
370
    25
100
AcDbCircle
 10
133.6286266456
 20
73.2743960267
 30
0.0
 40
0.5
100
AcDbArc
 50
268.1671385201
 51
270.0
  0
ARC
  5
14C
330
1F
100
AcDbEntity
  8
0
  6
Continuous
 62
     7
370
    25
100
AcDbCircle
 10
147.1286266456
 20
73.2743960267
 30
0.0
 40
0.5
100
AcDbArc
 50
270.0
 51
271.8328614799
  0
ARC
  5
14D
330
1F
100
AcDbEntity
  8
0
  6
Continuous
 62
     7
370
    25
100
AcDbCircle
 10
133.8786266456
 20
72.2743960267
 30
0.0
 40
0.5
100
AcDbArc
 50
0.0
 51
90.0
  0
ARC
  5
14E
330
1F
100
AcDbEntity
  8
0
  6
Continuous
 62
     7
370
    25
100
AcDbCircle
 10
146.8786266456
 20
72.2743960267
 30
0.0
 40
0.5
100
AcDbArc
 50
90.0
 51
180.0
  0
LINE
  5
14F
330
1F
100
AcDbEntity
  8
0
  6
Continuous
 62
     7
370
    25
100
AcDbLine
 10
146.8349191423
 20
82.6850361337
 30
0.0
 11
145.6286266456
 21
84.7743960267
 31
0.0
  0
LINE
  5
150
330
1F
100
AcDbEntity
  8
0
  6
Continuous
 62
     7
370
    25
100
AcDbLine
 10
135.1286266456
 20
84.7743960267
 30
0.0
 11
133.922334149
 21
82.6850361337
 31
0.0
  0
LINE
  5
151
330
1F
100
AcDbEntity
  8
0
  6
Continuous
 62
     7
370
    25
100
AcDbLine
 10
146.3786266456
 20
69.5243960267
 30
0.0
 11
146.3786266456
 21
72.2743960267
 31
0.0
  0
LINE
  5
152
330
1F
100
AcDbEntity
  8
0
  6
Continuous
 62
     7
370
    25
100
AcDbLine
 10
134.3786266456
 20
72.2743960267
 30
0.0
 11
134.3786266456
 21
69.5243960267
 31
0.0
  0
CIRCLE
  5
153
330
1F
100
AcDbEntity
  8
0
  6
Continuous
 62
     7
370
    25
100
AcDbCircle
 10
140.3786266456
 20
62.7743960267
 30
0.0
 40
3.049999999999983
  0
CIRCLE
  5
154
330
1F
100
AcDbEntity
  8
0
  6
Continuous
 62
     7
370
    25
100
AcDbCircle
 10
140.3786266456
 20
62.7743960267
 30
0.0
 40
8.05000000000004
  0
CIRCLE
  5
155
330
1F
100
AcDbEntity
  8
0
  6
Continuous
 62
     7
370
    25
100
AcDbCircle
 10
140.3786266456
 20
62.7743960267
 30
0.0
 40
3.175000000000011
  0
CIRCLE
  5
156
330
1F
100
AcDbEntity
  8
0
  6
Continuous
 62
     7
370
    25
100
AcDbCircle
 10
140.3786266456
 20
62.7743960267
 30
0.0
 40
3.075000000000045
  0
CIRCLE
  5
157
330
1F
100
AcDbEntity
  8
0
  6
Continuous
 62
     7
370
    25
100
AcDbCircle
 10
140.3786266456
 20
62.7743960267
 30
0.0
 40
8.250000000000028
  0
SPLINE
  5
158
330
1F
100
AcDbEntity
  8
0
  6
Continuous
 62
     7
370
    25
100
AcDbSpline
210
0.0
220
0.0
230
1.0
 70
    24
 71
     3
 72
    10
 73
     6
 74
     0
 42
0.00000001
 43
0.00000001
 40
0.0
 40
0.0
 40
0.0
 40
0.0
 40
0.3089808900030065
 40
0.6190948628358672
 40
0.9999999999999999
 40
0.9999999999999999
 40
0.9999999999999999
 40
0.9999999999999999
 10
143.3615557123283
 20
54.68163635006579
 30
0.0
 10
143.6221392270447
 20
54.83208431243363
 30
0.0
 10
144.1442618583149
 20
55.1335319541475
 30
0.0
 10
144.9912541690354
 20
55.62254319274349
 30
0.0
 10
145.5743062660416
 20
55.95916847790163
 30
0.0
 10
145.8956975789172
 20
56.14472383890552
 30
0.0
  0
LINE
  5
159
330
1F
100
AcDbEntity
  8
0
  6
Continuous
 62
     7
370
    25
100
AcDbLine
 10
143.3615557123
 20
54.6816363501
 30
0.0
 11
143.2318631442
 21
55.0334954664
 31
0.0
  0
LINE
  5
15A
330
1F
100
AcDbEntity
  8
0
  6
Continuous
 62
     7
370
    25
100
AcDbLine
 10
145.8956975789
 20
56.1447238389
 30
0.0
 11
145.6558249296
 21
56.4329704558
 31
0.0
  0
SPLINE
  5
15B
330
1F
100
AcDbEntity
  8
0
  6
Continuous
 62
     7
370
    25
100
AcDbSpline
210
0.0
220
0.0
230
1.0
 70
    24
 71
     3
 72
    10
 73
     6
 74
     0
 42
0.00000001
 43
0.00000001
 40
0.0
 40
0.0
 40
0.0
 40
0.0
 40
0.3089808900029878
 40
0.6190948628358302
 40
0.9999999999999999
 40
0.9999999999999999
 40
0.9999999999999999
 40
0.9999999999999999
 10
134.8615557123282
 20
56.14472383890569
 30
0.0
 10
135.1221392270445
 20
55.99427587653783
 30
0.0
 10
135.6442618583148
 20
55.69282823482393
 30
0.0
 10
136.4912541690354
 20
55.20381699622788
 30
0.0
 10
137.0743062660417
 20
54.86719171106967
 30
0.0
 10
137.3956975789173
 20
54.68163635006574
 30
0.0
  0
LINE
  5
15C
330
1F
100
AcDbEntity
  8
0
  6
Continuous
 62
     7
370
    25
100
AcDbLine
 10
134.8615557123
 20
56.1447238389
 30
0.0
 11
135.1014283616
 21
56.4329704558
 31
0.0
  0
LINE
  5
15D
330
1F
100
AcDbEntity
  8
0
  6
Continuous
 62
     7
370
    25
100
AcDbLine
 10
137.3956975789
 20
54.6816363501
 30
0.0
 11
137.525390147
 21
55.0334954664
 31
0.0
  0
LINE
  5
15E
330
1F
100
AcDbEntity
  8
0
  6
Continuous
 62
     7
370
    25
100
AcDbLine
 10
143.2318631442
 20
70.5152965869
 30
0.0
 11
143.3615557123
 21
70.8671557032
 31
0.0
  0
SPLINE
  5
15F
330
1F
100
AcDbEntity
  8
0
  6
Continuous
 62
     7
370
    25
100
AcDbSpline
210
0.0
220
0.0
230
1.0
 70
    24
 71
     3
 72
    10
 73
     6
 74
     0
 42
0.00000001
 43
0.00000001
 40
0.0
 40
0.0
 40
0.0
 40
0.0
 40
0.3089808900029875
 40
0.6190948628358296
 40
1.0
 40
1.0
 40
1.0
 40
1.0
 10
145.8956975789174
 20
69.40406821440115
 30
0.0
 10
145.6351140642011
 20
69.55451617676901
 30
0.0
 10
145.1129914329308
 20
69.85596381848292
 30
0.0
 10
144.2659991222102
 20
70.34497505707897
 30
0.0
 10
143.6829470252038
 20
70.68160034223718
 30
0.0
 10
143.3615557123283
 20
70.86715570324112
 30
0.0
  0
LINE
  5
160
330
1F
100
AcDbEntity
  8
0
  6
Continuous
 62
     7
370
    25
100
AcDbLine
 10
145.6558249296
 20
69.1158215975
 30
0.0
 11
145.8956975789
 21
69.4040682144
 31
0.0
  0
LINE
  5
161
330
1F
100
AcDbEntity
  8
0
  6
Continuous
 62
     7
370
    25
100
AcDbLine
 10
135.1014283616
 20
69.1158215975
 30
0.0
 11
134.8615557123
 21
69.4040682144
 31
0.0
  0
SPLINE
  5
162
330
1F
100
AcDbEntity
  8
0
  6
Continuous
 62
     7
370
    25
100
AcDbSpline
210
0.0
220
0.0
230
1.0
 70
    24
 71
     3
 72
    10
 73
     6
 74
     0
 42
0.00000001
 43
0.00000001
 40
0.0
 40
0.0
 40
0.0
 40
0.0
 40
0.3089808900029871
 40
0.6190948628358288
 40
1.0
 40
1.0
 40
1.0
 40
1.0
 10
137.3956975789174
 20
70.86715570324118
 30
0.0
 10
137.1351140642011
 20
70.71670774087332
 30
0.0
 10
136.6129914329308
 20
70.41526009915941
 30
0.0
 10
135.7659991222102
 20
69.92624886056336
 30
0.0
 10
135.1829470252038
 20
69.58962357540516
 30
0.0
 10
134.8615557123282
 20
69.40406821440122
 30
0.0
  0
LINE
  5
163
330
1F
100
AcDbEntity
  8
0
  6
Continuous
 62
     7
370
    25
100
AcDbLine
 10
137.525390147
 20
70.5152965869
 30
0.0
 11
137.3956975789
 21
70.8671557032
 31
0.0
  0
LINE
  5
164
330
1F
100
AcDbEntity
  8
0
  6
Continuous
 62
     7
370
    25
100
AcDbLine
 10
148.5090614282
 20
64.173871016
 30
0.0
 11
148.8786266456
 21
64.2374835155
 31
0.0
  0
SPLINE
  5
165
330
1F
100
AcDbEntity
  8
0
  6
Continuous
 62
     7
370
    25
100
AcDbSpline
210
0.0
220
0.0
230
1.0
 70
    24
 71
     3
 72
    10
 73
     6
 74
     0
 42
0.00000001
 43
0.00000001
 40
0.0
 40
0.0
 40
0.0
 40
0.0
 40
0.0789477693778934
 40
0.5375793028234308
 40
1.0
 40
1.0
 40
1.0
 40
1.0
 10
148.8786266456228
 20
61.3113085378134
 30
0.0
 10
148.8786266456228
 20
61.38807819218179
 30
0.0
 10
148.8786266456228
 20
61.9108260493862
 30
0.0
 10
148.8786266456228
 20
62.88899775528538
 30
0.0
 10
148.8786266456228
 20
63.78675714937625
 30
0.0
 10
148.8786266456228
 20
64.23748351549331
 30
0.0
  0
LINE
  5
166
330
1F
100
AcDbEntity
  8
0
  6
Continuous
 62
     7
370
    25
100
AcDbLine
 10
148.8786266456
 20
61.3113085378
 30
0.0
 11
148.5090614282
 21
61.3749210373
 31
0.0
  0
LINE
  5
167
330
1F
100
AcDbEntity
  8
0
  6
Continuous
 62
     7
370
    25
100
AcDbLine
 10
131.8786266456
 20
61.3113085378
 30
0.0
 11
132.248191863
 21
61.3749210373
 31
0.0
  0
SPLINE
  5
168
330
1F
100
AcDbEntity
  8
0
  6
Continuous
 62
     7
370
    25
100
AcDbSpline
210
0.0
220
0.0
230
1.0
 70
    24
 71
     3
 72
    10
 73
     6
 74
     0
 42
0.00000001
 43
0.00000001
 40
0.0
 40
0.0
 40
0.0
 40
0.0
 40
0.4586421336634355
 40
0.9210522271454904
 40
1.0
 40
1.0
 40
1.0
 40
1.0
 10
131.8786266456228
 20
64.23748351549342
 30
0.0
 10
131.8786266456228
 20
63.79045235874312
 30
0.0
 10
131.8786266456228
 20
62.8927174750343
 30
0.0
 10
131.8786266456227
 20
61.91450017881373
 30
0.0
 10
131.8786266456227
 20
61.3880781714469
 30
0.0
 10
131.8786266456227
 20
61.31130853781351
 30
0.0
  0
LINE
  5
169
330
1F
100
AcDbEntity
  8
0
  6
Continuous
 62
     7
370
    25
100
AcDbLine
 10
132.248191863
 20
64.173871016
 30
0.0
 11
131.8786266456
 21
64.2374835155
 31
0.0
  0
ARC
  5
16A
330
1F
100
AcDbEntity
  8
0
  6
Continuous
 62
     7
370
    25
100
AcDbCircle
 10
140.3786266456
 20
62.7743960267
 30
0.0
 40
8.625000000000044
100
AcDbArc
 50
309.766500898
 51
350.233499102
  0
ARC
  5
16B
330
1F
100
AcDbEntity
  8
0
  6
Continuous
 62
     7
370
    25
100
AcDbCircle
 10
140.3786266456
 20
62.7743960267
 30
0.0
 40
8.624999999999996
100
AcDbArc
 50
189.766500898
 51
230.233499102
  0
ARC
  5
16C
330
1F
100
AcDbEntity
  8
0
  6
Continuous
 62
     7
370
    25
100
AcDbCircle
 10
140.3786266456
 20
62.7743960267
 30
0.0
 40
8.62500000000001
100
AcDbArc
 50
69.766500898
 51
110.233499102
  0
ARC
  5
16D
330
1F
100
AcDbEntity
  8
0
  6
Continuous
 62
     7
370
    25
100
AcDbCircle
 10
140.3786266456
 20
62.7743960267
 30
0.0
 40
8.624999999999982
100
AcDbArc
 50
129.766500898
 51
170.233499102
  0
ARC
  5
16E
330
1F
100
AcDbEntity
  8
0
  6
Continuous
 62
     7
370
    25
100
AcDbCircle
 10
140.3786266456
 20
62.7743960267
 30
0.0
 40
8.625000000000012
100
AcDbArc
 50
249.766500898
 51
290.233499102
  0
ARC
  5
16F
330
1F
100
AcDbEntity
  8
0
  6
Continuous
 62
     7
370
    25
100
AcDbCircle
 10
140.3786266456
 20
62.7743960267
 30
0.0
 40
8.62500000000004
100
AcDbArc
 50
9.766500898
 51
50.233499102
  0
SPLINE
  5
170
330
1F
100
AcDbEntity
  8
0
  6
Continuous
 62
     7
370
    25
100
AcDbSpline
210
0.0
220
0.0
230
1.0
 70
    24
 71
     3
 72
    11
 73
     7
 74
     0
 42
0.00000001
 43
0.00000001
 40
0.0
 40
0.0
 40
0.0
 40
0.0
 40
0.2490252138763563
 40
0.4980311639765294
 40
0.7490269204800196
 40
1.0
 40
1.0
 40
1.0
 40
1.0
 10
131.8786266456227
 20
57.86691873854164
 30
0.0
 10
132.1222334093847
 20
57.72627230790725
 30
0.0
 10
132.609428092286
 20
57.44499032658642
 30
0.0
 10
133.3515636370818
 20
57.0165181700234
 30
0.0
 10
134.1019053985554
 20
56.58330815205237
 30
0.0
 10
134.6083465674126
 20
56.29091420688398
 30
0.0
 10
134.8615557123282
 20
56.14472383890569
 30
0.0
  0
SPLINE
  5
171
330
1F
100
AcDbEntity
  8
0
  6
Continuous
 62
     7
370
    25
100
AcDbSpline
210
0.0
220
0.0
230
1.0
 70
    24
 71
     3
 72
    11
 73
     7
 74
     0
 42
0.00000001
 43
0.00000001
 40
0.0
 40
0.0
 40
0.0
 40
0.0
 40
0.2488617730236805
 40
0.4977454583558508
 40
0.7488627517928873
 40
1.0
 40
1.0
 40
1.0
 40
1.0
 10
131.8786266456227
 20
61.31130853781351
 30
0.0
 10
131.8786266456227
 20
61.02138377720753
 30
0.0
 10
131.8786266456227
 20
60.44150872808617
 30
0.0
 10
131.8786266456227
 20
59.57742955309727
 30
0.0
 10
131.8786266456227
 20
58.71795341114341
 30
0.0
 10
131.8786266456227
 20
58.15060447640752
 30
0.0
 10
131.8786266456227
 20
57.86691873854164
 30
0.0
  0
SPLINE
  5
172
330
1F
100
AcDbEntity
  8
0
  6
Continuous
 62
     7
370
    25
100
AcDbSpline
210
0.0
220
0.0
230
1.0
 70
    24
 71
     3
 72
    10
 73
     6
 74
     0
 42
0.00000001
 43
0.00000001
 40
0.0
 40
0.0
 40
0.0
 40
0.0
 40
0.3355445600395944
 40
0.6726666839999046
 40
1.0
 40
1.0
 40
1.0
 40
1.0
 10
148.8786266456228
 20
64.23748351549331
 30
0.0
 10
148.8786266456228
 20
64.62811308179676
 30
0.0
 10
148.8786266456228
 20
65.41120876067365
 30
0.0
 10
148.8786266456228
 20
66.56046073008844
 30
0.0
 10
148.8786266456228
 20
67.31175851184933
 30
0.0
 10
148.8786266456228
 20
67.68187331476518
 30
0.0
  0
SPLINE
  5
173
330
1F
100
AcDbEntity
  8
0
  6
Continuous
 62
     7
370
    25
100
AcDbSpline
210
0.0
220
0.0
230
1.0
 70
    24
 71
     3
 72
    11
 73
     7
 74
     0
 42
0.00000001
 43
0.00000001
 40
0.0
 40
0.0
 40
0.0
 40
0.0
 40
0.2490252138763561
 40
0.4980311639765295
 40
0.7490269204800196
 40
1.0
 40
1.0
 40
1.0
 40
1.0
 10
148.8786266456228
 20
67.68187331476518
 30
0.0
 10
148.6350198818609
 20
67.82251974539957
 30
0.0
 10
148.1478251989596
 20
68.10380172672039
 30
0.0
 10
147.4056896541638
 20
68.53227388328342
 30
0.0
 10
146.6553478926902
 20
68.96548390125446
 30
0.0
 10
146.148906723833
 20
69.25787784642284
 30
0.0
 10
145.8956975789174
 20
69.40406821440115
 30
0.0
  0
SPLINE
  5
174
330
1F
100
AcDbEntity
  8
0
  6
Continuous
 62
     7
370
    25
100
AcDbSpline
210
0.0
220
0.0
230
1.0
 70
    24
 71
     3
 72
    11
 73
     7
 74
     0
 42
0.00000001
 43
0.00000001
 40
0.0
 40
0.0
 40
0.0
 40
0.0
 40
0.2488617730236803
 40
0.4977454583558501
 40
0.7488627517928869
 40
1.0
 40
1.0
 40
1.0
 40
1.0
 10
145.8956975789172
 20
56.14472383890552
 30
0.0
 10
146.1467797867881
 20
56.28968621920852
 30
0.0
 10
146.6489663103479
 20
56.5796237437692
 30
0.0
 10
147.3972808267694
 20
57.01166333126368
 30
0.0
 10
148.1416089996482
 20
57.44140140224061
 30
0.0
 10
148.6329475899395
 20
57.72507586960857
 30
0.0
 10
148.8786266456227
 20
57.86691873854151
 30
0.0
  0
SPLINE
  5
175
330
1F
100
AcDbEntity
  8
0
  6
Continuous
 62
     7
370
    25
100
AcDbSpline
210
0.0
220
0.0
230
1.0
 70
    24
 71
     3
 72
    11
 73
     7
 74
     0
 42
0.00000001
 43
0.00000001
 40
0.0
 40
0.0
 40
0.0
 40
0.0
 40
0.2490252138763565
 40
0.4980311639765298
 40
0.7490269204800197
 40
0.9999999999999999
 40
0.9999999999999999
 40
0.9999999999999999
 40
0.9999999999999999
 10
148.8786266456227
 20
57.86691873854151
 30
0.0
 10
148.8786266456227
 20
58.14821159981027
 30
0.0
 10
148.8786266456227
 20
58.71077556245194
 30
0.0
 10
148.8786266456227
 20
59.56771987557798
 30
0.0
 10
148.8786266456227
 20
60.43413991152001
 30
0.0
 10
148.8786266456228
 20
61.0189278018568
 30
0.0
 10
148.8786266456228
 20
61.3113085378134
 30
0.0
  0
SPLINE
  5
176
330
1F
100
AcDbEntity
  8
0
  6
Continuous
 62
     7
370
    25
100
AcDbSpline
210
0.0
220
0.0
230
1.0
 70
    24
 71
     3
 72
    11
 73
     7
 74
     0
 42
0.00000001
 43
0.00000001
 40
0.0
 40
0.0
 40
0.0
 40
0.0
 40
0.2490252138763564
 40
0.4980311639765299
 40
0.7490269204800198
 40
0.9999999999999999
 40
0.9999999999999999
 40
0.9999999999999999
 40
0.9999999999999999
 10
140.3786266456228
 20
72.58935060287709
 30
0.0
 10
140.1350198818609
 20
72.44870417224271
 30
0.0
 10
139.6478251989595
 20
72.16742219092187
 30
0.0
 10
138.9056896541638
 20
71.73895003435888
 30
0.0
 10
138.1553478926902
 20
71.30574001638786
 30
0.0
 10
137.648906723833
 20
71.01334607121946
 30
0.0
 10
137.3956975789174
 20
70.86715570324118
 30
0.0
  0
SPLINE
  5
177
330
1F
100
AcDbEntity
  8
0
  6
Continuous
 62
     7
370
    25
100
AcDbSpline
210
0.0
220
0.0
230
1.0
 70
    24
 71
     3
 72
    11
 73
     7
 74
     0
 42
0.00000001
 43
0.00000001
 40
0.0
 40
0.0
 40
0.0
 40
0.0
 40
0.2488617730236802
 40
0.4977454583558502
 40
0.7488627517928871
 40
1.0
 40
1.0
 40
1.0
 40
1.0
 10
143.3615557123283
 20
70.86715570324112
 30
0.0
 10
143.1104735044574
 20
71.01211808354411
 30
0.0
 10
142.6082869808975
 20
71.3020556081048
 30
0.0
 10
141.859972464476
 20
71.73409519559925
 30
0.0
 10
141.1156442915973
 20
72.16383326657619
 30
0.0
 10
140.624305701306
 20
72.44750773394415
 30
0.0
 10
140.3786266456228
 20
72.58935060287709
 30
0.0
  0
SPLINE
  5
178
330
1F
100
AcDbEntity
  8
0
  6
Continuous
 62
     7
370
    25
100
AcDbSpline
210
0.0
220
0.0
230
1.0
 70
    24
 71
     3
 72
    11
 73
     7
 74
     0
 42
0.00000001
 43
0.00000001
 40
0.0
 40
0.0
 40
0.0
 40
0.0
 40
0.2490252138763566
 40
0.4980311639765296
 40
0.7490269204800198
 40
1.0
 40
1.0
 40
1.0
 40
1.0
 10
140.3786266456227
 20
52.95944145042979
 30
0.0
 10
140.6222334093847
 20
53.10008788106418
 30
0.0
 10
141.1094280922861
 20
53.38136986238502
 30
0.0
 10
141.8515636370819
 20
53.80984201894805
 30
0.0
 10
142.6019053985555
 20
54.24305203691908
 30
0.0
 10
143.1083465674127
 20
54.53544598208748
 30
0.0
 10
143.3615557123283
 20
54.68163635006579
 30
0.0
  0
SPLINE
  5
179
330
1F
100
AcDbEntity
  8
0
  6
Continuous
 62
     7
370
    25
100
AcDbSpline
210
0.0
220
0.0
230
1.0
 70
    24
 71
     3
 72
    11
 73
     7
 74
     0
 42
0.00000001
 43
0.00000001
 40
0.0
 40
0.0
 40
0.0
 40
0.0
 40
0.2488617730236805
 40
0.4977454583558502
 40
0.7488627517928867
 40
0.9999999999999999
 40
0.9999999999999999
 40
0.9999999999999999
 40
0.9999999999999999
 10
137.3956975789173
 20
54.68163635006574
 30
0.0
 10
137.6467797867882
 20
54.53667396976275
 30
0.0
 10
138.1489663103481
 20
54.24673644520207
 30
0.0
 10
138.8972808267696
 20
53.81469685770761
 30
0.0
 10
139.6416089996482
 20
53.38495878673068
 30
0.0
 10
140.1329475899396
 20
53.10128431936273
 30
0.0
 10
140.3786266456227
 20
52.95944145042979
 30
0.0
  0
SPLINE
  5
17A
330
1F
100
AcDbEntity
  8
0
  6
Continuous
 62
     7
370
    25
100
AcDbSpline
210
0.0
220
0.0
230
1.0
 70
    24
 71
     3
 72
    10
 73
     6
 74
     0
 42
0.00000001
 43
0.00000001
 40
0.0
 40
0.0
 40
0.0
 40
0.0
 40
0.3273333707077125
 40
0.6629523133412114
 40
1.0
 40
1.0
 40
1.0
 40
1.0
 10
131.8786266456228
 20
67.6818733147653
 30
0.0
 10
131.8786266456228
 20
67.31175852611403
 30
0.0
 10
131.8786266456228
 20
66.5621604793043
 30
0.0
 10
131.8786266456228
 20
65.41295045874804
 30
0.0
 10
131.8786266456228
 20
64.6298602578145
 30
0.0
 10
131.8786266456228
 20
64.23748351549342
 30
0.0
  0
SPLINE
  5
17B
330
1F
100
AcDbEntity
  8
0
  6
Continuous
 62
     7
370
    25
100
AcDbSpline
210
0.0
220
0.0
230
1.0
 70
    24
 71
     3
 72
    11
 73
     7
 74
     0
 42
0.00000001
 43
0.00000001
 40
0.0
 40
0.0
 40
0.0
 40
0.0
 40
0.2488617730236805
 40
0.4977454583558507
 40
0.7488627517928871
 40
1.0
 40
1.0
 40
1.0
 40
1.0
 10
134.8615557123282
 20
69.40406821440122
 30
0.0
 10
134.6104735044573
 20
69.25910583409824
 30
0.0
 10
134.1082869808975
 20
68.96916830953757
 30
0.0
 10
133.359972464476
 20
68.53712872204311
 30
0.0
 10
132.6156442915973
 20
68.1073906510662
 30
0.0
 10
132.124305701306
 20
67.82371618369824
 30
0.0
 10
131.8786266456228
 20
67.6818733147653
 30
0.0
  0
CIRCLE
  5
17C
330
1F
100
AcDbEntity
  8
0
  6
Continuous
 62
     7
370
    25
100
AcDbCircle
 10
140.3786266456
 20
62.7743960267
 30
0.0
 40
2.499999999999972
  0
LINE
  5
17D
330
1F
100
AcDbEntity
  8
0
  6
Continuous
 62
     7
370
    25
100
AcDbLine
 10
146.8349191423
 20
82.6850361337
 30
0.0
 11
133.922334149
 21
82.6850361337
 31
0.0
  0
LINE
  5
17E
330
1F
100
AcDbEntity
  8
0
  6
Continuous
 62
     7
370
    25
100
AcDbLine
 10
140.3786266456
 20
72.7746518363
 30
0.0
 11
133.6126346397
 21
72.7746518363
 31
0.0
  0
LINE
  5
17F
330
1F
100
AcDbEntity
  8
0
  6
Continuous
 62
     7
370
    25
100
AcDbLine
 10
147.1446186516
 20
72.7746518363
 30
0.0
 11
140.3786266456
 21
72.7746518363
 31
0.0
  0
LINE
  5
180
330
1F
100
AcDbEntity
  8
0
  6
Continuous
 62
     7
370
    25
100
AcDbLine
 10
140.3786266456
 20
72.7743960267
 30
0.0
 11
133.6286266456
 21
72.7743960267
 31
0.0
  0
LINE
  5
181
330
1F
100
AcDbEntity
  8
0
  6
Continuous
 62
     7
370
    25
100
AcDbLine
 10
147.1286266456
 20
72.7743960267
 30
0.0
 11
140.3786266456
 21
72.7743960267
 31
0.0
  0
LINE
  5
182
330
1F
100
AcDbEntity
  8
0
  6
Continuous
 62
     7
370
    25
100
AcDbLine
 10
140.3786266456
 20
84.7743960267
 30
0.0
 11
145.6286266456
 21
84.7743960267
 31
0.0
  0
LINE
  5
183
330
1F
100
AcDbEntity
  8
0
  6
Continuous
 62
     7
370
    25
100
AcDbLine
 10
135.1286266456
 20
84.7743960267
 30
0.0
 11
140.3786266456
 21
84.7743960267
 31
0.0
  0
SPLINE
  5
184
330
1F
100
AcDbEntity
  8
0
  6
Continuous
 62
     7
370
    25
100
AcDbSpline
210
0.0
220
0.0
230
1.0
 70
    24
 71
     3
 72
    14
 73
    10
 74
     0
 42
0.00000001
 43
0.00000001
 40
0.0
 40
0.0
 40
0.0
 40
0.0
 40
0.25
 40
0.25
 40
0.5
 40
0.5
 40
0.75
 40
0.75
 40
1.0
 40
1.0
 40
1.0
 40
1.0
 10
134.3786266456228
 20
69.52439602665345
 30
0.0
 10
134.3786266456228
 20
69.52439602665345
 30
0.0
 10
134.3884715593603
 20
69.52439602665345
 30
0.0
 10
134.4279636656694
 20
69.52439602665345
 30
0.0
 10
134.4576113048447
 20
69.52439602665345
 30
0.0
 10
134.5370404420484
 20
69.52439602665345
 30
0.0
 10
134.5868228661176
 20
69.52439602665345
 30
0.0
 10
134.7070518524523
 20
69.52439602665345
 30
0.0
 10
134.7774998850594
 20
69.52439602665345
 30
0.0
 10
134.8586266456228
 20
69.52439602665345
 30
0.0
  0
SPLINE
  5
185
330
1F
100
AcDbEntity
  8
0
  6
Continuous
 62
     7
370
    25
100
AcDbSpline
210
0.0
220
0.0
230
1.0
 70
    24
 71
     3
 72
    14
 73
    10
 74
     0
 42
0.00000001
 43
0.00000001
 40
0.0
 40
0.0
 40
0.0
 40
0.0
 40
0.25
 40
0.25
 40
0.5
 40
0.5
 40
0.75
 40
0.75
 40
1.0
 40
1.0
 40
1.0
 40
1.0
 10
146.3786266456228
 20
69.52439602665345
 30
0.0
 10
146.3786266456228
 20
69.52439602665345
 30
0.0
 10
146.3687817318852
 20
69.52439602665345
 30
0.0
 10
146.3292896255761
 20
69.52439602665345
 30
0.0
 10
146.2996419864008
 20
69.52439602665345
 30
0.0
 10
146.2202128491972
 20
69.52439602665345
 30
0.0
 10
146.1704304251279
 20
69.52439602665345
 30
0.0
 10
146.0502014387933
 20
69.52439602665345
 30
0.0
 10
145.9797534061861
 20
69.52439602665345
 30
0.0
 10
145.8986266456228
 20
69.52439602665345
 30
0.0
  0
SPLINE
  5
186
330
1F
100
AcDbEntity
  8
0
  6
Continuous
 62
     7
370
    25
100
AcDbSpline
210
0.0
220
0.0
230
1.0
 70
     8
 71
     3
 72
    10
 73
     6
 74
     0
 42
0.00000001
 43
0.00000001
 40
0.0
 40
0.0
 40
0.0
 40
0.0
 40
0.5
 40
0.5
 40
1.0
 40
1.0
 40
1.0
 40
1.0
 10
145.9714143927284
 20
69.34761143091286
 30
0.0
 10
145.9438734459064
 20
69.37603869098015
 30
0.0
 10
145.9242603120167
 20
69.410265329147
 30
0.0
 10
145.9019514387284
 20
69.47328737468456
 30
0.0
 10
145.8986266456228
 20
69.50187309397654
 30
0.0
 10
145.8986266456228
 20
69.52439602665345
 30
0.0
  0
ARC
  5
187
330
1F
100
AcDbEntity
  8
0
  6
Continuous
 62
     7
370
    25
100
AcDbCircle
 10
146.1286266456
 20
69.0243960267
 30
0.0
 40
0.25
100
AcDbArc
 50
30.0840340411
 51
90.0
  0
ARC
  5
188
330
1F
100
AcDbEntity
  8
0
  6
Continuous
 62
     7
370
    25
100
AcDbCircle
 10
134.6286266456
 20
69.0243960267
 30
0.0
 40
0.2500000000000039
100
AcDbArc
 50
90.0
 51
150.201750927
  0
SPLINE
  5
189
330
1F
100
AcDbEntity
  8
0
  6
Continuous
 62
     7
370
    25
100
AcDbSpline
210
0.0
220
0.0
230
1.0
 70
     8
 71
     3
 72
    10
 73
     6
 74
     0
 42
0.00000001
 43
0.00000001
 40
0.0
 40
0.0
 40
0.0
 40
0.0
 40
0.5
 40
0.5
 40
1.0
 40
1.0
 40
1.0
 40
1.0
 10
134.7858388985172
 20
69.34761143091286
 30
0.0
 10
134.8133798453392
 20
69.37603869098015
 30
0.0
 10
134.8329929792288
 20
69.410265329147
 30
0.0
 10
134.8553018525172
 20
69.47328737468456
 30
0.0
 10
134.8586266456228
 20
69.50187309397654
 30
0.0
 10
134.8586266456228
 20
69.52439602665345
 30
0.0
  0
LINE
  5
18A
330
1F
100
AcDbEntity
  8
0
  6
Continuous
 62
     7
370
    25
100
AcDbLine
 10
142.8281163884
 20
62.2743960267
 30
0.0
 11
137.9291369028
 21
62.2743960267
 31
0.0
  0
SPLINE
  5
18B
330
1F
100
AcDbEntity
  8
0
  6
Continuous
 62
     7
370
    25
100
AcDbSpline
210
0.0
220
0.0
230
1.0
 70
     8
 71
     3
 72
    18
 73
    14
 74
     0
 42
0.00000001
 43
0.00000001
 40
0.0
 40
0.0
 40
0.0
 40
0.0
 40
0.25
 40
0.25
 40
0.375
 40
0.375
 40
0.5
 40
0.5
 40
0.625
 40
0.625
 40
0.75
 40
0.75
 40
1.0
 40
1.0
 40
1.0
 40
1.0
 10
142.2962653669756
 20
61.17044411516471
 30
0.0
 10
141.9959443198825
 20
61.03431779228706
 30
0.0
 10
141.689846919598
 20
60.90540578387017
 30
0.0
 10
141.2153783841394
 20
60.73827806176544
 30
0.0
 10
141.0546605331314
 20
60.68702102004598
 30
0.0
 10
140.7235797104864
 20
60.60894536488449
 30
0.0
 10
140.5526001449423
 20
60.58383570279584
 30
0.0
 10
140.2150074754793
 20
60.58290023684861
 30
0.0
 10
140.0451324914488
 20
60.60687911385842
 30
0.0
 10
139.7125140182472
 20
60.6840848935738
 30
0.0
 10
139.5508549670382
 20
60.73532240393256
 30
0.0
 10
139.0729006355072
 20
60.90307036309635
 30
0.0
 10
138.7621656729273
 20
61.0339294757342
 30
0.0
 10
138.46098792427
 20
61.17044411516471
 30
0.0
  0
SPLINE
  5
18C
330
1F
100
AcDbEntity
  8
0
  6
Continuous
 62
     7
370
    25
100
AcDbSpline
210
0.0
220
0.0
230
1.0
 70
     8
 71
     3
 72
    12
 73
     8
 74
     0
 42
0.00000001
 43
0.00000001
 40
0.0
 40
0.0
 40
0.0
 40
0.0
 40
0.25
 40
0.25
 40
0.5
 40
0.5
 40
1.0
 40
1.0
 40
1.0
 40
1.0
 10
146.3773334282942
 20
69.27640362694312
 30
0.0
 10
146.3773232709371
 20
69.266140167654
 30
0.0
 10
146.3687668448256
 20
69.25856138785721
 30
0.0
 10
146.3473934885907
 20
69.24414793240815
 30
0.0
 10
146.3345765584673
 20
69.23731325675587
 30
0.0
 10
146.3089830623237
 20
69.21098750375542
 30
0.0
 10
146.305255510475
 20
69.20132055239444
 30
0.0
 10
146.3054033409202
 20
69.20117272194928
 30
0.0
  0
SPLINE
  5
18D
330
1F
100
AcDbEntity
  8
0
  6
Continuous
 62
     7
370
    25
100
AcDbSpline
210
0.0
220
0.0
230
1.0
 70
     8
 71
     3
 72
    12
 73
     8
 74
     0
 42
0.00000001
 43
0.00000001
 40
0.0
 40
0.0
 40
0.0
 40
0.0
 40
0.25
 40
0.25
 40
0.5
 40
0.5
 40
1.0
 40
1.0
 40
1.0
 40
1.0
 10
146.3773334282942
 20
69.27640362694312
 30
0.0
 10
146.3773435856514
 20
69.28666708623227
 30
0.0
 10
146.3688091732584
 20
69.30133197666302
 30
0.0
 10
146.3327636851532
 20
69.33306735484652
 30
0.0
 10
146.3052526094409
 20
69.35013784259928
 30
0.0
 10
146.1914231015973
 20
69.3953618043987
 30
0.0
 10
146.090361550554
 20
69.388538377132
 30
0.0
 10
145.9714143927284
 20
69.34761143091286
 30
0.0
  0
SPLINE
  5
18E
330
1F
100
AcDbEntity
  8
0
  6
Continuous
 62
     7
370
    25
100
AcDbSpline
210
0.0
220
0.0
230
1.0
 70
     8
 71
     3
 72
    12
 73
     8
 74
     0
 42
0.00000001
 43
0.00000001
 40
0.0
 40
0.0
 40
0.0
 40
0.0
 40
0.25
 40
0.25
 40
0.5
 40
0.5
 40
1.0
 40
1.0
 40
1.0
 40
1.0
 10
134.3799198629513
 20
69.27640362694312
 30
0.0
 10
134.3799300203084
 20
69.26614016765399
 30
0.0
 10
134.3884864464199
 20
69.25856138785721
 30
0.0
 10
134.4098598026548
 20
69.24414793240814
 30
0.0
 10
134.4226767327783
 20
69.23731325675587
 30
0.0
 10
134.4482702289219
 20
69.21098750375542
 30
0.0
 10
134.4519977807705
 20
69.20132055239444
 30
0.0
 10
134.4518499503253
 20
69.20117272194928
 30
0.0
  0
SPLINE
  5
18F
330
1F
100
AcDbEntity
  8
0
  6
Continuous
 62
     7
370
    25
100
AcDbSpline
210
0.0
220
0.0
230
1.0
 70
     8
 71
     3
 72
    14
 73
    10
 74
     0
 42
0.00000001
 43
0.00000001
 40
0.0
 40
0.0
 40
0.0
 40
0.0
 40
0.25
 40
0.25
 40
0.5
 40
0.5
 40
0.75
 40
0.75
 40
1.0
 40
1.0
 40
1.0
 40
1.0
 10
134.3799198629513
 20
69.27640362694312
 30
0.0
 10
134.3799097055941
 20
69.28666708623227
 30
0.0
 10
134.3884441179872
 20
69.30133197666301
 30
0.0
 10
134.4244896060924
 20
69.33306735484652
 30
0.0
 10
134.4520006818046
 20
69.35013784259928
 30
0.0
 10
134.527887020367
 20
69.38028715046556
 30
0.0
 10
134.5721239927685
 20
69.38611862061546
 30
0.0
 10
134.6713631423872
 20
69.38001249739389
 30
0.0
 10
134.7263653196044
 20
69.36807490402244
 30
0.0
 10
134.7858388985172
 20
69.34761143091286
 30
0.0
  0
SPLINE
  5
190
330
1F
100
AcDbEntity
  8
0
  6
Continuous
 62
     7
370
    25
100
AcDbSpline
210
0.0
220
0.0
230
1.0
 70
     8
 71
     3
 72
    10
 73
     6
 74
     0
 42
0.00000001
 43
0.00000001
 40
0.0
 40
0.0
 40
0.0
 40
0.0
 40
0.5
 40
0.5
 40
1.0
 40
1.0
 40
1.0
 40
1.0
 10
146.3773334282942
 20
69.27640362694312
 30
0.0
 10
146.3773740577228
 20
69.31745746409966
 30
0.0
 10
146.3778192625711
 20
69.36093429448066
 30
0.0
 10
146.3742936616198
 20
69.44999299420502
 30
0.0
 10
146.3786266456228
 20
69.48209636372867
 30
0.0
 10
146.3786266456228
 20
69.52439602665345
 30
0.0
  0
SPLINE
  5
191
330
1F
100
AcDbEntity
  8
0
  6
Continuous
 62
     7
370
    25
100
AcDbSpline
210
0.0
220
0.0
230
1.0
 70
     8
 71
     3
 72
     9
 73
     5
 74
     0
 42
0.00000001
 43
0.00000001
 40
0.0
 40
0.0
 40
0.0
 40
0.0
 40
0.1237695466188387
 40
1.0
 40
1.0
 40
1.0
 40
1.0
 10
134.3804132059025
 20
69.40545187419704
 30
0.0
 10
134.3805002529376
 20
69.40012825150326
 30
0.0
 10
134.3812035522349
 20
69.35711587213204
 30
0.0
 10
134.3805193669413
 20
69.31409757177163
 30
0.0
 10
134.3799198629513
 20
69.27640362694312
 30
0.0
  0
LINE
  5
192
330
1F
100
AcDbEntity
  8
0
  6
Continuous
 62
     7
370
    25
100
AcDbLine
 10
139.831883062
 20
72.2743960267
 30
0.0
 11
134.3786266456
 21
72.2743960267
 31
0.0
  0
LINE
  5
193
330
1F
100
AcDbEntity
  8
0
  6
Continuous
 62
     7
370
    25
100
AcDbLine
 10
146.3786266456
 20
72.2743960267
 30
0.0
 11
140.9245458499
 21
72.2743960267
 31
0.0
  0
LINE
  5
194
330
1F
100
AcDbEntity
  8
0
  6
Continuous
 62
     7
370
    25
100
AcDbLine
 10
145.7017639835
 20
69.5243960267
 30
0.0
 11
145.8986266456
 21
69.5243960267
 31
0.0
  0
LINE
  5
195
330
1F
100
AcDbEntity
  8
0
  6
Continuous
 62
     7
370
    25
100
AcDbLine
 10
134.8586266456
 20
69.5243960267
 30
0.0
 11
135.055490084
 21
69.5243960267
 31
0.0
  0
SPLINE
  5
196
330
1F
100
AcDbEntity
  8
0
  6
Continuous
 62
     7
370
    25
100
AcDbSpline
210
0.0
220
0.0
230
1.0
 70
     8
 71
     3
 72
     9
 73
     5
 74
     0
 42
0.00000001
 43
0.00000001
 40
0.0
 40
0.0
 40
0.0
 40
0.0
 40
0.1251150623302261
 40
1.0
 40
1.0
 40
1.0
 40
1.0
 10
146.379255455601
 20
69.1456044467684
 30
0.0
 10
146.3792915140386
 20
69.15106014686171
 30
0.0
 10
146.3795797162491
 20
69.19466560883957
 30
0.0
 10
146.3783816224836
 20
69.23826189384954
 30
0.0
 10
146.3773334282942
 20
69.27640362694312
 30
0.0
  0
SPLINE
  5
197
330
1F
100
AcDbEntity
  8
0
  6
Continuous
 62
     7
370
    25
100
AcDbSpline
210
0.0
220
0.0
230
1.0
 70
     8
 71
     3
 72
     9
 73
     5
 74
     0
 42
0.00000001
 43
0.00000001
 40
0.0
 40
0.0
 40
0.0
 40
0.0
 40
0.1251150623495256
 40
1.0
 40
1.0
 40
1.0
 40
1.0
 10
134.3779978356445
 20
69.14560444676552
 30
0.0
 10
134.377961777207
 20
69.15106014685978
 30
0.0
 10
134.3776735749964
 20
69.19466560883859
 30
0.0
 10
134.3788716687619
 20
69.23826189384953
 30
0.0
 10
134.3799198629513
 20
69.27640362694312
 30
0.0
  0
LINE
  5
198
330
1F
100
AcDbEntity
  8
0
  6
Continuous
 62
     7
370
    25
100
AcDbLine
 10
134.3786266456
 20
69.5243960267
 30
0.0
 11
134.3804132059
 21
69.4054518742
 31
0.0
  0
INSERT
  5
1A4
330
1F
100
AcDbEntity
  8
FORMAT
100
AcDbBlockReference
  2
SW_CENTERMARKSYMBOL_0
 10
140.3786266456
 20
62.7743960267
 30
0.0
  0
LINE
  5
1A5
330
1F
100
AcDbEntity
  8
FORMAT
100
AcDbLine
 10
146.1281649495
 20
83.9091703041
 30
0.0
 11
146.4730016456
 21
72.8743960267
 31
0.0
  0
LINE
  5
1A6
330
1F
100
AcDbEntity
  8
FORMAT
100
AcDbLine
 10
134.6290883418
 20
83.9091703041
 30
0.0
 11
134.2842516456
 21
72.8743960267
 31
0.0
  0
LINE
  5
1A7
330
1F
100
AcDbEntity
  8
FORMAT
100
AcDbLine
 10
133.6157516456
 20
72.8743960267
 30
0.0
 11
147.1415016456
 21
72.8743960267
 31
0.0
  0
LINE
  5
1A8
330
1F
100
AcDbEntity
  8
0
  6
Continuous
 62
     7
370
    25
100
AcDbLine
 10
103.366900711
 20
118.5960439969
 30
0.0
 11
103.2225631437
 21
118.3460439969
 31
0.0
  0
LINE
  5
1A9
330
1F
100
AcDbEntity
  8
0
  6
Continuous
 62
     7
370
    25
100
AcDbLine
 10
103.2225631437
 20
101.8460439969
 30
0.0
 11
103.366900711
 21
101.5960439969
 31
0.0
  0
LINE
  5
1AA
330
1F
100
AcDbEntity
  8
0
  6
Continuous
 62
     7
370
    25
100
AcDbLine
 10
116.0225631437
 20
118.3460439969
 30
0.0
 11
115.1388789382
 21
118.3460439969
 31
0.0
  0
LINE
  5
1AB
330
1F
100
AcDbEntity
  8
0
  6
Continuous
 62
     7
370
    25
100
AcDbLine
 10
115.1388789382
 20
101.8460439969
 30
0.0
 11
116.0225631437
 21
101.8460439969
 31
0.0
  0
LINE
  5
1AC
330
1F
100
AcDbEntity
  8
0
  6
Continuous
 62
     7
370
    25
100
AcDbLine
 10
116.0225631437
 20
101.8460439969
 30
0.0
 11
116.2225631437
 21
102.0460439969
 31
0.0
  0
LINE
  5
1AD
330
1F
100
AcDbEntity
  8
0
  6
Continuous
 62
     7
370
    25
100
AcDbLine
 10
116.2225631437
 20
118.1460439969
 30
0.0
 11
116.0225631437
 21
118.3460439969
 31
0.0
  0
SPLINE
  5
1AE
330
1F
100
AcDbEntity
  8
0
  6
Continuous
 62
     7
370
    25
100
AcDbSpline
210
0.0
220
0.0
230
1.0
 70
     8
 71
     3
 72
    13
 73
     9
 74
     0
 42
0.00000001
 43
0.00000001
 40
0.0
 40
0.0
 40
0.0
 40
0.0
 40
0.1125350902718362
 40
0.2878497909297534
 40
0.4764137041097256
 40
0.6772889487072364
 40
0.8868710603303828
 40
1.0
 40
1.0
 40
1.0
 40
1.0
 10
114.5759694319043
 20
101.5900413054921
 30
0.0
 10
114.5910051799965
 20
101.6070218003918
 30
0.0
 10
114.6294646234855
 20
101.6504556475143
 30
0.0
 10
114.7090027602992
 20
101.71409922031
 30
0.0
 10
114.8129763405001
 20
101.7758042742011
 30
0.0
 10
114.9338116152147
 20
101.8208218534844
 30
0.0
 10
115.0449399822002
 20
101.8449639260343
 30
0.0
 10
115.1144862287329
 20
101.8433354347483
 30
0.0
 10
115.1388662215987
 20
101.8427645541054
 30
0.0
  0
SPLINE
  5
1AF
330
1F
100
AcDbEntity
  8
0
  6
Continuous
 62
     7
370
    25
100
AcDbSpline
210
0.0
220
0.0
230
1.0
 70
     8
 71
     3
 72
    14
 73
    10
 74
     0
 42
0.00000001
 43
0.00000001
 40
0.0
 40
0.0
 40
0.0
 40
0.0
 40
0.0317136382055698
 40
0.2339995535790304
 40
0.4243550497190833
 40
0.603324386466405
 40
0.7706762886045129
 40
0.925158416392448
 40
1.0
 40
1.0
 40
1.0
 40
1.0
 10
115.1383777682603
 20
118.3477193695852
 30
0.0
 10
115.1316324191096
 20
118.3472051349008
 30
0.0
 10
115.0818617595667
 20
118.3434108465948
 30
0.0
 10
114.9914031041932
 20
118.3583962652109
 30
0.0
 10
114.8741449745041
 20
118.3906236766033
 30
0.0
 10
114.7704585261177
 20
118.4395021418284
 30
0.0
 10
114.6826101934554
 20
118.4980832411637
 30
0.0
 10
114.6189729219013
 20
118.5524240488369
 30
0.0
 10
114.5892244666372
 20
118.5867628876717
 30
0.0
 10
114.5795158260074
 20
118.5979696358182
 30
0.0
  0
LINE
  5
1B0
330
1F
100
AcDbEntity
  8
0
  6
Continuous
 62
     7
370
    25
100
AcDbLine
 10
103.2225631437
 20
116.6745439969
 30
0.0
 11
101.537145706
 21
116.6745439969
 31
0.0
  0
LINE
  5
1B1
330
1F
100
AcDbEntity
  8
0
  6
Continuous
 62
     7
370
    25
100
AcDbLine
 10
101.537145706
 20
103.5175439969
 30
0.0
 11
103.2225631437
 21
103.5175439969
 31
0.0
  0
ARC
  5
1B2
330
1F
100
AcDbEntity
  8
0
  6
Continuous
 62
     7
370
    25
100
AcDbCircle
 10
101.037145706
 20
116.5960439969
 30
0.0
 40
0.5
100
AcDbArc
 50
270.0
 51
0.0
  0
ARC
  5
1B3
330
1F
100
AcDbEntity
  8
0
  6
Continuous
 62
     7
370
    25
100
AcDbCircle
 10
101.037145706
 20
103.5960439969
 30
0.0
 40
0.5
100
AcDbArc
 50
0.0
 51
90.0
  0
LINE
  5
1B4
330
1F
100
AcDbEntity
  8
0
  6
Continuous
 62
     7
370
    25
100
AcDbLine
 10
98.287145706
 20
104.0960439969
 30
0.0
 11
101.037145706
 21
104.0960439969
 31
0.0
  0
LINE
  5
1B5
330
1F
100
AcDbEntity
  8
0
  6
Continuous
 62
     7
370
    25
100
AcDbLine
 10
98.537145706
 20
116.0960439969
 30
0.0
 11
98.287145706
 21
116.0960439969
 31
0.0
  0
LINE
  5
1B6
330
1F
100
AcDbEntity
  8
0
  6
Continuous
 62
     7
370
    25
100
AcDbLine
 10
101.037145706
 20
116.0960439969
 30
0.0
 11
99.5371457035
 21
116.0960439969
 31
0.0
  0
SPLINE
  5
1B7
330
1F
100
AcDbEntity
  8
0
  6
Continuous
 62
     7
370
    25
100
AcDbSpline
210
0.0
220
0.0
230
1.0
 70
     8
 71
     3
 72
    11
 73
     7
 74
     0
 42
0.00000001
 43
0.00000001
 40
0.0
 40
0.0
 40
0.0
 40
0.0
 40
0.249999876983169
 40
0.49999984315801
 40
0.7499998937543363
 40
1.0
 40
1.0
 40
1.0
 40
1.0
 10
98.7871457068613
 20
116.3960439968249
 30
0.0
 10
98.75438644902428
 20
116.392286101958
 30
0.0
 10
98.68886792166283
 20
116.3847703108836
 30
0.0
 10
98.60623177317564
 20
116.3269579936595
 30
0.0
 10
98.5484196216008
 20
116.244321746505
 30
0.0
 10
98.54090397745121
 20
116.1788032171923
 30
0.0
 10
98.53714615495817
 20
116.1460439488899
 30
0.0
  0
SPLINE
  5
1B8
330
1F
100
AcDbEntity
  8
0
  6
Continuous
 62
     7
370
    25
100
AcDbSpline
210
0.0
220
0.0
230
1.0
 70
     8
 71
     3
 72
    11
 73
     7
 74
     0
 42
0.00000001
 43
0.00000001
 40
0.0
 40
0.0
 40
0.0
 40
0.0
 40
0.2500000011686007
 40
0.5000000017593664
 40
0.7500000013877902
 40
1.0
 40
1.0
 40
1.0
 40
1.0
 10
99.53714570810241
 20
116.146043996783
 30
0.0
 10
99.53338781458771
 20
116.1788032577431
 30
0.0
 10
99.52587202756699
 20
116.2443217795876
 30
0.0
 10
99.46805972293768
 20
116.3269580138298
 30
0.0
 10
99.38542348740283
 20
116.3847703172066
 30
0.0
 10
99.31990496498695
 20
116.3922861036512
 30
0.0
 10
99.28714570384558
 20
116.3960439968659
 30
0.0
  0
LINE
  5
1B9
330
1F
100
AcDbEntity
  8
0
  6
Continuous
 62
     7
370
    25
100
AcDbLine
 10
98.537145706
 20
116.1463440673
 30
0.0
 11
98.537145706
 21
116.0960439969
 31
0.0
  0
LINE
  5
1BA
330
1F
100
AcDbEntity
  8
0
  6
Continuous
 62
     7
370
    25
100
AcDbLine
 10
99.5371457086
 20
116.0960439966
 30
0.0
 11
99.5371457086
 21
116.1463440671
 31
0.0
  0
LINE
  5
1BB
330
1F
100
AcDbEntity
  8
0
  6
Continuous
 62
     7
370
    25
100
AcDbLine
 10
99.3024566752
 20
116.3960439969
 30
0.0
 11
98.771834738
 21
116.3960439969
 31
0.0
  0
SPLINE
  5
1BC
330
1F
100
AcDbEntity
  8
0
  6
Continuous
 62
     7
370
    25
100
AcDbSpline
210
0.0
220
0.0
230
1.0
 70
    24
 71
     3
 72
    12
 73
     8
 74
     0
 42
0.00000001
 43
0.00000001
 40
0.0
 40
0.0
 40
0.0
 40
0.0
 40
0.2240357948925488
 40
0.4755204493863656
 40
0.7269400403501395
 40
0.9845427520223784
 40
1.0
 40
1.0
 40
1.0
 40
1.0
 10
104.1260900895604
 20
118.596043996866
 30
0.0
 10
104.0275513948253
 20
118.596043996866
 30
0.0
 10
103.8184010471105
 20
118.596043996866
 30
0.0
 10
103.5758400718647
 20
118.596043996866
 30
0.0
 10
103.4178860381221
 20
118.596043996866
 30
0.0
 10
103.3514139177792
 20
118.5960439968659
 30
0.0
 10
103.369494870606
 20
118.5960439968659
 30
0.0
 10
103.3705183885611
 20
118.5960439968659
 30
0.0
  0
SPLINE
  5
1BD
330
1F
100
AcDbEntity
  8
0
  6
Continuous
 62
     7
370
    25
100
AcDbSpline
210
0.0
220
0.0
230
1.0
 70
     8
 71
     3
 72
    15
 73
    11
 74
     0
 42
0.00000001
 43
0.00000001
 40
0.0
 40
0.0
 40
0.0
 40
0.0
 40
0.1323052378296955
 40
0.2645730682660303
 40
0.3997997819746811
 40
0.5350020935366634
 40
0.6501929590834553
 40
0.7654017933211805
 40
0.8826895567076665
 40
1.0
 40
1.0
 40
1.0
 40
1.0
 10
104.1260900895604
 20
110.096043996866
 30
0.0
 10
104.0105201177204
 20
110.4632778148291
 30
0.0
 10
103.7794128497792
 20
111.1976416207019
 30
0.0
 10
103.5307502182029
 20
112.3284968752973
 30
0.0
 10
103.3812362710493
 20
113.4806689408902
 30
0.0
 10
103.3516259840009
 20
114.5911051535505
 30
0.0
 10
103.4284473866516
 20
115.6415502598022
 30
0.0
 10
103.5858568577726
 20
116.6329119864638
 30
0.0
 10
103.8167592183036
 20
117.6197914782738
 30
0.0
 10
104.022973153861
 20
118.2706055180713
 30
0.0
 10
104.1260900895604
 20
118.596043996866
 30
0.0
  0
SPLINE
  5
1BE
330
1F
100
AcDbEntity
  8
0
  6
Continuous
 62
     7
370
    25
100
AcDbSpline
210
0.0
220
0.0
230
1.0
 70
     8
 71
     3
 72
    15
 73
    11
 74
     0
 42
0.00000001
 43
0.00000001
 40
0.0
 40
0.0
 40
0.0
 40
0.0
 40
0.1323052378296956
 40
0.2645730682660304
 40
0.3997997819746813
 40
0.5350020935366635
 40
0.6501929590834554
 40
0.7654017933211806
 40
0.8826895567076667
 40
1.0
 40
1.0
 40
1.0
 40
1.0
 10
104.1260900895604
 20
101.596043996866
 30
0.0
 10
104.0105201177204
 20
101.963277814829
 30
0.0
 10
103.7794128497792
 20
102.6976416207019
 30
0.0
 10
103.5307502182029
 20
103.8284968752972
 30
0.0
 10
103.3812362710493
 20
104.9806689408902
 30
0.0
 10
103.3516259840009
 20
106.0911051535505
 30
0.0
 10
103.4284473866516
 20
107.1415502598022
 30
0.0
 10
103.5858568577726
 20
108.1329119864638
 30
0.0
 10
103.8167592183036
 20
109.1197914782738
 30
0.0
 10
104.022973153861
 20
109.7706055180713
 30
0.0
 10
104.1260900895604
 20
110.096043996866
 30
0.0
  0
SPLINE
  5
1BF
330
1F
100
AcDbEntity
  8
0
  6
Continuous
 62
     7
370
    25
100
AcDbSpline
210
0.0
220
0.0
230
1.0
 70
    24
 71
     3
 72
    12
 73
     8
 74
     0
 42
0.00000001
 43
0.00000001
 40
0.0
 40
0.0
 40
0.0
 40
0.0
 40
0.0090155095797764
 40
0.2601781097992078
 40
0.5180352497104326
 40
0.775964125435311
 40
1.0
 40
1.0
 40
1.0
 40
1.0
 10
103.3691771790112
 20
101.5960439968659
 30
0.0
 10
103.3685767754797
 20
101.5960439968659
 30
0.0
 10
103.3512497620098
 20
101.596043996866
 30
0.0
 10
103.4143495089338
 20
101.5960439968659
 30
0.0
 10
103.5696137851228
 20
101.596043996866
 30
0.0
 10
103.8156002132085
 20
101.596043996866
 30
0.0
 10
104.0275620308829
 20
101.596043996866
 30
0.0
 10
104.1260900895604
 20
101.596043996866
 30
0.0
  0
LINE
  5
1C0
330
1F
100
AcDbEntity
  8
0
  6
Continuous
 62
     7
370
    25
100
AcDbLine
 10
103.2225631437
 20
101.8460439969
 30
0.0
 11
103.2225631437
 21
118.3460439969
 31
0.0
  0
SPLINE
  5
1C1
330
1F
100
AcDbEntity
  8
0
  6
Continuous
 62
     7
370
    25
100
AcDbSpline
210
0.0
220
0.0
230
1.0
 70
     8
 71
     3
 72
    10
 73
     6
 74
     0
 42
0.00000001
 43
0.00000001
 40
0.0
 40
0.0
 40
0.0
 40
0.0
 40
0.3089808900029875
 40
0.6190948628358296
 40
1.0
 40
1.0
 40
1.0
 40
1.0
 10
114.506056792762
 20
115.6131149301606
 30
0.0
 10
114.5302037992987
 20
115.3525314154442
 30
0.0
 10
114.5785863633453
 20
114.830408784174
 30
0.0
 10
114.5860414560619
 20
113.9834164734534
 30
0.0
 10
114.5344791082624
 20
113.400364376447
 30
0.0
 10
114.506056792762
 20
113.0789730635714
 30
0.0
  0
SPLINE
  5
1C2
330
1F
100
AcDbEntity
  8
0
  6
Continuous
 62
     7
370
    25
100
AcDbSpline
210
0.0
220
0.0
230
1.0
 70
     8
 71
     3
 72
    11
 73
     7
 74
     0
 42
0.00000001
 43
0.00000001
 40
0.0
 40
0.0
 40
0.0
 40
0.0
 40
0.2488617730236802
 40
0.4977454583558502
 40
0.7488627517928871
 40
1.0
 40
1.0
 40
1.0
 40
1.0
 10
114.506056792762
 20
113.0789730635714
 30
0.0
 10
114.4729027375457
 20
112.8278908557005
 30
0.0
 10
114.4065917078945
 20
112.3257043321407
 30
0.0
 10
114.2485497018096
 20
111.5773898157192
 30
0.0
 10
114.0556975223628
 20
110.8330616428405
 30
0.0
 10
113.8979253954744
 20
110.3417230525492
 30
0.0
 10
113.8190361978559
 20
110.096043996866
 30
0.0
  0
LINE
  5
1C3
330
1F
100
AcDbEntity
  8
0
  6
Continuous
 62
     7
370
    25
100
AcDbLine
 10
104.1260900896
 20
110.0960439969
 30
0.0
 11
113.8190361979
 21
110.0960439969
 31
0.0
  0
LINE
  5
1C4
330
1F
100
AcDbEntity
  8
0
  6
Continuous
 62
     7
370
    25
100
AcDbLine
 10
104.1260900896
 20
118.5960439969
 30
0.0
 11
113.8190361979
 21
118.5960439969
 31
0.0
  0
SPLINE
  5
1C5
330
1F
100
AcDbEntity
  8
0
  6
Continuous
 62
     7
370
    25
100
AcDbSpline
210
0.0
220
0.0
230
1.0
 70
     8
 71
     3
 72
    11
 73
     7
 74
     0
 42
0.00000001
 43
0.00000001
 40
0.0
 40
0.0
 40
0.0
 40
0.0
 40
0.2490252138763561
 40
0.4980311639765295
 40
0.7490269204800196
 40
1.0
 40
1.0
 40
1.0
 40
1.0
 10
113.8190361978559
 20
118.596043996866
 30
0.0
 10
113.8972850706813
 20
118.352437233104
 30
0.0
 10
114.0537767632553
 20
117.8652425502027
 30
0.0
 10
114.2465596516217
 20
117.123107005407
 30
0.0
 10
114.4056255368565
 20
116.3727652439333
 30
0.0
 10
114.4725807157176
 20
115.8663240750762
 30
0.0
 10
114.506056792762
 20
115.6131149301606
 30
0.0
  0
LINE
  5
1C6
330
1F
100
AcDbEntity
  8
0
  6
Continuous
 62
     7
370
    25
100
AcDbLine
 10
114.5060567928
 20
107.1131149302
 30
0.0
 11
114.5060567928
 21
113.0789730636
 31
0.0
  0
SPLINE
  5
1C7
330
1F
100
AcDbEntity
  8
0
  6
Continuous
 62
     7
370
    25
100
AcDbSpline
210
0.0
220
0.0
230
1.0
 70
     8
 71
     3
 72
    11
 73
     7
 74
     0
 42
0.00000001
 43
0.00000001
 40
0.0
 40
0.0
 40
0.0
 40
0.0
 40
0.2490252138763564
 40
0.4980311639765299
 40
0.7490269204800198
 40
0.9999999999999999
 40
0.9999999999999999
 40
0.9999999999999999
 40
0.9999999999999999
 10
113.8190361978559
 20
110.096043996866
 30
0.0
 10
113.8972850706813
 20
109.852437233104
 30
0.0
 10
114.0537767632553
 20
109.3652425502027
 30
0.0
 10
114.2465596516217
 20
108.623107005407
 30
0.0
 10
114.4056255368565
 20
107.8727652439334
 30
0.0
 10
114.4725807157176
 20
107.3663240750762
 30
0.0
 10
114.506056792762
 20
107.1131149301606
 30
0.0
  0
SPLINE
  5
1C8
330
1F
100
AcDbEntity
  8
0
  6
Continuous
 62
     7
370
    25
100
AcDbSpline
210
0.0
220
0.0
230
1.0
 70
     8
 71
     3
 72
    10
 73
     6
 74
     0
 42
0.00000001
 43
0.00000001
 40
0.0
 40
0.0
 40
0.0
 40
0.0
 40
0.3089808900029871
 40
0.6190948628358288
 40
1.0
 40
1.0
 40
1.0
 40
1.0
 10
114.506056792762
 20
107.1131149301606
 30
0.0
 10
114.5302037992987
 20
106.8525314154442
 30
0.0
 10
114.5785863633453
 20
106.3304087841739
 30
0.0
 10
114.5860414560619
 20
105.4834164734534
 30
0.0
 10
114.5344791082624
 20
104.900364376447
 30
0.0
 10
114.506056792762
 20
104.5789730635714
 30
0.0
  0
SPLINE
  5
1C9
330
1F
100
AcDbEntity
  8
0
  6
Continuous
 62
     7
370
    25
100
AcDbSpline
210
0.0
220
0.0
230
1.0
 70
     8
 71
     3
 72
    11
 73
     7
 74
     0
 42
0.00000001
 43
0.00000001
 40
0.0
 40
0.0
 40
0.0
 40
0.0
 40
0.2488617730236805
 40
0.4977454583558507
 40
0.7488627517928871
 40
1.0
 40
1.0
 40
1.0
 40
1.0
 10
114.506056792762
 20
104.5789730635714
 30
0.0
 10
114.4729027375457
 20
104.3278908557005
 30
0.0
 10
114.4065917078945
 20
103.8257043321407
 30
0.0
 10
114.2485497018096
 20
103.0773898157191
 30
0.0
 10
114.0556975223628
 20
102.3330616428405
 30
0.0
 10
113.8979253954744
 20
101.8417230525492
 30
0.0
 10
113.8190361978559
 20
101.596043996866
 30
0.0
  0
LINE
  5
1CA
330
1F
100
AcDbEntity
  8
0
  6
Continuous
 62
     7
370
    25
100
AcDbLine
 10
104.1260900896
 20
101.5960439969
 30
0.0
 11
113.8190361979
 21
101.5960439969
 31
0.0
  0
LINE
  5
1CB
330
1F
100
AcDbEntity
  8
0
  6
Continuous
 62
     7
370
    25
100
AcDbLine
 10
115.1555758456
 20
112.9492804955
 30
0.0
 11
115.1555758456
 21
107.2428074983
 31
0.0
  0
ARC
  5
1CC
330
1F
100
AcDbEntity
  8
0
  6
Continuous
 62
     7
370
    25
100
AcDbCircle
 10
115.0932799813
 20
105.8635054079
 30
0.0
 40
1.38070816295671
100
AcDbArc
 50
87.4140065821
 51
115.1700210283
  0
ARC
  5
1CD
330
1F
100
AcDbEntity
  8
0
  6
Continuous
 62
     7
370
    25
100
AcDbCircle
 10
115.0932799813
 20
114.3285825859
 30
0.0
 40
1.380708162983779
100
AcDbArc
 50
244.829978972
 51
272.5859934176
  0
SPLINE
  5
1CE
330
1F
100
AcDbEntity
  8
0
  6
Continuous
 62
     7
370
    25
100
AcDbSpline
210
0.0
220
0.0
230
1.0
 70
     8
 71
     3
 72
    11
 73
     7
 74
     0
 42
0.00000001
 43
0.00000001
 40
0.0
 40
0.0
 40
0.0
 40
0.0
 40
0.2858113857234034
 40
0.5527245545213756
 40
0.8220275582229342
 40
1.0
 40
1.0
 40
1.0
 40
1.0
 10
115.1555758456003
 20
107.2428074982782
 30
0.0
 10
115.1516355441778
 20
106.9939379715674
 30
0.0
 10
115.1440154791376
 20
106.5126544917753
 30
0.0
 10
115.1325543894867
 20
105.8360798640463
 30
0.0
 10
115.1499917787283
 20
105.2760512780299
 30
0.0
 10
115.1539863799876
 20
104.9489860819508
 30
0.0
 10
115.1555758456003
 20
104.8188457128451
 30
0.0
  0
SPLINE
  5
1CF
330
1F
100
AcDbEntity
  8
0
  6
Continuous
 62
     7
370
    25
100
AcDbSpline
210
0.0
220
0.0
230
1.0
 70
     8
 71
     3
 72
    11
 73
     7
 74
     0
 42
0.00000001
 43
0.00000001
 40
0.0
 40
0.0
 40
0.0
 40
0.0
 40
0.2858113857233996
 40
0.552724554521382
 40
0.8220275582229515
 40
1.0
 40
1.0
 40
1.0
 40
1.0
 10
115.1555758456003
 20
115.3732422808869
 30
0.0
 10
115.1516355441778
 20
115.162490685359
 30
0.0
 10
115.1440154791376
 20
114.7549226612299
 30
0.0
 10
115.1325543894867
 20
114.0947017997008
 30
0.0
 10
115.1499917787283
 20
113.4956180355943
 30
0.0
 10
115.1539863799876
 20
113.1047916583624
 30
0.0
 10
115.1555758456003
 20
112.9492804954538
 30
0.0
  0
LINE
  5
1D0
330
1F
100
AcDbEntity
  8
0
  6
Continuous
 62
     7
370
    25
100
AcDbLine
 10
115.1555758456
 20
118.2264787795
 30
0.0
 11
115.1555758456
 21
115.3732422809
 31
0.0
  0
LINE
  5
1D1
330
1F
100
AcDbEntity
  8
0
  6
Continuous
 62
     7
370
    25
100
AcDbLine
 10
115.1555758456
 20
104.8188457128
 30
0.0
 11
115.1555758456
 21
101.9656092143
 31
0.0
  0
LINE
  5
1D2
330
1F
100
AcDbEntity
  8
0
  6
Continuous
 62
     7
370
    25
100
AcDbLine
 10
116.0225631437
 20
101.8460439969
 30
0.0
 11
116.0225631437
 21
118.3460439969
 31
0.0
  0
LINE
  5
1D3
330
1F
100
AcDbEntity
  8
0
  6
Continuous
 62
     7
370
    25
100
AcDbLine
 10
116.2225631437
 20
118.1460439969
 30
0.0
 11
116.2225631437
 21
102.0460439969
 31
0.0
  0
ARC
  5
1D4
330
1F
100
AcDbEntity
  8
0
  6
Continuous
 62
     7
370
    25
100
AcDbCircle
 10
115.1137687461
 20
103.9327403694
 30
0.0
 40
0.8870910400404467
100
AcDbArc
 50
87.298746295
 51
133.2404470551
  0
ARC
  5
1D5
330
1F
100
AcDbEntity
  8
0
  6
Continuous
 62
     7
370
    25
100
AcDbCircle
 10
115.1137687461
 20
116.2593476244
 30
0.0
 40
0.8870910400314116
100
AcDbArc
 50
226.7595529446
 51
272.7012537053
  0
ARC
  5
1D6
330
1F
100
AcDbEntity
  8
0
  6
Continuous
 62
     7
370
    25
100
AcDbCircle
 10
115.1535397108
 20
101.2136330987
 30
0.0
 40
0.7519788721912334
100
AcDbArc
 50
89.8448599075
 51
149.433409991
  0
LINE
  5
1D7
330
1F
100
AcDbEntity
  8
0
  6
Continuous
 62
     7
370
    25
100
AcDbLine
 10
114.5060567928
 20
101.5960439969
 30
0.0
 11
114.5060567928
 21
104.5789730636
 31
0.0
  0
SPLINE
  5
1D8
330
1F
100
AcDbEntity
  8
0
  6
Continuous
 62
     7
370
    25
100
AcDbSpline
210
0.0
220
0.0
230
1.0
 70
    24
 71
     3
 72
    10
 73
     6
 74
     0
 42
0.00000001
 43
0.00000001
 40
0.0
 40
0.0
 40
0.0
 40
0.0
 40
0.3273333707077125
 40
0.6629523133412114
 40
1.0
 40
1.0
 40
1.0
 40
1.0
 10
113.8190361978559
 20
101.596043996866
 30
0.0
 10
113.9203538239522
 20
101.596043996866
 30
0.0
 10
114.125553661835
 20
101.596043996866
 30
0.0
 10
114.3641190839578
 20
101.5960439968659
 30
0.0
 10
114.4586772759558
 20
101.5960439968659
 30
0.0
 10
114.506056792762
 20
101.5960439968659
 30
0.0
  0
LINE
  5
1D9
330
1F
100
AcDbEntity
  8
0
  6
Continuous
 62
     7
370
    25
100
AcDbLine
 10
114.5060567928
 20
115.6131149302
 30
0.0
 11
114.5060567928
 21
118.5960439969
 31
0.0
  0
ARC
  5
1DA
330
1F
100
AcDbEntity
  8
0
  6
Continuous
 62
     7
370
    25
100
AcDbCircle
 10
115.1535397108
 20
118.978454895
 30
0.0
 40
0.7519788722000023
100
AcDbArc
 50
210.5665900094
 51
270.1551400921
  0
SPLINE
  5
1DB
330
1F
100
AcDbEntity
  8
0
  6
Continuous
 62
     7
370
    25
100
AcDbSpline
210
0.0
220
0.0
230
1.0
 70
    24
 71
     3
 72
    10
 73
     6
 74
     0
 42
0.00000001
 43
0.00000001
 40
0.0
 40
0.0
 40
0.0
 40
0.0
 40
0.3355445600395944
 40
0.6726666839999046
 40
1.0
 40
1.0
 40
1.0
 40
1.0
 10
114.506056792762
 20
118.596043996866
 30
0.0
 10
114.4589225767776
 20
118.596043996866
 30
0.0
 10
114.3644325431277
 20
118.596043996866
 30
0.0
 10
114.1260167651123
 20
118.596043996866
 30
0.0
 10
113.9203531027146
 20
118.596043996866
 30
0.0
 10
113.8190361978559
 20
118.596043996866
 30
0.0
  0
SPLINE
  5
1DC
330
1F
100
AcDbEntity
  8
0
  6
Continuous
 62
     7
370
    25
100
AcDbSpline
210
0.0
220
0.0
230
1.0
 70
    24
 71
     3
 72
     9
 73
     5
 74
     0
 42
0.00000001
 43
0.00000001
 40
0.0
 40
0.0
 40
0.0
 40
0.0
 40
0.8578383827392707
 40
1.0
 40
1.0
 40
1.0
 40
1.0
 10
114.506056792762
 20
101.5960439968659
 30
0.0
 10
114.5474032521269
 20
101.5960439968659
 30
0.0
 10
114.5956016776075
 20
101.5960439968659
 30
0.0
 10
114.5726351494179
 20
101.5960439968659
 30
0.0
 10
114.5693701906276
 20
101.5960439968659
 30
0.0
  0
SPLINE
  5
1DD
330
1F
100
AcDbEntity
  8
0
  6
Continuous
 62
     7
370
    25
100
AcDbSpline
210
0.0
220
0.0
230
1.0
 70
    24
 71
     3
 72
     9
 73
     5
 74
     0
 42
0.00000001
 43
0.00000001
 40
0.0
 40
0.0
 40
0.0
 40
0.0
 40
0.007707677617017
 40
1.0
 40
1.0
 40
1.0
 40
1.0
 10
114.5774150235296
 20
118.5960439968659
 30
0.0
 10
114.5775492014954
 20
118.5960439968659
 30
0.0
 10
114.5949575535904
 20
118.5960439968659
 30
0.0
 10
114.5503352058407
 20
118.5960439968659
 30
0.0
 10
114.506056792762
 20
118.596043996866
 30
0.0
  0
CIRCLE
  5
1DE
330
1F
100
AcDbEntity
  8
0
  6
Continuous
 62
     7
370
    25
100
AcDbCircle
 10
91.537145706
 20
110.0960439969
 30
0.0
 40
5.249999999999986
  0
CIRCLE
  5
1DF
330
1F
100
AcDbEntity
  8
0
  6
Continuous
 62
     7
370
    25
100
AcDbCircle
 10
91.537145706
 20
110.0960439969
 30
0.0
 40
6.456292496656189
  0
CIRCLE
  5
1E0
330
1F
100
AcDbEntity
  8
0
  6
Continuous
 62
     7
370
    25
100
AcDbCircle
 10
91.537145706
 20
110.0960439969
 30
0.0
 40
4.724999999999994
  0
CIRCLE
  5
1E1
330
1F
100
AcDbEntity
  8
0
  6
Continuous
 62
     7
370
    25
100
AcDbCircle
 10
91.537145706
 20
110.0960439969
 30
0.0
 40
4.751794919243096
  0
CIRCLE
  5
1E2
330
1F
100
AcDbEntity
  8
0
  6
Continuous
 62
     7
370
    25
100
AcDbCircle
 10
91.537145706
 20
110.0960439969
 30
0.0
 40
4.698205080756878
  0
CIRCLE
  5
1E3
330
1F
100
AcDbEntity
  8
0
  6
Continuous
 62
     7
370
    25
100
AcDbCircle
 10
91.537145706
 20
110.0960439969
 30
0.0
 40
4.199999999999989
  0
CIRCLE
  5
1E4
330
1F
100
AcDbEntity
  8
0
  6
Continuous
 62
     7
370
    25
100
AcDbCircle
 10
91.537145706
 20
110.0960439969
 30
0.0
 40
3.999999999999986
  0
CIRCLE
  5
1E5
330
1F
100
AcDbEntity
  8
0
  6
Continuous
 62
     7
370
    25
100
AcDbCircle
 10
91.537145706
 20
110.0960439969
 30
0.0
 40
6.765992005947226
  0
LINE
  5
1E6
330
1F
100
AcDbEntity
  8
0
  6
Continuous
 62
     7
370
    25
100
AcDbLine
 10
101.537145706
 20
116.6745439969
 30
0.0
 11
101.537145706
 21
103.5175439969
 31
0.0
  0
LINE
  5
1E7
330
1F
100
AcDbEntity
  8
0
  6
Continuous
 62
     7
370
    25
100
AcDbLine
 10
86.787145706
 20
115.8460439969
 30
0.0
 11
86.787145706
 21
116.0960439969
 31
0.0
  0
LINE
  5
1E8
330
1F
100
AcDbEntity
  8
0
  6
Continuous
 62
     7
370
    25
100
AcDbLine
 10
86.787145706
 20
116.0960439969
 30
0.0
 11
88.4100627483
 21
116.0960439969
 31
0.0
  0
LINE
  5
1E9
330
1F
100
AcDbEntity
  8
0
  6
Continuous
 62
     7
370
    25
100
AcDbLine
 10
94.6642286637
 20
116.0960439969
 30
0.0
 11
96.287145706
 21
116.0960439969
 31
0.0
  0
ARC
  5
1EA
330
1F
100
AcDbEntity
  8
0
  6
Continuous
 62
     7
370
    25
100
AcDbCircle
 10
96.287145706
 20
115.8460439969
 30
0.0
 40
0.25
100
AcDbArc
 50
0.0
 51
90.0
  0
LINE
  5
1EB
330
1F
100
AcDbEntity
  8
0
  6
Continuous
 62
     7
370
    25
100
AcDbLine
 10
96.537145706
 20
114.6544042091
 30
0.0
 11
96.537145706
 21
115.8460439969
 31
0.0
  0
LINE
  5
1EC
330
1F
100
AcDbEntity
  8
0
  6
Continuous
 62
     7
370
    25
100
AcDbLine
 10
88.4100627483
 20
104.0960439969
 30
0.0
 11
86.787145706
 21
104.0960439969
 31
0.0
  0
LINE
  5
1ED
330
1F
100
AcDbEntity
  8
0
  6
Continuous
 62
     7
370
    25
100
AcDbLine
 10
86.787145706
 20
104.0960439969
 30
0.0
 11
86.787145706
 21
104.3460439969
 31
0.0
  0
LINE
  5
1EE
330
1F
100
AcDbEntity
  8
0
  6
Continuous
 62
     7
370
    25
100
AcDbLine
 10
96.287145706
 20
104.0960439969
 30
0.0
 11
94.6642286637
 21
104.0960439969
 31
0.0
  0
LINE
  5
1EF
330
1F
100
AcDbEntity
  8
0
  6
Continuous
 62
     7
370
    25
100
AcDbLine
 10
96.287145706
 20
104.0960439969
 30
0.0
 11
96.287145706
 21
104.3460439969
 31
0.0
  0
ARC
  5
1F0
330
1F
100
AcDbEntity
  8
0
  6
Continuous
 62
     7
370
    25
100
AcDbCircle
 10
86.787145706
 20
115.8460439969
 30
0.0
 40
0.25
100
AcDbArc
 50
90.0
 51
180.0
  0
LINE
  5
1F1
330
1F
100
AcDbEntity
  8
0
  6
Continuous
 62
     7
370
    25
100
AcDbLine
 10
86.537145706
 20
115.8460439969
 30
0.0
 11
86.787145706
 21
115.8460439969
 31
0.0
  0
LINE
  5
1F2
330
1F
100
AcDbEntity
  8
0
  6
Continuous
 62
     7
370
    25
100
AcDbLine
 10
86.537145706
 20
114.6544042091
 30
0.0
 11
86.537145706
 21
115.8460439969
 31
0.0
  0
LINE
  5
1F3
330
1F
100
AcDbEntity
  8
0
  6
Continuous
 62
     7
370
    25
100
AcDbLine
 10
86.537145706
 20
104.3460439969
 30
0.0
 11
86.537145706
 21
105.5376837846
 31
0.0
  0
LINE
  5
1F4
330
1F
100
AcDbEntity
  8
0
  6
Continuous
 62
     7
370
    25
100
AcDbLine
 10
86.537145706
 20
104.3460439969
 30
0.0
 11
86.787145706
 21
104.3460439969
 31
0.0
  0
LINE
  5
1F5
330
1F
100
AcDbEntity
  8
0
  6
Continuous
 62
     7
370
    25
100
AcDbLine
 10
96.537145706
 20
105.5376837846
 30
0.0
 11
96.537145706
 21
104.3460439969
 31
0.0
  0
LINE
  5
1F6
330
1F
100
AcDbEntity
  8
0
  6
Continuous
 62
     7
370
    25
100
AcDbLine
 10
96.537145706
 20
104.3460439969
 30
0.0
 11
96.287145706
 21
104.3460439969
 31
0.0
  0
ARC
  5
1F7
330
1F
100
AcDbEntity
  8
0
  6
Continuous
 62
     7
370
    25
100
AcDbCircle
 10
96.287145706
 20
104.3460439969
 30
0.0
 40
0.25
100
AcDbArc
 50
270.0
 51
0.0
  0
ARC
  5
1F8
330
1F
100
AcDbEntity
  8
0
  6
Continuous
 62
     7
370
    25
100
AcDbCircle
 10
86.787145706
 20
104.3460439969
 30
0.0
 40
0.25
100
AcDbArc
 50
180.0
 51
270.0
  0
LINE
  5
1F9
330
1F
100
AcDbEntity
  8
0
  6
Continuous
 62
     7
370
    25
100
AcDbLine
 10
97.537145706
 20
116.0960439969
 30
0.0
 11
97.537145706
 21
115.8460439969
 31
0.0
  0
LINE
  5
1FA
330
1F
100
AcDbEntity
  8
0
  6
Continuous
 62
     7
370
    25
100
AcDbLine
 10
97.537145706
 20
115.8460439969
 30
0.0
 11
96.537145706
 21
115.8460439969
 31
0.0
  0
LINE
  5
1FB
330
1F
100
AcDbEntity
  8
0
  6
Continuous
 62
     7
370
    25
100
AcDbLine
 10
96.287145706
 20
116.0960439969
 30
0.0
 11
97.537145706
 21
116.0960439969
 31
0.0
  0
LINE
  5
1FC
330
1F
100
AcDbEntity
  8
0
  6
Continuous
 62
     7
370
    25
100
AcDbLine
 10
97.537145706
 20
113.4872089884
 30
0.0
 11
97.537145706
 21
115.8460439969
 31
0.0
  0
SPLINE
  5
1FD
330
1F
100
AcDbEntity
  8
0
  6
Continuous
 62
     7
370
    25
100
AcDbSpline
210
0.0
220
0.0
230
1.0
 70
     8
 71
     3
 72
    22
 73
    18
 74
     0
 42
0.00000001
 43
0.00000001
 40
0.0
 40
0.0
 40
0.0
 40
0.0
 40
0.0625
 40
0.0625
 40
0.125
 40
0.125
 40
0.1875
 40
0.1875
 40
0.25
 40
0.25
 40
0.3125
 40
0.3125
 40
0.375
 40
0.375
 40
0.4375
 40
0.4375
 40
0.5
 40
0.5
 40
0.5
 40
0.5
 10
99.53714570599071
 20
116.0960439968659
 30
0.0
 10
99.53713908351705
 20
116.0960439970053
 30
0.0
 10
99.52445233209033
 20
116.0949453949321
 30
0.0
 10
99.47371861129704
 20
116.0910411738046
 30
0.0
 10
99.43756430368045
 20
116.0883897526152
 30
0.0
 10
99.34383388233215
 20
116.0828709348394
 30
0.0
 10
99.28971618039164
 20
116.0802205393613
 30
0.0
 10
99.16725866294554
 20
116.0763202936262
 30
0.0
 10
99.10327283441637
 20
116.0752172132956
 30
0.0
 10
98.97101859021835
 20
116.0752282208773
 30
0.0
 10
98.90688324688072
 20
116.0763239547227
 30
0.0
 10
98.78472475709546
 20
116.0802168775158
 30
0.0
 10
98.73044817216204
 20
116.0828703821699
 30
0.0
 10
98.63673648377033
 20
116.0883903042379
 30
0.0
 10
98.60056055781446
 20
116.0910410118758
 30
0.0
 10
98.54985133244334
 20
116.0949455561168
 30
0.0
 10
98.53714571148772
 20
116.0960439968659
 30
0.0
 10
98.53714570600754
 20
116.0960439968659
 30
0.0
  0
SPLINE
  5
1FE
330
1F
100
AcDbEntity
  8
0
  6
Continuous
 62
     7
370
    25
100
AcDbSpline
210
0.0
220
0.0
230
1.0
 70
    24
 71
     3
 72
    14
 73
    10
 74
     0
 42
0.00000001
 43
0.00000001
 40
0.0
 40
0.0
 40
0.0
 40
0.0
 40
0.25
 40
0.25
 40
0.5
 40
0.5
 40
0.75
 40
0.75
 40
1.0
 40
1.0
 40
1.0
 40
1.0
 10
98.28714570600754
 20
116.0960439968659
 30
0.0
 10
98.28714570600754
 20
116.0960439968659
 30
0.0
 10
98.28714570600754
 20
116.0861990831284
 30
0.0
 10
98.28714570600754
 20
116.0467069768193
 30
0.0
 10
98.28714570600754
 20
116.017059337644
 30
0.0
 10
98.28714570600754
 20
115.9376302004404
 30
0.0
 10
98.28714570600754
 20
115.8878477763711
 30
0.0
 10
98.28714570600754
 20
115.7676187900365
 30
0.0
 10
98.28714570600754
 20
115.6971707574293
 30
0.0
 10
98.28714570600754
 20
115.616043996866
 30
0.0
  0
SPLINE
  5
1FF
330
1F
100
AcDbEntity
  8
0
  6
Continuous
 62
     7
370
    25
100
AcDbSpline
210
0.0
220
0.0
230
1.0
 70
    24
 71
     3
 72
    14
 73
    10
 74
     0
 42
0.00000001
 43
0.00000001
 40
0.0
 40
0.0
 40
0.0
 40
0.0
 40
0.25
 40
0.25
 40
0.5
 40
0.5
 40
0.75
 40
0.75
 40
1.0
 40
1.0
 40
1.0
 40
1.0
 10
98.28714570600754
 20
104.0960439968659
 30
0.0
 10
98.28714570600754
 20
104.0960439968659
 30
0.0
 10
98.28714570600754
 20
104.1058889106035
 30
0.0
 10
98.28714570600754
 20
104.1453810169126
 30
0.0
 10
98.28714570600754
 20
104.1750286560879
 30
0.0
 10
98.28714570600754
 20
104.2544577932915
 30
0.0
 10
98.28714570600754
 20
104.3042402173608
 30
0.0
 10
98.28714570600754
 20
104.4244692036954
 30
0.0
 10
98.28714570600754
 20
104.4949172363026
 30
0.0
 10
98.28714570600754
 20
104.5760439968659
 30
0.0
  0
LINE
  5
200
330
1F
100
AcDbEntity
  8
0
  6
Continuous
 62
     7
370
    25
100
AcDbLine
 10
98.287145706
 20
106.1965055626
 30
0.0
 11
98.287145706
 21
104.5760439969
 31
0.0
  0
SPLINE
  5
201
330
1F
100
AcDbEntity
  8
0
  6
Continuous
 62
     7
370
    25
100
AcDbSpline
210
0.0
220
0.0
230
1.0
 70
     8
 71
     3
 72
    14
 73
    10
 74
     0
 42
0.00000001
 43
0.00000001
 40
0.0
 40
0.0
 40
0.0
 40
0.0
 40
0.25
 40
0.25
 40
0.5
 40
0.5
 40
0.75
 40
0.75
 40
1.0
 40
1.0
 40
1.0
 40
1.0
 10
98.28714570600754
 20
106.1965055626407
 30
0.0
 10
98.28714570600754
 20
106.2621694303593
 30
0.0
 10
98.27719239945502
 20
106.3278942706673
 30
0.0
 10
98.23882078363901
 20
106.4594020702234
 30
0.0
 10
98.21028185166585
 20
106.5250331550631
 30
0.0
 10
98.13309430438575
 20
106.648693066949
 30
0.0
 10
98.08366561919782
 20
106.7085837129038
 30
0.0
 10
97.95615713202076
 20
106.8046963883208
 30
0.0
 10
97.87454092196663
 20
106.8405256049658
 30
0.0
 10
97.78714570600754
 20
106.8405256049658
 30
0.0
  0
LINE
  5
202
330
1F
100
AcDbEntity
  8
0
  6
Continuous
 62
     7
370
    25
100
AcDbLine
 10
97.537145706
 20
106.840525605
 30
0.0
 11
97.787145706
 21
106.840525605
 31
0.0
  0
LINE
  5
203
330
1F
100
AcDbEntity
  8
0
  6
Continuous
 62
     7
370
    25
100
AcDbLine
 10
97.787145706
 20
113.3515623888
 30
0.0
 11
97.537145706
 21
113.3515623888
 31
0.0
  0
SPLINE
  5
204
330
1F
100
AcDbEntity
  8
0
  6
Continuous
 62
     7
370
    25
100
AcDbSpline
210
0.0
220
0.0
230
1.0
 70
     8
 71
     3
 72
    14
 73
    10
 74
     0
 42
0.00000001
 43
0.00000001
 40
0.0
 40
0.0
 40
0.0
 40
0.0
 40
0.25
 40
0.25
 40
0.5
 40
0.5
 40
0.75
 40
0.75
 40
1.0
 40
1.0
 40
1.0
 40
1.0
 10
97.78714570600754
 20
113.3515623887661
 30
0.0
 10
97.87446373501393
 20
113.3515623887661
 30
0.0
 10
97.95609184283552
 20
113.3873346916393
 30
0.0
 10
98.08379296096898
 20
113.4836079720138
 30
0.0
 10
98.13318375379454
 20
113.5434768026326
 30
0.0
 10
98.21054242135256
 20
113.6675339967001
 30
0.0
 10
98.23911123092444
 20
113.7335255220499
 30
0.0
 10
98.27717859989154
 20
113.8643033911624
 30
0.0
 10
98.28714570600754
 20
113.9298633944391
 30
0.0
 10
98.28714570600754
 20
113.9955824310912
 30
0.0
  0
LINE
  5
205
330
1F
100
AcDbEntity
  8
0
  6
Continuous
 62
     7
370
    25
100
AcDbLine
 10
98.287145706
 20
115.6160439969
 30
0.0
 11
98.287145706
 21
113.9955824311
 31
0.0
  0
LINE
  5
206
330
1F
100
AcDbEntity
  8
0
  6
Continuous
 62
     7
370
    25
100
AcDbLine
 10
96.537145706
 20
104.3460439969
 30
0.0
 11
97.537145706
 21
104.3460439969
 31
0.0
  0
LINE
  5
207
330
1F
100
AcDbEntity
  8
0
  6
Continuous
 62
     7
370
    25
100
AcDbLine
 10
97.537145706
 20
104.3460439969
 30
0.0
 11
97.537145706
 21
106.7048790053
 31
0.0
  0
LINE
  5
208
330
1F
100
AcDbEntity
  8
0
  6
Continuous
 62
     7
370
    25
100
AcDbLine
 10
97.537145706
 20
104.3460439969
 30
0.0
 11
97.537145706
 21
104.0960439969
 31
0.0
  0
LINE
  5
209
330
1F
100
AcDbEntity
  8
0
  6
Continuous
 62
     7
370
    25
100
AcDbLine
 10
97.537145706
 20
104.0960439969
 30
0.0
 11
96.287145706
 21
104.0960439969
 31
0.0
  0
LINE
  5
20A
330
1F
100
AcDbEntity
  8
0
  6
Continuous
 62
     7
370
    25
100
AcDbLine
 10
97.537145706
 20
113.4872089884
 30
0.0
 11
97.537145706
 21
113.3515623888
 31
0.0
  0
LINE
  5
20B
330
1F
100
AcDbEntity
  8
0
  6
Continuous
 62
     7
370
    25
100
AcDbLine
 10
97.537145706
 20
106.840525605
 30
0.0
 11
97.537145706
 21
106.7048790053
 31
0.0
  0
SPLINE
  5
20C
330
1F
100
AcDbEntity
  8
0
  6
Continuous
 62
     7
370
    25
100
AcDbSpline
210
0.0
220
0.0
230
1.0
 70
     8
 71
     3
 72
    14
 73
    10
 74
     0
 42
0.00000001
 43
0.00000001
 40
0.0
 40
0.0
 40
0.0
 40
0.0
 40
0.4999999999999984
 40
0.4999999999999984
 40
0.7499999999999981
 40
0.7499999999999981
 40
0.874999999999999
 40
0.874999999999999
 40
1.0
 40
1.0
 40
1.0
 40
1.0
 10
98.03714570600754
 20
114.1580631991839
 30
0.0
 10
98.03714570600754
 20
114.035390148556
 30
0.0
 10
98.02224203917368
 20
113.9119241195312
 30
0.0
 10
97.97448328559206
 20
113.7299272620486
 30
0.0
 10
97.95441326513874
 20
113.6695336163375
 30
0.0
 10
97.91079416127265
 20
113.5845228672039
 30
0.0
 10
97.89385474667628
 20
113.5567225181707
 30
0.0
 10
97.85040045008844
 20
113.5090086139107
 30
0.0
 10
97.82116739376285
 20
113.4872089884286
 30
0.0
 10
97.78714570600754
 20
113.4872089884286
 30
0.0
  0
LWPOLYLINE
  5
20D
330
1F
100
AcDbEntity
  8
0
  6
Continuous
 62
     7
370
    25
100
AcDbPolyline
 90
        9
 70
   128
 43
0.0
 10
98.037145706
 20
114.1580631992
 10
98.0419493859
 20
114.1263647738
 10
98.0561758229
 20
114.0958845012
 10
98.0792783029
 20
114.067793721
 10
98.1103690107
 20
114.0431719463
 10
98.1482531478
 20
114.0229653779
 10
98.1914748479
 20
114.0079505431
 10
98.2383731255
 20
113.9987044535
 10
98.287145706
 20
113.9955824311
  0
LINE
  5
20E
330
1F
100
AcDbEntity
  8
0
  6
Continuous
 62
     7
370
    25
100
AcDbLine
 10
97.787145706
 20
113.4872089884
 30
0.0
 11
97.787145706
 21
113.3515623888
 31
0.0
  0
LWPOLYLINE
  5
20F
330
1F
100
AcDbEntity
  8
0
  6
Continuous
 62
     7
370
    25
100
AcDbPolyline
 90
        9
 70
   128
 43
0.0
 10
98.287145706
 20
106.1965055626
 10
98.2383731255
 20
106.1933835402
 10
98.1914748479
 20
106.1841374506
 10
98.1482531478
 20
106.1691226158
 10
98.1103690107
 20
106.1489160475
 10
98.0792783029
 20
106.1242942727
 10
98.0561758229
 20
106.0962034926
 10
98.0419493859
 20
106.0657232199
 10
98.037145706
 20
106.0340247945
  0
SPLINE
  5
210
330
1F
100
AcDbEntity
  8
0
  6
Continuous
 62
     7
370
    25
100
AcDbSpline
210
0.0
220
0.0
230
1.0
 70
     8
 71
     3
 72
    14
 73
    10
 74
     0
 42
0.00000001
 43
0.00000001
 40
0.0
 40
0.0
 40
0.0
 40
0.0
 40
0.1250000000000003
 40
0.1250000000000003
 40
0.2500000000000006
 40
0.2500000000000006
 40
0.5000000000000008
 40
0.5000000000000008
 40
1.0
 40
1.0
 40
1.0
 40
1.0
 10
97.78714570600754
 20
106.7048790053033
 30
0.0
 10
97.82124925630433
 20
106.7048790053033
 30
0.0
 10
97.85034969856329
 20
106.6831281403439
 30
0.0
 10
97.8938601211164
 20
106.6353665329968
 30
0.0
 10
97.91079670670253
 20
106.6075562436469
 30
0.0
 10
97.95436493289822
 20
106.5226564119139
 30
0.0
 10
97.97446940358319
 20
106.4621847738006
 30
0.0
 10
98.0221593282068
 20
106.2805366827492
 30
0.0
 10
98.03714570600755
 20
106.1566621044609
 30
0.0
 10
98.03714570600755
 20
106.034024794548
 30
0.0
  0
LINE
  5
211
330
1F
100
AcDbEntity
  8
0
  6
Continuous
 62
     7
370
    25
100
AcDbLine
 10
97.787145706
 20
106.840525605
 30
0.0
 11
97.787145706
 21
106.7048790053
 31
0.0
  0
LINE
  5
212
330
1F
100
AcDbEntity
  8
0
  6
Continuous
 62
     7
370
    25
100
AcDbLine
 10
97.537145706
 20
113.4872089884
 30
0.0
 11
97.787145706
 21
113.4872089884
 31
0.0
  0
LINE
  5
213
330
1F
100
AcDbEntity
  8
0
  6
Continuous
 62
     7
370
    25
100
AcDbLine
 10
97.787145706
 20
106.7048790053
 30
0.0
 11
97.537145706
 21
106.7048790053
 31
0.0
  0
LINE
  5
214
330
1F
100
AcDbEntity
  8
0
  6
Continuous
 62
     7
370
    25
100
AcDbLine
 10
97.787145706
 20
116.0960439969
 30
0.0
 11
97.787145706
 21
115.8460439969
 31
0.0
  0
LINE
  5
215
330
1F
100
AcDbEntity
  8
0
  6
Continuous
 62
     7
370
    25
100
AcDbLine
 10
97.787145706
 20
115.8460439969
 30
0.0
 11
97.537145706
 21
115.8460439969
 31
0.0
  0
LINE
  5
216
330
1F
100
AcDbEntity
  8
0
  6
Continuous
 62
     7
370
    25
100
AcDbLine
 10
97.537145706
 20
116.0960439969
 30
0.0
 11
97.787145706
 21
116.0960439969
 31
0.0
  0
ARC
  5
217
330
1F
100
AcDbEntity
  8
0
  6
Continuous
 62
     7
370
    25
100
AcDbCircle
 10
97.787145706
 20
115.8460439969
 30
0.0
 40
0.25
100
AcDbArc
 50
0.0
 51
90.0
  0
LINE
  5
218
330
1F
100
AcDbEntity
  8
0
  6
Continuous
 62
     7
370
    25
100
AcDbLine
 10
97.787145706
 20
115.8460439969
 30
0.0
 11
98.037145706
 21
115.8460439969
 31
0.0
  0
LINE
  5
219
330
1F
100
AcDbEntity
  8
0
  6
Continuous
 62
     7
370
    25
100
AcDbLine
 10
97.787145706
 20
113.4872089884
 30
0.0
 11
97.787145706
 21
115.8460439969
 31
0.0
  0
LINE
  5
21A
330
1F
100
AcDbEntity
  8
0
  6
Continuous
 62
     7
370
    25
100
AcDbLine
 10
98.037145706
 20
115.8460439969
 30
0.0
 11
98.037145706
 21
114.1580631992
 31
0.0
  0
LINE
  5
21B
330
1F
100
AcDbEntity
  8
0
  6
Continuous
 62
     7
370
    25
100
AcDbLine
 10
98.037145706
 20
106.0340247945
 30
0.0
 11
98.037145706
 21
104.3460439969
 31
0.0
  0
LINE
  5
21C
330
1F
100
AcDbEntity
  8
0
  6
Continuous
 62
     7
370
    25
100
AcDbLine
 10
98.037145706
 20
104.3460439969
 30
0.0
 11
97.787145706
 21
104.3460439969
 31
0.0
  0
LINE
  5
21D
330
1F
100
AcDbEntity
  8
0
  6
Continuous
 62
     7
370
    25
100
AcDbLine
 10
97.787145706
 20
104.3460439969
 30
0.0
 11
97.787145706
 21
106.7048790053
 31
0.0
  0
LINE
  5
21E
330
1F
100
AcDbEntity
  8
0
  6
Continuous
 62
     7
370
    25
100
AcDbLine
 10
97.537145706
 20
104.3460439969
 30
0.0
 11
97.787145706
 21
104.3460439969
 31
0.0
  0
ARC
  5
21F
330
1F
100
AcDbEntity
  8
0
  6
Continuous
 62
     7
370
    25
100
AcDbCircle
 10
97.787145706
 20
104.3460439969
 30
0.0
 40
0.25
100
AcDbArc
 50
270.0
 51
0.0
  0
LINE
  5
220
330
1F
100
AcDbEntity
  8
0
  6
Continuous
 62
     7
370
    25
100
AcDbLine
 10
97.787145706
 20
104.3460439969
 30
0.0
 11
97.787145706
 21
104.0960439969
 31
0.0
  0
LINE
  5
221
330
1F
100
AcDbEntity
  8
0
  6
Continuous
 62
     7
370
    25
100
AcDbLine
 10
97.787145706
 20
104.0960439969
 30
0.0
 11
97.537145706
 21
104.0960439969
 31
0.0
  0
SPLINE
  5
222
330
1F
100
AcDbEntity
  8
0
  6
Continuous
 62
     7
370
    25
100
AcDbSpline
210
0.0
220
0.0
230
1.0
 70
     8
 71
     3
 72
    12
 73
     8
 74
     0
 42
0.00000001
 43
0.00000001
 40
0.0
 40
0.0
 40
0.0
 40
0.0
 40
0.25
 40
0.25
 40
0.5
 40
0.5
 40
1.0
 40
1.0
 40
1.0
 40
1.0
 10
98.11036111026696
 20
115.6888317439716
 30
0.0
 10
98.09614748023333
 20
115.7026022173826
 30
0.0
 10
98.08344595648076
 20
115.7186662372338
 30
0.0
 10
98.06237852713832
 20
115.7520575414292
 30
0.0
 10
98.05401262154848
 20
115.7693848257733
 30
0.0
 10
98.0373854404238
 20
115.8182758329636
 30
0.0
 10
98.03714570600754
 20
115.8460439968659
 30
0.0
 10
98.03714570600754
 20
115.8460439968659
 30
0.0
  0
SPLINE
  5
223
330
1F
100
AcDbEntity
  8
0
  6
Continuous
 62
     7
370
    25
100
AcDbSpline
210
0.0
220
0.0
230
1.0
 70
     8
 71
     3
 72
    10
 73
     6
 74
     0
 42
0.00000001
 43
0.00000001
 40
0.0
 40
0.0
 40
0.0
 40
0.0
 40
0.5
 40
0.5
 40
1.0
 40
1.0
 40
1.0
 40
1.0
 10
98.11036111026696
 20
115.6888317439716
 30
0.0
 10
98.13878837033424
 20
115.6612907971495
 30
0.0
 10
98.17301500850111
 20
115.6416776632599
 30
0.0
 10
98.23603705403866
 20
115.6193687899715
 30
0.0
 10
98.26462277333064
 20
115.616043996866
 30
0.0
 10
98.28714570600754
 20
115.616043996866
 30
0.0
  0
SPLINE
  5
224
330
1F
100
AcDbEntity
  8
0
  6
Continuous
 62
     7
370
    25
100
AcDbSpline
210
0.0
220
0.0
230
1.0
 70
     8
 71
     3
 72
    10
 73
     6
 74
     0
 42
0.00000001
 43
0.00000001
 40
0.0
 40
0.0
 40
0.0
 40
0.0
 40
0.5
 40
0.5
 40
1.0
 40
1.0
 40
1.0
 40
1.0
 10
98.11036111026696
 20
104.5032562497603
 30
0.0
 10
98.13878837033424
 20
104.5307971965824
 30
0.0
 10
98.17301500850111
 20
104.550410330472
 30
0.0
 10
98.23603705403866
 20
104.5727192037604
 30
0.0
 10
98.26462277333064
 20
104.5760439968659
 30
0.0
 10
98.28714570600754
 20
104.5760439968659
 30
0.0
  0
SPLINE
  5
225
330
1F
100
AcDbEntity
  8
0
  6
Continuous
 62
     7
370
    25
100
AcDbSpline
210
0.0
220
0.0
230
1.0
 70
     8
 71
     3
 72
    12
 73
     8
 74
     0
 42
0.00000001
 43
0.00000001
 40
0.0
 40
0.0
 40
0.0
 40
0.0
 40
0.25
 40
0.25
 40
0.5
 40
0.5
 40
1.0
 40
1.0
 40
1.0
 40
1.0
 10
98.11036111026696
 20
104.5032562497603
 30
0.0
 10
98.09614748023333
 20
104.4894857763493
 30
0.0
 10
98.08344595648076
 20
104.4734217564981
 30
0.0
 10
98.06237852713832
 20
104.4400304523027
 30
0.0
 10
98.05401262154848
 20
104.4227031679586
 30
0.0
 10
98.0373854404238
 20
104.3738121607683
 30
0.0
 10
98.03714570600754
 20
104.3460439968659
 30
0.0
 10
98.03714570600754
 20
104.3460439968659
 30
0.0
  0
SPLINE
  5
226
330
1F
100
AcDbEntity
  8
0
  6
Continuous
 62
     7
370
    25
100
AcDbSpline
210
0.0
220
0.0
230
1.0
 70
     8
 71
     3
 72
    26
 73
    22
 74
     0
 42
0.00000001
 43
0.00000001
 40
0.0
 40
0.0
 40
0.0
 40
0.0
 40
0.2500000000000001
 40
0.2500000000000001
 40
0.5
 40
0.5
 40
0.625
 40
0.625
 40
0.6875
 40
0.6875
 40
0.71875
 40
0.71875
 40
0.75
 40
0.75
 40
0.7812500000000001
 40
0.7812500000000001
 40
0.8125000000000001
 40
0.8125000000000001
 40
0.8750000000000001
 40
0.8750000000000001
 40
1.0
 40
1.0
 40
1.0
 40
1.0
 10
94.6994233661759
 20
112.5455337396491
 30
0.0
 10
94.343504936526
 20
112.5082201196934
 30
0.0
 10
93.99171457749145
 20
112.4503677972731
 30
0.0
 10
93.29732820545559
 20
112.2875919208291
 30
0.0
 10
92.95486150615986
 20
112.1827550822174
 30
0.0
 10
92.44897968450996
 20
111.9787712772472
 30
0.0
 10
92.28188890082141
 20
111.9025138050753
 30
0.0
 10
92.03109049155579
 20
111.7768409411856
 30
0.0
 10
91.94790062007678
 20
111.7329853707245
 30
0.0
 10
91.82016244634701
 20
111.6687303341452
 30
0.0
 10
91.77718859937252
 20
111.647605382213
 30
0.0
 10
91.68798175528688
 20
111.6099441682652
 30
0.0
 10
91.64099675897843
 20
111.5928555019453
 30
0.0
 10
91.53994675629569
 20
111.5774521204871
 30
0.0
 10
91.48731942532487
 20
111.5817713264933
 30
0.0
 10
91.3895188959822
 20
111.6076287772485
 30
0.0
 10
91.34390733548408
 20
111.6270120933722
 30
0.0
 10
91.21187771036784
 20
111.6878076883811
 30
0.0
 10
91.12813885697426
 20
111.7329152565381
 30
0.0
 10
90.87577776834547
 20
111.8620216907448
 30
0.0
 10
90.70785813602427
 20
111.9421248630756
 30
0.0
 10
90.53714570600755
 20
112.0136827182188
 30
0.0
  0
SPLINE
  5
227
330
1F
100
AcDbEntity
  8
0
  6
Continuous
 62
     7
370
    25
100
AcDbSpline
210
0.0
220
0.0
230
1.0
 70
     8
 71
     3
 72
    26
 73
    22
 74
     0
 42
0.00000001
 43
0.00000001
 40
0.0
 40
0.0
 40
0.0
 40
0.0
 40
0.125
 40
0.125
 40
0.1875000000000001
 40
0.1875000000000001
 40
0.21875
 40
0.21875
 40
0.25
 40
0.25
 40
0.2812499999999999
 40
0.2812499999999999
 40
0.3124999999999999
 40
0.3124999999999999
 40
0.3749999999999998
 40
0.3749999999999998
 40
0.4999999999999998
 40
0.4999999999999998
 40
0.7499999999999999
 40
0.7499999999999999
 40
1.0
 40
1.0
 40
1.0
 40
1.0
 10
90.53714570600755
 20
108.1784052755131
 30
0.0
 10
90.70599562843068
 20
108.2491824197932
 30
0.0
 10
90.87204618457567
 20
108.3282480555123
 30
0.0
 10
91.1212713074696
 20
108.4556162564931
 30
0.0
 10
91.203989096631
 20
108.5000599331262
 30
0.0
 10
91.33437036964773
 20
108.5609344088101
 30
0.0
 10
91.37944978556432
 20
108.580499963279
 30
0.0
 10
91.474667595656
 20
108.6079895479592
 30
0.0
 10
91.52641222312032
 20
108.6145279874459
 30
0.0
 10
91.62690740248648
 20
108.6030295208849
 30
0.0
 10
91.67456526981198
 20
108.5870376785487
 30
0.0
 10
91.76485571671232
 20
108.5502704017692
 30
0.0
 10
91.80817118619957
 20
108.5292204136392
 30
0.0
 10
91.9359175035116
 20
108.4654075101304
 30
0.0
 10
92.01883212640502
 20
108.4215564383879
 30
0.0
 10
92.26896390369264
 20
108.29575223348
 30
0.0
 10
92.43717907716398
 20
108.2184512219226
 30
0.0
 10
92.94559307519725
 20
108.0123530609531
 30
0.0
 10
93.28981301818506
 20
107.9065341034829
 30
0.0
 10
93.98785946175101
 20
107.7423520204191
 30
0.0
 10
94.34154814729644
 20
107.6840730190464
 30
0.0
 10
94.69942336617541
 20
107.6465542540812
 30
0.0
  0
LINE
  5
228
330
1F
100
AcDbEntity
  8
0
  6
Continuous
 62
     7
370
    25
100
AcDbLine
 10
90.537145706
 20
108.1784052755
 30
0.0
 11
90.537145706
 21
112.0136827182
 31
0.0
  0
SPLINE
  5
229
330
1F
100
AcDbEntity
  8
0
  6
Continuous
 62
     7
370
    25
100
AcDbSpline
210
0.0
220
0.0
230
1.0
 70
    11
 71
     3
 72
    46
 73
    42
 74
     0
 42
0.00000001
 43
0.00000001
 40
0.0
 40
0.0
 40
0.0
 40
0.0
 40
0.0625
 40
0.0625
 40
0.125
 40
0.125
 40
0.1875000000000001
 40
0.1875000000000001
 40
0.2500000000000001
 40
0.2500000000000001
 40
0.3125000000000001
 40
0.3125000000000001
 40
0.3750000000000001
 40
0.3750000000000001
 40
0.4062500000000001
 40
0.4062500000000001
 40
0.4375
 40
0.4375
 40
0.4687499999999999
 40
0.4687499999999999
 40
0.4999999999999999
 40
0.4999999999999999
 40
0.5624999999999999
 40
0.5624999999999999
 40
0.6249999999999999
 40
0.6249999999999999
 40
0.6874999999999999
 40
0.6874999999999999
 40
0.7499999999999999
 40
0.7499999999999999
 40
0.8125
 40
0.8125
 40
0.875
 40
0.875
 40
0.90625
 40
0.90625
 40
0.9375
 40
0.9375
 40
0.96875
 40
0.96875
 40
1.0
 40
1.0
 40
1.0
 40
1.0
 10
91.24791711170626
 20
109.1793420164449
 30
0.0
 10
91.16920696005398
 20
109.2588923759203
 30
0.0
 10
91.1034695702327
 20
109.3477894458686
 30
0.0
 10
90.99083434586854
 20
109.5412456561704
 30
0.0
 10
90.94499960654531
 20
109.646636532054
 30
0.0
 10
90.88286916105334
 20
109.8640581848848
 30
0.0
 10
90.86581835352011
 20
109.9799426844481
 30
0.0
 10
90.86559216406347
 20
110.2097552959366
 30
0.0
 10
90.88196293215009
 20
110.3241204501545
 30
0.0
 10
90.94466892500651
 20
110.5450179577029
 30
0.0
 10
90.98984458486146
 20
110.6489746026402
 30
0.0
 10
91.10339622423547
 20
110.8443387848854
 30
0.0
 10
91.16939877601565
 20
110.9333095782876
 30
0.0
 10
91.28660780411401
 20
111.0518893430963
 30
0.0
 10
91.32900718500615
 20
111.0892708949118
 30
0.0
 10
91.4237999586061
 20
111.1503149471776
 30
0.0
 10
91.47925925583084
 20
111.1746921924741
 30
0.0
 10
91.59539011009795
 20
111.1745977656809
 30
0.0
 10
91.65081290664901
 20
111.1501444751993
 30
0.0
 10
91.7454421197906
 20
111.0891324951018
 30
0.0
 10
91.78769292362622
 20
111.0518620270206
 30
0.0
 10
91.9043623914605
 20
110.9338816893145
 30
0.0
 10
91.97130969503499
 20
110.8436186995961
 30
0.0
 10
92.08398794825428
 20
110.649771026062
 30
0.0
 10
92.12944864763935
 20
110.5453910530237
 30
0.0
 10
92.19210089129331
 20
110.325159955008
 30
0.0
 10
92.20861289480845
 20
110.2118490891016
 30
0.0
 10
92.2085605260243
 20
109.9796911439507
 30
0.0
 10
92.19206654328067
 20
109.8666640988563
 30
0.0
 10
92.12924099523684
 20
109.6461107694506
 30
0.0
 10
92.08385342722593
 20
109.5419953464012
 30
0.0
 10
91.97086608810278
 20
109.3477967874056
 30
0.0
 10
91.9041083488565
 20
109.2578406320829
 30
0.0
 10
91.78704058491509
 20
109.139621231111
 30
0.0
 10
91.74465564245784
 20
109.1023455940827
 30
0.0
 10
91.65024173218822
 20
109.0416795688651
 30
0.0
 10
91.594517638835
 20
109.0173275186547
 30
0.0
 10
91.47889149156022
 20
109.0175592492336
 30
0.0
 10
91.42354690363838
 20
109.0419106831149
 30
0.0
 10
91.32892824220184
 20
109.1028933491105
 30
0.0
 10
91.2872721875324
 20
109.1395668367073
 30
0.0
 10
91.24791711170626
 20
109.1793420164449
 30
0.0
  0
SPLINE
  5
22A
330
1F
100
AcDbEntity
  8
0
  6
Continuous
 62
     7
370
    25
100
AcDbSpline
210
0.0
220
0.0
230
1.0
 70
     8
 71
     3
 72
    12
 73
     8
 74
     0
 42
0.00000001
 43
0.00000001
 40
0.0
 40
0.0
 40
0.0
 40
0.0
 40
0.25
 40
0.25
 40
0.5
 40
0.5
 40
1.0
 40
1.0
 40
1.0
 40
1.0
 10
98.03915330629722
 20
116.0947507795374
 30
0.0
 10
98.0288898470081
 20
116.0947406221803
 30
0.0
 10
98.02131106721131
 20
116.0861841960688
 30
0.0
 10
98.00689761176224
 20
116.0648108398339
 30
0.0
 10
98.00006293610997
 20
116.0519939097104
 30
0.0
 10
97.97373718310952
 20
116.0264004135669
 30
0.0
 10
97.96407023174854
 20
116.0226728617182
 30
0.0
 10
97.96392240130339
 20
116.0228206921634
 30
0.0
  0
SPLINE
  5
22B
330
1F
100
AcDbEntity
  8
0
  6
Continuous
 62
     7
370
    25
100
AcDbSpline
210
0.0
220
0.0
230
1.0
 70
     8
 71
     3
 72
    10
 73
     6
 74
     0
 42
0.00000001
 43
0.00000001
 40
0.0
 40
0.0
 40
0.0
 40
0.0
 40
0.5
 40
0.5
 40
1.0
 40
1.0
 40
1.0
 40
1.0
 10
98.03915330629722
 20
116.0947507795374
 30
0.0
 10
97.99809946914068
 20
116.0947101501088
 30
0.0
 10
97.95402511682767
 20
116.0950687088656
 30
0.0
 10
97.86267384731573
 20
116.1000672634484
 30
0.0
 10
97.82992406581872
 20
116.0960439968659
 30
0.0
 10
97.78714570600754
 20
116.0960439968659
 30
0.0
  0
SPLINE
  5
22C
330
1F
100
AcDbEntity
  8
0
  6
Continuous
 62
     7
370
    25
100
AcDbSpline
210
0.0
220
0.0
230
1.0
 70
     8
 71
     3
 72
    14
 73
    10
 74
     0
 42
0.00000001
 43
0.00000001
 40
0.0
 40
0.0
 40
0.0
 40
0.0
 40
0.25
 40
0.25
 40
0.5
 40
0.5
 40
0.75
 40
0.75
 40
1.0
 40
1.0
 40
1.0
 40
1.0
 10
98.03915330629722
 20
116.0947507795374
 30
0.0
 10
98.04941676558637
 20
116.0947609368946
 30
0.0
 10
98.06408165601711
 20
116.0862265245015
 30
0.0
 10
98.09581703420064
 20
116.0501810363963
 30
0.0
 10
98.11288752195338
 20
116.0226699606841
 30
0.0
 10
98.14303682981966
 20
115.9467836221217
 30
0.0
 10
98.14886829996956
 20
115.9025466497202
 30
0.0
 10
98.142762176748
 20
115.8033075001016
 30
0.0
 10
98.13082458337654
 20
115.7483053228843
 30
0.0
 10
98.11036111026696
 20
115.6888317439716
 30
0.0
  0
SPLINE
  5
22D
330
1F
100
AcDbEntity
  8
0
  6
Continuous
 62
     7
370
    25
100
AcDbSpline
210
0.0
220
0.0
230
1.0
 70
     8
 71
     3
 72
    12
 73
     8
 74
     0
 42
0.00000001
 43
0.00000001
 40
0.0
 40
0.0
 40
0.0
 40
0.0
 40
0.25
 40
0.25
 40
0.5
 40
0.5
 40
1.0
 40
1.0
 40
1.0
 40
1.0
 10
98.03915330629722
 20
104.0973372141945
 30
0.0
 10
98.0288898470081
 20
104.0973473715516
 30
0.0
 10
98.02131106721131
 20
104.1059037976631
 30
0.0
 10
98.00689761176224
 20
104.127277153898
 30
0.0
 10
98.00006293610997
 20
104.1400940840215
 30
0.0
 10
97.97373718310952
 20
104.165687580165
 30
0.0
 10
97.96407023174854
 20
104.1694151320137
 30
0.0
 10
97.96392240130339
 20
104.1692673015685
 30
0.0
  0
SPLINE
  5
22E
330
1F
100
AcDbEntity
  8
0
  6
Continuous
 62
     7
370
    25
100
AcDbSpline
210
0.0
220
0.0
230
1.0
 70
     8
 71
     3
 72
    12
 73
     8
 74
     0
 42
0.00000001
 43
0.00000001
 40
0.0
 40
0.0
 40
0.0
 40
0.0
 40
0.25
 40
0.25
 40
0.5
 40
0.5
 40
1.0
 40
1.0
 40
1.0
 40
1.0
 10
98.03915330629722
 20
104.0973372141945
 30
0.0
 10
98.04941676558637
 20
104.0973270568373
 30
0.0
 10
98.06408165601712
 20
104.1058614692303
 30
0.0
 10
98.09581703420064
 20
104.1419069573356
 30
0.0
 10
98.11288752195338
 20
104.1694180330478
 30
0.0
 10
98.1581114837528
 20
104.2832475408915
 30
0.0
 10
98.1512880564861
 20
104.3843090919348
 30
0.0
 10
98.11036111026696
 20
104.5032562497603
 30
0.0
  0
SPLINE
  5
22F
330
1F
100
AcDbEntity
  8
0
  6
Continuous
 62
     7
370
    25
100
AcDbSpline
210
0.0
220
0.0
230
1.0
 70
     8
 71
     3
 72
    10
 73
     6
 74
     0
 42
0.00000001
 43
0.00000001
 40
0.0
 40
0.0
 40
0.0
 40
0.0
 40
0.5
 40
0.5
 40
1.0
 40
1.0
 40
1.0
 40
1.0
 10
98.03915330629722
 20
104.0973372141945
 30
0.0
 10
97.99809946914068
 20
104.0973778436231
 30
0.0
 10
97.95402511682767
 20
104.0970192848663
 30
0.0
 10
97.86267384731573
 20
104.0920207302835
 30
0.0
 10
97.82992406581872
 20
104.0960439968659
 30
0.0
 10
97.78714570600754
 20
104.0960439968659
 30
0.0
  0
SPLINE
  5
230
330
1F
100
AcDbEntity
  8
0
  6
Continuous
 62
     7
370
    25
100
AcDbSpline
210
0.0
220
0.0
230
1.0
 70
     8
 71
     3
 72
    10
 73
     6
 74
     0
 42
0.00000001
 43
0.00000001
 40
0.0
 40
0.0
 40
0.0
 40
0.0
 40
0.5
 40
0.5
 40
1.0
 40
1.0
 40
1.0
 40
1.0
 10
98.03915330629722
 20
116.0947507795374
 30
0.0
 10
98.08020714345376
 20
116.094791408966
 30
0.0
 10
98.12368397383477
 20
116.0952366138143
 30
0.0
 10
98.21274267355912
 20
116.091711012863
 30
0.0
 10
98.24484604308277
 20
116.0960439968659
 30
0.0
 10
98.28714570600754
 20
116.0960439968659
 30
0.0
  0
SPLINE
  5
231
330
1F
100
AcDbEntity
  8
0
  6
Continuous
 62
     7
370
    25
100
AcDbSpline
210
0.0
220
0.0
230
1.0
 70
     8
 71
     3
 72
    10
 73
     6
 74
     0
 42
0.00000001
 43
0.00000001
 40
0.0
 40
0.0
 40
0.0
 40
0.0
 40
0.5
 40
0.5
 40
1.0
 40
1.0
 40
1.0
 40
1.0
 10
98.03915330629722
 20
104.0973372141945
 30
0.0
 10
98.08020714345376
 20
104.0972965847659
 30
0.0
 10
98.12368397383477
 20
104.0968513799176
 30
0.0
 10
98.21274267355912
 20
104.1003769808689
 30
0.0
 10
98.24484604308277
 20
104.0960439968659
 30
0.0
 10
98.28714570600754
 20
104.0960439968659
 30
0.0
  0
SPLINE
  5
232
330
1F
100
AcDbEntity
  8
0
  6
Continuous
 62
     7
370
    25
100
AcDbSpline
210
0.0
220
0.0
230
1.0
 70
     8
 71
     3
 72
    18
 73
    14
 74
     0
 42
0.00000001
 43
0.00000001
 40
0.0
 40
0.0
 40
0.0
 40
0.0
 40
0.25
 40
0.25
 40
0.375
 40
0.375
 40
0.5
 40
0.5
 40
0.625
 40
0.625
 40
0.75
 40
0.75
 40
1.0
 40
1.0
 40
1.0
 40
1.0
 10
90.53714570600755
 20
112.0136827182188
 30
0.0
 10
90.45120648804536
 20
111.7133616711257
 30
0.0
 10
90.39216210744547
 20
111.4072642708412
 30
0.0
 10
90.35391580908046
 20
110.9327957353826
 30
0.0
 10
90.34938677100287
 20
110.7720778843745
 30
0.0
 10
90.34856426107287
 20
110.4409970617295
 30
0.0
 10
90.351458917799
 20
110.2700174961855
 30
0.0
 10
90.35154169851594
 20
109.9324248267225
 30
0.0
 10
90.34869578119874
 20
109.762549842692
 30
0.0
 10
90.34921217204052
 20
109.4299313694904
 30
0.0
 10
90.35346316589995
 20
109.2682723182814
 30
0.0
 10
90.3911962678007
 20
108.7903179867504
 30
0.0
 10
90.45096133618812
 20
108.4795830241705
 30
0.0
 10
90.53714570600755
 20
108.1784052755131
 30
0.0
  0
SPLINE
  5
233
330
1F
100
AcDbEntity
  8
0
  6
Continuous
 62
     7
370
    25
100
AcDbSpline
210
0.0
220
0.0
230
1.0
 70
     8
 71
     3
 72
    10
 73
     6
 74
     0
 42
0.00000001
 43
0.00000001
 40
0.0
 40
0.0
 40
0.0
 40
0.0
 40
0.1054683352036812
 40
0.6440627666015817
 40
0.9999999999999999
 40
0.9999999999999999
 40
0.9999999999999999
 40
0.9999999999999999
 10
115.138878938164
 20
118.3406302538167
 30
0.0
 10
115.1383639958875
 20
118.3423073128549
 30
0.0
 10
115.1352194013834
 20
118.3525485978984
 30
0.0
 10
115.1505980420356
 20
118.3133422667021
 30
0.0
 10
115.1541589486013
 20
118.2512038640983
 30
0.0
 10
115.1555758456003
 20
118.2264787794747
 30
0.0
  0
SPLINE
  5
234
330
1F
100
AcDbEntity
  8
0
  6
Continuous
 62
     7
370
    25
100
AcDbSpline
210
0.0
220
0.0
230
1.0
 70
     8
 71
     3
 72
     9
 73
     5
 74
     0
 42
0.00000001
 43
0.00000001
 40
0.0
 40
0.0
 40
0.0
 40
0.0
 40
0.5716350576924256
 40
0.9999999999999999
 40
0.9999999999999999
 40
0.9999999999999999
 40
0.9999999999999999
 10
115.1555758456003
 20
101.9656092142573
 30
0.0
 10
115.1511164375138
 20
101.9258908085092
 30
0.0
 10
115.1433152923136
 20
101.8564087058747
 30
0.0
 10
115.1402093954807
 20
101.8529425286983
 30
0.0
 10
115.1388789381631
 20
101.8514577399121
 30
0.0
  0
LINE
  5
235
330
1F
100
AcDbEntity
  8
0
  6
Continuous
 62
     7
370
    25
100
AcDbLine
 10
87.9711748951
 20
115.8460439969
 30
0.0
 11
86.787145706
 21
115.8460439969
 31
0.0
  0
LINE
  5
236
330
1F
100
AcDbEntity
  8
0
  6
Continuous
 62
     7
370
    25
100
AcDbLine
 10
96.537145706
 20
115.8460439969
 30
0.0
 11
95.103116517
 21
115.8460439969
 31
0.0
  0
LINE
  5
237
330
1F
100
AcDbEntity
  8
0
  6
Continuous
 62
     7
370
    25
100
AcDbLine
 10
86.787145706
 20
115.8460439969
 30
0.0
 11
86.787145706
 21
114.9143577916
 31
0.0
  0
LINE
  5
238
330
1F
100
AcDbEntity
  8
0
  6
Continuous
 62
     7
370
    25
100
AcDbLine
 10
96.287145706
 20
104.3460439969
 30
0.0
 11
96.287145706
 21
105.2777302021
 31
0.0
  0
LINE
  5
239
330
1F
100
AcDbEntity
  8
0
  6
Continuous
 62
     7
370
    25
100
AcDbLine
 10
95.103116517
 20
104.3460439969
 30
0.0
 11
96.287145706
 21
104.3460439969
 31
0.0
  0
LINE
  5
23A
330
1F
100
AcDbEntity
  8
0
  6
Continuous
 62
     7
370
    25
100
AcDbLine
 10
86.787145706
 20
104.3460439969
 30
0.0
 11
87.9711748951
 21
104.3460439969
 31
0.0
  0
LINE
  5
23B
330
1F
100
AcDbEntity
  8
0
  6
Continuous
 62
     7
370
    25
100
AcDbLine
 10
86.787145706
 20
105.2777302021
 30
0.0
 11
86.787145706
 21
104.3460439969
 31
0.0
  0
LINE
  5
23C
330
1F
100
AcDbEntity
  8
0
  6
Continuous
 62
     7
370
    25
100
AcDbLine
 10
101.037145706
 20
104.0960439969
 30
0.0
 11
101.037145706
 21
116.0960439969
 31
0.0
  0
LINE
  5
23D
330
1F
100
AcDbEntity
  8
0
  6
Continuous
 62
     7
370
    25
100
AcDbLine
 10
97.383218922
 20
113.470134495
 30
0.0
 11
97.537145706
 21
113.4872089884
 31
0.0
  0
LINE
  5
23E
330
1F
100
AcDbEntity
  8
0
  6
Continuous
 62
     7
370
    25
100
AcDbLine
 10
97.4569109183
 20
106.8519177711
 30
0.0
 11
97.537145706
 21
106.840525605
 31
0.0
  0
LINE
  5
23F
330
1F
100
AcDbEntity
  8
0
  6
Continuous
 62
     7
370
    25
100
AcDbLine
 10
97.537145706
 20
113.3515623888
 30
0.0
 11
97.4568049794
 21
113.3401551809
 31
0.0
  0
LINE
  5
240
330
1F
100
AcDbEntity
  8
0
  6
Continuous
 62
     7
370
    25
100
AcDbLine
 10
97.537145706
 20
106.7048790053
 30
0.0
 11
97.3879043419
 21
106.7214337635
 31
0.0
  0
SPLINE
  5
241
330
1F
100
AcDbEntity
  8
0
  6
Continuous
 62
     7
370
    25
100
AcDbSpline
210
0.0
220
0.0
230
1.0
 70
     8
 71
     3
 72
    14
 73
    10
 74
     0
 42
0.00000001
 43
0.00000001
 40
0.0
 40
0.0
 40
0.0
 40
0.0
 40
0.25
 40
0.25
 40
0.5
 40
0.5
 40
0.75
 40
0.75
 40
1.0
 40
1.0
 40
1.0
 40
1.0
 10
98.78714570600754
 20
116.396043996866
 30
0.0
 10
98.78714571173502
 20
116.3960439970783
 30
0.0
 10
98.81194409173997
 20
116.394804573147
 30
0.0
 10
98.9040113744789
 20
116.3918773792238
 30
0.0
 10
98.97020311974612
 20
116.3904923494288
 30
0.0
 10
99.10441459512832
 20
116.3904844724669
 30
0.0
 10
99.17092607597712
 20
116.3918973172539
 30
0.0
 10
99.26208447495328
 20
116.3947966848022
 30
0.0
 10
99.28713635389616
 20
116.3960441365194
 30
0.0
 10
99.28714570572185
 20
116.3960439968526
 30
0.0
  0
LWPOLYLINE
  5
242
330
1F
100
AcDbEntity
  8
0
  6
Continuous
 62
     7
370
    25
100
AcDbPolyline
 90
       13
 70
   128
 43
0.0
 10
99.5371424878
 20
116.1460436617
 10
99.5371457058
 20
116.1460439968
 10
99.5081963515
 20
116.1431038418
 10
99.4242286346
 20
116.1355699632
 10
99.2958317486
 20
116.1268972036
 10
99.138221734
 20
116.1209624463
 10
98.9696559071
 20
116.1203734107
 10
98.810838625
 20
116.1252563148
 10
98.6772418136
 20
116.1334562744
 10
98.5835595218
 20
116.1414265102
 10
98.5397080515
 20
116.1457732067
 10
98.537145706
 20
116.1460439969
 10
98.537145706
 20
116.1460439969
  0
INSERT
  5
24E
330
1F
100
AcDbEntity
  8
FORMAT
100
AcDbBlockReference
  2
SW_CENTERMARKSYMBOL_1
 10
91.537145706
 20
110.0960439969
 30
0.0
  0
ARC
  5
24F
330
1F
100
AcDbEntity
  8
FORMAT
100
AcDbCircle
 10
91.537145706
 20
110.0960439969
 30
0.0
 40
5.722499999999997
100
AcDbArc
 50
75.0
 51
345.0
  0
LINE
  5
250
330
1F
100
AcDbEntity
  8
FORMAT
100
AcDbLine
 10
109.393145706
 20
104.3735439969
 30
0.0
 11
101.537145706
 21
104.3735439969
 31
0.0
  0
LINE
  5
251
330
1F
100
AcDbEntity
  8
FORMAT
100
AcDbLine
 10
109.393145706
 20
115.8185439969
 30
0.0
 11
101.537145706
 21
115.8185439969
 31
0.0
  0
LINE
  5
252
330
1F
100
AcDbEntity
  8
FORMAT
100
AcDbLine
 10
101.537145706
 20
116.6745439969
 30
0.0
 11
101.537145706
 21
103.5175439969
 31
0.0
  0
ENDSEC
  0
SECTION
  2
OBJECTS
  0
DICTIONARY
  5
C
330
0
100
AcDbDictionary
281
     1
  3
ACAD_GROUP
350
D
  3
ACAD_LAYOUT
350
1A
  3
ACAD_MLINESTYLE
350
17
  3
ACAD_PLOTSETTINGS
350
19
  3
ACAD_PLOTSTYLENAME
350
E
  3
ACAD_SCALELIST
350
47
  3
DWGPROPS
350
253
  0
DICTIONARY
  5
D
102
{ACAD_REACTORS
330
C
102
}
330
C
100
AcDbDictionary
281
     1
  0
DICTIONARY
  5
1A
102
{ACAD_REACTORS
330
C
102
}
330
C
100
AcDbDictionary
281
     1
  3
Layout1
350
1E
  3
Layout2
350
26
  3
Model
350
22
  0
DICTIONARY
  5
17
102
{ACAD_REACTORS
330
C
102
}
330
C
100
AcDbDictionary
281
     1
  3
Standard
350
18
  0
DICTIONARY
  5
19
102
{ACAD_REACTORS
330
C
102
}
330
C
100
AcDbDictionary
281
     1
  0
ACDBDICTIONARYWDFLT
  5
E
102
{ACAD_REACTORS
330
C
102
}
330
C
100
AcDbDictionary
281
     1
  3
Normal
350
F
100
AcDbDictionaryWithDefault
340
F
  0
DICTIONARY
  5
47
102
{ACAD_REACTORS
330
C
102
}
330
C
100
AcDbDictionary
281
     1
  3
A0
350
48
  3
A1
350
49
  3
A2
350
4A
  3
A3
350
4B
  3
A4
350
4C
  3
A5
350
4D
  3
A6
350
4E
  3
A7
350
4F
  3
A8
350
50
  3
A9
350
51
  3
B0
350
52
  3
B1
350
53
  3
B2
350
54
  3
B3
350
55
  3
B4
350
56
  3
B5
350
57
  3
B6
350
58
  0
XRECORD
  5
253
102
{ACAD_REACTORS
330
C
102
}
330
C
100
AcDbXrecord
280
     1
  1
DWGPROPS COOKIE
  2

  3

  4

  6

  7

  8
user28
  9

300
=
301
=
302
=
303
=
304
=
305
=
306
=
307
=
308
=
309
=
 40
0.0
 41
2460376.124036007
 42
2460376.124036747
  1

 90
        0
  0
LAYOUT
  5
1E
102
{ACAD_REACTORS
330
1A
102
}
330
1A
100
AcDbPlotSettings
  1

  2
none_device
  4

  6

 40
0.0
 41
0.0
 42
0.0
 43
0.0
 44
0.0
 45
0.0
 46
0.0
 47
0.0
 48
0.0
 49
0.0
140
0.0
141
0.0
142
1.0
143
1.0
 70
   688
 72
     1
 73
     0
 74
     5
  7

 75
    16
147
1.0
148
0.0
149
0.0
100
AcDbLayout
  1
Layout1
 70
     1
 71
     1
 10
0.0
 20
0.0
 11
420.0
 21
297.0
 12
0.0
 22
0.0
 32
0.0
 14
1.0000000000E+20
 24
1.0000000000E+20
 34
1.0000000000E+20
 15
-1.0000000000E+20
 25
-1.0000000000E+20
 35
-1.0000000000E+20
146
0.0
 13
0.0
 23
0.0
 33
0.0
 16
1.0
 26
0.0
 36
0.0
 17
0.0
 27
1.0
 37
0.0
 76
     0
330
1B
  0
LAYOUT
  5
26
102
{ACAD_REACTORS
330
1A
102
}
330
1A
100
AcDbPlotSettings
  1

  2
none_device
  4

  6

 40
0.0
 41
0.0
 42
0.0
 43
0.0
 44
0.0
 45
0.0
 46
0.0
 47
0.0
 48
0.0
 49
0.0
140
0.0
141
0.0
142
1.0
143
1.0
 70
   688
 72
     1
 73
     0
 74
     5
  7

 75
    16
147
1.0
148
0.0
149
0.0
100
AcDbLayout
  1
Layout2
 70
     1
 71
     2
 10
0.0
 20
0.0
 11
0.0
 21
0.0
 12
0.0
 22
0.0
 32
0.0
 14
0.0
 24
0.0
 34
0.0
 15
0.0
 25
0.0
 35
0.0
146
0.0
 13
0.0
 23
0.0
 33
0.0
 16
1.0
 26
0.0
 36
0.0
 17
0.0
 27
1.0
 37
0.0
 76
     0
330
23
  0
LAYOUT
  5
22
102
{ACAD_REACTORS
330
1A
102
}
330
1A
100
AcDbPlotSettings
  1

  2
none_device
  4
Letter_(8.50_x_11.00_Inches)
  6

 40
6.35
 41
6.35
 42
6.35000508
 43
6.35000508
 44
215.9
 45
279.4
 46
0.0
 47
0.0
 48
0.0
 49
0.0
140
0.0
141
0.0
142
1.0
143
1.0
 70
  1712
 72
     1
 73
     0
 74
     0
  7

 75
     0
147
1.0
148
0.0
149
0.0
100
AcDbLayout
  1
Model
 70
     1
 71
     0
 10
0.0
 20
0.0
 11
297.0
 21
210.0
 12
0.0
 22
0.0
 32
0.0
 14
0.0
 24
0.0
 34
0.0
 15
297.0
 25
210.0
 35
0.0
146
0.0
 13
0.0
 23
0.0
 33
0.0
 16
1.0
 26
0.0
 36
0.0
 17
0.0
 27
1.0
 37
0.0
 76
     0
330
1F
331
29
  0
MLINESTYLE
  5
18
102
{ACAD_REACTORS
330
17
102
}
330
17
100
AcDbMlineStyle
  2
Standard
 70
     0
  3

 62
   256
 51
90.0
 52
90.0
 71
     2
 49
0.5
 62
   256
  6
BYLAYER
 49
-0.5
 62
   256
  6
BYLAYER
  0
ACDBPLACEHOLDER
  5
F
102
{ACAD_REACTORS
330
E
102
}
330
E
  0
SCALE
  5
48
102
{ACAD_REACTORS
330
47
102
}
330
47
100
AcDbScale
 70
     0
300
1:1
140
1.0
141
1.0
290
     1
  0
SCALE
  5
49
102
{ACAD_REACTORS
330
47
102
}
330
47
100
AcDbScale
 70
     0
300
1:2
140
1.0
141
2.0
290
     0
  0
SCALE
  5
4A
102
{ACAD_REACTORS
330
47
102
}
330
47
100
AcDbScale
 70
     0
300
1:4
140
1.0
141
4.0
290
     0
  0
SCALE
  5
4B
102
{ACAD_REACTORS
330
47
102
}
330
47
100
AcDbScale
 70
     0
300
1:5
140
1.0
141
5.0
290
     0
  0
SCALE
  5
4C
102
{ACAD_REACTORS
330
47
102
}
330
47
100
AcDbScale
 70
     0
300
1:8
140
1.0
141
8.0
290
     0
  0
SCALE
  5
4D
102
{ACAD_REACTORS
330
47
102
}
330
47
100
AcDbScale
 70
     0
300
1:10
140
1.0
141
10.0
290
     0
  0
SCALE
  5
4E
102
{ACAD_REACTORS
330
47
102
}
330
47
100
AcDbScale
 70
     0
300
1:16
140
1.0
141
16.0
290
     0
  0
SCALE
  5
4F
102
{ACAD_REACTORS
330
47
102
}
330
47
100
AcDbScale
 70
     0
300
1:20
140
1.0
141
20.0
290
     0
  0
SCALE
  5
50
102
{ACAD_REACTORS
330
47
102
}
330
47
100
AcDbScale
 70
     0
300
1:30
140
1.0
141
30.0
290
     0
  0
SCALE
  5
51
102
{ACAD_REACTORS
330
47
102
}
330
47
100
AcDbScale
 70
     0
300
1:40
140
1.0
141
40.0
290
     0
  0
SCALE
  5
52
102
{ACAD_REACTORS
330
47
102
}
330
47
100
AcDbScale
 70
     0
300
1:50
140
1.0
141
50.0
290
     0
  0
SCALE
  5
53
102
{ACAD_REACTORS
330
47
102
}
330
47
100
AcDbScale
 70
     0
300
1:100
140
1.0
141
100.0
290
     0
  0
SCALE
  5
54
102
{ACAD_REACTORS
330
47
102
}
330
47
100
AcDbScale
 70
     0
300
2:1
140
2.0
141
1.0
290
     0
  0
SCALE
  5
55
102
{ACAD_REACTORS
330
47
102
}
330
47
100
AcDbScale
 70
     0
300
4:1
140
4.0
141
1.0
290
     0
  0
SCALE
  5
56
102
{ACAD_REACTORS
330
47
102
}
330
47
100
AcDbScale
 70
     0
300
8:1
140
8.0
141
1.0
290
     0
  0
SCALE
  5
57
102
{ACAD_REACTORS
330
47
102
}
330
47
100
AcDbScale
 70
     0
300
10:1
140
10.0
141
1.0
290
     0
  0
SCALE
  5
58
102
{ACAD_REACTORS
330
47
102
}
330
47
100
AcDbScale
 70
     0
300
100:1
140
100.0
141
1.0
290
     0
  0
ENDSEC
  0
EOF
