  0
SECTION
  2
HEADER
  9
$ACADVER
  1
AC1015
  9
$ACADMAINTVER
 70
     6
  9
$DWGCODEPAGE
  3
DOS932
  9
$INSBASE
 10
0.0
 20
0.0
 30
0.0
  9
$EXTMIN
 10
0.0
 20
0.0
 30
0.0
  9
$EXTMAX
 10
297.0
 20
210.0
 30
0.0
  9
$LIMMIN
 10
0.0
 20
0.0
  9
$LIMMAX
 10
297.0
 20
210.0
  9
$ORTHOMODE
 70
     0
  9
$REGENMODE
 70
     1
  9
$FILLMODE
 70
     1
  9
$QTEXTMODE
 70
     0
  9
$MIRRTEXT
 70
     1
  9
$LTSCALE
 40
1.0
  9
$ATTMODE
 70
     1
  9
$TEXTSIZE
 40
3.5277777778
  9
$TRACEWID
 40
1.0
  9
$TEXTSTYLE
  7
Standard
  9
$CLAYER
  8
0
  9
$CELTYPE
  6
ByLayer
  9
$CECOLOR
 62
   256
  9
$CELTSCALE
 40
1.0
  9
$DISPSILH
 70
     0
  9
$DIMSCALE
 40
1.0
  9
$DIMASZ
 40
2.728515625
  9
$DIMEXO
 40
1.0
  9
$DIMDLI
 40
3.75
  9
$DIMRND
 40
0.0
  9
$DIMDLE
 40
0.0
  9
$DIMEXE
 40
1.0
  9
$DIMTP
 40
0.0
  9
$DIMTM
 40
0.0
  9
$DIMTXT
 40
3.5277777778
  9
$DIMCEN
 40
2.5
  9
$DIMTSZ
 40
0.0
  9
$DIMTOL
 70
     0
  9
$DIMLIM
 70
     0
  9
$DIMTIH
 70
     1
  9
$DIMTOH
 70
     1
  9
$DIMSE1
 70
     0
  9
$DIMSE2
 70
     0
  9
$DIMTAD
 70
     1
  9
$DIMZIN
 70
     0
  9
$DIMBLK
  1

  9
$DIMASO
 70
     1
  9
$DIMSHO
 70
     1
  9
$DIMPOST
  1

  9
$DIMAPOST
  1

  9
$DIMALT
 70
     0
  9
$DIMALTD
 70
     3
  9
$DIMALTF
 40
0.0393700787
  9
$DIMLFAC
 40
1.0
  9
$DIMTOFL
 70
     1
  9
$DIMTVP
 40
0.0
  9
$DIMTIX
 70
     0
  9
$DIMSOXD
 70
     0
  9
$DIMSAH
 70
     0
  9
$DIMBLK1
  1

  9
$DIMBLK2
  1

  9
$DIMSTYLE
  2
ISO-25
  9
$DIMCLRD
 70
     0
  9
$DIMCLRE
 70
     0
  9
$DIMCLRT
 70
     0
  9
$DIMTFAC
 40
1.0
  9
$DIMGAP
 40
1.524
  9
$DIMJUST
 70
     0
  9
$DIMSD1
 70
     0
  9
$DIMSD2
 70
     0
  9
$DIMTOLJ
 70
     0
  9
$DIMTZIN
 70
     0
  9
$DIMALTZ
 70
     0
  9
$DIMALTTZ
 70
     0
  9
$DIMUPT
 70
     0
  9
$DIMDEC
 70
     2
  9
$DIMTDEC
 70
     2
  9
$DIMALTU
 70
     2
  9
$DIMALTTD
 70
     3
  9
$DIMTXSTY
  7
Standard
  9
$DIMAUNIT
 70
     0
  9
$DIMADEC
 70
     2
  9
$DIMALTRND
 40
0.0
  9
$DIMAZIN
 70
     0
  9
$DIMDSEP
 70
    44
  9
$DIMATFIT
 70
     3
  9
$DIMFRAC
 70
     0
  9
$DIMLDRBLK
  1

  9
$DIMLUNIT
 70
     2
  9
$DIMLWD
 70
    -2
  9
$DIMLWE
 70
    -2
  9
$DIMTMOVE
 70
     0
  9
$LUNITS
 70
     2
  9
$LUPREC
 70
     2
  9
$SKETCHINC
 40
1.0
  9
$FILLETRAD
 40
0.0
  9
$AUNITS
 70
     0
  9
$AUPREC
 70
     2
  9
$MENU
  1
.
  9
$ELEVATION
 40
0.0
  9
$PELEVATION
 40
0.0
  9
$THICKNESS
 40
0.0
  9
$LIMCHECK
 70
     0
  9
$CHAMFERA
 40
0.0
  9
$CHAMFERB
 40
0.0
  9
$CHAMFERC
 40
0.0
  9
$CHAMFERD
 40
0.0
  9
$SKPOLY
 70
     0
  9
$TDCREATE
 40
2460376.497708738
  9
$TDUCREATE
 40
2460376.122708738
  9
$TDUPDATE
 40
2460376.497709722
  9
$TDUUPDATE
 40
2460376.122709722
  9
$TDINDWG
 40
0.0000000116
  9
$TDUSRTIMER
 40
0.0000000116
  9
$USRTIMER
 70
     1
  9
$ANGBASE
 50
0.0
  9
$ANGDIR
 70
     0
  9
$PDMODE
 70
     0
  9
$PDSIZE
 40
-1.0
  9
$PLINEWID
 40
0.0
  9
$SPLFRAME
 70
     0
  9
$SPLINETYPE
 70
     6
  9
$SPLINESEGS
 70
     8
  9
$HANDSEED
  5
27F
  9
$SURFTAB1
 70
     6
  9
$SURFTAB2
 70
     6
  9
$SURFTYPE
 70
     6
  9
$SURFU
 70
     6
  9
$SURFV
 70
     6
  9
$UCSBASE
  2

  9
$UCSNAME
  2

  9
$UCSORG
 10
0.0
 20
0.0
 30
0.0
  9
$UCSXDIR
 10
1.0
 20
0.0
 30
0.0
  9
$UCSYDIR
 10
0.0
 20
1.0
 30
0.0
  9
$UCSORTHOREF
  2

  9
$UCSORTHOVIEW
 70
     0
  9
$UCSORGTOP
 10
0.0
 20
0.0
 30
0.0
  9
$UCSORGBOTTOM
 10
0.0
 20
0.0
 30
0.0
  9
$UCSORGLEFT
 10
0.0
 20
0.0
 30
0.0
  9
$UCSORGRIGHT
 10
0.0
 20
0.0
 30
0.0
  9
$UCSORGFRONT
 10
0.0
 20
0.0
 30
0.0
  9
$UCSORGBACK
 10
0.0
 20
0.0
 30
0.0
  9
$PUCSBASE
  2

  9
$PUCSNAME
  2

  9
$PUCSORG
 10
0.0
 20
0.0
 30
0.0
  9
$PUCSXDIR
 10
1.0
 20
0.0
 30
0.0
  9
$PUCSYDIR
 10
0.0
 20
1.0
 30
0.0
  9
$PUCSORTHOREF
  2

  9
$PUCSORTHOVIEW
 70
     0
  9
$PUCSORGTOP
 10
0.0
 20
0.0
 30
0.0
  9
$PUCSORGBOTTOM
 10
0.0
 20
0.0
 30
0.0
  9
$PUCSORGLEFT
 10
0.0
 20
0.0
 30
0.0
  9
$PUCSORGRIGHT
 10
0.0
 20
0.0
 30
0.0
  9
$PUCSORGFRONT
 10
0.0
 20
0.0
 30
0.0
  9
$PUCSORGBACK
 10
0.0
 20
0.0
 30
0.0
  9
$USERI1
 70
     0
  9
$USERI2
 70
     0
  9
$USERI3
 70
     0
  9
$USERI4
 70
     0
  9
$USERI5
 70
     0
  9
$USERR1
 40
0.0
  9
$USERR2
 40
0.0
  9
$USERR3
 40
0.0
  9
$USERR4
 40
0.0
  9
$USERR5
 40
0.0
  9
$WORLDVIEW
 70
     1
  9
$SHADEDGE
 70
     3
  9
$SHADEDIF
 70
    70
  9
$TILEMODE
 70
     1
  9
$MAXACTVP
 70
    64
  9
$PINSBASE
 10
0.0
 20
0.0
 30
0.0
  9
$PLIMCHECK
 70
     0
  9
$PEXTMIN
 10
1.0000000000E+20
 20
1.0000000000E+20
 30
1.0000000000E+20
  9
$PEXTMAX
 10
-1.0000000000E+20
 20
-1.0000000000E+20
 30
-1.0000000000E+20
  9
$PLIMMIN
 10
0.0
 20
0.0
  9
$PLIMMAX
 10
420.0
 20
297.0
  9
$UNITMODE
 70
     0
  9
$VISRETAIN
 70
     1
  9
$PLINEGEN
 70
     0
  9
$PSLTSCALE
 70
     1
  9
$TREEDEPTH
 70
  3020
  9
$CMLSTYLE
  2
Standard
  9
$CMLJUST
 70
     0
  9
$CMLSCALE
 40
20.0
  9
$PROXYGRAPHICS
 70
     1
  9
$MEASUREMENT
 70
     1
  9
$CELWEIGHT
370
    -1
  9
$ENDCAPS
280
     0
  9
$JOINSTYLE
280
     0
  9
$LWDISPLAY
290
     1
  9
$INSUNITS
 70
     4
  9
$HYPERLINKBASE
  1

  9
$STYLESHEET
  1

  9
$XEDIT
290
     1
  9
$CEPSNTYPE
380
     0
  9
$PSTYLEMODE
290
     1
  9
$FINGERPRINTGUID
  2
{4ed2319d-ebf5-4a89-815b-74da272ccc5c}
  9
$VERSIONGUID
  2
{FAEB1C32-E019-11D5-929B-00C0DF256EC4}
  9
$EXTNAMES
290
     1
  9
$PSVPSCALE
 40
0.0
  9
$OLESTARTUP
290
     0
  0
ENDSEC
  0
SECTION
  2
CLASSES
  0
CLASS
  1
ACDBDICTIONARYWDFLT
  2
AcDbDictionaryWithDefault
  3
ObjectDBX Classes
 90
        0
280
     0
281
     0
  0
CLASS
  1
VISUALSTYLE
  2
AcDbVisualStyle
  3
ObjectDBX Classes
 90
     4095
280
     0
281
     0
  0
CLASS
  1
MATERIAL
  2
AcDbMaterial
  3
ObjectDBX Classes
 90
     1153
280
     0
281
     0
  0
CLASS
  1
SCALE
  2
AcDbScale
  3
ObjectDBX Classes
 90
     1153
280
     0
281
     0
  0
CLASS
  1
TABLESTYLE
  2
AcDbTableStyle
  3
ObjectDBX Classes
 90
     4095
280
     0
281
     0
  0
CLASS
  1
MLEADERSTYLE
  2
AcDbMLeaderStyle
  3
ACDB_MLEADERSTYLE_CLASS
 90
     4095
280
     0
281
     0
  0
CLASS
  1
SUN
  2
AcDbSun
  3
SCENEOE
 90
     1153
280
     0
281
     0
  0
CLASS
  1
ACDBPLACEHOLDER
  2
AcDbPlaceHolder
  3
ObjectDBX Classes
 90
        0
280
     0
281
     0
  0
CLASS
  1
LAYOUT
  2
AcDbLayout
  3
ObjectDBX Classes
 90
        0
280
     0
281
     0
  0
ENDSEC
  0
SECTION
  2
TABLES
  0
TABLE
  2
VPORT
  5
8
330
0
100
AcDbSymbolTable
 70
     1
  0
VPORT
  5
29
330
8
100
AcDbSymbolTableRecord
100
AcDbViewportTableRecord
  2
*Active
 70
     0
 10
0.0
 20
0.0
 11
1.0
 21
1.0
 12
148.5
 22
105.0
 13
0.0
 23
0.0
 14
10.0
 24
10.0
 15
10.0
 25
10.0
 16
0.0
 26
0.0
 36
1.0
 17
0.0
 27
0.0
 37
0.0
 40
210.0
 41
1.4142857143
 42
50.0
 43
0.0
 44
0.0
 50
0.0
 51
0.0
 71
     0
 72
  2000
 73
     1
 74
     3
 75
     0
 76
     0
 77
     0
 78
     0
281
     0
 65
     1
110
0.0
120
0.0
130
0.0
111
1.0
121
0.0
131
0.0
112
0.0
122
1.0
132
0.0
 79
     0
146
0.0
  0
ENDTAB
  0
TABLE
  2
LTYPE
  5
5
330
0
100
AcDbSymbolTable
 70
     6
  0
LTYPE
  5
14
330
5
100
AcDbSymbolTableRecord
100
AcDbLinetypeTableRecord
  2
ByBlock
 70
     0
  3

 72
    65
 73
     0
 40
0.0
  0
LTYPE
  5
15
330
5
100
AcDbSymbolTableRecord
100
AcDbLinetypeTableRecord
  2
ByLayer
 70
     0
  3

 72
    65
 73
     0
 40
0.0
  0
LTYPE
  5
16
330
5
100
AcDbSymbolTableRecord
100
AcDbLinetypeTableRecord
  2
Continuous
 70
     0
  3
Solid line
 72
    65
 73
     0
 40
0.0
  0
LTYPE
  5
5E
330
5
100
AcDbSymbolTableRecord
100
AcDbLinetypeTableRecord
  2
HIDDEN
 70
     0
  3
Hidden __ __ __ __ __ __ __ __ __ __ __ __ __ __
 72
    65
 73
     2
 40
1.905
 49
1.27
 74
     0
 49
-0.635
 74
     0
  0
LTYPE
  5
5F
330
5
100
AcDbSymbolTableRecord
100
AcDbLinetypeTableRecord
  2
PHANTOM
 70
     0
  3
Phantom ______  __  __  ______  __  __  ______
 72
    65
 73
     6
 40
12.7
 49
6.35
 74
     0
 49
-1.27
 74
     0
 49
1.27
 74
     0
 49
-1.27
 74
     0
 49
1.27
 74
     0
 49
-1.27
 74
     0
  0
LTYPE
  5
60
330
5
100
AcDbSymbolTableRecord
100
AcDbLinetypeTableRecord
  2
CENTER
 70
     0
  3
Center ____ _ ____ _ ____ _ ____ _ ____ _ ____
 72
    65
 73
     4
 40
10.16
 49
6.35
 74
     0
 49
-1.27
 74
     0
 49
1.27
 74
     0
 49
-1.27
 74
     0
  0
LTYPE
  5
61
330
5
100
AcDbSymbolTableRecord
100
AcDbLinetypeTableRecord
  2
CENTERX2
 70
     0
  3
Center (2x) ________  __  ________  __  _____
 72
    65
 73
     4
 40
20.32
 49
12.7
 74
     0
 49
-2.54
 74
     0
 49
2.54
 74
     0
 49
-2.54
 74
     0
  0
LTYPE
  5
62
330
5
100
AcDbSymbolTableRecord
100
AcDbLinetypeTableRecord
  2
DOT2
 70
     0
  3
Dot (.5x) ........................................
 72
    65
 73
     2
 40
0.635
 49
0.0
 74
     0
 49
-0.635
 74
     0
  0
ENDTAB
  0
TABLE
  2
LAYER
  5
2
330
0
100
AcDbSymbolTable
 70
     2
  0
LAYER
  5
10
330
2
100
AcDbSymbolTableRecord
100
AcDbLayerTableRecord
  2
0
 70
     0
 62
     7
  6
Continuous
370
    -3
390
F
  0
LAYER
  5
63
330
2
100
AcDbSymbolTableRecord
100
AcDbLayerTableRecord
  2
FORMAT
 70
     0
 62
     7
  6
Continuous
370
    -3
390
F
  0
ENDTAB
  0
TABLE
  2
STYLE
  5
3
330
0
100
AcDbSymbolTable
 70
     2
  0
STYLE
  5
11
330
3
100
AcDbSymbolTableRecord
100
AcDbTextStyleTableRecord
  2
Standard
 70
     0
 40
0.0
 41
1.0
 50
0.0
 71
     0
 42
3.5277777778
  3
txt
  4
bigfont
  0
STYLE
  5
64
330
3
100
AcDbSymbolTableRecord
100
AcDbTextStyleTableRecord
  2
SLDTEXTSTYLE0
 70
     0
 40
0.0
 41
0.7
 50
0.0
 71
     0
 42
3.5277777778
  3
TXT
  4
bigfont
  0
ENDTAB
  0
TABLE
  2
VIEW
  5
6
330
0
100
AcDbSymbolTable
 70
     0
  0
ENDTAB
  0
TABLE
  2
UCS
  5
7
330
0
100
AcDbSymbolTable
 70
     0
  0
ENDTAB
  0
TABLE
  2
APPID
  5
9
330
0
100
AcDbSymbolTable
 70
     1
  0
APPID
  5
12
330
9
100
AcDbSymbolTableRecord
100
AcDbRegAppTableRecord
  2
ACAD
 70
     0
  0
ENDTAB
  0
TABLE
  2
DIMSTYLE
  5
A
330
0
100
AcDbSymbolTable
 70
     1
100
AcDbDimStyleTable
  0
DIMSTYLE
105
27
330
A
100
AcDbSymbolTableRecord
100
AcDbDimStyleTableRecord
  2
ISO-25
 70
     0
 41
2.5
 42
0.625
 43
3.75
 44
1.25
 73
     0
 74
     0
 77
     1
 78
     8
140
2.5
141
2.5
143
0.0393700787
147
0.625
171
     3
172
     1
178
     0
271
     2
272
     2
274
     3
278
    44
283
     0
284
     8
340
11
  0
ENDTAB
  0
TABLE
  2
BLOCK_RECORD
  5
1
330
0
100
AcDbSymbolTable
 70
     3
  0
BLOCK_RECORD
  5
1F
330
1
100
AcDbSymbolTableRecord
100
AcDbBlockTableRecord
  2
*Model_Space
340
22
  0
BLOCK_RECORD
  5
1B
330
1
100
AcDbSymbolTableRecord
100
AcDbBlockTableRecord
  2
*Paper_Space
340
1E
  0
BLOCK_RECORD
  5
23
330
1
100
AcDbSymbolTableRecord
100
AcDbBlockTableRecord
  2
*Paper_Space0
340
26
  0
BLOCK_RECORD
  5
192
330
1
100
AcDbSymbolTableRecord
100
AcDbBlockTableRecord
  2
SW_CENTERMARKSYMBOL_0
340
0
102
{BLKREFS
331
19D
102
}
  0
BLOCK_RECORD
  5
26F
330
1
100
AcDbSymbolTableRecord
100
AcDbBlockTableRecord
  2
SW_CENTERMARKSYMBOL_1
340
0
102
{BLKREFS
331
27A
102
}
  0
ENDTAB
  0
ENDSEC
  0
SECTION
  2
BLOCKS
  0
BLOCK
  5
20
330
1F
100
AcDbEntity
  8
0
100
AcDbBlockBegin
  2
*Model_Space
 70
     0
 10
0.0
 20
0.0
 30
0.0
  3
*Model_Space
  1

  0
ENDBLK
  5
21
330
1F
100
AcDbEntity
  8
0
100
AcDbBlockEnd
  0
BLOCK
  5
1C
330
1B
100
AcDbEntity
 67
     1
  8
0
100
AcDbBlockBegin
  2
*Paper_Space
 70
     0
 10
0.0
 20
0.0
 30
0.0
  3
*Paper_Space
  1

  0
ENDBLK
  5
1D
330
1B
100
AcDbEntity
 67
     1
  8
0
100
AcDbBlockEnd
  0
BLOCK
  5
24
330
23
100
AcDbEntity
  8
0
100
AcDbBlockBegin
  2
*Paper_Space0
 70
     0
 10
0.0
 20
0.0
 30
0.0
  3
*Paper_Space0
  1

  0
ENDBLK
  5
25
330
23
100
AcDbEntity
  8
0
100
AcDbBlockEnd
  0
BLOCK
  5
193
330
192
100
AcDbEntity
  8
0
100
AcDbBlockBegin
  2
SW_CENTERMARKSYMBOL_0
 70
     0
 10
0.0
 20
0.0
 30
0.0
  3
SW_CENTERMARKSYMBOL_0
  1

  0
LINE
  5
195
330
192
100
AcDbEntity
  8
FORMAT
 62
     0
100
AcDbLine
 10
0.0
 20
0.0
 30
0.0
 11
0.0
 21
2.5
 31
0.0
  0
LINE
  5
196
330
192
100
AcDbEntity
  8
FORMAT
 62
     0
100
AcDbLine
 10
0.0
 20
0.0
 30
0.0
 11
-2.5
 21
0.0
 31
0.0
  0
LINE
  5
197
330
192
100
AcDbEntity
  8
FORMAT
 62
     0
100
AcDbLine
 10
0.0
 20
0.0
 30
0.0
 11
0.0
 21
-2.5
 31
0.0
  0
LINE
  5
198
330
192
100
AcDbEntity
  8
FORMAT
 62
     0
100
AcDbLine
 10
0.0
 20
0.0
 30
0.0
 11
2.5
 21
0.0
 31
0.0
  0
LINE
  5
199
330
192
100
AcDbEntity
  8
FORMAT
 62
     0
100
AcDbLine
 10
0.0
 20
5.0
 30
0.0
 11
0.0
 21
19.7523863243
 31
0.0
  0
LINE
  5
19A
330
192
100
AcDbEntity
  8
FORMAT
 62
     0
100
AcDbLine
 10
-5.0
 20
0.0
 30
0.0
 11
-10.55
 21
0.0
 31
0.0
  0
LINE
  5
19B
330
192
100
AcDbEntity
  8
FORMAT
 62
     0
100
AcDbLine
 10
0.0
 20
-5.0
 30
0.0
 11
0.0
 21
-10.55
 31
0.0
  0
LINE
  5
19C
330
192
100
AcDbEntity
  8
FORMAT
 62
     0
100
AcDbLine
 10
5.0
 20
0.0
 30
0.0
 11
10.55
 21
0.0
 31
0.0
  0
ENDBLK
  5
194
330
192
100
AcDbEntity
  8
0
100
AcDbBlockEnd
  0
BLOCK
  5
270
330
26F
100
AcDbEntity
  8
0
100
AcDbBlockBegin
  2
SW_CENTERMARKSYMBOL_1
 70
     0
 10
0.0
 20
0.0
 30
0.0
  3
SW_CENTERMARKSYMBOL_1
  1

  0
LINE
  5
272
330
26F
100
AcDbEntity
  8
FORMAT
 62
     0
100
AcDbLine
 10
0.0
 20
0.0
 30
0.0
 11
0.0
 21
2.5
 31
0.0
  0
LINE
  5
273
330
26F
100
AcDbEntity
  8
FORMAT
 62
     0
100
AcDbLine
 10
0.0
 20
0.0
 30
0.0
 11
-2.5
 21
0.0
 31
0.0
  0
LINE
  5
274
330
26F
100
AcDbEntity
  8
FORMAT
 62
     0
100
AcDbLine
 10
0.0
 20
0.0
 30
0.0
 11
0.0
 21
-2.5
 31
0.0
  0
LINE
  5
275
330
26F
100
AcDbEntity
  8
FORMAT
 62
     0
100
AcDbLine
 10
0.0
 20
0.0
 30
0.0
 11
2.5
 21
0.0
 31
0.0
  0
LINE
  5
276
330
26F
100
AcDbEntity
  8
FORMAT
 62
     0
100
AcDbLine
 10
0.0
 20
5.0
 30
0.0
 11
0.0
 21
8.5
 31
0.0
  0
LINE
  5
277
330
26F
100
AcDbEntity
  8
FORMAT
 62
     0
100
AcDbLine
 10
-5.0
 20
0.0
 30
0.0
 11
-8.5
 21
0.0
 31
0.0
  0
LINE
  5
278
330
26F
100
AcDbEntity
  8
FORMAT
 62
     0
100
AcDbLine
 10
0.0
 20
-5.0
 30
0.0
 11
0.0
 21
-8.5
 31
0.0
  0
LINE
  5
279
330
26F
100
AcDbEntity
  8
FORMAT
 62
     0
100
AcDbLine
 10
5.0
 20
0.0
 30
0.0
 11
28.2753168977
 21
0.0
 31
0.0
  0
ENDBLK
  5
271
330
26F
100
AcDbEntity
  8
0
100
AcDbBlockEnd
  0
ENDSEC
  0
SECTION
  2
ENTITIES
  0
MTEXT
  5
65
330
1F
100
AcDbEntity
  8
FORMAT
100
AcDbMText
 10
125.7068693484
 20
97.4064331445
 30
0.0
 40
3.7041666667
 41
0.0
 71
     2
 72
     1
  1
5R-RL1108
  7
SLDTEXTSTYLE0
 73
     1
 44
1.0
  0
LINE
  5
66
330
1F
100
AcDbEntity
  8
0
  6
Continuous
 62
     7
370
    25
100
AcDbLine
 10
104.790280526
 20
76.5836327881
 30
0.0
 11
103.8867535802
 21
75.0186782119
 31
0.0
  0
LINE
  5
67
330
1F
100
AcDbEntity
  8
0
  6
Continuous
 62
     7
370
    25
100
AcDbLine
 10
103.8867535802
 20
58.5186782119
 30
0.0
 11
104.790280526
 21
56.9537236357
 31
0.0
  0
LINE
  5
68
330
1F
100
AcDbEntity
  8
0
  6
Continuous
 62
     7
370
    25
100
AcDbLine
 10
116.6867535802
 20
58.5186782119
 30
0.0
 11
116.8867535802
 21
58.7186782119
 31
0.0
  0
LINE
  5
69
330
1F
100
AcDbEntity
  8
0
  6
Continuous
 62
     7
370
    25
100
AcDbLine
 10
116.8867535802
 20
74.8186782119
 30
0.0
 11
116.6867535802
 21
75.0186782119
 31
0.0
  0
LINE
  5
6A
330
1F
100
AcDbEntity
  8
0
  6
Continuous
 62
     7
370
    25
100
AcDbLine
 10
116.6867535802
 20
75.0186782119
 30
0.0
 11
115.8197662821
 21
75.0186782119
 31
0.0
  0
LINE
  5
6B
330
1F
100
AcDbEntity
  8
0
  6
Continuous
 62
     7
370
    25
100
AcDbLine
 10
115.8197662821
 20
58.5186782119
 30
0.0
 11
116.6867535802
 21
58.5186782119
 31
0.0
  0
ARC
  5
6C
330
1F
100
AcDbEntity
  8
0
  6
Continuous
 62
     7
370
    25
100
AcDbCircle
 10
115.8197662821
 20
75.7686782119
 30
0.0
 40
0.7500000000000123
100
AcDbArc
 50
210.0
 51
270.0
  0
LINE
  5
6D
330
1F
100
AcDbEntity
  8
0
  6
Continuous
 62
     7
370
    25
100
AcDbLine
 10
115.1702472292
 20
75.3936782119
 30
0.0
 11
114.4832266343
 21
76.5836327881
 31
0.0
  0
LINE
  5
6E
330
1F
100
AcDbEntity
  8
0
  6
Continuous
 62
     7
370
    25
100
AcDbLine
 10
114.4832266343
 20
56.9537236357
 30
0.0
 11
115.1702472292
 21
58.1436782119
 31
0.0
  0
ARC
  5
6F
330
1F
100
AcDbEntity
  8
0
  6
Continuous
 62
     7
370
    25
100
AcDbCircle
 10
115.8197662821
 20
57.7686782119
 30
0.0
 40
0.7500000000000123
100
AcDbArc
 50
90.0
 51
150.0
  0
LINE
  5
70
330
1F
100
AcDbEntity
  8
0
  6
Continuous
 62
     7
370
    25
100
AcDbLine
 10
103.8867535802
 20
73.3471782119
 30
0.0
 11
100.63841963
 21
73.3471782119
 31
0.0
  0
LINE
  5
71
330
1F
100
AcDbEntity
  8
0
  6
Continuous
 62
     7
370
    25
100
AcDbLine
 10
100.63841963
 20
60.1901782119
 30
0.0
 11
103.8867535802
 21
60.1901782119
 31
0.0
  0
ARC
  5
72
330
1F
100
AcDbEntity
  8
0
  6
Continuous
 62
     7
370
    25
100
AcDbCircle
 10
100.13841963
 20
73.2686782119
 30
0.0
 40
0.5
100
AcDbArc
 50
270.0
 51
0.0
  0
ARC
  5
73
330
1F
100
AcDbEntity
  8
0
  6
Continuous
 62
     7
370
    25
100
AcDbCircle
 10
100.13841963
 20
60.2686782119
 30
0.0
 40
0.5
100
AcDbArc
 50
0.0
 51
90.0
  0
LINE
  5
74
330
1F
100
AcDbEntity
  8
0
  6
Continuous
 62
     7
370
    25
100
AcDbLine
 10
96.63841963
 20
72.7686782119
 30
0.0
 11
96.63841963
 21
74.7306238454
 31
0.0
  0
LINE
  5
75
330
1F
100
AcDbEntity
  8
0
  6
Continuous
 62
     7
370
    25
100
AcDbLine
 10
84.63841963
 20
74.7306238454
 30
0.0
 11
84.63841963
 21
62.7686782119
 31
0.0
  0
LINE
  5
76
330
1F
100
AcDbEntity
  8
0
  6
Continuous
 62
     7
370
    25
100
AcDbLine
 10
86.63841963
 20
60.7686782119
 30
0.0
 11
100.13841963
 21
60.7686782119
 31
0.0
  0
LINE
  5
77
330
1F
100
AcDbEntity
  8
0
  6
Continuous
 62
     7
370
    25
100
AcDbLine
 10
100.13841963
 20
72.7686782119
 30
0.0
 11
96.63841963
 21
72.7686782119
 31
0.0
  0
LINE
  5
78
330
1F
100
AcDbEntity
  8
0
  6
Continuous
 62
     7
370
    25
100
AcDbLine
 10
96.63841963
 20
74.7306238454
 30
0.0
 11
95.70648213
 21
75.2686782119
 31
0.0
  0
LINE
  5
79
330
1F
100
AcDbEntity
  8
0
  6
Continuous
 62
     7
370
    25
100
AcDbLine
 10
85.57035713
 20
75.2686782119
 30
0.0
 11
84.63841963
 21
74.7306238454
 31
0.0
  0
LINE
  5
7A
330
1F
100
AcDbEntity
  8
0
  6
Continuous
 62
     7
370
    25
100
AcDbLine
 10
95.70648213
 20
75.2686782119
 30
0.0
 11
95.4206992569
 21
84.4137301525
 31
0.0
  0
LINE
  5
7B
330
1F
100
AcDbEntity
  8
0
  6
Continuous
 62
     7
370
    25
100
AcDbLine
 10
85.8561400031
 20
84.4137301525
 30
0.0
 11
85.57035713
 21
75.2686782119
 31
0.0
  0
LINE
  5
7C
330
1F
100
AcDbEntity
  8
0
  6
Continuous
 62
     7
370
    25
100
AcDbLine
 10
95.4206992569
 20
84.4137301525
 30
0.0
 11
94.63841963
 21
85.7686782119
 31
0.0
  0
LINE
  5
7D
330
1F
100
AcDbEntity
  8
0
  6
Continuous
 62
     7
370
    25
100
AcDbLine
 10
86.63841963
 20
85.7686782119
 30
0.0
 11
85.8561400031
 21
84.4137301525
 31
0.0
  0
ARC
  5
7E
330
1F
100
AcDbEntity
  8
0
  6
Continuous
 62
     7
370
    25
100
AcDbCircle
 10
86.63841963
 20
62.7686782119
 30
0.0
 40
2.000000000000005
100
AcDbArc
 50
179.753368613
 51
270.2088364469
  0
SPLINE
  5
7F
330
1F
100
AcDbEntity
  8
0
  6
Continuous
 62
     7
370
    25
100
AcDbSpline
210
0.0
220
0.0
230
1.0
 70
     8
 71
     3
 72
    10
 73
     6
 74
     0
 42
0.00000001
 43
0.00000001
 40
0.0
 40
0.0
 40
0.0
 40
0.0
 40
0.0789477693778934
 40
0.5375793028234307
 40
1.0
 40
1.0
 40
1.0
 40
1.0
 10
115.1702472292149
 20
68.23176570073943
 30
0.0
 10
115.1773775270285
 20
68.15499604637102
 30
0.0
 10
115.2259298871235
 20
67.63224818916663
 30
0.0
 10
115.2678467020022
 20
66.65407648326745
 30
0.0
 10
115.2028694911642
 20
65.75631708917658
 30
0.0
 10
115.1702472292149
 20
65.30559072305951
 30
0.0
  0
SPLINE
  5
80
330
1F
100
AcDbEntity
  8
0
  6
Continuous
 62
     7
370
    25
100
AcDbSpline
210
0.0
220
0.0
230
1.0
 70
     8
 71
     3
 72
    10
 73
     6
 74
     0
 42
0.00000001
 43
0.00000001
 40
0.0
 40
0.0
 40
0.0
 40
0.0
 40
0.3355445600395945
 40
0.6726666839999053
 40
0.9999999999999999
 40
0.9999999999999999
 40
0.9999999999999999
 40
0.9999999999999999
 10
115.1702472292149
 20
65.30559072305951
 30
0.0
 10
115.1231130132305
 20
64.91496115675608
 30
0.0
 10
115.0286229795806
 20
64.13186547787917
 30
0.0
 10
114.7902072015652
 20
62.98261350846439
 30
0.0
 10
114.5845435391676
 20
62.23131572670349
 30
0.0
 10
114.4832266343088
 20
61.86120092378764
 30
0.0
  0
LINE
  5
81
330
1F
100
AcDbEntity
  8
0
  6
Continuous
 62
     7
370
    25
100
AcDbLine
 10
104.790280526
 20
61.8612009238
 30
0.0
 11
114.4832266343
 21
61.8612009238
 31
0.0
  0
SPLINE
  5
82
330
1F
100
AcDbEntity
  8
0
  6
Continuous
 62
     7
370
    25
100
AcDbSpline
210
0.0
220
0.0
230
1.0
 70
     8
 71
     3
 72
    16
 73
    12
 74
     0
 42
0.00000001
 43
0.00000001
 40
0.0
 40
0.0
 40
0.0
 40
0.0
 40
0.1120102749541304
 40
0.2377440458013614
 40
0.3634452870972628
 40
0.4922378783757058
 40
0.6210287926568645
 40
0.71525568826663
 40
0.8094925111982041
 40
0.9047415002555057
 40
1.0
 40
1.0
 40
1.0
 40
1.0
 10
104.7902805260133
 20
61.86120092378764
 30
0.0
 10
104.6916038335575
 20
62.21995195483883
 30
0.0
 10
104.4821605829241
 20
62.9814081836754
 30
0.0
 10
104.2420030294616
 20
64.16546153230694
 30
0.0
 10
104.0746335591792
 20
65.4182547486092
 30
0.0
 10
104.0134564241517
 20
66.69136730665181
 30
0.0
 10
104.0575574119428
 20
67.86043323910226
 30
0.0
 10
104.1752795235585
 20
68.90810607379943
 30
0.0
 10
104.3333897267358
 20
69.83739019222342
 30
0.0
 10
104.5368086276749
 20
70.76142552864073
 30
0.0
 10
104.7057870812688
 20
71.3712353617284
 30
0.0
 10
104.7902805260133
 20
71.67615550001132
 30
0.0
  0
LINE
  5
83
330
1F
100
AcDbEntity
  8
0
  6
Continuous
 62
     7
370
    25
100
AcDbLine
 10
104.790280526
 20
71.6761555
 30
0.0
 11
114.4832266343
 21
71.6761555
 31
0.0
  0
SPLINE
  5
84
330
1F
100
AcDbEntity
  8
0
  6
Continuous
 62
     7
370
    25
100
AcDbSpline
210
0.0
220
0.0
230
1.0
 70
     8
 71
     3
 72
    11
 73
     7
 74
     0
 42
0.00000001
 43
0.00000001
 40
0.0
 40
0.0
 40
0.0
 40
0.0
 40
0.2490252138763564
 40
0.4980311639765296
 40
0.7490269204800198
 40
0.9999999999999999
 40
0.9999999999999999
 40
0.9999999999999999
 40
0.9999999999999999
 10
114.4832266343088
 20
71.67615550001132
 30
0.0
 10
114.5614755071342
 20
71.39486263874255
 30
0.0
 10
114.7179671997082
 20
70.83229867610089
 30
0.0
 10
114.9107500880746
 20
69.97535436297485
 30
0.0
 10
115.0698159733094
 20
69.10893432703281
 30
0.0
 10
115.1367711521706
 20
68.52414643669601
 30
0.0
 10
115.1702472292149
 20
68.23176570073943
 30
0.0
  0
SPLINE
  5
85
330
1F
100
AcDbEntity
  8
0
  6
Continuous
 62
     7
370
    25
100
AcDbSpline
210
0.0
220
0.0
230
1.0
 70
     8
 71
     3
 72
    16
 73
    12
 74
     0
 42
0.00000001
 43
0.00000001
 40
0.0
 40
0.0
 40
0.0
 40
0.0
 40
0.1322988555735027
 40
0.2645603055581355
 40
0.3546976504550874
 40
0.444904051248098
 40
0.5350245245138255
 40
0.6502098333825368
 40
0.7654131100753919
 40
0.8826952156317988
 40
1.0
 40
1.0
 40
1.0
 40
1.0
 10
104.7902805260133
 20
56.95372363567573
 30
0.0
 10
104.6746959271521
 20
57.16574131229333
 30
0.0
 10
104.443559409304
 20
57.58971672059547
 30
0.0
 10
104.2231342577208
 20
58.169054707132
 30
0.0
 10
104.0933307268063
 20
58.68430003802792
 30
0.0
 10
104.0328414322118
 20
59.13269049154582
 30
0.0
 10
104.0252441918593
 20
59.62369134768072
 30
0.0
 10
104.0926508108005
 20
60.15543300075769
 30
0.0
 10
104.250043760773
 20
60.72778345438596
 30
0.0
 10
104.4809505448929
 20
61.29756194319384
 30
0.0
 10
104.6871638870452
 20
61.6733091550695
 30
0.0
 10
104.7902805260133
 20
61.86120092378764
 30
0.0
  0
SPLINE
  5
86
330
1F
100
AcDbEntity
  8
0
  6
Continuous
 62
     7
370
    25
100
AcDbSpline
210
0.0
220
0.0
230
1.0
 70
     8
 71
     3
 72
    16
 73
    12
 74
     0
 42
0.00000001
 43
0.00000001
 40
0.0
 40
0.0
 40
0.0
 40
0.0
 40
0.1322988555735044
 40
0.2645603055581388
 40
0.3546976504550921
 40
0.4449040512481036
 40
0.5350245245138324
 40
0.6502098333825423
 40
0.7654131100753958
 40
0.8826952156318006
 40
1.0
 40
1.0
 40
1.0
 40
1.0
 10
104.7902805260133
 20
71.67615550001132
 30
0.0
 10
104.6746959271521
 20
71.88817317662891
 30
0.0
 10
104.443559409304
 20
72.31214858493102
 30
0.0
 10
104.2231342577208
 20
72.89148657146754
 30
0.0
 10
104.0933307268064
 20
73.40673190236346
 30
0.0
 10
104.0328414322118
 20
73.85512235588135
 30
0.0
 10
104.0252441918594
 20
74.34612321201622
 30
0.0
 10
104.0926508108005
 20
74.87786486509317
 30
0.0
 10
104.250043760773
 20
75.45021531872142
 30
0.0
 10
104.4809505448929
 20
76.01999380752927
 30
0.0
 10
104.6871638870452
 20
76.39574101940488
 30
0.0
 10
104.7902805260133
 20
76.58363278812303
 30
0.0
  0
LINE
  5
87
330
1F
100
AcDbEntity
  8
0
  6
Continuous
 62
     7
370
    25
100
AcDbLine
 10
103.8867535802
 20
66.7686782119
 30
0.0
 11
103.8867535802
 21
75.0186782119
 31
0.0
  0
LINE
  5
88
330
1F
100
AcDbEntity
  8
0
  6
Continuous
 62
     7
370
    25
100
AcDbLine
 10
103.8867535802
 20
58.5186782119
 30
0.0
 11
103.8867535802
 21
66.7686782119
 31
0.0
  0
SPLINE
  5
89
330
1F
100
AcDbEntity
  8
0
  6
Continuous
 62
     7
370
    25
100
AcDbSpline
210
0.0
220
0.0
230
1.0
 70
     8
 71
     3
 72
    11
 73
     7
 74
     0
 42
0.00000001
 43
0.00000001
 40
0.0
 40
0.0
 40
0.0
 40
0.0
 40
0.2858113857234067
 40
0.5527245545213759
 40
0.8220275582229318
 40
1.0
 40
1.0
 40
1.0
 40
1.0
 10
115.8197662820533
 20
68.16815320122464
 30
0.0
 10
115.8158259806307
 20
67.90279082257486
 30
0.0
 10
115.8082059155905
 20
67.3896121675164
 30
0.0
 10
115.7967448259396
 20
66.61781293194173
 30
0.0
 10
115.8141822151812
 20
65.9485991045773
 30
0.0
 10
115.8181768164405
 20
65.53412421147718
 30
0.0
 10
115.8197662820533
 20
65.3692032225743
 30
0.0
  0
ARC
  5
8A
330
1F
100
AcDbEntity
  8
0
  6
Continuous
 62
     7
370
    25
100
AcDbCircle
 10
115.7510430178
 20
62.7231241217
 30
0.0
 40
2.646971381584846
100
AcDbArc
 50
88.5122636654
 51
102.674909816
  0
ARC
  5
8B
330
1F
100
AcDbEntity
  8
0
  6
Continuous
 62
     7
370
    25
100
AcDbCircle
 10
115.7510430178
 20
70.8142323021
 30
0.0
 40
2.646971381583734
100
AcDbArc
 50
257.325090184
 51
271.4877363346
  0
LINE
  5
8C
330
1F
100
AcDbEntity
  8
0
  6
Continuous
 62
     7
370
    25
100
AcDbLine
 10
115.1702472292
 20
60.1390060242
 30
0.0
 11
115.1702472292
 21
65.3055907231
 31
0.0
  0
SPLINE
  5
8D
330
1F
100
AcDbEntity
  8
0
  6
Continuous
 62
     7
370
    25
100
AcDbSpline
210
0.0
220
0.0
230
1.0
 70
     8
 71
     3
 72
    11
 73
     7
 74
     0
 42
0.00000001
 43
0.00000001
 40
0.0
 40
0.0
 40
0.0
 40
0.0
 40
0.2490252138763566
 40
0.4980311639765298
 40
0.7490269204800198
 40
1.0
 40
1.0
 40
1.0
 40
1.0
 10
114.4832266343088
 20
61.86120092378764
 30
0.0
 10
114.5614755071342
 20
61.72055449315326
 30
0.0
 10
114.7179671997082
 20
61.43927251183242
 30
0.0
 10
114.9107500880746
 20
61.01080035526939
 30
0.0
 10
115.0698159733094
 20
60.57759033729837
 30
0.0
 10
115.1367711521706
 20
60.28519639212998
 30
0.0
 10
115.1702472292149
 20
60.13900602415168
 30
0.0
  0
SPLINE
  5
8E
330
1F
100
AcDbEntity
  8
0
  6
Continuous
 62
     7
370
    25
100
AcDbSpline
210
0.0
220
0.0
230
1.0
 70
     8
 71
     3
 72
    11
 73
     7
 74
     0
 42
0.00000001
 43
0.00000001
 40
0.0
 40
0.0
 40
0.0
 40
0.0
 40
0.2488617730236801
 40
0.4977454583558502
 40
0.748862751792887
 40
0.9999999999999999
 40
0.9999999999999999
 40
0.9999999999999999
 40
0.9999999999999999
 10
115.1702472292149
 20
73.3983503996473
 30
0.0
 10
115.1370931739986
 20
73.2533880193443
 30
0.0
 10
115.0707821443475
 20
72.96345049478361
 30
0.0
 10
114.9127401382625
 20
72.53141090728916
 30
0.0
 10
114.7198879588158
 20
72.10167283631222
 30
0.0
 10
114.5621158319273
 20
71.81799836894426
 30
0.0
 10
114.4832266343088
 20
71.67615550001132
 30
0.0
  0
LINE
  5
8F
330
1F
100
AcDbEntity
  8
0
  6
Continuous
 62
     7
370
    25
100
AcDbLine
 10
115.1702472292
 20
68.2317657007
 30
0.0
 11
115.1702472292
 21
73.3983503996
 31
0.0
  0
SPLINE
  5
90
330
1F
100
AcDbEntity
  8
0
  6
Continuous
 62
     7
370
    25
100
AcDbSpline
210
0.0
220
0.0
230
1.0
 70
     8
 71
     3
 72
    10
 73
     6
 74
     0
 42
0.00000001
 43
0.00000001
 40
0.0
 40
0.0
 40
0.0
 40
0.0
 40
0.3089808900029882
 40
0.6190948628358306
 40
1.0
 40
1.0
 40
1.0
 40
1.0
 10
115.1702472292149
 20
60.13900602415168
 30
0.0
 10
115.1943942357517
 20
59.98855806178381
 30
0.0
 10
115.2427767997982
 20
59.68711042006991
 30
0.0
 10
115.2502318925149
 20
59.19809918147386
 30
0.0
 10
115.1986695447153
 20
58.86147389631564
 30
0.0
 10
115.1702472292149
 20
58.67591853531169
 30
0.0
  0
SPLINE
  5
91
330
1F
100
AcDbEntity
  8
0
  6
Continuous
 62
     7
370
    25
100
AcDbSpline
210
0.0
220
0.0
230
1.0
 70
     8
 71
     3
 72
    11
 73
     7
 74
     0
 42
0.00000001
 43
0.00000001
 40
0.0
 40
0.0
 40
0.0
 40
0.0
 40
0.2488617730236805
 40
0.4977454583558503
 40
0.748862751792887
 40
1.0
 40
1.0
 40
1.0
 40
1.0
 10
115.1702472292149
 20
58.67591853531169
 30
0.0
 10
115.1370931739986
 20
58.5309561550087
 30
0.0
 10
115.0707821443475
 20
58.24101863044802
 30
0.0
 10
114.9127401382625
 20
57.80897904295357
 30
0.0
 10
114.7198879588158
 20
57.37924097197662
 30
0.0
 10
114.5621158319273
 20
57.09556650460868
 30
0.0
 10
114.4832266343088
 20
56.95372363567573
 30
0.0
  0
LINE
  5
92
330
1F
100
AcDbEntity
  8
0
  6
Continuous
 62
     7
370
    25
100
AcDbLine
 10
104.790280526
 20
56.9537236357
 30
0.0
 11
114.4832266343
 21
56.9537236357
 31
0.0
  0
LINE
  5
93
330
1F
100
AcDbEntity
  8
0
  6
Continuous
 62
     7
370
    25
100
AcDbLine
 10
115.8197662821
 20
65.3692032226
 30
0.0
 11
115.8197662821
 21
60.427252641
 31
0.0
  0
ARC
  5
94
330
1F
100
AcDbEntity
  8
0
  6
Continuous
 62
     7
370
    25
100
AcDbCircle
 10
115.7908139825
 20
59.6165736176
 30
0.0
 40
0.8111958547051145
100
AcDbArc
 50
87.9546284054
 51
139.9072030665
  0
ARC
  5
95
330
1F
100
AcDbEntity
  8
0
  6
Continuous
 62
     7
370
    25
100
AcDbCircle
 10
115.7908139825
 20
73.9207828062
 30
0.0
 40
0.8111958547051636
100
AcDbArc
 50
220.0927969335
 51
272.0453715946
  0
LINE
  5
96
330
1F
100
AcDbEntity
  8
0
  6
Continuous
 62
     7
370
    25
100
AcDbLine
 10
115.8197662821
 20
73.1101037828
 30
0.0
 11
115.8197662821
 21
68.1681532012
 31
0.0
  0
SPLINE
  5
97
330
1F
100
AcDbEntity
  8
0
  6
Continuous
 62
     7
370
    25
100
AcDbSpline
210
0.0
220
0.0
230
1.0
 70
     8
 71
     3
 72
    10
 73
     6
 74
     0
 42
0.00000001
 43
0.00000001
 40
0.0
 40
0.0
 40
0.0
 40
0.0
 40
0.3089808900030073
 40
0.6190948628358686
 40
1.0
 40
1.0
 40
1.0
 40
1.0
 10
115.1702472292149
 20
74.86143788848703
 30
0.0
 10
115.1943942357516
 20
74.71098992611918
 30
0.0
 10
115.2427767997982
 20
74.40954228440533
 30
0.0
 10
115.2502318925148
 20
73.92053104580933
 30
0.0
 10
115.1986695447153
 20
73.58390576065119
 30
0.0
 10
115.1702472292149
 20
73.3983503996473
 30
0.0
  0
LINE
  5
98
330
1F
100
AcDbEntity
  8
0
  6
Continuous
 62
     7
370
    25
100
AcDbLine
 10
104.790280526
 20
76.5836327881
 30
0.0
 11
114.4832266343
 21
76.5836327881
 31
0.0
  0
SPLINE
  5
99
330
1F
100
AcDbEntity
  8
0
  6
Continuous
 62
     7
370
    25
100
AcDbSpline
210
0.0
220
0.0
230
1.0
 70
     8
 71
     3
 72
    11
 73
     7
 74
     0
 42
0.00000001
 43
0.00000001
 40
0.0
 40
0.0
 40
0.0
 40
0.0
 40
0.2490252138763565
 40
0.4980311639765297
 40
0.7490269204800202
 40
1.0
 40
1.0
 40
1.0
 40
1.0
 10
114.4832266343088
 20
76.58363278812303
 30
0.0
 10
114.5614755071342
 20
76.44298635748864
 30
0.0
 10
114.7179671997082
 20
76.1617043761678
 30
0.0
 10
114.9107500880746
 20
75.73323221960479
 30
0.0
 10
115.0698159733094
 20
75.30002220163375
 30
0.0
 10
115.1367711521706
 20
75.00762825646534
 30
0.0
 10
115.1702472292149
 20
74.86143788848703
 30
0.0
  0
LINE
  5
9A
330
1F
100
AcDbEntity
  8
0
  6
Continuous
 62
     7
370
    25
100
AcDbLine
 10
116.8867535802
 20
66.7686782119
 30
0.0
 11
116.8867535802
 21
58.7186782119
 31
0.0
  0
LINE
  5
9B
330
1F
100
AcDbEntity
  8
0
  6
Continuous
 62
     7
370
    25
100
AcDbLine
 10
116.8867535802
 20
74.8186782119
 30
0.0
 11
116.8867535802
 21
66.7686782119
 31
0.0
  0
LINE
  5
9C
330
1F
100
AcDbEntity
  8
0
  6
Continuous
 62
     7
370
    25
100
AcDbLine
 10
116.6867535802
 20
66.7686782119
 30
0.0
 11
116.6867535802
 21
75.0186782119
 31
0.0
  0
LINE
  5
9D
330
1F
100
AcDbEntity
  8
0
  6
Continuous
 62
     7
370
    25
100
AcDbLine
 10
116.6867535802
 20
58.5186782119
 30
0.0
 11
116.6867535802
 21
66.7686782119
 31
0.0
  0
SPLINE
  5
9E
330
1F
100
AcDbEntity
  8
0
  6
Continuous
 62
     7
370
    25
100
AcDbSpline
210
0.0
220
0.0
230
1.0
 70
     8
 71
     3
 72
    11
 73
     7
 74
     0
 42
0.00000001
 43
0.00000001
 40
0.0
 40
0.0
 40
0.0
 40
0.0
 40
0.2858113857233994
 40
0.5527245545213819
 40
0.8220275582229517
 40
1.0
 40
1.0
 40
1.0
 40
1.0
 10
115.8197662820533
 20
60.42725264101027
 30
0.0
 10
115.8158259806307
 20
60.26156035494135
 30
0.0
 10
115.8082059155905
 20
59.94113157015632
 30
0.0
 10
115.7967448259396
 20
59.54106917539229
 30
0.0
 10
115.8141822151812
 20
59.2402850380855
 30
0.0
 10
115.8181768164405
 20
59.08826639418901
 30
0.0
 10
115.8197662820533
 20
59.02777765168508
 30
0.0
  0
SPLINE
  5
9F
330
1F
100
AcDbEntity
  8
0
  6
Continuous
 62
     7
370
    25
100
AcDbSpline
210
0.0
220
0.0
230
1.0
 70
     8
 71
     3
 72
    11
 73
     7
 74
     0
 42
0.00000001
 43
0.00000001
 40
0.0
 40
0.0
 40
0.0
 40
0.0
 40
0.2858113857233211
 40
0.5527245545214224
 40
0.8220275582231135
 40
1.0
 40
1.0
 40
1.0
 40
1.0
 10
115.8197662820533
 20
74.50957877211366
 30
0.0
 10
115.8158259806307
 20
74.40990867953285
 30
0.0
 10
115.8082059155905
 20
74.21715880925942
 30
0.0
 10
115.7967448259396
 20
73.84542196844873
 30
0.0
 10
115.8141822151812
 20
73.47699227839108
 30
0.0
 10
115.8181768164405
 20
73.21453602918751
 30
0.0
 10
115.8197662820533
 20
73.11010378278868
 30
0.0
  0
ARC
  5
A0
330
1F
100
AcDbEntity
  8
0
  6
Continuous
 62
     7
370
    25
100
AcDbCircle
 10
115.8113027473
 20
58.2679772674
 30
0.0
 40
0.7598475211238876
100
AcDbArc
 50
89.3617997906
 51
147.5290082717
  0
ARC
  5
A1
330
1F
100
AcDbEntity
  8
0
  6
Continuous
 62
     7
370
    25
100
AcDbCircle
 10
115.8113027473
 20
75.2693791564
 30
0.0
 40
0.7598475211158495
100
AcDbArc
 50
212.4709917279
 51
270.6382002097
  0
LINE
  5
A2
330
1F
100
AcDbEntity
  8
0
  6
Continuous
 62
     7
370
    25
100
AcDbLine
 10
100.63841963
 20
73.3471782119
 30
0.0
 11
100.63841963
 21
60.1901782119
 31
0.0
  0
SPLINE
  5
A3
330
1F
100
AcDbEntity
  8
0
  6
Continuous
 62
     7
370
    25
100
AcDbSpline
210
0.0
220
0.0
230
1.0
 70
    24
 71
     3
 72
    14
 73
    10
 74
     0
 42
0.00000001
 43
0.00000001
 40
0.0
 40
0.0
 40
0.0
 40
0.0
 40
0.25
 40
0.25
 40
0.5
 40
0.5
 40
0.75
 40
0.75
 40
1.0
 40
1.0
 40
1.0
 40
1.0
 10
90.6384196300006
 20
73.51867821189937
 30
0.0
 10
90.83695694458962
 20
73.51867821189937
 30
0.0
 10
91.03549567542298
 20
73.51867821189937
 30
0.0
 10
91.43166451169651
 20
73.51867821189937
 30
0.0
 10
91.62929745701781
 20
73.51867821189937
 30
0.0
 10
92.022663885908
 20
73.51867821189937
 30
0.0
 10
92.2184002265643
 20
73.51867821189937
 30
0.0
 10
92.6068121394561
 20
73.51867821189937
 30
0.0
 10
92.79949058053494
 20
73.51867821189937
 30
0.0
 10
92.98992978307244
 20
73.51867821189937
 30
0.0
  0
SPLINE
  5
A4
330
1F
100
AcDbEntity
  8
0
  6
Continuous
 62
     7
370
    25
100
AcDbSpline
210
0.0
220
0.0
230
1.0
 70
    24
 71
     3
 72
    14
 73
    10
 74
     0
 42
0.00000001
 43
0.00000001
 40
0.0
 40
0.0
 40
0.0
 40
0.0
 40
0.25
 40
0.25
 40
0.5
 40
0.5
 40
0.75
 40
0.75
 40
1.0
 40
1.0
 40
1.0
 40
1.0
 10
90.6384196300006
 20
73.51867821189937
 30
0.0
 10
90.43988231541157
 20
73.51867821189937
 30
0.0
 10
90.24134358457822
 20
73.51867821189937
 30
0.0
 10
89.84517474830467
 20
73.51867821189937
 30
0.0
 10
89.64754180298335
 20
73.51867821189937
 30
0.0
 10
89.25417537409318
 20
73.51867821189937
 30
0.0
 10
89.05843903343688
 20
73.51867821189937
 30
0.0
 10
88.67002712054509
 20
73.51867821189937
 30
0.0
 10
88.47734867946625
 20
73.51867821189937
 30
0.0
 10
88.28690947692874
 20
73.51867821189937
 30
0.0
  0
LINE
  5
A5
330
1F
100
AcDbEntity
  8
0
  6
Continuous
 62
     7
370
    25
100
AcDbLine
 10
86.07841963
 20
73.5186782119
 30
0.0
 11
88.2869094769
 21
73.5186782119
 31
0.0
  0
SPLINE
  5
A6
330
1F
100
AcDbEntity
  8
0
  6
Continuous
 62
     7
370
    25
100
AcDbSpline
210
0.0
220
0.0
230
1.0
 70
     8
 71
     3
 72
    14
 73
    10
 74
     0
 42
0.00000001
 43
0.00000001
 40
0.0
 40
0.0
 40
0.0
 40
0.0
 40
0.25
 40
0.25
 40
0.5
 40
0.5
 40
0.75
 40
0.75
 40
1.0
 40
1.0
 40
1.0
 40
1.0
 10
86.0784196300006
 20
73.51867821189937
 30
0.0
 10
86.02226638966977
 20
73.51867821189937
 30
0.0
 10
85.96851279735121
 20
73.50872490534687
 30
0.0
 10
85.86538938894172
 20
73.47035328953088
 30
0.0
 10
85.8162114129341
 20
73.4418143575577
 30
0.0
 10
85.72704690060833
 20
73.3646268102776
 30
0.0
 10
85.68579823633644
 20
73.31519812508967
 30
0.0
 10
85.62141088333445
 20
73.1876896379126
 30
0.0
 10
85.59841963000059
 20
73.10607342785846
 30
0.0
 10
85.59841963000059
 20
73.01867821189937
 30
0.0
  0
LINE
  5
A7
330
1F
100
AcDbEntity
  8
0
  6
Continuous
 62
     7
370
    25
100
AcDbLine
 10
85.59841963
 20
63.7686782119
 30
0.0
 11
85.59841963
 21
73.0186782119
 31
0.0
  0
SPLINE
  5
A8
330
1F
100
AcDbEntity
  8
0
  6
Continuous
 62
     7
370
    25
100
AcDbSpline
210
0.0
220
0.0
230
1.0
 70
     8
 71
     3
 72
     8
 73
     4
 74
     0
 42
0.00000001
 43
0.00000001
 40
0.0
 40
0.0
 40
0.0
 40
0.0
 40
1.0
 40
1.0
 40
1.0
 40
1.0
 10
85.62368844755585
 20
63.42552409026955
 30
0.0
 10
85.6070404531308
 20
63.53790005421514
 30
0.0
 10
85.59841963000059
 20
63.65221162467719
 30
0.0
 10
85.59841963000059
 20
63.76867821189938
 30
0.0
  0
LINE
  5
A9
330
1F
100
AcDbEntity
  8
0
  6
Continuous
 62
     7
370
    25
100
AcDbLine
 10
96.0081533929
 20
72.1384119748
 30
0.0
 11
96.63841963
 21
72.7686782119
 31
0.0
  0
SPLINE
  5
AA
330
1F
100
AcDbEntity
  8
0
  6
Continuous
 62
     7
370
    25
100
AcDbSpline
210
0.0
220
0.0
230
1.0
 70
     8
 71
     3
 72
    12
 73
     8
 74
     0
 42
0.00000001
 43
0.00000001
 40
0.0
 40
0.0
 40
0.0
 40
0.0
 40
0.2499999999999999
 40
0.2499999999999999
 40
0.4999999999999998
 40
0.4999999999999998
 40
1.0
 40
1.0
 40
1.0
 40
1.0
 10
95.67841963000059
 20
72.76867821189938
 30
0.0
 10
95.67841963000059
 20
72.68585926368492
 30
0.0
 10
95.69206923684501
 20
72.60541895486124
 30
0.0
 10
95.73659066210828
 20
72.4641314332961
 30
0.0
 10
95.76651779346102
 20
72.40397171357107
 30
0.0
 10
95.86468589372721
 20
72.25049836051909
 30
0.0
 10
95.93812919848986
 20
72.18546012930912
 30
0.0
 10
96.00815339286223
 20
72.13841197476071
 30
0.0
  0
LINE
  5
AB
330
1F
100
AcDbEntity
  8
0
  6
Continuous
 62
     7
370
    25
100
AcDbLine
 10
95.67841963
 20
73.0186782119
 30
0.0
 11
95.67841963
 21
72.7686782119
 31
0.0
  0
SPLINE
  5
AC
330
1F
100
AcDbEntity
  8
0
  6
Continuous
 62
     7
370
    25
100
AcDbSpline
210
0.0
220
0.0
230
1.0
 70
     8
 71
     3
 72
    14
 73
    10
 74
     0
 42
0.00000001
 43
0.00000001
 40
0.0
 40
0.0
 40
0.0
 40
0.0
 40
0.25
 40
0.25
 40
0.5
 40
0.5
 40
0.75
 40
0.75
 40
1.0
 40
1.0
 40
1.0
 40
1.0
 10
95.67841963000059
 20
73.01867821189937
 30
0.0
 10
95.67841963000059
 20
73.10599624090577
 30
0.0
 10
95.65546683121414
 20
73.18762434872735
 30
0.0
 10
95.59097123205245
 20
73.31532546686081
 30
0.0
 10
95.54973874524617
 20
73.36471625968638
 30
0.0
 10
95.4602769052771
 20
73.4420749272444
 30
0.0
 10
95.41080206791692
 20
73.47064373681627
 30
0.0
 10
95.30822980998474
 20
73.50871110578339
 30
0.0
 10
95.25462004870347
 20
73.51867821189937
 30
0.0
 10
95.19841963000059
 20
73.51867821189937
 30
0.0
  0
LINE
  5
AD
330
1F
100
AcDbEntity
  8
0
  6
Continuous
 62
     7
370
    25
100
AcDbLine
 10
92.9899297831
 20
73.5186782119
 30
0.0
 11
95.19841963
 21
73.5186782119
 31
0.0
  0
LINE
  5
AE
330
1F
100
AcDbEntity
  8
0
  6
Continuous
 62
     7
370
    25
100
AcDbLine
 10
96.63841963
 20
74.7306238454
 30
0.0
 11
84.63841963
 21
74.7306238454
 31
0.0
  0
SPLINE
  5
AF
330
1F
100
AcDbEntity
  8
0
  6
Continuous
 62
     7
370
    25
100
AcDbSpline
210
0.0
220
0.0
230
1.0
 70
     8
 71
     3
 72
     8
 73
     4
 74
     0
 42
0.00000001
 43
0.00000001
 40
0.0
 40
0.0
 40
0.0
 40
0.0
 40
1.0
 40
1.0
 40
1.0
 40
1.0
 10
87.63841963000058
 20
61.72867821189939
 30
0.0
 10
87.52195304277839
 20
61.72867821189939
 30
0.0
 10
87.40764147231634
 20
61.73729903502958
 30
0.0
 10
87.29526550837078
 20
61.75394702945465
 30
0.0
  0
LINE
  5
B0
330
1F
100
AcDbEntity
  8
0
  6
Continuous
 62
     7
370
    25
100
AcDbLine
 10
96.88841963
 20
61.7286782119
 30
0.0
 11
87.63841963
 21
61.7286782119
 31
0.0
  0
SPLINE
  5
B1
330
1F
100
AcDbEntity
  8
0
  6
Continuous
 62
     7
370
    25
100
AcDbSpline
210
0.0
220
0.0
230
1.0
 70
     8
 71
     3
 72
    14
 73
    10
 74
     0
 42
0.00000001
 43
0.00000001
 40
0.0
 40
0.0
 40
0.0
 40
0.0
 40
0.25
 40
0.25
 40
0.5
 40
0.5
 40
0.75
 40
0.75
 40
1.0
 40
1.0
 40
1.0
 40
1.0
 10
96.8884196300006
 20
61.72867821189939
 30
0.0
 10
96.97573765900698
 20
61.72867821189939
 30
0.0
 10
97.05736576682858
 20
61.75163101068583
 30
0.0
 10
97.18506688496203
 20
61.81612660984752
 30
0.0
 10
97.23445767778759
 20
61.85735909665379
 30
0.0
 10
97.3118163453456
 20
61.94682093662286
 30
0.0
 10
97.34038515491748
 20
61.99629577398304
 30
0.0
 10
97.37845252388459
 20
62.09886803191522
 30
0.0
 10
97.38841963000058
 20
62.1524777931965
 30
0.0
 10
97.3884196300006
 20
62.20867821189938
 30
0.0
  0
LINE
  5
B2
330
1F
100
AcDbEntity
  8
0
  6
Continuous
 62
     7
370
    25
100
AcDbLine
 10
97.38841963
 20
64.4171680588
 30
0.0
 11
97.38841963
 21
62.2086782119
 31
0.0
  0
SPLINE
  5
B3
330
1F
100
AcDbEntity
  8
0
  6
Continuous
 62
     7
370
    25
100
AcDbSpline
210
0.0
220
0.0
230
1.0
 70
    24
 71
     3
 72
    14
 73
    10
 74
     0
 42
0.00000001
 43
0.00000001
 40
0.0
 40
0.0
 40
0.0
 40
0.0
 40
0.25
 40
0.25
 40
0.5
 40
0.5
 40
0.75
 40
0.75
 40
1.0
 40
1.0
 40
1.0
 40
1.0
 10
97.38841963000058
 20
66.76867821189938
 30
0.0
 10
97.38841963000058
 20
66.57014089731035
 30
0.0
 10
97.38841963000058
 20
66.371602166477
 30
0.0
 10
97.38841963000058
 20
65.97543333020346
 30
0.0
 10
97.38841963000058
 20
65.77780038488216
 30
0.0
 10
97.38841963000058
 20
65.38443395599197
 30
0.0
 10
97.38841963000058
 20
65.18869761533567
 30
0.0
 10
97.3884196300006
 20
64.80028570244389
 30
0.0
 10
97.3884196300006
 20
64.60760726136503
 30
0.0
 10
97.38841963000058
 20
64.41716805882753
 30
0.0
  0
SPLINE
  5
B4
330
1F
100
AcDbEntity
  8
0
  6
Continuous
 62
     7
370
    25
100
AcDbSpline
210
0.0
220
0.0
230
1.0
 70
    24
 71
     3
 72
    14
 73
    10
 74
     0
 42
0.00000001
 43
0.00000001
 40
0.0
 40
0.0
 40
0.0
 40
0.0
 40
0.25
 40
0.25
 40
0.5
 40
0.5
 40
0.75
 40
0.75
 40
1.0
 40
1.0
 40
1.0
 40
1.0
 10
97.38841963000058
 20
66.76867821189938
 30
0.0
 10
97.38841963000058
 20
66.9672155264884
 30
0.0
 10
97.38841963000058
 20
67.16575425732175
 30
0.0
 10
97.38841963000058
 20
67.56192309359531
 30
0.0
 10
97.38841963000058
 20
67.7595560389166
 30
0.0
 10
97.38841963000058
 20
68.15292246780679
 30
0.0
 10
97.38841963000058
 20
68.34865880846309
 30
0.0
 10
97.38841963000058
 20
68.7370707213549
 30
0.0
 10
97.38841963000058
 20
68.92974916243374
 30
0.0
 10
97.38841963000058
 20
69.12018836497123
 30
0.0
  0
LINE
  5
B5
330
1F
100
AcDbEntity
  8
0
  6
Continuous
 62
     7
370
    25
100
AcDbLine
 10
97.38841963
 20
71.3286782119
 30
0.0
 11
97.38841963
 21
69.120188365
 31
0.0
  0
SPLINE
  5
B6
330
1F
100
AcDbEntity
  8
0
  6
Continuous
 62
     7
370
    25
100
AcDbSpline
210
0.0
220
0.0
230
1.0
 70
     8
 71
     3
 72
    14
 73
    10
 74
     0
 42
0.00000001
 43
0.00000001
 40
0.0
 40
0.0
 40
0.0
 40
0.0
 40
0.25
 40
0.25
 40
0.5
 40
0.5
 40
0.75
 40
0.75
 40
1.0
 40
1.0
 40
1.0
 40
1.0
 10
97.38841963000058
 20
71.32867821189937
 30
0.0
 10
97.38841963000058
 20
71.3848314522302
 30
0.0
 10
97.37846632344807
 20
71.43858504454876
 30
0.0
 10
97.34009470763208
 20
71.54170845295825
 30
0.0
 10
97.31155577565892
 20
71.59088642896589
 30
0.0
 10
97.2343682283788
 20
71.68005094129165
 30
0.0
 10
97.18493954319088
 20
71.72129960556353
 30
0.0
 10
97.05743105601381
 20
71.78568695856553
 30
0.0
 10
96.97581484595968
 20
71.80867821189938
 30
0.0
 10
96.88841963000058
 20
71.80867821189938
 30
0.0
  0
LINE
  5
B7
330
1F
100
AcDbEntity
  8
0
  6
Continuous
 62
     7
370
    25
100
AcDbLine
 10
96.63841963
 20
71.8086782119
 30
0.0
 11
96.88841963
 21
71.8086782119
 31
0.0
  0
SPLINE
  5
B8
330
1F
100
AcDbEntity
  8
0
  6
Continuous
 62
     7
370
    25
100
AcDbSpline
210
0.0
220
0.0
230
1.0
 70
     8
 71
     3
 72
    12
 73
     8
 74
     0
 42
0.00000001
 43
0.00000001
 40
0.0
 40
0.0
 40
0.0
 40
0.0
 40
0.5000000000000009
 40
0.5000000000000009
 40
0.7500000000000004
 40
0.7500000000000004
 40
1.0
 40
1.0
 40
1.0
 40
1.0
 10
96.00815339286225
 20
72.13841197476104
 30
0.0
 10
96.05520154741066
 20
72.06838778038869
 30
0.0
 10
96.12023977862029
 20
71.994944475626
 30
0.0
 10
96.27371313167227
 20
71.8967763753598
 30
0.0
 10
96.33387285139732
 20
71.86684924400707
 30
0.0
 10
96.47516037296245
 20
71.82232781874382
 30
0.0
 10
96.55560068178612
 20
71.80867821189938
 30
0.0
 10
96.6384196300006
 20
71.80867821189939
 30
0.0
  0
LINE
  5
B9
330
1F
100
AcDbEntity
  8
0
  6
Continuous
 62
     7
370
    25
100
AcDbLine
 10
95.38841963
 20
73.0186782119
 30
0.0
 11
93.0879093728
 21
73.0186782119
 31
0.0
  0
SPLINE
  5
BA
330
1F
100
AcDbEntity
  8
0
  6
Continuous
 62
     7
370
    25
100
AcDbSpline
210
0.0
220
0.0
230
1.0
 70
     8
 71
     3
 72
    10
 73
     6
 74
     0
 42
0.00000001
 43
0.00000001
 40
0.0
 40
0.0
 40
0.0
 40
0.0
 40
0.5
 40
0.5
 40
1.0
 40
1.0
 40
1.0
 40
1.0
 10
93.07365328297143
 20
73.19545490719523
 30
0.0
 10
93.07724417737154
 20
73.1670266163375
 30
0.0
 10
93.08080819982462
 20
73.13409268790069
 30
0.0
 10
93.08614079753073
 20
73.07117873106877
 30
0.0
 10
93.08790937278377
 20
73.04119870267368
 30
0.0
 10
93.08790937278377
 20
73.01867821189937
 30
0.0
  0
SPLINE
  5
BB
330
1F
100
AcDbEntity
  8
0
  6
Continuous
 62
     7
370
    25
100
AcDbSpline
210
0.0
220
0.0
230
1.0
 70
     8
 71
     3
 72
    12
 73
     8
 74
     0
 42
0.00000001
 43
0.00000001
 40
0.0
 40
0.0
 40
0.0
 40
0.0
 40
0.25
 40
0.25
 40
0.5
 40
0.5
 40
1.0
 40
1.0
 40
1.0
 40
1.0
 10
93.07365328297143
 20
73.19545490719523
 30
0.0
 10
93.0718578357714
 20
73.20966905262411
 30
0.0
 10
93.0698305759646
 20
73.22135258188254
 30
0.0
 10
93.06677894555432
 20
73.24041225605039
 30
0.0
 10
93.06575457495083
 20
73.2477884009598
 30
0.0
 10
93.06638556857038
 20
73.26458653115222
 30
0.0
 10
93.07174503822353
 20
73.26867821189937
 30
0.0
 10
93.08790937278377
 20
73.26867821189937
 30
0.0
  0
LINE
  5
BC
330
1F
100
AcDbEntity
  8
0
  6
Continuous
 62
     7
370
    25
100
AcDbLine
 10
93.0879093728
 20
73.2686782119
 30
0.0
 11
95.38841963
 21
73.2686782119
 31
0.0
  0
LINE
  5
BD
330
1F
100
AcDbEntity
  8
0
  6
Continuous
 62
     7
370
    25
100
AcDbLine
 10
95.38841963
 20
73.0186782119
 30
0.0
 11
95.38841963
 21
73.2686782119
 31
0.0
  0
SPLINE
  5
BE
330
1F
100
AcDbEntity
  8
0
  6
Continuous
 62
     7
370
    25
100
AcDbSpline
210
0.0
220
0.0
230
1.0
 70
     8
 71
     3
 72
    12
 73
     8
 74
     0
 42
0.00000001
 43
0.00000001
 40
0.0
 40
0.0
 40
0.0
 40
0.0
 40
0.25
 40
0.25
 40
0.5
 40
0.5
 40
1.0
 40
1.0
 40
1.0
 40
1.0
 10
97.06519632529645
 20
64.33344455892853
 30
0.0
 10
97.0794104707253
 20
64.33524000612859
 30
0.0
 10
97.09109399998376
 20
64.33726726593537
 30
0.0
 10
97.1101536741516
 20
64.34031889634566
 30
0.0
 10
97.11752981906102
 20
64.34134326694915
 30
0.0
 10
97.13432794925342
 20
64.34071227332959
 30
0.0
 10
97.1384196300006
 20
64.33535280367646
 30
0.0
 10
97.13841963000058
 20
64.3191884691162
 30
0.0
  0
LINE
  5
BF
330
1F
100
AcDbEntity
  8
0
  6
Continuous
 62
     7
370
    25
100
AcDbLine
 10
97.13841963
 20
64.3191884691
 30
0.0
 11
97.13841963
 21
62.0186782119
 31
0.0
  0
LINE
  5
C0
330
1F
100
AcDbEntity
  8
0
  6
Continuous
 62
     7
370
    25
100
AcDbLine
 10
97.13841963
 20
62.0186782119
 30
0.0
 11
96.88841963
 21
62.0186782119
 31
0.0
  0
LINE
  5
C1
330
1F
100
AcDbEntity
  8
0
  6
Continuous
 62
     7
370
    25
100
AcDbLine
 10
96.88841963
 20
62.0186782119
 30
0.0
 11
96.88841963
 21
64.3191884691
 31
0.0
  0
SPLINE
  5
C2
330
1F
100
AcDbEntity
  8
0
  6
Continuous
 62
     7
370
    25
100
AcDbSpline
210
0.0
220
0.0
230
1.0
 70
     8
 71
     3
 72
    10
 73
     6
 74
     0
 42
0.00000001
 43
0.00000001
 40
0.0
 40
0.0
 40
0.0
 40
0.0
 40
0.5
 40
0.5
 40
1.0
 40
1.0
 40
1.0
 40
1.0
 10
97.06519632529645
 20
64.33344455892853
 30
0.0
 10
97.03676803443871
 20
64.32985366452844
 30
0.0
 10
97.0038341060019
 20
64.32628964207537
 30
0.0
 10
96.94092014917
 20
64.32095704436924
 30
0.0
 10
96.9109401207749
 20
64.3191884691162
 30
0.0
 10
96.8884196300006
 20
64.3191884691162
 30
0.0
  0
LINE
  5
C3
330
1F
100
AcDbEntity
  8
0
  6
Continuous
 62
     7
370
    25
100
AcDbLine
 10
85.88841963
 20
73.2686782119
 30
0.0
 11
88.1889298872
 21
73.2686782119
 31
0.0
  0
SPLINE
  5
C4
330
1F
100
AcDbEntity
  8
0
  6
Continuous
 62
     7
370
    25
100
AcDbSpline
210
0.0
220
0.0
230
1.0
 70
     8
 71
     3
 72
    12
 73
     8
 74
     0
 42
0.00000001
 43
0.00000001
 40
0.0
 40
0.0
 40
0.0
 40
0.0
 40
0.25
 40
0.25
 40
0.5
 40
0.5
 40
1.0
 40
1.0
 40
1.0
 40
1.0
 10
88.20318597702975
 20
73.19545490719523
 30
0.0
 10
88.20498142422979
 20
73.20966905262411
 30
0.0
 10
88.20700868403658
 20
73.22135258188254
 30
0.0
 10
88.21006031444686
 20
73.24041225605039
 30
0.0
 10
88.21108468505035
 20
73.2477884009598
 30
0.0
 10
88.2104536914308
 20
73.26458653115222
 30
0.0
 10
88.20509422177766
 20
73.26867821189937
 30
0.0
 10
88.18892988721741
 20
73.26867821189937
 30
0.0
  0
SPLINE
  5
C5
330
1F
100
AcDbEntity
  8
0
  6
Continuous
 62
     7
370
    25
100
AcDbSpline
210
0.0
220
0.0
230
1.0
 70
     8
 71
     3
 72
    10
 73
     6
 74
     0
 42
0.00000001
 43
0.00000001
 40
0.0
 40
0.0
 40
0.0
 40
0.0
 40
0.5
 40
0.5
 40
1.0
 40
1.0
 40
1.0
 40
1.0
 10
88.20318597702975
 20
73.19545490719523
 30
0.0
 10
88.19959508262964
 20
73.1670266163375
 30
0.0
 10
88.19603106017657
 20
73.13409268790069
 30
0.0
 10
88.19069846247045
 20
73.07117873106877
 30
0.0
 10
88.18892988721741
 20
73.04119870267368
 30
0.0
 10
88.18892988721741
 20
73.01867821189937
 30
0.0
  0
LINE
  5
C6
330
1F
100
AcDbEntity
  8
0
  6
Continuous
 62
     7
370
    25
100
AcDbLine
 10
88.1889298872
 20
73.0186782119
 30
0.0
 11
85.88841963
 21
73.0186782119
 31
0.0
  0
LINE
  5
C7
330
1F
100
AcDbEntity
  8
0
  6
Continuous
 62
     7
370
    25
100
AcDbLine
 10
85.88841963
 20
73.0186782119
 30
0.0
 11
85.88841963
 21
73.2686782119
 31
0.0
  0
LINE
  5
C8
330
1F
100
AcDbEntity
  8
0
  6
Continuous
 62
     7
370
    25
100
AcDbLine
 10
97.13841963
 20
71.5186782119
 30
0.0
 11
97.13841963
 21
69.2181679547
 31
0.0
  0
SPLINE
  5
C9
330
1F
100
AcDbEntity
  8
0
  6
Continuous
 62
     7
370
    25
100
AcDbSpline
210
0.0
220
0.0
230
1.0
 70
     8
 71
     3
 72
    12
 73
     8
 74
     0
 42
0.00000001
 43
0.00000001
 40
0.0
 40
0.0
 40
0.0
 40
0.0
 40
0.25
 40
0.25
 40
0.5
 40
0.5
 40
1.0
 40
1.0
 40
1.0
 40
1.0
 10
97.06519632529645
 20
69.20391186487022
 30
0.0
 10
97.0794104707253
 20
69.20211641767018
 30
0.0
 10
97.09109399998376
 20
69.20008915786339
 30
0.0
 10
97.1101536741516
 20
69.1970375274531
 30
0.0
 10
97.11752981906102
 20
69.19601315684962
 30
0.0
 10
97.13432794925342
 20
69.19664415046918
 30
0.0
 10
97.13841963000058
 20
69.2020036201223
 30
0.0
 10
97.13841963000058
 20
69.21816795468257
 30
0.0
  0
SPLINE
  5
CA
330
1F
100
AcDbEntity
  8
0
  6
Continuous
 62
     7
370
    25
100
AcDbSpline
210
0.0
220
0.0
230
1.0
 70
     8
 71
     3
 72
    10
 73
     6
 74
     0
 42
0.00000001
 43
0.00000001
 40
0.0
 40
0.0
 40
0.0
 40
0.0
 40
0.5
 40
0.5
 40
1.0
 40
1.0
 40
1.0
 40
1.0
 10
97.06519632529645
 20
69.20391186487022
 30
0.0
 10
97.03676803443871
 20
69.20750275927031
 30
0.0
 10
97.0038341060019
 20
69.2110667817234
 30
0.0
 10
96.94092014917
 20
69.21639937942953
 30
0.0
 10
96.9109401207749
 20
69.21816795468257
 30
0.0
 10
96.8884196300006
 20
69.21816795468257
 30
0.0
  0
LINE
  5
CB
330
1F
100
AcDbEntity
  8
0
  6
Continuous
 62
     7
370
    25
100
AcDbLine
 10
96.88841963
 20
69.2181679547
 30
0.0
 11
96.88841963
 21
71.5186782119
 31
0.0
  0
LINE
  5
CC
330
1F
100
AcDbEntity
  8
0
  6
Continuous
 62
     7
370
    25
100
AcDbLine
 10
97.13841963
 20
71.5186782119
 30
0.0
 11
96.88841963
 21
71.5186782119
 31
0.0
  0
LINE
  5
CD
330
1F
100
AcDbEntity
  8
0
  6
Continuous
 62
     7
370
    25
100
AcDbLine
 10
95.38841963
 20
72.7686782119
 30
0.0
 11
95.38841963
 21
73.0186782119
 31
0.0
  0
ARC
  5
CE
330
1F
100
AcDbEntity
  8
0
  6
Continuous
 62
     7
370
    25
100
AcDbCircle
 10
96.63841963
 20
72.7686782119
 30
0.0
 40
1.25
100
AcDbArc
 50
180.0
 51
270.0
  0
LINE
  5
CF
330
1F
100
AcDbEntity
  8
0
  6
Continuous
 62
     7
370
    25
100
AcDbLine
 10
96.88841963
 20
71.5186782119
 30
0.0
 11
96.63841963
 21
71.5186782119
 31
0.0
  0
LINE
  5
D0
330
1F
100
AcDbEntity
  8
0
  6
Continuous
 62
     7
370
    25
100
AcDbLine
 10
96.88841963
 20
69.2181679547
 30
0.0
 11
96.88841963
 21
66.7686782119
 31
0.0
  0
LINE
  5
D1
330
1F
100
AcDbEntity
  8
0
  6
Continuous
 62
     7
370
    25
100
AcDbLine
 10
96.88841963
 20
66.7686782119
 30
0.0
 11
96.88841963
 21
64.3191884691
 31
0.0
  0
LINE
  5
D2
330
1F
100
AcDbEntity
  8
0
  6
Continuous
 62
     7
370
    25
100
AcDbLine
 10
87.63841963
 20
62.0186782119
 30
0.0
 11
96.88841963
 21
62.0186782119
 31
0.0
  0
ARC
  5
D3
330
1F
100
AcDbEntity
  8
0
  6
Continuous
 62
     7
370
    25
100
AcDbCircle
 10
87.63841963
 20
63.7686782119
 30
0.0
 40
1.750000000000007
100
AcDbArc
 50
180.0
 51
270.0
  0
LINE
  5
D4
330
1F
100
AcDbEntity
  8
0
  6
Continuous
 62
     7
370
    25
100
AcDbLine
 10
85.88841963
 20
73.0186782119
 30
0.0
 11
85.88841963
 21
63.7686782119
 31
0.0
  0
LINE
  5
D5
330
1F
100
AcDbEntity
  8
0
  6
Continuous
 62
     7
370
    25
100
AcDbLine
 10
88.1889298872
 20
73.0186782119
 30
0.0
 11
90.63841963
 21
73.0186782119
 31
0.0
  0
LINE
  5
D6
330
1F
100
AcDbEntity
  8
0
  6
Continuous
 62
     7
370
    25
100
AcDbLine
 10
90.63841963
 20
73.0186782119
 30
0.0
 11
93.0879093728
 21
73.0186782119
 31
0.0
  0
SPLINE
  5
D7
330
1F
100
AcDbEntity
  8
0
  6
Continuous
 62
     7
370
    25
100
AcDbSpline
210
0.0
220
0.0
230
1.0
 70
     8
 71
     3
 72
    14
 73
    10
 74
     0
 42
0.00000001
 43
0.00000001
 40
0.0
 40
0.0
 40
0.0
 40
0.0
 40
0.25
 40
0.25
 40
0.5
 40
0.5
 40
0.75
 40
0.75
 40
1.0
 40
1.0
 40
1.0
 40
1.0
 10
93.34528262736292
 20
67.04932551584295
 30
0.0
 10
93.40210861687387
 20
67.17270239349025
 30
0.0
 10
93.49470773455663
 20
67.27599060963006
 30
0.0
 10
93.72448184956313
 20
67.41909043289611
 30
0.0
 10
93.8580066205222
 20
67.45677549543511
 30
0.0
 10
94.12946685005737
 20
67.45653637053485
 30
0.0
 10
94.26284149389582
 20
67.41837191199816
 30
0.0
 10
94.49026906080627
 20
67.2767510488435
 30
0.0
 10
94.58407036557102
 20
67.1727126911523
 30
0.0
 10
94.64090109806808
 20
67.0493255158435
 30
0.0
  0
LINE
  5
D8
330
1F
100
AcDbEntity
  8
0
  6
Continuous
 62
     7
370
    25
100
AcDbLine
 10
92.4534882521
 20
64.5559077357
 30
0.0
 11
93.3452826274
 21
67.0493255158
 31
0.0
  0
SPLINE
  5
D9
330
1F
100
AcDbEntity
  8
0
  6
Continuous
 62
     7
370
    25
100
AcDbSpline
210
0.0
220
0.0
230
1.0
 70
     8
 71
     3
 72
    10
 73
     6
 74
     0
 42
0.00000001
 43
0.00000001
 40
0.0
 40
0.0
 40
0.0
 40
0.0
 40
0.5
 40
0.5
 40
1.0
 40
1.0
 40
1.0
 40
1.0
 10
92.11772997053147
 20
64.44309118295305
 30
0.0
 10
92.17681385031727
 20
64.41057666765381
 30
0.0
 10
92.24802522016253
 20
64.4044718108079
 30
0.0
 10
92.37504587892448
 20
64.44467222183363
 30
0.0
 10
92.43073512647031
 20
64.49229099882056
 30
0.0
 10
92.45348825214333
 20
64.55590773568757
 30
0.0
  0
LINE
  5
DA
330
1F
100
AcDbEntity
  8
0
  6
Continuous
 62
     7
370
    25
100
AcDbLine
 10
91.3535288746
 20
64.8636395341
 30
0.0
 11
92.1177299705
 21
64.443091183
 31
0.0
  0
LINE
  5
DB
330
1F
100
AcDbEntity
  8
0
  6
Continuous
 62
     7
370
    25
100
AcDbLine
 10
92.3006993531
 20
63.0580166306
 30
0.0
 11
91.3535288746
 21
64.8636395341
 31
0.0
  0
SPLINE
  5
DC
330
1F
100
AcDbEntity
  8
0
  6
Continuous
 62
     7
370
    25
100
AcDbSpline
210
0.0
220
0.0
230
1.0
 70
     8
 71
     3
 72
    10
 73
     6
 74
     0
 42
0.00000001
 43
0.00000001
 40
0.0
 40
0.0
 40
0.0
 40
0.0
 40
0.5000000000000006
 40
0.5000000000000006
 40
1.0
 40
1.0
 40
1.0
 40
1.0
 10
92.78224034775423
 20
62.97096277610132
 30
0.0
 10
92.71141410042738
 20
62.90809734864312
 30
0.0
 10
92.61254015307244
 20
62.88106901531583
 30
0.0
 10
92.42841873036085
 20
62.91401974361386
 30
0.0
 10
92.34469441633466
 20
62.97414736361656
 30
0.0
 10
92.30069935312571
 20
63.0580166306293
 30
0.0
  0
SPLINE
  5
DD
330
1F
100
AcDbEntity
  8
0
  6
Continuous
 62
     7
370
    25
100
AcDbSpline
210
0.0
220
0.0
230
1.0
 70
     8
 71
     3
 72
    14
 73
    10
 74
     0
 42
0.00000001
 43
0.00000001
 40
0.0
 40
0.0
 40
0.0
 40
0.0
 40
0.2500000000000001
 40
0.2500000000000001
 40
0.3750000000000003
 40
0.3750000000000003
 40
0.5000000000000004
 40
0.5000000000000004
 40
1.0
 40
1.0
 40
1.0
 40
1.0
 10
95.20394337767745
 20
62.97096277610097
 30
0.0
 10
95.03764315597145
 20
63.1185709710638
 30
0.0
 10
94.84747242118155
 20
63.23128866981756
 30
0.0
 10
94.53639555939415
 20
63.34693525438099
 30
0.0
 10
94.43049705986779
 20
63.37570521559029
 30
0.0
 10
94.21445822253152
 20
63.41444345043204
 30
0.0
 10
94.10321088589663
 20
63.42435022407487
 30
0.0
 10
93.5522404972646
 20
63.42432810507642
 30
0.0
 10
93.11480346876958
 20
63.26614603864099
 30
0.0
 10
92.78224034775423
 20
62.97096277610132
 30
0.0
  0
SPLINE
  5
DE
330
1F
100
AcDbEntity
  8
0
  6
Continuous
 62
     7
370
    25
100
AcDbSpline
210
0.0
220
0.0
230
1.0
 70
     8
 71
     3
 72
    10
 73
     6
 74
     0
 42
0.00000001
 43
0.00000001
 40
0.0
 40
0.0
 40
0.0
 40
0.0
 40
0.5
 40
0.5
 40
1.0
 40
1.0
 40
1.0
 40
1.0
 10
95.68548437230572
 20
63.0580166306293
 30
0.0
 10
95.64149236225504
 20
62.97415318395475
 30
0.0
 10
95.55823834375117
 20
62.91424209113556
 30
0.0
 10
95.3740584608075
 20
62.88100629052838
 30
0.0
 10
95.27476130883605
 20
62.90810473007988
 30
0.0
 10
95.20394337767749
 20
62.97096277610103
 30
0.0
  0
LINE
  5
DF
330
1F
100
AcDbEntity
  8
0
  6
Continuous
 62
     7
370
    25
100
AcDbLine
 10
96.6442144605
 20
64.8856760063
 30
0.0
 11
95.6854843723
 21
63.0580166306
 31
0.0
  0
LINE
  5
E0
330
1F
100
AcDbEntity
  8
0
  6
Continuous
 62
     7
370
    25
100
AcDbLine
 10
95.8719451186
 20
64.4443547126
 30
0.0
 11
96.6442144605
 21
64.8856760063
 31
0.0
  0
SPLINE
  5
E1
330
1F
100
AcDbEntity
  8
0
  6
Continuous
 62
     7
370
    25
100
AcDbSpline
210
0.0
220
0.0
230
1.0
 70
     8
 71
     3
 72
    10
 73
     6
 74
     0
 42
0.00000001
 43
0.00000001
 40
0.0
 40
0.0
 40
0.0
 40
0.0
 40
0.5
 40
0.5
 40
1.0
 40
1.0
 40
1.0
 40
1.0
 10
95.53290237772919
 20
64.55532923998393
 30
0.0
 10
95.55581849914303
 20
64.49125677420783
 30
0.0
 10
95.61194614995702
 20
64.44341520298838
 30
0.0
 10
95.74102779272567
 20
64.40355141111115
 30
0.0
 10
95.81297895743002
 20
64.41065789063846
 30
0.0
 10
95.87194511864034
 20
64.4443547126394
 30
0.0
  0
LINE
  5
E2
330
1F
100
AcDbEntity
  8
0
  6
Continuous
 62
     7
370
    25
100
AcDbLine
 10
94.6409010981
 20
67.0493255158
 30
0.0
 11
95.5329023777
 21
64.55532924
 31
0.0
  0
SPLINE
  5
E3
330
1F
100
AcDbEntity
  8
0
  6
Continuous
 62
     7
370
    25
100
AcDbSpline
210
0.0
220
0.0
230
1.0
 70
     8
 71
     3
 72
    12
 73
     8
 74
     0
 42
0.00000001
 43
0.00000001
 40
0.0
 40
0.0
 40
0.0
 40
0.0
 40
0.25
 40
0.25
 40
0.5
 40
0.5
 40
1.0
 40
1.0
 40
1.0
 40
1.0
 10
90.6384196300006
 20
73.27068581218907
 30
0.0
 10
90.84062705242088
 20
73.26042235289994
 30
0.0
 10
91.04251387652533
 20
73.25284357310316
 30
0.0
 10
91.44789106367354
 20
73.23843011765409
 30
0.0
 10
91.65138142671732
 20
73.23159544200179
 30
0.0
 10
92.26762492761418
 20
73.20526968900136
 30
0.0
 10
92.66761645347795
 20
73.19560273764037
 30
0.0
 10
93.07365328297143
 20
73.19545490719523
 30
0.0
  0
SPLINE
  5
E4
330
1F
100
AcDbEntity
  8
0
  6
Continuous
 62
     7
370
    25
100
AcDbSpline
210
0.0
220
0.0
230
1.0
 70
    24
 71
     3
 72
    10
 73
     6
 74
     0
 42
0.00000001
 43
0.00000001
 40
0.0
 40
0.0
 40
0.0
 40
0.0
 40
0.5
 40
0.5
 40
1.0
 40
1.0
 40
1.0
 40
1.0
 10
90.6384196300006
 20
73.27068581218907
 30
0.0
 10
90.6384196300006
 20
73.22963197503253
 30
0.0
 10
90.6384196300006
 20
73.1855576227195
 30
0.0
 10
90.6384196300006
 20
73.09420635320757
 30
0.0
 10
90.6384196300006
 20
73.06145657171055
 30
0.0
 10
90.6384196300006
 20
73.01867821189937
 30
0.0
  0
SPLINE
  5
E5
330
1F
100
AcDbEntity
  8
0
  6
Continuous
 62
     7
370
    25
100
AcDbSpline
210
0.0
220
0.0
230
1.0
 70
     8
 71
     3
 72
    12
 73
     8
 74
     0
 42
0.00000001
 43
0.00000001
 40
0.0
 40
0.0
 40
0.0
 40
0.0
 40
0.25
 40
0.25
 40
0.5
 40
0.5
 40
1.0
 40
1.0
 40
1.0
 40
1.0
 10
97.14042723029029
 20
66.76867821189938
 30
0.0
 10
97.13016377100115
 20
66.56647078947908
 30
0.0
 10
97.12258499120436
 20
66.36458396537465
 30
0.0
 10
97.10817153575529
 20
65.95920677822642
 30
0.0
 10
97.101336860103
 20
65.75571641518265
 30
0.0
 10
97.07501110710257
 20
65.13947291428579
 30
0.0
 10
97.06534415574158
 20
64.73948138842204
 30
0.0
 10
97.06519632529645
 20
64.33344455892853
 30
0.0
  0
SPLINE
  5
E6
330
1F
100
AcDbEntity
  8
0
  6
Continuous
 62
     7
370
    25
100
AcDbSpline
210
0.0
220
0.0
230
1.0
 70
    24
 71
     3
 72
    10
 73
     6
 74
     0
 42
0.00000001
 43
0.00000001
 40
0.0
 40
0.0
 40
0.0
 40
0.0
 40
0.5
 40
0.5
 40
1.0
 40
1.0
 40
1.0
 40
1.0
 10
97.14042723029029
 20
66.76867821189938
 30
0.0
 10
97.09937339313375
 20
66.76867821189938
 30
0.0
 10
97.0552990408207
 20
66.76867821189938
 30
0.0
 10
96.96394777130878
 20
66.76867821189938
 30
0.0
 10
96.93119798981175
 20
66.76867821189938
 30
0.0
 10
96.8884196300006
 20
66.76867821189938
 30
0.0
  0
SPLINE
  5
E7
330
1F
100
AcDbEntity
  8
0
  6
Continuous
 62
     7
370
    25
100
AcDbSpline
210
0.0
220
0.0
230
1.0
 70
     8
 71
     3
 72
    12
 73
     8
 74
     0
 42
0.00000001
 43
0.00000001
 40
0.0
 40
0.0
 40
0.0
 40
0.0
 40
0.25
 40
0.25
 40
0.5
 40
0.5
 40
1.0
 40
1.0
 40
1.0
 40
1.0
 10
90.6384196300006
 20
73.27068581218907
 30
0.0
 10
90.4362122075803
 20
73.26042235289994
 30
0.0
 10
90.23432538347585
 20
73.25284357310316
 30
0.0
 10
89.82894819632764
 20
73.23843011765409
 30
0.0
 10
89.62545783328386
 20
73.23159544200179
 30
0.0
 10
89.009214332387
 20
73.20526968900134
 30
0.0
 10
88.60922280652323
 20
73.19560273764037
 30
0.0
 10
88.20318597702975
 20
73.19545490719523
 30
0.0
  0
SPLINE
  5
E8
330
1F
100
AcDbEntity
  8
0
  6
Continuous
 62
     7
370
    25
100
AcDbSpline
210
0.0
220
0.0
230
1.0
 70
     8
 71
     3
 72
    12
 73
     8
 74
     0
 42
0.00000001
 43
0.00000001
 40
0.0
 40
0.0
 40
0.0
 40
0.0
 40
0.25
 40
0.25
 40
0.5
 40
0.5
 40
1.0
 40
1.0
 40
1.0
 40
1.0
 10
97.14042723029029
 20
66.76867821189938
 30
0.0
 10
97.13016377100115
 20
66.97088563431967
 30
0.0
 10
97.12258499120436
 20
67.17277245842412
 30
0.0
 10
97.10817153575529
 20
67.57814964557234
 30
0.0
 10
97.10133686010302
 20
67.78164000861611
 30
0.0
 10
97.07501110710257
 20
68.39788350951297
 30
0.0
 10
97.06534415574158
 20
68.79787503537673
 30
0.0
 10
97.06519632529645
 20
69.20391186487022
 30
0.0
  0
SPLINE
  5
E9
330
1F
100
AcDbEntity
  8
0
  6
Continuous
 62
     7
370
    25
100
AcDbSpline
210
0.0
220
0.0
230
1.0
 70
     8
 71
     3
 72
    10
 73
     6
 74
     0
 42
0.00000001
 43
0.00000001
 40
0.0
 40
0.0
 40
0.0
 40
0.0
 40
0.5
 40
0.5
 40
1.0
 40
1.0
 40
1.0
 40
1.0
 10
94.40964314101315
 20
66.95356117449914
 30
0.0
 10
94.40964314101315
 20
66.95356117449914
 30
0.0
 10
94.43465918836381
 20
66.96414383826007
 30
0.0
 10
94.519885455663
 20
66.99965013748177
 30
0.0
 10
94.58058727546661
 20
67.02469327201268
 30
0.0
 10
94.64090109806814
 20
67.04932551584352
 30
0.0
  0
SPLINE
  5
EA
330
1F
100
AcDbEntity
  8
0
  6
Continuous
 62
     7
370
    25
100
AcDbSpline
210
0.0
220
0.0
230
1.0
 70
     8
 71
     3
 72
    14
 73
    10
 74
     0
 42
0.00000001
 43
0.00000001
 40
0.0
 40
0.0
 40
0.0
 40
0.0
 40
0.25
 40
0.25
 40
0.5
 40
0.5
 40
0.75
 40
0.75
 40
1.0
 40
1.0
 40
1.0
 40
1.0
 10
94.40964314101318
 20
66.95356117449914
 30
0.0
 10
94.3717414592645
 20
67.03114440727283
 30
0.0
 10
94.31063234727262
 20
67.0957338725857
 30
0.0
 10
94.1646986647199
 20
67.18318857718951
 30
0.0
 10
94.07982004456727
 20
67.20656829455086
 30
0.0
 10
93.9073438762856
 20
67.20674364122252
 30
0.0
 10
93.82268652187926
 20
67.18386338870049
 30
0.0
 10
93.67470698017763
 20
67.09527293190251
 30
0.0
 10
93.61443580180524
 20
67.03113117498212
 30
0.0
 10
93.5765405844182
 20
66.9535611744994
 30
0.0
  0
SPLINE
  5
EB
330
1F
100
AcDbEntity
  8
0
  6
Continuous
 62
     7
370
    25
100
AcDbSpline
210
0.0
220
0.0
230
1.0
 70
     8
 71
     3
 72
    10
 73
     6
 74
     0
 42
0.00000001
 43
0.00000001
 40
0.0
 40
0.0
 40
0.0
 40
0.0
 40
0.5
 40
0.5
 40
1.0
 40
1.0
 40
1.0
 40
1.0
 10
93.57654058441803
 20
66.95356117449904
 30
0.0
 10
93.57654058441803
 20
66.95356117449904
 30
0.0
 10
93.55152453706721
 20
66.96414383825959
 30
0.0
 10
93.46629826976803
 20
66.99965013748124
 30
0.0
 10
93.4055964499644
 20
67.02469327201206
 30
0.0
 10
93.34528262736292
 20
67.04932551584295
 30
0.0
  0
LINE
  5
EC
330
1F
100
AcDbEntity
  8
0
  6
Continuous
 62
     7
370
    25
100
AcDbLine
 10
95.5329023777
 20
64.55532924
 30
0.0
 11
95.2975054401
 21
64.4711373061
 31
0.0
  0
LINE
  5
ED
330
1F
100
AcDbEntity
  8
0
  6
Continuous
 62
     7
370
    25
100
AcDbLine
 10
95.2975054401
 20
64.4711373061
 30
0.0
 11
94.409643141
 21
66.9535611745
 31
0.0
  0
LINE
  5
EE
330
1F
100
AcDbEntity
  8
0
  6
Continuous
 62
     7
370
    25
100
AcDbLine
 10
93.5765405844
 20
66.9535611745
 30
0.0
 11
92.6888851898
 21
64.4717158018
 31
0.0
  0
LINE
  5
EF
330
1F
100
AcDbEntity
  8
0
  6
Continuous
 62
     7
370
    25
100
AcDbLine
 10
92.4534882521
 20
64.5559077357
 30
0.0
 11
92.6888851898
 21
64.4717158018
 31
0.0
  0
SPLINE
  5
F0
330
1F
100
AcDbEntity
  8
0
  6
Continuous
 62
     7
370
    25
100
AcDbSpline
210
0.0
220
0.0
230
1.0
 70
     8
 71
     3
 72
    12
 73
     8
 74
     0
 42
0.00000001
 43
0.00000001
 40
0.0
 40
0.0
 40
0.0
 40
0.0
 40
0.25
 40
0.25
 40
0.5
 40
0.5
 40
1.0
 40
1.0
 40
1.0
 40
1.0
 10
97.14042723029029
 20
66.76867821189938
 30
0.0
 10
97.15069068957942
 20
66.97088563431967
 30
0.0
 10
97.16535558001017
 20
67.17147546684996
 30
0.0
 10
97.19709095819368
 20
67.56944944680387
 30
0.0
 10
97.21416144594643
 20
67.7668335942275
 30
0.0
 10
97.25938540774585
 20
68.35422175084852
 30
0.0
 10
97.25256198047916
 20
68.75014234802975
 30
0.0
 10
97.21163503426001
 20
69.13613729101546
 30
0.0
  0
SPLINE
  5
F1
330
1F
100
AcDbEntity
  8
0
  6
Continuous
 62
     7
370
    25
100
AcDbSpline
210
0.0
220
0.0
230
1.0
 70
     8
 71
     3
 72
    10
 73
     6
 74
     0
 42
0.00000001
 43
0.00000001
 40
0.0
 40
0.0
 40
0.0
 40
0.0
 40
0.5
 40
0.5
 40
1.0
 40
1.0
 40
1.0
 40
1.0
 10
97.21163503426001
 20
69.13613729101546
 30
0.0
 10
97.2400622943273
 20
69.12826805863521
 30
0.0
 10
97.27428893249416
 20
69.12400121125029
 30
0.0
 10
97.33731097803171
 20
69.12007237493633
 30
0.0
 10
97.36589669732369
 20
69.12018836497123
 30
0.0
 10
97.38841963000058
 20
69.12018836497123
 30
0.0
  0
SPLINE
  5
F2
330
1F
100
AcDbEntity
  8
0
  6
Continuous
 62
     7
370
    25
100
AcDbSpline
210
0.0
220
0.0
230
1.0
 70
    24
 71
     3
 72
    10
 73
     6
 74
     0
 42
0.00000001
 43
0.00000001
 40
0.0
 40
0.0
 40
0.0
 40
0.0
 40
0.5
 40
0.5
 40
1.0
 40
1.0
 40
1.0
 40
1.0
 10
97.14042723029029
 20
66.76867821189938
 30
0.0
 10
97.18148106744681
 20
66.76867821189938
 30
0.0
 10
97.22495789782782
 20
66.76867821189938
 30
0.0
 10
97.31401659755217
 20
66.76867821189938
 30
0.0
 10
97.34611996707582
 20
66.76867821189938
 30
0.0
 10
97.38841963000058
 20
66.76867821189938
 30
0.0
  0
SPLINE
  5
F3
330
1F
100
AcDbEntity
  8
0
  6
Continuous
 62
     7
370
    25
100
AcDbSpline
210
0.0
220
0.0
230
1.0
 70
     8
 71
     3
 72
     8
 73
     4
 74
     0
 42
0.00000001
 43
0.00000001
 40
0.0
 40
0.0
 40
0.0
 40
0.0
 40
1.0
 40
1.0
 40
1.0
 40
1.0
 10
97.38841963000058
 20
64.41716805882753
 30
0.0
 10
97.32296605866259
 20
64.42136534546363
 30
0.0
 10
97.25791562986447
 20
64.41500915412638
 30
0.0
 10
97.21163503426001
 20
64.40121913278331
 30
0.0
  0
SPLINE
  5
F4
330
1F
100
AcDbEntity
  8
0
  6
Continuous
 62
     7
370
    25
100
AcDbSpline
210
0.0
220
0.0
230
1.0
 70
     8
 71
     3
 72
    12
 73
     8
 74
     0
 42
0.00000001
 43
0.00000001
 40
0.0
 40
0.0
 40
0.0
 40
0.0
 40
0.25
 40
0.25
 40
0.5
 40
0.5
 40
1.0
 40
1.0
 40
1.0
 40
1.0
 10
97.14042723029029
 20
66.76867821189938
 30
0.0
 10
97.15069068957942
 20
66.56647078947908
 30
0.0
 10
97.16535558001016
 20
66.3658809569488
 30
0.0
 10
97.19709095819368
 20
65.96790697699488
 30
0.0
 10
97.21416144594643
 20
65.77052282957125
 30
0.0
 10
97.25938540774585
 20
65.18313467295023
 30
0.0
 10
97.25256198047916
 20
64.78721407576901
 30
0.0
 10
97.21163503426001
 20
64.40121913278331
 30
0.0
  0
SPLINE
  5
F5
330
1F
100
AcDbEntity
  8
0
  6
Continuous
 62
     7
370
    25
100
AcDbSpline
210
0.0
220
0.0
230
1.0
 70
     8
 71
     3
 72
    14
 73
    10
 74
     0
 42
0.00000001
 43
0.00000001
 40
0.0
 40
0.0
 40
0.0
 40
0.0
 40
0.25
 40
0.25
 40
0.5
 40
0.5
 40
0.75
 40
0.75
 40
1.0
 40
1.0
 40
1.0
 40
1.0
 10
90.6384196300006
 20
73.27068581218907
 30
0.0
 10
90.4362122075803
 20
73.28094927147819
 30
0.0
 10
90.23562237505001
 20
73.29561416190896
 30
0.0
 10
89.8376483950961
 20
73.32734954009247
 30
0.0
 10
89.64026424767246
 20
73.34442002784522
 30
0.0
 10
89.24867214325845
 20
73.3745693357115
 30
0.0
 10
89.05179396785964
 20
73.38040080586138
 30
0.0
 10
88.65943690741909
 20
73.37429468263984
 30
0.0
 10
88.46395802237735
 20
73.36235708926837
 30
0.0
 10
88.2709605508845
 20
73.34189361615881
 30
0.0
  0
SPLINE
  5
F6
330
1F
100
AcDbEntity
  8
0
  6
Continuous
 62
     7
370
    25
100
AcDbSpline
210
0.0
220
0.0
230
1.0
 70
     8
 71
     3
 72
     8
 73
     4
 74
     0
 42
0.00000001
 43
0.00000001
 40
0.0
 40
0.0
 40
0.0
 40
0.0
 40
1.0
 40
1.0
 40
1.0
 40
1.0
 10
88.2709605508845
 20
73.34189361615881
 30
0.0
 10
88.28475057222758
 20
73.38817421176326
 30
0.0
 10
88.29110676356483
 20
73.45322464056137
 30
0.0
 10
88.28690947692874
 20
73.51867821189937
 30
0.0
  0
SPLINE
  5
F7
330
1F
100
AcDbEntity
  8
0
  6
Continuous
 62
     7
370
    25
100
AcDbSpline
210
0.0
220
0.0
230
1.0
 70
    24
 71
     3
 72
    10
 73
     6
 74
     0
 42
0.00000001
 43
0.00000001
 40
0.0
 40
0.0
 40
0.0
 40
0.0
 40
0.5
 40
0.5
 40
1.0
 40
1.0
 40
1.0
 40
1.0
 10
90.6384196300006
 20
73.27068581218907
 30
0.0
 10
90.6384196300006
 20
73.31173964934561
 30
0.0
 10
90.6384196300006
 20
73.35521647972661
 30
0.0
 10
90.6384196300006
 20
73.44427517945095
 30
0.0
 10
90.6384196300006
 20
73.47637854897461
 30
0.0
 10
90.6384196300006
 20
73.51867821189937
 30
0.0
  0
SPLINE
  5
F8
330
1F
100
AcDbEntity
  8
0
  6
Continuous
 62
     7
370
    25
100
AcDbSpline
210
0.0
220
0.0
230
1.0
 70
     8
 71
     3
 72
    10
 73
     6
 74
     0
 42
0.00000001
 43
0.00000001
 40
0.0
 40
0.0
 40
0.0
 40
0.0
 40
0.5
 40
0.5
 40
1.0
 40
1.0
 40
1.0
 40
1.0
 10
93.00587870911667
 20
73.34189361615881
 30
0.0
 10
92.99800947673643
 20
73.37032087622607
 30
0.0
 10
92.99374262935149
 20
73.40454751439295
 30
0.0
 10
92.98981379303753
 20
73.4675695599305
 30
0.0
 10
92.98992978307244
 20
73.49615527922249
 30
0.0
 10
92.98992978307244
 20
73.51867821189937
 30
0.0
  0
SPLINE
  5
F9
330
1F
100
AcDbEntity
  8
0
  6
Continuous
 62
     7
370
    25
100
AcDbSpline
210
0.0
220
0.0
230
1.0
 70
     8
 71
     3
 72
    14
 73
    10
 74
     0
 42
0.00000001
 43
0.00000001
 40
0.0
 40
0.0
 40
0.0
 40
0.0
 40
0.25
 40
0.25
 40
0.5
 40
0.5
 40
0.75
 40
0.75
 40
1.0
 40
1.0
 40
1.0
 40
1.0
 10
90.6384196300006
 20
73.27068581218907
 30
0.0
 10
90.84062705242088
 20
73.28094927147819
 30
0.0
 10
91.04121688495117
 20
73.29561416190896
 30
0.0
 10
91.43919086490509
 20
73.32734954009246
 30
0.0
 10
91.63657501232872
 20
73.34442002784522
 30
0.0
 10
92.02816711674274
 20
73.3745693357115
 30
0.0
 10
92.22504529214154
 20
73.38040080586138
 30
0.0
 10
92.61740235258208
 20
73.37429468263984
 30
0.0
 10
92.81288123762381
 20
73.36235708926837
 30
0.0
 10
93.00587870911667
 20
73.34189361615881
 30
0.0
  0
SPLINE
  5
FA
330
1F
100
AcDbEntity
  8
0
  6
Continuous
 62
     7
370
    25
100
AcDbSpline
210
0.0
220
0.0
230
1.0
 70
     8
 71
     3
 72
    14
 73
    10
 74
     0
 42
0.00000001
 43
0.00000001
 40
0.0
 40
0.0
 40
0.0
 40
0.0
 40
0.0526822267945598
 40
0.1287456339724992
 40
0.2353187193853958
 40
0.3749156516620482
 40
0.5485969096886099
 40
0.7568720674016369
 40
0.9999999999999999
 40
0.9999999999999999
 40
0.9999999999999999
 40
0.9999999999999999
 10
88.18892988721741
 20
73.26867821189937
 30
0.0
 10
88.19241057186105
 20
73.26868901290717
 30
0.0
 10
88.200916722386
 20
73.2687154085757
 30
0.0
 10
88.21146638129507
 20
73.26954231504207
 30
0.0
 10
88.22310993854869
 20
73.27224581543614
 30
0.0
 10
88.235385532372
 20
73.2785462561931
 30
0.0
 10
88.24813289734715
 20
73.29072043516828
 30
0.0
 10
88.26087769134286
 20
73.31082472444834
 30
0.0
 10
88.26743093922688
 20
73.33101762191157
 30
0.0
 10
88.2709605508845
 20
73.34189361615881
 30
0.0
  0
SPLINE
  5
FB
330
1F
100
AcDbEntity
  8
0
  6
Continuous
 62
     7
370
    25
100
AcDbSpline
210
0.0
220
0.0
230
1.0
 70
     8
 71
     3
 72
    14
 73
    10
 74
     0
 42
0.00000001
 43
0.00000001
 40
0.0
 40
0.0
 40
0.0
 40
0.0
 40
0.243127932598341
 40
0.4514030903113563
 40
0.6250843483379128
 40
0.7646812806145595
 40
0.8712543660274661
 40
0.9473177732054238
 40
1.0
 40
1.0
 40
1.0
 40
1.0
 10
97.21163503426001
 20
64.40121913278331
 30
0.0
 10
97.20075904001278
 20
64.39768952112568
 30
0.0
 10
97.18056614254954
 20
64.39113627324166
 30
0.0
 10
97.16046185326948
 20
64.37839147924595
 30
0.0
 10
97.14828767429431
 20
64.36564411427082
 30
0.0
 10
97.14198723353734
 20
64.3533685204475
 30
0.0
 10
97.13928373314329
 20
64.34172496319387
 30
0.0
 10
97.1384568266769
 20
64.3311753042848
 30
0.0
 10
97.13843043100837
 20
64.32266915375983
 30
0.0
 10
97.13841963000058
 20
64.3191884691162
 30
0.0
  0
SPLINE
  5
FC
330
1F
100
AcDbEntity
  8
0
  6
Continuous
 62
     7
370
    25
100
AcDbSpline
210
0.0
220
0.0
230
1.0
 70
     8
 71
     3
 72
    12
 73
     8
 74
     0
 42
0.00000001
 43
0.00000001
 40
0.0
 40
0.0
 40
0.0
 40
0.0
 40
0.25
 40
0.25
 40
0.5
 40
0.5
 40
1.0
 40
1.0
 40
1.0
 40
1.0
 10
97.21163503426001
 20
69.13613729101546
 30
0.0
 10
97.19742140422638
 20
69.14007190720558
 30
0.0
 10
97.1847198804738
 20
69.14496944102714
 30
0.0
 10
97.16365245113138
 20
69.15635607479203
 30
0.0
 10
97.15528654554153
 20
69.16284517473537
 30
0.0
 10
97.13865936441685
 20
69.18419842003642
 30
0.0
 10
97.13841963000058
 20
69.20059937602514
 30
0.0
 10
97.13841963000058
 20
69.21816795468257
 30
0.0
  0
SPLINE
  5
FD
330
1F
100
AcDbEntity
  8
0
  6
Continuous
 62
     7
370
    25
100
AcDbSpline
210
0.0
220
0.0
230
1.0
 70
     8
 71
     3
 72
    12
 73
     8
 74
     0
 42
0.00000001
 43
0.00000001
 40
0.0
 40
0.0
 40
0.0
 40
0.0
 40
0.25
 40
0.25
 40
0.5
 40
0.5
 40
1.0
 40
1.0
 40
1.0
 40
1.0
 10
93.00587870911667
 20
73.34189361615881
 30
0.0
 10
93.0098133253068
 20
73.32767998612518
 30
0.0
 10
93.01471085912834
 20
73.31497846237261
 30
0.0
 10
93.02609749289324
 20
73.29391103303018
 30
0.0
 10
93.03258659283657
 20
73.28554512744032
 30
0.0
 10
93.05393983813764
 20
73.26891794631564
 30
0.0
 10
93.07034079412635
 20
73.26867821189937
 30
0.0
 10
93.08790937278377
 20
73.26867821189937
 30
0.0
  0
LINE
  5
FE
330
1F
100
AcDbEntity
  8
0
  6
Continuous
 62
     7
370
    25
100
AcDbLine
 10
95.70648213
 20
75.2686782119
 30
0.0
 11
85.57035713
 21
75.2686782119
 31
0.0
  0
LINE
  5
FF
330
1F
100
AcDbEntity
  8
0
  6
Continuous
 62
     7
370
    25
100
AcDbLine
 10
96.63841963
 20
71.7686782119
 30
0.0
 11
96.88841963
 21
71.7686782119
 31
0.0
  0
LINE
  5
100
330
1F
100
AcDbEntity
  8
0
  6
Continuous
 62
     7
370
    25
100
AcDbLine
 10
96.88841963
 20
71.7686782119
 30
0.0
 11
96.88841963
 21
71.5186782119
 31
0.0
  0
LINE
  5
101
330
1F
100
AcDbEntity
  8
0
  6
Continuous
 62
     7
370
    25
100
AcDbLine
 10
96.63841963
 20
71.7686782119
 30
0.0
 11
96.63841963
 21
71.5186782119
 31
0.0
  0
SPLINE
  5
102
330
1F
100
AcDbEntity
  8
0
  6
Continuous
 62
     7
370
    25
100
AcDbSpline
210
0.0
220
0.0
230
1.0
 70
     8
 71
     3
 72
    23
 73
    19
 74
     0
 42
0.00000001
 43
0.00000001
 40
0.0
 40
0.0
 40
0.0
 40
0.0
 40
0.0000076769896581
 40
0.0000076769896581
 40
0.0000076769896581
 40
0.0000285420058146
 40
0.0000285420058146
 40
0.0000285420058146
 40
0.0000497754494318
 40
0.0000497754494318
 40
0.0000497754494318
 40
0.00007072706396
 40
0.00007072706396
 40
0.00007072706396
 40
0.0000909558732107
 40
0.0000909558732107
 40
0.0000909558732107
 40
0.0001104364738497
 40
0.0001104364738497
 40
0.0001104364738497
 40
0.0001104364738497
 10
95.36989974879684
 20
63.15793465335773
 30
0.0
 10
95.37181359035425
 20
63.15623592623135
 30
0.0
 10
95.37384277920863
 20
63.15465924992288
 30
0.0
 10
95.37596004248758
 20
63.15322200966308
 30
0.0
 10
95.38164281227726
 20
63.14936443294597
 30
0.0
 10
95.3880831672933
 20
63.14645921200057
 30
0.0
 10
95.39472537933024
 20
63.14471113023262
 30
0.0
 10
95.40148463731127
 20
63.14293224458795
 30
0.0
 10
95.40864389374136
 20
63.14229914420314
 30
0.0
 10
95.4156112475052
 20
63.1428541073738
 30
0.0
 10
95.42248768814954
 20
63.14340182913907
 30
0.0
 10
95.42936711290848
 20
63.14512214287932
 30
0.0
 10
95.43568135238304
 20
63.1478998784544
 30
0.0
 10
95.44177965333853
 20
63.15058261919934
 30
0.0
 10
95.44751473934603
 20
63.15432645935845
 30
0.0
 10
95.4523916826743
 20
63.15886537951869
 30
0.0
 10
95.457089032805
 20
63.16323715416786
 30
0.0
 10
95.46111457381647
 20
63.16846739358691
 30
0.0
 10
95.46409547092235
 20
63.17414997788261
 30
0.0
  0
LINE
  5
103
330
1F
100
AcDbEntity
  8
0
  6
Continuous
 62
     7
370
    25
100
AcDbLine
 10
95.4640954709
 20
63.1741499779
 30
0.0
 11
95.6854843723
 21
63.0580166306
 31
0.0
  0
LINE
  5
104
330
1F
100
AcDbEntity
  8
0
  6
Continuous
 62
     7
370
    25
100
AcDbLine
 10
95.3698997488
 20
63.1579346534
 30
0.0
 11
95.2039433777
 21
62.9709627761
 31
0.0
  0
LINE
  5
105
330
1F
100
AcDbEntity
  8
0
  6
Continuous
 62
     7
370
    25
100
AcDbLine
 10
95.9959850499
 20
64.2272968967
 30
0.0
 11
95.8719451186
 21
64.4443547126
 31
0.0
  0
SPLINE
  5
106
330
1F
100
AcDbEntity
  8
0
  6
Continuous
 62
     7
370
    25
100
AcDbSpline
210
0.0
220
0.0
230
1.0
 70
     8
 71
     3
 72
    10
 73
     6
 74
     0
 42
0.00000001
 43
0.00000001
 40
0.0
 40
0.0
 40
0.0
 40
0.0
 40
0.5
 40
0.5
 40
1.0
 40
1.0
 40
1.0
 40
1.0
 10
95.99598504994964
 20
64.22729689674514
 30
0.0
 10
95.87330306497692
 20
64.1571890090093
 30
0.0
 10
95.72231443619445
 20
64.14379301103047
 30
0.0
 10
95.45689526054672
 20
64.2339380466241
 30
0.0
 10
95.34513344018487
 20
64.33797151623814
 30
0.0
 10
95.29750544005914
 20
64.47113730607359
 30
0.0
  0
LINE
  5
107
330
1F
100
AcDbEntity
  8
0
  6
Continuous
 62
     7
370
    25
100
AcDbLine
 10
95.38841963
 20
73.0186782119
 30
0.0
 11
95.63841963
 21
73.0186782119
 31
0.0
  0
LINE
  5
108
330
1F
100
AcDbEntity
  8
0
  6
Continuous
 62
     7
370
    25
100
AcDbLine
 10
95.63841963
 20
73.0186782119
 30
0.0
 11
95.63841963
 21
72.7686782119
 31
0.0
  0
LINE
  5
109
330
1F
100
AcDbEntity
  8
0
  6
Continuous
 62
     7
370
    25
100
AcDbLine
 10
95.38841963
 20
72.7686782119
 30
0.0
 11
95.63841963
 21
72.7686782119
 31
0.0
  0
LINE
  5
10A
330
1F
100
AcDbEntity
  8
0
  6
Continuous
 62
     7
370
    25
100
AcDbLine
 10
85.63841963
 20
63.7686782119
 30
0.0
 11
85.63841963
 21
73.0186782119
 31
0.0
  0
LINE
  5
10B
330
1F
100
AcDbEntity
  8
0
  6
Continuous
 62
     7
370
    25
100
AcDbLine
 10
85.63841963
 20
73.0186782119
 30
0.0
 11
85.88841963
 21
73.0186782119
 31
0.0
  0
LINE
  5
10C
330
1F
100
AcDbEntity
  8
0
  6
Continuous
 62
     7
370
    25
100
AcDbLine
 10
85.63841963
 20
63.7686782119
 30
0.0
 11
85.88841963
 21
63.7686782119
 31
0.0
  0
LINE
  5
10D
330
1F
100
AcDbEntity
  8
0
  6
Continuous
 62
     7
370
    25
100
AcDbLine
 10
96.88841963
 20
62.0186782119
 30
0.0
 11
96.88841963
 21
61.7686782119
 31
0.0
  0
LINE
  5
10E
330
1F
100
AcDbEntity
  8
0
  6
Continuous
 62
     7
370
    25
100
AcDbLine
 10
96.88841963
 20
61.7686782119
 30
0.0
 11
87.63841963
 21
61.7686782119
 31
0.0
  0
LINE
  5
10F
330
1F
100
AcDbEntity
  8
0
  6
Continuous
 62
     7
370
    25
100
AcDbLine
 10
87.63841963
 20
62.0186782119
 30
0.0
 11
87.63841963
 21
61.7686782119
 31
0.0
  0
ARC
  5
110
330
1F
100
AcDbEntity
  8
0
  6
Continuous
 62
     7
370
    25
100
AcDbCircle
 10
96.63841963
 20
72.7686782119
 30
0.0
 40
1.0
100
AcDbArc
 50
180.0
 51
270.0
  0
ARC
  5
111
330
1F
100
AcDbEntity
  8
0
  6
Continuous
 62
     7
370
    25
100
AcDbCircle
 10
96.88841963
 20
71.5186782119
 30
0.0
 40
0.25
100
AcDbArc
 50
0.0
 51
90.0
  0
SPLINE
  5
112
330
1F
100
AcDbEntity
  8
0
  6
Continuous
 62
     7
370
    25
100
AcDbSpline
210
0.0
220
0.0
230
1.0
 70
     8
 71
     3
 72
    14
 73
    10
 74
     0
 42
0.00000001
 43
0.00000001
 40
0.0
 40
0.0
 40
0.0
 40
0.0
 40
0.5000000000000003
 40
0.5000000000000003
 40
0.6250000000000006
 40
0.6250000000000006
 40
0.7500000000000008
 40
0.7500000000000008
 40
1.0
 40
1.0
 40
1.0
 40
1.0
 10
92.61628397663459
 20
63.15793465335776
 30
0.0
 10
92.9944963223394
 20
63.49363620017129
 30
0.0
 10
93.49169807759695
 20
63.67432698063459
 30
0.0
 10
94.11834084688276
 20
63.67435050520158
 30
0.0
 10
94.24486328535212
 20
63.66304570466845
 30
0.0
 10
94.49054281400375
 20
63.6188580468082
 30
0.0
 10
94.61096329460763
 20
63.5860447293639
 30
0.0
 10
94.96468557481641
 20
63.45419986652981
 30
0.0
 10
95.18077503499114
 20
63.32580188372773
 30
0.0
 10
95.3698997487968
 20
63.15793465335767
 30
0.0
  0
LINE
  5
113
330
1F
100
AcDbEntity
  8
0
  6
Continuous
 62
     7
370
    25
100
AcDbLine
 10
92.6162839766
 20
63.1579346534
 30
0.0
 11
92.7822403478
 21
62.9709627761
 31
0.0
  0
ARC
  5
114
330
1F
100
AcDbEntity
  8
0
  6
Continuous
 62
     7
370
    25
100
AcDbCircle
 10
87.63841963
 20
63.7686782119
 30
0.0
 40
2.000000000000007
100
AcDbArc
 50
180.0
 51
270.0
  0
ARC
  5
115
330
1F
100
AcDbEntity
  8
0
  6
Continuous
 62
     7
370
    25
100
AcDbCircle
 10
96.88841963
 20
62.0186782119
 30
0.0
 40
0.25
100
AcDbArc
 50
270.0
 51
0.0
  0
LINE
  5
116
330
1F
100
AcDbEntity
  8
0
  6
Continuous
 62
     7
370
    25
100
AcDbLine
 10
96.0253421032
 20
64.2440732881
 30
0.0
 11
95.9959850499
 21
64.2272968967
 31
0.0
  0
LINE
  5
117
330
1F
100
AcDbEntity
  8
0
  6
Continuous
 62
     7
370
    25
100
AcDbLine
 10
96.0253421032
 20
64.2440732881
 30
0.0
 11
96.6442144605
 21
64.8856760063
 31
0.0
  0
LINE
  5
118
330
1F
100
AcDbEntity
  8
0
  6
Continuous
 62
     7
370
    25
100
AcDbLine
 10
95.4640954709
 20
63.1741499779
 30
0.0
 11
96.0253421032
 21
64.2440732881
 31
0.0
  0
ARC
  5
119
330
1F
100
AcDbEntity
  8
0
  6
Continuous
 62
     7
370
    25
100
AcDbCircle
 10
85.88841963
 20
73.0186782119
 30
0.0
 40
0.25
100
AcDbArc
 50
90.0
 51
180.0
  0
SPLINE
  5
11A
330
1F
100
AcDbEntity
  8
0
  6
Continuous
 62
     7
370
    25
100
AcDbSpline
210
0.0
220
0.0
230
1.0
 70
     8
 71
     3
 72
    10
 73
     6
 74
     0
 42
0.00000001
 43
0.00000001
 40
0.0
 40
0.0
 40
0.0
 40
0.0
 40
0.5
 40
0.5
 40
1.0
 40
1.0
 40
1.0
 40
1.0
 10
92.68888518981335
 20
64.47171580177711
 30
0.0
 10
92.64165044449213
 20
64.33964953504768
 30
0.0
 10
92.53097892411076
 20
64.23619751905508
 30
0.0
 10
92.27001937974359
 20
64.14524587551847
 30
0.0
 10
92.11995397470052
 20
64.15651199326452
 30
0.0
 10
91.997197971512
 20
64.22406598528765
 30
0.0
  0
LINE
  5
11B
330
1F
100
AcDbEntity
  8
0
  6
Continuous
 62
     7
370
    25
100
AcDbLine
 10
92.1177299705
 20
64.443091183
 30
0.0
 11
91.9971979715
 21
64.2240659853
 31
0.0
  0
LINE
  5
11C
330
1F
100
AcDbEntity
  8
0
  6
Continuous
 62
     7
370
    25
100
AcDbLine
 10
91.3535288746
 20
64.8636395341
 30
0.0
 11
91.9608416222
 21
64.2440732881
 31
0.0
  0
LINE
  5
11D
330
1F
100
AcDbEntity
  8
0
  6
Continuous
 62
     7
370
    25
100
AcDbLine
 10
91.9608416222
 20
64.2440732881
 30
0.0
 11
92.5220882545
 21
63.1741499779
 31
0.0
  0
LINE
  5
11E
330
1F
100
AcDbEntity
  8
0
  6
Continuous
 62
     7
370
    25
100
AcDbLine
 10
92.5220882545
 20
63.1741499779
 30
0.0
 11
92.3006993531
 21
63.0580166306
 31
0.0
  0
ARC
  5
11F
330
1F
100
AcDbEntity
  8
0
  6
Continuous
 62
     7
370
    25
100
AcDbCircle
 10
95.38841963
 20
73.0186782119
 30
0.0
 40
0.25
100
AcDbArc
 50
0.0
 51
90.0
  0
LINE
  5
120
330
1F
100
AcDbEntity
  8
0
  6
Continuous
 62
     7
370
    25
100
AcDbLine
 10
91.9971979715
 20
64.2240659853
 30
0.0
 11
91.9608416222
 21
64.2440732881
 31
0.0
  0
ELLIPSE
  5
121
330
1F
100
AcDbEntity
  8
0
  6
Continuous
 62
     7
370
    25
100
AcDbEllipse
 10
93.7790483884
 20
64.5289370313
 30
0.0
 11
-0.05977206589648176
 21
0.0
 31
0.0
210
0.0
220
0.0
230
1.0
 40
0.9531667975
 41
5.940161364897858
 42
7.853981633974483
  0
ELLIPSE
  5
122
330
1F
100
AcDbEntity
  8
0
  6
Continuous
 62
     7
370
    25
100
AcDbEllipse
 10
94.2071353373
 20
64.5289370313
 30
0.0
 11
0.05977206589648176
 21
0.0
 31
0.0
210
0.0
220
0.0
230
1.0
 40
0.9531667975
 41
4.712388980384703
 42
6.626209245739648
  0
LINE
  5
123
330
1F
100
AcDbEntity
  8
0
  6
Continuous
 62
     7
370
    25
100
AcDbLine
 10
93.7227585289
 20
64.5480990404
 30
0.0
 11
93.9368020045
 21
65.1193526129
 31
0.0
  0
ELLIPSE
  5
124
330
1F
100
AcDbEntity
  8
0
  6
Continuous
 62
     7
370
    25
100
AcDbEllipse
 10
93.9930918641
 20
65.1001906039
 30
0.0
 11
0.05977206589648176
 21
0.0
 31
0.0
210
0.0
220
0.0
230
1.0
 40
0.9531667975
 41
0.3430239404218064
 42
2.798568713168772
  0
LINE
  5
125
330
1F
100
AcDbEntity
  8
0
  6
Continuous
 62
     7
370
    25
100
AcDbLine
 10
94.2071353373
 20
64.4719642826
 30
0.0
 11
93.7790483884
 21
64.4719642826
 31
0.0
  0
LINE
  5
126
330
1F
100
AcDbEntity
  8
0
  6
Continuous
 62
     7
370
    25
100
AcDbLine
 10
94.0493817237
 20
65.1193526129
 30
0.0
 11
94.263425197
 21
64.5480990402
 31
0.0
  0
SPLINE
  5
127
330
1F
100
AcDbEntity
  8
0
  6
Continuous
 62
     7
370
    25
100
AcDbSpline
210
0.0
220
0.0
230
1.0
 70
     8
 71
     3
 72
    23
 73
    19
 74
     0
 42
0.00000001
 43
0.00000001
 40
0.0
 40
0.0
 40
0.0
 40
0.0
 40
0.0000069464595966
 40
0.0000069464595966
 40
0.0000069464595966
 40
0.0000269173558753
 40
0.0000269173558753
 40
0.0000269173558753
 40
0.0000477420212559
 40
0.0000477420212559
 40
0.0000477420212559
 40
0.0000689844307043
 40
0.0000689844307043
 40
0.0000689844307043
 40
0.0000900350769267
 40
0.0000900350769267
 40
0.0000900350769267
 40
0.0001105259114901
 40
0.0001105259114901
 40
0.0001105259114901
 40
0.0001105259114901
 10
92.52208825450782
 20
63.17414997788502
 30
0.0
 10
92.52316387531387
 20
63.1720994858069
 30
0.0
 10
92.52436928027383
 20
63.17011220223169
 30
0.0
 10
92.5256889177601
 20
63.16820956333122
 30
0.0
 10
92.52943420624244
 20
63.16280964734372
 30
0.0
 10
92.53419251480058
 20
63.1580057145487
 30
0.0
 10
92.53952585260569
 20
63.15416621115052
 30
0.0
 10
92.54508542274993
 20
63.15016384166985
 30
0.0
 10
92.55142734219518
 20
63.14709142505951
 30
0.0
 10
92.55800181986987
 20
63.14516684070087
 30
0.0
 10
92.56470778790181
 20
63.14320376441977
 30
0.0
 10
92.57184538043458
 20
63.14237693539829
 30
0.0
 10
92.5788232466366
 20
63.14274170792643
 30
0.0
 10
92.58573921050743
 20
63.14310324446964
 30
0.0
 10
92.59269022684062
 20
63.14464548965229
 30
0.0
 10
92.59910108054342
 20
63.14726507353829
 30
0.0
 10
92.60534216000075
 20
63.14981528477935
 30
0.0
 10
92.61124171426736
 20
63.15345913769787
 30
0.0
 10
92.61628397663263
 20
63.15793465335602
 30
0.0
  0
ARC
  5
128
330
1F
100
AcDbEntity
  8
0
  6
Continuous
 62
     7
370
    25
100
AcDbCircle
 10
97.36201963
 20
61.9839413698
 30
0.0
 40
0.2262821429088917
100
AcDbArc
 50
83.3001285963
 51
171.1695393669
  0
ARC
  5
129
330
1F
100
AcDbEntity
  8
0
  6
Continuous
 62
     7
370
    25
100
AcDbCircle
 10
95.4231564721
 20
73.4922782119
 30
0.0
 40
0.2262821429089261
100
AcDbArc
 50
173.3001285963
 51
261.1695393669
  0
ARC
  5
12A
330
1F
100
AcDbEntity
  8
0
  6
Continuous
 62
     7
370
    25
100
AcDbCircle
 10
97.36201963
 20
71.553415054
 30
0.0
 40
0.226282142908909
100
AcDbArc
 50
188.8304606331
 51
276.6998714037
  0
ARC
  5
12B
330
1F
100
AcDbEntity
  8
0
  6
Continuous
 62
     7
370
    25
100
AcDbCircle
 10
85.8536827879
 20
73.4922782119
 30
0.0
 40
0.2262821429089278
100
AcDbArc
 50
278.8304606331
 51
6.6998714037
  0
LINE
  5
12C
330
1F
100
AcDbEntity
  8
0
  6
Continuous
 62
     7
370
    25
100
AcDbLine
 10
85.8561400031
 20
84.4137301525
 30
0.0
 11
95.4206992569
 21
84.4137301525
 31
0.0
  0
LINE
  5
12D
330
1F
100
AcDbEntity
  8
0
  6
Continuous
 62
     7
370
    25
100
AcDbLine
 10
94.63841963
 20
85.7686782119
 30
0.0
 11
86.63841963
 21
85.7686782119
 31
0.0
  0
LINE
  5
12E
330
1F
100
AcDbEntity
  8
0
  6
Continuous
 62
     7
370
    25
100
AcDbLine
 10
95.63841963
 20
73.0186782119
 30
0.0
 11
95.67841963
 21
73.0186782119
 31
0.0
  0
LINE
  5
12F
330
1F
100
AcDbEntity
  8
0
  6
Continuous
 62
     7
370
    25
100
AcDbLine
 10
96.88841963
 20
61.7286782119
 30
0.0
 11
96.88841963
 21
61.7686782119
 31
0.0
  0
LINE
  5
130
330
1F
100
AcDbEntity
  8
0
  6
Continuous
 62
     7
370
    25
100
AcDbLine
 10
85.63841963
 20
73.0186782119
 30
0.0
 11
85.59841963
 21
73.0186782119
 31
0.0
  0
LINE
  5
131
330
1F
100
AcDbEntity
  8
0
  6
Continuous
 62
     7
370
    25
100
AcDbLine
 10
96.88841963
 20
71.8086782119
 30
0.0
 11
96.88841963
 21
71.7686782119
 31
0.0
  0
LWPOLYLINE
  5
132
330
1F
100
AcDbEntity
  8
0
  6
Continuous
 62
     7
370
    25
100
AcDbPolyline
 90
        9
 70
   128
 43
0.0
 10
87.2952655084
 20
61.7539470295
 10
87.3003240155
 20
61.7632436722
 10
87.3053541951
 20
61.7713181588
 10
87.3103278785
 20
61.7781252724
 10
87.3152172133
 20
61.7836268935
 10
87.3199948193
 20
61.7877922132
 10
87.3246339423
 20
61.7905979059
 10
87.3291086032
 20
61.7920282599
 10
87.3333937441
 20
61.7920752652
  0
SPLINE
  5
133
330
1F
100
AcDbEntity
  8
0
  6
Continuous
 62
     7
370
    25
100
AcDbSpline
210
0.0
220
0.0
230
1.0
 70
     8
 71
     3
 72
    14
 73
    10
 74
     0
 42
0.00000001
 43
0.00000001
 40
0.0
 40
0.0
 40
0.0
 40
0.0
 40
0.2500000000000003
 40
0.2500000000000003
 40
0.5000000000000002
 40
0.5000000000000002
 40
0.7500000000000001
 40
0.7500000000000001
 40
1.0
 40
1.0
 40
1.0
 40
1.0
 10
87.29526550837078
 20
61.75394702945465
 30
0.0
 10
87.08725361870552
 20
61.7837009281802
 30
0.0
 10
86.88729456162801
 20
61.84505666772401
 30
0.0
 10
86.50474068222928
 20
62.03481090890573
 30
0.0
 10
86.33243971539886
 20
62.15822755847641
 30
0.0
 10
86.0287680926355
 20
62.46170268274591
 30
0.0
 10
85.90493966176518
 20
62.63442002369782
 30
0.0
 10
85.7151442328622
 20
63.01665442669757
 30
0.0
 10
85.65344402792093
 20
63.21750044412772
 30
0.0
 10
85.62368844755585
 20
63.42552409026955
 30
0.0
  0
LWPOLYLINE
  5
134
330
1F
100
AcDbEntity
  8
0
  6
Continuous
 62
     7
370
    25
100
AcDbPolyline
 90
        9
 70
   128
 43
0.0
 10
85.6618166833
 20
63.463652326
 10
85.661769678
 20
63.4593671851
 10
85.660339324
 20
63.4548925242
 10
85.6575336313
 20
63.4502534012
 10
85.6533683116
 20
63.4454757952
 10
85.6478666905
 20
63.4405864604
 10
85.6410595769
 20
63.435612777
 10
85.6329850903
 20
63.4305825974
 10
85.6236884476
 20
63.4255240903
  0
LINE
  5
135
330
1F
100
AcDbEntity
  8
0
  6
Continuous
 62
     7
370
    25
100
AcDbLine
 10
87.63841963
 20
61.7286782119
 30
0.0
 11
87.63841963
 21
61.7686782119
 31
0.0
  0
LINE
  5
136
330
1F
100
AcDbEntity
  8
0
  6
Continuous
 62
     7
370
    25
100
AcDbLine
 10
85.63841963
 20
63.7686782119
 30
0.0
 11
85.59841963
 21
63.7686782119
 31
0.0
  0
SPLINE
  5
137
330
1F
100
AcDbEntity
  8
0
  6
Continuous
 62
     7
370
    25
100
AcDbSpline
210
0.0
220
0.0
230
1.0
 70
    24
 71
     3
 72
    10
 73
     6
 74
     0
 42
0.00000001
 43
0.00000001
 40
0.0
 40
0.0
 40
0.0
 40
0.0
 40
0.5
 40
0.5
 40
1.0
 40
1.0
 40
1.0
 40
1.0
 10
96.00815339286225
 20
72.13841197476104
 30
0.0
 10
95.98284137184392
 20
72.1130999537427
 30
0.0
 10
95.96449537352338
 20
72.09475395542216
 30
0.0
 10
95.93839713730624
 20
72.06865571920504
 30
0.0
 10
95.9313128488148
 20
72.06157143071358
 30
0.0
 10
95.93131284881403
 20
72.06157143071283
 30
0.0
  0
LINE
  5
138
330
1F
100
AcDbEntity
  8
0
  6
Continuous
 62
     7
370
    25
100
AcDbLine
 10
95.63841963
 20
72.7686782119
 30
0.0
 11
95.67841963
 21
72.7686782119
 31
0.0
  0
LINE
  5
139
330
1F
100
AcDbEntity
  8
0
  6
Continuous
 62
     7
370
    25
100
AcDbLine
 10
96.63841963
 20
71.8086782119
 30
0.0
 11
96.63841963
 21
71.7686782119
 31
0.0
  0
LINE
  5
13A
330
1F
100
AcDbEntity
  8
0
  6
Continuous
 62
     7
370
    25
100
AcDbLine
 10
115.8197662821
 20
59.0277776517
 30
0.0
 11
115.8197662821
 21
58.5186782119
 31
0.0
  0
LINE
  5
13B
330
1F
100
AcDbEntity
  8
0
  6
Continuous
 62
     7
370
    25
100
AcDbLine
 10
115.8197662821
 20
75.0186782119
 30
0.0
 11
115.8197662821
 21
74.5095787721
 31
0.0
  0
LINE
  5
13C
330
1F
100
AcDbEntity
  8
0
  6
Continuous
 62
     7
370
    25
100
AcDbLine
 10
115.1702472292
 20
74.8614378885
 30
0.0
 11
115.1702472292
 21
75.3936782119
 31
0.0
  0
LINE
  5
13D
330
1F
100
AcDbEntity
  8
0
  6
Continuous
 62
     7
370
    25
100
AcDbLine
 10
115.1702472292
 20
58.1436782119
 30
0.0
 11
115.1702472292
 21
58.6759185353
 31
0.0
  0
LINE
  5
13E
330
1F
100
AcDbEntity
  8
0
  6
Continuous
 62
     7
370
    25
100
AcDbLine
 10
100.13841963
 20
60.7686782119
 30
0.0
 11
100.13841963
 21
72.7686782119
 31
0.0
  0
LINE
  5
13F
330
1F
100
AcDbEntity
  8
0
  6
Continuous
 62
     7
370
    25
100
AcDbLine
 10
84.63841963
 20
62.7686782119
 30
0.0
 11
85.6236884476
 21
63.4255240903
 31
0.0
  0
LINE
  5
140
330
1F
100
AcDbEntity
  8
0
  6
Continuous
 62
     7
370
    25
100
AcDbLine
 10
87.2952655084
 20
61.7539470295
 30
0.0
 11
86.63841963
 21
60.7686782119
 31
0.0
  0
LINE
  5
141
330
1F
100
AcDbEntity
  8
FORMAT
100
AcDbLine
 10
108.49441963
 20
61.0461782119
 30
0.0
 11
100.63841963
 21
61.0461782119
 31
0.0
  0
LINE
  5
142
330
1F
100
AcDbEntity
  8
FORMAT
100
AcDbLine
 10
108.49441963
 20
72.4911782119
 30
0.0
 11
100.63841963
 21
72.4911782119
 31
0.0
  0
LINE
  5
143
330
1F
100
AcDbEntity
  8
FORMAT
100
AcDbLine
 10
94.8928488909
 20
85.3279938052
 30
0.0
 11
95.1603275031
 21
76.7686782119
 31
0.0
  0
LINE
  5
144
330
1F
100
AcDbEntity
  8
FORMAT
100
AcDbLine
 10
86.3839903691
 20
85.3279938052
 30
0.0
 11
86.1165117569
 21
76.7686782119
 31
0.0
  0
LINE
  5
145
330
1F
100
AcDbEntity
  8
FORMAT
100
AcDbLine
 10
85.61723213
 20
76.7686782119
 30
0.0
 11
95.65960713
 21
76.7686782119
 31
0.0
  0
LINE
  5
146
330
1F
100
AcDbEntity
  8
FORMAT
  6
CENTERX2
370
    18
100
AcDbLine
 10
90.63841963
 20
58.913774572
 30
0.0
 11
90.63841963
 21
87.6729300256
 31
0.0
  0
LINE
  5
147
330
1F
100
AcDbEntity
  8
FORMAT
  6
CENTERX2
370
    18
100
AcDbLine
 10
82.6940282977
 20
66.7686782119
 30
0.0
 11
118.4617174333
 21
66.7686782119
 31
0.0
  0
LINE
  5
148
330
1F
100
AcDbEntity
  8
0
  6
Continuous
 62
     7
370
    25
100
AcDbLine
 10
145.8429561201
 20
73.5186782119
 30
0.0
 11
145.8429561201
 21
74.7306238454
 31
0.0
  0
LINE
  5
149
330
1F
100
AcDbEntity
  8
0
  6
Continuous
 62
     7
370
    25
100
AcDbLine
 10
133.8429561201
 20
74.7306238454
 30
0.0
 11
133.8429561201
 21
73.5186782119
 31
0.0
  0
LINE
  5
14A
330
1F
100
AcDbEntity
  8
0
  6
Continuous
 62
     7
370
    25
100
AcDbLine
 10
145.8429561201
 20
74.7306238454
 30
0.0
 11
144.9110186201
 21
75.2686782119
 31
0.0
  0
LINE
  5
14B
330
1F
100
AcDbEntity
  8
0
  6
Continuous
 62
     7
370
    25
100
AcDbLine
 10
134.7748936201
 20
75.2686782119
 30
0.0
 11
133.8429561201
 21
74.7306238454
 31
0.0
  0
LINE
  5
14C
330
1F
100
AcDbEntity
  8
0
  6
Continuous
 62
     7
370
    25
100
AcDbLine
 10
144.9110186201
 20
75.2686782119
 30
0.0
 11
144.6252357469
 21
84.4137301525
 31
0.0
  0
LINE
  5
14D
330
1F
100
AcDbEntity
  8
0
  6
Continuous
 62
     7
370
    25
100
AcDbLine
 10
135.0606764932
 20
84.4137301525
 30
0.0
 11
134.7748936201
 21
75.2686782119
 31
0.0
  0
LINE
  5
14E
330
1F
100
AcDbEntity
  8
0
  6
Continuous
 62
     7
370
    25
100
AcDbLine
 10
144.6252357469
 20
84.4137301525
 30
0.0
 11
143.8429561201
 21
85.7686782119
 31
0.0
  0
LINE
  5
14F
330
1F
100
AcDbEntity
  8
0
  6
Continuous
 62
     7
370
    25
100
AcDbLine
 10
135.8429561201
 20
85.7686782119
 30
0.0
 11
135.0606764932
 21
84.4137301525
 31
0.0
  0
CIRCLE
  5
150
330
1F
100
AcDbEntity
  8
0
  6
Continuous
 62
     7
370
    25
100
AcDbCircle
 10
139.8429561201
 20
66.7686782119
 30
0.0
 40
4.049999999999999
  0
CIRCLE
  5
151
330
1F
100
AcDbEntity
  8
0
  6
Continuous
 62
     7
370
    25
100
AcDbCircle
 10
139.8429561201
 20
66.7686782119
 30
0.0
 40
8.050000000000011
  0
CIRCLE
  5
152
330
1F
100
AcDbEntity
  8
0
  6
Continuous
 62
     7
370
    25
100
AcDbCircle
 10
139.8429561201
 20
66.7686782119
 30
0.0
 40
8.25
  0
CIRCLE
  5
153
330
1F
100
AcDbEntity
  8
0
  6
Continuous
 62
     7
370
    25
100
AcDbCircle
 10
139.8429561201
 20
66.7686782119
 30
0.0
 40
4.175000000000011
  0
CIRCLE
  5
154
330
1F
100
AcDbEntity
  8
0
  6
Continuous
 62
     7
370
    25
100
AcDbCircle
 10
139.8429561201
 20
66.7686782119
 30
0.0
 40
4.075000000000017
  0
SPLINE
  5
155
330
1F
100
AcDbEntity
  8
0
  6
Continuous
 62
     7
370
    25
100
AcDbSpline
210
0.0
220
0.0
230
1.0
 70
    24
 71
     3
 72
    10
 73
     6
 74
     0
 42
0.00000001
 43
0.00000001
 40
0.0
 40
0.0
 40
0.0
 40
0.0
 40
0.3089808900030073
 40
0.6190948628358686
 40
1.0
 40
1.0
 40
1.0
 40
1.0
 10
136.8600270533868
 20
74.86143788848703
 30
0.0
 10
136.5994435386704
 20
74.71098992611918
 30
0.0
 10
136.0773209074002
 20
74.40954228440533
 30
0.0
 10
135.2303285966798
 20
73.92053104580933
 30
0.0
 10
134.6472764996735
 20
73.58390576065119
 30
0.0
 10
134.325885186798
 20
73.3983503996473
 30
0.0
  0
LINE
  5
156
330
1F
100
AcDbEntity
  8
0
  6
Continuous
 62
     7
370
    25
100
AcDbLine
 10
136.8600270534
 20
74.8614378885
 30
0.0
 11
136.9897196215
 21
74.5095787721
 31
0.0
  0
LINE
  5
157
330
1F
100
AcDbEntity
  8
0
  6
Continuous
 62
     7
370
    25
100
AcDbLine
 10
134.3258851868
 20
73.3983503996
 30
0.0
 11
134.5657578361
 21
73.1101037828
 31
0.0
  0
SPLINE
  5
158
330
1F
100
AcDbEntity
  8
0
  6
Continuous
 62
     7
370
    25
100
AcDbSpline
210
0.0
220
0.0
230
1.0
 70
    24
 71
     3
 72
    10
 73
     6
 74
     0
 42
0.00000001
 43
0.00000001
 40
0.0
 40
0.0
 40
0.0
 40
0.0
 40
0.3089808900029887
 40
0.6190948628358313
 40
1.0
 40
1.0
 40
1.0
 40
1.0
 10
145.3600270533869
 20
73.39835039964714
 30
0.0
 10
145.0994435386706
 20
73.548798362015
 30
0.0
 10
144.5773209074003
 20
73.85024600372888
 30
0.0
 10
143.7303285966798
 20
74.33925724232495
 30
0.0
 10
143.1472764996734
 20
74.67588252748314
 30
0.0
 10
142.8258851867978
 20
74.86143788848707
 30
0.0
  0
LINE
  5
159
330
1F
100
AcDbEntity
  8
0
  6
Continuous
 62
     7
370
    25
100
AcDbLine
 10
145.3600270534
 20
73.3983503996
 30
0.0
 11
145.1201544041
 21
73.1101037828
 31
0.0
  0
LINE
  5
15A
330
1F
100
AcDbEntity
  8
0
  6
Continuous
 62
     7
370
    25
100
AcDbLine
 10
142.8258851868
 20
74.8614378885
 30
0.0
 11
142.6961926187
 21
74.5095787721
 31
0.0
  0
LINE
  5
15B
330
1F
100
AcDbEntity
  8
0
  6
Continuous
 62
     7
370
    25
100
AcDbLine
 10
136.9897196215
 20
59.0277776517
 30
0.0
 11
136.8600270534
 21
58.6759185353
 31
0.0
  0
SPLINE
  5
15C
330
1F
100
AcDbEntity
  8
0
  6
Continuous
 62
     7
370
    25
100
AcDbSpline
210
0.0
220
0.0
230
1.0
 70
    24
 71
     3
 72
    10
 73
     6
 74
     0
 42
0.00000001
 43
0.00000001
 40
0.0
 40
0.0
 40
0.0
 40
0.0
 40
0.3089808900029882
 40
0.6190948628358306
 40
1.0
 40
1.0
 40
1.0
 40
1.0
 10
134.3258851867977
 20
60.13900602415168
 30
0.0
 10
134.5864687015141
 20
59.98855806178381
 30
0.0
 10
135.1085913327844
 20
59.68711042006991
 30
0.0
 10
135.9555836435049
 20
59.19809918147386
 30
0.0
 10
136.5386357405113
 20
58.86147389631564
 30
0.0
 10
136.8600270533869
 20
58.67591853531169
 30
0.0
  0
LINE
  5
15D
330
1F
100
AcDbEntity
  8
0
  6
Continuous
 62
     7
370
    25
100
AcDbLine
 10
134.5657578361
 20
60.427252641
 30
0.0
 11
134.3258851868
 21
60.1390060242
 31
0.0
  0
LINE
  5
15E
330
1F
100
AcDbEntity
  8
0
  6
Continuous
 62
     7
370
    25
100
AcDbLine
 10
145.1201544041
 20
60.427252641
 30
0.0
 11
145.3600270534
 21
60.1390060242
 31
0.0
  0
SPLINE
  5
15F
330
1F
100
AcDbEntity
  8
0
  6
Continuous
 62
     7
370
    25
100
AcDbSpline
210
0.0
220
0.0
230
1.0
 70
    24
 71
     3
 72
    10
 73
     6
 74
     0
 42
0.00000001
 43
0.00000001
 40
0.0
 40
0.0
 40
0.0
 40
0.0
 40
0.308980890002988
 40
0.6190948628358299
 40
1.0
 40
1.0
 40
1.0
 40
1.0
 10
142.8258851867977
 20
58.67591853531165
 30
0.0
 10
143.0864687015141
 20
58.82636649767952
 30
0.0
 10
143.6085913327844
 20
59.12781413939339
 30
0.0
 10
144.4555836435049
 20
59.61682537798946
 30
0.0
 10
145.0386357405113
 20
59.95345066314767
 30
0.0
 10
145.3600270533869
 20
60.1390060241516
 30
0.0
  0
LINE
  5
160
330
1F
100
AcDbEntity
  8
0
  6
Continuous
 62
     7
370
    25
100
AcDbLine
 10
142.6961926187
 20
59.0277776517
 30
0.0
 11
142.8258851868
 21
58.6759185353
 31
0.0
  0
LINE
  5
161
330
1F
100
AcDbEntity
  8
0
  6
Continuous
 62
     7
370
    25
100
AcDbLine
 10
131.7125213375
 20
65.3692032226
 30
0.0
 11
131.3429561201
 21
65.3055907231
 31
0.0
  0
SPLINE
  5
162
330
1F
100
AcDbEntity
  8
0
  6
Continuous
 62
     7
370
    25
100
AcDbSpline
210
0.0
220
0.0
230
1.0
 70
    24
 71
     3
 72
    10
 73
     6
 74
     0
 42
0.00000001
 43
0.00000001
 40
0.0
 40
0.0
 40
0.0
 40
0.0
 40
0.0789477693778934
 40
0.5375793028234307
 40
1.0
 40
1.0
 40
1.0
 40
1.0
 10
131.3429561200924
 20
68.23176570073943
 30
0.0
 10
131.3429561200924
 20
68.15499604637102
 30
0.0
 10
131.3429561200924
 20
67.63224818916663
 30
0.0
 10
131.3429561200924
 20
66.65407648326745
 30
0.0
 10
131.3429561200924
 20
65.75631708917658
 30
0.0
 10
131.3429561200923
 20
65.30559072305951
 30
0.0
  0
LINE
  5
163
330
1F
100
AcDbEntity
  8
0
  6
Continuous
 62
     7
370
    25
100
AcDbLine
 10
131.3429561201
 20
68.2317657007
 30
0.0
 11
131.7125213375
 21
68.1681532012
 31
0.0
  0
LINE
  5
164
330
1F
100
AcDbEntity
  8
0
  6
Continuous
 62
     7
370
    25
100
AcDbLine
 10
148.3429561201
 20
68.2317657007
 30
0.0
 11
147.9733909027
 21
68.1681532012
 31
0.0
  0
SPLINE
  5
165
330
1F
100
AcDbEntity
  8
0
  6
Continuous
 62
     7
370
    25
100
AcDbSpline
210
0.0
220
0.0
230
1.0
 70
    24
 71
     3
 72
    10
 73
     6
 74
     0
 42
0.00000001
 43
0.00000001
 40
0.0
 40
0.0
 40
0.0
 40
0.0
 40
0.4586421336634352
 40
0.9210522271454904
 40
1.0
 40
1.0
 40
1.0
 40
1.0
 10
148.3429561200923
 20
65.30559072305938
 30
0.0
 10
148.3429561200923
 20
65.75262187980971
 30
0.0
 10
148.3429561200923
 20
66.6503567635185
 30
0.0
 10
148.3429561200924
 20
67.6285740597391
 30
0.0
 10
148.3429561200924
 20
68.15499606710591
 30
0.0
 10
148.3429561200924
 20
68.23176570073932
 30
0.0
  0
LINE
  5
166
330
1F
100
AcDbEntity
  8
0
  6
Continuous
 62
     7
370
    25
100
AcDbLine
 10
147.9733909027
 20
65.3692032226
 30
0.0
 11
148.3429561201
 21
65.3055907231
 31
0.0
  0
ARC
  5
167
330
1F
100
AcDbEntity
  8
0
  6
Continuous
 62
     7
370
    25
100
AcDbCircle
 10
139.8429561201
 20
66.7686782119
 30
0.0
 40
8.625000000000002
100
AcDbArc
 50
9.766500898
 51
50.233499102
  0
ARC
  5
168
330
1F
100
AcDbEntity
  8
0
  6
Continuous
 62
     7
370
    25
100
AcDbCircle
 10
139.8429561201
 20
66.7686782119
 30
0.0
 40
8.625000000000016
100
AcDbArc
 50
129.766500898
 51
170.233499102
  0
ARC
  5
169
330
1F
100
AcDbEntity
  8
0
  6
Continuous
 62
     7
370
    25
100
AcDbCircle
 10
139.8429561201
 20
66.7686782119
 30
0.0
 40
8.625000000000014
100
AcDbArc
 50
189.766500898
 51
230.233499102
  0
ARC
  5
16A
330
1F
100
AcDbEntity
  8
0
  6
Continuous
 62
     7
370
    25
100
AcDbCircle
 10
139.8429561201
 20
66.7686782119
 30
0.0
 40
8.625000000000005
100
AcDbArc
 50
309.766500898
 51
350.233499102
  0
ARC
  5
16B
330
1F
100
AcDbEntity
  8
0
  6
Continuous
 62
     7
370
    25
100
AcDbCircle
 10
139.8429561201
 20
66.7686782119
 30
0.0
 40
8.625000000000007
100
AcDbArc
 50
249.766500898
 51
290.233499102
  0
ARC
  5
16C
330
1F
100
AcDbEntity
  8
0
  6
Continuous
 62
     7
370
    25
100
AcDbCircle
 10
139.8429561201
 20
66.7686782119
 30
0.0
 40
8.624999999999996
100
AcDbArc
 50
69.766500898
 51
110.233499102
  0
SPLINE
  5
16D
330
1F
100
AcDbEntity
  8
0
  6
Continuous
 62
     7
370
    25
100
AcDbSpline
210
0.0
220
0.0
230
1.0
 70
    24
 71
     3
 72
    11
 73
     7
 74
     0
 42
0.00000001
 43
0.00000001
 40
0.0
 40
0.0
 40
0.0
 40
0.0
 40
0.2490252138763567
 40
0.4980311639765299
 40
0.7490269204800201
 40
1.0
 40
1.0
 40
1.0
 40
1.0
 10
148.3429561200924
 20
71.67615550001118
 30
0.0
 10
148.0993493563304
 20
71.81680193064555
 30
0.0
 10
147.6121546734291
 20
72.0980839119664
 30
0.0
 10
146.8700191286333
 20
72.52655606852943
 30
0.0
 10
146.1196773671597
 20
72.95976608650044
 30
0.0
 10
145.6132361983026
 20
73.25216003166884
 30
0.0
 10
145.3600270533869
 20
73.39835039964714
 30
0.0
  0
SPLINE
  5
16E
330
1F
100
AcDbEntity
  8
0
  6
Continuous
 62
     7
370
    25
100
AcDbSpline
210
0.0
220
0.0
230
1.0
 70
    24
 71
     3
 72
    11
 73
     7
 74
     0
 42
0.00000001
 43
0.00000001
 40
0.0
 40
0.0
 40
0.0
 40
0.0
 40
0.2488617730236802
 40
0.4977454583558503
 40
0.748862751792887
 40
1.0
 40
1.0
 40
1.0
 40
1.0
 10
148.3429561200924
 20
68.23176570073932
 30
0.0
 10
148.3429561200924
 20
68.52169046134529
 30
0.0
 10
148.3429561200924
 20
69.10156551046664
 30
0.0
 10
148.3429561200923
 20
69.96564468545554
 30
0.0
 10
148.3429561200924
 20
70.8251208274094
 30
0.0
 10
148.3429561200924
 20
71.39246976214531
 30
0.0
 10
148.3429561200924
 20
71.67615550001118
 30
0.0
  0
SPLINE
  5
16F
330
1F
100
AcDbEntity
  8
0
  6
Continuous
 62
     7
370
    25
100
AcDbSpline
210
0.0
220
0.0
230
1.0
 70
    24
 71
     3
 72
    11
 73
     7
 74
     0
 42
0.00000001
 43
0.00000001
 40
0.0
 40
0.0
 40
0.0
 40
0.0
 40
0.2490252138763565
 40
0.4980311639765297
 40
0.7490269204800202
 40
1.0
 40
1.0
 40
1.0
 40
1.0
 10
139.8429561200923
 20
76.58363278812303
 30
0.0
 10
139.5993493563304
 20
76.44298635748864
 30
0.0
 10
139.112154673429
 20
76.1617043761678
 30
0.0
 10
138.3700191286333
 20
75.73323221960479
 30
0.0
 10
137.6196773671596
 20
75.30002220163375
 30
0.0
 10
137.1132361983024
 20
75.00762825646534
 30
0.0
 10
136.8600270533868
 20
74.86143788848703
 30
0.0
  0
SPLINE
  5
170
330
1F
100
AcDbEntity
  8
0
  6
Continuous
 62
     7
370
    25
100
AcDbSpline
210
0.0
220
0.0
230
1.0
 70
    24
 71
     3
 72
    11
 73
     7
 74
     0
 42
0.00000001
 43
0.00000001
 40
0.0
 40
0.0
 40
0.0
 40
0.0
 40
0.2488617730236806
 40
0.4977454583558505
 40
0.7488627517928869
 40
1.0
 40
1.0
 40
1.0
 40
1.0
 10
142.8258851867978
 20
74.86143788848707
 30
0.0
 10
142.5748029789269
 20
75.00640026879007
 30
0.0
 10
142.0726164553671
 20
75.29633779335074
 30
0.0
 10
141.3243019389456
 20
75.7283773808452
 30
0.0
 10
140.5799737660669
 20
76.15811545182214
 30
0.0
 10
140.0886351757756
 20
76.4417899191901
 30
0.0
 10
139.8429561200923
 20
76.58363278812303
 30
0.0
  0
SPLINE
  5
171
330
1F
100
AcDbEntity
  8
0
  6
Continuous
 62
     7
370
    25
100
AcDbSpline
210
0.0
220
0.0
230
1.0
 70
    24
 71
     3
 72
    11
 73
     7
 74
     0
 42
0.00000001
 43
0.00000001
 40
0.0
 40
0.0
 40
0.0
 40
0.0
 40
0.2490252138763566
 40
0.4980311639765298
 40
0.7490269204800198
 40
1.0
 40
1.0
 40
1.0
 40
1.0
 10
131.3429561200923
 20
61.86120092378764
 30
0.0
 10
131.5865628838543
 20
61.72055449315326
 30
0.0
 10
132.0737575667556
 20
61.43927251183242
 30
0.0
 10
132.8158931115513
 20
61.01080035526939
 30
0.0
 10
133.566234873025
 20
60.57759033729837
 30
0.0
 10
134.0726760418821
 20
60.28519639212998
 30
0.0
 10
134.3258851867977
 20
60.13900602415168
 30
0.0
  0
SPLINE
  5
172
330
1F
100
AcDbEntity
  8
0
  6
Continuous
 62
     7
370
    25
100
AcDbSpline
210
0.0
220
0.0
230
1.0
 70
    24
 71
     3
 72
    10
 73
     6
 74
     0
 42
0.00000001
 43
0.00000001
 40
0.0
 40
0.0
 40
0.0
 40
0.0
 40
0.3355445600395945
 40
0.6726666839999053
 40
0.9999999999999999
 40
0.9999999999999999
 40
0.9999999999999999
 40
0.9999999999999999
 10
131.3429561200923
 20
65.30559072305951
 30
0.0
 10
131.3429561200923
 20
64.91496115675608
 30
0.0
 10
131.3429561200923
 20
64.13186547787917
 30
0.0
 10
131.3429561200923
 20
62.98261350846439
 30
0.0
 10
131.3429561200923
 20
62.23131572670349
 30
0.0
 10
131.3429561200923
 20
61.86120092378764
 30
0.0
  0
SPLINE
  5
173
330
1F
100
AcDbEntity
  8
0
  6
Continuous
 62
     7
370
    25
100
AcDbSpline
210
0.0
220
0.0
230
1.0
 70
    24
 71
     3
 72
    11
 73
     7
 74
     0
 42
0.00000001
 43
0.00000001
 40
0.0
 40
0.0
 40
0.0
 40
0.0
 40
0.2488617730236801
 40
0.4977454583558502
 40
0.748862751792887
 40
0.9999999999999999
 40
0.9999999999999999
 40
0.9999999999999999
 40
0.9999999999999999
 10
134.325885186798
 20
73.3983503996473
 30
0.0
 10
134.0748029789271
 20
73.2533880193443
 30
0.0
 10
133.5726164553672
 20
72.96345049478361
 30
0.0
 10
132.8243019389457
 20
72.53141090728916
 30
0.0
 10
132.079973766067
 20
72.10167283631222
 30
0.0
 10
131.5886351757756
 20
71.81799836894426
 30
0.0
 10
131.3429561200924
 20
71.67615550001132
 30
0.0
  0
SPLINE
  5
174
330
1F
100
AcDbEntity
  8
0
  6
Continuous
 62
     7
370
    25
100
AcDbSpline
210
0.0
220
0.0
230
1.0
 70
    24
 71
     3
 72
    11
 73
     7
 74
     0
 42
0.00000001
 43
0.00000001
 40
0.0
 40
0.0
 40
0.0
 40
0.0
 40
0.2490252138763564
 40
0.4980311639765296
 40
0.7490269204800198
 40
0.9999999999999999
 40
0.9999999999999999
 40
0.9999999999999999
 40
0.9999999999999999
 10
131.3429561200924
 20
71.67615550001132
 30
0.0
 10
131.3429561200924
 20
71.39486263874255
 30
0.0
 10
131.3429561200924
 20
70.83229867610089
 30
0.0
 10
131.3429561200924
 20
69.97535436297485
 30
0.0
 10
131.3429561200924
 20
69.10893432703281
 30
0.0
 10
131.3429561200924
 20
68.52414643669601
 30
0.0
 10
131.3429561200924
 20
68.23176570073943
 30
0.0
  0
SPLINE
  5
175
330
1F
100
AcDbEntity
  8
0
  6
Continuous
 62
     7
370
    25
100
AcDbSpline
210
0.0
220
0.0
230
1.0
 70
    24
 71
     3
 72
    11
 73
     7
 74
     0
 42
0.00000001
 43
0.00000001
 40
0.0
 40
0.0
 40
0.0
 40
0.0
 40
0.2488617730236801
 40
0.4977454583558503
 40
0.748862751792887
 40
1.0
 40
1.0
 40
1.0
 40
1.0
 10
145.3600270533869
 20
60.1390060241516
 30
0.0
 10
145.6111092612578
 20
60.28396840445459
 30
0.0
 10
146.1132957848177
 20
60.57390592901526
 30
0.0
 10
146.8616103012392
 20
61.0059455165097
 30
0.0
 10
147.6059384741178
 20
61.43568358748664
 30
0.0
 10
148.0972770644092
 20
61.71935805485457
 30
0.0
 10
148.3429561200923
 20
61.86120092378751
 30
0.0
  0
SPLINE
  5
176
330
1F
100
AcDbEntity
  8
0
  6
Continuous
 62
     7
370
    25
100
AcDbSpline
210
0.0
220
0.0
230
1.0
 70
    24
 71
     3
 72
    10
 73
     6
 74
     0
 42
0.00000001
 43
0.00000001
 40
0.0
 40
0.0
 40
0.0
 40
0.0
 40
0.3273333707077128
 40
0.6629523133412114
 40
0.9999999999999999
 40
0.9999999999999999
 40
0.9999999999999999
 40
0.9999999999999999
 10
148.3429561200923
 20
61.86120092378751
 30
0.0
 10
148.3429561200923
 20
62.23131571243879
 30
0.0
 10
148.3429561200923
 20
62.98091375924852
 30
0.0
 10
148.3429561200923
 20
64.13012377980479
 30
0.0
 10
148.3429561200923
 20
64.9132139807383
 30
0.0
 10
148.3429561200923
 20
65.30559072305938
 30
0.0
  0
SPLINE
  5
177
330
1F
100
AcDbEntity
  8
0
  6
Continuous
 62
     7
370
    25
100
AcDbSpline
210
0.0
220
0.0
230
1.0
 70
    24
 71
     3
 72
    11
 73
     7
 74
     0
 42
0.00000001
 43
0.00000001
 40
0.0
 40
0.0
 40
0.0
 40
0.0
 40
0.249025213876357
 40
0.49803116397653
 40
0.7490269204800202
 40
0.9999999999999999
 40
0.9999999999999999
 40
0.9999999999999999
 40
0.9999999999999999
 10
139.8429561200923
 20
56.95372363567573
 30
0.0
 10
140.0865628838543
 20
57.09437006631011
 30
0.0
 10
140.5737575667556
 20
57.37565204763094
 30
0.0
 10
141.3158931115514
 20
57.80412420419395
 30
0.0
 10
142.066234873025
 20
58.23733422216497
 30
0.0
 10
142.5726760418821
 20
58.52972816733336
 30
0.0
 10
142.8258851867977
 20
58.67591853531166
 30
0.0
  0
SPLINE
  5
178
330
1F
100
AcDbEntity
  8
0
  6
Continuous
 62
     7
370
    25
100
AcDbSpline
210
0.0
220
0.0
230
1.0
 70
    24
 71
     3
 72
    11
 73
     7
 74
     0
 42
0.00000001
 43
0.00000001
 40
0.0
 40
0.0
 40
0.0
 40
0.0
 40
0.2488617730236805
 40
0.4977454583558503
 40
0.748862751792887
 40
1.0
 40
1.0
 40
1.0
 40
1.0
 10
136.8600270533869
 20
58.67591853531169
 30
0.0
 10
137.1111092612578
 20
58.5309561550087
 30
0.0
 10
137.6132957848176
 20
58.24101863044802
 30
0.0
 10
138.3616103012391
 20
57.80897904295357
 30
0.0
 10
139.1059384741178
 20
57.37924097197662
 30
0.0
 10
139.5972770644091
 20
57.09556650460868
 30
0.0
 10
139.8429561200923
 20
56.95372363567573
 30
0.0
  0
CIRCLE
  5
179
330
1F
100
AcDbEntity
  8
0
  6
Continuous
 62
     7
370
    25
100
AcDbCircle
 10
139.8429561201
 20
66.7686782119
 30
0.0
 40
3.0
  0
SPLINE
  5
17A
330
1F
100
AcDbEntity
  8
0
  6
Continuous
 62
     7
370
    25
100
AcDbSpline
210
0.0
220
0.0
230
1.0
 70
    24
 71
     3
 72
    14
 73
    10
 74
     0
 42
0.00000001
 43
0.00000001
 40
0.0
 40
0.0
 40
0.0
 40
0.0
 40
0.25
 40
0.25
 40
0.5
 40
0.5
 40
0.75
 40
0.75
 40
1.0
 40
1.0
 40
1.0
 40
1.0
 10
133.8429561200924
 20
73.51867821189937
 30
0.0
 10
133.8429561200924
 20
73.51867821189937
 30
0.0
 10
133.8528010338299
 20
73.51867821189937
 30
0.0
 10
133.892293140139
 20
73.51867821189937
 30
0.0
 10
133.9219407793143
 20
73.51867821189937
 30
0.0
 10
134.0013699165179
 20
73.51867821189937
 30
0.0
 10
134.0511523405872
 20
73.51867821189937
 30
0.0
 10
134.1713813269218
 20
73.51867821189937
 30
0.0
 10
134.241829359529
 20
73.51867821189937
 30
0.0
 10
134.3229561200924
 20
73.51867821189937
 30
0.0
  0
SPLINE
  5
17B
330
1F
100
AcDbEntity
  8
0
  6
Continuous
 62
     7
370
    25
100
AcDbSpline
210
0.0
220
0.0
230
1.0
 70
    24
 71
     3
 72
    14
 73
    10
 74
     0
 42
0.00000001
 43
0.00000001
 40
0.0
 40
0.0
 40
0.0
 40
0.0
 40
0.25
 40
0.25
 40
0.5
 40
0.5
 40
0.75
 40
0.75
 40
1.0
 40
1.0
 40
1.0
 40
1.0
 10
145.8429561200923
 20
73.51867821189937
 30
0.0
 10
145.8429561200923
 20
73.51867821189937
 30
0.0
 10
145.8331112063548
 20
73.51867821189937
 30
0.0
 10
145.7936191000457
 20
73.51867821189937
 30
0.0
 10
145.7639714608704
 20
73.51867821189937
 30
0.0
 10
145.6845423236668
 20
73.51867821189937
 30
0.0
 10
145.6347598995975
 20
73.51867821189937
 30
0.0
 10
145.5145309132629
 20
73.51867821189937
 30
0.0
 10
145.4440828806557
 20
73.51867821189937
 30
0.0
 10
145.3629561200924
 20
73.51867821189937
 30
0.0
  0
LINE
  5
17C
330
1F
100
AcDbEntity
  8
0
  6
Continuous
 62
     7
370
    25
100
AcDbLine
 10
145.8429561201
 20
74.7306238454
 30
0.0
 11
143.0596812438
 21
74.7306238454
 31
0.0
  0
LINE
  5
17D
330
1F
100
AcDbEntity
  8
0
  6
Continuous
 62
     7
370
    25
100
AcDbLine
 10
136.6249385176
 20
74.7306238454
 30
0.0
 11
133.8429561201
 21
74.7306238454
 31
0.0
  0
LINE
  5
17E
330
1F
100
AcDbEntity
  8
0
  6
Continuous
 62
     7
370
    25
100
AcDbLine
 10
137.5640932192
 20
75.2686782119
 30
0.0
 11
134.7748936201
 21
75.2686782119
 31
0.0
  0
LINE
  5
17F
330
1F
100
AcDbEntity
  8
0
  6
Continuous
 62
     7
370
    25
100
AcDbLine
 10
144.9110186201
 20
75.2686782119
 30
0.0
 11
142.1261524778
 21
75.2686782119
 31
0.0
  0
LINE
  5
180
330
1F
100
AcDbEntity
  8
0
  6
Continuous
 62
     7
370
    25
100
AcDbLine
 10
135.0606764932
 20
84.4137301525
 30
0.0
 11
144.6252357469
 21
84.4137301525
 31
0.0
  0
SPLINE
  5
181
330
1F
100
AcDbEntity
  8
0
  6
Continuous
 62
     7
370
    25
100
AcDbSpline
210
0.0
220
0.0
230
1.0
 70
     8
 71
     3
 72
    10
 73
     6
 74
     0
 42
0.00000001
 43
0.00000001
 40
0.0
 40
0.0
 40
0.0
 40
0.0
 40
0.5
 40
0.5
 40
1.0
 40
1.0
 40
1.0
 40
1.0
 10
145.435743867198
 20
73.34189361615881
 30
0.0
 10
145.408202920376
 20
73.37032087622607
 30
0.0
 10
145.3885897864863
 20
73.40454751439295
 30
0.0
 10
145.366280913198
 20
73.4675695599305
 30
0.0
 10
145.3629561200924
 20
73.49615527922249
 30
0.0
 10
145.3629561200924
 20
73.51867821189937
 30
0.0
  0
ARC
  5
182
330
1F
100
AcDbEntity
  8
0
  6
Continuous
 62
     7
370
    25
100
AcDbCircle
 10
134.0929561201
 20
73.0186782119
 30
0.0
 40
0.2500000000000041
100
AcDbArc
 50
90.0
 51
150.201750927
  0
ARC
  5
183
330
1F
100
AcDbEntity
  8
0
  6
Continuous
 62
     7
370
    25
100
AcDbCircle
 10
145.5929561201
 20
73.0186782119
 30
0.0
 40
0.2500000000000107
100
AcDbArc
 50
29.923780036
 51
90.0
  0
LINE
  5
184
330
1F
100
AcDbEntity
  8
0
  6
Continuous
 62
     7
370
    25
100
AcDbLine
 10
143.8429561201
 20
85.7686782119
 30
0.0
 11
135.8429561201
 21
85.7686782119
 31
0.0
  0
SPLINE
  5
185
330
1F
100
AcDbEntity
  8
0
  6
Continuous
 62
     7
370
    25
100
AcDbSpline
210
0.0
220
0.0
230
1.0
 70
     8
 71
     3
 72
    10
 73
     6
 74
     0
 42
0.00000001
 43
0.00000001
 40
0.0
 40
0.0
 40
0.0
 40
0.0
 40
0.5
 40
0.5
 40
1.0
 40
1.0
 40
1.0
 40
1.0
 10
134.2501683729868
 20
73.34189361615881
 30
0.0
 10
134.2777093198088
 20
73.37032087622607
 30
0.0
 10
134.2973224536984
 20
73.40454751439295
 30
0.0
 10
134.3196313269868
 20
73.4675695599305
 30
0.0
 10
134.3229561200924
 20
73.49615527922249
 30
0.0
 10
134.3229561200924
 20
73.51867821189937
 30
0.0
  0
SPLINE
  5
186
330
1F
100
AcDbEntity
  8
0
  6
Continuous
 62
     7
370
    25
100
AcDbSpline
210
0.0
220
0.0
230
1.0
 70
     8
 71
     3
 72
    12
 73
     8
 74
     0
 42
0.00000001
 43
0.00000001
 40
0.0
 40
0.0
 40
0.0
 40
0.0
 40
0.25
 40
0.25
 40
0.5
 40
0.5
 40
1.0
 40
1.0
 40
1.0
 40
1.0
 10
145.8416629027638
 20
73.27068581218907
 30
0.0
 10
145.8416527454067
 20
73.26042235289994
 30
0.0
 10
145.8330963192952
 20
73.25284357310316
 30
0.0
 10
145.8117229630603
 20
73.23843011765409
 30
0.0
 10
145.7989060329369
 20
73.2315954420018
 30
0.0
 10
145.7733125367933
 20
73.20526968900136
 30
0.0
 10
145.7695849849446
 20
73.19560273764037
 30
0.0
 10
145.7697328153898
 20
73.19545490719523
 30
0.0
  0
SPLINE
  5
187
330
1F
100
AcDbEntity
  8
0
  6
Continuous
 62
     7
370
    25
100
AcDbSpline
210
0.0
220
0.0
230
1.0
 70
     8
 71
     3
 72
    12
 73
     8
 74
     0
 42
0.00000001
 43
0.00000001
 40
0.0
 40
0.0
 40
0.0
 40
0.0
 40
0.25
 40
0.25
 40
0.5
 40
0.5
 40
1.0
 40
1.0
 40
1.0
 40
1.0
 10
145.8416629027638
 20
73.27068581218907
 30
0.0
 10
145.841673060121
 20
73.2809492714782
 30
0.0
 10
145.833138647728
 20
73.29561416190897
 30
0.0
 10
145.7970931596228
 20
73.32734954009247
 30
0.0
 10
145.7695820839105
 20
73.34442002784522
 30
0.0
 10
145.6557525760668
 20
73.38964398964465
 30
0.0
 10
145.5546910250235
 20
73.38282056237794
 30
0.0
 10
145.435743867198
 20
73.34189361615881
 30
0.0
  0
SPLINE
  5
188
330
1F
100
AcDbEntity
  8
0
  6
Continuous
 62
     7
370
    25
100
AcDbSpline
210
0.0
220
0.0
230
1.0
 70
     8
 71
     3
 72
    12
 73
     8
 74
     0
 42
0.00000001
 43
0.00000001
 40
0.0
 40
0.0
 40
0.0
 40
0.0
 40
0.25
 40
0.25
 40
0.5
 40
0.5
 40
1.0
 40
1.0
 40
1.0
 40
1.0
 10
133.8442493374209
 20
73.27068581218907
 30
0.0
 10
133.8442594947781
 20
73.26042235289994
 30
0.0
 10
133.8528159208895
 20
73.25284357310316
 30
0.0
 10
133.8741892771244
 20
73.23843011765409
 30
0.0
 10
133.8870062072479
 20
73.23159544200179
 30
0.0
 10
133.9125997033914
 20
73.20526968900136
 30
0.0
 10
133.9163272552401
 20
73.19560273764037
 30
0.0
 10
133.9161794247949
 20
73.19545490719523
 30
0.0
  0
SPLINE
  5
189
330
1F
100
AcDbEntity
  8
0
  6
Continuous
 62
     7
370
    25
100
AcDbSpline
210
0.0
220
0.0
230
1.0
 70
     8
 71
     3
 72
    14
 73
    10
 74
     0
 42
0.00000001
 43
0.00000001
 40
0.0
 40
0.0
 40
0.0
 40
0.0
 40
0.25
 40
0.25
 40
0.5
 40
0.5
 40
0.75
 40
0.75
 40
1.0
 40
1.0
 40
1.0
 40
1.0
 10
133.8442493374209
 20
73.27068581218907
 30
0.0
 10
133.8442391800637
 20
73.28094927147819
 30
0.0
 10
133.8527735924568
 20
73.29561416190896
 30
0.0
 10
133.888819080562
 20
73.32734954009246
 30
0.0
 10
133.9163301562742
 20
73.34442002784522
 30
0.0
 10
133.9922164948367
 20
73.3745693357115
 30
0.0
 10
134.0364534672381
 20
73.38040080586138
 30
0.0
 10
134.1356926168568
 20
73.37429468263984
 30
0.0
 10
134.190694794074
 20
73.36235708926837
 30
0.0
 10
134.2501683729868
 20
73.34189361615881
 30
0.0
  0
SPLINE
  5
18A
330
1F
100
AcDbEntity
  8
0
  6
Continuous
 62
     7
370
    25
100
AcDbSpline
210
0.0
220
0.0
230
1.0
 70
     8
 71
     3
 72
    10
 73
     6
 74
     0
 42
0.00000001
 43
0.00000001
 40
0.0
 40
0.0
 40
0.0
 40
0.0
 40
0.5
 40
0.5
 40
1.0
 40
1.0
 40
1.0
 40
1.0
 10
145.8416629027638
 20
73.27068581218907
 30
0.0
 10
145.8417035321924
 20
73.31173964934561
 30
0.0
 10
145.8421487370406
 20
73.35521647972661
 30
0.0
 10
145.8386231360894
 20
73.44427517945095
 30
0.0
 10
145.8429561200923
 20
73.47637854897461
 30
0.0
 10
145.8429561200923
 20
73.51867821189937
 30
0.0
  0
SPLINE
  5
18B
330
1F
100
AcDbEntity
  8
0
  6
Continuous
 62
     7
370
    25
100
AcDbSpline
210
0.0
220
0.0
230
1.0
 70
     8
 71
     3
 72
     9
 73
     5
 74
     0
 42
0.00000001
 43
0.00000001
 40
0.0
 40
0.0
 40
0.0
 40
0.0
 40
0.1237695466188387
 40
1.0
 40
1.0
 40
1.0
 40
1.0
 10
133.8447426803721
 20
73.39973405944298
 30
0.0
 10
133.8448297274072
 20
73.39441043674921
 30
0.0
 10
133.8455330267045
 20
73.35139805737799
 30
0.0
 10
133.8448488414109
 20
73.30837975701756
 30
0.0
 10
133.8442493374209
 20
73.27068581218907
 30
0.0
  0
SPLINE
  5
18C
330
1F
100
AcDbEntity
  8
0
  6
Continuous
 62
     7
370
    25
100
AcDbSpline
210
0.0
220
0.0
230
1.0
 70
     8
 71
     3
 72
    30
 73
    26
 74
     0
 42
0.00000001
 43
0.00000001
 40
0.0
 40
0.0
 40
0.0
 40
0.0
 40
0.1250000000000001
 40
0.1250000000000001
 40
0.2500000000000001
 40
0.2500000000000001
 40
0.3125000000000001
 40
0.3125000000000001
 40
0.375
 40
0.375
 40
0.4374999999999999
 40
0.4374999999999999
 40
0.4999999999999999
 40
0.4999999999999999
 40
0.625
 40
0.625
 40
0.6875
 40
0.6875
 40
0.75
 40
0.75
 40
0.8125000000000001
 40
0.8125000000000001
 40
0.8750000000000001
 40
0.8750000000000001
 40
1.0
 40
1.0
 40
1.0
 40
1.0
 10
141.5750069276631
 20
69.21816795468774
 30
0.0
 10
141.5146157392251
 20
69.04766169914386
 30
0.0
 10
141.4420012550399
 20
68.88317980895525
 30
0.0
 10
141.2541452471637
 20
68.57697309991995
 30
0.0
 10
141.1389601855223
 20
68.43593091850903
 30
0.0
 10
140.914230624151
 20
68.27645011775675
 30
0.0
 10
140.8323792078743
 20
68.23368961151267
 30
0.0
 10
140.6556784238256
 20
68.16949223516043
 30
0.0
 10
140.5591276940661
 20
68.1477302267415
 30
0.0
 10
140.3615450625295
 20
68.11995953879915
 30
0.0
 10
140.2602758133241
 20
68.11327396902416
 30
0.0
 10
140.0534202717898
 20
68.10551505600185
 30
0.0
 10
139.9476544971012
 20
68.1043999285897
 30
0.0
 10
139.6339711950672
 20
68.10439633382698
 30
0.0
 10
139.4226810686703
 20
68.10616075758134
 30
0.0
 10
139.1273039324164
 20
68.14764750987015
 30
0.0
 10
139.0308827098599
 20
68.16925740684937
 30
0.0
 10
138.8529032568034
 20
68.23391749414121
 30
0.0
 10
138.7718544884426
 20
68.27644600802864
 30
0.0
 10
138.6234750853112
 20
68.38150869888717
 30
0.0
 10
138.5565283351062
 20
68.44393844146897
 30
0.0
 10
138.4385247120083
 20
68.57841442616763
 30
0.0
 10
138.386417814328
 20
68.65113924717315
 30
0.0
 10
138.2449199615278
 20
68.88105280675225
 30
0.0
 10
138.1714404599656
 20
69.04725525059324
 30
0.0
 10
138.1109053125235
 20
69.21816795468256
 30
0.0
  0
LINE
  5
18D
330
1F
100
AcDbEntity
  8
0
  6
Continuous
 62
     7
370
    25
100
AcDbLine
 10
145.1654494024
 20
73.5186782119
 30
0.0
 11
145.3629561201
 21
73.5186782119
 31
0.0
  0
LINE
  5
18E
330
1F
100
AcDbEntity
  8
0
  6
Continuous
 62
     7
370
    25
100
AcDbLine
 10
134.3229561201
 20
73.5186782119
 30
0.0
 11
134.5202603527
 21
73.5186782119
 31
0.0
  0
SPLINE
  5
18F
330
1F
100
AcDbEntity
  8
0
  6
Continuous
 62
     7
370
    25
100
AcDbSpline
210
0.0
220
0.0
230
1.0
 70
     8
 71
     3
 72
     9
 73
     5
 74
     0
 42
0.00000001
 43
0.00000001
 40
0.0
 40
0.0
 40
0.0
 40
0.0
 40
0.1251150623302261
 40
1.0
 40
1.0
 40
1.0
 40
1.0
 10
145.8435849300706
 20
73.13988663201434
 30
0.0
 10
145.8436209885081
 20
73.14534233210765
 30
0.0
 10
145.8439091907187
 20
73.18894779408551
 30
0.0
 10
145.8427110969532
 20
73.23254407909549
 30
0.0
 10
145.8416629027638
 20
73.27068581218907
 30
0.0
  0
SPLINE
  5
190
330
1F
100
AcDbEntity
  8
0
  6
Continuous
 62
     7
370
    25
100
AcDbSpline
210
0.0
220
0.0
230
1.0
 70
     8
 71
     3
 72
     9
 73
     5
 74
     0
 42
0.00000001
 43
0.00000001
 40
0.0
 40
0.0
 40
0.0
 40
0.0
 40
0.1251150623495256
 40
1.0
 40
1.0
 40
1.0
 40
1.0
 10
133.8423273101141
 20
73.13988663201145
 30
0.0
 10
133.8422912516766
 20
73.14534233210571
 30
0.0
 10
133.842003049466
 20
73.18894779408454
 30
0.0
 10
133.8432011432315
 20
73.23254407909548
 30
0.0
 10
133.8442493374209
 20
73.27068581218907
 30
0.0
  0
LINE
  5
191
330
1F
100
AcDbEntity
  8
0
  6
Continuous
 62
     7
370
    25
100
AcDbLine
 10
133.8429561201
 20
73.5186782119
 30
0.0
 11
133.8447426804
 21
73.3997340594
 31
0.0
  0
INSERT
  5
19D
330
1F
100
AcDbEntity
  8
FORMAT
100
AcDbBlockReference
  2
SW_CENTERMARKSYMBOL_0
 10
139.8429561201
 20
66.7686782119
 30
0.0
  0
LINE
  5
19E
330
1F
100
AcDbEntity
  8
FORMAT
100
AcDbLine
 10
144.0973853809
 20
85.3279938052
 30
0.0
 11
144.3648639932
 21
76.7686782119
 31
0.0
  0
LINE
  5
19F
330
1F
100
AcDbEntity
  8
FORMAT
100
AcDbLine
 10
135.5885268592
 20
85.3279938052
 30
0.0
 11
135.3210482469
 21
76.7686782119
 31
0.0
  0
LINE
  5
1A0
330
1F
100
AcDbEntity
  8
FORMAT
100
AcDbLine
 10
134.8217686201
 20
76.7686782119
 30
0.0
 11
144.8641436201
 21
76.7686782119
 31
0.0
  0
LINE
  5
1A1
330
1F
100
AcDbEntity
  8
0
  6
Continuous
 62
     7
370
    25
100
AcDbLine
 10
104.0310911475
 20
119.6836027714
 30
0.0
 11
103.8867535802
 21
119.4336027714
 31
0.0
  0
LINE
  5
1A2
330
1F
100
AcDbEntity
  8
0
  6
Continuous
 62
     7
370
    25
100
AcDbLine
 10
103.8867535802
 20
102.9336027714
 30
0.0
 11
104.0310911475
 21
102.6836027714
 31
0.0
  0
LINE
  5
1A3
330
1F
100
AcDbEntity
  8
0
  6
Continuous
 62
     7
370
    25
100
AcDbLine
 10
116.6867535802
 20
102.9336027714
 30
0.0
 11
116.8867535802
 21
103.1336027714
 31
0.0
  0
LINE
  5
1A4
330
1F
100
AcDbEntity
  8
0
  6
Continuous
 62
     7
370
    25
100
AcDbLine
 10
116.8867535802
 20
119.2336027714
 30
0.0
 11
116.6867535802
 21
119.4336027714
 31
0.0
  0
LINE
  5
1A5
330
1F
100
AcDbEntity
  8
0
  6
Continuous
 62
     7
370
    25
100
AcDbLine
 10
116.6867535802
 20
119.4336027714
 30
0.0
 11
115.8030693746
 21
119.4336027714
 31
0.0
  0
LINE
  5
1A6
330
1F
100
AcDbEntity
  8
0
  6
Continuous
 62
     7
370
    25
100
AcDbLine
 10
115.8030693746
 20
102.9336027714
 30
0.0
 11
116.6867535802
 21
102.9336027714
 31
0.0
  0
SPLINE
  5
1A7
330
1F
100
AcDbEntity
  8
0
  6
Continuous
 62
     7
370
    25
100
AcDbSpline
210
0.0
220
0.0
230
1.0
 70
     8
 71
     3
 72
    13
 73
     9
 74
     0
 42
0.00000001
 43
0.00000001
 40
0.0
 40
0.0
 40
0.0
 40
0.0
 40
0.0835220591128913
 40
0.25642598936505
 40
0.4426502842735435
 40
0.641037025836859
 40
0.8483834422921059
 40
1.0
 40
1.0
 40
1.0
 40
1.0
 10
115.2438714285092
 20
102.681530461441
 30
0.0
 10
115.2547213192402
 20
102.6940556205664
 30
0.0
 10
115.2880322073428
 20
102.732509848764
 30
0.0
 10
115.3603985673481
 20
102.792299725868
 30
0.0
 10
115.4604962226148
 20
102.854924838121
 30
0.0
 10
115.5776431789719
 20
102.9023902655884
 30
0.0
 10
115.6941448794812
 20
102.9304103989673
 30
0.0
 10
115.7709004119465
 20
102.9308155816096
 30
0.0
 10
115.8033199383463
 20
102.9309867201444
 30
0.0
  0
SPLINE
  5
1A8
330
1F
100
AcDbEntity
  8
0
  6
Continuous
 62
     7
370
    25
100
AcDbSpline
210
0.0
220
0.0
230
1.0
 70
     8
 71
     3
 72
    13
 73
     9
 74
     0
 42
0.00000001
 43
0.00000001
 40
0.0
 40
0.0
 40
0.0
 40
0.0
 40
0.1976872120939559
 40
0.3859050702120893
 40
0.5631945532230456
 40
0.729450639253624
 40
0.88367712336731
 40
1.0
 40
1.0
 40
1.0
 40
1.0
 10
115.8034854570012
 20
119.4337991819615
 30
0.0
 10
115.7608772500987
 20
119.4357920074314
 30
0.0
 10
115.6777017988283
 20
119.4396822006551
 30
0.0
 10
115.5599319830724
 20
119.4710052267858
 30
0.0
 10
115.4547386541197
 20
119.5160818945571
 30
0.0
 10
115.3644516479075
 20
119.5724073597591
 30
0.0
 10
115.2923086199996
 20
119.6311442673741
 30
0.0
 10
115.2555486600651
 20
119.6718234348114
 30
0.0
 10
115.2397436909731
 20
119.689313469762
 30
0.0
  0
ARC
  5
1A9
330
1F
100
AcDbEntity
  8
0
  6
Continuous
 62
     7
370
    25
100
AcDbCircle
 10
85.3884198957
 20
114.5747677619
 30
0.0
 40
0.2499997821920546
100
AcDbArc
 50
350.1211197792
 51
359.9900862262
  0
LINE
  5
1AA
330
1F
100
AcDbEntity
  8
0
  6
Continuous
 62
     7
370
    25
100
AcDbLine
 10
90.63841963
 20
117.1823889018
 30
0.0
 11
90.3723654089
 21
117.1772768683
 31
0.0
  0
LINE
  5
1AB
330
1F
100
AcDbEntity
  8
0
  6
Continuous
 62
     7
370
    25
100
AcDbLine
 10
103.8867535802
 20
117.7621027714
 30
0.0
 11
100.63841963
 21
117.7621027714
 31
0.0
  0
LINE
  5
1AC
330
1F
100
AcDbEntity
  8
0
  6
Continuous
 62
     7
370
    25
100
AcDbLine
 10
100.63841963
 20
104.6051027714
 30
0.0
 11
103.8867535802
 21
104.6051027714
 31
0.0
  0
LINE
  5
1AD
330
1F
100
AcDbEntity
  8
0
  6
Continuous
 62
     7
370
    25
100
AcDbLine
 10
90.63841963
 20
117.1859450199
 30
0.0
 11
88.1889298872
 21
117.1836027714
 31
0.0
  0
LINE
  5
1AE
330
1F
100
AcDbEntity
  8
0
  6
Continuous
 62
     7
370
    25
100
AcDbLine
 10
93.0879093728
 20
117.1836027714
 30
0.0
 11
90.63841963
 21
117.1859450199
 31
0.0
  0
SPLINE
  5
1AF
330
1F
100
AcDbEntity
  8
0
  6
Continuous
 62
     7
370
    25
100
AcDbSpline
210
0.0
220
0.0
230
1.0
 70
     8
 71
     3
 72
     9
 73
     5
 74
     0
 42
0.00000001
 43
0.00000001
 40
0.0
 40
0.0
 40
0.0
 40
0.0
 40
0.4371421487347336
 40
1.0
 40
1.0
 40
1.0
 40
1.0
 10
89.59019370041898
 20
105.1833540283971
 30
0.0
 10
89.74265351036415
 20
105.1828823115347
 30
0.0
 10
90.0914183466684
 20
105.181803218924
 30
0.0
 10
90.44141900916586
 20
105.1814559729243
 30
0.0
 10
90.6384196300006
 20
105.1812605227871
 30
0.0
  0
SPLINE
  5
1B0
330
1F
100
AcDbEntity
  8
0
  6
Continuous
 62
     7
370
    25
100
AcDbSpline
210
0.0
220
0.0
230
1.0
 70
     8
 71
     3
 72
    11
 73
     7
 74
     0
 42
0.00000001
 43
0.00000001
 40
0.0
 40
0.0
 40
0.0
 40
0.0
 40
0.3123770736456178
 40
0.6230895678888003
 40
0.8942490026704648
 40
1.0
 40
1.0
 40
1.0
 40
1.0
 10
90.6384196300006
 20
105.1812605227871
 30
0.0
 10
90.75340572447396
 20
105.1811804058234
 30
0.0
 10
90.98276518124356
 20
105.1810205988194
 30
0.0
 10
91.3119397282085
 20
105.1824598932945
 30
0.0
 10
91.56337477598908
 20
105.1835012476042
 30
0.0
 10
91.70162550708005
 20
105.1835168489529
 30
0.0
 10
91.74041496857761
 20
105.1835212262745
 30
0.0
  0
ARC
  5
1B1
330
1F
100
AcDbEntity
  8
0
  6
Continuous
 62
     7
370
    25
100
AcDbCircle
 10
100.13841963
 20
117.6836027714
 30
0.0
 40
0.5
100
AcDbArc
 50
270.0
 51
0.0
  0
ARC
  5
1B2
330
1F
100
AcDbEntity
  8
0
  6
Continuous
 62
     7
370
    25
100
AcDbCircle
 10
100.13841963
 20
104.6836027714
 30
0.0
 40
0.5
100
AcDbArc
 50
0.0
 51
90.0
  0
LINE
  5
1B3
330
1F
100
AcDbEntity
  8
0
  6
Continuous
 62
     7
370
    25
100
AcDbLine
 10
97.38841963
 20
105.1836027714
 30
0.0
 11
100.13841963
 21
105.1836027714
 31
0.0
  0
LINE
  5
1B4
330
1F
100
AcDbEntity
  8
0
  6
Continuous
 62
     7
370
    25
100
AcDbLine
 10
97.63841963
 20
117.1836027714
 30
0.0
 11
97.38841963
 21
117.1836027714
 31
0.0
  0
LINE
  5
1B5
330
1F
100
AcDbEntity
  8
0
  6
Continuous
 62
     7
370
    25
100
AcDbLine
 10
100.13841963
 20
117.1836027714
 30
0.0
 11
98.6384196275
 21
117.1836027714
 31
0.0
  0
SPLINE
  5
1B6
330
1F
100
AcDbEntity
  8
0
  6
Continuous
 62
     7
370
    25
100
AcDbSpline
210
0.0
220
0.0
230
1.0
 70
     8
 71
     3
 72
    11
 73
     7
 74
     0
 42
0.00000001
 43
0.00000001
 40
0.0
 40
0.0
 40
0.0
 40
0.0
 40
0.2499998769905349
 40
0.4999998431693274
 40
0.7499998937651308
 40
0.9999999999999999
 40
0.9999999999999999
 40
0.9999999999999999
 40
0.9999999999999999
 10
97.8884196307966
 20
117.4836027713244
 30
0.0
 10
97.8556603728622
 20
117.4798448764634
 30
0.0
 10
97.79014184530648
 20
117.4723290854008
 30
0.0
 10
97.70750569636567
 20
117.4145167682203
 30
0.0
 10
97.64969354428096
 20
117.3318805211294
 30
0.0
 10
97.64217789982706
 20
117.2663619918571
 30
0.0
 10
97.63842007718195
 20
117.2336027235756
 30
0.0
  0
SPLINE
  5
1B7
330
1F
100
AcDbEntity
  8
0
  6
Continuous
 62
     7
370
    25
100
AcDbSpline
210
0.0
220
0.0
230
1.0
 70
     8
 71
     3
 72
    11
 73
     7
 74
     0
 42
0.00000001
 43
0.00000001
 40
0.0
 40
0.0
 40
0.0
 40
0.0
 40
0.2500000011830022
 40
0.5000000017809959
 40
0.750000001404757
 40
1.0
 40
1.0
 40
1.0
 40
1.0
 10
98.63841963211186
 20
117.2336027712781
 30
0.0
 10
98.63466173859948
 20
117.2663620322385
 30
0.0
 10
98.62714595158347
 20
117.3318805540828
 30
0.0
 10
98.56933364695062
 20
117.4145167883247
 30
0.0
 10
98.48669741140628
 20
117.4723290917025
 30
0.0
 10
98.42117888898103
 20
117.4798448781477
 30
0.0
 10
98.38841962783579
 20
117.4836027713625
 30
0.0
  0
LINE
  5
1B8
330
1F
100
AcDbEntity
  8
0
  6
Continuous
 62
     7
370
    25
100
AcDbLine
 10
97.63841963
 20
117.2339028418
 30
0.0
 11
97.63841963
 21
117.1836027714
 31
0.0
  0
LINE
  5
1B9
330
1F
100
AcDbEntity
  8
0
  6
Continuous
 62
     7
370
    25
100
AcDbLine
 10
98.6384196326
 20
117.1836027711
 30
0.0
 11
98.6384196326
 21
117.2339028416
 31
0.0
  0
LINE
  5
1BA
330
1F
100
AcDbEntity
  8
0
  6
Continuous
 62
     7
370
    25
100
AcDbLine
 10
98.4037305992
 20
117.4836027714
 30
0.0
 11
97.873108662
 21
117.4836027714
 31
0.0
  0
SPLINE
  5
1BB
330
1F
100
AcDbEntity
  8
0
  6
Continuous
 62
     7
370
    25
100
AcDbSpline
210
0.0
220
0.0
230
1.0
 70
    24
 71
     3
 72
    12
 73
     8
 74
     0
 42
0.00000001
 43
0.00000001
 40
0.0
 40
0.0
 40
0.0
 40
0.0
 40
0.2421084642511751
 40
0.43054960499955
 40
0.6190105990587457
 40
0.809495789480611
 40
1.0
 40
1.0
 40
1.0
 40
1.0
 10
104.0347089967713
 20
102.6836027713626
 30
0.0
 10
104.04255606707
 20
102.6836027713626
 30
0.0
 10
104.0565107754604
 20
102.6836027713626
 30
0.0
 10
104.1762151760917
 20
102.6836027713627
 30
0.0
 10
104.3331372146991
 20
102.6836027713627
 30
0.0
 10
104.5368720438242
 20
102.6836027713627
 30
0.0
 10
104.7058082206887
 20
102.6836027713627
 30
0.0
 10
104.7902805260133
 20
102.6836027713627
 30
0.0
  0
SPLINE
  5
1BC
330
1F
100
AcDbEntity
  8
0
  6
Continuous
 62
     7
370
    25
100
AcDbSpline
210
0.0
220
0.0
230
1.0
 70
    24
 71
     3
 72
    12
 73
     8
 74
     0
 42
0.00000001
 43
0.00000001
 40
0.0
 40
0.0
 40
0.0
 40
0.0
 40
0.1885939266358334
 40
0.3771696167602116
 40
0.5675396936743551
 40
0.757889076404929
 40
1.0
 40
1.0
 40
1.0
 40
1.0
 10
104.7902805260133
 20
119.6836027713626
 30
0.0
 10
104.7066216816092
 20
119.6836027713626
 30
0.0
 10
104.5393120823801
 20
119.6836027713626
 30
0.0
 10
104.3356238811046
 20
119.6836027713626
 30
0.0
 10
104.177329949649
 20
119.6836027713626
 30
0.0
 10
104.0568680968432
 20
119.6836027713626
 30
0.0
 10
104.0418023082024
 20
119.6836027713626
 30
0.0
 10
104.0333677953717
 20
119.6836027713626
 30
0.0
  0
SPLINE
  5
1BD
330
1F
100
AcDbEntity
  8
0
  6
Continuous
 62
     7
370
    25
100
AcDbSpline
210
0.0
220
0.0
230
1.0
 70
     8
 71
     3
 72
    16
 73
    12
 74
     0
 42
0.00000001
 43
0.00000001
 40
0.0
 40
0.0
 40
0.0
 40
0.0
 40
0.1322988555735028
 40
0.2645603055581354
 40
0.3546976504550873
 40
0.4449040512480978
 40
0.5350245245138254
 40
0.6502098333825369
 40
0.7654131100753919
 40
0.8826952156317988
 40
1.0
 40
1.0
 40
1.0
 40
1.0
 10
104.7902805260133
 20
111.1836027713626
 30
0.0
 10
104.6746959271521
 20
111.550828159367
 30
0.0
 10
104.443559409304
 20
112.2851751077061
 30
0.0
 10
104.2231342577208
 20
113.288617935142
 30
0.0
 10
104.0933307268063
 20
114.1810490266163
 30
0.0
 10
104.0328414322118
 20
114.9576840737382
 30
0.0
 10
104.0252441918593
 20
115.8081225031236
 30
0.0
 10
104.0926508108005
 20
116.7291260627536
 30
0.0
 10
104.250043760773
 20
117.7204661281728
 30
0.0
 10
104.4809505448929
 20
118.7073514198479
 30
0.0
 10
104.6871638870452
 20
119.3581646816188
 30
0.0
 10
104.7902805260133
 20
119.6836027713626
 30
0.0
  0
SPLINE
  5
1BE
330
1F
100
AcDbEntity
  8
0
  6
Continuous
 62
     7
370
    25
100
AcDbSpline
210
0.0
220
0.0
230
1.0
 70
     8
 71
     3
 72
    16
 73
    12
 74
     0
 42
0.00000001
 43
0.00000001
 40
0.0
 40
0.0
 40
0.0
 40
0.0
 40
0.1322988555735044
 40
0.2645603055581388
 40
0.3546976504550921
 40
0.4449040512481036
 40
0.5350245245138324
 40
0.6502098333825423
 40
0.7654131100753958
 40
0.8826952156318006
 40
1.0
 40
1.0
 40
1.0
 40
1.0
 10
104.7902805260133
 20
102.6836027713627
 30
0.0
 10
104.6746959271521
 20
103.0508281593671
 30
0.0
 10
104.443559409304
 20
103.7851751077061
 30
0.0
 10
104.2231342577208
 20
104.788617935142
 30
0.0
 10
104.0933307268064
 20
105.6810490266164
 30
0.0
 10
104.0328414322118
 20
106.4576840737382
 30
0.0
 10
104.0252441918594
 20
107.3081225031237
 30
0.0
 10
104.0926508108005
 20
108.2291260627536
 30
0.0
 10
104.250043760773
 20
109.2204661281728
 30
0.0
 10
104.4809505448929
 20
110.2073514198479
 30
0.0
 10
104.6871638870452
 20
110.8581646816188
 30
0.0
 10
104.7902805260133
 20
111.1836027713626
 30
0.0
  0
LINE
  5
1BF
330
1F
100
AcDbEntity
  8
0
  6
Continuous
 62
     7
370
    25
100
AcDbLine
 10
103.8867535802
 20
102.9336027714
 30
0.0
 11
103.8867535802
 21
119.4336027714
 31
0.0
  0
SPLINE
  5
1C0
330
1F
100
AcDbEntity
  8
0
  6
Continuous
 62
     7
370
    25
100
AcDbSpline
210
0.0
220
0.0
230
1.0
 70
     8
 71
     3
 72
    10
 73
     6
 74
     0
 42
0.00000001
 43
0.00000001
 40
0.0
 40
0.0
 40
0.0
 40
0.0
 40
0.3089808900029887
 40
0.6190948628358313
 40
1.0
 40
1.0
 40
1.0
 40
1.0
 10
115.1702472292149
 20
116.7006737046572
 30
0.0
 10
115.1943942357516
 20
116.4400901899409
 30
0.0
 10
115.2427767997982
 20
115.9179675586706
 30
0.0
 10
115.2502318925149
 20
115.07097524795
 30
0.0
 10
115.1986695447153
 20
114.4879231509437
 30
0.0
 10
115.1702472292149
 20
114.1665318380681
 30
0.0
  0
SPLINE
  5
1C1
330
1F
100
AcDbEntity
  8
0
  6
Continuous
 62
     7
370
    25
100
AcDbSpline
210
0.0
220
0.0
230
1.0
 70
     8
 71
     3
 72
    11
 73
     7
 74
     0
 42
0.00000001
 43
0.00000001
 40
0.0
 40
0.0
 40
0.0
 40
0.0
 40
0.2488617730236806
 40
0.4977454583558505
 40
0.7488627517928869
 40
1.0
 40
1.0
 40
1.0
 40
1.0
 10
115.1702472292149
 20
114.1665318380681
 30
0.0
 10
115.1370931739986
 20
113.9154496301972
 30
0.0
 10
115.0707821443474
 20
113.4132631066373
 30
0.0
 10
114.9127401382625
 20
112.6649485902158
 30
0.0
 10
114.7198879588158
 20
111.9206204173371
 30
0.0
 10
114.5621158319273
 20
111.4292818270458
 30
0.0
 10
114.4832266343088
 20
111.1836027713626
 30
0.0
  0
LINE
  5
1C2
330
1F
100
AcDbEntity
  8
0
  6
Continuous
 62
     7
370
    25
100
AcDbLine
 10
104.790280526
 20
111.1836027714
 30
0.0
 11
114.4832266343
 21
111.1836027714
 31
0.0
  0
LINE
  5
1C3
330
1F
100
AcDbEntity
  8
0
  6
Continuous
 62
     7
370
    25
100
AcDbLine
 10
104.790280526
 20
119.6836027714
 30
0.0
 11
114.4832266343
 21
119.6836027714
 31
0.0
  0
SPLINE
  5
1C4
330
1F
100
AcDbEntity
  8
0
  6
Continuous
 62
     7
370
    25
100
AcDbSpline
210
0.0
220
0.0
230
1.0
 70
     8
 71
     3
 72
    11
 73
     7
 74
     0
 42
0.00000001
 43
0.00000001
 40
0.0
 40
0.0
 40
0.0
 40
0.0
 40
0.2490252138763567
 40
0.4980311639765299
 40
0.7490269204800201
 40
1.0
 40
1.0
 40
1.0
 40
1.0
 10
114.4832266343088
 20
119.6836027713626
 30
0.0
 10
114.5614755071342
 20
119.4399960076007
 30
0.0
 10
114.7179671997082
 20
118.9528013246994
 30
0.0
 10
114.9107500880746
 20
118.2106657799036
 30
0.0
 10
115.0698159733094
 20
117.46032401843
 30
0.0
 10
115.1367711521706
 20
116.9538828495728
 30
0.0
 10
115.1702472292149
 20
116.7006737046572
 30
0.0
  0
LINE
  5
1C5
330
1F
100
AcDbEntity
  8
0
  6
Continuous
 62
     7
370
    25
100
AcDbLine
 10
115.1702472292
 20
108.2006737047
 30
0.0
 11
115.1702472292
 21
114.1665318381
 31
0.0
  0
SPLINE
  5
1C6
330
1F
100
AcDbEntity
  8
0
  6
Continuous
 62
     7
370
    25
100
AcDbSpline
210
0.0
220
0.0
230
1.0
 70
     8
 71
     3
 72
    11
 73
     7
 74
     0
 42
0.00000001
 43
0.00000001
 40
0.0
 40
0.0
 40
0.0
 40
0.0
 40
0.2490252138763565
 40
0.4980311639765297
 40
0.7490269204800202
 40
1.0
 40
1.0
 40
1.0
 40
1.0
 10
114.4832266343088
 20
111.1836027713626
 30
0.0
 10
114.5614755071342
 20
110.9399960076007
 30
0.0
 10
114.7179671997082
 20
110.4528013246993
 30
0.0
 10
114.9107500880746
 20
109.7106657799035
 30
0.0
 10
115.0698159733094
 20
108.9603240184299
 30
0.0
 10
115.1367711521706
 20
108.4538828495727
 30
0.0
 10
115.1702472292149
 20
108.200673704657
 30
0.0
  0
SPLINE
  5
1C7
330
1F
100
AcDbEntity
  8
0
  6
Continuous
 62
     7
370
    25
100
AcDbSpline
210
0.0
220
0.0
230
1.0
 70
     8
 71
     3
 72
    10
 73
     6
 74
     0
 42
0.00000001
 43
0.00000001
 40
0.0
 40
0.0
 40
0.0
 40
0.0
 40
0.3089808900030073
 40
0.6190948628358686
 40
1.0
 40
1.0
 40
1.0
 40
1.0
 10
115.1702472292149
 20
108.200673704657
 30
0.0
 10
115.1943942357516
 20
107.9400901899407
 30
0.0
 10
115.2427767997982
 20
107.4179675586705
 30
0.0
 10
115.2502318925148
 20
106.57097524795
 30
0.0
 10
115.1986695447153
 20
105.9879231509438
 30
0.0
 10
115.1702472292149
 20
105.6665318380682
 30
0.0
  0
SPLINE
  5
1C8
330
1F
100
AcDbEntity
  8
0
  6
Continuous
 62
     7
370
    25
100
AcDbSpline
210
0.0
220
0.0
230
1.0
 70
     8
 71
     3
 72
    11
 73
     7
 74
     0
 42
0.00000001
 43
0.00000001
 40
0.0
 40
0.0
 40
0.0
 40
0.0
 40
0.2488617730236801
 40
0.4977454583558502
 40
0.748862751792887
 40
0.9999999999999999
 40
0.9999999999999999
 40
0.9999999999999999
 40
0.9999999999999999
 10
115.1702472292149
 20
105.6665318380682
 30
0.0
 10
115.1370931739986
 20
105.4154496301973
 30
0.0
 10
115.0707821443475
 20
104.9132631066375
 30
0.0
 10
114.9127401382625
 20
104.1649485902159
 30
0.0
 10
114.7198879588158
 20
103.4206204173372
 30
0.0
 10
114.5621158319273
 20
102.9292818270459
 30
0.0
 10
114.4832266343088
 20
102.6836027713627
 30
0.0
  0
LINE
  5
1C9
330
1F
100
AcDbEntity
  8
0
  6
Continuous
 62
     7
370
    25
100
AcDbLine
 10
104.790280526
 20
102.6836027714
 30
0.0
 11
114.4832266343
 21
102.6836027714
 31
0.0
  0
ARC
  5
1CA
330
1F
100
AcDbEntity
  8
0
  6
Continuous
 62
     7
370
    25
100
AcDbCircle
 10
115.7574704177
 20
115.4161413603
 30
0.0
 40
1.380708162956233
100
AcDbArc
 50
244.8299789717
 51
272.5859934179
  0
LINE
  5
1CB
330
1F
100
AcDbEntity
  8
0
  6
Continuous
 62
     7
370
    25
100
AcDbLine
 10
115.8197662821
 20
114.03683927
 30
0.0
 11
115.8197662821
 21
108.3303662728
 31
0.0
  0
ARC
  5
1CC
330
1F
100
AcDbEntity
  8
0
  6
Continuous
 62
     7
370
    25
100
AcDbCircle
 10
115.7574704177
 20
106.9510641824
 30
0.0
 40
1.380708162956477
100
AcDbArc
 50
87.4140065821
 51
115.1700210283
  0
LINE
  5
1CD
330
1F
100
AcDbEntity
  8
0
  6
Continuous
 62
     7
370
    25
100
AcDbLine
 10
116.8867535802
 20
119.2336027714
 30
0.0
 11
116.8867535802
 21
103.1336027714
 31
0.0
  0
LINE
  5
1CE
330
1F
100
AcDbEntity
  8
0
  6
Continuous
 62
     7
370
    25
100
AcDbLine
 10
116.6867535802
 20
102.9336027714
 30
0.0
 11
116.6867535802
 21
119.4336027714
 31
0.0
  0
LINE
  5
1CF
330
1F
100
AcDbEntity
  8
0
  6
Continuous
 62
     7
370
    25
100
AcDbLine
 10
115.8197662821
 20
105.9064044873
 30
0.0
 11
115.8197662821
 21
103.0531679888
 31
0.0
  0
SPLINE
  5
1D0
330
1F
100
AcDbEntity
  8
0
  6
Continuous
 62
     7
370
    25
100
AcDbSpline
210
0.0
220
0.0
230
1.0
 70
     8
 71
     3
 72
    11
 73
     7
 74
     0
 42
0.00000001
 43
0.00000001
 40
0.0
 40
0.0
 40
0.0
 40
0.0
 40
0.2858113857233211
 40
0.5527245545214224
 40
0.8220275582231135
 40
1.0
 40
1.0
 40
1.0
 40
1.0
 10
115.8197662820533
 20
108.3303662727747
 30
0.0
 10
115.8158259806307
 20
108.081496746064
 30
0.0
 10
115.8082059155905
 20
107.6002132662719
 30
0.0
 10
115.7967448259396
 20
106.9236386385428
 30
0.0
 10
115.8141822151812
 20
106.3636100525265
 30
0.0
 10
115.8181768164405
 20
106.0365448564474
 30
0.0
 10
115.8197662820533
 20
105.9064044873419
 30
0.0
  0
SPLINE
  5
1D1
330
1F
100
AcDbEntity
  8
0
  6
Continuous
 62
     7
370
    25
100
AcDbSpline
210
0.0
220
0.0
230
1.0
 70
     8
 71
     3
 72
    11
 73
     7
 74
     0
 42
0.00000001
 43
0.00000001
 40
0.0
 40
0.0
 40
0.0
 40
0.0
 40
0.2858113857233874
 40
0.5527245545213872
 40
0.822027558222975
 40
1.0
 40
1.0
 40
1.0
 40
1.0
 10
115.8197662820533
 20
116.4608010553835
 30
0.0
 10
115.8158259806307
 20
116.2500494598556
 30
0.0
 10
115.8082059155905
 20
115.8424814357266
 30
0.0
 10
115.7967448259396
 20
115.1822605741974
 30
0.0
 10
115.8141822151812
 20
114.5831768100909
 30
0.0
 10
115.8181768164405
 20
114.192350432859
 30
0.0
 10
115.8197662820533
 20
114.0368392699504
 30
0.0
  0
LINE
  5
1D2
330
1F
100
AcDbEntity
  8
0
  6
Continuous
 62
     7
370
    25
100
AcDbLine
 10
115.8197662821
 20
119.314037554
 30
0.0
 11
115.8197662821
 21
116.4608010554
 31
0.0
  0
ARC
  5
1D3
330
1F
100
AcDbEntity
  8
0
  6
Continuous
 62
     7
370
    25
100
AcDbCircle
 10
115.7779591826
 20
117.3469063989
 30
0.0
 40
0.8870910400316564
100
AcDbArc
 50
226.7595529446
 51
272.7012537053
  0
ARC
  5
1D4
330
1F
100
AcDbEntity
  8
0
  6
Continuous
 62
     7
370
    25
100
AcDbCircle
 10
115.7779591826
 20
105.0202991439
 30
0.0
 40
0.8870910400316461
100
AcDbArc
 50
87.2987462948
 51
133.2404470554
  0
LINE
  5
1D5
330
1F
100
AcDbEntity
  8
0
  6
Continuous
 62
     7
370
    25
100
AcDbLine
 10
115.1702472292
 20
102.6836027714
 30
0.0
 11
115.1702472292
 21
105.6665318381
 31
0.0
  0
ARC
  5
1D6
330
1F
100
AcDbEntity
  8
0
  6
Continuous
 62
     7
370
    25
100
AcDbCircle
 10
115.8177301473
 20
102.3011918732
 30
0.0
 40
0.7519788721912924
100
AcDbArc
 50
89.8448599075
 51
149.433409991
  0
SPLINE
  5
1D7
330
1F
100
AcDbEntity
  8
0
  6
Continuous
 62
     7
370
    25
100
AcDbSpline
210
0.0
220
0.0
230
1.0
 70
    24
 71
     3
 72
    11
 73
     7
 74
     0
 42
0.00000001
 43
0.00000001
 40
0.0
 40
0.0
 40
0.0
 40
0.0
 40
0.2490252138763564
 40
0.4980311639765296
 40
0.7490269204800198
 40
0.9999999999999999
 40
0.9999999999999999
 40
0.9999999999999999
 40
0.9999999999999999
 10
114.4832266343088
 20
102.6836027713627
 30
0.0
 10
114.5614755071342
 20
102.6836027713627
 30
0.0
 10
114.7179671997082
 20
102.6836027713627
 30
0.0
 10
114.9107500880746
 20
102.6836027713627
 30
0.0
 10
115.0698159733094
 20
102.6836027713627
 30
0.0
 10
115.1367711521706
 20
102.6836027713626
 30
0.0
 10
115.1702472292149
 20
102.6836027713626
 30
0.0
  0
SPLINE
  5
1D8
330
1F
100
AcDbEntity
  8
0
  6
Continuous
 62
     7
370
    25
100
AcDbSpline
210
0.0
220
0.0
230
1.0
 70
    24
 71
     3
 72
    11
 73
     7
 74
     0
 42
0.00000001
 43
0.00000001
 40
0.0
 40
0.0
 40
0.0
 40
0.0
 40
0.2488617730236802
 40
0.4977454583558503
 40
0.748862751792887
 40
1.0
 40
1.0
 40
1.0
 40
1.0
 10
115.1702472292149
 20
119.6836027713626
 30
0.0
 10
115.1370931739986
 20
119.6836027713626
 30
0.0
 10
115.0707821443475
 20
119.6836027713626
 30
0.0
 10
114.9127401382625
 20
119.6836027713626
 30
0.0
 10
114.7198879588158
 20
119.6836027713626
 30
0.0
 10
114.5621158319273
 20
119.6836027713626
 30
0.0
 10
114.4832266343088
 20
119.6836027713626
 30
0.0
  0
LINE
  5
1D9
330
1F
100
AcDbEntity
  8
0
  6
Continuous
 62
     7
370
    25
100
AcDbLine
 10
115.1702472292
 20
116.7006737047
 30
0.0
 11
115.1702472292
 21
119.6836027714
 31
0.0
  0
ARC
  5
1DA
330
1F
100
AcDbEntity
  8
0
  6
Continuous
 62
     7
370
    25
100
AcDbCircle
 10
115.8177301473
 20
120.0660136695
 30
0.0
 40
0.7519788721913045
100
AcDbArc
 50
210.566590009
 51
270.1551400925
  0
SPLINE
  5
1DB
330
1F
100
AcDbEntity
  8
0
  6
Continuous
 62
     7
370
    25
100
AcDbSpline
210
0.0
220
0.0
230
1.0
 70
    24
 71
     3
 72
     9
 73
     5
 74
     0
 42
0.00000001
 43
0.00000001
 40
0.0
 40
0.0
 40
0.0
 40
0.0
 40
0.1478129012900556
 40
1.0
 40
1.0
 40
1.0
 40
1.0
 10
115.1702472292149
 20
102.6836027713626
 30
0.0
 10
115.177487659557
 20
102.6836027713626
 30
0.0
 10
115.2264714104941
 20
102.6836027713626
 30
0.0
 10
115.2346494314422
 20
102.6836027713626
 30
0.0
 10
115.2416186353871
 20
102.6836027713626
 30
0.0
  0
SPLINE
  5
1DC
330
1F
100
AcDbEntity
  8
0
  6
Continuous
 62
     7
370
    25
100
AcDbSpline
210
0.0
220
0.0
230
1.0
 70
    24
 71
     3
 72
     9
 73
     5
 74
     0
 42
0.00000001
 43
0.00000001
 40
0.0
 40
0.0
 40
0.0
 40
0.0
 40
0.8304439132119029
 40
1.0
 40
1.0
 40
1.0
 40
1.0
 10
115.2335895596949
 20
119.6836027713626
 30
0.0
 10
115.2276548101852
 20
119.6836027713626
 30
0.0
 10
115.2205083317592
 20
119.6836027713626
 30
0.0
 10
115.1775338193677
 20
119.6836027713626
 30
0.0
 10
115.1702472292149
 20
119.6836027713626
 30
0.0
  0
CIRCLE
  5
1DD
330
1F
100
AcDbEntity
  8
0
  6
Continuous
 62
     7
370
    25
100
AcDbCircle
 10
90.63841963
 20
111.1836027714
 30
0.0
 40
4.782279626857616
  0
CIRCLE
  5
1DE
330
1F
100
AcDbEntity
  8
0
  6
Continuous
 62
     7
370
    25
100
AcDbCircle
 10
90.63841963
 20
111.1836027714
 30
0.0
 40
4.000000000000014
  0
CIRCLE
  5
1DF
330
1F
100
AcDbEntity
  8
0
  6
Continuous
 62
     7
370
    25
100
AcDbCircle
 10
90.63841963
 20
111.1836027714
 30
0.0
 40
2.199999999999989
  0
CIRCLE
  5
1E0
330
1F
100
AcDbEntity
  8
0
  6
Continuous
 62
     7
370
    25
100
AcDbCircle
 10
90.63841963
 20
111.1836027714
 30
0.0
 40
2.0
  0
CIRCLE
  5
1E1
330
1F
100
AcDbEntity
  8
0
  6
Continuous
 62
     7
370
    25
100
AcDbCircle
 10
90.63841963
 20
111.1836027714
 30
0.0
 40
5.068062499999996
  0
CIRCLE
  5
1E2
330
1F
100
AcDbEntity
  8
0
  6
Continuous
 62
     7
370
    25
100
AcDbCircle
 10
90.63841963
 20
111.1836027714
 30
0.0
 40
6.000000000000014
  0
ARC
  5
1E3
330
1F
100
AcDbEntity
  8
0
  6
Continuous
 62
     7
370
    25
100
AcDbCircle
 10
85.38841963
 20
114.5747677629
 30
0.0
 40
0.2500000000000079
100
AcDbArc
 50
327.1401196211
 51
350.1214987084
  0
SPLINE
  5
1E4
330
1F
100
AcDbEntity
  8
0
  6
Continuous
 62
     7
370
    25
100
AcDbSpline
210
0.0
220
0.0
230
1.0
 70
     8
 71
     3
 72
    14
 73
    10
 74
     0
 42
0.00000001
 43
0.00000001
 40
0.0
 40
0.0
 40
0.0
 40
0.0
 40
0.5000000000000001
 40
0.5000000000000001
 40
0.7499999999999998
 40
0.7499999999999998
 40
0.875
 40
0.875
 40
1.0
 40
1.0
 40
1.0
 40
1.0
 10
85.88841963000058
 20
115.2456219736806
 30
0.0
 10
85.83596696818402
 20
115.1229489230527
 30
0.0
 10
85.78732455781356
 20
114.9994828940278
 30
0.0
 10
85.72063328923375
 20
114.8174860365452
 30
0.0
 10
85.69937146359851
 20
114.7570923908341
 30
0.0
 10
85.67043919303238
 20
114.6720816417006
 30
0.0
 10
85.6611600337956
 20
114.6442812926673
 30
0.0
 10
85.64545341675488
 20
114.5965673884074
 30
0.0
 10
85.63841963000058
 20
114.5747677629253
 30
0.0
 10
85.63841963000058
 20
114.5747677629253
 30
0.0
  0
LINE
  5
1E5
330
1F
100
AcDbEntity
  8
0
  6
Continuous
 62
     7
370
    25
100
AcDbLine
 10
86.07841963
 20
115.0831412056
 30
0.0
 11
85.88841963
 21
115.2456219737
 31
0.0
  0
SPLINE
  5
1E6
330
1F
100
AcDbEntity
  8
0
  6
Continuous
 62
     7
370
    25
100
AcDbSpline
210
0.0
220
0.0
230
1.0
 70
     8
 71
     3
 72
    14
 73
    10
 74
     0
 42
0.00000001
 43
0.00000001
 40
0.0
 40
0.0
 40
0.0
 40
0.0
 40
0.4999999999999986
 40
0.4999999999999986
 40
0.7499999999999989
 40
0.7499999999999989
 40
0.8749999999999994
 40
0.8749999999999994
 40
1.0
 40
1.0
 40
1.0
 40
1.0
 10
95.3884196300006
 20
107.1215835690446
 30
0.0
 10
95.44087229181716
 20
107.2442566196725
 30
0.0
 10
95.48951470218762
 20
107.3677226486974
 30
0.0
 10
95.55620597076745
 20
107.54971950618
 30
0.0
 10
95.57746779640267
 20
107.6101131518911
 30
0.0
 10
95.6064000669688
 20
107.6951239010247
 30
0.0
 10
95.61567922620559
 20
107.7229242500579
 30
0.0
 10
95.6313858432463
 20
107.7706381543179
 30
0.0
 10
95.6384196300006
 20
107.7924377798
 30
0.0
 10
95.6384196300006
 20
107.7924377798
 30
0.0
  0
LINE
  5
1E7
330
1F
100
AcDbEntity
  8
0
  6
Continuous
 62
     7
370
    25
100
AcDbLine
 10
95.38841963
 20
107.121583569
 30
0.0
 11
95.19841963
 21
107.2840643371
 31
0.0
  0
ARC
  5
1E8
330
1F
100
AcDbEntity
  8
0
  6
Continuous
 62
     7
370
    25
100
AcDbCircle
 10
95.88841963
 20
107.7924377798
 30
0.0
 40
0.2500000000000079
100
AcDbArc
 50
147.1401196211
 51
180.0
  0
SPLINE
  5
1E9
330
1F
100
AcDbEntity
  8
0
  6
Continuous
 62
     7
370
    25
100
AcDbSpline
210
0.0
220
0.0
230
1.0
 70
     8
 71
     3
 72
    14
 73
    10
 74
     0
 42
0.00000001
 43
0.00000001
 40
0.0
 40
0.0
 40
0.0
 40
0.0
 40
0.1250000000000007
 40
0.1250000000000007
 40
0.2500000000000015
 40
0.2500000000000015
 40
0.5000000000000007
 40
0.5000000000000007
 40
1.0
 40
1.0
 40
1.0
 40
1.0
 10
85.63841963000058
 20
107.7924377798
 30
0.0
 10
85.63841963000058
 20
107.7924377798
 30
0.0
 10
85.64543744731817
 20
107.7706869148406
 30
0.0
 10
85.66115960407419
 20
107.7229253074935
 30
0.0
 10
85.67044232883167
 20
107.6951150181436
 30
0.0
 10
85.69933651243292
 20
107.6102151864105
 30
0.0
 10
85.72062577577798
 20
107.5497435482972
 30
0.0
 10
85.78718535648628
 20
107.3680954572459
 30
0.0
 10
85.83598225023356
 20
107.2442208789575
 30
0.0
 10
85.8884196300006
 20
107.1215835690446
 30
0.0
  0
ARC
  5
1EA
330
1F
100
AcDbEntity
  8
0
  6
Continuous
 62
     7
370
    25
100
AcDbCircle
 10
85.38841963
 20
107.7924377798
 30
0.0
 40
0.2499999999999882
100
AcDbArc
 50
0.0
 51
32.8598803789
  0
LINE
  5
1EB
330
1F
100
AcDbEntity
  8
0
  6
Continuous
 62
     7
370
    25
100
AcDbLine
 10
85.88841963
 20
107.121583569
 30
0.0
 11
86.07841963
 21
107.2840643371
 31
0.0
  0
ARC
  5
1EC
330
1F
100
AcDbEntity
  8
0
  6
Continuous
 62
     7
370
    25
100
AcDbCircle
 10
90.63841963
 20
111.1836027714
 30
0.0
 40
6.250000000000016
100
AcDbArc
 50
113.0739180656
 51
139.4641978887
  0
SPLINE
  5
1ED
330
1F
100
AcDbEntity
  8
0
  6
Continuous
 62
     7
370
    25
100
AcDbSpline
210
0.0
220
0.0
230
1.0
 70
     8
 71
     3
 72
    12
 73
     8
 74
     0
 42
0.00000001
 43
0.00000001
 40
0.0
 40
0.0
 40
0.0
 40
0.0
 40
0.25
 40
0.25
 40
0.5
 40
0.5
 40
1.0
 40
1.0
 40
1.0
 40
1.0
 10
88.27096055088451
 20
116.7763905184682
 30
0.0
 10
88.26702593469439
 20
116.7901609918792
 30
0.0
 10
88.26212840087283
 20
116.8062250117305
 30
0.0
 10
88.25074176710794
 20
116.8396163159258
 30
0.0
 10
88.2442526671646
 20
116.8569436002699
 30
0.0
 10
88.22289942186354
 20
116.9058346074602
 30
0.0
 10
88.20649846587483
 20
116.9336027713626
 30
0.0
 10
88.18892988721741
 20
116.9336027713626
 30
0.0
  0
SPLINE
  5
1EE
330
1F
100
AcDbEntity
  8
0
  6
Continuous
 62
     7
370
    25
100
AcDbSpline
210
0.0
220
0.0
230
1.0
 70
     8
 71
     3
 72
    10
 73
     6
 74
     0
 42
0.00000001
 43
0.00000001
 40
0.0
 40
0.0
 40
0.0
 40
0.0
 40
0.5
 40
0.5
 40
1.0
 40
1.0
 40
1.0
 40
1.0
 10
88.27096055088451
 20
116.7763905184682
 30
0.0
 10
88.27882978326475
 20
116.7488495716462
 30
0.0
 10
88.28309663064968
 20
116.7292364377566
 30
0.0
 10
88.28702546696366
 20
116.7069275644682
 30
0.0
 10
88.28690947692873
 20
116.7036027713626
 30
0.0
 10
88.28690947692873
 20
116.7036027713626
 30
0.0
  0
ARC
  5
1EF
330
1F
100
AcDbEntity
  8
0
  6
Continuous
 62
     7
370
    25
100
AcDbCircle
 10
90.63841963
 20
111.1836027714
 30
0.0
 40
6.250000000000011
100
AcDbArc
 50
36.8698976458
 51
66.9260819344
  0
SPLINE
  5
1F0
330
1F
100
AcDbEntity
  8
0
  6
Continuous
 62
     7
370
    25
100
AcDbSpline
210
0.0
220
0.0
230
1.0
 70
    24
 71
     3
 72
    10
 73
     6
 74
     0
 42
0.00000001
 43
0.00000001
 40
0.0
 40
0.0
 40
0.0
 40
0.0
 40
0.5
 40
0.5
 40
1.0
 40
1.0
 40
1.0
 40
1.0
 10
95.6384196300006
 20
114.9336027713626
 30
0.0
 10
95.6384196300006
 20
114.869252712657
 30
0.0
 10
95.6384196300006
 20
114.8063668874525
 30
0.0
 10
95.63841963000058
 20
114.6837895999649
 30
0.0
 10
95.6384196300006
 20
114.624259414195
 30
0.0
 10
95.6384196300006
 20
114.5747677629253
 30
0.0
  0
SPLINE
  5
1F1
330
1F
100
AcDbEntity
  8
0
  6
Continuous
 62
     7
370
    25
100
AcDbSpline
210
0.0
220
0.0
230
1.0
 70
     8
 71
     3
 72
     8
 73
     4
 74
     0
 42
0.00000001
 43
0.00000001
 40
0.0
 40
0.0
 40
0.0
 40
0.0
 40
1.0
 40
1.0
 40
1.0
 40
1.0
 10
95.6384196300006
 20
114.5747677629253
 30
0.0
 10
95.6384196300006
 20
114.52385646185
 30
0.0
 10
95.65334399498701
 20
114.4779417703842
 30
0.0
 10
95.67841963000059
 20
114.4391211632628
 30
0.0
  0
SPLINE
  5
1F2
330
1F
100
AcDbEntity
  8
0
  6
Continuous
 62
     7
370
    25
100
AcDbSpline
210
0.0
220
0.0
230
1.0
 70
     8
 71
     3
 72
    10
 73
     6
 74
     0
 42
0.00000001
 43
0.00000001
 40
0.0
 40
0.0
 40
0.0
 40
0.0
 40
0.5
 40
0.5
 40
1.0
 40
1.0
 40
1.0
 40
1.0
 10
93.00587870911667
 20
116.7763905184682
 30
0.0
 10
92.99800947673643
 20
116.7488495716462
 30
0.0
 10
92.9937426293515
 20
116.7292364377566
 30
0.0
 10
92.98981379303753
 20
116.7069275644682
 30
0.0
 10
92.98992978307245
 20
116.7036027713626
 30
0.0
 10
92.98992978307245
 20
116.7036027713626
 30
0.0
  0
SPLINE
  5
1F3
330
1F
100
AcDbEntity
  8
0
  6
Continuous
 62
     7
370
    25
100
AcDbSpline
210
0.0
220
0.0
230
1.0
 70
     8
 71
     3
 72
    12
 73
     8
 74
     0
 42
0.00000001
 43
0.00000001
 40
0.0
 40
0.0
 40
0.0
 40
0.0
 40
0.25
 40
0.25
 40
0.5
 40
0.5
 40
1.0
 40
1.0
 40
1.0
 40
1.0
 10
93.00587870911667
 20
116.7763905184682
 30
0.0
 10
93.0098133253068
 20
116.7901609918792
 30
0.0
 10
93.01471085912836
 20
116.8062250117305
 30
0.0
 10
93.02609749289324
 20
116.8396163159258
 30
0.0
 10
93.03258659283657
 20
116.8569436002699
 30
0.0
 10
93.05393983813764
 20
116.9058346074602
 30
0.0
 10
93.07034079412635
 20
116.9336027713626
 30
0.0
 10
93.08790937278377
 20
116.9336027713626
 30
0.0
  0
ARC
  5
1F4
330
1F
100
AcDbEntity
  8
0
  6
Continuous
 62
     7
370
    25
100
AcDbCircle
 10
90.63841963
 20
111.1836027714
 30
0.0
 40
6.250000000000003
100
AcDbArc
 50
293.0739180656
 51
319.4641978887
  0
SPLINE
  5
1F5
330
1F
100
AcDbEntity
  8
0
  6
Continuous
 62
     7
370
    25
100
AcDbSpline
210
0.0
220
0.0
230
1.0
 70
     8
 71
     3
 72
    12
 73
     8
 74
     0
 42
0.00000001
 43
0.00000001
 40
0.0
 40
0.0
 40
0.0
 40
0.0
 40
0.25
 40
0.25
 40
0.5
 40
0.5
 40
1.0
 40
1.0
 40
1.0
 40
1.0
 10
93.00587870911667
 20
105.590815024257
 30
0.0
 10
93.0098133253068
 20
105.577044550846
 30
0.0
 10
93.01471085912834
 20
105.5609805309948
 30
0.0
 10
93.02609749289324
 20
105.5275892267994
 30
0.0
 10
93.03258659283657
 20
105.5102619424553
 30
0.0
 10
93.05393983813764
 20
105.461370935265
 30
0.0
 10
93.07034079412635
 20
105.4336027713626
 30
0.0
 10
93.08790937278377
 20
105.4336027713626
 30
0.0
  0
SPLINE
  5
1F6
330
1F
100
AcDbEntity
  8
0
  6
Continuous
 62
     7
370
    25
100
AcDbSpline
210
0.0
220
0.0
230
1.0
 70
     8
 71
     3
 72
    10
 73
     6
 74
     0
 42
0.00000001
 43
0.00000001
 40
0.0
 40
0.0
 40
0.0
 40
0.0
 40
0.5
 40
0.5
 40
1.0
 40
1.0
 40
1.0
 40
1.0
 10
93.00587870911667
 20
105.590815024257
 30
0.0
 10
92.99800947673643
 20
105.618355971079
 30
0.0
 10
92.99374262935149
 20
105.6379691049687
 30
0.0
 10
92.98981379303753
 20
105.660277978257
 30
0.0
 10
92.98992978307244
 20
105.6636027713626
 30
0.0
 10
92.98992978307244
 20
105.6636027713626
 30
0.0
  0
SPLINE
  5
1F7
330
1F
100
AcDbEntity
  8
0
  6
Continuous
 62
     7
370
    25
100
AcDbSpline
210
0.0
220
0.0
230
1.0
 70
     8
 71
     3
 72
    14
 73
    10
 74
     0
 42
0.00000001
 43
0.00000001
 40
0.0
 40
0.0
 40
0.0
 40
0.0
 40
0.0526822267945598
 40
0.1287456339724992
 40
0.2353187193853958
 40
0.3749156516620482
 40
0.5485969096886099
 40
0.7568720674016369
 40
0.9999999999999999
 40
0.9999999999999999
 40
0.9999999999999999
 40
0.9999999999999999
 10
88.18892988721741
 20
105.4336027713626
 30
0.0
 10
88.19241057186105
 20
105.4345355082286
 30
0.0
 10
88.200916722386
 20
105.4368149448898
 30
0.0
 10
88.21146638129507
 20
105.4495085085629
 30
0.0
 10
88.22310993854869
 20
105.4672708087489
 30
0.0
 10
88.235385532372
 20
105.492098901619
 30
0.0
 10
88.24813289734715
 20
105.522389406581
 30
0.0
 10
88.26087769134286
 20
105.557352584728
 30
0.0
 10
88.26743093922688
 20
105.5791011432726
 30
0.0
 10
88.2709605508845
 20
105.590815024257
 30
0.0
  0
ARC
  5
1F8
330
1F
100
AcDbEntity
  8
0
  6
Continuous
 62
     7
370
    25
100
AcDbCircle
 10
90.63841963
 20
111.1836027714
 30
0.0
 40
6.250000000000003
100
AcDbArc
 50
220.5358021113
 51
246.9260819344
  0
SPLINE
  5
1F9
330
1F
100
AcDbEntity
  8
0
  6
Continuous
 62
     7
370
    25
100
AcDbSpline
210
0.0
220
0.0
230
1.0
 70
     8
 71
     3
 72
     8
 73
     4
 74
     0
 42
0.00000001
 43
0.00000001
 40
0.0
 40
0.0
 40
0.0
 40
0.0
 40
1.0
 40
1.0
 40
1.0
 40
1.0
 10
88.2709605508845
 20
105.590815024257
 30
0.0
 10
88.28475057222758
 20
105.6352384106502
 30
0.0
 10
88.29110676356483
 20
105.661814734743
 30
0.0
 10
88.28690947692874
 20
105.6636027713626
 30
0.0
  0
SPLINE
  5
1FA
330
1F
100
AcDbEntity
  8
0
  6
Continuous
 62
     7
370
    25
100
AcDbSpline
210
0.0
220
0.0
230
1.0
 70
    24
 71
     3
 72
    10
 73
     6
 74
     0
 42
0.00000001
 43
0.00000001
 40
0.0
 40
0.0
 40
0.0
 40
0.0
 40
0.5
 40
0.5
 40
1.0
 40
1.0
 40
1.0
 40
1.0
 10
90.6384196300006
 20
117.1823095540341
 30
0.0
 10
90.6384196300006
 20
117.1823501834627
 30
0.0
 10
90.6384196300006
 20
117.1827953883109
 30
0.0
 10
90.6384196300006
 20
117.1792697873597
 30
0.0
 10
90.6384196300006
 20
117.1836027713626
 30
0.0
 10
90.6384196300006
 20
117.1836027713626
 30
0.0
  0
SPLINE
  5
1FB
330
1F
100
AcDbEntity
  8
0
  6
Continuous
 62
     7
370
    25
100
AcDbSpline
210
0.0
220
0.0
230
1.0
 70
     8
 71
     3
 72
    14
 73
    10
 74
     0
 42
0.00000001
 43
0.00000001
 40
0.0
 40
0.0
 40
0.0
 40
0.0
 40
0.0526911985323123
 40
0.1287709292961781
 40
0.2353504787875265
 40
0.3749388871475067
 40
0.5486017749799812
 40
0.7568624278203103
 40
1.0
 40
1.0
 40
1.0
 40
1.0
 10
88.18892988721741
 20
116.9336027713626
 30
0.0
 10
88.19176850025042
 20
116.9358237292785
 30
0.0
 10
88.19870572787767
 20
116.9412514823514
 30
0.0
 10
88.20348030173052
 20
116.9570506767459
 30
0.0
 10
88.20730658657271
 20
116.9779477733698
 30
0.0
 10
88.20897306126979
 20
117.0055971835899
 30
0.0
 10
88.20893610755648
 20
117.0384639005474
 30
0.0
 10
88.20704067280488
 20
117.0756343570761
 30
0.0
 10
88.20453539829218
 20
117.0982161748277
 30
0.0
 10
88.20318597702975
 20
117.11037946666
 30
0.0
  0
SPLINE
  5
1FC
330
1F
100
AcDbEntity
  8
0
  6
Continuous
 62
     7
370
    25
100
AcDbSpline
210
0.0
220
0.0
230
1.0
 70
     8
 71
     3
 72
    14
 73
    10
 74
     0
 42
0.00000001
 43
0.00000001
 40
0.0
 40
0.0
 40
0.0
 40
0.0
 40
0.2431375721796948
 40
0.4513982250200251
 40
0.6250611128525024
 40
0.7646495212124829
 40
0.8712290707038272
 40
0.9473088014676903
 40
1.0
 40
1.0
 40
1.0
 40
1.0
 10
93.07365328297143
 20
117.11037946666
 30
0.0
 10
93.072303861709
 20
117.0982161748277
 30
0.0
 10
93.0697985871963
 20
117.0756343570761
 30
0.0
 10
93.0679031524447
 20
117.0384639005474
 30
0.0
 10
93.0678661987314
 20
117.0055971835899
 30
0.0
 10
93.06953267342847
 20
116.9779477733698
 30
0.0
 10
93.07335895827066
 20
116.9570506767459
 30
0.0
 10
93.07813353212352
 20
116.9412514823514
 30
0.0
 10
93.08507075975076
 20
116.9358237292785
 30
0.0
 10
93.08790937278377
 20
116.9336027713626
 30
0.0
  0
SPLINE
  5
1FD
330
1F
100
AcDbEntity
  8
0
  6
Continuous
 62
     7
370
    25
100
AcDbSpline
210
0.0
220
0.0
230
1.0
 70
     8
 71
     3
 72
    12
 73
     8
 74
     0
 42
0.00000001
 43
0.00000001
 40
0.0
 40
0.0
 40
0.0
 40
0.0
 40
0.25
 40
0.25
 40
0.5
 40
0.5
 40
1.0
 40
1.0
 40
1.0
 40
1.0
 10
93.07365328297143
 20
105.2568260760652
 30
0.0
 10
93.0718578357714
 20
105.2710402214939
 30
0.0
 10
93.0698305759646
 20
105.2883350904534
 30
0.0
 10
93.06677894555432
 20
105.3246591573301
 30
0.0
 10
93.06575457495083
 20
105.3436883552472
 30
0.0
 10
93.06638556857038
 20
105.3967367652793
 30
0.0
 10
93.07174503822353
 20
105.4267167936749
 30
0.0
 10
93.08790937278377
 20
105.4336027713626
 30
0.0
  0
SPLINE
  5
1FE
330
1F
100
AcDbEntity
  8
0
  6
Continuous
 62
     7
370
    25
100
AcDbSpline
210
0.0
220
0.0
230
1.0
 70
     8
 71
     3
 72
    12
 73
     8
 74
     0
 42
0.00000001
 43
0.00000001
 40
0.0
 40
0.0
 40
0.0
 40
0.0
 40
0.25
 40
0.25
 40
0.5
 40
0.5
 40
1.0
 40
1.0
 40
1.0
 40
1.0
 10
88.20318597702975
 20
105.2568260760652
 30
0.0
 10
88.20498142422979
 20
105.2710402214939
 30
0.0
 10
88.20700868403658
 20
105.2883350904534
 30
0.0
 10
88.21006031444686
 20
105.3246591573301
 30
0.0
 10
88.21108468505035
 20
105.3436883552472
 30
0.0
 10
88.2104536914308
 20
105.3967367652793
 30
0.0
 10
88.20509422177766
 20
105.4267167936749
 30
0.0
 10
88.18892988721741
 20
105.4336027713626
 30
0.0
  0
LINE
  5
1FF
330
1F
100
AcDbEntity
  8
0
  6
Continuous
 62
     7
370
    25
100
AcDbLine
 10
100.63841963
 20
117.7621027714
 30
0.0
 11
100.63841963
 21
104.6051027714
 31
0.0
  0
LINE
  5
200
330
1F
100
AcDbEntity
  8
0
  6
Continuous
 62
     7
370
    25
100
AcDbLine
 10
88.1889298872
 20
116.9336027714
 30
0.0
 11
85.88841963
 21
116.9336027714
 31
0.0
  0
LINE
  5
201
330
1F
100
AcDbEntity
  8
0
  6
Continuous
 62
     7
370
    25
100
AcDbLine
 10
85.88841963
 20
116.9336027714
 30
0.0
 11
85.88841963
 21
117.1836027714
 31
0.0
  0
LINE
  5
202
330
1F
100
AcDbEntity
  8
0
  6
Continuous
 62
     7
370
    25
100
AcDbLine
 10
85.88841963
 20
117.1836027714
 30
0.0
 11
88.1889298872
 21
117.1836027714
 31
0.0
  0
SPLINE
  5
203
330
1F
100
AcDbEntity
  8
0
  6
Continuous
 62
     7
370
    25
100
AcDbSpline
210
0.0
220
0.0
230
1.0
 70
     8
 71
     3
 72
     8
 73
     4
 74
     0
 42
0.00000001
 43
0.00000001
 40
0.0
 40
0.0
 40
0.0
 40
0.0
 40
1.0
 40
1.0
 40
1.0
 40
1.0
 10
88.20318597702975
 20
117.11037946666
 30
0.0
 10
88.1984339470923
 20
117.1566594972654
 30
0.0
 10
88.19368191715485
 20
117.1836027713626
 30
0.0
 10
88.18892988721741
 20
117.1836027713626
 30
0.0
  0
SPLINE
  5
204
330
1F
100
AcDbEntity
  8
0
  6
Continuous
 62
     7
370
    25
100
AcDbSpline
210
0.0
220
0.0
230
1.0
 70
     8
 71
     3
 72
     8
 73
     4
 74
     0
 42
0.00000001
 43
0.00000001
 40
0.0
 40
0.0
 40
0.0
 40
0.0
 40
1.0
 40
1.0
 40
1.0
 40
1.0
 10
93.08790937278377
 20
117.1836027713626
 30
0.0
 10
93.08315734284633
 20
117.1836027713626
 30
0.0
 10
93.07840531290888
 20
117.1566594972654
 30
0.0
 10
93.07365328297143
 20
117.11037946666
 30
0.0
  0
LINE
  5
205
330
1F
100
AcDbEntity
  8
0
  6
Continuous
 62
     7
370
    25
100
AcDbLine
 10
93.0879093728
 20
117.1836027714
 30
0.0
 11
95.38841963
 21
117.1836027714
 31
0.0
  0
ARC
  5
206
330
1F
100
AcDbEntity
  8
0
  6
Continuous
 62
     7
370
    25
100
AcDbCircle
 10
95.38841963
 20
116.9336027714
 30
0.0
 40
0.25
100
AcDbArc
 50
0.0
 51
90.0
  0
LINE
  5
207
330
1F
100
AcDbEntity
  8
0
  6
Continuous
 62
     7
370
    25
100
AcDbLine
 10
95.63841963
 20
116.9336027714
 30
0.0
 11
93.0879093728
 21
116.9336027714
 31
0.0
  0
LINE
  5
208
330
1F
100
AcDbEntity
  8
0
  6
Continuous
 62
     7
370
    25
100
AcDbLine
 10
85.88841963
 20
116.9336027714
 30
0.0
 11
85.88841963
 21
115.2456219737
 31
0.0
  0
LINE
  5
209
330
1F
100
AcDbEntity
  8
0
  6
Continuous
 62
     7
370
    25
100
AcDbLine
 10
95.63841963
 20
114.9336027714
 30
0.0
 11
95.63841963
 21
116.9336027714
 31
0.0
  0
LINE
  5
20A
330
1F
100
AcDbEntity
  8
0
  6
Continuous
 62
     7
370
    25
100
AcDbLine
 10
85.88841963
 20
105.4336027714
 30
0.0
 11
88.1889298872
 21
105.4336027714
 31
0.0
  0
LINE
  5
20B
330
1F
100
AcDbEntity
  8
0
  6
Continuous
 62
     7
370
    25
100
AcDbLine
 10
85.88841963
 20
107.121583569
 30
0.0
 11
85.88841963
 21
105.4336027714
 31
0.0
  0
LINE
  5
20C
330
1F
100
AcDbEntity
  8
0
  6
Continuous
 62
     7
370
    25
100
AcDbLine
 10
95.38841963
 20
105.4336027714
 30
0.0
 11
95.38841963
 21
107.121583569
 31
0.0
  0
LINE
  5
20D
330
1F
100
AcDbEntity
  8
0
  6
Continuous
 62
     7
370
    25
100
AcDbLine
 10
93.0879093728
 20
105.4336027714
 30
0.0
 11
95.38841963
 21
105.4336027714
 31
0.0
  0
LINE
  5
20E
330
1F
100
AcDbEntity
  8
0
  6
Continuous
 62
     7
370
    25
100
AcDbLine
 10
95.38841963
 20
105.1836027714
 30
0.0
 11
93.0879093728
 21
105.1836027714
 31
0.0
  0
SPLINE
  5
20F
330
1F
100
AcDbEntity
  8
0
  6
Continuous
 62
     7
370
    25
100
AcDbSpline
210
0.0
220
0.0
230
1.0
 70
     8
 71
     3
 72
    10
 73
     6
 74
     0
 42
0.00000001
 43
0.00000001
 40
0.0
 40
0.0
 40
0.0
 40
0.0
 40
0.5
 40
0.5
 40
1.0
 40
1.0
 40
1.0
 40
1.0
 10
93.07365328297143
 20
105.2568260760652
 30
0.0
 10
93.07724417737154
 20
105.2283977852077
 30
0.0
 10
93.08080819982462
 20
105.2100919590321
 30
0.0
 10
93.08614079753073
 20
105.1876944521095
 30
0.0
 10
93.08790937278377
 20
105.1836027713626
 30
0.0
 10
93.08790937278377
 20
105.1836027713626
 30
0.0
  0
LINE
  5
210
330
1F
100
AcDbEntity
  8
0
  6
Continuous
 62
     7
370
    25
100
AcDbLine
 10
95.38841963
 20
105.1836027714
 30
0.0
 11
95.38841963
 21
105.4336027714
 31
0.0
  0
SPLINE
  5
211
330
1F
100
AcDbEntity
  8
0
  6
Continuous
 62
     7
370
    25
100
AcDbSpline
210
0.0
220
0.0
230
1.0
 70
     8
 71
     3
 72
    10
 73
     6
 74
     0
 42
0.00000001
 43
0.00000001
 40
0.0
 40
0.0
 40
0.0
 40
0.0
 40
0.5
 40
0.5
 40
1.0
 40
1.0
 40
1.0
 40
1.0
 10
88.20318597702975
 20
105.2568260760652
 30
0.0
 10
88.19959508262964
 20
105.2283977852077
 30
0.0
 10
88.19603106017657
 20
105.2100919590321
 30
0.0
 10
88.19069846247045
 20
105.1876944521095
 30
0.0
 10
88.18892988721741
 20
105.1836027713626
 30
0.0
 10
88.18892988721741
 20
105.1836027713626
 30
0.0
  0
LINE
  5
212
330
1F
100
AcDbEntity
  8
0
  6
Continuous
 62
     7
370
    25
100
AcDbLine
 10
88.1889298872
 20
105.1836027714
 30
0.0
 11
85.88841963
 21
105.1836027714
 31
0.0
  0
LINE
  5
213
330
1F
100
AcDbEntity
  8
0
  6
Continuous
 62
     7
370
    25
100
AcDbLine
 10
85.88841963
 20
105.1836027714
 30
0.0
 11
85.88841963
 21
105.4336027714
 31
0.0
  0
LINE
  5
214
330
1F
100
AcDbEntity
  8
0
  6
Continuous
 62
     7
370
    25
100
AcDbLine
 10
90.63841963
 20
117.1836027714
 30
0.0
 11
88.1889298872
 21
117.1836027714
 31
0.0
  0
SPLINE
  5
215
330
1F
100
AcDbEntity
  8
0
  6
Continuous
 62
     7
370
    25
100
AcDbSpline
210
0.0
220
0.0
230
1.0
 70
    24
 71
     3
 72
    10
 73
     6
 74
     0
 42
0.00000001
 43
0.00000001
 40
0.0
 40
0.0
 40
0.0
 40
0.0
 40
0.5
 40
0.5
 40
1.0
 40
1.0
 40
1.0
 40
1.0
 10
90.6384196300006
 20
117.1823095540341
 30
0.0
 10
90.6384196300006
 20
117.1822689246055
 30
0.0
 10
90.6384196300006
 20
117.1826274833623
 30
0.0
 10
90.6384196300006
 20
117.1876260379451
 30
0.0
 10
90.6384196300006
 20
117.1836027713626
 30
0.0
 10
90.6384196300006
 20
117.1836027713626
 30
0.0
  0
LINE
  5
216
330
1F
100
AcDbEntity
  8
0
  6
Continuous
 62
     7
370
    25
100
AcDbLine
 10
88.1889298872
 20
105.1836027714
 30
0.0
 11
89.5901937004
 21
105.1836027714
 31
0.0
  0
LINE
  5
217
330
1F
100
AcDbEntity
  8
0
  6
Continuous
 62
     7
370
    25
100
AcDbLine
 10
91.7404149686
 20
105.1836027714
 30
0.0
 11
93.0879093728
 21
105.1836027714
 31
0.0
  0
ARC
  5
218
330
1F
100
AcDbEntity
  8
0
  6
Continuous
 62
     7
370
    25
100
AcDbCircle
 10
85.88841963
 20
116.9336027714
 30
0.0
 40
0.25
100
AcDbArc
 50
90.0
 51
180.0
  0
LINE
  5
219
330
1F
100
AcDbEntity
  8
0
  6
Continuous
 62
     7
370
    25
100
AcDbLine
 10
85.63841963
 20
116.9336027714
 30
0.0
 11
85.88841963
 21
116.9336027714
 31
0.0
  0
LINE
  5
21A
330
1F
100
AcDbEntity
  8
0
  6
Continuous
 62
     7
370
    25
100
AcDbLine
 10
85.63841963
 20
114.5747677629
 30
0.0
 11
85.63841963
 21
116.9336027714
 31
0.0
  0
LINE
  5
21B
330
1F
100
AcDbEntity
  8
0
  6
Continuous
 62
     7
370
    25
100
AcDbLine
 10
85.63841963
 20
105.4336027714
 30
0.0
 11
85.63841963
 21
107.7924377798
 31
0.0
  0
LINE
  5
21C
330
1F
100
AcDbEntity
  8
0
  6
Continuous
 62
     7
370
    25
100
AcDbLine
 10
85.63841963
 20
105.4336027714
 30
0.0
 11
85.88841963
 21
105.4336027714
 31
0.0
  0
LINE
  5
21D
330
1F
100
AcDbEntity
  8
0
  6
Continuous
 62
     7
370
    25
100
AcDbLine
 10
95.63841963
 20
107.7924377798
 30
0.0
 11
95.63841963
 21
105.4336027714
 31
0.0
  0
LINE
  5
21E
330
1F
100
AcDbEntity
  8
0
  6
Continuous
 62
     7
370
    25
100
AcDbLine
 10
95.63841963
 20
105.4336027714
 30
0.0
 11
95.38841963
 21
105.4336027714
 31
0.0
  0
ARC
  5
21F
330
1F
100
AcDbEntity
  8
0
  6
Continuous
 62
     7
370
    25
100
AcDbCircle
 10
95.38841963
 20
105.4336027714
 30
0.0
 40
0.25
100
AcDbArc
 50
270.0
 51
0.0
  0
ARC
  5
220
330
1F
100
AcDbEntity
  8
0
  6
Continuous
 62
     7
370
    25
100
AcDbCircle
 10
85.88841963
 20
105.4336027714
 30
0.0
 40
0.25
100
AcDbArc
 50
180.0
 51
270.0
  0
SPLINE
  5
221
330
1F
100
AcDbEntity
  8
0
  6
Continuous
 62
     7
370
    25
100
AcDbSpline
210
0.0
220
0.0
230
1.0
 70
     8
 71
     3
 72
    10
 73
     6
 74
     0
 42
0.00000001
 43
0.00000001
 40
0.0
 40
0.0
 40
0.0
 40
0.0
 40
0.5
 40
0.5
 40
1.0
 40
1.0
 40
1.0
 40
1.0
 10
95.6384196300006
 20
114.5747677629253
 30
0.0
 10
95.6384196300006
 20
114.5747677629253
 30
0.0
 10
95.67381595332162
 20
114.5342210655092
 30
0.0
 10
95.78320178302002
 20
114.4013882283769
 30
0.0
 10
95.85544281552879
 20
114.3106268231169
 30
0.0
 10
95.93131284881403
 20
114.2077077679986
 30
0.0
  0
SPLINE
  5
222
330
1F
100
AcDbEntity
  8
0
  6
Continuous
 62
     7
370
    25
100
AcDbSpline
210
0.0
220
0.0
230
1.0
 70
     8
 71
     3
 72
    10
 73
     6
 74
     0
 42
0.00000001
 43
0.00000001
 40
0.0
 40
0.0
 40
0.0
 40
0.0
 40
0.5
 40
0.5
 40
1.0
 40
1.0
 40
1.0
 40
1.0
 10
96.00815339286225
 20
113.8605337222808
 30
0.0
 10
95.98284137184392
 20
113.9113078424791
 30
0.0
 10
95.96449537352338
 20
113.9667761419152
 30
0.0
 10
95.93839713730624
 20
114.0848515361071
 30
0.0
 10
95.93131284881473
 20
114.1464727565846
 30
0.0
 10
95.93131284881403
 20
114.2077077679987
 30
0.0
  0
SPLINE
  5
223
330
1F
100
AcDbEntity
  8
0
  6
Continuous
 62
     7
370
    25
100
AcDbSpline
210
0.0
220
0.0
230
1.0
 70
     8
 71
     3
 72
    10
 73
     6
 74
     0
 42
0.00000001
 43
0.00000001
 40
0.0
 40
0.0
 40
0.0
 40
0.0
 40
0.5
 40
0.5
 40
1.0
 40
1.0
 40
1.0
 40
1.0
 10
96.00815339286225
 20
108.5066718204445
 30
0.0
 10
95.98284137184392
 20
108.4558977002462
 30
0.0
 10
95.96449537352338
 20
108.4004294008101
 30
0.0
 10
95.93839713730624
 20
108.2823540066182
 30
0.0
 10
95.9313128488148
 20
108.2207327861407
 30
0.0
 10
95.93131284881403
 20
108.1594977747266
 30
0.0
  0
SPLINE
  5
224
330
1F
100
AcDbEntity
  8
0
  6
Continuous
 62
     7
370
    25
100
AcDbSpline
210
0.0
220
0.0
230
1.0
 70
     8
 71
     3
 72
    10
 73
     6
 74
     0
 42
0.00000001
 43
0.00000001
 40
0.0
 40
0.0
 40
0.0
 40
0.0
 40
0.5
 40
0.5
 40
1.0
 40
1.0
 40
1.0
 40
1.0
 10
95.93131284881403
 20
108.1594977747266
 30
0.0
 10
95.85544281552879
 20
108.0565787196083
 30
0.0
 10
95.78320178302002
 20
107.9658173143483
 30
0.0
 10
95.67381595332162
 20
107.832984477216
 30
0.0
 10
95.6384196300006
 20
107.7924377798
 30
0.0
 10
95.6384196300006
 20
107.7924377798
 30
0.0
  0
LINE
  5
225
330
1F
100
AcDbEntity
  8
0
  6
Continuous
 62
     7
370
    25
100
AcDbLine
 10
96.63841963
 20
117.1836027714
 30
0.0
 11
96.63841963
 21
116.9336027714
 31
0.0
  0
LINE
  5
226
330
1F
100
AcDbEntity
  8
0
  6
Continuous
 62
     7
370
    25
100
AcDbLine
 10
96.63841963
 20
116.9336027714
 30
0.0
 11
95.63841963
 21
116.9336027714
 31
0.0
  0
LINE
  5
227
330
1F
100
AcDbEntity
  8
0
  6
Continuous
 62
     7
370
    25
100
AcDbLine
 10
95.38841963
 20
117.1836027714
 30
0.0
 11
96.63841963
 21
117.1836027714
 31
0.0
  0
LINE
  5
228
330
1F
100
AcDbEntity
  8
0
  6
Continuous
 62
     7
370
    25
100
AcDbLine
 10
96.63841963
 20
114.5747677629
 30
0.0
 11
96.63841963
 21
116.9336027714
 31
0.0
  0
SPLINE
  5
229
330
1F
100
AcDbEntity
  8
0
  6
Continuous
 62
     7
370
    25
100
AcDbSpline
210
0.0
220
0.0
230
1.0
 70
     8
 71
     3
 72
    10
 73
     6
 74
     0
 42
0.00000001
 43
0.00000001
 40
0.0
 40
0.0
 40
0.0
 40
0.0
 40
0.5
 40
0.5
 40
1.0
 40
1.0
 40
1.0
 40
1.0
 10
95.93131284881403
 20
114.2077077679986
 30
0.0
 10
96.0071828820993
 20
114.3106268231169
 30
0.0
 10
96.10364164577555
 20
114.4013882283769
 30
0.0
 10
96.34358950070013
 20
114.5342210655092
 30
0.0
 10
96.48910560424959
 20
114.5747677629253
 30
0.0
 10
96.6384196300006
 20
114.5747677629253
 30
0.0
  0
SPLINE
  5
22A
330
1F
100
AcDbEntity
  8
0
  6
Continuous
 62
     7
370
    25
100
AcDbSpline
210
0.0
220
0.0
230
1.0
 70
     8
 71
     3
 72
    22
 73
    18
 74
     0
 42
0.00000001
 43
0.00000001
 40
0.0
 40
0.0
 40
0.0
 40
0.0
 40
0.0625
 40
0.0625
 40
0.125
 40
0.125
 40
0.1875
 40
0.1875
 40
0.25
 40
0.25
 40
0.3125
 40
0.3125
 40
0.375
 40
0.375
 40
0.4375
 40
0.4375
 40
0.5
 40
0.5
 40
0.5
 40
0.5
 10
98.63841962998374
 20
117.1836027713626
 30
0.0
 10
98.63841300751011
 20
117.183602771502
 30
0.0
 10
98.62572625608338
 20
117.1825041694288
 30
0.0
 10
98.5749925352901
 20
117.1785999483013
 30
0.0
 10
98.53883822767351
 20
117.1759485271119
 30
0.0
 10
98.4451078063252
 20
117.1704297093361
 30
0.0
 10
98.39099010438468
 20
117.167779313858
 30
0.0
 10
98.2685325869386
 20
117.1638790681228
 30
0.0
 10
98.20454675840942
 20
117.1627759877922
 30
0.0
 10
98.0722925142114
 20
117.162786995374
 30
0.0
 10
98.00815717087377
 20
117.1638827292194
 30
0.0
 10
97.88599868108851
 20
117.1677756520125
 30
0.0
 10
97.83172209615509
 20
117.1704291566665
 30
0.0
 10
97.73801040776338
 20
117.1759490787346
 30
0.0
 10
97.70183448180752
 20
117.1785997863725
 30
0.0
 10
97.6511252564364
 20
117.1825043306135
 30
0.0
 10
97.63841963548077
 20
117.1836027713626
 30
0.0
 10
97.63841963000058
 20
117.1836027713626
 30
0.0
  0
SPLINE
  5
22B
330
1F
100
AcDbEntity
  8
0
  6
Continuous
 62
     7
370
    25
100
AcDbSpline
210
0.0
220
0.0
230
1.0
 70
    24
 71
     3
 72
    14
 73
    10
 74
     0
 42
0.00000001
 43
0.00000001
 40
0.0
 40
0.0
 40
0.0
 40
0.0
 40
0.25
 40
0.25
 40
0.5
 40
0.5
 40
0.75
 40
0.75
 40
1.0
 40
1.0
 40
1.0
 40
1.0
 10
97.38841963000058
 20
117.1836027713626
 30
0.0
 10
97.38841963000058
 20
117.1836027713626
 30
0.0
 10
97.38841963000058
 20
117.173757857625
 30
0.0
 10
97.38841963000058
 20
117.1342657513159
 30
0.0
 10
97.38841963000058
 20
117.1046181121407
 30
0.0
 10
97.38841963000058
 20
117.0251889749371
 30
0.0
 10
97.38841963000058
 20
116.9754065508678
 30
0.0
 10
97.3884196300006
 20
116.8551775645332
 30
0.0
 10
97.3884196300006
 20
116.784729531926
 30
0.0
 10
97.38841963000058
 20
116.7036027713626
 30
0.0
  0
SPLINE
  5
22C
330
1F
100
AcDbEntity
  8
0
  6
Continuous
 62
     7
370
    25
100
AcDbSpline
210
0.0
220
0.0
230
1.0
 70
    24
 71
     3
 72
    14
 73
    10
 74
     0
 42
0.00000001
 43
0.00000001
 40
0.0
 40
0.0
 40
0.0
 40
0.0
 40
0.25
 40
0.25
 40
0.5
 40
0.5
 40
0.75
 40
0.75
 40
1.0
 40
1.0
 40
1.0
 40
1.0
 10
97.38841963000058
 20
105.1836027713626
 30
0.0
 10
97.38841963000058
 20
105.1836027713626
 30
0.0
 10
97.38841963000058
 20
105.1934476851002
 30
0.0
 10
97.38841963000058
 20
105.2329397914093
 30
0.0
 10
97.38841963000058
 20
105.2625874305845
 30
0.0
 10
97.38841963000058
 20
105.3420165677882
 30
0.0
 10
97.38841963000058
 20
105.3917989918575
 30
0.0
 10
97.38841963000058
 20
105.5120279781921
 30
0.0
 10
97.38841963000058
 20
105.5824760107992
 30
0.0
 10
97.38841963000058
 20
105.6636027713626
 30
0.0
  0
LINE
  5
22D
330
1F
100
AcDbEntity
  8
0
  6
Continuous
 62
     7
370
    25
100
AcDbLine
 10
97.38841963
 20
107.2840643371
 30
0.0
 11
97.38841963
 21
105.6636027714
 31
0.0
  0
SPLINE
  5
22E
330
1F
100
AcDbEntity
  8
0
  6
Continuous
 62
     7
370
    25
100
AcDbSpline
210
0.0
220
0.0
230
1.0
 70
     8
 71
     3
 72
    14
 73
    10
 74
     0
 42
0.00000001
 43
0.00000001
 40
0.0
 40
0.0
 40
0.0
 40
0.0
 40
0.25
 40
0.25
 40
0.5
 40
0.5
 40
0.75
 40
0.75
 40
1.0
 40
1.0
 40
1.0
 40
1.0
 10
97.38841963000058
 20
107.2840643371374
 30
0.0
 10
97.38841963000058
 20
107.349728204856
 30
0.0
 10
97.37846632344807
 20
107.4154530451639
 30
0.0
 10
97.34009470763208
 20
107.5469608447201
 30
0.0
 10
97.31155577565892
 20
107.6125919295597
 30
0.0
 10
97.2343682283788
 20
107.7362518414457
 30
0.0
 10
97.18493954319088
 20
107.7961424874005
 30
0.0
 10
97.05743105601381
 20
107.8922551628175
 30
0.0
 10
96.97581484595968
 20
107.9280843794625
 30
0.0
 10
96.88841963000058
 20
107.9280843794625
 30
0.0
  0
LINE
  5
22F
330
1F
100
AcDbEntity
  8
0
  6
Continuous
 62
     7
370
    25
100
AcDbLine
 10
96.63841963
 20
107.9280843795
 30
0.0
 11
96.88841963
 21
107.9280843795
 31
0.0
  0
SPLINE
  5
230
330
1F
100
AcDbEntity
  8
0
  6
Continuous
 62
     7
370
    25
100
AcDbSpline
210
0.0
220
0.0
230
1.0
 70
     8
 71
     3
 72
    12
 73
     8
 74
     0
 42
0.00000001
 43
0.00000001
 40
0.0
 40
0.0
 40
0.0
 40
0.0
 40
0.5000000000000009
 40
0.5000000000000009
 40
0.7500000000000004
 40
0.7500000000000004
 40
1.0
 40
1.0
 40
1.0
 40
1.0
 10
96.00815339286225
 20
108.5066718204445
 30
0.0
 10
96.05520154741066
 20
108.3662082494251
 30
0.0
 10
96.12023977862029
 20
108.233585148176
 30
0.0
 10
96.27371313167227
 20
108.0680410266634
 30
0.0
 10
96.33387285139732
 20
108.019681930697
 30
0.0
 10
96.47516037296245
 20
107.9490442837385
 30
0.0
 10
96.55560068178612
 20
107.9280843794625
 30
0.0
 10
96.6384196300006
 20
107.9280843794625
 30
0.0
  0
SPLINE
  5
231
330
1F
100
AcDbEntity
  8
0
  6
Continuous
 62
     7
370
    25
100
AcDbSpline
210
0.0
220
0.0
230
1.0
 70
     8
 71
     3
 72
    12
 73
     8
 74
     0
 42
0.00000001
 43
0.00000001
 40
0.0
 40
0.0
 40
0.0
 40
0.0
 40
0.2499999999999993
 40
0.2499999999999993
 40
0.4999999999999987
 40
0.4999999999999987
 40
1.0
 40
1.0
 40
1.0
 40
1.0
 10
96.6384196300006
 20
114.4391211632628
 30
0.0
 10
96.55560068178612
 20
114.4391211632628
 30
0.0
 10
96.47516037296245
 20
114.4181612589867
 30
0.0
 10
96.33387285139732
 20
114.3475236120282
 30
0.0
 10
96.27371313167228
 20
114.2991645160619
 30
0.0
 10
96.1202397786203
 20
114.1336203945493
 30
0.0
 10
96.05520154741033
 20
114.0009972933003
 30
0.0
 10
96.00815339286193
 20
113.8605337222809
 30
0.0
  0
LINE
  5
232
330
1F
100
AcDbEntity
  8
0
  6
Continuous
 62
     7
370
    25
100
AcDbLine
 10
96.88841963
 20
114.4391211633
 30
0.0
 11
96.63841963
 21
114.4391211633
 31
0.0
  0
SPLINE
  5
233
330
1F
100
AcDbEntity
  8
0
  6
Continuous
 62
     7
370
    25
100
AcDbSpline
210
0.0
220
0.0
230
1.0
 70
     8
 71
     3
 72
    14
 73
    10
 74
     0
 42
0.00000001
 43
0.00000001
 40
0.0
 40
0.0
 40
0.0
 40
0.0
 40
0.25
 40
0.25
 40
0.5
 40
0.5
 40
0.75
 40
0.75
 40
1.0
 40
1.0
 40
1.0
 40
1.0
 10
96.8884196300006
 20
114.4391211632628
 30
0.0
 10
96.97573765900698
 20
114.4391211632628
 30
0.0
 10
97.05736576682858
 20
114.474893466136
 30
0.0
 10
97.18506688496203
 20
114.5711667465105
 30
0.0
 10
97.23445767778759
 20
114.6310355771293
 30
0.0
 10
97.3118163453456
 20
114.7550927711968
 30
0.0
 10
97.34038515491748
 20
114.8210842965466
 30
0.0
 10
97.37845252388459
 20
114.9518621656591
 30
0.0
 10
97.38841963000058
 20
115.0174221689358
 30
0.0
 10
97.3884196300006
 20
115.0831412055879
 30
0.0
  0
LINE
  5
234
330
1F
100
AcDbEntity
  8
0
  6
Continuous
 62
     7
370
    25
100
AcDbLine
 10
97.38841963
 20
116.7036027714
 30
0.0
 11
97.38841963
 21
115.0831412056
 31
0.0
  0
LINE
  5
235
330
1F
100
AcDbEntity
  8
0
  6
Continuous
 62
     7
370
    25
100
AcDbLine
 10
95.63841963
 20
105.4336027714
 30
0.0
 11
96.63841963
 21
105.4336027714
 31
0.0
  0
SPLINE
  5
236
330
1F
100
AcDbEntity
  8
0
  6
Continuous
 62
     7
370
    25
100
AcDbSpline
210
0.0
220
0.0
230
1.0
 70
     8
 71
     3
 72
    10
 73
     6
 74
     0
 42
0.00000001
 43
0.00000001
 40
0.0
 40
0.0
 40
0.0
 40
0.0
 40
0.5
 40
0.5
 40
1.0
 40
1.0
 40
1.0
 40
1.0
 10
96.6384196300006
 20
107.7924377798
 30
0.0
 10
96.48910560424959
 20
107.7924377798
 30
0.0
 10
96.34358950070015
 20
107.832984477216
 30
0.0
 10
96.10364164577555
 20
107.9658173143483
 30
0.0
 10
96.0071828820993
 20
108.0565787196083
 30
0.0
 10
95.93131284881403
 20
108.1594977747266
 30
0.0
  0
LINE
  5
237
330
1F
100
AcDbEntity
  8
0
  6
Continuous
 62
     7
370
    25
100
AcDbLine
 10
96.63841963
 20
105.4336027714
 30
0.0
 11
96.63841963
 21
107.7924377798
 31
0.0
  0
LINE
  5
238
330
1F
100
AcDbEntity
  8
0
  6
Continuous
 62
     7
370
    25
100
AcDbLine
 10
96.63841963
 20
105.4336027714
 30
0.0
 11
96.63841963
 21
105.1836027714
 31
0.0
  0
LINE
  5
239
330
1F
100
AcDbEntity
  8
0
  6
Continuous
 62
     7
370
    25
100
AcDbLine
 10
96.63841963
 20
105.1836027714
 30
0.0
 11
95.38841963
 21
105.1836027714
 31
0.0
  0
LINE
  5
23A
330
1F
100
AcDbEntity
  8
0
  6
Continuous
 62
     7
370
    25
100
AcDbLine
 10
96.63841963
 20
114.5747677629
 30
0.0
 11
96.63841963
 21
114.4391211633
 31
0.0
  0
LINE
  5
23B
330
1F
100
AcDbEntity
  8
0
  6
Continuous
 62
     7
370
    25
100
AcDbLine
 10
96.63841963
 20
107.9280843795
 30
0.0
 11
96.63841963
 21
107.7924377798
 31
0.0
  0
SPLINE
  5
23C
330
1F
100
AcDbEntity
  8
0
  6
Continuous
 62
     7
370
    25
100
AcDbSpline
210
0.0
220
0.0
230
1.0
 70
     8
 71
     3
 72
    14
 73
    10
 74
     0
 42
0.00000001
 43
0.00000001
 40
0.0
 40
0.0
 40
0.0
 40
0.0
 40
0.4999999999999984
 40
0.4999999999999984
 40
0.7499999999999981
 40
0.7499999999999981
 40
0.874999999999999
 40
0.874999999999999
 40
1.0
 40
1.0
 40
1.0
 40
1.0
 10
97.1384196300006
 20
115.2456219736806
 30
0.0
 10
97.13841963000058
 20
115.1229489230527
 30
0.0
 10
97.12351596316672
 20
114.9994828940278
 30
0.0
 10
97.07575720958509
 20
114.8174860365452
 30
0.0
 10
97.05568718913179
 20
114.7570923908341
 30
0.0
 10
97.0120680852657
 20
114.6720816417006
 30
0.0
 10
96.99512867066933
 20
114.6442812926673
 30
0.0
 10
96.95167437408149
 20
114.5965673884074
 30
0.0
 10
96.92244131775588
 20
114.5747677629253
 30
0.0
 10
96.8884196300006
 20
114.5747677629253
 30
0.0
  0
LWPOLYLINE
  5
23D
330
1F
100
AcDbEntity
  8
0
  6
Continuous
 62
     7
370
    25
100
AcDbPolyline
 90
        9
 70
   128
 43
0.0
 10
97.13841963
 20
115.2456219737
 10
97.1432233099
 20
115.2139235483
 10
97.1574497469
 20
115.1834432757
 10
97.1805522269
 20
115.1553524955
 10
97.2116429347
 20
115.1307307207
 10
97.2495270717
 20
115.1105241524
 10
97.2927487719
 20
115.0955093176
 10
97.3396470495
 20
115.086263228
 10
97.38841963
 20
115.0831412056
  0
LINE
  5
23E
330
1F
100
AcDbEntity
  8
0
  6
Continuous
 62
     7
370
    25
100
AcDbLine
 10
96.88841963
 20
114.5747677629
 30
0.0
 11
96.88841963
 21
114.4391211633
 31
0.0
  0
LWPOLYLINE
  5
23F
330
1F
100
AcDbEntity
  8
0
  6
Continuous
 62
     7
370
    25
100
AcDbPolyline
 90
        9
 70
   128
 43
0.0
 10
97.38841963
 20
107.2840643371
 10
97.3396470495
 20
107.2809423147
 10
97.2927487719
 20
107.2716962251
 10
97.2495270717
 20
107.2566813903
 10
97.2116429347
 20
107.236474822
 10
97.1805522269
 20
107.2118530472
 10
97.1574497469
 20
107.1837622671
 10
97.1432233099
 20
107.1532819944
 10
97.13841963
 20
107.121583569
  0
SPLINE
  5
240
330
1F
100
AcDbEntity
  8
0
  6
Continuous
 62
     7
370
    25
100
AcDbSpline
210
0.0
220
0.0
230
1.0
 70
     8
 71
     3
 72
    14
 73
    10
 74
     0
 42
0.00000001
 43
0.00000001
 40
0.0
 40
0.0
 40
0.0
 40
0.0
 40
0.1250000000000003
 40
0.1250000000000003
 40
0.2500000000000006
 40
0.2500000000000006
 40
0.5000000000000008
 40
0.5000000000000008
 40
1.0
 40
1.0
 40
1.0
 40
1.0
 10
96.8884196300006
 20
107.7924377798
 30
0.0
 10
96.92252318029738
 20
107.7924377798
 30
0.0
 10
96.95162362255634
 20
107.7706869148406
 30
0.0
 10
96.99513404510947
 20
107.7229253074935
 30
0.0
 10
97.01207063069558
 20
107.6951150181436
 30
0.0
 10
97.05563885689128
 20
107.6102151864105
 30
0.0
 10
97.07574332757625
 20
107.5497435482973
 30
0.0
 10
97.12343325219986
 20
107.3680954572459
 30
0.0
 10
97.1384196300006
 20
107.2442208789575
 30
0.0
 10
97.1384196300006
 20
107.1215835690446
 30
0.0
  0
LINE
  5
241
330
1F
100
AcDbEntity
  8
0
  6
Continuous
 62
     7
370
    25
100
AcDbLine
 10
96.88841963
 20
107.9280843795
 30
0.0
 11
96.88841963
 21
107.7924377798
 31
0.0
  0
LINE
  5
242
330
1F
100
AcDbEntity
  8
0
  6
Continuous
 62
     7
370
    25
100
AcDbLine
 10
96.63841963
 20
114.5747677629
 30
0.0
 11
96.88841963
 21
114.5747677629
 31
0.0
  0
LINE
  5
243
330
1F
100
AcDbEntity
  8
0
  6
Continuous
 62
     7
370
    25
100
AcDbLine
 10
96.88841963
 20
107.7924377798
 30
0.0
 11
96.63841963
 21
107.7924377798
 31
0.0
  0
ARC
  5
244
330
1F
100
AcDbEntity
  8
0
  6
Continuous
 62
     7
370
    25
100
AcDbCircle
 10
96.88841963
 20
116.9336027714
 30
0.0
 40
0.25
100
AcDbArc
 50
0.0
 51
90.0
  0
LINE
  5
245
330
1F
100
AcDbEntity
  8
0
  6
Continuous
 62
     7
370
    25
100
AcDbLine
 10
96.88841963
 20
116.9336027714
 30
0.0
 11
97.13841963
 21
116.9336027714
 31
0.0
  0
LINE
  5
246
330
1F
100
AcDbEntity
  8
0
  6
Continuous
 62
     7
370
    25
100
AcDbLine
 10
96.88841963
 20
117.1836027714
 30
0.0
 11
96.88841963
 21
116.9336027714
 31
0.0
  0
LINE
  5
247
330
1F
100
AcDbEntity
  8
0
  6
Continuous
 62
     7
370
    25
100
AcDbLine
 10
96.88841963
 20
116.9336027714
 30
0.0
 11
96.63841963
 21
116.9336027714
 31
0.0
  0
LINE
  5
248
330
1F
100
AcDbEntity
  8
0
  6
Continuous
 62
     7
370
    25
100
AcDbLine
 10
96.63841963
 20
117.1836027714
 30
0.0
 11
96.88841963
 21
117.1836027714
 31
0.0
  0
LINE
  5
249
330
1F
100
AcDbEntity
  8
0
  6
Continuous
 62
     7
370
    25
100
AcDbLine
 10
97.13841963
 20
116.9336027714
 30
0.0
 11
97.13841963
 21
115.2456219737
 31
0.0
  0
LINE
  5
24A
330
1F
100
AcDbEntity
  8
0
  6
Continuous
 62
     7
370
    25
100
AcDbLine
 10
96.88841963
 20
114.5747677629
 30
0.0
 11
96.88841963
 21
116.9336027714
 31
0.0
  0
LINE
  5
24B
330
1F
100
AcDbEntity
  8
0
  6
Continuous
 62
     7
370
    25
100
AcDbLine
 10
96.63841963
 20
105.4336027714
 30
0.0
 11
96.88841963
 21
105.4336027714
 31
0.0
  0
LINE
  5
24C
330
1F
100
AcDbEntity
  8
0
  6
Continuous
 62
     7
370
    25
100
AcDbLine
 10
96.88841963
 20
105.4336027714
 30
0.0
 11
96.88841963
 21
107.7924377798
 31
0.0
  0
LINE
  5
24D
330
1F
100
AcDbEntity
  8
0
  6
Continuous
 62
     7
370
    25
100
AcDbLine
 10
97.13841963
 20
107.121583569
 30
0.0
 11
97.13841963
 21
105.4336027714
 31
0.0
  0
LINE
  5
24E
330
1F
100
AcDbEntity
  8
0
  6
Continuous
 62
     7
370
    25
100
AcDbLine
 10
97.13841963
 20
105.4336027714
 30
0.0
 11
96.88841963
 21
105.4336027714
 31
0.0
  0
LINE
  5
24F
330
1F
100
AcDbEntity
  8
0
  6
Continuous
 62
     7
370
    25
100
AcDbLine
 10
96.88841963
 20
105.4336027714
 30
0.0
 11
96.88841963
 21
105.1836027714
 31
0.0
  0
LINE
  5
250
330
1F
100
AcDbEntity
  8
0
  6
Continuous
 62
     7
370
    25
100
AcDbLine
 10
96.88841963
 20
105.1836027714
 30
0.0
 11
96.63841963
 21
105.1836027714
 31
0.0
  0
ARC
  5
251
330
1F
100
AcDbEntity
  8
0
  6
Continuous
 62
     7
370
    25
100
AcDbCircle
 10
96.88841963
 20
105.4336027714
 30
0.0
 40
0.25
100
AcDbArc
 50
270.0
 51
0.0
  0
SPLINE
  5
252
330
1F
100
AcDbEntity
  8
0
  6
Continuous
 62
     7
370
    25
100
AcDbSpline
210
0.0
220
0.0
230
1.0
 70
     8
 71
     3
 72
    12
 73
     8
 74
     0
 42
0.00000001
 43
0.00000001
 40
0.0
 40
0.0
 40
0.0
 40
0.0
 40
0.25
 40
0.25
 40
0.5
 40
0.5
 40
1.0
 40
1.0
 40
1.0
 40
1.0
 10
97.21163503426001
 20
116.7763905184682
 30
0.0
 10
97.19742140422638
 20
116.7901609918792
 30
0.0
 10
97.1847198804738
 20
116.8062250117305
 30
0.0
 10
97.16365245113137
 20
116.8396163159258
 30
0.0
 10
97.15528654554153
 20
116.8569436002699
 30
0.0
 10
97.13865936441685
 20
116.9058346074602
 30
0.0
 10
97.1384196300006
 20
116.9336027713626
 30
0.0
 10
97.13841963000058
 20
116.9336027713626
 30
0.0
  0
SPLINE
  5
253
330
1F
100
AcDbEntity
  8
0
  6
Continuous
 62
     7
370
    25
100
AcDbSpline
210
0.0
220
0.0
230
1.0
 70
     8
 71
     3
 72
    10
 73
     6
 74
     0
 42
0.00000001
 43
0.00000001
 40
0.0
 40
0.0
 40
0.0
 40
0.0
 40
0.5
 40
0.5
 40
1.0
 40
1.0
 40
1.0
 40
1.0
 10
97.21163503426001
 20
116.7763905184682
 30
0.0
 10
97.2400622943273
 20
116.7488495716462
 30
0.0
 10
97.27428893249416
 20
116.7292364377566
 30
0.0
 10
97.33731097803171
 20
116.7069275644682
 30
0.0
 10
97.36589669732369
 20
116.7036027713626
 30
0.0
 10
97.38841963000058
 20
116.7036027713626
 30
0.0
  0
SPLINE
  5
254
330
1F
100
AcDbEntity
  8
0
  6
Continuous
 62
     7
370
    25
100
AcDbSpline
210
0.0
220
0.0
230
1.0
 70
     8
 71
     3
 72
    10
 73
     6
 74
     0
 42
0.00000001
 43
0.00000001
 40
0.0
 40
0.0
 40
0.0
 40
0.0
 40
0.5
 40
0.5
 40
1.0
 40
1.0
 40
1.0
 40
1.0
 10
97.21163503426001
 20
105.590815024257
 30
0.0
 10
97.2400622943273
 20
105.618355971079
 30
0.0
 10
97.27428893249416
 20
105.6379691049687
 30
0.0
 10
97.33731097803171
 20
105.660277978257
 30
0.0
 10
97.36589669732369
 20
105.6636027713626
 30
0.0
 10
97.38841963000058
 20
105.6636027713626
 30
0.0
  0
SPLINE
  5
255
330
1F
100
AcDbEntity
  8
0
  6
Continuous
 62
     7
370
    25
100
AcDbSpline
210
0.0
220
0.0
230
1.0
 70
     8
 71
     3
 72
    12
 73
     8
 74
     0
 42
0.00000001
 43
0.00000001
 40
0.0
 40
0.0
 40
0.0
 40
0.0
 40
0.25
 40
0.25
 40
0.5
 40
0.5
 40
1.0
 40
1.0
 40
1.0
 40
1.0
 10
97.21163503426001
 20
105.590815024257
 30
0.0
 10
97.19742140422638
 20
105.577044550846
 30
0.0
 10
97.1847198804738
 20
105.5609805309948
 30
0.0
 10
97.16365245113138
 20
105.5275892267994
 30
0.0
 10
97.15528654554153
 20
105.5102619424553
 30
0.0
 10
97.13865936441685
 20
105.461370935265
 30
0.0
 10
97.13841963000058
 20
105.4336027713626
 30
0.0
 10
97.13841963000058
 20
105.4336027713626
 30
0.0
  0
LINE
  5
256
330
1F
100
AcDbEntity
  8
0
  6
Continuous
 62
     7
370
    25
100
AcDbLine
 10
89.63841963
 20
109.4515519638
 30
0.0
 11
89.63841963
 21
112.9156535789
 31
0.0
  0
SPLINE
  5
257
330
1F
100
AcDbEntity
  8
0
  6
Continuous
 62
     7
370
    25
100
AcDbSpline
210
0.0
220
0.0
230
1.0
 70
     8
 71
     3
 72
    14
 73
    10
 74
     0
 42
0.00000001
 43
0.00000001
 40
0.0
 40
0.0
 40
0.0
 40
0.0
 40
0.25
 40
0.25
 40
0.5
 40
0.5
 40
0.75
 40
0.75
 40
1.0
 40
1.0
 40
1.0
 40
1.0
 10
97.14042723029029
 20
117.1823095540341
 30
0.0
 10
97.15069068957942
 20
117.1823197113912
 30
0.0
 10
97.16535558001017
 20
117.1737852989982
 30
0.0
 10
97.19709095819368
 20
117.137739810893
 30
0.0
 10
97.21416144594644
 20
117.1102287351808
 30
0.0
 10
97.24431075381273
 20
117.0343423966183
 30
0.0
 10
97.25014222396261
 20
116.9901054242169
 30
0.0
 10
97.24403610074104
 20
116.8908662745982
 30
0.0
 10
97.23209850736959
 20
116.835864097381
 30
0.0
 10
97.21163503426001
 20
116.7763905184682
 30
0.0
  0
SPLINE
  5
258
330
1F
100
AcDbEntity
  8
0
  6
Continuous
 62
     7
370
    25
100
AcDbSpline
210
0.0
220
0.0
230
1.0
 70
     8
 71
     3
 72
    12
 73
     8
 74
     0
 42
0.00000001
 43
0.00000001
 40
0.0
 40
0.0
 40
0.0
 40
0.0
 40
0.25
 40
0.25
 40
0.5
 40
0.5
 40
1.0
 40
1.0
 40
1.0
 40
1.0
 10
97.14042723029029
 20
117.1823095540341
 30
0.0
 10
97.13016377100115
 20
117.1822993966769
 30
0.0
 10
97.12258499120436
 20
117.1737429705655
 30
0.0
 10
97.10817153575529
 20
117.1523696143306
 30
0.0
 10
97.10133686010302
 20
117.1395526842071
 30
0.0
 10
97.07501110710257
 20
117.1139591880635
 30
0.0
 10
97.06534415574158
 20
117.1102316362149
 30
0.0
 10
97.06519632529645
 20
117.11037946666
 30
0.0
  0
SPLINE
  5
259
330
1F
100
AcDbEntity
  8
0
  6
Continuous
 62
     7
370
    25
100
AcDbSpline
210
0.0
220
0.0
230
1.0
 70
     8
 71
     3
 72
    10
 73
     6
 74
     0
 42
0.00000001
 43
0.00000001
 40
0.0
 40
0.0
 40
0.0
 40
0.0
 40
0.5
 40
0.5
 40
1.0
 40
1.0
 40
1.0
 40
1.0
 10
97.14042723029029
 20
117.1823095540341
 30
0.0
 10
97.09937339313375
 20
117.1822689246055
 30
0.0
 10
97.0552990408207
 20
117.1826274833623
 30
0.0
 10
96.96394777130878
 20
117.1876260379451
 30
0.0
 10
96.93119798981175
 20
117.1836027713626
 30
0.0
 10
96.8884196300006
 20
117.1836027713626
 30
0.0
  0
SPLINE
  5
25A
330
1F
100
AcDbEntity
  8
0
  6
Continuous
 62
     7
370
    25
100
AcDbSpline
210
0.0
220
0.0
230
1.0
 70
     8
 71
     3
 72
    12
 73
     8
 74
     0
 42
0.00000001
 43
0.00000001
 40
0.0
 40
0.0
 40
0.0
 40
0.0
 40
0.25
 40
0.25
 40
0.5
 40
0.5
 40
1.0
 40
1.0
 40
1.0
 40
1.0
 10
97.14042723029029
 20
105.1848959886912
 30
0.0
 10
97.13016377100115
 20
105.1849061460483
 30
0.0
 10
97.12258499120436
 20
105.1934625721598
 30
0.0
 10
97.10817153575529
 20
105.2148359283947
 30
0.0
 10
97.10133686010302
 20
105.2276528585182
 30
0.0
 10
97.07501110710257
 20
105.2532463546617
 30
0.0
 10
97.06534415574158
 20
105.2569739065103
 30
0.0
 10
97.06519632529645
 20
105.2568260760652
 30
0.0
  0
SPLINE
  5
25B
330
1F
100
AcDbEntity
  8
0
  6
Continuous
 62
     7
370
    25
100
AcDbSpline
210
0.0
220
0.0
230
1.0
 70
     8
 71
     3
 72
    12
 73
     8
 74
     0
 42
0.00000001
 43
0.00000001
 40
0.0
 40
0.0
 40
0.0
 40
0.0
 40
0.25
 40
0.25
 40
0.5
 40
0.5
 40
1.0
 40
1.0
 40
1.0
 40
1.0
 10
97.14042723029029
 20
105.1848959886912
 30
0.0
 10
97.15069068957942
 20
105.184885831334
 30
0.0
 10
97.16535558001017
 20
105.193420243727
 30
0.0
 10
97.19709095819368
 20
105.2294657318322
 30
0.0
 10
97.21416144594643
 20
105.2569768075444
 30
0.0
 10
97.25938540774585
 20
105.3708063153881
 30
0.0
 10
97.25256198047916
 20
105.4718678664315
 30
0.0
 10
97.21163503426001
 20
105.590815024257
 30
0.0
  0
SPLINE
  5
25C
330
1F
100
AcDbEntity
  8
0
  6
Continuous
 62
     7
370
    25
100
AcDbSpline
210
0.0
220
0.0
230
1.0
 70
     8
 71
     3
 72
    10
 73
     6
 74
     0
 42
0.00000001
 43
0.00000001
 40
0.0
 40
0.0
 40
0.0
 40
0.0
 40
0.5
 40
0.5
 40
1.0
 40
1.0
 40
1.0
 40
1.0
 10
97.14042723029029
 20
105.1848959886912
 30
0.0
 10
97.09937339313375
 20
105.1849366181198
 30
0.0
 10
97.0552990408207
 20
105.184578059363
 30
0.0
 10
96.96394777130878
 20
105.1795795047802
 30
0.0
 10
96.93119798981175
 20
105.1836027713626
 30
0.0
 10
96.8884196300006
 20
105.1836027713626
 30
0.0
  0
SPLINE
  5
25D
330
1F
100
AcDbEntity
  8
0
  6
Continuous
 62
     7
370
    25
100
AcDbSpline
210
0.0
220
0.0
230
1.0
 70
     8
 71
     3
 72
    10
 73
     6
 74
     0
 42
0.00000001
 43
0.00000001
 40
0.0
 40
0.0
 40
0.0
 40
0.0
 40
0.5
 40
0.5
 40
1.0
 40
1.0
 40
1.0
 40
1.0
 10
97.14042723029029
 20
117.1823095540341
 30
0.0
 10
97.18148106744681
 20
117.1823501834627
 30
0.0
 10
97.22495789782782
 20
117.1827953883109
 30
0.0
 10
97.31401659755217
 20
117.1792697873597
 30
0.0
 10
97.34611996707582
 20
117.1836027713626
 30
0.0
 10
97.38841963000058
 20
117.1836027713626
 30
0.0
  0
SPLINE
  5
25E
330
1F
100
AcDbEntity
  8
0
  6
Continuous
 62
     7
370
    25
100
AcDbSpline
210
0.0
220
0.0
230
1.0
 70
     8
 71
     3
 72
    10
 73
     6
 74
     0
 42
0.00000001
 43
0.00000001
 40
0.0
 40
0.0
 40
0.0
 40
0.0
 40
0.5
 40
0.5
 40
1.0
 40
1.0
 40
1.0
 40
1.0
 10
97.14042723029029
 20
105.1848959886912
 30
0.0
 10
97.18148106744681
 20
105.1848553592625
 30
0.0
 10
97.22495789782782
 20
105.1844101544143
 30
0.0
 10
97.31401659755217
 20
105.1879357553656
 30
0.0
 10
97.34611996707582
 20
105.1836027713626
 30
0.0
 10
97.38841963000058
 20
105.1836027713626
 30
0.0
  0
SPLINE
  5
25F
330
1F
100
AcDbEntity
  8
0
  6
Continuous
 62
     7
370
    25
100
AcDbSpline
210
0.0
220
0.0
230
1.0
 70
     8
 71
     3
 72
     9
 73
     5
 74
     0
 42
0.00000001
 43
0.00000001
 40
0.0
 40
0.0
 40
0.0
 40
0.0
 40
0.5716350575939019
 40
1.0
 40
1.0
 40
1.0
 40
1.0
 10
115.8197662820533
 20
103.0531679887539
 30
0.0
 10
115.8153068739679
 20
103.0134495830115
 30
0.0
 10
115.8075057287684
 20
102.9439674803749
 30
0.0
 10
115.8043998319351
 20
102.9405013031984
 30
0.0
 10
115.8030693746169
 20
102.9390165144118
 30
0.0
  0
SPLINE
  5
260
330
1F
100
AcDbEntity
  8
0
  6
Continuous
 62
     7
370
    25
100
AcDbSpline
210
0.0
220
0.0
230
1.0
 70
     8
 71
     3
 72
    10
 73
     6
 74
     0
 42
0.00000001
 43
0.00000001
 40
0.0
 40
0.0
 40
0.0
 40
0.0
 40
0.1054683351677822
 40
0.6440627664276093
 40
1.0
 40
1.0
 40
1.0
 40
1.0
 10
115.803069374616
 20
119.4281890283165
 30
0.0
 10
115.8025544323398
 20
119.4298660873537
 30
0.0
 10
115.7994098378371
 20
119.4401073723921
 30
0.0
 10
115.8147884784855
 20
119.4009010412085
 30
0.0
 10
115.8183493850529
 20
119.3387626386057
 30
0.0
 10
115.8197662820533
 20
119.3140375539713
 30
0.0
  0
SPLINE
  5
261
330
1F
100
AcDbEntity
  8
0
  6
Continuous
 62
     7
370
    25
100
AcDbSpline
210
0.0
220
0.0
230
1.0
 70
     8
 71
     3
 72
    10
 73
     6
 74
     0
 42
0.00000001
 43
0.00000001
 40
0.0
 40
0.0
 40
0.0
 40
0.0
 40
0.4024700770723382
 40
0.8012410927199967
 40
1.0
 40
1.0
 40
1.0
 40
1.0
 10
88.27096055088451
 20
116.7763905184682
 30
0.0
 10
88.488708624057
 20
116.83890292988
 30
0.0
 10
88.92220347007267
 20
116.9633532075069
 30
0.0
 10
89.47343274447967
 20
117.0899214219976
 30
0.0
 10
89.8073682509594
 20
117.1264332695745
 30
0.0
 10
89.91844663184568
 20
117.1385783599687
 30
0.0
  0
SPLINE
  5
262
330
1F
100
AcDbEntity
  8
0
  6
Continuous
 62
     7
370
    25
100
AcDbSpline
210
0.0
220
0.0
230
1.0
 70
     8
 71
     3
 72
     9
 73
     5
 74
     0
 42
0.00000001
 43
0.00000001
 40
0.0
 40
0.0
 40
0.0
 40
0.0
 40
0.3473914983184047
 40
1.0
 40
1.0
 40
1.0
 40
1.0
 10
89.961645516425
 20
117.143870720131
 30
0.0
 10
90.01047747154601
 20
117.1505713479314
 30
0.0
 10
90.15104497350677
 20
117.1698597526067
 30
0.0
 10
90.29325803856469
 20
117.1714972559186
 30
0.0
 10
90.3860674938717
 20
117.1725659045015
 30
0.0
  0
SPLINE
  5
263
330
1F
100
AcDbEntity
  8
0
  6
Continuous
 62
     7
370
    25
100
AcDbSpline
210
0.0
220
0.0
230
1.0
 70
     8
 71
     3
 72
    11
 73
     7
 74
     0
 42
0.00000001
 43
0.00000001
 40
0.0
 40
0.0
 40
0.0
 40
0.0
 40
0.3149086365857362
 40
0.6269229800146625
 40
0.8711952145886039
 40
1.0
 40
1.0
 40
1.0
 40
1.0
 10
93.00587870911667
 20
116.7763905184682
 30
0.0
 10
92.78819518418402
 20
116.8395576641538
 30
0.0
 10
92.35482884139171
 20
116.9653113927324
 30
0.0
 10
91.7401834461728
 20
117.0972300813463
 30
0.0
 10
91.25187895607547
 20
117.163102592868
 30
0.0
 10
90.98344763843795
 20
117.1701372055308
 30
0.0
 10
90.89077176612784
 20
117.1725659045016
 30
0.0
  0
SPLINE
  5
264
330
1F
100
AcDbEntity
  8
0
  6
Continuous
 62
     7
370
    25
100
AcDbSpline
210
0.0
220
0.0
230
1.0
 70
     8
 71
     3
 72
    11
 73
     7
 74
     0
 42
0.00000001
 43
0.00000001
 40
0.0
 40
0.0
 40
0.0
 40
0.0
 40
0.3379366417916742
 40
0.6727673423796441
 40
0.9349022254678412
 40
1.0
 40
1.0
 40
1.0
 40
1.0
 10
93.00587870911667
 20
105.590815024257
 30
0.0
 10
92.78820385135705
 20
105.5275486028385
 30
0.0
 10
92.35485476325174
 20
105.4015972352274
 30
0.0
 10
91.74009014042787
 20
105.2710442061887
 30
0.0
 10
91.30063229122082
 20
105.2085488272562
 30
0.0
 10
91.08132803547956
 20
105.2016793424463
 30
0.0
 10
91.03770091373076
 20
105.2003127668222
 30
0.0
  0
SPLINE
  5
265
330
1F
100
AcDbEntity
  8
0
  6
Continuous
 62
     7
370
    25
100
AcDbSpline
210
0.0
220
0.0
230
1.0
 70
     8
 71
     3
 72
    11
 73
     7
 74
     0
 42
0.00000001
 43
0.00000001
 40
0.0
 40
0.0
 40
0.0
 40
0.0
 40
0.3149086365857675
 40
0.6269229800147216
 40
0.8711952145886842
 40
1.0
 40
1.0
 40
1.0
 40
1.0
 10
88.2709605508845
 20
105.590815024257
 30
0.0
 10
88.48864407581716
 20
105.5276478785714
 30
0.0
 10
88.92201041860947
 20
105.4018941499929
 30
0.0
 10
89.53665581382839
 20
105.269975461379
 30
0.0
 10
90.02496030392565
 20
105.2041029498572
 30
0.0
 10
90.2933916215631
 20
105.1970683371945
 30
0.0
 10
90.38606749387316
 20
105.1946396382237
 30
0.0
  0
SPLINE
  5
266
330
1F
100
AcDbEntity
  8
0
  6
Continuous
 62
     7
370
    25
100
AcDbSpline
210
0.0
220
0.0
230
1.0
 70
     8
 71
     3
 72
    11
 73
     7
 74
     0
 42
0.00000001
 43
0.00000001
 40
0.0
 40
0.0
 40
0.0
 40
0.0
 40
0.2830381757875369
 40
0.5687108300574821
 40
0.7928428984459659
 40
0.9999999999999999
 40
0.9999999999999999
 40
0.9999999999999999
 40
0.9999999999999999
 10
88.20318597702975
 20
117.11037946666
 30
0.0
 10
88.42970267980886
 20
117.1110331000728
 30
0.0
 10
88.88484447013785
 20
117.1123464508237
 30
0.0
 10
89.51862411067661
 20
117.1316139118085
 30
0.0
 10
90.09088010408666
 20
117.1701163437894
 30
0.0
 10
90.43565084804614
 20
117.1776237777077
 30
0.0
 10
90.60125136156887
 20
117.181229753371
 30
0.0
  0
SPLINE
  5
267
330
1F
100
AcDbEntity
  8
0
  6
Continuous
 62
     7
370
    25
100
AcDbSpline
210
0.0
220
0.0
230
1.0
 70
     8
 71
     3
 72
    11
 73
     7
 74
     0
 42
0.00000001
 43
0.00000001
 40
0.0
 40
0.0
 40
0.0
 40
0.0
 40
0.3072997123475971
 40
0.6174597260576435
 40
0.8608040026804364
 40
1.0
 40
1.0
 40
1.0
 40
1.0
 10
93.07365328297143
 20
117.11037946666
 30
0.0
 10
92.84713767409242
 20
117.1110654378055
 30
0.0
 10
92.39199808174547
 20
117.1124437650167
 30
0.0
 10
91.75820303454843
 20
117.1312557763671
 30
0.0
 10
91.24900364122709
 20
117.1667201612058
 30
0.0
 10
90.96736178810586
 20
117.1733265977468
 30
0.0
 10
90.86487998082288
 20
117.1757305002525
 30
0.0
  0
SPLINE
  5
268
330
1F
100
AcDbEntity
  8
0
  6
Continuous
 62
     7
370
    25
100
AcDbSpline
210
0.0
220
0.0
230
1.0
 70
     8
 71
     3
 72
    11
 73
     7
 74
     0
 42
0.00000001
 43
0.00000001
 40
0.0
 40
0.0
 40
0.0
 40
0.0
 40
0.3274181875512498
 40
0.6578839363279513
 40
0.9171596167186991
 40
1.0
 40
1.0
 40
1.0
 40
1.0
 10
93.07365328297143
 20
105.2568260760652
 30
0.0
 10
92.84713885299892
 20
105.2561052542384
 30
0.0
 10
92.3920016294381
 20
105.2546569012792
 30
0.0
 10
91.75818997833922
 20
105.2363357323221
 30
0.0
 10
91.29419891761398
 20
105.2028369237667
 30
0.0
 10
91.05781047393872
 20
105.1968635075178
 30
0.0
 10
91.00057110006324
 20
105.1954170975297
 30
0.0
  0
LINE
  5
269
330
1F
100
AcDbEntity
  8
0
  6
Continuous
 62
     7
370
    25
100
AcDbLine
 10
90.9598579491
 20
105.1942343121
 30
0.0
 11
90.8412806074
 21
105.190789441
 31
0.0
  0
SPLINE
  5
26A
330
1F
100
AcDbEntity
  8
0
  6
Continuous
 62
     7
370
    25
100
AcDbSpline
210
0.0
220
0.0
230
1.0
 70
     8
 71
     3
 72
    11
 73
     7
 74
     0
 42
0.00000001
 43
0.00000001
 40
0.0
 40
0.0
 40
0.0
 40
0.0
 40
0.3040504338447781
 40
0.6109309252367482
 40
0.8517021655206061
 40
1.0
 40
1.0
 40
1.0
 40
1.0
 10
88.20318597702975
 20
105.2568260760652
 30
0.0
 10
88.4297017503638
 20
105.2561449665181
 30
0.0
 10
88.88484167315153
 20
105.2547764077547
 30
0.0
 10
89.51863440413841
 20
105.2358959249002
 30
0.0
 10
90.03569568409891
 20
105.2000678738226
 30
0.0
 10
90.32520795684314
 20
105.1933500220042
 30
0.0
 10
90.4355586526143
 20
105.1907894410132
 30
0.0
  0
LINE
  5
26B
330
1F
100
AcDbEntity
  8
0
  6
Continuous
 62
     7
370
    25
100
AcDbLine
 10
90.63841963
 20
105.1836027714
 30
0.0
 11
90.63841963
 21
105.1831334902
 31
0.0
  0
LINE
  5
26C
330
1F
100
AcDbEntity
  8
0
  6
Continuous
 62
     7
370
    25
100
AcDbLine
 10
100.13841963
 20
105.1836027714
 30
0.0
 11
100.13841963
 21
117.1836027714
 31
0.0
  0
SPLINE
  5
26D
330
1F
100
AcDbEntity
  8
0
  6
Continuous
 62
     7
370
    25
100
AcDbSpline
210
0.0
220
0.0
230
1.0
 70
     8
 71
     3
 72
    14
 73
    10
 74
     0
 42
0.00000001
 43
0.00000001
 40
0.0
 40
0.0
 40
0.0
 40
0.0
 40
0.25
 40
0.25
 40
0.5
 40
0.5
 40
0.75
 40
0.75
 40
1.0
 40
1.0
 40
1.0
 40
1.0
 10
97.88841963000058
 20
117.4836027713626
 30
0.0
 10
97.88841963572807
 20
117.483602771575
 30
0.0
 10
97.91321801513428
 20
117.4823633476726
 30
0.0
 10
98.00528529633895
 20
117.4794361537784
 30
0.0
 10
98.07147704038478
 20
117.4780511239697
 30
0.0
 10
98.20568851451137
 20
117.4780432469199
 30
0.0
 10
98.27219999535886
 20
117.4794560916334
 30
0.0
 10
98.36335839544334
 20
117.4823554591579
 30
0.0
 10
98.38841027607543
 20
117.4836029109293
 30
0.0
 10
98.38841962971378
 20
117.4836027713493
 30
0.0
  0
LWPOLYLINE
  5
26E
330
1F
100
AcDbEntity
  8
0
  6
Continuous
 62
     7
370
    25
100
AcDbPolyline
 90
       13
 70
   128
 43
0.0
 10
98.6384163721
 20
117.2336024321
 10
98.6384196298
 20
117.2336027713
 10
98.6094702755
 20
117.2306626163
 10
98.5255025586
 20
117.2231287377
 10
98.3971056726
 20
117.2144559781
 10
98.239495658
 20
117.2085212208
 10
98.0709298311
 20
117.2079321852
 10
97.912112549
 20
117.2128150893
 10
97.7785157376
 20
117.2210150489
 10
97.6848334458
 20
117.2289852847
 10
97.6409819755
 20
117.2333319812
 10
97.63841963
 20
117.2336027714
 10
97.63841963
 20
117.2336027714
  0
INSERT
  5
27A
330
1F
100
AcDbEntity
  8
FORMAT
100
AcDbBlockReference
  2
SW_CENTERMARKSYMBOL_1
 10
90.63841963
 20
111.1836027714
 30
0.0
  0
LINE
  5
27B
330
1F
100
AcDbEntity
  8
FORMAT
100
AcDbLine
 10
108.49441963
 20
105.4611027714
 30
0.0
 11
94.4757682755
 21
105.4611027714
 31
0.0
  0
LINE
  5
27C
330
1F
100
AcDbEntity
  8
FORMAT
100
AcDbLine
 10
108.49441963
 20
116.9061027714
 30
0.0
 11
94.4757682755
 21
116.9061027714
 31
0.0
  0
ARC
  5
27D
330
1F
100
AcDbEntity
  8
FORMAT
100
AcDbCircle
 10
90.63841963
 20
111.1836027714
 30
0.0
 40
4.283000000000004
100
AcDbArc
 50
75.0
 51
345.0
  0
ENDSEC
  0
SECTION
  2
OBJECTS
  0
DICTIONARY
  5
C
330
0
100
AcDbDictionary
281
     1
  3
ACAD_GROUP
350
D
  3
ACAD_LAYOUT
350
1A
  3
ACAD_MLINESTYLE
350
17
  3
ACAD_PLOTSETTINGS
350
19
  3
ACAD_PLOTSTYLENAME
350
E
  3
ACAD_SCALELIST
350
47
  3
DWGPROPS
350
27E
  0
DICTIONARY
  5
D
102
{ACAD_REACTORS
330
C
102
}
330
C
100
AcDbDictionary
281
     1
  0
DICTIONARY
  5
1A
102
{ACAD_REACTORS
330
C
102
}
330
C
100
AcDbDictionary
281
     1
  3
Layout1
350
1E
  3
Layout2
350
26
  3
Model
350
22
  0
DICTIONARY
  5
17
102
{ACAD_REACTORS
330
C
102
}
330
C
100
AcDbDictionary
281
     1
  3
Standard
350
18
  0
DICTIONARY
  5
19
102
{ACAD_REACTORS
330
C
102
}
330
C
100
AcDbDictionary
281
     1
  0
ACDBDICTIONARYWDFLT
  5
E
102
{ACAD_REACTORS
330
C
102
}
330
C
100
AcDbDictionary
281
     1
  3
Normal
350
F
100
AcDbDictionaryWithDefault
340
F
  0
DICTIONARY
  5
47
102
{ACAD_REACTORS
330
C
102
}
330
C
100
AcDbDictionary
281
     1
  3
A0
350
48
  3
A1
350
49
  3
A2
350
4A
  3
A3
350
4B
  3
A4
350
4C
  3
A5
350
4D
  3
A6
350
4E
  3
A7
350
4F
  3
A8
350
50
  3
A9
350
51
  3
B0
350
52
  3
B1
350
53
  3
B2
350
54
  3
B3
350
55
  3
B4
350
56
  3
B5
350
57
  3
B6
350
58
  0
XRECORD
  5
27E
102
{ACAD_REACTORS
330
C
102
}
330
C
100
AcDbXrecord
280
     1
  1
DWGPROPS COOKIE
  2

  3

  4

  6

  7

  8
user28
  9

300
=
301
=
302
=
303
=
304
=
305
=
306
=
307
=
308
=
309
=
 40
0.0
 41
2460376.122708738
 42
2460376.122709722
  1

 90
        0
  0
LAYOUT
  5
1E
102
{ACAD_REACTORS
330
1A
102
}
330
1A
100
AcDbPlotSettings
  1

  2
none_device
  4

  6

 40
0.0
 41
0.0
 42
0.0
 43
0.0
 44
0.0
 45
0.0
 46
0.0
 47
0.0
 48
0.0
 49
0.0
140
0.0
141
0.0
142
1.0
143
1.0
 70
   688
 72
     1
 73
     0
 74
     5
  7

 75
    16
147
1.0
148
0.0
149
0.0
100
AcDbLayout
  1
Layout1
 70
     1
 71
     1
 10
0.0
 20
0.0
 11
420.0
 21
297.0
 12
0.0
 22
0.0
 32
0.0
 14
1.0000000000E+20
 24
1.0000000000E+20
 34
1.0000000000E+20
 15
-1.0000000000E+20
 25
-1.0000000000E+20
 35
-1.0000000000E+20
146
0.0
 13
0.0
 23
0.0
 33
0.0
 16
1.0
 26
0.0
 36
0.0
 17
0.0
 27
1.0
 37
0.0
 76
     0
330
1B
  0
LAYOUT
  5
26
102
{ACAD_REACTORS
330
1A
102
}
330
1A
100
AcDbPlotSettings
  1

  2
none_device
  4

  6

 40
0.0
 41
0.0
 42
0.0
 43
0.0
 44
0.0
 45
0.0
 46
0.0
 47
0.0
 48
0.0
 49
0.0
140
0.0
141
0.0
142
1.0
143
1.0
 70
   688
 72
     1
 73
     0
 74
     5
  7

 75
    16
147
1.0
148
0.0
149
0.0
100
AcDbLayout
  1
Layout2
 70
     1
 71
     2
 10
0.0
 20
0.0
 11
0.0
 21
0.0
 12
0.0
 22
0.0
 32
0.0
 14
0.0
 24
0.0
 34
0.0
 15
0.0
 25
0.0
 35
0.0
146
0.0
 13
0.0
 23
0.0
 33
0.0
 16
1.0
 26
0.0
 36
0.0
 17
0.0
 27
1.0
 37
0.0
 76
     0
330
23
  0
LAYOUT
  5
22
102
{ACAD_REACTORS
330
1A
102
}
330
1A
100
AcDbPlotSettings
  1

  2
none_device
  4
Letter_(8.50_x_11.00_Inches)
  6

 40
6.35
 41
6.35
 42
6.35000508
 43
6.35000508
 44
215.9
 45
279.4
 46
0.0
 47
0.0
 48
0.0
 49
0.0
140
0.0
141
0.0
142
1.0
143
1.0
 70
  1712
 72
     1
 73
     0
 74
     0
  7

 75
     0
147
1.0
148
0.0
149
0.0
100
AcDbLayout
  1
Model
 70
     1
 71
     0
 10
0.0
 20
0.0
 11
297.0
 21
210.0
 12
0.0
 22
0.0
 32
0.0
 14
0.0
 24
0.0
 34
0.0
 15
297.0
 25
210.0
 35
0.0
146
0.0
 13
0.0
 23
0.0
 33
0.0
 16
1.0
 26
0.0
 36
0.0
 17
0.0
 27
1.0
 37
0.0
 76
     0
330
1F
331
29
  0
MLINESTYLE
  5
18
102
{ACAD_REACTORS
330
17
102
}
330
17
100
AcDbMlineStyle
  2
Standard
 70
     0
  3

 62
   256
 51
90.0
 52
90.0
 71
     2
 49
0.5
 62
   256
  6
BYLAYER
 49
-0.5
 62
   256
  6
BYLAYER
  0
ACDBPLACEHOLDER
  5
F
102
{ACAD_REACTORS
330
E
102
}
330
E
  0
SCALE
  5
48
102
{ACAD_REACTORS
330
47
102
}
330
47
100
AcDbScale
 70
     0
300
1:1
140
1.0
141
1.0
290
     1
  0
SCALE
  5
49
102
{ACAD_REACTORS
330
47
102
}
330
47
100
AcDbScale
 70
     0
300
1:2
140
1.0
141
2.0
290
     0
  0
SCALE
  5
4A
102
{ACAD_REACTORS
330
47
102
}
330
47
100
AcDbScale
 70
     0
300
1:4
140
1.0
141
4.0
290
     0
  0
SCALE
  5
4B
102
{ACAD_REACTORS
330
47
102
}
330
47
100
AcDbScale
 70
     0
300
1:5
140
1.0
141
5.0
290
     0
  0
SCALE
  5
4C
102
{ACAD_REACTORS
330
47
102
}
330
47
100
AcDbScale
 70
     0
300
1:8
140
1.0
141
8.0
290
     0
  0
SCALE
  5
4D
102
{ACAD_REACTORS
330
47
102
}
330
47
100
AcDbScale
 70
     0
300
1:10
140
1.0
141
10.0
290
     0
  0
SCALE
  5
4E
102
{ACAD_REACTORS
330
47
102
}
330
47
100
AcDbScale
 70
     0
300
1:16
140
1.0
141
16.0
290
     0
  0
SCALE
  5
4F
102
{ACAD_REACTORS
330
47
102
}
330
47
100
AcDbScale
 70
     0
300
1:20
140
1.0
141
20.0
290
     0
  0
SCALE
  5
50
102
{ACAD_REACTORS
330
47
102
}
330
47
100
AcDbScale
 70
     0
300
1:30
140
1.0
141
30.0
290
     0
  0
SCALE
  5
51
102
{ACAD_REACTORS
330
47
102
}
330
47
100
AcDbScale
 70
     0
300
1:40
140
1.0
141
40.0
290
     0
  0
SCALE
  5
52
102
{ACAD_REACTORS
330
47
102
}
330
47
100
AcDbScale
 70
     0
300
1:50
140
1.0
141
50.0
290
     0
  0
SCALE
  5
53
102
{ACAD_REACTORS
330
47
102
}
330
47
100
AcDbScale
 70
     0
300
1:100
140
1.0
141
100.0
290
     0
  0
SCALE
  5
54
102
{ACAD_REACTORS
330
47
102
}
330
47
100
AcDbScale
 70
     0
300
2:1
140
2.0
141
1.0
290
     0
  0
SCALE
  5
55
102
{ACAD_REACTORS
330
47
102
}
330
47
100
AcDbScale
 70
     0
300
4:1
140
4.0
141
1.0
290
     0
  0
SCALE
  5
56
102
{ACAD_REACTORS
330
47
102
}
330
47
100
AcDbScale
 70
     0
300
8:1
140
8.0
141
1.0
290
     0
  0
SCALE
  5
57
102
{ACAD_REACTORS
330
47
102
}
330
47
100
AcDbScale
 70
     0
300
10:1
140
10.0
141
1.0
290
     0
  0
SCALE
  5
58
102
{ACAD_REACTORS
330
47
102
}
330
47
100
AcDbScale
 70
     0
300
100:1
140
100.0
141
1.0
290
     0
  0
ENDSEC
  0
EOF
