  0
SECTION
  2
HEADER
  9
$ACADVER
  1
AC1015
  9
$ACADMAINTVER
 70
     6
  9
$DWGCODEPAGE
  3
DOS932
  9
$INSBASE
 10
0.0
 20
0.0
 30
0.0
  9
$EXTMIN
 10
0.0
 20
0.0
 30
0.0
  9
$EXTMAX
 10
148.5
 20
105.0
 30
0.0
  9
$LIMMIN
 10
0.0
 20
0.0
  9
$LIMMAX
 10
148.5
 20
105.0
  9
$ORTHOMODE
 70
     0
  9
$REGENMODE
 70
     1
  9
$FILLMODE
 70
     1
  9
$QTEXTMODE
 70
     0
  9
$MIRRTEXT
 70
     1
  9
$LTSCALE
 40
0.5
  9
$ATTMODE
 70
     1
  9
$TEXTSIZE
 40
1.7638888889
  9
$TRACEWID
 40
1.0
  9
$TEXTSTYLE
  7
Standard
  9
$CLAYER
  8
0
  9
$CELTYPE
  6
ByLayer
  9
$CECOLOR
 62
   256
  9
$CELTSCALE
 40
1.0
  9
$DISPSILH
 70
     0
  9
$DIMSCALE
 40
1.0
  9
$DIMASZ
 40
1.3642578125
  9
$DIMEXO
 40
0.5
  9
$DIMDLI
 40
3.75
  9
$DIMRND
 40
0.0
  9
$DIMDLE
 40
0.0
  9
$DIMEXE
 40
0.5
  9
$DIMTP
 40
0.0
  9
$DIMTM
 40
0.0
  9
$DIMTXT
 40
1.7638888889
  9
$DIMCEN
 40
2.5
  9
$DIMTSZ
 40
0.0
  9
$DIMTOL
 70
     0
  9
$DIMLIM
 70
     0
  9
$DIMTIH
 70
     1
  9
$DIMTOH
 70
     1
  9
$DIMSE1
 70
     0
  9
$DIMSE2
 70
     0
  9
$DIMTAD
 70
     1
  9
$DIMZIN
 70
     0
  9
$DIMBLK
  1

  9
$DIMASO
 70
     1
  9
$DIMSHO
 70
     1
  9
$DIMPOST
  1

  9
$DIMAPOST
  1

  9
$DIMALT
 70
     0
  9
$DIMALTD
 70
     3
  9
$DIMALTF
 40
0.0393700787
  9
$DIMLFAC
 40
1.0
  9
$DIMTOFL
 70
     1
  9
$DIMTVP
 40
0.0
  9
$DIMTIX
 70
     0
  9
$DIMSOXD
 70
     0
  9
$DIMSAH
 70
     0
  9
$DIMBLK1
  1

  9
$DIMBLK2
  1

  9
$DIMSTYLE
  2
ISO-25
  9
$DIMCLRD
 70
     0
  9
$DIMCLRE
 70
     0
  9
$DIMCLRT
 70
     0
  9
$DIMTFAC
 40
1.0
  9
$DIMGAP
 40
0.762
  9
$DIMJUST
 70
     0
  9
$DIMSD1
 70
     0
  9
$DIMSD2
 70
     0
  9
$DIMTOLJ
 70
     0
  9
$DIMTZIN
 70
     0
  9
$DIMALTZ
 70
     0
  9
$DIMALTTZ
 70
     0
  9
$DIMUPT
 70
     0
  9
$DIMDEC
 70
     2
  9
$DIMTDEC
 70
     2
  9
$DIMALTU
 70
     2
  9
$DIMALTTD
 70
     3
  9
$DIMTXSTY
  7
Standard
  9
$DIMAUNIT
 70
     0
  9
$DIMADEC
 70
     2
  9
$DIMALTRND
 40
0.0
  9
$DIMAZIN
 70
     0
  9
$DIMDSEP
 70
    44
  9
$DIMATFIT
 70
     3
  9
$DIMFRAC
 70
     0
  9
$DIMLDRBLK
  1

  9
$DIMLUNIT
 70
     2
  9
$DIMLWD
 70
    -2
  9
$DIMLWE
 70
    -2
  9
$DIMTMOVE
 70
     0
  9
$LUNITS
 70
     2
  9
$LUPREC
 70
     2
  9
$SKETCHINC
 40
1.0
  9
$FILLETRAD
 40
0.0
  9
$AUNITS
 70
     0
  9
$AUPREC
 70
     2
  9
$MENU
  1
.
  9
$ELEVATION
 40
0.0
  9
$PELEVATION
 40
0.0
  9
$THICKNESS
 40
0.0
  9
$LIMCHECK
 70
     0
  9
$CHAMFERA
 40
0.0
  9
$CHAMFERB
 40
0.0
  9
$CHAMFERC
 40
0.0
  9
$CHAMFERD
 40
0.0
  9
$SKPOLY
 70
     0
  9
$TDCREATE
 40
2460376.487453947
  9
$TDUCREATE
 40
2460376.112453947
  9
$TDUPDATE
 40
2460376.487454942
  9
$TDUUPDATE
 40
2460376.112454942
  9
$TDINDWG
 40
0.0000000116
  9
$TDUSRTIMER
 40
0.0000000116
  9
$USRTIMER
 70
     1
  9
$ANGBASE
 50
0.0
  9
$ANGDIR
 70
     0
  9
$PDMODE
 70
     0
  9
$PDSIZE
 40
-1.0
  9
$PLINEWID
 40
0.0
  9
$SPLFRAME
 70
     0
  9
$SPLINETYPE
 70
     6
  9
$SPLINESEGS
 70
     8
  9
$HANDSEED
  5
202
  9
$SURFTAB1
 70
     6
  9
$SURFTAB2
 70
     6
  9
$SURFTYPE
 70
     6
  9
$SURFU
 70
     6
  9
$SURFV
 70
     6
  9
$UCSBASE
  2

  9
$UCSNAME
  2

  9
$UCSORG
 10
0.0
 20
0.0
 30
0.0
  9
$UCSXDIR
 10
1.0
 20
0.0
 30
0.0
  9
$UCSYDIR
 10
0.0
 20
1.0
 30
0.0
  9
$UCSORTHOREF
  2

  9
$UCSORTHOVIEW
 70
     0
  9
$UCSORGTOP
 10
0.0
 20
0.0
 30
0.0
  9
$UCSORGBOTTOM
 10
0.0
 20
0.0
 30
0.0
  9
$UCSORGLEFT
 10
0.0
 20
0.0
 30
0.0
  9
$UCSORGRIGHT
 10
0.0
 20
0.0
 30
0.0
  9
$UCSORGFRONT
 10
0.0
 20
0.0
 30
0.0
  9
$UCSORGBACK
 10
0.0
 20
0.0
 30
0.0
  9
$PUCSBASE
  2

  9
$PUCSNAME
  2

  9
$PUCSORG
 10
0.0
 20
0.0
 30
0.0
  9
$PUCSXDIR
 10
1.0
 20
0.0
 30
0.0
  9
$PUCSYDIR
 10
0.0
 20
1.0
 30
0.0
  9
$PUCSORTHOREF
  2

  9
$PUCSORTHOVIEW
 70
     0
  9
$PUCSORGTOP
 10
0.0
 20
0.0
 30
0.0
  9
$PUCSORGBOTTOM
 10
0.0
 20
0.0
 30
0.0
  9
$PUCSORGLEFT
 10
0.0
 20
0.0
 30
0.0
  9
$PUCSORGRIGHT
 10
0.0
 20
0.0
 30
0.0
  9
$PUCSORGFRONT
 10
0.0
 20
0.0
 30
0.0
  9
$PUCSORGBACK
 10
0.0
 20
0.0
 30
0.0
  9
$USERI1
 70
     0
  9
$USERI2
 70
     0
  9
$USERI3
 70
     0
  9
$USERI4
 70
     0
  9
$USERI5
 70
     0
  9
$USERR1
 40
0.0
  9
$USERR2
 40
0.0
  9
$USERR3
 40
0.0
  9
$USERR4
 40
0.0
  9
$USERR5
 40
0.0
  9
$WORLDVIEW
 70
     1
  9
$SHADEDGE
 70
     3
  9
$SHADEDIF
 70
    70
  9
$TILEMODE
 70
     1
  9
$MAXACTVP
 70
    64
  9
$PINSBASE
 10
0.0
 20
0.0
 30
0.0
  9
$PLIMCHECK
 70
     0
  9
$PEXTMIN
 10
1.0000000000E+20
 20
1.0000000000E+20
 30
1.0000000000E+20
  9
$PEXTMAX
 10
-1.0000000000E+20
 20
-1.0000000000E+20
 30
-1.0000000000E+20
  9
$PLIMMIN
 10
0.0
 20
0.0
  9
$PLIMMAX
 10
420.0
 20
297.0
  9
$UNITMODE
 70
     0
  9
$VISRETAIN
 70
     1
  9
$PLINEGEN
 70
     0
  9
$PSLTSCALE
 70
     1
  9
$TREEDEPTH
 70
  3020
  9
$CMLSTYLE
  2
Standard
  9
$CMLJUST
 70
     0
  9
$CMLSCALE
 40
20.0
  9
$PROXYGRAPHICS
 70
     1
  9
$MEASUREMENT
 70
     1
  9
$CELWEIGHT
370
    -1
  9
$ENDCAPS
280
     0
  9
$JOINSTYLE
280
     0
  9
$LWDISPLAY
290
     1
  9
$INSUNITS
 70
     4
  9
$HYPERLINKBASE
  1

  9
$STYLESHEET
  1

  9
$XEDIT
290
     1
  9
$CEPSNTYPE
380
     0
  9
$PSTYLEMODE
290
     1
  9
$FINGERPRINTGUID
  2
{d27fc470-9d1a-4e1c-af51-2db567bbba64}
  9
$VERSIONGUID
  2
{FAEB1C32-E019-11D5-929B-00C0DF256EC4}
  9
$EXTNAMES
290
     1
  9
$PSVPSCALE
 40
0.0
  9
$OLESTARTUP
290
     0
  0
ENDSEC
  0
SECTION
  2
CLASSES
  0
CLASS
  1
ACDBDICTIONARYWDFLT
  2
AcDbDictionaryWithDefault
  3
ObjectDBX Classes
 90
        0
280
     0
281
     0
  0
CLASS
  1
VISUALSTYLE
  2
AcDbVisualStyle
  3
ObjectDBX Classes
 90
     4095
280
     0
281
     0
  0
CLASS
  1
MATERIAL
  2
AcDbMaterial
  3
ObjectDBX Classes
 90
     1153
280
     0
281
     0
  0
CLASS
  1
SCALE
  2
AcDbScale
  3
ObjectDBX Classes
 90
     1153
280
     0
281
     0
  0
CLASS
  1
TABLESTYLE
  2
AcDbTableStyle
  3
ObjectDBX Classes
 90
     4095
280
     0
281
     0
  0
CLASS
  1
MLEADERSTYLE
  2
AcDbMLeaderStyle
  3
ACDB_MLEADERSTYLE_CLASS
 90
     4095
280
     0
281
     0
  0
CLASS
  1
SUN
  2
AcDbSun
  3
SCENEOE
 90
     1153
280
     0
281
     0
  0
CLASS
  1
ACDBPLACEHOLDER
  2
AcDbPlaceHolder
  3
ObjectDBX Classes
 90
        0
280
     0
281
     0
  0
CLASS
  1
LAYOUT
  2
AcDbLayout
  3
ObjectDBX Classes
 90
        0
280
     0
281
     0
  0
ENDSEC
  0
SECTION
  2
TABLES
  0
TABLE
  2
VPORT
  5
8
330
0
100
AcDbSymbolTable
 70
     1
  0
VPORT
  5
29
330
8
100
AcDbSymbolTableRecord
100
AcDbViewportTableRecord
  2
*Active
 70
     0
 10
0.0
 20
0.0
 11
1.0
 21
1.0
 12
74.25
 22
52.5
 13
0.0
 23
0.0
 14
10.0
 24
10.0
 15
10.0
 25
10.0
 16
0.0
 26
0.0
 36
1.0
 17
0.0
 27
0.0
 37
0.0
 40
105.0
 41
1.4142857143
 42
50.0
 43
0.0
 44
0.0
 50
0.0
 51
0.0
 71
     0
 72
  2000
 73
     1
 74
     3
 75
     0
 76
     0
 77
     0
 78
     0
281
     0
 65
     1
110
0.0
120
0.0
130
0.0
111
1.0
121
0.0
131
0.0
112
0.0
122
1.0
132
0.0
 79
     0
146
0.0
  0
ENDTAB
  0
TABLE
  2
LTYPE
  5
5
330
0
100
AcDbSymbolTable
 70
     6
  0
LTYPE
  5
14
330
5
100
AcDbSymbolTableRecord
100
AcDbLinetypeTableRecord
  2
ByBlock
 70
     0
  3

 72
    65
 73
     0
 40
0.0
  0
LTYPE
  5
15
330
5
100
AcDbSymbolTableRecord
100
AcDbLinetypeTableRecord
  2
ByLayer
 70
     0
  3

 72
    65
 73
     0
 40
0.0
  0
LTYPE
  5
16
330
5
100
AcDbSymbolTableRecord
100
AcDbLinetypeTableRecord
  2
Continuous
 70
     0
  3
Solid line
 72
    65
 73
     0
 40
0.0
  0
LTYPE
  5
5E
330
5
100
AcDbSymbolTableRecord
100
AcDbLinetypeTableRecord
  2
HIDDEN
 70
     0
  3
Hidden __ __ __ __ __ __ __ __ __ __ __ __ __ __
 72
    65
 73
     2
 40
1.905
 49
1.27
 74
     0
 49
-0.635
 74
     0
  0
LTYPE
  5
5F
330
5
100
AcDbSymbolTableRecord
100
AcDbLinetypeTableRecord
  2
PHANTOM
 70
     0
  3
Phantom ______  __  __  ______  __  __  ______
 72
    65
 73
     6
 40
12.7
 49
6.35
 74
     0
 49
-1.27
 74
     0
 49
1.27
 74
     0
 49
-1.27
 74
     0
 49
1.27
 74
     0
 49
-1.27
 74
     0
  0
LTYPE
  5
60
330
5
100
AcDbSymbolTableRecord
100
AcDbLinetypeTableRecord
  2
CENTER
 70
     0
  3
Center ____ _ ____ _ ____ _ ____ _ ____ _ ____
 72
    65
 73
     4
 40
10.16
 49
6.35
 74
     0
 49
-1.27
 74
     0
 49
1.27
 74
     0
 49
-1.27
 74
     0
  0
LTYPE
  5
61
330
5
100
AcDbSymbolTableRecord
100
AcDbLinetypeTableRecord
  2
CENTERX2
 70
     0
  3
Center (2x) ________  __  ________  __  _____
 72
    65
 73
     4
 40
20.32
 49
12.7
 74
     0
 49
-2.54
 74
     0
 49
2.54
 74
     0
 49
-2.54
 74
     0
  0
LTYPE
  5
62
330
5
100
AcDbSymbolTableRecord
100
AcDbLinetypeTableRecord
  2
DOT2
 70
     0
  3
Dot (.5x) ........................................
 72
    65
 73
     2
 40
0.635
 49
0.0
 74
     0
 49
-0.635
 74
     0
  0
ENDTAB
  0
TABLE
  2
LAYER
  5
2
330
0
100
AcDbSymbolTable
 70
     2
  0
LAYER
  5
10
330
2
100
AcDbSymbolTableRecord
100
AcDbLayerTableRecord
  2
0
 70
     0
 62
     7
  6
Continuous
370
    -3
390
F
  0
LAYER
  5
63
330
2
100
AcDbSymbolTableRecord
100
AcDbLayerTableRecord
  2
FORMAT
 70
     0
 62
     7
  6
Continuous
370
    -3
390
F
  0
ENDTAB
  0
TABLE
  2
STYLE
  5
3
330
0
100
AcDbSymbolTable
 70
     2
  0
STYLE
  5
11
330
3
100
AcDbSymbolTableRecord
100
AcDbTextStyleTableRecord
  2
Standard
 70
     0
 40
0.0
 41
1.0
 50
0.0
 71
     0
 42
1.7638888889
  3
txt
  4
bigfont
  0
STYLE
  5
64
330
3
100
AcDbSymbolTableRecord
100
AcDbTextStyleTableRecord
  2
SLDTEXTSTYLE0
 70
     0
 40
0.0
 41
0.7
 50
0.0
 71
     0
 42
1.7638888889
  3
TXT
  4
bigfont
  0
ENDTAB
  0
TABLE
  2
VIEW
  5
6
330
0
100
AcDbSymbolTable
 70
     0
  0
ENDTAB
  0
TABLE
  2
UCS
  5
7
330
0
100
AcDbSymbolTable
 70
     0
  0
ENDTAB
  0
TABLE
  2
APPID
  5
9
330
0
100
AcDbSymbolTable
 70
     1
  0
APPID
  5
12
330
9
100
AcDbSymbolTableRecord
100
AcDbRegAppTableRecord
  2
ACAD
 70
     0
  0
ENDTAB
  0
TABLE
  2
DIMSTYLE
  5
A
330
0
100
AcDbSymbolTable
 70
     1
100
AcDbDimStyleTable
  0
DIMSTYLE
105
27
330
A
100
AcDbSymbolTableRecord
100
AcDbDimStyleTableRecord
  2
ISO-25
 70
     0
 41
2.5
 42
0.625
 43
3.75
 44
1.25
 73
     0
 74
     0
 77
     1
 78
     8
140
2.5
141
2.5
143
0.0393700787
147
0.625
171
     3
172
     1
178
     0
271
     2
272
     2
274
     3
278
    44
283
     0
284
     8
340
11
  0
ENDTAB
  0
TABLE
  2
BLOCK_RECORD
  5
1
330
0
100
AcDbSymbolTable
 70
     3
  0
BLOCK_RECORD
  5
1F
330
1
100
AcDbSymbolTableRecord
100
AcDbBlockTableRecord
  2
*Model_Space
340
22
  0
BLOCK_RECORD
  5
1B
330
1
100
AcDbSymbolTableRecord
100
AcDbBlockTableRecord
  2
*Paper_Space
340
1E
  0
BLOCK_RECORD
  5
23
330
1
100
AcDbSymbolTableRecord
100
AcDbBlockTableRecord
  2
*Paper_Space0
340
26
  0
BLOCK_RECORD
  5
16A
330
1
100
AcDbSymbolTableRecord
100
AcDbBlockTableRecord
  2
SW_CENTERMARKSYMBOL_0
340
0
102
{BLKREFS
331
175
102
}
  0
BLOCK_RECORD
  5
1F1
330
1
100
AcDbSymbolTableRecord
100
AcDbBlockTableRecord
  2
SW_CENTERMARKSYMBOL_1
340
0
102
{BLKREFS
331
1FC
102
}
  0
ENDTAB
  0
ENDSEC
  0
SECTION
  2
BLOCKS
  0
BLOCK
  5
20
330
1F
100
AcDbEntity
  8
0
100
AcDbBlockBegin
  2
*Model_Space
 70
     0
 10
0.0
 20
0.0
 30
0.0
  3
*Model_Space
  1

  0
ENDBLK
  5
21
330
1F
100
AcDbEntity
  8
0
100
AcDbBlockEnd
  0
BLOCK
  5
1C
330
1B
100
AcDbEntity
 67
     1
  8
0
100
AcDbBlockBegin
  2
*Paper_Space
 70
     0
 10
0.0
 20
0.0
 30
0.0
  3
*Paper_Space
  1

  0
ENDBLK
  5
1D
330
1B
100
AcDbEntity
 67
     1
  8
0
100
AcDbBlockEnd
  0
BLOCK
  5
24
330
23
100
AcDbEntity
  8
0
100
AcDbBlockBegin
  2
*Paper_Space0
 70
     0
 10
0.0
 20
0.0
 30
0.0
  3
*Paper_Space0
  1

  0
ENDBLK
  5
25
330
23
100
AcDbEntity
  8
0
100
AcDbBlockEnd
  0
BLOCK
  5
16B
330
16A
100
AcDbEntity
  8
0
100
AcDbBlockBegin
  2
SW_CENTERMARKSYMBOL_0
 70
     0
 10
0.0
 20
0.0
 30
0.0
  3
SW_CENTERMARKSYMBOL_0
  1

  0
LINE
  5
16D
330
16A
100
AcDbEntity
  8
FORMAT
 62
     0
100
AcDbLine
 10
0.0
 20
0.0
 30
0.0
 11
0.0
 21
2.5
 31
0.0
  0
LINE
  5
16E
330
16A
100
AcDbEntity
  8
FORMAT
 62
     0
100
AcDbLine
 10
0.0
 20
0.0
 30
0.0
 11
-2.5
 21
0.0
 31
0.0
  0
LINE
  5
16F
330
16A
100
AcDbEntity
  8
FORMAT
 62
     0
100
AcDbLine
 10
0.0
 20
0.0
 30
0.0
 11
0.0
 21
-2.5
 31
0.0
  0
LINE
  5
170
330
16A
100
AcDbEntity
  8
FORMAT
 62
     0
100
AcDbLine
 10
0.0
 20
0.0
 30
0.0
 11
2.5
 21
0.0
 31
0.0
  0
LINE
  5
171
330
16A
100
AcDbEntity
  8
FORMAT
 62
     0
100
AcDbLine
 10
0.0
 20
5.0
 30
0.0
 11
0.0
 21
17.9537246588
 31
0.0
  0
LINE
  5
172
330
16A
100
AcDbEntity
  8
FORMAT
 62
     0
100
AcDbLine
 10
-5.0
 20
0.0
 30
0.0
 11
-8.25
 21
0.0
 31
0.0
  0
LINE
  5
173
330
16A
100
AcDbEntity
  8
FORMAT
 62
     0
100
AcDbLine
 10
0.0
 20
-5.0
 30
0.0
 11
0.0
 21
-8.25
 31
0.0
  0
LINE
  5
174
330
16A
100
AcDbEntity
  8
FORMAT
 62
     0
100
AcDbLine
 10
5.0
 20
0.0
 30
0.0
 11
8.25
 21
0.0
 31
0.0
  0
ENDBLK
  5
16C
330
16A
100
AcDbEntity
  8
0
100
AcDbBlockEnd
  0
BLOCK
  5
1F2
330
1F1
100
AcDbEntity
  8
0
100
AcDbBlockBegin
  2
SW_CENTERMARKSYMBOL_1
 70
     0
 10
0.0
 20
0.0
 30
0.0
  3
SW_CENTERMARKSYMBOL_1
  1

  0
LINE
  5
1F4
330
1F1
100
AcDbEntity
  8
FORMAT
 62
     0
100
AcDbLine
 10
0.0
 20
0.0
 30
0.0
 11
0.0
 21
2.5
 31
0.0
  0
LINE
  5
1F5
330
1F1
100
AcDbEntity
  8
FORMAT
 62
     0
100
AcDbLine
 10
0.0
 20
0.0
 30
0.0
 11
-2.5
 21
0.0
 31
0.0
  0
LINE
  5
1F6
330
1F1
100
AcDbEntity
  8
FORMAT
 62
     0
100
AcDbLine
 10
0.0
 20
0.0
 30
0.0
 11
0.0
 21
-2.5
 31
0.0
  0
LINE
  5
1F7
330
1F1
100
AcDbEntity
  8
FORMAT
 62
     0
100
AcDbLine
 10
0.0
 20
0.0
 30
0.0
 11
2.5
 21
0.0
 31
0.0
  0
LINE
  5
1F8
330
1F1
100
AcDbEntity
  8
FORMAT
 62
     0
100
AcDbLine
 10
0.0
 20
5.0
 30
0.0
 11
0.0
 21
7.5403603505
 31
0.0
  0
LINE
  5
1F9
330
1F1
100
AcDbEntity
  8
FORMAT
 62
     0
100
AcDbLine
 10
-5.0
 20
0.0
 30
0.0
 11
-7.5403603505
 21
0.0
 31
0.0
  0
LINE
  5
1FA
330
1F1
100
AcDbEntity
  8
FORMAT
 62
     0
100
AcDbLine
 10
0.0
 20
-5.0
 30
0.0
 11
0.0
 21
-7.5403603505
 31
0.0
  0
LINE
  5
1FB
330
1F1
100
AcDbEntity
  8
FORMAT
 62
     0
100
AcDbLine
 10
5.0
 20
0.0
 30
0.0
 11
20.5923655627
 21
0.0
 31
0.0
  0
ENDBLK
  5
1F3
330
1F1
100
AcDbEntity
  8
0
100
AcDbBlockEnd
  0
ENDSEC
  0
SECTION
  2
ENTITIES
  0
MTEXT
  5
65
330
1F
100
AcDbEntity
  8
FORMAT
100
AcDbMText
 10
62.8534346742
 20
48.7032165722
 30
0.0
 40
1.8520833333
 41
0.0
 71
     2
 72
     1
  1
5R-RL1106
  7
SLDTEXTSTYLE0
 73
     1
 44
1.0
  0
LINE
  5
66
330
1F
100
AcDbEntity
  8
0
  6
Continuous
 62
     7
370
    25
100
AcDbLine
 10
47.2616500771
 20
33.1207113119
 30
0.0
 11
46.5814141249
 21
31.9425080817
 31
0.0
  0
LINE
  5
67
330
1F
100
AcDbEntity
  8
0
  6
Continuous
 62
     7
370
    25
100
AcDbLine
 10
46.5814141249
 20
20.4425080817
 30
0.0
 11
47.2616500771
 21
19.2643048514
 31
0.0
  0
LINE
  5
68
330
1F
100
AcDbEntity
  8
0
  6
Continuous
 62
     7
370
    25
100
AcDbLine
 10
56.9011781728
 20
19.2643048514
 30
0.0
 11
57.5814141249
 21
20.4425080817
 31
0.0
  0
LINE
  5
69
330
1F
100
AcDbEntity
  8
0
  6
Continuous
 62
     7
370
    25
100
AcDbLine
 10
57.5814141249
 20
31.9425080817
 30
0.0
 11
56.9011781728
 21
33.1207113119
 31
0.0
  0
ARC
  5
6A
330
1F
100
AcDbEntity
  8
0
  6
Continuous
 62
     7
370
    25
100
AcDbCircle
 10
32.8830801748
 20
34.4925080817
 30
0.0
 40
0.3000000000000043
100
AcDbArc
 50
252.4702376396
 51
270.0
  0
ARC
  5
6B
330
1F
100
AcDbEntity
  8
0
  6
Continuous
 62
     7
370
    25
100
AcDbCircle
 10
42.7830801748
 20
34.4925080817
 30
0.0
 40
0.3000000000000043
100
AcDbArc
 50
270.0
 51
287.5297623604
  0
LINE
  5
6C
330
1F
100
AcDbEntity
  8
0
  6
Continuous
 62
     7
370
    25
100
AcDbLine
 10
42.8734405253
 20
34.2064398956
 30
0.0
 11
42.6360900806
 21
41.8016541258
 31
0.0
  0
LINE
  5
6D
330
1F
100
AcDbEntity
  8
0
  6
Continuous
 62
     7
370
    25
100
AcDbLine
 10
33.030070269
 20
41.8016541258
 30
0.0
 11
32.7927198243
 21
34.2064398956
 31
0.0
  0
LINE
  5
6E
330
1F
100
AcDbEntity
  8
0
  6
Continuous
 62
     7
370
    25
100
AcDbLine
 10
46.5814141249
 20
31.0565080817
 30
0.0
 11
45.8330801748
 21
31.0565080817
 31
0.0
  0
LINE
  5
6F
330
1F
100
AcDbEntity
  8
0
  6
Continuous
 62
     7
370
    25
100
AcDbLine
 10
45.8330801748
 20
21.3285080817
 30
0.0
 11
46.5814141249
 21
21.3285080817
 31
0.0
  0
LINE
  5
70
330
1F
100
AcDbEntity
  8
0
  6
Continuous
 62
     7
370
    25
100
AcDbLine
 10
42.6360900806
 20
41.8016541258
 30
0.0
 11
41.8330801748
 21
43.1925080817
 31
0.0
  0
LINE
  5
71
330
1F
100
AcDbEntity
  8
0
  6
Continuous
 62
     7
370
    25
100
AcDbLine
 10
33.8330801748
 20
43.1925080817
 30
0.0
 11
33.030070269
 21
41.8016541258
 31
0.0
  0
ARC
  5
72
330
1F
100
AcDbEntity
  8
0
  6
Continuous
 62
     7
370
    25
100
AcDbCircle
 10
45.5330801748
 20
30.9925080817
 30
0.0
 40
0.3000000000000043
100
AcDbArc
 50
270.0
 51
0.0
  0
ARC
  5
73
330
1F
100
AcDbEntity
  8
0
  6
Continuous
 62
     7
370
    25
100
AcDbCircle
 10
45.5330801748
 20
21.3925080817
 30
0.0
 40
0.3000000000000043
100
AcDbArc
 50
0.0
 51
90.0
  0
ARC
  5
74
330
1F
100
AcDbEntity
  8
0
  6
Continuous
 62
     7
370
    25
100
AcDbCircle
 10
33.0330801748
 20
33.8925080817
 30
0.0
 40
0.2999999999999972
100
AcDbArc
 50
0.0
 51
90.0
  0
ARC
  5
75
330
1F
100
AcDbEntity
  8
0
  6
Continuous
 62
     7
370
    25
100
AcDbCircle
 10
42.6330801748
 20
33.8925080817
 30
0.0
 40
0.3000000000000043
100
AcDbArc
 50
90.0
 51
180.0
  0
LINE
  5
76
330
1F
100
AcDbEntity
  8
0
  6
Continuous
 62
     7
370
    25
100
AcDbLine
 10
42.3330801748
 20
30.6925080817
 30
0.0
 11
42.3330801748
 21
33.8925080817
 31
0.0
  0
LINE
  5
77
330
1F
100
AcDbEntity
  8
0
  6
Continuous
 62
     7
370
    25
100
AcDbLine
 10
33.3330801748
 20
33.8925080817
 30
0.0
 11
33.3330801748
 21
23.6925080817
 31
0.0
  0
LINE
  5
78
330
1F
100
AcDbEntity
  8
0
  6
Continuous
 62
     7
370
    25
100
AcDbLine
 10
35.3330801748
 20
21.6925080817
 30
0.0
 11
45.5330801748
 21
21.6925080817
 31
0.0
  0
LINE
  5
79
330
1F
100
AcDbEntity
  8
0
  6
Continuous
 62
     7
370
    25
100
AcDbLine
 10
45.5330801748
 20
30.6925080817
 30
0.0
 11
42.3330801748
 21
30.6925080817
 31
0.0
  0
ARC
  5
7A
330
1F
100
AcDbEntity
  8
0
  6
Continuous
 62
     7
370
    25
100
AcDbCircle
 10
35.3330801748
 20
23.6925080817
 30
0.0
 40
2.000000000000001
100
AcDbArc
 50
179.9605646804
 51
270.0386826634
  0
SPLINE
  5
7B
330
1F
100
AcDbEntity
  8
0
  6
Continuous
 62
     7
370
    25
100
AcDbSpline
210
0.0
220
0.0
230
1.0
 70
     8
 71
     3
 72
    16
 73
    12
 74
     0
 42
0.00000001
 43
0.00000001
 40
0.0
 40
0.0
 40
0.0
 40
0.0
 40
0.1130223886251224
 40
0.2387024512201666
 40
0.3643500542235876
 40
0.4930894900811556
 40
0.6218274355442568
 40
0.7158584889512427
 40
0.8098993986606198
 40
0.9049449862565127
 40
1.0
 40
1.0
 40
1.0
 40
1.0
 10
47.26165007708422
 20
22.72840646651273
 30
0.0
 10
47.1913930343075
 20
22.98393929664975
 30
0.0
 10
47.04301067811868
 20
23.52362274930839
 30
0.0
 10
46.87350734738148
 20
24.36159823276769
 30
0.0
 10
46.75591646453752
 20
25.24561683870718
 30
0.0
 10
46.71328373437836
 20
26.14393559745586
 30
0.0
 10
46.7448490836551
 20
26.96843130115885
 30
0.0
 10
46.82815311900329
 20
27.70688952161456
 30
0.0
 10
46.93971211117415
 20
28.3614455955699
 30
0.0
 10
47.0830961831108
 20
29.01230159342565
 30
0.0
 10
47.20213014499147
 20
29.44183322955168
 30
0.0
 10
47.26165007708422
 20
29.65660969678826
 30
0.0
  0
SPLINE
  5
7C
330
1F
100
AcDbEntity
  8
0
  6
Continuous
 62
     7
370
    25
100
AcDbSpline
210
0.0
220
0.0
230
1.0
 70
     8
 71
     3
 72
    15
 73
    11
 74
     0
 42
0.00000001
 43
0.00000001
 40
0.0
 40
0.0
 40
0.0
 40
0.0
 40
0.1323034284088744
 40
0.2645694515465796
 40
0.3997942148562053
 40
0.5349945762150087
 40
0.6501872613016996
 40
0.7653979157221117
 40
0.8826876171264815
 40
1.0
 40
1.0
 40
1.0
 40
1.0
 10
47.26165007708422
 20
19.26430485137498
 30
0.0
 10
47.18007232672808
 20
19.41396576709653
 30
0.0
 10
47.01693988995231
 20
19.71324528590116
 30
0.0
 10
46.84141445229533
 20
20.17410902076266
 30
0.0
 10
46.73587396120414
 20
20.64365997191731
 30
0.0
 10
46.7149686908062
 20
21.09620615268443
 30
0.0
 10
46.7691920719595
 20
21.52430810330473
 30
0.0
 10
46.88030408733241
 20
21.92833567085533
 30
0.0
 10
47.04329543871084
 20
22.33053657619984
 30
0.0
 10
47.18886050652063
 20
22.59577462195105
 30
0.0
 10
47.26165007708422
 20
22.72840646651273
 30
0.0
  0
SPLINE
  5
7D
330
1F
100
AcDbEntity
  8
0
  6
Continuous
 62
     7
370
    25
100
AcDbSpline
210
0.0
220
0.0
230
1.0
 70
     8
 71
     3
 72
    15
 73
    11
 74
     0
 42
0.00000001
 43
0.00000001
 40
0.0
 40
0.0
 40
0.0
 40
0.0
 40
0.132303428408876
 40
0.264569451546583
 40
0.3997942148562105
 40
0.5349945762150156
 40
0.6501872613017048
 40
0.7653979157221155
 40
0.8826876171264834
 40
1.0
 40
1.0
 40
1.0
 40
1.0
 10
47.26165007708422
 20
29.65660969678826
 30
0.0
 10
47.18007232672808
 20
29.80627061250982
 30
0.0
 10
47.01693988995232
 20
30.10555013131445
 30
0.0
 10
46.84141445229533
 20
30.56641386617596
 30
0.0
 10
46.73587396120415
 20
31.0359648173306
 30
0.0
 10
46.71496869080622
 20
31.48851099809773
 30
0.0
 10
46.76919207195952
 20
31.91661294871803
 30
0.0
 10
46.88030408733242
 20
32.32064051626863
 30
0.0
 10
47.04329543871085
 20
32.72284142161313
 30
0.0
 10
47.18886050652063
 20
32.98807946736434
 30
0.0
 10
47.26165007708422
 20
33.12071131192601
 30
0.0
  0
LINE
  5
7E
330
1F
100
AcDbEntity
  8
0
  6
Continuous
 62
     7
370
    25
100
AcDbLine
 10
46.5814141249
 20
26.1925080817
 30
0.0
 11
46.5814141249
 21
31.9425080817
 31
0.0
  0
LINE
  5
7F
330
1F
100
AcDbEntity
  8
0
  6
Continuous
 62
     7
370
    25
100
AcDbLine
 10
46.5814141249
 20
20.4425080817
 30
0.0
 11
46.5814141249
 21
26.1925080817
 31
0.0
  0
SPLINE
  5
80
330
1F
100
AcDbEntity
  8
0
  6
Continuous
 62
     7
370
    25
100
AcDbSpline
210
0.0
220
0.0
230
1.0
 70
     8
 71
     3
 72
    15
 73
    11
 74
     0
 42
0.00000001
 43
0.00000001
 40
0.0
 40
0.0
 40
0.0
 40
0.0
 40
0.1323034284088761
 40
0.2645694515465831
 40
0.3997942148562106
 40
0.5349945762150157
 40
0.6501872613017049
 40
0.7653979157221156
 40
0.8826876171264835
 40
1.0
 40
1.0
 40
1.0
 40
1.0
 10
56.90117817276491
 20
29.65660969678826
 30
0.0
 10
56.98275592312105
 20
29.80627061250982
 30
0.0
 10
57.14588835989681
 20
30.10555013131445
 30
0.0
 10
57.32141379755382
 20
30.56641386617596
 30
0.0
 10
57.42695428864497
 20
31.0359648173306
 30
0.0
 10
57.44785955904291
 20
31.48851099809773
 30
0.0
 10
57.39363617788962
 20
31.91661294871803
 30
0.0
 10
57.28252416251672
 20
32.32064051626863
 30
0.0
 10
57.11953281113829
 20
32.72284142161313
 30
0.0
 10
56.97396774332851
 20
32.98807946736434
 30
0.0
 10
56.90117817276492
 20
33.12071131192601
 30
0.0
  0
SPLINE
  5
81
330
1F
100
AcDbEntity
  8
0
  6
Continuous
 62
     7
370
    25
100
AcDbSpline
210
0.0
220
0.0
230
1.0
 70
     8
 71
     3
 72
    15
 73
    11
 74
     0
 42
0.00000001
 43
0.00000001
 40
0.0
 40
0.0
 40
0.0
 40
0.0
 40
0.1323034284088744
 40
0.2645694515465796
 40
0.3997942148562053
 40
0.5349945762150087
 40
0.6501872613016996
 40
0.7653979157221117
 40
0.8826876171264815
 40
1.0
 40
1.0
 40
1.0
 40
1.0
 10
56.90117817276491
 20
19.26430485137498
 30
0.0
 10
56.98275592312105
 20
19.41396576709653
 30
0.0
 10
57.14588835989682
 20
19.71324528590116
 30
0.0
 10
57.32141379755383
 20
20.17410902076266
 30
0.0
 10
57.42695428864499
 20
20.64365997191731
 30
0.0
 10
57.44785955904293
 20
21.09620615268443
 30
0.0
 10
57.39363617788963
 20
21.52430810330473
 30
0.0
 10
57.28252416251673
 20
21.92833567085533
 30
0.0
 10
57.11953281113829
 20
22.33053657619984
 30
0.0
 10
56.9739677433285
 20
22.59577462195105
 30
0.0
 10
56.90117817276491
 20
22.72840646651273
 30
0.0
  0
SPLINE
  5
82
330
1F
100
AcDbEntity
  8
0
  6
Continuous
 62
     7
370
    25
100
AcDbSpline
210
0.0
220
0.0
230
1.0
 70
     8
 71
     3
 72
    16
 73
    12
 74
     0
 42
0.00000001
 43
0.00000001
 40
0.0
 40
0.0
 40
0.0
 40
0.0
 40
0.1130223886251225
 40
0.2387024512201665
 40
0.3643500542235876
 40
0.4930894900811556
 40
0.6218274355442566
 40
0.7158584889512425
 40
0.8098993986606196
 40
0.9049449862565125
 40
1.0
 40
1.0
 40
1.0
 40
1.0
 10
56.90117817276491
 20
22.72840646651273
 30
0.0
 10
56.97143521554164
 20
22.98393929664975
 30
0.0
 10
57.11981757173046
 20
23.52362274930839
 30
0.0
 10
57.28932090246766
 20
24.36159823276769
 30
0.0
 10
57.40691178531161
 20
25.24561683870718
 30
0.0
 10
57.44954451547077
 20
26.14393559745586
 30
0.0
 10
57.41797916619404
 20
26.96843130115886
 30
0.0
 10
57.33467513084584
 20
27.70688952161456
 30
0.0
 10
57.22311613867499
 20
28.3614455955699
 30
0.0
 10
57.07973206673833
 20
29.01230159342565
 30
0.0
 10
56.96069810485766
 20
29.44183322955168
 30
0.0
 10
56.90117817276491
 20
29.65660969678826
 30
0.0
  0
LINE
  5
83
330
1F
100
AcDbEntity
  8
0
  6
Continuous
 62
     7
370
    25
100
AcDbLine
 10
57.5814141249
 20
26.1925080817
 30
0.0
 11
57.5814141249
 21
31.9425080817
 31
0.0
  0
LINE
  5
84
330
1F
100
AcDbEntity
  8
0
  6
Continuous
 62
     7
370
    25
100
AcDbLine
 10
57.5814141249
 20
20.4425080817
 30
0.0
 11
57.5814141249
 21
26.1925080817
 31
0.0
  0
LINE
  5
85
330
1F
100
AcDbEntity
  8
0
  6
Continuous
 62
     7
370
    25
100
AcDbLine
 10
47.2616500771
 20
29.6566096968
 30
0.0
 11
56.9011781728
 21
29.6566096968
 31
0.0
  0
LINE
  5
86
330
1F
100
AcDbEntity
  8
0
  6
Continuous
 62
     7
370
    25
100
AcDbLine
 10
47.2616500771
 20
22.7284064665
 30
0.0
 11
56.9011781728
 21
22.7284064665
 31
0.0
  0
LINE
  5
87
330
1F
100
AcDbEntity
  8
0
  6
Continuous
 62
     7
370
    25
100
AcDbLine
 10
47.2616500771
 20
33.1207113119
 30
0.0
 11
56.9011781728
 21
33.1207113119
 31
0.0
  0
LINE
  5
88
330
1F
100
AcDbEntity
  8
0
  6
Continuous
 62
     7
370
    25
100
AcDbLine
 10
47.2616500771
 20
19.2643048514
 30
0.0
 11
56.9011781728
 21
19.2643048514
 31
0.0
  0
LINE
  5
89
330
1F
100
AcDbEntity
  8
0
  6
Continuous
 62
     7
370
    25
100
AcDbLine
 10
42.7830801748
 20
34.1925080817
 30
0.0
 11
32.8830801758
 21
34.1925080817
 31
0.0
  0
LINE
  5
8A
330
1F
100
AcDbEntity
  8
0
  6
Continuous
 62
     7
370
    25
100
AcDbLine
 10
32.7927198243
 20
34.2064398956
 30
0.0
 11
42.8734405253
 21
34.2064398956
 31
0.0
  0
LINE
  5
8B
330
1F
100
AcDbEntity
  8
0
  6
Continuous
 62
     7
370
    25
100
AcDbLine
 10
33.030070269
 20
41.8016541258
 30
0.0
 11
42.6360900806
 21
41.8016541258
 31
0.0
  0
LINE
  5
8C
330
1F
100
AcDbEntity
  8
0
  6
Continuous
 62
     7
370
    25
100
AcDbLine
 10
45.8330801748
 20
31.0565080817
 30
0.0
 11
45.8330801748
 21
21.3285080817
 31
0.0
  0
LINE
  5
8D
330
1F
100
AcDbEntity
  8
0
  6
Continuous
 62
     7
370
    25
100
AcDbLine
 10
33.8330801748
 20
43.1925080817
 30
0.0
 11
41.8330801748
 21
43.1925080817
 31
0.0
  0
SPLINE
  5
8E
330
1F
100
AcDbEntity
  8
0
  6
Continuous
 62
     7
370
    25
100
AcDbSpline
210
0.0
220
0.0
230
1.0
 70
     8
 71
     3
 72
    12
 73
     8
 74
     0
 42
0.00000001
 43
0.00000001
 40
0.0
 40
0.0
 40
0.0
 40
0.0
 40
0.25
 40
0.25
 40
0.5
 40
0.5
 40
1.0
 40
1.0
 40
1.0
 40
1.0
 10
42.30379085288068
 20
24.85520555706627
 30
0.0
 10
42.30956097074707
 20
24.85576354972625
 30
0.0
 10
42.31427661229797
 20
24.85640824894357
 30
0.0
 10
42.321932154351
 20
24.85739618272455
 30
0.0
 10
42.32487205485314
 20
24.85773941728819
 30
0.0
 10
42.33152796215963
 20
24.85760460734604
 30
0.0
 10
42.3330801747641
 20
24.85596204920714
 30
0.0
 10
42.3330801747641
 20
24.85086729515058
 30
0.0
  0
LINE
  5
8F
330
1F
100
AcDbEntity
  8
0
  6
Continuous
 62
     7
370
    25
100
AcDbLine
 10
42.3330801748
 20
24.8508672952
 30
0.0
 11
42.3330801748
 21
22.7925080817
 31
0.0
  0
LINE
  5
90
330
1F
100
AcDbEntity
  8
0
  6
Continuous
 62
     7
370
    25
100
AcDbLine
 10
42.3330801748
 20
22.7925080817
 30
0.0
 11
42.2330801748
 21
22.7925080817
 31
0.0
  0
LINE
  5
91
330
1F
100
AcDbEntity
  8
0
  6
Continuous
 62
     7
370
    25
100
AcDbLine
 10
42.2330801748
 20
22.7925080817
 30
0.0
 11
42.2330801748
 21
24.8508672952
 31
0.0
  0
SPLINE
  5
92
330
1F
100
AcDbEntity
  8
0
  6
Continuous
 62
     7
370
    25
100
AcDbSpline
210
0.0
220
0.0
230
1.0
 70
     8
 71
     3
 72
    10
 73
     6
 74
     0
 42
0.00000001
 43
0.00000001
 40
0.0
 40
0.0
 40
0.0
 40
0.0
 40
0.5
 40
0.5
 40
1.0
 40
1.0
 40
1.0
 40
1.0
 10
42.30379085288068
 20
24.85520555706627
 30
0.0
 10
42.29225061714793
 20
24.85408957174633
 30
0.0
 10
42.27896144238105
 20
24.8530050062674
 30
0.0
 10
42.25376471595141
 20
24.85139386796953
 30
0.0
 10
42.24185716428865
 20
24.85086729515058
 30
0.0
 10
42.2330801747641
 20
24.85086729515058
 30
0.0
  0
LINE
  5
93
330
1F
100
AcDbEntity
  8
0
  6
Continuous
 62
     7
370
    25
100
AcDbLine
 10
41.2330801748
 20
30.5925080817
 30
0.0
 11
39.1747209613
 21
30.5925080817
 31
0.0
  0
LINE
  5
94
330
1F
100
AcDbEntity
  8
0
  6
Continuous
 62
     7
370
    25
100
AcDbLine
 10
41.2330801748
 20
30.1925080817
 30
0.0
 11
41.2330801748
 21
30.5925080817
 31
0.0
  0
ARC
  5
95
330
1F
100
AcDbEntity
  8
0
  6
Continuous
 62
     7
370
    25
100
AcDbCircle
 10
41.8330801748
 20
30.1925080817
 30
0.0
 40
0.6000000000000014
100
AcDbArc
 50
180.0
 51
270.0
  0
LINE
  5
96
330
1F
100
AcDbEntity
  8
0
  6
Continuous
 62
     7
370
    25
100
AcDbLine
 10
42.2330801748
 20
29.5925080817
 30
0.0
 11
41.8330801748
 21
29.5925080817
 31
0.0
  0
LINE
  5
97
330
1F
100
AcDbEntity
  8
0
  6
Continuous
 62
     7
370
    25
100
AcDbLine
 10
42.2330801748
 20
27.5341488682
 30
0.0
 11
42.2330801748
 21
29.5925080817
 31
0.0
  0
LINE
  5
98
330
1F
100
AcDbEntity
  8
0
  6
Continuous
 62
     7
370
    25
100
AcDbLine
 10
42.2330801748
 20
27.5341488682
 30
0.0
 11
42.2330801748
 21
26.1925080817
 31
0.0
  0
LINE
  5
99
330
1F
100
AcDbEntity
  8
0
  6
Continuous
 62
     7
370
    25
100
AcDbLine
 10
42.2330801748
 20
26.1925080817
 30
0.0
 11
42.2330801748
 21
24.8508672952
 31
0.0
  0
LINE
  5
9A
330
1F
100
AcDbEntity
  8
0
  6
Continuous
 62
     7
370
    25
100
AcDbLine
 10
36.3330801748
 20
22.7925080817
 30
0.0
 11
42.2330801748
 21
22.7925080817
 31
0.0
  0
ARC
  5
9B
330
1F
100
AcDbEntity
  8
0
  6
Continuous
 62
     7
370
    25
100
AcDbCircle
 10
36.3330801748
 20
24.6925080817
 30
0.0
 40
1.899999999999999
100
AcDbArc
 50
180.0
 51
270.0
  0
LINE
  5
9C
330
1F
100
AcDbEntity
  8
0
  6
Continuous
 62
     7
370
    25
100
AcDbLine
 10
34.4330801748
 20
30.5925080817
 30
0.0
 11
34.4330801748
 21
24.6925080817
 31
0.0
  0
LINE
  5
9D
330
1F
100
AcDbEntity
  8
0
  6
Continuous
 62
     7
370
    25
100
AcDbLine
 10
36.4914393883
 20
30.5925080817
 30
0.0
 11
34.4330801748
 21
30.5925080817
 31
0.0
  0
LINE
  5
9E
330
1F
100
AcDbEntity
  8
0
  6
Continuous
 62
     7
370
    25
100
AcDbLine
 10
36.4914393883
 20
30.5925080817
 30
0.0
 11
37.8330801748
 21
30.5925080817
 31
0.0
  0
LINE
  5
9F
330
1F
100
AcDbEntity
  8
0
  6
Continuous
 62
     7
370
    25
100
AcDbLine
 10
37.8330801748
 20
30.5925080817
 30
0.0
 11
39.1747209613
 21
30.5925080817
 31
0.0
  0
SPLINE
  5
A0
330
1F
100
AcDbEntity
  8
0
  6
Continuous
 62
     7
370
    25
100
AcDbSpline
210
0.0
220
0.0
230
1.0
 70
     8
 71
     3
 72
    14
 73
    10
 74
     0
 42
0.00000001
 43
0.00000001
 40
0.0
 40
0.0
 40
0.0
 40
0.0
 40
0.25
 40
0.25
 40
0.5
 40
0.5
 40
0.75
 40
0.75
 40
1.0
 40
1.0
 40
1.0
 40
1.0
 10
39.51555291828647
 20
26.37978488781059
 30
0.0
 10
39.55347525299555
 20
26.46011008503294
 30
0.0
 10
39.61467849115368
 20
26.52704054224916
 30
0.0
 10
39.76561119976127
 20
26.61953977983686
 30
0.0
 10
39.85295977320974
 20
26.64378215016157
 30
0.0
 10
40.03045124542229
 20
26.64359830024325
 30
0.0
 10
40.11771791002723
 20
26.61899400867719
 30
0.0
 10
40.26696343065999
 20
26.52748748376166
 30
0.0
 10
40.32892462899553
 20
26.46012072010229
 30
0.0
 10
40.36685198462786
 20
26.37978488781099
 30
0.0
  0
LINE
  5
A1
330
1F
100
AcDbEntity
  8
0
  6
Continuous
 62
     7
370
    25
100
AcDbLine
 10
38.8036783381
 20
24.3894149271
 30
0.0
 11
39.5155529183
 21
26.3797848878
 31
0.0
  0
SPLINE
  5
A2
330
1F
100
AcDbEntity
  8
0
  6
Continuous
 62
     7
370
    25
100
AcDbSpline
210
0.0
220
0.0
230
1.0
 70
     8
 71
     3
 72
    10
 73
     6
 74
     0
 42
0.00000001
 43
0.00000001
 40
0.0
 40
0.0
 40
0.0
 40
0.0
 40
0.5
 40
0.5
 40
1.0
 40
1.0
 40
1.0
 40
1.0
 10
38.39270013810214
 20
24.24522837942727
 30
0.0
 10
38.46545782775876
 20
24.20518901467917
 30
0.0
 10
38.55407991263459
 20
24.19827482690348
 30
0.0
 10
38.70907848372012
 20
24.2506582651531
 30
0.0
 10
38.77567127036905
 20
24.31110839983878
 30
0.0
 10
38.80367833806743
 20
24.38941492711686
 30
0.0
  0
LINE
  5
A3
330
1F
100
AcDbEntity
  8
0
  6
Continuous
 62
     7
370
    25
100
AcDbLine
 10
38.07247716
 20
24.421450641
 30
0.0
 11
38.3927001381
 21
24.2452283794
 31
0.0
  0
LINE
  5
A4
330
1F
100
AcDbEntity
  8
0
  6
Continuous
 62
     7
370
    25
100
AcDbLine
 10
38.6758440043
 20
23.2712321555
 30
0.0
 11
38.07247716
 21
24.421450641
 31
0.0
  0
SPLINE
  5
A5
330
1F
100
AcDbEntity
  8
0
  6
Continuous
 62
     7
370
    25
100
AcDbSpline
210
0.0
220
0.0
230
1.0
 70
     8
 71
     3
 72
    23
 73
    19
 74
     0
 42
0.00000001
 43
0.00000001
 40
0.0
 40
0.0
 40
0.0
 40
0.0
 40
0.0000498781835487
 40
0.0000498781835487
 40
0.0000498781835487
 40
0.0000997268192993
 40
0.0000997268192993
 40
0.0000997268192993
 40
0.0001500011747122
 40
0.0001500011747122
 40
0.0001500011747122
 40
0.0002003877210666
 40
0.0002003877210666
 40
0.0002003877210666
 40
0.0002503535461228
 40
0.0002503535461228
 40
0.0002503535461228
 40
0.0002676752878394
 40
0.0002676752878394
 40
0.0002676752878394
 40
0.0002676752878394
 10
38.90613869104028
 20
23.22992448391462
 30
0.0
 10
38.89370426755729
 20
23.2188876807949
 30
0.0
 10
38.87917510534822
 20
23.20986855745743
 30
0.0
 10
38.8637819085713
 20
23.20358561201404
 30
0.0
 10
38.84839433429406
 20
23.1973049614714
 30
0.0
 10
38.83172108566194
 20
23.19358189410613
 30
0.0
 10
38.81512443875828
 20
23.19270136873388
 30
0.0
 10
38.79838948025487
 20
23.19181350532079
 30
0.0
 10
38.78127091664288
 20
23.19379195850626
 30
0.0
 10
38.76518258872012
 20
23.19848374304958
 30
0.0
 10
38.74906206754869
 20
23.2031849160009
 30
0.0
 10
38.73352658104873
 20
23.21074491889643
 30
0.0
 10
38.71990059811719
 20
23.22055842077427
 30
0.0
 10
38.70638900552993
 20
23.23028953814716
 30
0.0
 10
38.69437681072303
 20
23.24251365662293
 30
0.0
 10
38.68491871346165
 20
23.25621775001736
 30
0.0
 10
38.68159699541187
 20
23.26103067730349
 30
0.0
 10
38.67856055492096
 20
23.26605350389801
 30
0.0
 10
38.67584400433817
 20
23.27123215553672
 30
0.0
  0
SPLINE
  5
A6
330
1F
100
AcDbEntity
  8
0
  6
Continuous
 62
     7
370
    25
100
AcDbSpline
210
0.0
220
0.0
230
1.0
 70
     8
 71
     3
 72
    12
 73
     8
 74
     0
 42
0.00000001
 43
0.00000001
 40
0.0
 40
0.0
 40
0.0
 40
0.0
 40
0.25
 40
0.25
 40
0.5
 40
0.5
 40
1.0
 40
1.0
 40
1.0
 40
1.0
 10
40.97626621187446
 20
23.22992448391444
 30
0.0
 10
40.83409602391562
 20
23.35611484377596
 30
0.0
 10
40.67158459397674
 20
23.45256446915123
 30
0.0
 10
40.31703247897219
 20
23.58455599475511
 30
0.0
 10
40.12958936720787
 20
23.61784736013713
 30
0.0
 10
39.56429633521133
 20
23.61783173856706
 30
0.0
 10
39.19044870043432
 20
23.48227825028959
 30
0.0
 10
38.90613869104028
 20
23.22992448391462
 30
0.0
  0
SPLINE
  5
A7
330
1F
100
AcDbEntity
  8
0
  6
Continuous
 62
     7
370
    25
100
AcDbSpline
210
0.0
220
0.0
230
1.0
 70
     8
 71
     3
 72
    23
 73
    19
 74
     0
 42
0.00000001
 43
0.00000001
 40
0.0
 40
0.0
 40
0.0
 40
0.0
 40
0.0000491340929468
 40
0.0000491340929468
 40
0.0000491340929468
 40
0.0000982315553283
 40
0.0000982315553283
 40
0.0000982315553283
 40
0.0001478770455754
 40
0.0001478770455754
 40
0.0001478770455754
 40
0.0001981233645928
 40
0.0001981233645928
 40
0.0001981233645928
 40
0.0002485283804886
 40
0.0002485283804886
 40
0.0002485283804886
 40
0.0002676671342044
 40
0.0002676671342044
 40
0.0002676671342044
 40
0.0002676671342044
 10
41.20656089857647
 20
23.27123215553667
 30
0.0
 10
41.19895275633874
 20
23.2567284983928
 30
0.0
 10
41.18870852566648
 20
23.2433544503299
 30
0.0
 10
41.17671356010975
 20
23.23220273745029
 30
0.0
 10
41.16472390230092
 20
23.22105595918098
 30
0.0
 10
41.15066019590108
 20
23.21182059089218
 30
0.0
 10
41.13568211738396
 20
23.20521304035559
 30
0.0
 10
41.12053821525665
 20
23.19853233705222
 30
0.0
 10
41.10404853092052
 20
23.19435415752656
 30
0.0
 10
41.0875522832438
 20
23.19299644590115
 30
0.0
 10
41.07086113886497
 20
23.19162269344491
 30
0.0
 10
41.05370418969684
 20
23.19309955133244
 30
0.0
 10
41.0374953147961
 20
23.19731308558988
 30
0.0
 10
41.02123915589164
 20
23.20153891143268
 30
0.0
 10
41.00548384870211
 20
23.20863851204707
 30
0.0
 10
40.99156865845122
 20
23.21804530675423
 30
0.0
 10
40.98621897273252
 20
23.22166174277819
 30
0.0
 10
40.98109560515812
 20
23.22563791100407
 30
0.0
 10
40.9762662118745
 20
23.22992448391449
 30
0.0
  0
LINE
  5
A8
330
1F
100
AcDbEntity
  8
0
  6
Continuous
 62
     7
370
    25
100
AcDbLine
 10
41.8145515868
 20
24.4302652299
 30
0.0
 11
41.2065608986
 21
23.2712321555
 31
0.0
  0
LINE
  5
A9
330
1F
100
AcDbEntity
  8
0
  6
Continuous
 62
     7
370
    25
100
AcDbLine
 10
41.4939010287
 20
24.2470261559
 30
0.0
 11
41.8145515868
 21
24.4302652299
 31
0.0
  0
SPLINE
  5
AA
330
1F
100
AcDbEntity
  8
0
  6
Continuous
 62
     7
370
    25
100
AcDbSpline
210
0.0
220
0.0
230
1.0
 70
     8
 71
     3
 72
    10
 73
     6
 74
     0
 42
0.00000001
 43
0.00000001
 40
0.0
 40
0.0
 40
0.0
 40
0.0
 40
0.4999999999999998
 40
0.4999999999999998
 40
1.0
 40
1.0
 40
1.0
 40
1.0
 10
41.07889208840009
 20
24.38895213055399
 30
0.0
 10
41.10711754363834
 20
24.31003500133706
 30
0.0
 10
41.17436806779728
 20
24.24923243319553
 30
0.0
 10
41.33194181770224
 20
24.19733116273726
 30
0.0
 10
41.42122281536915
 20
24.20549344002902
 30
0.0
 10
41.49390102872075
 20
24.24702615588481
 30
0.0
  0
LINE
  5
AB
330
1F
100
AcDbEntity
  8
0
  6
Continuous
 62
     7
370
    25
100
AcDbLine
 10
40.3668519846
 20
26.3797848878
 30
0.0
 11
41.0788920884
 21
24.3889521306
 31
0.0
  0
SPLINE
  5
AC
330
1F
100
AcDbEntity
  8
0
  6
Continuous
 62
     7
370
    25
100
AcDbSpline
210
0.0
220
0.0
230
1.0
 70
     8
 71
     3
 72
    10
 73
     6
 74
     0
 42
0.00000001
 43
0.00000001
 40
0.0
 40
0.0
 40
0.0
 40
0.0
 40
0.5
 40
0.5
 40
1.0
 40
1.0
 40
1.0
 40
1.0
 10
39.17038269934832
 20
30.66321875976708
 30
0.0
 10
39.17149868466826
 20
30.65167852403432
 30
0.0
 10
39.17258325014719
 20
30.63838934926744
 30
0.0
 10
39.17419438844507
 20
30.61319262283781
 30
0.0
 10
39.17472096126401
 20
30.60128507117504
 30
0.0
 10
39.17472096126401
 20
30.59250808165049
 30
0.0
  0
SPLINE
  5
AD
330
1F
100
AcDbEntity
  8
0
  6
Continuous
 62
     7
370
    25
100
AcDbSpline
210
0.0
220
0.0
230
1.0
 70
     8
 71
     3
 72
    12
 73
     8
 74
     0
 42
0.00000001
 43
0.00000001
 40
0.0
 40
0.0
 40
0.0
 40
0.0
 40
0.25
 40
0.25
 40
0.5
 40
0.5
 40
1.0
 40
1.0
 40
1.0
 40
1.0
 10
39.17038269934832
 20
30.66321875976708
 30
0.0
 10
39.16982470668835
 20
30.66898887763346
 30
0.0
 10
39.16918000747102
 20
30.67370451918437
 30
0.0
 10
39.16819207369004
 20
30.6813600612374
 30
0.0
 10
39.1678488391264
 20
30.68429996173953
 30
0.0
 10
39.16798364906855
 20
30.69095586904602
 30
0.0
 10
39.16962620720745
 20
30.69250808165049
 30
0.0
 10
39.17472096126401
 20
30.69250808165049
 30
0.0
  0
LINE
  5
AE
330
1F
100
AcDbEntity
  8
0
  6
Continuous
 62
     7
370
    25
100
AcDbLine
 10
39.1747209613
 20
30.6925080817
 30
0.0
 11
41.2330801748
 21
30.6925080817
 31
0.0
  0
LINE
  5
AF
330
1F
100
AcDbEntity
  8
0
  6
Continuous
 62
     7
370
    25
100
AcDbLine
 10
41.2330801748
 20
30.5925080817
 30
0.0
 11
41.2330801748
 21
30.6925080817
 31
0.0
  0
LINE
  5
B0
330
1F
100
AcDbEntity
  8
0
  6
Continuous
 62
     7
370
    25
100
AcDbLine
 10
34.4330801748
 20
30.6925080817
 30
0.0
 11
36.4914393883
 21
30.6925080817
 31
0.0
  0
SPLINE
  5
B1
330
1F
100
AcDbEntity
  8
0
  6
Continuous
 62
     7
370
    25
100
AcDbSpline
210
0.0
220
0.0
230
1.0
 70
     8
 71
     3
 72
    12
 73
     8
 74
     0
 42
0.00000001
 43
0.00000001
 40
0.0
 40
0.0
 40
0.0
 40
0.0
 40
0.25
 40
0.25
 40
0.5
 40
0.5
 40
1.0
 40
1.0
 40
1.0
 40
1.0
 10
36.49577765017987
 20
30.66321875976708
 30
0.0
 10
36.49633564283985
 20
30.66898887763346
 30
0.0
 10
36.49698034205718
 20
30.67370451918437
 30
0.0
 10
36.49796827583815
 20
30.6813600612374
 30
0.0
 10
36.4983115104018
 20
30.68429996173953
 30
0.0
 10
36.49817670045964
 20
30.69095586904602
 30
0.0
 10
36.49653414232075
 20
30.69250808165049
 30
0.0
 10
36.49143938826418
 20
30.69250808165049
 30
0.0
  0
SPLINE
  5
B2
330
1F
100
AcDbEntity
  8
0
  6
Continuous
 62
     7
370
    25
100
AcDbSpline
210
0.0
220
0.0
230
1.0
 70
     8
 71
     3
 72
    10
 73
     6
 74
     0
 42
0.00000001
 43
0.00000001
 40
0.0
 40
0.0
 40
0.0
 40
0.0
 40
0.5
 40
0.5
 40
1.0
 40
1.0
 40
1.0
 40
1.0
 10
36.49577765017987
 20
30.66321875976708
 30
0.0
 10
36.49466166485993
 20
30.65167852403432
 30
0.0
 10
36.49357709938101
 20
30.63838934926745
 30
0.0
 10
36.49196596108313
 20
30.61319262283781
 30
0.0
 10
36.49143938826418
 20
30.60128507117504
 30
0.0
 10
36.49143938826418
 20
30.59250808165049
 30
0.0
  0
LINE
  5
B3
330
1F
100
AcDbEntity
  8
0
  6
Continuous
 62
     7
370
    25
100
AcDbLine
 10
34.4330801748
 20
30.5925080817
 30
0.0
 11
34.4330801748
 21
30.6925080817
 31
0.0
  0
LINE
  5
B4
330
1F
100
AcDbEntity
  8
0
  6
Continuous
 62
     7
370
    25
100
AcDbLine
 10
42.3330801748
 20
29.5925080817
 30
0.0
 11
42.3330801748
 21
27.5341488682
 31
0.0
  0
SPLINE
  5
B5
330
1F
100
AcDbEntity
  8
0
  6
Continuous
 62
     7
370
    25
100
AcDbSpline
210
0.0
220
0.0
230
1.0
 70
     8
 71
     3
 72
    12
 73
     8
 74
     0
 42
0.00000001
 43
0.00000001
 40
0.0
 40
0.0
 40
0.0
 40
0.0
 40
0.25
 40
0.25
 40
0.5
 40
0.5
 40
1.0
 40
1.0
 40
1.0
 40
1.0
 10
42.30379085288069
 20
27.52981060623472
 30
0.0
 10
42.30956097074707
 20
27.52925261357474
 30
0.0
 10
42.31427661229797
 20
27.52860791435741
 30
0.0
 10
42.321932154351
 20
27.52761998057644
 30
0.0
 10
42.32487205485314
 20
27.52727674601279
 30
0.0
 10
42.33152796215963
 20
27.52741155595495
 30
0.0
 10
42.3330801747641
 20
27.52905411409385
 30
0.0
 10
42.3330801747641
 20
27.53414886815041
 30
0.0
  0
SPLINE
  5
B6
330
1F
100
AcDbEntity
  8
0
  6
Continuous
 62
     7
370
    25
100
AcDbSpline
210
0.0
220
0.0
230
1.0
 70
     8
 71
     3
 72
    10
 73
     6
 74
     0
 42
0.00000001
 43
0.00000001
 40
0.0
 40
0.0
 40
0.0
 40
0.0
 40
0.5
 40
0.5
 40
1.0
 40
1.0
 40
1.0
 40
1.0
 10
42.30379085288069
 20
27.52981060623472
 30
0.0
 10
42.29225061714793
 20
27.53092659155466
 30
0.0
 10
42.27896144238105
 20
27.53201115703358
 30
0.0
 10
42.25376471595141
 20
27.53362229533146
 30
0.0
 10
42.24185716428865
 20
27.53414886815041
 30
0.0
 10
42.2330801747641
 20
27.53414886815041
 30
0.0
  0
LINE
  5
B7
330
1F
100
AcDbEntity
  8
0
  6
Continuous
 62
     7
370
    25
100
AcDbLine
 10
42.3330801748
 20
29.5925080817
 30
0.0
 11
42.2330801748
 21
29.5925080817
 31
0.0
  0
SPLINE
  5
B8
330
1F
100
AcDbEntity
  8
0
  6
Continuous
 62
     7
370
    25
100
AcDbSpline
210
0.0
220
0.0
230
1.0
 70
    24
 71
     3
 72
    14
 73
    10
 74
     0
 42
0.00000001
 43
0.00000001
 40
0.0
 40
0.0
 40
0.0
 40
0.0
 40
0.25
 40
0.25
 40
0.5
 40
0.5
 40
0.75
 40
0.75
 40
1.0
 40
1.0
 40
1.0
 40
1.0
 10
37.83308017476411
 20
30.7925080816505
 30
0.0
 10
37.94324044180752
 20
30.7925080816505
 30
0.0
 10
38.05340093384632
 20
30.7925080816505
 30
0.0
 10
38.27343588372036
 20
30.7925080816505
 30
0.0
 10
38.38331079202782
 20
30.7925080816505
 30
0.0
 10
38.60247548604557
 20
30.7925080816505
 30
0.0
 10
38.71176572344415
 20
30.7925080816505
 30
0.0
 10
38.92943495304996
 20
30.7925080816505
 30
0.0
 10
39.03781439820294
 20
30.7925080816505
 30
0.0
 10
39.14555485720966
 20
30.7925080816505
 30
0.0
  0
SPLINE
  5
B9
330
1F
100
AcDbEntity
  8
0
  6
Continuous
 62
     7
370
    25
100
AcDbSpline
210
0.0
220
0.0
230
1.0
 70
    24
 71
     3
 72
    14
 73
    10
 74
     0
 42
0.00000001
 43
0.00000001
 40
0.0
 40
0.0
 40
0.0
 40
0.0
 40
0.25
 40
0.25
 40
0.5
 40
0.5
 40
0.75
 40
0.75
 40
1.0
 40
1.0
 40
1.0
 40
1.0
 10
37.83308017476411
 20
30.7925080816505
 30
0.0
 10
37.72291990772069
 20
30.7925080816505
 30
0.0
 10
37.61275941568188
 20
30.7925080816505
 30
0.0
 10
37.39272446580785
 20
30.7925080816505
 30
0.0
 10
37.28284955750038
 20
30.7925080816505
 30
0.0
 10
37.06368486348264
 20
30.7925080816505
 30
0.0
 10
36.95439462608405
 20
30.7925080816505
 30
0.0
 10
36.73672539647823
 20
30.7925080816505
 30
0.0
 10
36.62834595132526
 20
30.7925080816505
 30
0.0
 10
36.52060549231853
 20
30.7925080816505
 30
0.0
  0
LINE
  5
BA
330
1F
100
AcDbEntity
  8
0
  6
Continuous
 62
     7
370
    25
100
AcDbLine
 10
34.5069932182
 20
30.7925080817
 30
0.0
 11
36.5206054923
 21
30.7925080817
 31
0.0
  0
SPLINE
  5
BB
330
1F
100
AcDbEntity
  8
0
  6
Continuous
 62
     7
370
    25
100
AcDbSpline
210
0.0
220
0.0
230
1.0
 70
     8
 71
     3
 72
    12
 73
     8
 74
     0
 42
0.00000001
 43
0.00000001
 40
0.0
 40
0.0
 40
0.0
 40
0.0
 40
0.4999999999999984
 40
0.4999999999999984
 40
0.7499999999999992
 40
0.7499999999999992
 40
1.0
 40
1.0
 40
1.0
 40
1.0
 10
34.50699321824236
 20
30.7925080816505
 30
0.0
 10
34.46221248007048
 20
30.7925080816505
 30
0.0
 10
34.41883852252327
 20
30.77778166268477
 30
0.0
 10
34.36309692937931
 20
30.73025805084235
 30
0.0
 10
34.34610144914983
 20
30.71004069698575
 30
0.0
 10
34.31983006345333
 20
30.65777001637773
 30
0.0
 10
34.31134104432932
 20
30.62609970815671
 30
0.0
 10
34.31134104432932
 20
30.5925080816505
 30
0.0
  0
LINE
  5
BC
330
1F
100
AcDbEntity
  8
0
  6
Continuous
 62
     7
370
    25
100
AcDbLine
 10
34.3113410443
 20
24.6925080817
 30
0.0
 11
34.3113410443
 21
30.5925080817
 31
0.0
  0
SPLINE
  5
BD
330
1F
100
AcDbEntity
  8
0
  6
Continuous
 62
     7
370
    25
100
AcDbSpline
210
0.0
220
0.0
230
1.0
 70
     8
 71
     3
 72
     8
 73
     4
 74
     0
 42
0.00000001
 43
0.00000001
 40
0.0
 40
0.0
 40
0.0
 40
0.0
 40
1.0
 40
1.0
 40
1.0
 40
1.0
 10
34.35529984455391
 20
24.26040789820039
 30
0.0
 10
34.32641286410254
 20
24.40084712752034
 30
0.0
 10
34.31134104432931
 20
24.54470183447882
 30
0.0
 10
34.31134104432931
 20
24.69250808165049
 30
0.0
  0
LINE
  5
BE
330
1F
100
AcDbEntity
  8
0
  6
Continuous
 62
     7
370
    25
100
AcDbLine
 10
41.5123268578
 20
29.8717547647
 30
0.0
 11
42.3330801748
 21
30.6925080817
 31
0.0
  0
SPLINE
  5
BF
330
1F
100
AcDbEntity
  8
0
  6
Continuous
 62
     7
370
    25
100
AcDbSpline
210
0.0
220
0.0
230
1.0
 70
     8
 71
     3
 72
    10
 73
     6
 74
     0
 42
0.00000001
 43
0.00000001
 40
0.0
 40
0.0
 40
0.0
 40
0.0
 40
0.5
 40
0.5
 40
1.0
 40
1.0
 40
1.0
 40
1.0
 10
41.35481930519888
 20
30.19250808165049
 30
0.0
 10
41.35481930519888
 20
30.11850701522918
 30
0.0
 10
41.37597676277699
 20
30.04869003592403
 30
0.0
 10
41.4359874004364
 20
29.94082886998052
 30
0.0
 10
41.4735926382932
 20
29.90125685876162
 30
0.0
 10
41.51232685783052
 20
29.87175476471667
 30
0.0
  0
LINE
  5
C0
330
1F
100
AcDbEntity
  8
0
  6
Continuous
 62
     7
370
    25
100
AcDbLine
 10
41.3548193052
 20
30.5925080817
 30
0.0
 11
41.3548193052
 21
30.1925080817
 31
0.0
  0
SPLINE
  5
C1
330
1F
100
AcDbEntity
  8
0
  6
Continuous
 62
     7
370
    25
100
AcDbSpline
210
0.0
220
0.0
230
1.0
 70
     8
 71
     3
 72
    12
 73
     8
 74
     0
 42
0.00000001
 43
0.00000001
 40
0.0
 40
0.0
 40
0.0
 40
0.0
 40
0.2500000000000005
 40
0.2500000000000005
 40
0.500000000000001
 40
0.500000000000001
 40
1.0
 40
1.0
 40
1.0
 40
1.0
 10
41.35481930519888
 20
30.59250808165049
 30
0.0
 10
41.35481930519888
 20
30.62609701965838
 30
0.0
 10
41.34616963660512
 20
30.65815533097166
 30
0.0
 10
41.32003472271398
 20
30.7100226557943
 30
0.0
 10
41.30291033509603
 20
30.73041919432917
 30
0.0
 10
41.24719692571838
 20
30.77782653727695
 30
0.0
 10
41.2039801636092
 20
30.79250808165049
 30
0.0
 10
41.15916713128584
 20
30.79250808165049
 30
0.0
  0
LINE
  5
C2
330
1F
100
AcDbEntity
  8
0
  6
Continuous
 62
     7
370
    25
100
AcDbLine
 10
39.1455548572
 20
30.7925080817
 30
0.0
 11
41.1591671313
 21
30.7925080817
 31
0.0
  0
SPLINE
  5
C3
330
1F
100
AcDbEntity
  8
0
  6
Continuous
 62
     7
370
    25
100
AcDbSpline
210
0.0
220
0.0
230
1.0
 70
     8
 71
     3
 72
     8
 73
     4
 74
     0
 42
0.00000001
 43
0.00000001
 40
0.0
 40
0.0
 40
0.0
 40
0.0
 40
1.0
 40
1.0
 40
1.0
 40
1.0
 10
36.3330801747641
 20
22.67076895121571
 30
0.0
 10
36.18527392759243
 20
22.67076895121571
 30
0.0
 10
36.04141922063395
 20
22.68584077098893
 30
0.0
 10
35.900979991314
 20
22.71472775144031
 30
0.0
  0
LINE
  5
C4
330
1F
100
AcDbEntity
  8
0
  6
Continuous
 62
     7
370
    25
100
AcDbLine
 10
42.2330801748
 20
22.6707689512
 30
0.0
 11
36.3330801748
 21
22.6707689512
 31
0.0
  0
SPLINE
  5
C5
330
1F
100
AcDbEntity
  8
0
  6
Continuous
 62
     7
370
    25
100
AcDbSpline
210
0.0
220
0.0
230
1.0
 70
     8
 71
     3
 72
    12
 73
     8
 74
     0
 42
0.00000001
 43
0.00000001
 40
0.0
 40
0.0
 40
0.0
 40
0.0
 40
0.2500000000000008
 40
0.2500000000000008
 40
0.5000000000000016
 40
0.5000000000000016
 40
1.0
 40
1.0
 40
1.0
 40
1.0
 10
42.2330801747641
 20
22.67076895121571
 30
0.0
 10
42.26666911277198
 20
22.67076895121571
 30
0.0
 10
42.29872742408526
 20
22.67941861980947
 30
0.0
 10
42.35059474890791
 20
22.70555353370061
 30
0.0
 10
42.37099128744278
 20
22.72267792131856
 30
0.0
 10
42.41839863039056
 20
22.77839133069621
 30
0.0
 10
42.4330801747641
 20
22.82160809280539
 30
0.0
 10
42.4330801747641
 20
22.86642112512875
 30
0.0
  0
LINE
  5
C6
330
1F
100
AcDbEntity
  8
0
  6
Continuous
 62
     7
370
    25
100
AcDbLine
 10
42.4330801748
 20
24.8800333992
 30
0.0
 11
42.4330801748
 21
22.8664211251
 31
0.0
  0
SPLINE
  5
C7
330
1F
100
AcDbEntity
  8
0
  6
Continuous
 62
     7
370
    25
100
AcDbSpline
210
0.0
220
0.0
230
1.0
 70
    24
 71
     3
 72
    14
 73
    10
 74
     0
 42
0.00000001
 43
0.00000001
 40
0.0
 40
0.0
 40
0.0
 40
0.0
 40
0.25
 40
0.25
 40
0.5
 40
0.5
 40
0.75
 40
0.75
 40
1.0
 40
1.0
 40
1.0
 40
1.0
 10
42.4330801747641
 20
26.19250808165049
 30
0.0
 10
42.4330801747641
 20
26.08234781460708
 30
0.0
 10
42.4330801747641
 20
25.97218732256827
 30
0.0
 10
42.4330801747641
 20
25.75215237269423
 30
0.0
 10
42.4330801747641
 20
25.64227746438677
 30
0.0
 10
42.4330801747641
 20
25.42311277036902
 30
0.0
 10
42.4330801747641
 20
25.31382253297044
 30
0.0
 10
42.4330801747641
 20
25.09615330336463
 30
0.0
 10
42.4330801747641
 20
24.98777385821165
 30
0.0
 10
42.4330801747641
 20
24.88003339920493
 30
0.0
  0
SPLINE
  5
C8
330
1F
100
AcDbEntity
  8
0
  6
Continuous
 62
     7
370
    25
100
AcDbSpline
210
0.0
220
0.0
230
1.0
 70
    24
 71
     3
 72
    14
 73
    10
 74
     0
 42
0.00000001
 43
0.00000001
 40
0.0
 40
0.0
 40
0.0
 40
0.0
 40
0.25
 40
0.25
 40
0.5
 40
0.5
 40
0.75
 40
0.75
 40
1.0
 40
1.0
 40
1.0
 40
1.0
 10
42.4330801747641
 20
26.19250808165049
 30
0.0
 10
42.4330801747641
 20
26.30266834869391
 30
0.0
 10
42.4330801747641
 20
26.41282884073271
 30
0.0
 10
42.4330801747641
 20
26.63286379060675
 30
0.0
 10
42.4330801747641
 20
26.74273869891421
 30
0.0
 10
42.4330801747641
 20
26.96190339293197
 30
0.0
 10
42.4330801747641
 20
27.07119363033054
 30
0.0
 10
42.4330801747641
 20
27.28886285993635
 30
0.0
 10
42.4330801747641
 20
27.39724230508934
 30
0.0
 10
42.4330801747641
 20
27.50498276409606
 30
0.0
  0
LINE
  5
C9
330
1F
100
AcDbEntity
  8
0
  6
Continuous
 62
     7
370
    25
100
AcDbLine
 10
42.4330801748
 20
29.5185950382
 30
0.0
 11
42.4330801748
 21
27.5049827641
 31
0.0
  0
SPLINE
  5
CA
330
1F
100
AcDbEntity
  8
0
  6
Continuous
 62
     7
370
    25
100
AcDbSpline
210
0.0
220
0.0
230
1.0
 70
     8
 71
     3
 72
    12
 73
     8
 74
     0
 42
0.00000001
 43
0.00000001
 40
0.0
 40
0.0
 40
0.0
 40
0.0
 40
0.4999999999999991
 40
0.4999999999999991
 40
0.7499999999999996
 40
0.7499999999999996
 40
1.0
 40
1.0
 40
1.0
 40
1.0
 10
42.4330801747641
 20
29.51859503817223
 30
0.0
 10
42.4330801747641
 20
29.56337577634411
 30
0.0
 10
42.41835375579838
 20
29.60674973389133
 30
0.0
 10
42.37083014395596
 20
29.66249132703528
 30
0.0
 10
42.35061279009935
 20
29.67948680726476
 30
0.0
 10
42.29834210949134
 20
29.70575819296126
 30
0.0
 10
42.26667180127031
 20
29.71424721208528
 30
0.0
 10
42.23308017476409
 20
29.71424721208528
 30
0.0
  0
LINE
  5
CB
330
1F
100
AcDbEntity
  8
0
  6
Continuous
 62
     7
370
    25
100
AcDbLine
 10
41.8330801748
 20
29.7142472121
 30
0.0
 11
42.2330801748
 21
29.7142472121
 31
0.0
  0
SPLINE
  5
CC
330
1F
100
AcDbEntity
  8
0
  6
Continuous
 62
     7
370
    25
100
AcDbSpline
210
0.0
220
0.0
230
1.0
 70
     8
 71
     3
 72
    10
 73
     6
 74
     0
 42
0.00000001
 43
0.00000001
 40
0.0
 40
0.0
 40
0.0
 40
0.0
 40
0.5
 40
0.5
 40
1.0
 40
1.0
 40
1.0
 40
1.0
 10
41.51232685783032
 20
29.87175476471686
 30
0.0
 10
41.54182895187526
 20
29.83302054517956
 30
0.0
 10
41.58140096309423
 20
29.79541530732272
 30
0.0
 10
41.68926212903771
 20
29.73540466966336
 30
0.0
 10
41.75907910834282
 20
29.71424721208528
 30
0.0
 10
41.8330801747641
 20
29.71424721208528
 30
0.0
  0
SPLINE
  5
CD
330
1F
100
AcDbEntity
  8
0
  6
Continuous
 62
     7
370
    25
100
AcDbSpline
210
0.0
220
0.0
230
1.0
 70
    24
 71
     3
 72
    10
 73
     6
 74
     0
 42
0.00000001
 43
0.00000001
 40
0.0
 40
0.0
 40
0.0
 40
0.0
 40
0.5
 40
0.5
 40
1.0
 40
1.0
 40
1.0
 40
1.0
 10
42.33350774679463
 20
26.19250808165049
 30
0.0
 10
42.31719399198548
 20
26.19250808165049
 30
0.0
 10
42.2997093085418
 20
26.19250808165049
 30
0.0
 10
42.2635725354232
 20
26.19250808165049
 30
0.0
 10
42.25020559978687
 20
26.19250808165049
 30
0.0
 10
42.2330801747641
 20
26.19250808165049
 30
0.0
  0
SPLINE
  5
CE
330
1F
100
AcDbEntity
  8
0
  6
Continuous
 62
     7
370
    25
100
AcDbSpline
210
0.0
220
0.0
230
1.0
 70
     8
 71
     3
 72
    12
 73
     8
 74
     0
 42
0.00000001
 43
0.00000001
 40
0.0
 40
0.0
 40
0.0
 40
0.0
 40
0.25
 40
0.25
 40
0.5
 40
0.5
 40
1.0
 40
1.0
 40
1.0
 40
1.0
 10
42.33350774679463
 20
26.19250808165049
 30
0.0
 10
42.32942930809235
 20
26.30373574165158
 30
0.0
 10
42.3264492737285
 20
26.41485937324345
 30
0.0
 10
42.32079347437273
 20
26.63759623017499
 30
0.0
 10
42.31811770938082
 20
26.74920945551466
 30
0.0
 10
42.3077080095056
 20
27.08582999800466
 30
0.0
 10
42.30382214025935
 20
27.30688975087996
 30
0.0
 10
42.30379085288069
 20
27.52981060623472
 30
0.0
  0
SPLINE
  5
CF
330
1F
100
AcDbEntity
  8
0
  6
Continuous
 62
     7
370
    25
100
AcDbSpline
210
0.0
220
0.0
230
1.0
 70
     8
 71
     3
 72
    12
 73
     8
 74
     0
 42
0.00000001
 43
0.00000001
 40
0.0
 40
0.0
 40
0.0
 40
0.0
 40
0.25
 40
0.25
 40
0.5
 40
0.5
 40
1.0
 40
1.0
 40
1.0
 40
1.0
 10
42.33350774679463
 20
26.19250808165049
 30
0.0
 10
42.32942930809234
 20
26.08128042164941
 30
0.0
 10
42.32644927372849
 20
25.97015679005754
 30
0.0
 10
42.32079347437271
 20
25.747419933126
 30
0.0
 10
42.31811770938081
 20
25.63580670778633
 30
0.0
 10
42.3077080095056
 20
25.29918616529633
 30
0.0
 10
42.30382214025935
 20
25.07812641242102
 30
0.0
 10
42.30379085288068
 20
24.85520555706627
 30
0.0
  0
SPLINE
  5
D0
330
1F
100
AcDbEntity
  8
0
  6
Continuous
 62
     7
370
    25
100
AcDbSpline
210
0.0
220
0.0
230
1.0
 70
    24
 71
     3
 72
    10
 73
     6
 74
     0
 42
0.00000001
 43
0.00000001
 40
0.0
 40
0.0
 40
0.0
 40
0.0
 40
0.5
 40
0.5
 40
1.0
 40
1.0
 40
1.0
 40
1.0
 10
37.8330801747641
 20
30.69293565368103
 30
0.0
 10
37.8330801747641
 20
30.67662189887188
 30
0.0
 10
37.8330801747641
 20
30.65913721542819
 30
0.0
 10
37.83308017476411
 20
30.62300044230959
 30
0.0
 10
37.83308017476411
 20
30.60963350667326
 30
0.0
 10
37.83308017476411
 20
30.59250808165049
 30
0.0
  0
SPLINE
  5
D1
330
1F
100
AcDbEntity
  8
0
  6
Continuous
 62
     7
370
    25
100
AcDbSpline
210
0.0
220
0.0
230
1.0
 70
     8
 71
     3
 72
    12
 73
     8
 74
     0
 42
0.00000001
 43
0.00000001
 40
0.0
 40
0.0
 40
0.0
 40
0.0
 40
0.25
 40
0.25
 40
0.5
 40
0.5
 40
1.0
 40
1.0
 40
1.0
 40
1.0
 10
37.8330801747641
 20
30.69293565368103
 30
0.0
 10
37.72185251476302
 20
30.68885721497874
 30
0.0
 10
37.61072888317114
 20
30.68587718061489
 30
0.0
 10
37.3879920262396
 20
30.68022138125913
 30
0.0
 10
37.27637880089993
 20
30.67754561626721
 30
0.0
 10
36.93975825840995
 20
30.66713591639199
 30
0.0
 10
36.71869850553463
 20
30.66325004714574
 30
0.0
 10
36.49577765017987
 20
30.66321875976708
 30
0.0
  0
SPLINE
  5
D2
330
1F
100
AcDbEntity
  8
0
  6
Continuous
 62
     7
370
    25
100
AcDbSpline
210
0.0
220
0.0
230
1.0
 70
     8
 71
     3
 72
    12
 73
     8
 74
     0
 42
0.00000001
 43
0.00000001
 40
0.0
 40
0.0
 40
0.0
 40
0.0
 40
0.25
 40
0.25
 40
0.5
 40
0.5
 40
1.0
 40
1.0
 40
1.0
 40
1.0
 10
37.8330801747641
 20
30.69293565368103
 30
0.0
 10
37.94430783476518
 20
30.68885721497874
 30
0.0
 10
38.05543146635705
 20
30.68587718061488
 30
0.0
 10
38.27816832328859
 20
30.68022138125912
 30
0.0
 10
38.38978154862826
 20
30.6775456162672
 30
0.0
 10
38.72640209111825
 20
30.66713591639199
 30
0.0
 10
38.94746184399357
 20
30.66325004714574
 30
0.0
 10
39.17038269934832
 20
30.66321875976708
 30
0.0
  0
SPLINE
  5
D3
330
1F
100
AcDbEntity
  8
0
  6
Continuous
 62
     7
370
    25
100
AcDbSpline
210
0.0
220
0.0
230
1.0
 70
     8
 71
     3
 72
    14
 73
    10
 74
     0
 42
0.00000001
 43
0.00000001
 40
0.0
 40
0.0
 40
0.0
 40
0.0
 40
0.25
 40
0.25
 40
0.5
 40
0.5
 40
0.75
 40
0.75
 40
1.0
 40
1.0
 40
1.0
 40
1.0
 10
37.8330801747641
 20
30.69293565368103
 30
0.0
 10
37.72185251476302
 20
30.69701409238332
 30
0.0
 10
37.61111069253634
 20
30.70290445331068
 30
0.0
 10
37.39060740290159
 20
30.71571382918298
 30
0.0
 10
37.28084593549352
 20
30.72263284412792
 30
0.0
 10
37.06231203476582
 20
30.73490433760288
 30
0.0
 10
36.95268134271345
 20
30.73728682550938
 30
0.0
 10
36.73382667406484
 20
30.73485839142199
 30
0.0
 10
36.62460269746857
 20
30.73004746942809
 30
0.0
 10
36.51614917801692
 20
30.72179639636478
 30
0.0
  0
SPLINE
  5
D4
330
1F
100
AcDbEntity
  8
0
  6
Continuous
 62
     7
370
    25
100
AcDbSpline
210
0.0
220
0.0
230
1.0
 70
     8
 71
     3
 72
     8
 73
     4
 74
     0
 42
0.00000001
 43
0.00000001
 40
0.0
 40
0.0
 40
0.0
 40
0.0
 40
1.0
 40
1.0
 40
1.0
 40
1.0
 10
36.51614917801692
 20
30.72179639636478
 30
0.0
 10
36.52016950938314
 20
30.74030848064759
 30
0.0
 10
36.52195866677349
 20
30.76632766808409
 30
0.0
 10
36.52060549231853
 20
30.7925080816505
 30
0.0
  0
SPLINE
  5
D5
330
1F
100
AcDbEntity
  8
0
  6
Continuous
 62
     7
370
    25
100
AcDbSpline
210
0.0
220
0.0
230
1.0
 70
    24
 71
     3
 72
    10
 73
     6
 74
     0
 42
0.00000001
 43
0.00000001
 40
0.0
 40
0.0
 40
0.0
 40
0.0
 40
0.5
 40
0.5
 40
1.0
 40
1.0
 40
1.0
 40
1.0
 10
37.8330801747641
 20
30.69293565368103
 30
0.0
 10
37.8330801747641
 20
30.70924940849019
 30
0.0
 10
37.8330801747641
 20
30.72660925235319
 30
0.0
 10
37.8330801747641
 20
30.76226033201912
 30
0.0
 10
37.8330801747641
 20
30.77548339563552
 30
0.0
 10
37.83308017476411
 20
30.7925080816505
 30
0.0
  0
SPLINE
  5
D6
330
1F
100
AcDbEntity
  8
0
  6
Continuous
 62
     7
370
    25
100
AcDbSpline
210
0.0
220
0.0
230
1.0
 70
     8
 71
     3
 72
    10
 73
     6
 74
     0
 42
0.00000001
 43
0.00000001
 40
0.0
 40
0.0
 40
0.0
 40
0.0
 40
0.5
 40
0.5
 40
1.0
 40
1.0
 40
1.0
 40
1.0
 10
39.15001117151127
 20
30.72179639636478
 30
0.0
 10
39.14770704081032
 20
30.73333650223046
 30
0.0
 10
39.14659296223492
 20
30.74662577799181
 30
0.0
 10
39.14551687043459
 20
30.77182292214173
 30
0.0
 10
39.14555485720966
 20
30.78373079053032
 30
0.0
 10
39.14555485720966
 20
30.7925080816505
 30
0.0
  0
SPLINE
  5
D7
330
1F
100
AcDbEntity
  8
0
  6
Continuous
 62
     7
370
    25
100
AcDbSpline
210
0.0
220
0.0
230
1.0
 70
     8
 71
     3
 72
    14
 73
    10
 74
     0
 42
0.00000001
 43
0.00000001
 40
0.0
 40
0.0
 40
0.0
 40
0.0
 40
0.25
 40
0.25
 40
0.5
 40
0.5
 40
0.75
 40
0.75
 40
1.0
 40
1.0
 40
1.0
 40
1.0
 10
37.8330801747641
 20
30.69293565368103
 30
0.0
 10
37.94430783476518
 20
30.69701409238332
 30
0.0
 10
38.05504965699186
 20
30.70290445331067
 30
0.0
 10
38.27555294662661
 20
30.71571382918297
 30
0.0
 10
38.38531441403468
 20
30.72263284412792
 30
0.0
 10
38.60384831476238
 20
30.73490433760288
 30
0.0
 10
38.71347900681474
 20
30.73728682550938
 30
0.0
 10
38.93233367546336
 20
30.73485839142198
 30
0.0
 10
39.04155765205962
 20
30.73004746942809
 30
0.0
 10
39.15001117151127
 20
30.72179639636478
 30
0.0
  0
SPLINE
  5
D8
330
1F
100
AcDbEntity
  8
0
  6
Continuous
 62
     7
370
    25
100
AcDbSpline
210
0.0
220
0.0
230
1.0
 70
     8
 71
     3
 72
     8
 73
     4
 74
     0
 42
0.00000001
 43
0.00000001
 40
0.0
 40
0.0
 40
0.0
 40
0.0
 40
1.0
 40
1.0
 40
1.0
 40
1.0
 10
42.4330801747641
 20
24.88003339920493
 30
0.0
 10
42.4068997611977
 20
24.88138657365988
 30
0.0
 10
42.3808805737612
 20
24.87959741626954
 30
0.0
 10
42.36236848947838
 20
24.87557708490332
 30
0.0
  0
SPLINE
  5
D9
330
1F
100
AcDbEntity
  8
0
  6
Continuous
 62
     7
370
    25
100
AcDbSpline
210
0.0
220
0.0
230
1.0
 70
     8
 71
     3
 72
    12
 73
     8
 74
     0
 42
0.00000001
 43
0.00000001
 40
0.0
 40
0.0
 40
0.0
 40
0.0
 40
0.25
 40
0.25
 40
0.5
 40
0.5
 40
1.0
 40
1.0
 40
1.0
 40
1.0
 10
42.33350774679463
 20
26.19250808165049
 30
0.0
 10
42.33758618549692
 20
26.08128042164941
 30
0.0
 10
42.34347654642427
 20
25.97053859942273
 30
0.0
 10
42.35628592229656
 20
25.75003530978799
 30
0.0
 10
42.36320493724152
 20
25.64027384237992
 30
0.0
 10
42.38161217745397
 20
25.31247299128836
 30
0.0
 10
42.37887063560501
 20
25.09248412380662
 30
0.0
 10
42.36236848947838
 20
24.87557708490332
 30
0.0
  0
SPLINE
  5
DA
330
1F
100
AcDbEntity
  8
0
  6
Continuous
 62
     7
370
    25
100
AcDbSpline
210
0.0
220
0.0
230
1.0
 70
    24
 71
     3
 72
    10
 73
     6
 74
     0
 42
0.00000001
 43
0.00000001
 40
0.0
 40
0.0
 40
0.0
 40
0.0
 40
0.5
 40
0.5
 40
1.0
 40
1.0
 40
1.0
 40
1.0
 10
42.33350774679463
 20
26.19250808165049
 30
0.0
 10
42.34982150160379
 20
26.19250808165049
 30
0.0
 10
42.3671813454668
 20
26.19250808165049
 30
0.0
 10
42.40283242513272
 20
26.19250808165049
 30
0.0
 10
42.41605548874913
 20
26.19250808165049
 30
0.0
 10
42.4330801747641
 20
26.19250808165049
 30
0.0
  0
SPLINE
  5
DB
330
1F
100
AcDbEntity
  8
0
  6
Continuous
 62
     7
370
    25
100
AcDbSpline
210
0.0
220
0.0
230
1.0
 70
     8
 71
     3
 72
    12
 73
     8
 74
     0
 42
0.00000001
 43
0.00000001
 40
0.0
 40
0.0
 40
0.0
 40
0.0
 40
0.25
 40
0.25
 40
0.5
 40
0.5
 40
1.0
 40
1.0
 40
1.0
 40
1.0
 10
42.33350774679463
 20
26.19250808165049
 30
0.0
 10
42.33758618549692
 20
26.30373574165158
 30
0.0
 10
42.34347654642428
 20
26.41447756387825
 30
0.0
 10
42.35628592229658
 20
26.63498085351301
 30
0.0
 10
42.36320493724153
 20
26.74474232092108
 30
0.0
 10
42.38161217745397
 20
27.07254317201263
 30
0.0
 10
42.37887063560501
 20
27.29253203949437
 30
0.0
 10
42.36236848947838
 20
27.50943907839767
 30
0.0
  0
SPLINE
  5
DC
330
1F
100
AcDbEntity
  8
0
  6
Continuous
 62
     7
370
    25
100
AcDbSpline
210
0.0
220
0.0
230
1.0
 70
     8
 71
     3
 72
    10
 73
     6
 74
     0
 42
0.00000001
 43
0.00000001
 40
0.0
 40
0.0
 40
0.0
 40
0.0
 40
0.5
 40
0.5
 40
1.0
 40
1.0
 40
1.0
 40
1.0
 10
42.36236848947838
 20
27.50943907839767
 30
0.0
 10
42.37390859534407
 20
27.50713494769672
 30
0.0
 10
42.38719787110541
 20
27.50602086912131
 30
0.0
 10
42.41239501525534
 20
27.50494477732099
 30
0.0
 10
42.42430288364393
 20
27.50498276409606
 30
0.0
 10
42.4330801747641
 20
27.50498276409606
 30
0.0
  0
SPLINE
  5
DD
330
1F
100
AcDbEntity
  8
0
  6
Continuous
 62
     7
370
    25
100
AcDbSpline
210
0.0
220
0.0
230
1.0
 70
     8
 71
     3
 72
     8
 73
     4
 74
     0
 42
0.00000001
 43
0.00000001
 40
0.0
 40
0.0
 40
0.0
 40
0.0
 40
1.0
 40
1.0
 40
1.0
 40
1.0
 10
36.49143938826418
 20
30.69250808165049
 30
0.0
 10
36.50045816297177
 20
30.69250808165049
 30
0.0
 10
36.50940429531843
 20
30.70328498352189
 30
0.0
 10
36.51614917801692
 20
30.72179639636478
 30
0.0
  0
SPLINE
  5
DE
330
1F
100
AcDbEntity
  8
0
  6
Continuous
 62
     7
370
    25
100
AcDbSpline
210
0.0
220
0.0
230
1.0
 70
     8
 71
     3
 72
    12
 73
     8
 74
     0
 42
0.00000001
 43
0.00000001
 40
0.0
 40
0.0
 40
0.0
 40
0.0
 40
0.25
 40
0.25
 40
0.5
 40
0.5
 40
1.0
 40
1.0
 40
1.0
 40
1.0
 10
42.36236848947838
 20
27.50943907839767
 30
0.0
 10
42.35659843654555
 20
27.51059114374815
 30
0.0
 10
42.35143592291008
 20
27.51204487660835
 30
0.0
 10
42.34290261825199
 20
27.51545156018449
 30
0.0
 10
42.33953182722937
 20
27.51740451090043
 30
0.0
 10
42.33297200410788
 20
27.52385601408627
 30
0.0
 10
42.3330801747641
 20
27.5288226612458
 30
0.0
 10
42.3330801747641
 20
27.53414886815041
 30
0.0
  0
SPLINE
  5
DF
330
1F
100
AcDbEntity
  8
0
  6
Continuous
 62
     7
370
    25
100
AcDbSpline
210
0.0
220
0.0
230
1.0
 70
     8
 71
     3
 72
     8
 73
     4
 74
     0
 42
0.00000001
 43
0.00000001
 40
0.0
 40
0.0
 40
0.0
 40
0.0
 40
1.0
 40
1.0
 40
1.0
 40
1.0
 10
42.36236848947838
 20
24.87557708490332
 30
0.0
 10
42.34385707663549
 20
24.86883220220482
 30
0.0
 10
42.3330801747641
 20
24.85988606985817
 30
0.0
 10
42.3330801747641
 20
24.85086729515058
 30
0.0
  0
SPLINE
  5
E0
330
1F
100
AcDbEntity
  8
0
  6
Continuous
 62
     7
370
    25
100
AcDbSpline
210
0.0
220
0.0
230
1.0
 70
     8
 71
     3
 72
    12
 73
     8
 74
     0
 42
0.00000001
 43
0.00000001
 40
0.0
 40
0.0
 40
0.0
 40
0.0
 40
0.25
 40
0.25
 40
0.5
 40
0.5
 40
1.0
 40
1.0
 40
1.0
 40
1.0
 10
39.15001117151127
 20
30.72179639636478
 30
0.0
 10
39.15116323686175
 20
30.71602634343193
 30
0.0
 10
39.15261696972195
 20
30.71086382979647
 30
0.0
 10
39.1560236532981
 20
30.70233052513838
 30
0.0
 10
39.15797660401405
 20
30.69895973411576
 30
0.0
 10
39.16442810719987
 20
30.69239991099428
 30
0.0
 10
39.1693947543594
 20
30.69250808165049
 30
0.0
 10
39.17472096126401
 20
30.69250808165049
 30
0.0
  0
SPLINE
  5
E1
330
1F
100
AcDbEntity
  8
0
  6
Continuous
 62
     7
370
    25
100
AcDbSpline
210
0.0
220
0.0
230
1.0
 70
     8
 71
     3
 72
    23
 73
    19
 74
     0
 42
0.00000001
 43
0.00000001
 40
0.0
 40
0.0
 40
0.0
 40
0.0
 40
0.0000335401906397
 40
0.0000335401906397
 40
0.0000335401906397
 40
0.0000670788044387
 40
0.0000670788044387
 40
0.0000670788044387
 40
0.0001006422835424
 40
0.0001006422835424
 40
0.0001006422835424
 40
0.0001342535319641
 40
0.0001342535319641
 40
0.0001342535319641
 40
0.0001499408123296
 40
0.0001499408123296
 40
0.0001499408123296
 40
0.0001563508302713
 40
0.0001563508302713
 40
0.0001563508302713
 40
0.0001563508302713
 10
40.27444347409529
 20
26.3412144517303
 30
0.0
 10
40.27444347409529
 20
26.3412144517303
 30
0.0
 10
40.27622294060624
 20
26.34196503464079
 30
0.0
 10
40.27963443871097
 20
26.34340138779422
 30
0.0
 10
40.2830458472284
 20
26.34483770322844
 30
0.0
 10
40.28818308011417
 20
26.34699898217033
 30
0.0
 10
40.29462161496814
 20
26.34970042754735
 30
0.0
 10
40.30106496133923
 20
26.35240389171451
 30
0.0
 10
40.30898889307785
 20
26.35572236905594
 30
0.0
 10
40.31773977487759
 20
26.35937594462682
 30
0.0
 10
40.32650293473021
 20
26.36303464640041
 30
0.0
 10
40.33633675898238
 20
26.36712994825989
 30
0.0
 10
40.34642931361871
 20
26.37132049734553
 30
0.0
 10
40.35119245817513
 20
26.373298211788
 30
0.0
 10
40.35605711284775
 20
26.37531547090639
 30
0.0
 10
40.36093234882733
 20
26.37733453322046
 30
0.0
 10
40.36290238757923
 20
26.37815041803463
 30
0.0
 10
40.36487776332544
 20
26.37896768511551
 30
0.0
 10
40.366851984638
 20
26.3797848877895
 30
0.0
  0
SPLINE
  5
E2
330
1F
100
AcDbEntity
  8
0
  6
Continuous
 62
     7
370
    25
100
AcDbSpline
210
0.0
220
0.0
230
1.0
 70
     8
 71
     3
 72
    10
 73
     6
 74
     0
 42
0.00000001
 43
0.00000001
 40
0.0
 40
0.0
 40
0.0
 40
0.0
 40
0.5
 40
0.5
 40
1.0
 40
1.0
 40
1.0
 40
1.0
 10
40.2744434740953
 20
26.34121445173031
 30
0.0
 10
40.21379429166409
 20
26.46536091228302
 30
0.0
 10
40.07962351585227
 20
26.543535941759
 30
0.0
 10
39.80364389110979
 20
26.5438445474909
 30
0.0
 10
39.66859878984289
 20
26.46533671433221
 30
0.0
 10
39.60796142881939
 20
26.34121445173066
 30
0.0
  0
SPLINE
  5
E3
330
1F
100
AcDbEntity
  8
0
  6
Continuous
 62
     7
370
    25
100
AcDbSpline
210
0.0
220
0.0
230
1.0
 70
     8
 71
     3
 72
    23
 73
    19
 74
     0
 42
0.00000001
 43
0.00000001
 40
0.0
 40
0.0
 40
0.0
 40
0.0
 40
0.0000335401906397
 40
0.0000335401906397
 40
0.0000335401906397
 40
0.0000670788044387
 40
0.0000670788044387
 40
0.0000670788044387
 40
0.0001006422835424
 40
0.0001006422835424
 40
0.0001006422835424
 40
0.0001342535319641
 40
0.0001342535319641
 40
0.0001342535319641
 40
0.0001499408123296
 40
0.0001499408123296
 40
0.0001499408123296
 40
0.0001563508302713
 40
0.0001563508302713
 40
0.0001563508302713
 40
0.0001563508302713
 10
39.60796142881918
 20
26.34121445173023
 30
0.0
 10
39.60796142881918
 20
26.34121445173023
 30
0.0
 10
39.60618196230809
 20
26.3419650346404
 30
0.0
 10
39.60277046420336
 20
26.34340138779383
 30
0.0
 10
39.59935905568592
 20
26.34483770322806
 30
0.0
 10
39.59422182280016
 20
26.34699898216995
 30
0.0
 10
39.58778328794618
 20
26.34970042754696
 30
0.0
 10
39.5813399415751
 20
26.35240389171411
 30
0.0
 10
39.57341600983647
 20
26.35572236905556
 30
0.0
 10
39.56466512803674
 20
26.35937594462643
 30
0.0
 10
39.55590196818412
 20
26.36303464640002
 30
0.0
 10
39.54606814393193
 20
26.3671299482595
 30
0.0
 10
39.53597558929561
 20
26.37132049734513
 30
0.0
 10
39.5312124447392
 20
26.3732982117876
 30
0.0
 10
39.52634779006659
 20
26.37531547090598
 30
0.0
 10
39.52147255408702
 20
26.37733453322005
 30
0.0
 10
39.51950251533512
 20
26.37815041803421
 30
0.0
 10
39.51752713958889
 20
26.37896768511511
 30
0.0
 10
39.51555291827633
 20
26.37978488778911
 30
0.0
  0
LINE
  5
E4
330
1F
100
AcDbEntity
  8
0
  6
Continuous
 62
     7
370
    25
100
AcDbLine
 10
39.6079614288
 20
26.3412144517
 30
0.0
 11
38.8978371131
 21
24.3557381536
 31
0.0
  0
LINE
  5
E5
330
1F
100
AcDbEntity
  8
0
  6
Continuous
 62
     7
370
    25
100
AcDbLine
 10
38.8036783381
 20
24.3894149271
 30
0.0
 11
38.8978371131
 21
24.3557381536
 31
0.0
  0
LINE
  5
E6
330
1F
100
AcDbEntity
  8
0
  6
Continuous
 62
     7
370
    25
100
AcDbLine
 10
41.0788920884
 20
24.3889521306
 30
0.0
 11
40.9847333133
 21
24.355275357
 31
0.0
  0
LINE
  5
E7
330
1F
100
AcDbEntity
  8
0
  6
Continuous
 62
     7
370
    25
100
AcDbLine
 10
40.9847333133
 20
24.355275357
 30
0.0
 11
40.2744434741
 21
26.3412144517
 31
0.0
  0
SPLINE
  5
E8
330
1F
100
AcDbEntity
  8
0
  6
Continuous
 62
     7
370
    25
100
AcDbSpline
210
0.0
220
0.0
230
1.0
 70
     8
 71
     3
 72
    23
 73
    19
 74
     0
 42
0.00000001
 43
0.00000001
 40
0.0
 40
0.0
 40
0.0
 40
0.0
 40
0.0000062336341986
 40
0.0000062336341986
 40
0.0000062336341986
 40
0.0000229838733481
 40
0.0000229838733481
 40
0.0000229838733481
 40
0.0000399511377778
 40
0.0000399511377778
 40
0.0000399511377778
 40
0.0000566277009136
 40
0.0000566277009136
 40
0.0000566277009136
 40
0.0000727324427906
 40
0.0000727324427906
 40
0.0000727324427906
 40
0.0000883415521142
 40
0.0000883415521142
 40
0.0000883415521142
 40
0.0000883415521142
 10
41.04264876032224
 20
23.30471323481718
 30
0.0
 10
41.04420277937324
 20
23.30333388640319
 30
0.0
 10
41.04585192014308
 20
23.30205509831064
 30
0.0
 10
41.04757336071241
 20
23.30089138888631
 30
0.0
 10
41.05214124569271
 20
23.29780345724608
 30
0.0
 10
41.05731802981317
 20
23.29548365584574
 30
0.0
 10
41.06265437540085
 20
23.29409646055421
 30
0.0
 10
41.068060354601
 20
23.2926911638452
 30
0.0
 10
41.07378276624861
 20
23.29220128384604
 30
0.0
 10
41.07934959182357
 20
23.29265945736209
 30
0.0
 10
41.08482285003221
 20
23.29310992988435
 30
0.0
 10
41.09029570520146
 20
23.29448920218008
 30
0.0
 10
41.09532027128787
 20
23.2967057798474
 30
0.0
 10
41.10017402429737
 20
23.29884700365429
 30
0.0
 10
41.1047387659592
 20
23.3018286863821
 30
0.0
 10
41.10862409995623
 20
23.30544087926179
 30
0.0
 10
41.11238982124937
 20
23.30894186827648
 30
0.0
 10
41.11561682401705
 20
23.31313218994646
 30
0.0
 10
41.11800533802261
 20
23.31768549443703
 30
0.0
  0
LINE
  5
E9
330
1F
100
AcDbEntity
  8
0
  6
Continuous
 62
     7
370
    25
100
AcDbLine
 10
41.118005338
 20
23.3176854944
 30
0.0
 11
41.2065608986
 21
23.2712321555
 31
0.0
  0
LINE
  5
EA
330
1F
100
AcDbEntity
  8
0
  6
Continuous
 62
     7
370
    25
100
AcDbLine
 10
41.0426487603
 20
23.3047132348
 30
0.0
 11
40.9762662119
 21
23.2299244839
 31
0.0
  0
SPLINE
  5
EB
330
1F
100
AcDbEntity
  8
0
  6
Continuous
 62
     7
370
    25
100
AcDbSpline
210
0.0
220
0.0
230
1.0
 70
     8
 71
     3
 72
    14
 73
    10
 74
     0
 42
0.00000001
 43
0.00000001
 40
0.0
 40
0.0
 40
0.0
 40
0.0
 40
0.4999999999999993
 40
0.4999999999999993
 40
0.6249999999999996
 40
0.6249999999999996
 40
0.7499999999999999
 40
0.7499999999999999
 40
1.0
 40
1.0
 40
1.0
 40
1.0
 10
38.83975614259243
 20
23.30471323481719
 30
0.0
 10
39.1423258604149
 20
23.57327433136906
 30
0.0
 10
39.54007887333382
 20
23.717831573104
 30
0.0
 10
40.04142743510898
 20
23.71784479793205
 30
0.0
 10
40.14263642526544
 20
23.70879963421456
 30
0.0
 10
40.33916558076884
 20
23.67345093716408
 30
0.0
 10
40.43549745905825
 20
23.64720180913512
 30
0.0
 10
40.71846935253634
 20
23.54172897951674
 30
0.0
 10
40.89134876293016
 20
23.43900722001938
 30
0.0
 10
41.0426487603222
 20
23.30471323481713
 30
0.0
  0
LINE
  5
EC
330
1F
100
AcDbEntity
  8
0
  6
Continuous
 62
     7
370
    25
100
AcDbLine
 10
38.8397561426
 20
23.3047132348
 30
0.0
 11
38.906138691
 21
23.2299244839
 31
0.0
  0
LINE
  5
ED
330
1F
100
AcDbEntity
  8
0
  6
Continuous
 62
     7
370
    25
100
AcDbLine
 10
41.5670026438
 20
24.1736241426
 30
0.0
 11
41.5435170012
 21
24.1602030295
 31
0.0
  0
LINE
  5
EE
330
1F
100
AcDbEntity
  8
0
  6
Continuous
 62
     7
370
    25
100
AcDbLine
 10
41.5435170012
 20
24.1602030295
 30
0.0
 11
41.4939010287
 21
24.2470261559
 31
0.0
  0
LINE
  5
EF
330
1F
100
AcDbEntity
  8
0
  6
Continuous
 62
     7
370
    25
100
AcDbLine
 10
41.5670026438
 20
24.1736241426
 30
0.0
 11
41.8145515868
 21
24.4302652299
 31
0.0
  0
LINE
  5
F0
330
1F
100
AcDbEntity
  8
0
  6
Continuous
 62
     7
370
    25
100
AcDbLine
 10
42.2330801748
 20
29.6925080817
 30
0.0
 11
42.2330801748
 21
29.5925080817
 31
0.0
  0
ARC
  5
F1
330
1F
100
AcDbEntity
  8
0
  6
Continuous
 62
     7
370
    25
100
AcDbCircle
 10
42.2330801748
 20
29.5925080817
 30
0.0
 40
0.1000000000000014
100
AcDbArc
 50
0.0
 51
90.0
  0
LINE
  5
F2
330
1F
100
AcDbEntity
  8
0
  6
Continuous
 62
     7
370
    25
100
AcDbLine
 10
41.8330801748
 20
29.6925080817
 30
0.0
 11
42.2330801748
 21
29.6925080817
 31
0.0
  0
LINE
  5
F3
330
1F
100
AcDbEntity
  8
0
  6
Continuous
 62
     7
370
    25
100
AcDbLine
 10
41.8330801748
 20
29.6925080817
 30
0.0
 11
41.8330801748
 21
29.5925080817
 31
0.0
  0
SPLINE
  5
F4
330
1F
100
AcDbEntity
  8
0
  6
Continuous
 62
     7
370
    25
100
AcDbSpline
210
0.0
220
0.0
230
1.0
 70
     8
 71
     3
 72
    10
 73
     6
 74
     0
 42
0.00000001
 43
0.00000001
 40
0.0
 40
0.0
 40
0.0
 40
0.0
 40
0.5
 40
0.5
 40
1.0
 40
1.0
 40
1.0
 40
1.0
 10
41.54351700124447
 20
24.1602030295271
 30
0.0
 10
41.44534577510208
 20
24.10410206814462
 30
0.0
 10
41.32443515809348
 20
24.09345028034758
 30
0.0
 10
41.11239680614791
 20
24.16546345572076
 30
0.0
 10
41.02284642928419
 20
24.24871276407277
 30
0.0
 10
40.98473331333208
 20
24.35527535698985
 30
0.0
  0
ARC
  5
F5
330
1F
100
AcDbEntity
  8
0
  6
Continuous
 62
     7
370
    25
100
AcDbCircle
 10
42.2330801748
 20
22.7925080817
 30
0.0
 40
0.100000000000005
100
AcDbArc
 50
270.0
 51
0.0
  0
LINE
  5
F6
330
1F
100
AcDbEntity
  8
0
  6
Continuous
 62
     7
370
    25
100
AcDbLine
 10
42.2330801748
 20
22.7925080817
 30
0.0
 11
42.2330801748
 21
22.6925080817
 31
0.0
  0
SPLINE
  5
F7
330
1F
100
AcDbEntity
  8
0
  6
Continuous
 62
     7
370
    25
100
AcDbSpline
210
0.0
220
0.0
230
1.0
 70
     8
 71
     3
 72
    10
 73
     6
 74
     0
 42
0.00000001
 43
0.00000001
 40
0.0
 40
0.0
 40
0.0
 40
0.0
 40
0.5
 40
0.5
 40
1.0
 40
1.0
 40
1.0
 40
1.0
 10
38.89783711313544
 20
24.35573815355267
 30
0.0
 10
38.86001998489603
 20
24.25000312923866
 30
0.0
 10
38.77140280517899
 20
24.16726158014502
 30
0.0
 10
38.56270167773916
 20
24.09457117211221
 30
0.0
 10
38.4427673862073
 20
24.10353369849788
 30
0.0
 10
38.3444873385043
 20
24.15761830035563
 30
0.0
  0
LINE
  5
F8
330
1F
100
AcDbEntity
  8
0
  6
Continuous
 62
     7
370
    25
100
AcDbLine
 10
38.3927001381
 20
24.2452283794
 30
0.0
 11
38.3444873385
 21
24.1576183004
 31
0.0
  0
ARC
  5
F9
330
1F
100
AcDbEntity
  8
0
  6
Continuous
 62
     7
370
    25
100
AcDbCircle
 10
36.3330801748
 20
24.6925080817
 30
0.0
 40
2.000000000000004
100
AcDbArc
 50
180.0
 51
270.0
  0
LINE
  5
FA
330
1F
100
AcDbEntity
  8
0
  6
Continuous
 62
     7
370
    25
100
AcDbLine
 10
34.3330801748
 20
24.6925080817
 30
0.0
 11
34.4330801748
 21
24.6925080817
 31
0.0
  0
LINE
  5
FB
330
1F
100
AcDbEntity
  8
0
  6
Continuous
 62
     7
370
    25
100
AcDbLine
 10
36.3330801748
 20
22.7925080817
 30
0.0
 11
36.3330801748
 21
22.6925080817
 31
0.0
  0
LINE
  5
FC
330
1F
100
AcDbEntity
  8
0
  6
Continuous
 62
     7
370
    25
100
AcDbLine
 10
41.2330801748
 20
30.1925080817
 30
0.0
 11
41.3330801748
 21
30.1925080817
 31
0.0
  0
ARC
  5
FD
330
1F
100
AcDbEntity
  8
0
  6
Continuous
 62
     7
370
    25
100
AcDbCircle
 10
41.8330801748
 20
30.1925080817
 30
0.0
 40
0.5
100
AcDbArc
 50
180.0
 51
270.0
  0
ARC
  5
FE
330
1F
100
AcDbEntity
  8
0
  6
Continuous
 62
     7
370
    25
100
AcDbCircle
 10
34.4330801748
 20
30.5925080817
 30
0.0
 40
0.1000000000000014
100
AcDbArc
 50
90.0
 51
180.0
  0
LINE
  5
FF
330
1F
100
AcDbEntity
  8
0
  6
Continuous
 62
     7
370
    25
100
AcDbLine
 10
34.3330801748
 20
30.5925080817
 30
0.0
 11
34.4330801748
 21
30.5925080817
 31
0.0
  0
ARC
  5
100
330
1F
100
AcDbEntity
  8
0
  6
Continuous
 62
     7
370
    25
100
AcDbCircle
 10
41.2330801748
 20
30.5925080817
 30
0.0
 40
0.1000000000000014
100
AcDbArc
 50
0.0
 51
90.0
  0
LINE
  5
101
330
1F
100
AcDbEntity
  8
0
  6
Continuous
 62
     7
370
    25
100
AcDbLine
 10
41.2330801748
 20
30.5925080817
 30
0.0
 11
41.3330801748
 21
30.5925080817
 31
0.0
  0
LINE
  5
102
330
1F
100
AcDbEntity
  8
0
  6
Continuous
 62
     7
370
    25
100
AcDbLine
 10
38.3444873385
 20
24.1576183004
 30
0.0
 11
38.3154022591
 21
24.1736241426
 31
0.0
  0
LINE
  5
103
330
1F
100
AcDbEntity
  8
0
  6
Continuous
 62
     7
370
    25
100
AcDbLine
 10
38.07247716
 20
24.421450641
 30
0.0
 11
38.3154022591
 21
24.1736241426
 31
0.0
  0
LINE
  5
104
330
1F
100
AcDbEntity
  8
0
  6
Continuous
 62
     7
370
    25
100
AcDbLine
 10
42.2330801748
 20
22.6925080817
 30
0.0
 11
36.3330801748
 21
22.6925080817
 31
0.0
  0
SPLINE
  5
105
330
1F
100
AcDbEntity
  8
0
  6
Continuous
 62
     7
370
    25
100
AcDbSpline
210
0.0
220
0.0
230
1.0
 70
     8
 71
     3
 72
    23
 73
    19
 74
     0
 42
0.00000001
 43
0.00000001
 40
0.0
 40
0.0
 40
0.0
 40
0.0
 40
0.0000054523451471
 40
0.0000054523451471
 40
0.0000054523451471
 40
0.0000215286296671
 40
0.0000215286296671
 40
0.0000215286296671
 40
0.0000382514358266
 40
0.0000382514358266
 40
0.0000382514358266
 40
0.0000552347046226
 40
0.0000552347046226
 40
0.0000552347046226
 40
0.0000720169920566
 40
0.0000720169920566
 40
0.0000720169920566
 40
0.000088430616498
 40
0.000088430616498
 40
0.000088430616498
 40
0.000088430616498
 10
38.76439956489102
 20
23.317685494439
 30
0.0
 10
38.76524383034745
 20
23.31607604283625
 30
0.0
 10
38.76618800103827
 20
23.31451531442112
 30
0.0
 10
38.76722034397464
 20
23.31301952476871
 30
0.0
 10
38.77022442341557
 20
23.30866683266953
 30
0.0
 10
38.77405047894779
 20
23.30479475989124
 30
0.0
 10
38.77834202896933
 20
23.30170396384322
 30
0.0
 10
38.78280506417884
 20
23.29848966329481
 30
0.0
 10
38.78789895202156
 20
23.29602459218293
 30
0.0
 10
38.79317904476388
 20
23.2944847766325
 30
0.0
 10
38.79854172632216
 20
23.29292087598561
 30
0.0
 10
38.80424822716424
 20
23.29226497734712
 30
0.0
 10
38.80982644845457
 20
23.29256092660764
 30
0.0
 10
38.81533995102626
 20
23.29285344225448
 30
0.0
 10
38.82088032605105
 20
23.29408389096602
 30
0.0
 10
38.82599216766834
 20
23.29617035958343
 30
0.0
 10
38.83099162709416
 20
23.29821095786032
 30
0.0
 10
38.83571764450691
 20
23.30112866104696
 30
0.0
 10
38.83975614259083
 20
23.30471323481578
 30
0.0
  0
LINE
  5
106
330
1F
100
AcDbEntity
  8
0
  6
Continuous
 62
     7
370
    25
100
AcDbLine
 10
38.7643995649
 20
23.3176854944
 30
0.0
 11
38.6758440043
 21
23.2712321555
 31
0.0
  0
LINE
  5
107
330
1F
100
AcDbEntity
  8
0
  6
Continuous
 62
     7
370
    25
100
AcDbLine
 10
40.1124372312
 20
24.3559369382
 30
0.0
 11
39.769967672
 21
24.3559369382
 31
0.0
  0
LINE
  5
108
330
1F
100
AcDbEntity
  8
0
  6
Continuous
 62
     7
370
    25
100
AcDbLine
 10
39.7249357844
 20
24.4168447444
 30
0.0
 11
39.8961705649
 21
24.8738476025
 31
0.0
  0
ELLIPSE
  5
109
330
1F
100
AcDbEntity
  8
0
  6
Continuous
 62
     7
370
    25
100
AcDbEllipse
 10
40.1124372312
 20
24.4015151371
 30
0.0
 11
0.04781765271718541
 21
0.0
 31
0.0
210
0.0
220
0.0
230
1.0
 40
0.9531667975
 41
4.712388980384703
 42
6.626209245739806
  0
ELLIPSE
  5
10A
330
1F
100
AcDbEntity
  8
0
  6
Continuous
 62
     7
370
    25
100
AcDbEllipse
 10
39.769967672
 20
24.4015151371
 30
0.0
 11
-0.04781765271718541
 21
0.0
 31
0.0
210
0.0
220
0.0
230
1.0
 40
0.9531667975
 41
5.940161364898064
 42
7.853981633974483
  0
LINE
  5
10B
330
1F
100
AcDbEntity
  8
0
  6
Continuous
 62
     7
370
    25
100
AcDbLine
 10
39.9862343403
 20
24.8738476025
 30
0.0
 11
40.1574691189
 21
24.4168447443
 31
0.0
  0
ELLIPSE
  5
10C
330
1F
100
AcDbEntity
  8
0
  6
Continuous
 62
     7
370
    25
100
AcDbEllipse
 10
39.9412024526
 20
24.8585179953
 30
0.0
 11
0.04781765271718541
 21
0.0
 31
0.0
210
0.0
220
0.0
230
1.0
 40
0.9531667975
 41
0.3430239404215659
 42
2.798568713169011
  0
LINE
  5
10D
330
1F
100
AcDbEntity
  8
0
  6
Continuous
 62
     7
370
    25
100
AcDbLine
 10
38.3154022591
 20
24.1736241426
 30
0.0
 11
38.7643995649
 21
23.3176854944
 31
0.0
  0
LINE
  5
10E
330
1F
100
AcDbEntity
  8
0
  6
Continuous
 62
     7
370
    25
100
AcDbLine
 10
41.118005338
 20
23.3176854944
 30
0.0
 11
41.5670026438
 21
24.1736241426
 31
0.0
  0
LINE
  5
10F
330
1F
100
AcDbEntity
  8
0
  6
Continuous
 62
     7
370
    25
100
AcDbLine
 10
41.3330801748
 20
30.5925080817
 30
0.0
 11
41.3330801748
 21
30.1925080817
 31
0.0
  0
LINE
  5
110
330
1F
100
AcDbEntity
  8
0
  6
Continuous
 62
     7
370
    25
100
AcDbLine
 10
34.3330801748
 20
24.6925080817
 30
0.0
 11
34.3330801748
 21
30.5925080817
 31
0.0
  0
ARC
  5
111
330
1F
100
AcDbEntity
  8
0
  6
Continuous
 62
     7
370
    25
100
AcDbCircle
 10
41.2484254433
 20
30.7811659266
 30
0.0
 40
0.0899760565095066
100
AcDbArc
 50
172.7581719502
 51
260.1802968299
  0
ARC
  5
112
330
1F
100
AcDbEntity
  8
0
  6
Continuous
 62
     7
370
    25
100
AcDbCircle
 10
42.4217380198
 20
22.7771628131
 30
0.0
 40
0.0899760565095002
100
AcDbArc
 50
82.7581719502
 51
170.1802968299
  0
ARC
  5
113
330
1F
100
AcDbEntity
  8
0
  6
Continuous
 62
     7
370
    25
100
AcDbCircle
 10
42.4217380198
 20
29.6078533502
 30
0.0
 40
0.0899760565095142
100
AcDbArc
 50
189.8197031701
 51
277.2418280498
  0
ARC
  5
114
330
1F
100
AcDbEntity
  8
0
  6
Continuous
 62
     7
370
    25
100
AcDbCircle
 10
34.4177349062
 20
30.7811659266
 30
0.0
 40
0.0899760565095136
100
AcDbArc
 50
279.8197031701
 51
7.2418280498
  0
LWPOLYLINE
  5
115
330
1F
100
AcDbEntity
  8
0
  6
Continuous
 62
     7
370
    25
100
AcDbPolyline
 90
        9
 70
   128
 43
0.0
 10
35.9009799913
 20
22.7147277514
 10
35.9037799887
 20
22.7197837815
 10
35.9065577501
 20
22.7241859152
 10
35.9092912162
 20
22.7278991935
 10
35.9119586795
 20
22.7308941277
 10
35.9145389564
 20
22.7331469337
 10
35.917011556
 20
22.7346397212
 10
35.9193568424
 20
22.7353606352
 10
35.9215561905
 20
22.7353039507
  0
SPLINE
  5
116
330
1F
100
AcDbEntity
  8
0
  6
Continuous
 62
     7
370
    25
100
AcDbSpline
210
0.0
220
0.0
230
1.0
 70
     8
 71
     3
 72
    12
 73
     8
 74
     0
 42
0.00000001
 43
0.00000001
 40
0.0
 40
0.0
 40
0.0
 40
0.0
 40
0.25
 40
0.25
 40
0.5
 40
0.5
 40
1.0
 40
1.0
 40
1.0
 40
1.0
 10
35.900979991314
 20
22.71472775144031
 30
0.0
 10
35.71403113057784
 20
22.75306917789723
 30
0.0
 10
35.53461089727897
 20
22.81728736284672
 30
0.0
 10
35.19205304470898
 20
23.00037183737599
 30
0.0
 10
35.0352564491399
 20
23.11638190657683
 30
0.0
 10
34.62128478408581
 20
23.52959359339413
 30
0.0
 10
34.43200037136173
 20
23.8864240006348
 30
0.0
 10
34.35529984455391
 20
24.26040789820039
 30
0.0
  0
LWPOLYLINE
  5
117
330
1F
100
AcDbEntity
  8
0
  6
Continuous
 62
     7
370
    25
100
AcDbPolyline
 90
        9
 70
   128
 43
0.0
 10
34.3758760438
 20
24.2809840974
 10
34.3759327283
 20
24.2787847493
 10
34.3752118143
 20
24.2764394629
 10
34.3737190268
 20
24.2739668633
 10
34.3714662208
 20
24.2713865864
 10
34.3684712866
 20
24.2687191231
 10
34.3647580083
 20
24.265985657
 10
34.3603558746
 20
24.2632078956
 10
34.3552998446
 20
24.2604078982
  0
LINE
  5
118
330
1F
100
AcDbEntity
  8
0
  6
Continuous
 62
     7
370
    25
100
AcDbLine
 10
41.3330801748
 20
30.5925080817
 30
0.0
 11
41.3548193052
 21
30.5925080817
 31
0.0
  0
LINE
  5
119
330
1F
100
AcDbEntity
  8
0
  6
Continuous
 62
     7
370
    25
100
AcDbLine
 10
42.2330801748
 20
22.6707689512
 30
0.0
 11
42.2330801748
 21
22.6925080817
 31
0.0
  0
LINE
  5
11A
330
1F
100
AcDbEntity
  8
0
  6
Continuous
 62
     7
370
    25
100
AcDbLine
 10
42.2330801748
 20
29.7142472121
 30
0.0
 11
42.2330801748
 21
29.6925080817
 31
0.0
  0
LINE
  5
11B
330
1F
100
AcDbEntity
  8
0
  6
Continuous
 62
     7
370
    25
100
AcDbLine
 10
34.3330801748
 20
30.5925080817
 30
0.0
 11
34.3113410443
 21
30.5925080817
 31
0.0
  0
LINE
  5
11C
330
1F
100
AcDbEntity
  8
0
  6
Continuous
 62
     7
370
    25
100
AcDbLine
 10
36.3330801748
 20
22.6707689512
 30
0.0
 11
36.3330801748
 21
22.6925080817
 31
0.0
  0
LINE
  5
11D
330
1F
100
AcDbEntity
  8
0
  6
Continuous
 62
     7
370
    25
100
AcDbLine
 10
34.3330801748
 20
24.6925080817
 30
0.0
 11
34.3113410443
 21
24.6925080817
 31
0.0
  0
SPLINE
  5
11E
330
1F
100
AcDbEntity
  8
0
  6
Continuous
 62
     7
370
    25
100
AcDbSpline
210
0.0
220
0.0
230
1.0
 70
    24
 71
     3
 72
    17
 73
    13
 74
     0
 42
0.00000001
 43
0.00000001
 40
0.0
 40
0.0
 40
0.0
 40
0.0
 40
0.0000507892261014
 40
0.0000507892261014
 40
0.0000507892261014
 40
0.0001012206134828
 40
0.0001012206134828
 40
0.0001012206134828
 40
0.0001277276396247
 40
0.0001277276396247
 40
0.0001277276396247
 40
0.0001298530789872
 40
0.0001298530789872
 40
0.0001298530789872
 40
0.0001298530789872
 10
41.51232685783042
 20
29.87175476471677
 30
0.0
 10
41.50387936070147
 20
29.86330726758781
 30
0.0
 10
41.49701362324964
 20
29.85644153013603
 30
0.0
 10
41.49184671748784
 20
29.85127462437423
 30
0.0
 10
41.48670282174669
 20
29.84613072863308
 30
0.0
 10
41.48310767423065
 20
29.84253558111704
 30
0.0
 10
41.48118697040491
 20
29.8406148772913
 30
0.0
 10
41.48017016582276
 20
29.83959807270915
 30
0.0
 10
41.47961225482692
 20
29.83904016171331
 30
0.0
 10
41.47953588573387
 20
29.83896379262026
 30
0.0
 10
41.4795298217778
 20
29.83895772866418
 30
0.0
 10
41.47952678417084
 20
29.83895469105724
 30
0.0
 10
41.47952678417083
 20
29.83895469105722
 30
0.0
  0
LINE
  5
11F
330
1F
100
AcDbEntity
  8
0
  6
Continuous
 62
     7
370
    25
100
AcDbLine
 10
41.3330801748
 20
30.1925080817
 30
0.0
 11
41.3548193052
 21
30.1925080817
 31
0.0
  0
LINE
  5
120
330
1F
100
AcDbEntity
  8
0
  6
Continuous
 62
     7
370
    25
100
AcDbLine
 10
41.8330801748
 20
29.7142472121
 30
0.0
 11
41.8330801748
 21
29.6925080817
 31
0.0
  0
LINE
  5
121
330
1F
100
AcDbEntity
  8
0
  6
Continuous
 62
     7
370
    25
100
AcDbLine
 10
45.5330801748
 20
21.6925080817
 30
0.0
 11
45.5330801748
 21
30.6925080817
 31
0.0
  0
LINE
  5
122
330
1F
100
AcDbEntity
  8
0
  6
Continuous
 62
     7
370
    25
100
AcDbLine
 10
42.3330801748
 20
33.8925080817
 30
0.0
 11
33.3330801748
 21
33.8925080817
 31
0.0
  0
LINE
  5
123
330
1F
100
AcDbEntity
  8
0
  6
Continuous
 62
     7
370
    25
100
AcDbLine
 10
33.3330801748
 20
23.6925080817
 30
0.0
 11
34.3552998446
 21
24.2604078982
 31
0.0
  0
LINE
  5
124
330
1F
100
AcDbEntity
  8
0
  6
Continuous
 62
     7
370
    25
100
AcDbLine
 10
35.9009799913
 20
22.7147277514
 30
0.0
 11
35.3330801748
 21
21.6925080817
 31
0.0
  0
LINE
  5
125
330
1F
100
AcDbEntity
  8
FORMAT
100
AcDbLine
 10
50.7140801748
 20
21.9095080817
 30
0.0
 11
45.8330801748
 21
21.9095080817
 31
0.0
  0
LINE
  5
126
330
1F
100
AcDbEntity
  8
FORMAT
100
AcDbLine
 10
50.7140801748
 20
30.4755080817
 30
0.0
 11
45.8330801748
 21
30.4755080817
 31
0.0
  0
LINE
  5
127
330
1F
100
AcDbEntity
  8
FORMAT
100
AcDbLine
 10
45.8330801748
 20
31.0565080817
 30
0.0
 11
45.8330801748
 21
21.3285080817
 31
0.0
  0
LINE
  5
128
330
1F
100
AcDbEntity
  8
FORMAT
100
AcDbLine
 10
42.0860547924
 20
42.754343191
 30
0.0
 11
42.3531746395
 21
34.2065080817
 31
0.0
  0
LINE
  5
129
330
1F
100
AcDbEntity
  8
FORMAT
100
AcDbLine
 10
33.5801055572
 20
42.754343191
 30
0.0
 11
33.31298571
 21
34.2065080817
 31
0.0
  0
LINE
  5
12A
330
1F
100
AcDbEntity
  8
FORMAT
100
AcDbLine
 10
32.7927219551
 20
34.2065080817
 30
0.0
 11
42.8734383944
 21
34.2065080817
 31
0.0
  0
LINE
  5
12B
330
1F
100
AcDbEntity
  8
FORMAT
  6
CENTERX2
370
    18
100
AcDbLine
 10
37.8330801748
 20
20.6336876986
 30
0.0
 11
37.8330801748
 21
43.9454470533
 31
0.0
  0
LINE
  5
12C
330
1F
100
AcDbEntity
  8
FORMAT
  6
CENTERX2
370
    18
100
AcDbLine
 10
32.7110733729
 20
26.1925080817
 30
0.0
 11
58.4645782725
 21
26.1925080817
 31
0.0
  0
ARC
  5
12D
330
1F
100
AcDbEntity
  8
0
  6
Continuous
 62
     7
370
    25
100
AcDbCircle
 10
68.1768016014
 20
34.4925080817
 30
0.0
 40
0.3000000000000043
100
AcDbArc
 50
252.4702376396
 51
270.0
  0
ARC
  5
12E
330
1F
100
AcDbEntity
  8
0
  6
Continuous
 62
     7
370
    25
100
AcDbCircle
 10
78.0768016014
 20
34.4925080817
 30
0.0
 40
0.3000000000000043
100
AcDbArc
 50
270.0
 51
287.5297623604
  0
LINE
  5
12F
330
1F
100
AcDbEntity
  8
0
  6
Continuous
 62
     7
370
    25
100
AcDbLine
 10
78.1671619519
 20
34.2064398956
 30
0.0
 11
77.9298115072
 21
41.8016541258
 31
0.0
  0
LINE
  5
130
330
1F
100
AcDbEntity
  8
0
  6
Continuous
 62
     7
370
    25
100
AcDbLine
 10
68.3237916956
 20
41.8016541258
 30
0.0
 11
68.0864412509
 21
34.2064398956
 31
0.0
  0
LINE
  5
131
330
1F
100
AcDbEntity
  8
0
  6
Continuous
 62
     7
370
    25
100
AcDbLine
 10
77.9298115072
 20
41.8016541258
 30
0.0
 11
77.1268016014
 21
43.1925080817
 31
0.0
  0
LINE
  5
132
330
1F
100
AcDbEntity
  8
0
  6
Continuous
 62
     7
370
    25
100
AcDbLine
 10
69.1268016014
 20
43.1925080817
 30
0.0
 11
68.3237916956
 21
41.8016541258
 31
0.0
  0
ARC
  5
133
330
1F
100
AcDbEntity
  8
0
  6
Continuous
 62
     7
370
    25
100
AcDbCircle
 10
68.3268016014
 20
33.8925080817
 30
0.0
 40
0.2999999999999972
100
AcDbArc
 50
0.0
 51
90.0
  0
ARC
  5
134
330
1F
100
AcDbEntity
  8
0
  6
Continuous
 62
     7
370
    25
100
AcDbCircle
 10
77.9268016014
 20
33.8925080817
 30
0.0
 40
0.2999999999999972
100
AcDbArc
 50
90.0
 51
180.0
  0
LINE
  5
135
330
1F
100
AcDbEntity
  8
0
  6
Continuous
 62
     7
370
    25
100
AcDbLine
 10
77.6268016014
 20
30.7925080817
 30
0.0
 11
77.6268016014
 21
33.8925080817
 31
0.0
  0
LINE
  5
136
330
1F
100
AcDbEntity
  8
0
  6
Continuous
 62
     7
370
    25
100
AcDbLine
 10
68.6268016014
 20
33.8925080817
 30
0.0
 11
68.6268016014
 21
30.7925080817
 31
0.0
  0
CIRCLE
  5
137
330
1F
100
AcDbEntity
  8
0
  6
Continuous
 62
     7
370
    25
100
AcDbCircle
 10
73.1268016014
 20
26.1925080817
 30
0.0
 40
3.275000000000006
  0
CIRCLE
  5
138
330
1F
100
AcDbEntity
  8
0
  6
Continuous
 62
     7
370
    25
100
AcDbCircle
 10
73.1268016014
 20
26.1925080817
 30
0.0
 40
3.075000000000003
  0
CIRCLE
  5
139
330
1F
100
AcDbEntity
  8
0
  6
Continuous
 62
     7
370
    25
100
AcDbCircle
 10
73.1268016014
 20
26.1925080817
 30
0.0
 40
5.75
  0
SPLINE
  5
13A
330
1F
100
AcDbEntity
  8
0
  6
Continuous
 62
     7
370
    25
100
AcDbSpline
210
0.0
220
0.0
230
1.0
 70
    24
 71
     3
 72
    15
 73
    11
 74
     0
 42
0.00000001
 43
0.00000001
 40
0.0
 40
0.0
 40
0.0
 40
0.0
 40
0.1323034284088761
 40
0.2645694515465831
 40
0.3997942148562106
 40
0.5349945762150157
 40
0.6501872613017049
 40
0.7653979157221156
 40
0.8826876171264835
 40
1.0
 40
1.0
 40
1.0
 40
1.0
 10
67.12680160136492
 20
29.65660969678826
 30
0.0
 10
67.38602191130194
 20
29.80627061250982
 30
0.0
 10
67.90438924353631
 20
30.10555013131445
 30
0.0
 10
68.70262864768239
 20
30.56641386617596
 30
0.0
 10
69.51591475182452
 20
31.0359648173306
 30
0.0
 10
70.29974772968443
 20
31.48851099809773
 30
0.0
 10
71.04124205897811
 20
31.91661294871803
 30
0.0
 10
71.74103833363421
 20
32.32064051626863
 30
0.0
 10
72.43767073654108
 20
32.72284142161313
 30
0.0
 10
72.89707650788245
 20
32.98807946736434
 30
0.0
 10
73.12680160136485
 20
33.12071131192601
 30
0.0
  0
SPLINE
  5
13B
330
1F
100
AcDbEntity
  8
0
  6
Continuous
 62
     7
370
    25
100
AcDbSpline
210
0.0
220
0.0
230
1.0
 70
    24
 71
     3
 72
    15
 73
    11
 74
     0
 42
0.00000001
 43
0.00000001
 40
0.0
 40
0.0
 40
0.0
 40
0.0
 40
0.1323034284088745
 40
0.2645694515465797
 40
0.3997942148562055
 40
0.5349945762150087
 40
0.6501872613016995
 40
0.7653979157221116
 40
0.8826876171264814
 40
1.0
 40
1.0
 40
1.0
 40
1.0
 10
73.12680160136485
 20
33.12071131192601
 30
0.0
 10
73.38602191130187
 20
32.97105039620446
 30
0.0
 10
73.90438924353624
 20
32.67177087739983
 30
0.0
 10
74.70262864768233
 20
32.21090714253834
 30
0.0
 10
75.51591475182447
 20
31.7413561913837
 30
0.0
 10
76.2997477296844
 20
31.28881001061658
 30
0.0
 10
77.0412420589781
 20
30.86070805999629
 30
0.0
 10
77.74103833363421
 20
30.45668049244569
 30
0.0
 10
78.43767073654111
 20
30.05447958710119
 30
0.0
 10
78.8970765078825
 20
29.78924154134998
 30
0.0
 10
79.1268016013649
 20
29.6566096967883
 30
0.0
  0
SPLINE
  5
13C
330
1F
100
AcDbEntity
  8
0
  6
Continuous
 62
     7
370
    25
100
AcDbSpline
210
0.0
220
0.0
230
1.0
 70
    24
 71
     3
 72
    16
 73
    12
 74
     0
 42
0.00000001
 43
0.00000001
 40
0.0
 40
0.0
 40
0.0
 40
0.0
 40
0.0941069532270582
 40
0.1882048666342559
 40
0.2831935229989864
 40
0.3781719080195131
 40
0.5036909879207752
 40
0.6292107879915382
 40
0.7580763715179232
 40
0.8869777414902223
 40
0.9999999999999999
 40
0.9999999999999999
 40
0.9999999999999999
 40
0.9999999999999999
 10
79.1268016013649
 20
29.6566096967883
 30
0.0
 10
79.1268016013649
 20
29.44398190085304
 30
0.0
 10
79.1268016013649
 20
29.01874673379605
 30
0.0
 10
79.12680160136492
 20
28.37017250281349
 30
0.0
 10
79.12680160136492
 20
27.71351208450797
 30
0.0
 10
79.12680160136492
 20
26.97815264024234
 30
0.0
 10
79.12680160136493
 20
26.16662680266123
 30
0.0
 10
79.12680160136493
 20
25.27578118335056
 30
0.0
 10
79.12680160136495
 20
24.38387490184669
 30
0.0
 10
79.12680160136495
 20
23.53090883047287
 30
0.0
 10
79.12680160136495
 20
22.98394014913377
 30
0.0
 10
79.12680160136495
 20
22.72840646651277
 30
0.0
  0
SPLINE
  5
13D
330
1F
100
AcDbEntity
  8
0
  6
Continuous
 62
     7
370
    25
100
AcDbSpline
210
0.0
220
0.0
230
1.0
 70
    24
 71
     3
 72
    15
 73
    11
 74
     0
 42
0.00000001
 43
0.00000001
 40
0.0
 40
0.0
 40
0.0
 40
0.0
 40
0.1323034284088745
 40
0.2645694515465798
 40
0.3997942148562055
 40
0.5349945762150088
 40
0.6501872613016996
 40
0.7653979157221119
 40
0.8826876171264816
 40
1.0
 40
1.0
 40
1.0
 40
1.0
 10
79.12680160136495
 20
22.72840646651277
 30
0.0
 10
78.86758129142792
 20
22.57874555079121
 30
0.0
 10
78.34921395919355
 20
22.27946603198658
 30
0.0
 10
77.55097455504747
 20
21.81860229712508
 30
0.0
 10
76.73768845090534
 20
21.34905134597043
 30
0.0
 10
75.95385547304542
 20
20.8965051652033
 30
0.0
 10
75.21236114375172
 20
20.46840321458299
 30
0.0
 10
74.51256486909561
 20
20.06437564703239
 30
0.0
 10
73.81593246618873
 20
19.66217474168787
 30
0.0
 10
73.35652669484735
 20
19.39693669593666
 30
0.0
 10
73.12680160136495
 20
19.26430485137498
 30
0.0
  0
SPLINE
  5
13E
330
1F
100
AcDbEntity
  8
0
  6
Continuous
 62
     7
370
    25
100
AcDbSpline
210
0.0
220
0.0
230
1.0
 70
    24
 71
     3
 72
    15
 73
    11
 74
     0
 42
0.00000001
 43
0.00000001
 40
0.0
 40
0.0
 40
0.0
 40
0.0
 40
0.1323034284088744
 40
0.2645694515465796
 40
0.3997942148562053
 40
0.5349945762150087
 40
0.6501872613016996
 40
0.7653979157221117
 40
0.8826876171264815
 40
1.0
 40
1.0
 40
1.0
 40
1.0
 10
73.12680160136495
 20
19.26430485137498
 30
0.0
 10
72.86758129142792
 20
19.41396576709653
 30
0.0
 10
72.34921395919353
 20
19.71324528590116
 30
0.0
 10
71.55097455504746
 20
20.17410902076266
 30
0.0
 10
70.73768845090534
 20
20.64365997191731
 30
0.0
 10
69.95385547304542
 20
21.09620615268443
 30
0.0
 10
69.21236114375172
 20
21.52430810330473
 30
0.0
 10
68.5125648690956
 20
21.92833567085533
 30
0.0
 10
67.81593246618871
 20
22.33053657619984
 30
0.0
 10
67.35652669484732
 20
22.59577462195105
 30
0.0
 10
67.12680160136492
 20
22.72840646651273
 30
0.0
  0
SPLINE
  5
13F
330
1F
100
AcDbEntity
  8
0
  6
Continuous
 62
     7
370
    25
100
AcDbSpline
210
0.0
220
0.0
230
1.0
 70
    24
 71
     3
 72
    16
 73
    12
 74
     0
 42
0.00000001
 43
0.00000001
 40
0.0
 40
0.0
 40
0.0
 40
0.0
 40
0.1130223886251225
 40
0.2387024512201665
 40
0.3643500542235876
 40
0.4930894900811556
 40
0.6218274355442566
 40
0.7158584889512425
 40
0.8098993986606196
 40
0.9049449862565125
 40
1.0
 40
1.0
 40
1.0
 40
1.0
 10
67.12680160136492
 20
22.72840646651273
 30
0.0
 10
67.12680160136492
 20
22.98393929664975
 30
0.0
 10
67.12680160136492
 20
23.52362274930839
 30
0.0
 10
67.12680160136492
 20
24.36159823276769
 30
0.0
 10
67.12680160136492
 20
25.24561683870718
 30
0.0
 10
67.12680160136492
 20
26.14393559745586
 30
0.0
 10
67.12680160136492
 20
26.96843130115886
 30
0.0
 10
67.12680160136492
 20
27.70688952161456
 30
0.0
 10
67.12680160136492
 20
28.3614455955699
 30
0.0
 10
67.12680160136492
 20
29.01230159342565
 30
0.0
 10
67.12680160136492
 20
29.44183322955168
 30
0.0
 10
67.12680160136492
 20
29.65660969678826
 30
0.0
  0
CIRCLE
  5
140
330
1F
100
AcDbEntity
  8
0
  6
Continuous
 62
     7
370
    25
100
AcDbCircle
 10
73.1268016014
 20
26.1925080817
 30
0.0
 40
3.049999999999998
  0
CIRCLE
  5
141
330
1F
100
AcDbEntity
  8
0
  6
Continuous
 62
     7
370
    25
100
AcDbCircle
 10
73.1268016014
 20
26.1925080817
 30
0.0
 40
2.0
  0
LINE
  5
142
330
1F
100
AcDbEntity
  8
0
  6
Continuous
 62
     7
370
    25
100
AcDbLine
 10
73.1268016014
 20
34.1925080817
 30
0.0
 11
68.1768016014
 21
34.1925080817
 31
0.0
  0
LINE
  5
143
330
1F
100
AcDbEntity
  8
0
  6
Continuous
 62
     7
370
    25
100
AcDbLine
 10
78.0768016014
 20
34.1925080817
 30
0.0
 11
73.1268016014
 21
34.1925080817
 31
0.0
  0
LINE
  5
144
330
1F
100
AcDbEntity
  8
0
  6
Continuous
 62
     7
370
    25
100
AcDbLine
 10
73.1268016014
 20
34.2064398956
 30
0.0
 11
78.1671619519
 21
34.2064398956
 31
0.0
  0
LINE
  5
145
330
1F
100
AcDbEntity
  8
0
  6
Continuous
 62
     7
370
    25
100
AcDbLine
 10
68.0864412509
 20
34.2064398956
 30
0.0
 11
73.1268016014
 21
34.2064398956
 31
0.0
  0
LINE
  5
146
330
1F
100
AcDbEntity
  8
0
  6
Continuous
 62
     7
370
    25
100
AcDbLine
 10
68.3237916956
 20
41.8016541258
 30
0.0
 11
77.9298115072
 21
41.8016541258
 31
0.0
  0
LINE
  5
147
330
1F
100
AcDbEntity
  8
0
  6
Continuous
 62
     7
370
    25
100
AcDbLine
 10
73.1268016014
 20
43.1925080817
 30
0.0
 11
77.1268016014
 21
43.1925080817
 31
0.0
  0
LINE
  5
148
330
1F
100
AcDbEntity
  8
0
  6
Continuous
 62
     7
370
    25
100
AcDbLine
 10
69.1268016014
 20
43.1925080817
 30
0.0
 11
73.1268016014
 21
43.1925080817
 31
0.0
  0
SPLINE
  5
149
330
1F
100
AcDbEntity
  8
0
  6
Continuous
 62
     7
370
    25
100
AcDbSpline
210
0.0
220
0.0
230
1.0
 70
    24
 71
     3
 72
    14
 73
    10
 74
     0
 42
0.00000001
 43
0.00000001
 40
0.0
 40
0.0
 40
0.0
 40
0.0
 40
0.25
 40
0.25
 40
0.5
 40
0.5
 40
0.75
 40
0.75
 40
1.0
 40
1.0
 40
1.0
 40
1.0
 10
68.62680160136492
 20
30.7925080816505
 30
0.0
 10
68.62680160136492
 20
30.7925080816505
 30
0.0
 10
68.63084473028758
 20
30.7925080816505
 30
0.0
 10
68.64704086299287
 20
30.7925080816505
 30
0.0
 10
68.65919391982924
 20
30.7925080816505
 30
0.0
 10
68.69168007165807
 20
30.7925080816505
 30
0.0
 10
68.712013274776
 20
30.7925080816505
 30
0.0
 10
68.76097402091985
 20
30.7925080816505
 30
0.0
 10
68.78960173115078
 20
30.7925080816505
 30
0.0
 10
68.82245377527798
 20
30.7925080816505
 30
0.0
  0
SPLINE
  5
14A
330
1F
100
AcDbEntity
  8
0
  6
Continuous
 62
     7
370
    25
100
AcDbSpline
210
0.0
220
0.0
230
1.0
 70
    24
 71
     3
 72
    14
 73
    10
 74
     0
 42
0.00000001
 43
0.00000001
 40
0.0
 40
0.0
 40
0.0
 40
0.0
 40
0.25
 40
0.25
 40
0.5
 40
0.5
 40
0.75
 40
0.75
 40
1.0
 40
1.0
 40
1.0
 40
1.0
 10
77.62680160136493
 20
30.7925080816505
 30
0.0
 10
77.62680160136493
 20
30.7925080816505
 30
0.0
 10
77.62275847244227
 20
30.7925080816505
 30
0.0
 10
77.60656233973698
 20
30.7925080816505
 30
0.0
 10
77.59440928290061
 20
30.7925080816505
 30
0.0
 10
77.56192313107177
 20
30.7925080816505
 30
0.0
 10
77.54158992795385
 20
30.7925080816505
 30
0.0
 10
77.49262918180999
 20
30.7925080816505
 30
0.0
 10
77.46400147157905
 20
30.7925080816505
 30
0.0
 10
77.43114942745186
 20
30.7925080816505
 30
0.0
  0
SPLINE
  5
14B
330
1F
100
AcDbEntity
  8
0
  6
Continuous
 62
     7
370
    25
100
AcDbSpline
210
0.0
220
0.0
230
1.0
 70
     8
 71
     3
 72
    10
 73
     6
 74
     0
 42
0.00000001
 43
0.00000001
 40
0.0
 40
0.0
 40
0.0
 40
0.0
 40
0.5
 40
0.5
 40
1.0
 40
1.0
 40
1.0
 40
1.0
 10
77.46041021714322
 20
30.72179639636478
 30
0.0
 10
77.44904887787104
 20
30.73333650223046
 30
0.0
 10
77.44173368044818
 20
30.74662577799181
 30
0.0
 10
77.43278395523862
 20
30.77182292214173
 30
0.0
 10
77.43114942745186
 20
30.78373079053032
 30
0.0
 10
77.43114942745186
 20
30.7925080816505
 30
0.0
  0
SPLINE
  5
14C
330
1F
100
AcDbEntity
  8
0
  6
Continuous
 62
     7
370
    25
100
AcDbSpline
210
0.0
220
0.0
230
1.0
 70
     8
 71
     3
 72
    12
 73
     8
 74
     0
 42
0.00000001
 43
0.00000001
 40
0.0
 40
0.0
 40
0.0
 40
0.0
 40
0.25
 40
0.25
 40
0.5
 40
0.5
 40
1.0
 40
1.0
 40
1.0
 40
1.0
 10
77.46041021714322
 20
30.72179639636478
 30
0.0
 10
77.4660908867793
 20
30.71602634343193
 30
0.0
 10
77.47278900150748
 20
30.71086382979647
 30
0.0
 10
77.4868042854816
 20
30.70233052513838
 30
0.0
 10
77.49412145472756
 20
30.69895973411576
 30
0.0
 10
77.5148777907426
 20
30.69239991099428
 30
0.0
 10
77.52680160136491
 20
30.69250808165049
 30
0.0
 10
77.52680160136491
 20
30.69250808165049
 30
0.0
  0
ARC
  5
14D
330
1F
100
AcDbEntity
  8
0
  6
Continuous
 62
     7
370
    25
100
AcDbCircle
 10
77.5268016014
 20
30.5925080817
 30
0.0
 40
0.1000000000000085
100
AcDbArc
 50
0.0
 51
90.0
  0
LINE
  5
14E
330
1F
100
AcDbEntity
  8
0
  6
Continuous
 62
     7
370
    25
100
AcDbLine
 10
77.6268016014
 20
30.5925080817
 30
0.0
 11
77.6268016014
 21
30.5226351006
 31
0.0
  0
LINE
  5
14F
330
1F
100
AcDbEntity
  8
0
  6
Continuous
 62
     7
370
    25
100
AcDbLine
 10
77.3325729673
 20
30.6925080817
 30
0.0
 11
77.5268016014
 21
30.6925080817
 31
0.0
  0
LINE
  5
150
330
1F
100
AcDbEntity
  8
0
  6
Continuous
 62
     7
370
    25
100
AcDbLine
 10
68.7268016014
 20
30.6925080817
 30
0.0
 11
68.9210302354
 21
30.6925080817
 31
0.0
  0
LINE
  5
151
330
1F
100
AcDbEntity
  8
0
  6
Continuous
 62
     7
370
    25
100
AcDbLine
 10
68.7268016014
 20
30.5925080817
 30
0.0
 11
68.7268016014
 21
30.6925080817
 31
0.0
  0
LINE
  5
152
330
1F
100
AcDbEntity
  8
0
  6
Continuous
 62
     7
370
    25
100
AcDbLine
 10
68.6268016014
 20
30.5925080817
 30
0.0
 11
68.7268016014
 21
30.5925080817
 31
0.0
  0
LINE
  5
153
330
1F
100
AcDbEntity
  8
0
  6
Continuous
 62
     7
370
    25
100
AcDbLine
 10
68.6268016014
 20
30.5226351006
 30
0.0
 11
68.6268016014
 21
30.5925080817
 31
0.0
  0
ARC
  5
154
330
1F
100
AcDbEntity
  8
0
  6
Continuous
 62
     7
370
    25
100
AcDbCircle
 10
68.7268016014
 20
30.5925080817
 30
0.0
 40
0.1000000000000085
100
AcDbArc
 50
90.0
 51
180.0
  0
SPLINE
  5
155
330
1F
100
AcDbEntity
  8
0
  6
Continuous
 62
     7
370
    25
100
AcDbSpline
210
0.0
220
0.0
230
1.0
 70
     8
 71
     3
 72
    12
 73
     8
 74
     0
 42
0.00000001
 43
0.00000001
 40
0.0
 40
0.0
 40
0.0
 40
0.0
 40
0.25
 40
0.25
 40
0.5
 40
0.5
 40
1.0
 40
1.0
 40
1.0
 40
1.0
 10
68.79319298558663
 20
30.72179639636478
 30
0.0
 10
68.78751231595054
 20
30.71602634343193
 30
0.0
 10
68.78081420122237
 20
30.71086382979647
 30
0.0
 10
68.76679891724824
 20
30.70233052513838
 30
0.0
 10
68.75948174800229
 20
30.69895973411576
 30
0.0
 10
68.73872541198723
 20
30.69239991099428
 30
0.0
 10
68.72680160136493
 20
30.69250808165049
 30
0.0
 10
68.72680160136493
 20
30.69250808165049
 30
0.0
  0
SPLINE
  5
156
330
1F
100
AcDbEntity
  8
0
  6
Continuous
 62
     7
370
    25
100
AcDbSpline
210
0.0
220
0.0
230
1.0
 70
     8
 71
     3
 72
    10
 73
     6
 74
     0
 42
0.00000001
 43
0.00000001
 40
0.0
 40
0.0
 40
0.0
 40
0.0
 40
0.5
 40
0.5
 40
1.0
 40
1.0
 40
1.0
 40
1.0
 10
68.79319298558663
 20
30.72179639636478
 30
0.0
 10
68.80455432485881
 20
30.73333650223046
 30
0.0
 10
68.81186952228164
 20
30.74662577799181
 30
0.0
 10
68.82081924749123
 20
30.77182292214173
 30
0.0
 10
68.82245377527798
 20
30.78373079053032
 30
0.0
 10
68.82245377527798
 20
30.7925080816505
 30
0.0
  0
SPLINE
  5
157
330
1F
100
AcDbEntity
  8
0
  6
Continuous
 62
     7
370
    25
100
AcDbSpline
210
0.0
220
0.0
230
1.0
 70
     8
 71
     3
 72
    10
 73
     6
 74
     0
 42
0.00000001
 43
0.00000001
 40
0.0
 40
0.0
 40
0.0
 40
0.0
 40
0.5
 40
0.5
 40
1.0
 40
1.0
 40
1.0
 40
1.0
 10
75.06329327446863
 20
26.69250808165049
 30
0.0
 10
75.05583055967564
 20
26.52900057122421
 30
0.0
 10
75.05101625510417
 20
26.36374684302501
 30
0.0
 10
75.05088487557676
 20
26.02861580397757
 30
0.0
 10
75.05572576893165
 20
25.858311549264
 30
0.0
 10
75.06329327446863
 20
25.6925080816505
 30
0.0
  0
LINE
  5
158
330
1F
100
AcDbEntity
  8
0
  6
Continuous
 62
     7
370
    25
100
AcDbLine
 10
74.8588524089
 20
25.1925080817
 30
0.0
 11
71.3947507938
 21
25.1925080817
 31
0.0
  0
SPLINE
  5
159
330
1F
100
AcDbEntity
  8
0
  6
Continuous
 62
     7
370
    25
100
AcDbSpline
210
0.0
220
0.0
230
1.0
 70
     8
 71
     3
 72
    10
 73
     6
 74
     0
 42
0.00000001
 43
0.00000001
 40
0.0
 40
0.0
 40
0.0
 40
0.0
 40
0.5
 40
0.5
 40
1.0
 40
1.0
 40
1.0
 40
1.0
 10
71.19030992826121
 20
25.6925080816505
 30
0.0
 10
71.19777264305418
 20
25.85601559207678
 30
0.0
 10
71.20258694762568
 20
26.02126932027598
 30
0.0
 10
71.20271832715308
 20
26.35640035932341
 30
0.0
 10
71.19787743379818
 20
26.52670461403699
 30
0.0
 10
71.19030992826121
 20
26.69250808165049
 30
0.0
  0
SPLINE
  5
15A
330
1F
100
AcDbEntity
  8
0
  6
Continuous
 62
     7
370
    25
100
AcDbSpline
210
0.0
220
0.0
230
1.0
 70
     8
 71
     3
 72
    12
 73
     8
 74
     0
 42
0.00000001
 43
0.00000001
 40
0.0
 40
0.0
 40
0.0
 40
0.0
 40
0.25
 40
0.25
 40
0.5
 40
0.5
 40
1.0
 40
1.0
 40
1.0
 40
1.0
 10
77.62652483590496
 20
30.69293565368103
 30
0.0
 10
77.62652275104612
 20
30.68885721497874
 30
0.0
 10
77.62302829011057
 20
30.68587718061488
 30
0.0
 10
77.61433588048426
 20
30.68022138125912
 30
0.0
 10
77.6091379317935
 20
30.6775456162672
 30
0.0
 10
77.59891075068576
 20
30.66713591639199
 30
0.0
 10
77.59748099210698
 20
30.66325004714574
 30
0.0
 10
77.59751227948564
 20
30.66321875976708
 30
0.0
  0
LINE
  5
15B
330
1F
100
AcDbEntity
  8
0
  6
Continuous
 62
     7
370
    25
100
AcDbLine
 10
77.6269927647
 20
30.6157832999
 30
0.0
 11
77.6272004637
 21
30.641071836
 31
0.0
  0
SPLINE
  5
15C
330
1F
100
AcDbEntity
  8
0
  6
Continuous
 62
     7
370
    25
100
AcDbSpline
210
0.0
220
0.0
230
1.0
 70
     8
 71
     3
 72
    12
 73
     8
 74
     0
 42
0.00000001
 43
0.00000001
 40
0.0
 40
0.0
 40
0.0
 40
0.0
 40
0.25
 40
0.25
 40
0.5
 40
0.5
 40
1.0
 40
1.0
 40
1.0
 40
1.0
 10
77.62652483590496
 20
30.69293565368103
 30
0.0
 10
77.6265269207638
 20
30.69701409238332
 30
0.0
 10
77.62303699428944
 20
30.70290445331067
 30
0.0
 10
77.60826363581783
 20
30.71571382918297
 30
0.0
 10
77.59698020382059
 20
30.72263284412792
 30
0.0
 10
77.55022542525977
 20
30.74104008434036
 30
0.0
 10
77.50907784764122
 20
30.7382985424914
 30
0.0
 10
77.46041021714322
 20
30.72179639636478
 30
0.0
  0
SPLINE
  5
15D
330
1F
100
AcDbEntity
  8
0
  6
Continuous
 62
     7
370
    25
100
AcDbSpline
210
0.0
220
0.0
230
1.0
 70
     8
 71
     3
 72
    12
 73
     8
 74
     0
 42
0.00000001
 43
0.00000001
 40
0.0
 40
0.0
 40
0.0
 40
0.0
 40
0.25
 40
0.25
 40
0.5
 40
0.5
 40
1.0
 40
1.0
 40
1.0
 40
1.0
 10
68.62707836682488
 20
30.69293565368103
 30
0.0
 10
68.62708045168371
 20
30.68885721497874
 30
0.0
 10
68.63057491261927
 20
30.68587718061488
 30
0.0
 10
68.63926732224559
 20
30.68022138125912
 30
0.0
 10
68.64446527093634
 20
30.6775456162672
 30
0.0
 10
68.65469245204409
 20
30.66713591639199
 30
0.0
 10
68.65612221062285
 20
30.66325004714574
 30
0.0
 10
68.6560909232442
 20
30.66321875976708
 30
0.0
  0
LINE
  5
15E
330
1F
100
AcDbEntity
  8
0
  6
Continuous
 62
     7
370
    25
100
AcDbLine
 10
68.626610438
 20
30.6157832999
 30
0.0
 11
68.626402739
 21
30.641071836
 31
0.0
  0
SPLINE
  5
15F
330
1F
100
AcDbEntity
  8
0
  6
Continuous
 62
     7
370
    25
100
AcDbSpline
210
0.0
220
0.0
230
1.0
 70
     8
 71
     3
 72
    14
 73
    10
 74
     0
 42
0.00000001
 43
0.00000001
 40
0.0
 40
0.0
 40
0.0
 40
0.0
 40
0.25
 40
0.25
 40
0.5
 40
0.5
 40
0.75
 40
0.75
 40
1.0
 40
1.0
 40
1.0
 40
1.0
 10
68.62707836682488
 20
30.69293565368103
 30
0.0
 10
68.62707628196604
 20
30.69701409238332
 30
0.0
 10
68.6305662084404
 20
30.70290445331067
 30
0.0
 10
68.645339566912
 20
30.71571382918297
 30
0.0
 10
68.65662299890924
 20
30.72263284412792
 30
0.0
 10
68.68779285128312
 20
30.73490433760288
 30
0.0
 10
68.70587220878123
 20
30.73728682550938
 30
0.0
 10
68.74640536830847
 20
30.73485839142198
 30
0.0
 10
68.76885917033762
 20
30.73004746942809
 30
0.0
 10
68.79319298558663
 20
30.72179639636478
 30
0.0
  0
SPLINE
  5
160
330
1F
100
AcDbEntity
  8
0
  6
Continuous
 62
     7
370
    25
100
AcDbSpline
210
0.0
220
0.0
230
1.0
 70
     8
 71
     3
 72
    10
 73
     6
 74
     0
 42
0.00000001
 43
0.00000001
 40
0.0
 40
0.0
 40
0.0
 40
0.0
 40
0.5
 40
0.5
 40
1.0
 40
1.0
 40
1.0
 40
1.0
 10
77.62652483590496
 20
30.69293565368103
 30
0.0
 10
77.62653317534033
 20
30.70924940849019
 30
0.0
 10
77.62662819406032
 20
30.72660925235319
 30
0.0
 10
77.62499678456656
 20
30.76226033201911
 30
0.0
 10
77.62680160136493
 20
30.77548339563552
 30
0.0
 10
77.62680160136493
 20
30.7925080816505
 30
0.0
  0
SPLINE
  5
161
330
1F
100
AcDbEntity
  8
0
  6
Continuous
 62
     7
370
    25
100
AcDbSpline
210
0.0
220
0.0
230
1.0
 70
     8
 71
     3
 72
    10
 73
     6
 74
     0
 42
0.00000001
 43
0.00000001
 40
0.0
 40
0.0
 40
0.0
 40
0.0
 40
0.5
 40
0.5
 40
1.0
 40
1.0
 40
1.0
 40
1.0
 10
68.62707836682488
 20
30.69293565368103
 30
0.0
 10
68.62707002738952
 20
30.70924940849019
 30
0.0
 10
68.62697500866953
 20
30.72660925235319
 30
0.0
 10
68.62860641816327
 20
30.76226033201912
 30
0.0
 10
68.62680160136492
 20
30.77548339563552
 30
0.0
 10
68.62680160136492
 20
30.7925080816505
 30
0.0
  0
SPLINE
  5
162
330
1F
100
AcDbEntity
  8
0
  6
Continuous
 62
     7
370
    25
100
AcDbSpline
210
0.0
220
0.0
230
1.0
 70
     8
 71
     3
 72
    20
 73
    16
 74
     0
 42
0.00000001
 43
0.00000001
 40
0.0
 40
0.0
 40
0.0
 40
0.0
 40
0.25
 40
0.25
 40
0.375
 40
0.375
 40
0.4375
 40
0.4375
 40
0.5
 40
0.5
 40
0.625
 40
0.625
 40
0.75
 40
0.75
 40
1.0
 40
1.0
 40
1.0
 40
1.0
 10
74.73396850729276
 20
25.00212388464085
 30
0.0
 10
74.48123839724985
 20
24.87050273467333
 30
0.0
 10
74.22397341200858
 20
24.74230826783111
 30
0.0
 10
73.82807282638703
 20
24.5575836846747
 30
0.0
 10
73.69430187872315
 20
24.49654167669187
 30
0.0
 10
73.48814161001567
 20
24.41787597265744
 30
0.0
 10
73.41880870519782
 20
24.39409540913927
 30
0.0
 10
73.27654743158534
 20
24.35852002778526
 30
0.0
 10
73.20222931954378
 20
24.34720167136057
 30
0.0
 10
72.98260655348406
 20
24.34657752168678
 30
0.0
 10
72.83884904822584
 20
24.39019144912663
 30
0.0
 10
72.56556460256024
 20
24.49384587165785
 30
0.0
 10
72.43247971697461
 20
24.55442505251598
 30
0.0
 10
72.03430418458356
 20
24.73996517917441
 30
0.0
 10
71.77243145818551
 20
24.87046802212662
 30
0.0
 10
71.51963469543708
 20
25.00212388464085
 30
0.0
  0
LINE
  5
163
330
1F
100
AcDbEntity
  8
0
  6
Continuous
 62
     7
370
    25
100
AcDbLine
 10
73.1268016014
 20
33.8925080817
 30
0.0
 11
68.6268016014
 21
33.8925080817
 31
0.0
  0
LINE
  5
164
330
1F
100
AcDbEntity
  8
0
  6
Continuous
 62
     7
370
    25
100
AcDbLine
 10
77.6268016014
 20
33.8925080817
 30
0.0
 11
73.1268016014
 21
33.8925080817
 31
0.0
  0
LINE
  5
165
330
1F
100
AcDbEntity
  8
0
  6
Continuous
 62
     7
370
    25
100
AcDbLine
 10
77.1611883871
 20
30.7925080817
 30
0.0
 11
77.4311494275
 21
30.7925080817
 31
0.0
  0
LINE
  5
166
330
1F
100
AcDbEntity
  8
0
  6
Continuous
 62
     7
370
    25
100
AcDbLine
 10
68.8224537753
 20
30.7925080817
 30
0.0
 11
69.0906807198
 21
30.7925080817
 31
0.0
  0
LINE
  5
167
330
1F
100
AcDbEntity
  8
0
  6
Continuous
 62
     7
370
    25
100
AcDbLine
 10
77.5268016014
 20
30.5803701275
 30
0.0
 11
77.5268016014
 21
30.6925080817
 31
0.0
  0
SPLINE
  5
168
330
1F
100
AcDbEntity
  8
0
  6
Continuous
 62
     7
370
    25
100
AcDbSpline
210
0.0
220
0.0
230
1.0
 70
     8
 71
     3
 72
     9
 73
     5
 74
     0
 42
0.00000001
 43
0.00000001
 40
0.0
 40
0.0
 40
0.0
 40
0.0
 40
0.1248431437045607
 40
1.0
 40
1.0
 40
1.0
 40
1.0
 10
77.62720046372273
 20
30.64107183596254
 30
0.0
 10
77.62722146137503
 20
30.64323030924086
 30
0.0
 10
77.62738965364953
 20
30.6605197911801
 30
0.0
 10
77.62692845610135
 20
30.67780680500622
 30
0.0
 10
77.62652483590496
 20
30.69293565368103
 30
0.0
  0
SPLINE
  5
169
330
1F
100
AcDbEntity
  8
0
  6
Continuous
 62
     7
370
    25
100
AcDbSpline
210
0.0
220
0.0
230
1.0
 70
     8
 71
     3
 72
     9
 73
     5
 74
     0
 42
0.00000001
 43
0.00000001
 40
0.0
 40
0.0
 40
0.0
 40
0.0
 40
0.1248431437924843
 40
1.0
 40
1.0
 40
1.0
 40
1.0
 10
68.62640273900715
 20
30.64107183595733
 30
0.0
 10
68.62638174135483
 20
30.64323030923738
 30
0.0
 10
68.6262135490803
 20
30.66051979117836
 30
0.0
 10
68.6266747466285
 20
30.67780680500622
 30
0.0
 10
68.62707836682488
 20
30.69293565368103
 30
0.0
  0
INSERT
  5
175
330
1F
100
AcDbEntity
  8
FORMAT
100
AcDbBlockReference
  2
SW_CENTERMARKSYMBOL_0
 10
73.1268016014
 20
26.1925080817
 30
0.0
  0
ARC
  5
176
330
1F
100
AcDbEntity
  8
FORMAT
  6
HIDDEN
100
AcDbCircle
 10
73.1268016014
 20
26.1925080817
 30
0.0
 40
4.283000000000008
100
AcDbArc
 50
75.0
 51
345.0
  0
LINE
  5
177
330
1F
100
AcDbEntity
  8
FORMAT
100
AcDbLine
 10
77.379776219
 20
42.754343191
 30
0.0
 11
77.6468960661
 21
34.2065080817
 31
0.0
  0
LINE
  5
178
330
1F
100
AcDbEntity
  8
FORMAT
100
AcDbLine
 10
68.8738269838
 20
42.754343191
 30
0.0
 11
68.6067071366
 21
34.2065080817
 31
0.0
  0
LINE
  5
179
330
1F
100
AcDbEntity
  8
FORMAT
100
AcDbLine
 10
68.0864433817
 20
34.2065080817
 30
0.0
 11
78.167159821
 21
34.2065080817
 31
0.0
  0
LINE
  5
17A
330
1F
100
AcDbEntity
  8
0
  6
Continuous
 62
     7
370
    25
100
AcDbLine
 10
57.4370765576
 20
52.8072748268
 30
0.0
 11
57.5814141249
 21
53.0572748268
 31
0.0
  0
LINE
  5
17B
330
1F
100
AcDbEntity
  8
0
  6
Continuous
 62
     7
370
    25
100
AcDbLine
 10
57.5814141249
 20
64.5572748268
 30
0.0
 11
57.4370765576
 21
64.8072748268
 31
0.0
  0
LINE
  5
17C
330
1F
100
AcDbEntity
  8
0
  6
Continuous
 62
     7
370
    25
100
AcDbLine
 10
46.7257516922
 20
64.8072748268
 30
0.0
 11
46.5814141249
 21
64.5572748268
 31
0.0
  0
LINE
  5
17D
330
1F
100
AcDbEntity
  8
0
  6
Continuous
 62
     7
370
    25
100
AcDbLine
 10
46.5814141249
 20
53.0572748268
 30
0.0
 11
46.7257516922
 21
52.8072748268
 31
0.0
  0
LINE
  5
17E
330
1F
100
AcDbEntity
  8
0
  6
Continuous
 62
     7
370
    25
100
AcDbLine
 10
46.5814141249
 20
63.6712748268
 30
0.0
 11
45.8330801748
 21
63.6712748268
 31
0.0
  0
LINE
  5
17F
330
1F
100
AcDbEntity
  8
0
  6
Continuous
 62
     7
370
    25
100
AcDbLine
 10
45.8330801748
 20
53.9432748268
 30
0.0
 11
46.5814141249
 21
53.9432748268
 31
0.0
  0
ARC
  5
180
330
1F
100
AcDbEntity
  8
0
  6
Continuous
 62
     7
370
    25
100
AcDbCircle
 10
45.5330801748
 20
63.6072748268
 30
0.0
 40
0.3000000000000043
100
AcDbArc
 50
270.0
 51
0.0
  0
ARC
  5
181
330
1F
100
AcDbEntity
  8
0
  6
Continuous
 62
     7
370
    25
100
AcDbCircle
 10
45.5330801748
 20
54.0072748268
 30
0.0
 40
0.3000000000000043
100
AcDbArc
 50
0.0
 51
90.0
  0
LINE
  5
182
330
1F
100
AcDbEntity
  8
0
  6
Continuous
 62
     7
370
    25
100
AcDbLine
 10
42.4330801748
 20
54.3072748268
 30
0.0
 11
45.5330801748
 21
54.3072748268
 31
0.0
  0
LINE
  5
183
330
1F
100
AcDbEntity
  8
0
  6
Continuous
 62
     7
370
    25
100
AcDbLine
 10
42.8330801748
 20
63.3072748268
 30
0.0
 11
42.4330801748
 21
63.3072748268
 31
0.0
  0
LINE
  5
184
330
1F
100
AcDbEntity
  8
0
  6
Continuous
 62
     7
370
    25
100
AcDbLine
 10
45.5330801748
 20
63.3072748268
 30
0.0
 11
43.8330801722
 21
63.3072748268
 31
0.0
  0
SPLINE
  5
185
330
1F
100
AcDbEntity
  8
0
  6
Continuous
 62
     7
370
    25
100
AcDbSpline
210
0.0
220
0.0
230
1.0
 70
     8
 71
     3
 72
    11
 73
     7
 74
     0
 42
0.00000001
 43
0.00000001
 40
0.0
 40
0.0
 40
0.0
 40
0.0
 40
0.2499999819901233
 40
0.4999999770063871
 40
0.7499999843687948
 40
1.0
 40
1.0
 40
1.0
 40
1.0
 10
43.08308017476768
 20
63.60727482678961
 30
0.0
 10
43.05032091392658
 20
63.60351693336186
 30
0.0
 10
42.98480239053747
 20
63.59600114631053
 30
0.0
 10
42.9021661669013
 20
63.53818884089563
 30
0.0
 10
42.84435388336652
 20
63.45555260432699
 30
0.0
 10
42.83683811627147
 20
63.3900340808249
 30
0.0
 10
42.8330802326618
 20
63.3572748185321
 30
0.0
  0
SPLINE
  5
186
330
1F
100
AcDbEntity
  8
0
  6
Continuous
 62
     7
370
    25
100
AcDbSpline
210
0.0
220
0.0
230
1.0
 70
     8
 71
     3
 72
    11
 73
     7
 74
     0
 42
0.00000001
 43
0.00000001
 40
0.0
 40
0.0
 40
0.0
 40
0.0
 40
0.2500000012535228
 40
0.5000000018896247
 40
0.750000001490317
 40
0.9999999999999999
 40
0.9999999999999999
 40
0.9999999999999999
 40
0.9999999999999999
 10
43.83308017699282
 20
63.35727482665877
 30
0.0
 10
43.82932228350341
 20
63.39003408763058
 30
0.0
 10
43.82180649653388
 20
63.45555260949327
 30
0.0
 10
43.76399419189916
 20
63.53818884373811
 30
0.0
 10
43.68135795629728
 20
63.59600114712435
 30
0.0
 10
43.6158394337862
 20
63.60351693357342
 30
0.0
 10
43.58308017260214
 20
63.60727482678977
 30
0.0
  0
LINE
  5
187
330
1F
100
AcDbEntity
  8
0
  6
Continuous
 62
     7
370
    25
100
AcDbLine
 10
42.8330801748
 20
63.3575749215
 30
0.0
 11
42.8330801748
 21
63.3072748268
 31
0.0
  0
LINE
  5
188
330
1F
100
AcDbEntity
  8
0
  6
Continuous
 62
     7
370
    25
100
AcDbLine
 10
43.8330801773
 20
63.3072748265
 30
0.0
 11
43.8330801773
 21
63.3575749212
 31
0.0
  0
LINE
  5
189
330
1F
100
AcDbEntity
  8
0
  6
Continuous
 62
     7
370
    25
100
AcDbLine
 10
43.5830761731
 20
63.6072748268
 30
0.0
 11
43.0830801757
 21
63.6072748268
 31
0.0
  0
SPLINE
  5
18A
330
1F
100
AcDbEntity
  8
0
  6
Continuous
 62
     7
370
    25
100
AcDbSpline
210
0.0
220
0.0
230
1.0
 70
     8
 71
     3
 72
    15
 73
    11
 74
     0
 42
0.00000001
 43
0.00000001
 40
0.0
 40
0.0
 40
0.0
 40
0.0
 40
0.1323034284088745
 40
0.2645694515465797
 40
0.3997942148562055
 40
0.5349945762150087
 40
0.6501872613016995
 40
0.7653979157221117
 40
0.8826876171264815
 40
1.0
 40
1.0
 40
1.0
 40
1.0
 10
47.26165007708422
 20
58.80727482678979
 30
0.0
 10
47.18007232672807
 20
59.06649513672681
 30
0.0
 10
47.0169398899523
 20
59.58486246896119
 30
0.0
 10
46.84141445229532
 20
60.38310187310728
 30
0.0
 10
46.73587396120413
 20
61.19638797724941
 30
0.0
 10
46.7149686908062
 20
61.98022095510933
 30
0.0
 10
46.76919207195949
 20
62.72171528440304
 30
0.0
 10
46.8803040873324
 20
63.42151155905915
 30
0.0
 10
47.04329543871084
 20
64.11814396196606
 30
0.0
 10
47.18886050652062
 20
64.57754973330742
 30
0.0
 10
47.26165007708421
 20
64.80727482678984
 30
0.0
  0
LINE
  5
18B
330
1F
100
AcDbEntity
  8
0
  6
Continuous
 62
     7
370
    25
100
AcDbLine
 10
47.2616500771
 20
64.8072748268
 30
0.0
 11
56.9011781728
 21
64.8072748268
 31
0.0
  0
SPLINE
  5
18C
330
1F
100
AcDbEntity
  8
0
  6
Continuous
 62
     7
370
    25
100
AcDbSpline
210
0.0
220
0.0
230
1.0
 70
     8
 71
     3
 72
    15
 73
    11
 74
     0
 42
0.00000001
 43
0.00000001
 40
0.0
 40
0.0
 40
0.0
 40
0.0
 40
0.1323034284088745
 40
0.2645694515465797
 40
0.3997942148562055
 40
0.5349945762150087
 40
0.6501872613016995
 40
0.7653979157221116
 40
0.8826876171264814
 40
1.0
 40
1.0
 40
1.0
 40
1.0
 10
56.90117817276491
 20
58.80727482678979
 30
0.0
 10
56.98275592312105
 20
59.06649513672681
 30
0.0
 10
57.14588835989681
 20
59.58486246896119
 30
0.0
 10
57.32141379755382
 20
60.38310187310728
 30
0.0
 10
57.42695428864498
 20
61.19638797724941
 30
0.0
 10
57.44785955904293
 20
61.98022095510933
 30
0.0
 10
57.39363617788962
 20
62.72171528440304
 30
0.0
 10
57.28252416251672
 20
63.42151155905915
 30
0.0
 10
57.11953281113828
 20
64.11814396196606
 30
0.0
 10
56.97396774332849
 20
64.57754973330742
 30
0.0
 10
56.90117817276491
 20
64.80727482678984
 30
0.0
  0
LINE
  5
18D
330
1F
100
AcDbEntity
  8
0
  6
Continuous
 62
     7
370
    25
100
AcDbLine
 10
47.2616500771
 20
58.8072748268
 30
0.0
 11
56.9011781728
 21
58.8072748268
 31
0.0
  0
SPLINE
  5
18E
330
1F
100
AcDbEntity
  8
0
  6
Continuous
 62
     7
370
    25
100
AcDbSpline
210
0.0
220
0.0
230
1.0
 70
     8
 71
     3
 72
    15
 73
    11
 74
     0
 42
0.00000001
 43
0.00000001
 40
0.0
 40
0.0
 40
0.0
 40
0.0
 40
0.1323034284088761
 40
0.2645694515465831
 40
0.3997942148562106
 40
0.5349945762150157
 40
0.6501872613017049
 40
0.7653979157221156
 40
0.8826876171264835
 40
1.0
 40
1.0
 40
1.0
 40
1.0
 10
56.90117817276491
 20
52.80727482678986
 30
0.0
 10
56.98275592312105
 20
53.06649513672687
 30
0.0
 10
57.1458883598968
 20
53.58486246896125
 30
0.0
 10
57.3214137975538
 20
54.38310187310734
 30
0.0
 10
57.42695428864497
 20
55.19638797724946
 30
0.0
 10
57.4478595590429
 20
55.98022095510937
 30
0.0
 10
57.3936361778896
 20
56.72171528440305
 30
0.0
 10
57.28252416251671
 20
57.42151155905915
 30
0.0
 10
57.11953281113828
 20
58.11814396196602
 30
0.0
 10
56.97396774332849
 20
58.57754973330739
 30
0.0
 10
56.90117817276491
 20
58.80727482678979
 30
0.0
  0
SPLINE
  5
18F
330
1F
100
AcDbEntity
  8
0
  6
Continuous
 62
     7
370
    25
100
AcDbSpline
210
0.0
220
0.0
230
1.0
 70
    24
 71
     3
 72
    12
 73
     8
 74
     0
 42
0.00000001
 43
0.00000001
 40
0.0
 40
0.0
 40
0.0
 40
0.0
 40
0.188200283260228
 40
0.3763824881893655
 40
0.5663460500870495
 40
0.7562890707832357
 40
0.9999999999999999
 40
0.9999999999999999
 40
0.9999999999999999
 40
0.9999999999999999
 10
56.90117817276491
 20
64.80727482678984
 30
0.0
 10
56.96011337647248
 20
64.80727482678984
 30
0.0
 10
57.07797812263087
 20
64.80727482678984
 30
0.0
 10
57.2215467374976
 20
64.80727482678984
 30
0.0
 10
57.33324380937213
 20
64.80727482678985
 30
0.0
 10
57.41864034340153
 20
64.80727482678985
 30
0.0
 10
57.42956542440597
 20
64.80727482678985
 30
0.0
 10
57.43570525466438
 20
64.80727482678985
 30
0.0
  0
SPLINE
  5
190
330
1F
100
AcDbEntity
  8
0
  6
Continuous
 62
     7
370
    25
100
AcDbSpline
210
0.0
220
0.0
230
1.0
 70
    24
 71
     3
 72
    12
 73
     8
 74
     0
 42
0.00000001
 43
0.00000001
 40
0.0
 40
0.0
 40
0.0
 40
0.0
 40
0.2437084783871861
 40
0.4317572559667336
 40
0.6198257447538976
 40
0.8099034468974492
 40
1.0
 40
1.0
 40
1.0
 40
1.0
 10
57.43475253764338
 20
52.80727482678986
 30
0.0
 10
57.4290302289125
 20
52.80727482678986
 30
0.0
 10
57.41889250891279
 20
52.80727482678986
 30
0.0
 10
57.33402744489855
 20
52.80727482678986
 30
0.0
 10
57.22329092377363
 20
52.80727482678986
 30
0.0
 10
57.07968817208145
 20
52.80727482678986
 30
0.0
 10
56.9606834728217
 20
52.80727482678986
 30
0.0
 10
56.90117817276491
 20
52.80727482678986
 30
0.0
  0
LINE
  5
191
330
1F
100
AcDbEntity
  8
0
  6
Continuous
 62
     7
370
    25
100
AcDbLine
 10
57.5814141249
 20
53.0572748268
 30
0.0
 11
57.5814141249
 21
64.5572748268
 31
0.0
  0
SPLINE
  5
192
330
1F
100
AcDbEntity
  8
0
  6
Continuous
 62
     7
370
    25
100
AcDbSpline
210
0.0
220
0.0
230
1.0
 70
    24
 71
     3
 72
    12
 73
     8
 74
     0
 42
0.00000001
 43
0.00000001
 40
0.0
 40
0.0
 40
0.0
 40
0.0
 40
0.2437084783871861
 40
0.4317572559667336
 40
0.6198257447538977
 40
0.8099034468974493
 40
1.0
 40
1.0
 40
1.0
 40
1.0
 10
46.72807571220574
 20
52.80727482678986
 30
0.0
 10
46.73379802093663
 20
52.80727482678986
 30
0.0
 10
46.74393574093634
 20
52.80727482678986
 30
0.0
 10
46.82880080495057
 20
52.80727482678986
 30
0.0
 10
46.9395373260755
 20
52.80727482678985
 30
0.0
 10
47.08314007776767
 20
52.80727482678986
 30
0.0
 10
47.20214477702742
 20
52.80727482678986
 30
0.0
 10
47.26165007708421
 20
52.80727482678986
 30
0.0
  0
SPLINE
  5
193
330
1F
100
AcDbEntity
  8
0
  6
Continuous
 62
     7
370
    25
100
AcDbSpline
210
0.0
220
0.0
230
1.0
 70
    24
 71
     3
 72
    12
 73
     8
 74
     0
 42
0.00000001
 43
0.00000001
 40
0.0
 40
0.0
 40
0.0
 40
0.0
 40
0.1882002832602279
 40
0.3763824881893655
 40
0.5663460500870496
 40
0.7562890707832357
 40
1.0
 40
1.0
 40
1.0
 40
1.0
 10
47.26165007708421
 20
64.80727482678984
 30
0.0
 10
47.20271487337664
 20
64.80727482678984
 30
0.0
 10
47.08485012721825
 20
64.80727482678984
 30
0.0
 10
46.94128151235152
 20
64.80727482678984
 30
0.0
 10
46.82958444047699
 20
64.80727482678985
 30
0.0
 10
46.74418790644758
 20
64.80727482678985
 30
0.0
 10
46.73326282544316
 20
64.80727482678985
 30
0.0
 10
46.72712299518474
 20
64.80727482678985
 30
0.0
  0
SPLINE
  5
194
330
1F
100
AcDbEntity
  8
0
  6
Continuous
 62
     7
370
    25
100
AcDbSpline
210
0.0
220
0.0
230
1.0
 70
     8
 71
     3
 72
    15
 73
    11
 74
     0
 42
0.00000001
 43
0.00000001
 40
0.0
 40
0.0
 40
0.0
 40
0.0
 40
0.132303428408876
 40
0.264569451546583
 40
0.3997942148562105
 40
0.5349945762150156
 40
0.6501872613017048
 40
0.7653979157221155
 40
0.8826876171264834
 40
1.0
 40
1.0
 40
1.0
 40
1.0
 10
47.26165007708421
 20
52.80727482678986
 30
0.0
 10
47.18007232672807
 20
53.06649513672688
 30
0.0
 10
47.01693988995231
 20
53.58486246896125
 30
0.0
 10
46.84141445229533
 20
54.38310187310734
 30
0.0
 10
46.73587396120414
 20
55.19638797724946
 30
0.0
 10
46.71496869080622
 20
55.98022095510937
 30
0.0
 10
46.76919207195951
 20
56.72171528440305
 30
0.0
 10
46.88030408733242
 20
57.42151155905915
 30
0.0
 10
47.04329543871084
 20
58.11814396196602
 30
0.0
 10
47.18886050652063
 20
58.57754973330739
 30
0.0
 10
47.26165007708422
 20
58.80727482678979
 30
0.0
  0
LINE
  5
195
330
1F
100
AcDbEntity
  8
0
  6
Continuous
 62
     7
370
    25
100
AcDbLine
 10
46.5814141249
 20
53.0572748268
 30
0.0
 11
46.5814141249
 21
64.5572748268
 31
0.0
  0
LINE
  5
196
330
1F
100
AcDbEntity
  8
0
  6
Continuous
 62
     7
370
    25
100
AcDbLine
 10
47.2616500771
 20
52.8072748268
 30
0.0
 11
56.9011781728
 21
52.8072748268
 31
0.0
  0
CIRCLE
  5
197
330
1F
100
AcDbEntity
  8
0
  6
Continuous
 62
     7
370
    25
100
AcDbCircle
 10
37.8330801748
 20
58.8072748268
 30
0.0
 40
4.803009905802895
  0
CIRCLE
  5
198
330
1F
100
AcDbEntity
  8
0
  6
Continuous
 62
     7
370
    25
100
AcDbCircle
 10
37.8330801748
 20
58.8072748268
 30
0.0
 40
3.999999999999993
  0
CIRCLE
  5
199
330
1F
100
AcDbEntity
  8
0
  6
Continuous
 62
     7
370
    25
100
AcDbCircle
 10
37.8330801748
 20
58.8072748268
 30
0.0
 40
2.199999999999982
  0
CIRCLE
  5
19A
330
1F
100
AcDbEntity
  8
0
  6
Continuous
 62
     7
370
    25
100
AcDbCircle
 10
37.8330801748
 20
58.8072748268
 30
0.0
 40
1.999999999999993
  0
CIRCLE
  5
19B
330
1F
100
AcDbEntity
  8
0
  6
Continuous
 62
     7
370
    25
100
AcDbCircle
 10
37.8330801748
 20
58.8072748268
 30
0.0
 40
5.040360350497011
  0
LINE
  5
19C
330
1F
100
AcDbEntity
  8
0
  6
Continuous
 62
     7
370
    25
100
AcDbLine
 10
45.8330801748
 20
63.6712748268
 30
0.0
 11
45.8330801748
 21
53.9432748268
 31
0.0
  0
LINE
  5
19D
330
1F
100
AcDbEntity
  8
0
  6
Continuous
 62
     7
370
    25
100
AcDbLine
 10
34.4330801748
 20
63.2072748268
 30
0.0
 11
34.4330801748
 21
63.3072748268
 31
0.0
  0
LINE
  5
19E
330
1F
100
AcDbEntity
  8
0
  6
Continuous
 62
     7
370
    25
100
AcDbLine
 10
34.4330801748
 20
63.3072748268
 30
0.0
 11
35.5625664745
 21
63.3072748268
 31
0.0
  0
LINE
  5
19F
330
1F
100
AcDbEntity
  8
0
  6
Continuous
 62
     7
370
    25
100
AcDbLine
 10
40.103593875
 20
63.3072748268
 30
0.0
 11
41.2330801748
 21
63.3072748268
 31
0.0
  0
ARC
  5
1A0
330
1F
100
AcDbEntity
  8
0
  6
Continuous
 62
     7
370
    25
100
AcDbCircle
 10
41.2330801748
 20
63.2072748268
 30
0.0
 40
0.0999999999999943
100
AcDbArc
 50
360.0
 51
90.0
  0
LINE
  5
1A1
330
1F
100
AcDbEntity
  8
0
  6
Continuous
 62
     7
370
    25
100
AcDbLine
 10
41.3330801748
 20
62.4342890896
 30
0.0
 11
41.3330801748
 21
63.2072748268
 31
0.0
  0
LINE
  5
1A2
330
1F
100
AcDbEntity
  8
0
  6
Continuous
 62
     7
370
    25
100
AcDbLine
 10
41.2330801748
 20
54.3072748268
 30
0.0
 11
40.103593875
 21
54.3072748268
 31
0.0
  0
LINE
  5
1A3
330
1F
100
AcDbEntity
  8
0
  6
Continuous
 62
     7
370
    25
100
AcDbLine
 10
41.2330801748
 20
54.3072748268
 30
0.0
 11
41.2330801748
 21
54.4072748268
 31
0.0
  0
LINE
  5
1A4
330
1F
100
AcDbEntity
  8
0
  6
Continuous
 62
     7
370
    25
100
AcDbLine
 10
35.5625664745
 20
54.3072748268
 30
0.0
 11
34.4330801748
 21
54.3072748268
 31
0.0
  0
LINE
  5
1A5
330
1F
100
AcDbEntity
  8
0
  6
Continuous
 62
     7
370
    25
100
AcDbLine
 10
34.4330801748
 20
54.3072748268
 30
0.0
 11
34.4330801748
 21
54.4072748268
 31
0.0
  0
LINE
  5
1A6
330
1F
100
AcDbEntity
  8
0
  6
Continuous
 62
     7
370
    25
100
AcDbLine
 10
34.3330801748
 20
62.4342890896
 30
0.0
 11
34.3330801748
 21
63.2072748268
 31
0.0
  0
LINE
  5
1A7
330
1F
100
AcDbEntity
  8
0
  6
Continuous
 62
     7
370
    25
100
AcDbLine
 10
34.3330801748
 20
63.2072748268
 30
0.0
 11
34.4330801748
 21
63.2072748268
 31
0.0
  0
ARC
  5
1A8
330
1F
100
AcDbEntity
  8
0
  6
Continuous
 62
     7
370
    25
100
AcDbCircle
 10
34.4330801748
 20
63.2072748268
 30
0.0
 40
0.1000000000000085
100
AcDbArc
 50
90.0
 51
180.0
  0
SPLINE
  5
1A9
330
1F
100
AcDbEntity
  8
0
  6
Continuous
 62
     7
370
    25
100
AcDbSpline
210
0.0
220
0.0
230
1.0
 70
     8
 71
     3
 72
    22
 73
    18
 74
     0
 42
0.00000001
 43
0.00000001
 40
0.0
 40
0.0
 40
0.0
 40
0.0
 40
0.0625
 40
0.0625
 40
0.125
 40
0.125
 40
0.1875
 40
0.1875
 40
0.25
 40
0.25
 40
0.3125
 40
0.3125
 40
0.375
 40
0.375
 40
0.4375
 40
0.4375
 40
0.5
 40
0.5
 40
0.5
 40
0.5
 10
43.83308017474724
 20
63.30727482678986
 30
0.0
 10
43.83307355228492
 20
63.30727482697669
 30
0.0
 10
43.82038679967125
 20
63.30580994904596
 30
0.0
 10
43.7696530741075
 20
63.30060500671354
 30
0.0
 10
43.73349876600958
 20
63.29707063572436
 30
0.0
 10
43.63976834167332
 20
63.28971552432861
 30
0.0
 10
43.58565064191981
 20
63.28618398883869
 30
0.0
 10
43.46319312690516
 20
63.28098765790724
 30
0.0
 10
43.39920730105801
 20
63.27951828346102
 30
0.0
 10
43.26695306115752
 20
63.27953294701438
 30
0.0
 10
43.20281771998856
 20
63.28099253563845
 30
0.0
 10
43.0806592336511
 20
63.28617911010423
 30
0.0
 10
43.02638264885842
 20
63.28971478788426
 30
0.0
 10
42.9326709605256
 20
63.29707137076612
 30
0.0
 10
42.89649503157693
 20
63.30060479093336
 30
0.0
 10
42.84578580336755
 20
63.30581016382882
 30
0.0
 10
42.83308018025968
 20
63.30727482678986
 30
0.0
 10
42.83308017476408
 20
63.30727482678986
 30
0.0
  0
SPLINE
  5
1AA
330
1F
100
AcDbEntity
  8
0
  6
Continuous
 62
     7
370
    25
100
AcDbSpline
210
0.0
220
0.0
230
1.0
 70
    24
 71
     3
 72
    14
 73
    10
 74
     0
 42
0.00000001
 43
0.00000001
 40
0.0
 40
0.0
 40
0.0
 40
0.0
 40
0.25
 40
0.25
 40
0.5
 40
0.5
 40
0.75
 40
0.75
 40
1.0
 40
1.0
 40
1.0
 40
1.0
 10
42.43308017476409
 20
63.30727482678986
 30
0.0
 10
42.43308017476409
 20
63.30727482678986
 30
0.0
 10
42.43308017476409
 20
63.30323169786721
 30
0.0
 10
42.43308017476409
 20
63.28703556516192
 30
0.0
 10
42.43308017476409
 20
63.27488250832555
 30
0.0
 10
42.43308017476409
 20
63.24239635649671
 30
0.0
 10
42.43308017476409
 20
63.22206315337879
 30
0.0
 10
42.43308017476409
 20
63.17310240723492
 30
0.0
 10
42.43308017476409
 20
63.14447469700399
 30
0.0
 10
42.43308017476409
 20
63.1116226528768
 30
0.0
  0
SPLINE
  5
1AB
330
1F
100
AcDbEntity
  8
0
  6
Continuous
 62
     7
370
    25
100
AcDbSpline
210
0.0
220
0.0
230
1.0
 70
    24
 71
     3
 72
    14
 73
    10
 74
     0
 42
0.00000001
 43
0.00000001
 40
0.0
 40
0.0
 40
0.0
 40
0.0
 40
0.25
 40
0.25
 40
0.5
 40
0.5
 40
0.75
 40
0.75
 40
1.0
 40
1.0
 40
1.0
 40
1.0
 10
42.43308017476409
 20
54.30727482678986
 30
0.0
 10
42.43308017476409
 20
54.30727482678986
 30
0.0
 10
42.43308017476409
 20
54.31131795571251
 30
0.0
 10
42.43308017476409
 20
54.3275140884178
 30
0.0
 10
42.43308017476409
 20
54.33966714525417
 30
0.0
 10
42.43308017476409
 20
54.37215329708301
 30
0.0
 10
42.43308017476409
 20
54.39248650020093
 30
0.0
 10
42.43308017476409
 20
54.44144724634479
 30
0.0
 10
42.43308017476409
 20
54.47007495657573
 30
0.0
 10
42.43308017476409
 20
54.50292700070292
 30
0.0
  0
LINE
  5
1AC
330
1F
100
AcDbEntity
  8
0
  6
Continuous
 62
     7
370
    25
100
AcDbLine
 10
42.4330801748
 20
55.7762443819
 30
0.0
 11
42.4330801748
 21
54.5029270007
 31
0.0
  0
SPLINE
  5
1AD
330
1F
100
AcDbEntity
  8
0
  6
Continuous
 62
     7
370
    25
100
AcDbSpline
210
0.0
220
0.0
230
1.0
 70
     8
 71
     3
 72
    12
 73
     8
 74
     0
 42
0.00000001
 43
0.00000001
 40
0.0
 40
0.0
 40
0.0
 40
0.0
 40
0.4999999999999991
 40
0.4999999999999991
 40
0.7499999999999996
 40
0.7499999999999996
 40
1.0
 40
1.0
 40
1.0
 40
1.0
 10
42.43308017476409
 20
55.77624438193188
 30
0.0
 10
42.43308017476409
 20
55.82538431366355
 30
0.0
 10
42.41835375579837
 20
55.87532874442876
 30
0.0
 10
42.37083014395595
 20
55.9419555166272
 30
0.0
 10
42.35061279009934
 20
55.96273335776743
 30
0.0
 10
42.29834210949133
 20
55.99524522928387
 30
0.0
 10
42.26667180127031
 20
56.00596201006188
 30
0.0
 10
42.23308017476408
 20
56.00596201006188
 30
0.0
  0
SPLINE
  5
1AE
330
1F
100
AcDbEntity
  8
0
  6
Continuous
 62
     7
370
    25
100
AcDbSpline
210
0.0
220
0.0
230
1.0
 70
     8
 71
     3
 72
    12
 73
     8
 74
     0
 42
0.00000001
 43
0.00000001
 40
0.0
 40
0.0
 40
0.0
 40
0.0
 40
0.2500000000000013
 40
0.2500000000000013
 40
0.5000000000000027
 40
0.5000000000000027
 40
1.0
 40
1.0
 40
1.0
 40
1.0
 10
42.23308017476409
 20
61.60858764351783
 30
0.0
 10
42.26666911277198
 20
61.60858764351783
 30
0.0
 10
42.29872742408526
 20
61.61950431132746
 30
0.0
 10
42.3505947489079
 20
61.65184513197352
 30
0.0
 10
42.37099128744277
 20
61.67277935192843
 30
0.0
 10
42.41839863039055
 20
61.73936570386174
 30
0.0
 10
42.43308017476409
 20
61.78912990208143
 30
0.0
 10
42.43308017476409
 20
61.83830527164784
 30
0.0
  0
LINE
  5
1AF
330
1F
100
AcDbEntity
  8
0
  6
Continuous
 62
     7
370
    25
100
AcDbLine
 10
42.4330801748
 20
63.1116226529
 30
0.0
 11
42.4330801748
 21
61.8383052716
 31
0.0
  0
LINE
  5
1B0
330
1F
100
AcDbEntity
  8
0
  6
Continuous
 62
     7
370
    25
100
AcDbLine
 10
34.3330801748
 20
54.4072748268
 30
0.0
 11
34.3330801748
 21
55.1802605639
 31
0.0
  0
LINE
  5
1B1
330
1F
100
AcDbEntity
  8
0
  6
Continuous
 62
     7
370
    25
100
AcDbLine
 10
34.3330801748
 20
54.4072748268
 30
0.0
 11
34.4330801748
 21
54.4072748268
 31
0.0
  0
LINE
  5
1B2
330
1F
100
AcDbEntity
  8
0
  6
Continuous
 62
     7
370
    25
100
AcDbLine
 10
41.3330801748
 20
55.1802605639
 30
0.0
 11
41.3330801748
 21
54.4072748268
 31
0.0
  0
LINE
  5
1B3
330
1F
100
AcDbEntity
  8
0
  6
Continuous
 62
     7
370
    25
100
AcDbLine
 10
41.3330801748
 20
54.4072748268
 30
0.0
 11
41.2330801748
 21
54.4072748268
 31
0.0
  0
ARC
  5
1B4
330
1F
100
AcDbEntity
  8
0
  6
Continuous
 62
     7
370
    25
100
AcDbCircle
 10
34.4330801748
 20
54.4072748268
 30
0.0
 40
0.1000000000000085
100
AcDbArc
 50
180.0
 51
270.0
  0
ARC
  5
1B5
330
1F
100
AcDbEntity
  8
0
  6
Continuous
 62
     7
370
    25
100
AcDbCircle
 10
41.2330801748
 20
54.4072748268
 30
0.0
 40
0.1000000000000014
100
AcDbArc
 50
270.0
 51
0.0
  0
LINE
  5
1B6
330
1F
100
AcDbEntity
  8
0
  6
Continuous
 62
     7
370
    25
100
AcDbLine
 10
41.8330801748
 20
63.2072748268
 30
0.0
 11
41.3330801748
 21
63.2072748268
 31
0.0
  0
LINE
  5
1B7
330
1F
100
AcDbEntity
  8
0
  6
Continuous
 62
     7
370
    25
100
AcDbLine
 10
41.8330801748
 20
63.3072748268
 30
0.0
 11
41.8330801748
 21
63.2072748268
 31
0.0
  0
LINE
  5
1B8
330
1F
100
AcDbEntity
  8
0
  6
Continuous
 62
     7
370
    25
100
AcDbLine
 10
41.2330801748
 20
63.3072748268
 30
0.0
 11
41.8330801748
 21
63.3072748268
 31
0.0
  0
LINE
  5
1B9
330
1F
100
AcDbEntity
  8
0
  6
Continuous
 62
     7
370
    25
100
AcDbLine
 10
41.3330801748
 20
54.4072748268
 30
0.0
 11
41.8330801748
 21
54.4072748268
 31
0.0
  0
LINE
  5
1BA
330
1F
100
AcDbEntity
  8
0
  6
Continuous
 62
     7
370
    25
100
AcDbLine
 10
41.8330801748
 20
54.4072748268
 30
0.0
 11
41.8330801748
 21
54.3072748268
 31
0.0
  0
LINE
  5
1BB
330
1F
100
AcDbEntity
  8
0
  6
Continuous
 62
     7
370
    25
100
AcDbLine
 10
41.8330801748
 20
54.3072748268
 30
0.0
 11
41.2330801748
 21
54.3072748268
 31
0.0
  0
SPLINE
  5
1BC
330
1F
100
AcDbEntity
  8
0
  6
Continuous
 62
     7
370
    25
100
AcDbSpline
210
0.0
220
0.0
230
1.0
 70
     8
 71
     3
 72
    12
 73
     8
 74
     0
 42
0.00000001
 43
0.00000001
 40
0.0
 40
0.0
 40
0.0
 40
0.0
 40
0.4999999999999971
 40
0.4999999999999971
 40
0.7499999999999986
 40
0.7499999999999986
 40
1.0
 40
1.0
 40
1.0
 40
1.0
 10
42.33308017476409
 20
61.90566150375579
 30
0.0
 10
42.33308017476409
 20
61.86136575235654
 30
0.0
 10
42.32756139379497
 20
61.81692226738395
 30
0.0
 10
42.30822800936095
 20
61.75225381850404
 30
0.0
 10
42.29993766695986
 20
61.73086016784007
 30
0.0
 10
42.27572333742322
 20
61.69193795802535
 30
0.0
 10
42.25793374472357
 20
61.67083903944513
 30
0.0
 10
42.23308017476409
 20
61.67083903944513
 30
0.0
  0
ARC
  5
1BD
330
1F
100
AcDbEntity
  8
0
  6
Continuous
 62
     7
370
    25
100
AcDbCircle
 10
42.4194223298
 20
61.9259385361
 30
0.0
 40
0.0886911820508649
100
AcDbArc
 50
193.2161404815
 51
278.8584137911
  0
LINE
  5
1BE
330
1F
100
AcDbEntity
  8
0
  6
Continuous
 62
     7
370
    25
100
AcDbLine
 10
42.2330801748
 20
61.6708390394
 30
0.0
 11
42.2330801748
 21
61.6085876435
 31
0.0
  0
ARC
  5
1BF
330
1F
100
AcDbEntity
  8
0
  6
Continuous
 62
     7
370
    25
100
AcDbCircle
 10
42.4194223298
 20
55.6886111174
 30
0.0
 40
0.0886911820508633
100
AcDbArc
 50
81.1415862089
 51
166.7838595185
  0
SPLINE
  5
1C0
330
1F
100
AcDbEntity
  8
0
  6
Continuous
 62
     7
370
    25
100
AcDbSpline
210
0.0
220
0.0
230
1.0
 70
     8
 71
     3
 72
    14
 73
    10
 74
     0
 42
0.00000001
 43
0.00000001
 40
0.0
 40
0.0
 40
0.0
 40
0.0
 40
0.1250000000000015
 40
0.1250000000000015
 40
0.250000000000003
 40
0.250000000000003
 40
0.5000000000000039
 40
0.5000000000000039
 40
1.0
 40
1.0
 40
1.0
 40
1.0
 10
42.23308017476409
 20
55.9437106141346
 30
0.0
 10
42.24547177280321
 20
55.9437106141346
 30
0.0
 10
42.25688739886277
 20
55.93761582768147
 30
0.0
 10
42.27465310882479
 20
55.92228534455924
 30
0.0
 10
42.28177857199481
 20
55.9128788726538
 30
0.0
 10
42.29993908375066
 20
55.88368643767499
 30
0.0
 10
42.30822315814712
 20
55.86230169536147
 30
0.0
 10
42.32752952612206
 20
55.79775468086923
 30
0.0
 10
42.33308017476409
 20
55.75316550988384
 30
0.0
 10
42.33308017476409
 20
55.70888814982393
 30
0.0
  0
LINE
  5
1C1
330
1F
100
AcDbEntity
  8
0
  6
Continuous
 62
     7
370
    25
100
AcDbLine
 10
42.2330801748
 20
56.0059620101
 30
0.0
 11
42.2330801748
 21
55.9437106141
 31
0.0
  0
ARC
  5
1C2
330
1F
100
AcDbEntity
  8
0
  6
Continuous
 62
     7
370
    25
100
AcDbCircle
 10
42.2330801748
 20
63.2072748268
 30
0.0
 40
0.1000000000000014
100
AcDbArc
 50
0.0
 51
90.0
  0
LINE
  5
1C3
330
1F
100
AcDbEntity
  8
0
  6
Continuous
 62
     7
370
    25
100
AcDbLine
 10
42.2330801748
 20
63.2072748268
 30
0.0
 11
42.3330801748
 21
63.2072748268
 31
0.0
  0
LINE
  5
1C4
330
1F
100
AcDbEntity
  8
0
  6
Continuous
 62
     7
370
    25
100
AcDbLine
 10
42.2330801748
 20
63.3072748268
 30
0.0
 11
42.2330801748
 21
63.2072748268
 31
0.0
  0
LINE
  5
1C5
330
1F
100
AcDbEntity
  8
0
  6
Continuous
 62
     7
370
    25
100
AcDbLine
 10
42.2330801748
 20
63.2072748268
 30
0.0
 11
41.8330801748
 21
63.2072748268
 31
0.0
  0
LINE
  5
1C6
330
1F
100
AcDbEntity
  8
0
  6
Continuous
 62
     7
370
    25
100
AcDbLine
 10
41.8330801748
 20
63.3072748268
 30
0.0
 11
42.2330801748
 21
63.3072748268
 31
0.0
  0
LINE
  5
1C7
330
1F
100
AcDbEntity
  8
0
  6
Continuous
 62
     7
370
    25
100
AcDbLine
 10
42.2330801748
 20
61.6708390394
 30
0.0
 11
42.2330801748
 21
63.2072748268
 31
0.0
  0
LINE
  5
1C8
330
1F
100
AcDbEntity
  8
0
  6
Continuous
 62
     7
370
    25
100
AcDbLine
 10
42.3330801748
 20
63.2072748268
 30
0.0
 11
42.3330801748
 21
61.9056615038
 31
0.0
  0
LINE
  5
1C9
330
1F
100
AcDbEntity
  8
0
  6
Continuous
 62
     7
370
    25
100
AcDbLine
 10
42.3330801748
 20
55.7088881498
 30
0.0
 11
42.3330801748
 21
54.4072748268
 31
0.0
  0
LINE
  5
1CA
330
1F
100
AcDbEntity
  8
0
  6
Continuous
 62
     7
370
    25
100
AcDbLine
 10
42.3330801748
 20
54.4072748268
 30
0.0
 11
42.2330801748
 21
54.4072748268
 31
0.0
  0
LINE
  5
1CB
330
1F
100
AcDbEntity
  8
0
  6
Continuous
 62
     7
370
    25
100
AcDbLine
 10
42.2330801748
 20
54.4072748268
 30
0.0
 11
42.2330801748
 21
55.9437106141
 31
0.0
  0
LINE
  5
1CC
330
1F
100
AcDbEntity
  8
0
  6
Continuous
 62
     7
370
    25
100
AcDbLine
 10
41.8330801748
 20
54.4072748268
 30
0.0
 11
42.2330801748
 21
54.4072748268
 31
0.0
  0
ARC
  5
1CD
330
1F
100
AcDbEntity
  8
0
  6
Continuous
 62
     7
370
    25
100
AcDbCircle
 10
42.2330801748
 20
54.4072748268
 30
0.0
 40
0.1000000000000014
100
AcDbArc
 50
270.0
 51
0.0
  0
LINE
  5
1CE
330
1F
100
AcDbEntity
  8
0
  6
Continuous
 62
     7
370
    25
100
AcDbLine
 10
42.2330801748
 20
54.4072748268
 30
0.0
 11
42.2330801748
 21
54.3072748268
 31
0.0
  0
LINE
  5
1CF
330
1F
100
AcDbEntity
  8
0
  6
Continuous
 62
     7
370
    25
100
AcDbLine
 10
42.2330801748
 20
54.3072748268
 30
0.0
 11
41.8330801748
 21
54.3072748268
 31
0.0
  0
SPLINE
  5
1D0
330
1F
100
AcDbEntity
  8
0
  6
Continuous
 62
     7
370
    25
100
AcDbSpline
210
0.0
220
0.0
230
1.0
 70
     8
 71
     3
 72
    12
 73
     8
 74
     0
 42
0.00000001
 43
0.00000001
 40
0.0
 40
0.0
 40
0.0
 40
0.0
 40
0.25
 40
0.25
 40
0.5
 40
0.5
 40
1.0
 40
1.0
 40
1.0
 40
1.0
 10
42.36236848947838
 20
63.14088344256816
 30
0.0
 10
42.35659843654554
 20
63.14656411220425
 30
0.0
 10
42.35143592291008
 20
63.15326222693242
 30
0.0
 10
42.34290261825198
 20
63.16727751090653
 30
0.0
 10
42.33953182722936
 20
63.1745946801525
 30
0.0
 10
42.33297200410788
 20
63.19535101616755
 30
0.0
 10
42.33308017476409
 20
63.20727482678986
 30
0.0
 10
42.33308017476409
 20
63.20727482678986
 30
0.0
  0
SPLINE
  5
1D1
330
1F
100
AcDbEntity
  8
0
  6
Continuous
 62
     7
370
    25
100
AcDbSpline
210
0.0
220
0.0
230
1.0
 70
     8
 71
     3
 72
    10
 73
     6
 74
     0
 42
0.00000001
 43
0.00000001
 40
0.0
 40
0.0
 40
0.0
 40
0.0
 40
0.5
 40
0.5
 40
1.0
 40
1.0
 40
1.0
 40
1.0
 10
42.36236848947838
 20
63.14088344256816
 30
0.0
 10
42.37390859534406
 20
63.12952210329596
 30
0.0
 10
42.38719787110541
 20
63.12220690587313
 30
0.0
 10
42.41239501525533
 20
63.11325718066355
 30
0.0
 10
42.42430288364393
 20
63.1116226528768
 30
0.0
 10
42.43308017476409
 20
63.1116226528768
 30
0.0
  0
SPLINE
  5
1D2
330
1F
100
AcDbEntity
  8
0
  6
Continuous
 62
     7
370
    25
100
AcDbSpline
210
0.0
220
0.0
230
1.0
 70
     8
 71
     3
 72
    10
 73
     6
 74
     0
 42
0.00000001
 43
0.00000001
 40
0.0
 40
0.0
 40
0.0
 40
0.0
 40
0.5
 40
0.5
 40
1.0
 40
1.0
 40
1.0
 40
1.0
 10
42.36236848947838
 20
54.47366621101157
 30
0.0
 10
42.37390859534406
 20
54.48502755028375
 30
0.0
 10
42.38719787110541
 20
54.49234274770659
 30
0.0
 10
42.41239501525533
 20
54.50129247291617
 30
0.0
 10
42.42430288364393
 20
54.50292700070292
 30
0.0
 10
42.43308017476409
 20
54.50292700070292
 30
0.0
  0
SPLINE
  5
1D3
330
1F
100
AcDbEntity
  8
0
  6
Continuous
 62
     7
370
    25
100
AcDbSpline
210
0.0
220
0.0
230
1.0
 70
     8
 71
     3
 72
    12
 73
     8
 74
     0
 42
0.00000001
 43
0.00000001
 40
0.0
 40
0.0
 40
0.0
 40
0.0
 40
0.25
 40
0.25
 40
0.5
 40
0.5
 40
1.0
 40
1.0
 40
1.0
 40
1.0
 10
42.36236848947838
 20
54.47366621101157
 30
0.0
 10
42.35659843654554
 20
54.46798554137548
 30
0.0
 10
42.35143592291008
 20
54.4612874266473
 30
0.0
 10
42.34290261825198
 20
54.44727214267319
 30
0.0
 10
42.33953182722936
 20
54.43995497342722
 30
0.0
 10
42.33297200410788
 20
54.41919863741218
 30
0.0
 10
42.33308017476409
 20
54.40727482678987
 30
0.0
 10
42.33308017476409
 20
54.40727482678987
 30
0.0
  0
LINE
  5
1D4
330
1F
100
AcDbEntity
  8
0
  6
Continuous
 62
     7
370
    25
100
AcDbLine
 10
37.3330801748
 20
57.2001079209
 30
0.0
 11
37.3330801748
 21
60.4144417327
 31
0.0
  0
SPLINE
  5
1D5
330
1F
100
AcDbEntity
  8
0
  6
Continuous
 62
     7
370
    25
100
AcDbSpline
210
0.0
220
0.0
230
1.0
 70
     8
 71
     3
 72
    16
 73
    12
 74
     0
 42
0.00000001
 43
0.00000001
 40
0.0
 40
0.0
 40
0.0
 40
0.0
 40
0.25
 40
0.25
 40
0.5
 40
0.5
 40
0.625
 40
0.625
 40
0.75
 40
0.75
 40
1.0
 40
1.0
 40
1.0
 40
1.0
 10
38.83308017476409
 20
60.53932563435873
 30
0.0
 10
38.71610185715788
 20
60.5103216605779
 30
0.0
 10
38.5987392265566
 20
60.4795922244002
 30
0.0
 10
38.36016658461728
 20
60.41995583763985
 30
0.0
 10
38.23916007043216
 20
60.39066822704521
 30
0.0
 10
38.04816379689481
 20
60.36019770004884
 30
0.0
 10
37.98187269264487
 20
60.35243711077041
 30
0.0
 10
37.84922831916244
 20
60.34545815676462
 30
0.0
 10
37.78327686492502
 20
60.34623633840592
 30
0.0
 10
37.58647143335202
 20
60.36057380321214
 30
0.0
 10
37.45707510193847
 20
60.38593504820041
 30
0.0
 10
37.3330801747641
 20
60.41444173271771
 30
0.0
  0
SPLINE
  5
1D6
330
1F
100
AcDbEntity
  8
0
  6
Continuous
 62
     7
370
    25
100
AcDbSpline
210
0.0
220
0.0
230
1.0
 70
     8
 71
     3
 72
    14
 73
    10
 74
     0
 42
0.00000001
 43
0.00000001
 40
0.0
 40
0.0
 40
0.0
 40
0.0
 40
0.25
 40
0.25
 40
0.5
 40
0.5
 40
0.75
 40
0.75
 40
1.0
 40
1.0
 40
1.0
 40
1.0
 10
37.3330801747641
 20
57.20010792086201
 30
0.0
 10
37.45584142609567
 20
57.22833098080815
 30
0.0
 10
37.58387068706504
 20
57.25349851782886
 30
0.0
 10
37.84424483710698
 20
57.27303486197278
 30
0.0
 10
37.97811612915272
 20
57.26515667126887
 30
0.0
 10
38.23287695328116
 20
57.22523619936842
 30
0.0
 10
38.35506733786693
 20
57.19583181643413
 30
0.0
 10
38.59657406114503
 20
57.13553424422143
 30
0.0
 10
38.71509787093082
 20
57.10447692451684
 30
0.0
 10
38.8330801747635
 20
57.075224019218
 30
0.0
  0
SPLINE
  5
1D7
330
1F
100
AcDbEntity
  8
0
  6
Continuous
 62
     7
370
    25
100
AcDbSpline
210
0.0
220
0.0
230
1.0
 70
    11
 71
     3
 72
    30
 73
    26
 74
     0
 42
0.00000001
 43
0.00000001
 40
0.0
 40
0.0
 40
0.0
 40
0.0
 40
0.0624999999999999
 40
0.0624999999999999
 40
0.1249999999999999
 40
0.1249999999999999
 40
0.2499999999999999
 40
0.2499999999999999
 40
0.3749999999999999
 40
0.3749999999999999
 40
0.4374999999999999
 40
0.4374999999999999
 40
0.4999999999999999
 40
0.4999999999999999
 40
0.5624999999999999
 40
0.5624999999999999
 40
0.6249999999999999
 40
0.6249999999999999
 40
0.7499999999999998
 40
0.7499999999999998
 40
0.8749999999999998
 40
0.8749999999999998
 40
0.9374999999999998
 40
0.9374999999999998
 40
1.0
 40
1.0
 40
1.0
 40
1.0
 10
37.86629642963071
 20
58.40484375479188
 30
0.0
 10
37.81762002274194
 20
58.39872821772499
 30
0.0
 10
37.76827782165945
 20
58.40659877935407
 30
0.0
 10
37.6794737943813
 20
58.4449033017422
 30
0.0
 10
37.63990606862783
 20
58.47495466753276
 30
0.0
 10
37.54268546697537
 20
58.58272285858424
 30
0.0
 10
37.50538972622447
 20
58.67792932486589
 30
0.0
 10
37.49168077705965
 20
58.87047673986932
 30
0.0
 10
37.51559613958516
 20
58.96999162702991
 30
0.0
 10
37.59321283547334
 20
59.09133301573203
 30
0.0
 10
37.62618816373318
 20
59.1275825491393
 30
0.0
 10
37.70465381512273
 20
59.18367165932354
 30
0.0
 10
37.75065159090737
 20
59.20327824842142
 30
0.0
 10
37.8464336346286
 20
59.21579487965382
 30
0.0
 10
37.89668633168855
 20
59.20828658028921
 30
0.0
 10
37.98604483018858
 20
59.17009973900494
 30
0.0
 10
38.02553446311968
 20
59.14021597722004
 30
0.0
 10
38.12303653102837
 20
59.03266147670119
 30
0.0
 10
38.16058422048823
 20
58.93826139363306
 30
0.0
 10
38.17461895065628
 20
58.74308904331459
 30
0.0
 10
38.15100115489393
 20
58.64520355982155
 30
0.0
 10
38.07265824231295
 20
58.52278321326568
 30
0.0
 10
38.03999083689241
 20
58.48695160975299
 30
0.0
 10
37.96122211011378
 20
58.43070360539696
 30
0.0
 10
37.91497283651947
 20
58.41095929185876
 30
0.0
 10
37.86629642963071
 20
58.40484375479188
 30
0.0
  0
SPLINE
  5
1D8
330
1F
100
AcDbEntity
  8
0
  6
Continuous
 62
     7
370
    25
100
AcDbSpline
210
0.0
220
0.0
230
1.0
 70
     8
 71
     3
 72
    12
 73
     8
 74
     0
 42
0.00000001
 43
0.00000001
 40
0.0
 40
0.0
 40
0.0
 40
0.0
 40
0.25
 40
0.25
 40
0.5
 40
0.5
 40
1.0
 40
1.0
 40
1.0
 40
1.0
 10
42.33350774679463
 20
63.3069980613299
 30
0.0
 10
42.32942930809234
 20
63.30699597647106
 30
0.0
 10
42.32644927372849
 20
63.30350151553552
 30
0.0
 10
42.32079347437273
 20
63.2948091059092
 30
0.0
 10
42.31811770938081
 20
63.28961115721845
 30
0.0
 10
42.30770800950559
 20
63.27938397611069
 30
0.0
 10
42.30382214025934
 20
63.27795421753192
 30
0.0
 10
42.30379085288067
 20
63.27798550491058
 30
0.0
  0
SPLINE
  5
1D9
330
1F
100
AcDbEntity
  8
0
  6
Continuous
 62
     7
370
    25
100
AcDbSpline
210
0.0
220
0.0
230
1.0
 70
     8
 71
     3
 72
     9
 73
     5
 74
     0
 42
0.00000001
 43
0.00000001
 40
0.0
 40
0.0
 40
0.0
 40
0.0
 40
0.4116807512410356
 40
1.0
 40
1.0
 40
1.0
 40
1.0
 10
42.25635539304071
 20
63.30746599010852
 30
0.0
 10
42.26694357292218
 20
63.30760584322041
 30
0.0
 10
42.29266296798632
 20
63.3079455557561
 30
0.0
 10
42.31837869159808
 20
63.30734901672471
 30
0.0
 10
42.33350774679463
 20
63.3069980613299
 30
0.0
  0
SPLINE
  5
1DA
330
1F
100
AcDbEntity
  8
0
  6
Continuous
 62
     7
370
    25
100
AcDbSpline
210
0.0
220
0.0
230
1.0
 70
     8
 71
     3
 72
    14
 73
    10
 74
     0
 42
0.00000001
 43
0.00000001
 40
0.0
 40
0.0
 40
0.0
 40
0.0
 40
0.25
 40
0.25
 40
0.5
 40
0.5
 40
0.75
 40
0.75
 40
1.0
 40
1.0
 40
1.0
 40
1.0
 10
42.33350774679463
 20
63.3069980613299
 30
0.0
 10
42.33758618549692
 20
63.30700014618874
 30
0.0
 10
42.34347654642427
 20
63.30351021971438
 30
0.0
 10
42.35628592229657
 20
63.28873686124278
 30
0.0
 10
42.36320493724152
 20
63.27745342924554
 30
0.0
 10
42.37547643071649
 20
63.24628357687165
 30
0.0
 10
42.37785891862298
 20
63.22820421937354
 30
0.0
 10
42.37543048453558
 20
63.18767105984629
 30
0.0
 10
42.37061956254169
 20
63.16521725781715
 30
0.0
 10
42.36236848947838
 20
63.14088344256816
 30
0.0
  0
SPLINE
  5
1DB
330
1F
100
AcDbEntity
  8
0
  6
Continuous
 62
     7
370
    25
100
AcDbSpline
210
0.0
220
0.0
230
1.0
 70
     8
 71
     3
 72
    12
 73
     8
 74
     0
 42
0.00000001
 43
0.00000001
 40
0.0
 40
0.0
 40
0.0
 40
0.0
 40
0.25
 40
0.25
 40
0.5
 40
0.5
 40
1.0
 40
1.0
 40
1.0
 40
1.0
 10
42.33350774679463
 20
54.30755159224982
 30
0.0
 10
42.32942930809234
 20
54.30755367710866
 30
0.0
 10
42.32644927372849
 20
54.31104813804421
 30
0.0
 10
42.32079347437273
 20
54.31974054767052
 30
0.0
 10
42.31811770938081
 20
54.32493849636128
 30
0.0
 10
42.30770800950559
 20
54.33516567746903
 30
0.0
 10
42.30382214025934
 20
54.33659543604779
 30
0.0
 10
42.30379085288067
 20
54.33656414866913
 30
0.0
  0
SPLINE
  5
1DC
330
1F
100
AcDbEntity
  8
0
  6
Continuous
 62
     7
370
    25
100
AcDbSpline
210
0.0
220
0.0
230
1.0
 70
     8
 71
     3
 72
    12
 73
     8
 74
     0
 42
0.00000001
 43
0.00000001
 40
0.0
 40
0.0
 40
0.0
 40
0.0
 40
0.25
 40
0.25
 40
0.5
 40
0.5
 40
1.0
 40
1.0
 40
1.0
 40
1.0
 10
42.33350774679463
 20
54.30755159224982
 30
0.0
 10
42.33758618549692
 20
54.30754950739097
 30
0.0
 10
42.34347654642428
 20
54.31103943386534
 30
0.0
 10
42.35628592229658
 20
54.32581279233694
 30
0.0
 10
42.36320493724152
 20
54.33709622433418
 30
0.0
 10
42.38161217745397
 20
54.38385100289501
 30
0.0
 10
42.378870635605
 20
54.42499858051356
 30
0.0
 10
42.36236848947838
 20
54.47366621101157
 30
0.0
  0
SPLINE
  5
1DD
330
1F
100
AcDbEntity
  8
0
  6
Continuous
 62
     7
370
    25
100
AcDbSpline
210
0.0
220
0.0
230
1.0
 70
     8
 71
     3
 72
     9
 73
     5
 74
     0
 42
0.00000001
 43
0.00000001
 40
0.0
 40
0.0
 40
0.0
 40
0.0
 40
0.4116807512465408
 40
1.0
 40
1.0
 40
1.0
 40
1.0
 10
42.25635539303999
 20
54.30708366347122
 30
0.0
 10
42.2669435729217
 20
54.30694381035931
 30
0.0
 10
42.29266296798608
 20
54.30660409782361
 30
0.0
 10
42.31837869159808
 20
54.30720063685501
 30
0.0
 10
42.33350774679463
 20
54.30755159224982
 30
0.0
  0
SPLINE
  5
1DE
330
1F
100
AcDbEntity
  8
0
  6
Continuous
 62
     7
370
    25
100
AcDbSpline
210
0.0
220
0.0
230
1.0
 70
     8
 71
     3
 72
    10
 73
     6
 74
     0
 42
0.00000001
 43
0.00000001
 40
0.0
 40
0.0
 40
0.0
 40
0.0
 40
0.5
 40
0.5
 40
1.0
 40
1.0
 40
1.0
 40
1.0
 10
42.33350774679463
 20
63.3069980613299
 30
0.0
 10
42.34982150160378
 20
63.30700640076525
 30
0.0
 10
42.36718134546679
 20
63.30710141948526
 30
0.0
 10
42.40283242513271
 20
63.30547000999151
 30
0.0
 10
42.41605548874912
 20
63.30727482678986
 30
0.0
 10
42.43308017476409
 20
63.30727482678986
 30
0.0
  0
SPLINE
  5
1DF
330
1F
100
AcDbEntity
  8
0
  6
Continuous
 62
     7
370
    25
100
AcDbSpline
210
0.0
220
0.0
230
1.0
 70
     8
 71
     3
 72
    10
 73
     6
 74
     0
 42
0.00000001
 43
0.00000001
 40
0.0
 40
0.0
 40
0.0
 40
0.0
 40
0.5
 40
0.5
 40
1.0
 40
1.0
 40
1.0
 40
1.0
 10
42.33350774679463
 20
54.30755159224982
 30
0.0
 10
42.34982150160378
 20
54.30754325281446
 30
0.0
 10
42.36718134546679
 20
54.30744823409447
 30
0.0
 10
42.40283242513271
 20
54.30907964358822
 30
0.0
 10
42.41605548874912
 20
54.30727482678986
 30
0.0
 10
42.43308017476409
 20
54.30727482678986
 30
0.0
  0
SPLINE
  5
1E0
330
1F
100
AcDbEntity
  8
0
  6
Continuous
 62
     7
370
    25
100
AcDbSpline
210
0.0
220
0.0
230
1.0
 70
     8
 71
     3
 72
    20
 73
    16
 74
     0
 42
0.00000001
 43
0.00000001
 40
0.0
 40
0.0
 40
0.0
 40
0.0
 40
0.25
 40
0.25
 40
0.375
 40
0.375
 40
0.4375
 40
0.4375
 40
0.5
 40
0.5
 40
0.625
 40
0.625
 40
0.75
 40
0.75
 40
1.0
 40
1.0
 40
1.0
 40
1.0
 10
37.3330801747641
 20
60.41444173271771
 30
0.0
 10
37.25812289303202
 20
60.16171162267479
 30
0.0
 10
37.20994216762041
 20
59.90444663743352
 30
0.0
 10
37.19669792644983
 20
59.50854605181196
 30
0.0
 10
37.20234912399536
 20
59.3747751041481
 30
0.0
 10
37.2186606087486
 20
59.16861483544061
 30
0.0
 10
37.22523268099238
 20
59.09928193062277
 30
0.0
 10
37.23613269859045
 20
58.95702065701029
 30
0.0
 10
37.24018460757786
 20
58.88270254496871
 30
0.0
 10
37.24040088503226
 20
58.66307977890899
 30
0.0
 10
37.22456773237327
 20
58.51932227365077
 30
0.0
 10
37.20274797761721
 20
58.24603782798518
 30
0.0
 10
37.19676555834891
 20
58.11295294239956
 30
0.0
 10
37.20920609881478
 20
57.7147774100085
 30
0.0
 10
37.25810312449069
 20
57.45290468361046
 30
0.0
 10
37.33308017476409
 20
57.20010792086202
 30
0.0
  0
LINE
  5
1E1
330
1F
100
AcDbEntity
  8
0
  6
Continuous
 62
     7
370
    25
100
AcDbLine
 10
45.5330801748
 20
54.3072748268
 30
0.0
 11
45.5330801748
 21
63.3072748268
 31
0.0
  0
LINE
  5
1E2
330
1F
100
AcDbEntity
  8
0
  6
Continuous
 62
     7
370
    25
100
AcDbLine
 10
35.3743747303
 20
63.2072748268
 30
0.0
 11
34.4330801748
 21
63.2072748268
 31
0.0
  0
LINE
  5
1E3
330
1F
100
AcDbEntity
  8
0
  6
Continuous
 62
     7
370
    25
100
AcDbLine
 10
34.4330801748
 20
63.2072748268
 30
0.0
 11
34.4330801748
 21
62.5281930552
 31
0.0
  0
LINE
  5
1E4
330
1F
100
AcDbEntity
  8
0
  6
Continuous
 62
     7
370
    25
100
AcDbLine
 10
41.3330801748
 20
63.2072748268
 30
0.0
 11
40.2917856193
 21
63.2072748268
 31
0.0
  0
LINE
  5
1E5
330
1F
100
AcDbEntity
  8
0
  6
Continuous
 62
     7
370
    25
100
AcDbLine
 10
34.4330801748
 20
54.4072748268
 30
0.0
 11
35.3743747303
 21
54.4072748268
 31
0.0
  0
LINE
  5
1E6
330
1F
100
AcDbEntity
  8
0
  6
Continuous
 62
     7
370
    25
100
AcDbLine
 10
34.4330801748
 20
55.0863565983
 30
0.0
 11
34.4330801748
 21
54.4072748268
 31
0.0
  0
LINE
  5
1E7
330
1F
100
AcDbEntity
  8
0
  6
Continuous
 62
     7
370
    25
100
AcDbLine
 10
41.2330801748
 20
54.4072748268
 30
0.0
 11
41.2330801748
 21
55.0863565983
 31
0.0
  0
LINE
  5
1E8
330
1F
100
AcDbEntity
  8
0
  6
Continuous
 62
     7
370
    25
100
AcDbLine
 10
40.2917856193
 20
54.4072748268
 30
0.0
 11
41.2330801748
 21
54.4072748268
 31
0.0
  0
LINE
  5
1E9
330
1F
100
AcDbEntity
  8
0
  6
Continuous
 62
     7
370
    25
100
AcDbLine
 10
42.0232924565
 20
56.0059620101
 30
0.0
 11
42.2330801748
 21
56.0059620101
 31
0.0
  0
LINE
  5
1EA
330
1F
100
AcDbEntity
  8
0
  6
Continuous
 62
     7
370
    25
100
AcDbLine
 10
42.2330801748
 20
61.6085876435
 30
0.0
 11
42.0232924565
 21
61.6085876435
 31
0.0
  0
LINE
  5
1EB
330
1F
100
AcDbEntity
  8
0
  6
Continuous
 62
     7
370
    25
100
AcDbLine
 10
41.8330801748
 20
61.874069972
 30
0.0
 11
41.8330801748
 21
63.2072748268
 31
0.0
  0
LINE
  5
1EC
330
1F
100
AcDbEntity
  8
0
  6
Continuous
 62
     7
370
    25
100
AcDbLine
 10
41.8330801748
 20
54.4072748268
 30
0.0
 11
41.8330801748
 21
55.7404796816
 31
0.0
  0
LINE
  5
1ED
330
1F
100
AcDbEntity
  8
0
  6
Continuous
 62
     7
370
    25
100
AcDbLine
 10
41.9809992269
 20
61.6708390394
 30
0.0
 11
42.2330801748
 21
61.6708390394
 31
0.0
  0
LINE
  5
1EE
330
1F
100
AcDbEntity
  8
0
  6
Continuous
 62
     7
370
    25
100
AcDbLine
 10
42.2330801748
 20
55.9437106141
 30
0.0
 11
41.9809992269
 21
55.9437106141
 31
0.0
  0
SPLINE
  5
1EF
330
1F
100
AcDbEntity
  8
0
  6
Continuous
 62
     7
370
    25
100
AcDbSpline
210
0.0
220
0.0
230
1.0
 70
     8
 71
     3
 72
    14
 73
    10
 74
     0
 42
0.00000001
 43
0.00000001
 40
0.0
 40
0.0
 40
0.0
 40
0.0
 40
0.25
 40
0.25
 40
0.5
 40
0.5
 40
0.75
 40
0.75
 40
1.0
 40
1.0
 40
1.0
 40
1.0
 10
43.08308017476408
 20
63.60727482678986
 30
0.0
 10
43.08308018058074
 20
63.60727482706767
 30
0.0
 10
43.1073360421748
 20
63.60561808943502
 30
0.0
 10
43.19891549053364
 20
63.60163989059973
 30
0.0
 10
43.26554912830206
 20
63.59971797313765
 30
0.0
 10
43.40101694063559
 20
63.59970836334218
 30
0.0
 10
43.46788373729366
 20
63.60166643469657
 30
0.0
 10
43.55861685930254
 20
63.60561005850165
 30
0.0
 10
43.58307086589645
 20
63.6072750106656
 30
0.0
 10
43.58308017445382
 20
63.60727482677259
 30
0.0
  0
LWPOLYLINE
  5
1F0
330
1F
100
AcDbEntity
  8
0
  6
Continuous
 62
     7
370
    25
100
AcDbPolyline
 90
       13
 70
   128
 43
0.0
 10
43.8330765299
 20
63.3572743205
 10
43.8330801745
 20
63.3572748267
 10
43.8040544685
 20
63.3533420948
 10
43.7195746109
 20
63.3432354849
 10
43.5902704134
 20
63.3316167675
 10
43.4321079958
 20
63.323747001
 10
43.2637461853
 20
63.3230536766
 10
43.105586918
 20
63.3296098335
 10
42.972774892
 20
63.3405181977
 10
42.8795325076
 20
63.3511090199
 10
42.8356942806
 20
63.3569062799
 10
42.8330801748
 20
63.3572748268
 10
42.8330801748
 20
63.3572748268
  0
INSERT
  5
1FC
330
1F
100
AcDbEntity
  8
FORMAT
100
AcDbBlockReference
  2
SW_CENTERMARKSYMBOL_1
 10
37.8330801748
 20
58.8072748268
 30
0.0
  0
LINE
  5
1FD
330
1F
100
AcDbEntity
  8
FORMAT
100
AcDbLine
 10
50.7140801748
 20
54.5242748268
 30
0.0
 11
45.8330801748
 21
54.5242748268
 31
0.0
  0
LINE
  5
1FE
330
1F
100
AcDbEntity
  8
FORMAT
100
AcDbLine
 10
50.7140801748
 20
63.0902748268
 30
0.0
 11
45.8330801748
 21
63.0902748268
 31
0.0
  0
LINE
  5
1FF
330
1F
100
AcDbEntity
  8
FORMAT
100
AcDbLine
 10
45.8330801748
 20
63.6712748268
 30
0.0
 11
45.8330801748
 21
53.9432748268
 31
0.0
  0
ARC
  5
200
330
1F
100
AcDbEntity
  8
FORMAT
100
AcDbCircle
 10
37.8330801748
 20
58.8072748268
 30
0.0
 40
4.283000000000023
100
AcDbArc
 50
75.0
 51
345.0
  0
ENDSEC
  0
SECTION
  2
OBJECTS
  0
DICTIONARY
  5
C
330
0
100
AcDbDictionary
281
     1
  3
ACAD_GROUP
350
D
  3
ACAD_LAYOUT
350
1A
  3
ACAD_MLINESTYLE
350
17
  3
ACAD_PLOTSETTINGS
350
19
  3
ACAD_PLOTSTYLENAME
350
E
  3
ACAD_SCALELIST
350
47
  3
DWGPROPS
350
201
  0
DICTIONARY
  5
D
102
{ACAD_REACTORS
330
C
102
}
330
C
100
AcDbDictionary
281
     1
  0
DICTIONARY
  5
1A
102
{ACAD_REACTORS
330
C
102
}
330
C
100
AcDbDictionary
281
     1
  3
Layout1
350
1E
  3
Layout2
350
26
  3
Model
350
22
  0
DICTIONARY
  5
17
102
{ACAD_REACTORS
330
C
102
}
330
C
100
AcDbDictionary
281
     1
  3
Standard
350
18
  0
DICTIONARY
  5
19
102
{ACAD_REACTORS
330
C
102
}
330
C
100
AcDbDictionary
281
     1
  0
ACDBDICTIONARYWDFLT
  5
E
102
{ACAD_REACTORS
330
C
102
}
330
C
100
AcDbDictionary
281
     1
  3
Normal
350
F
100
AcDbDictionaryWithDefault
340
F
  0
DICTIONARY
  5
47
102
{ACAD_REACTORS
330
C
102
}
330
C
100
AcDbDictionary
281
     1
  3
A0
350
48
  3
A1
350
49
  3
A2
350
4A
  3
A3
350
4B
  3
A4
350
4C
  3
A5
350
4D
  3
A6
350
4E
  3
A7
350
4F
  3
A8
350
50
  3
A9
350
51
  3
B0
350
52
  3
B1
350
53
  3
B2
350
54
  3
B3
350
55
  3
B4
350
56
  3
B5
350
57
  3
B6
350
58
  0
XRECORD
  5
201
102
{ACAD_REACTORS
330
C
102
}
330
C
100
AcDbXrecord
280
     1
  1
DWGPROPS COOKIE
  2

  3

  4

  6

  7

  8
user28
  9

300
=
301
=
302
=
303
=
304
=
305
=
306
=
307
=
308
=
309
=
 40
0.0
 41
2460376.112453947
 42
2460376.112454942
  1

 90
        0
  0
LAYOUT
  5
1E
102
{ACAD_REACTORS
330
1A
102
}
330
1A
100
AcDbPlotSettings
  1

  2
none_device
  4

  6

 40
0.0
 41
0.0
 42
0.0
 43
0.0
 44
0.0
 45
0.0
 46
0.0
 47
0.0
 48
0.0
 49
0.0
140
0.0
141
0.0
142
1.0
143
1.0
 70
   688
 72
     1
 73
     0
 74
     5
  7

 75
    16
147
1.0
148
0.0
149
0.0
100
AcDbLayout
  1
Layout1
 70
     1
 71
     1
 10
0.0
 20
0.0
 11
420.0
 21
297.0
 12
0.0
 22
0.0
 32
0.0
 14
1.0000000000E+20
 24
1.0000000000E+20
 34
1.0000000000E+20
 15
-1.0000000000E+20
 25
-1.0000000000E+20
 35
-1.0000000000E+20
146
0.0
 13
0.0
 23
0.0
 33
0.0
 16
1.0
 26
0.0
 36
0.0
 17
0.0
 27
1.0
 37
0.0
 76
     0
330
1B
  0
LAYOUT
  5
26
102
{ACAD_REACTORS
330
1A
102
}
330
1A
100
AcDbPlotSettings
  1

  2
none_device
  4

  6

 40
0.0
 41
0.0
 42
0.0
 43
0.0
 44
0.0
 45
0.0
 46
0.0
 47
0.0
 48
0.0
 49
0.0
140
0.0
141
0.0
142
1.0
143
1.0
 70
   688
 72
     1
 73
     0
 74
     5
  7

 75
    16
147
1.0
148
0.0
149
0.0
100
AcDbLayout
  1
Layout2
 70
     1
 71
     2
 10
0.0
 20
0.0
 11
0.0
 21
0.0
 12
0.0
 22
0.0
 32
0.0
 14
0.0
 24
0.0
 34
0.0
 15
0.0
 25
0.0
 35
0.0
146
0.0
 13
0.0
 23
0.0
 33
0.0
 16
1.0
 26
0.0
 36
0.0
 17
0.0
 27
1.0
 37
0.0
 76
     0
330
23
  0
LAYOUT
  5
22
102
{ACAD_REACTORS
330
1A
102
}
330
1A
100
AcDbPlotSettings
  1

  2
none_device
  4
Letter_(8.50_x_11.00_Inches)
  6

 40
6.35
 41
6.35
 42
6.35000508
 43
6.35000508
 44
215.9
 45
279.4
 46
0.0
 47
0.0
 48
0.0
 49
0.0
140
0.0
141
0.0
142
1.0
143
1.0
 70
  1712
 72
     1
 73
     0
 74
     0
  7

 75
     0
147
1.0
148
0.0
149
0.0
100
AcDbLayout
  1
Model
 70
     1
 71
     0
 10
0.0
 20
0.0
 11
148.5
 21
105.0
 12
0.0
 22
0.0
 32
0.0
 14
0.0
 24
0.0
 34
0.0
 15
148.5
 25
105.0
 35
0.0
146
0.0
 13
0.0
 23
0.0
 33
0.0
 16
1.0
 26
0.0
 36
0.0
 17
0.0
 27
1.0
 37
0.0
 76
     0
330
1F
331
29
  0
MLINESTYLE
  5
18
102
{ACAD_REACTORS
330
17
102
}
330
17
100
AcDbMlineStyle
  2
Standard
 70
     0
  3

 62
   256
 51
90.0
 52
90.0
 71
     2
 49
0.5
 62
   256
  6
BYLAYER
 49
-0.5
 62
   256
  6
BYLAYER
  0
ACDBPLACEHOLDER
  5
F
102
{ACAD_REACTORS
330
E
102
}
330
E
  0
SCALE
  5
48
102
{ACAD_REACTORS
330
47
102
}
330
47
100
AcDbScale
 70
     0
300
1:1
140
1.0
141
1.0
290
     1
  0
SCALE
  5
49
102
{ACAD_REACTORS
330
47
102
}
330
47
100
AcDbScale
 70
     0
300
1:2
140
1.0
141
2.0
290
     0
  0
SCALE
  5
4A
102
{ACAD_REACTORS
330
47
102
}
330
47
100
AcDbScale
 70
     0
300
1:4
140
1.0
141
4.0
290
     0
  0
SCALE
  5
4B
102
{ACAD_REACTORS
330
47
102
}
330
47
100
AcDbScale
 70
     0
300
1:5
140
1.0
141
5.0
290
     0
  0
SCALE
  5
4C
102
{ACAD_REACTORS
330
47
102
}
330
47
100
AcDbScale
 70
     0
300
1:8
140
1.0
141
8.0
290
     0
  0
SCALE
  5
4D
102
{ACAD_REACTORS
330
47
102
}
330
47
100
AcDbScale
 70
     0
300
1:10
140
1.0
141
10.0
290
     0
  0
SCALE
  5
4E
102
{ACAD_REACTORS
330
47
102
}
330
47
100
AcDbScale
 70
     0
300
1:16
140
1.0
141
16.0
290
     0
  0
SCALE
  5
4F
102
{ACAD_REACTORS
330
47
102
}
330
47
100
AcDbScale
 70
     0
300
1:20
140
1.0
141
20.0
290
     0
  0
SCALE
  5
50
102
{ACAD_REACTORS
330
47
102
}
330
47
100
AcDbScale
 70
     0
300
1:30
140
1.0
141
30.0
290
     0
  0
SCALE
  5
51
102
{ACAD_REACTORS
330
47
102
}
330
47
100
AcDbScale
 70
     0
300
1:40
140
1.0
141
40.0
290
     0
  0
SCALE
  5
52
102
{ACAD_REACTORS
330
47
102
}
330
47
100
AcDbScale
 70
     0
300
1:50
140
1.0
141
50.0
290
     0
  0
SCALE
  5
53
102
{ACAD_REACTORS
330
47
102
}
330
47
100
AcDbScale
 70
     0
300
1:100
140
1.0
141
100.0
290
     0
  0
SCALE
  5
54
102
{ACAD_REACTORS
330
47
102
}
330
47
100
AcDbScale
 70
     0
300
2:1
140
2.0
141
1.0
290
     0
  0
SCALE
  5
55
102
{ACAD_REACTORS
330
47
102
}
330
47
100
AcDbScale
 70
     0
300
4:1
140
4.0
141
1.0
290
     0
  0
SCALE
  5
56
102
{ACAD_REACTORS
330
47
102
}
330
47
100
AcDbScale
 70
     0
300
8:1
140
8.0
141
1.0
290
     0
  0
SCALE
  5
57
102
{ACAD_REACTORS
330
47
102
}
330
47
100
AcDbScale
 70
     0
300
10:1
140
10.0
141
1.0
290
     0
  0
SCALE
  5
58
102
{ACAD_REACTORS
330
47
102
}
330
47
100
AcDbScale
 70
     0
300
100:1
140
100.0
141
1.0
290
     0
  0
ENDSEC
  0
EOF
