  0
SECTION
  2
HEADER
  9
$ACADVER
  1
AC1015
  9
$ACADMAINTVER
 70
     6
  9
$DWGCODEPAGE
  3
DOS932
  9
$INSBASE
 10
0.0
 20
0.0
 30
0.0
  9
$EXTMIN
 10
0.0
 20
0.0
 30
0.0
  9
$EXTMAX
 10
431.8
 20
279.4
 30
0.0
  9
$LIMMIN
 10
0.0
 20
0.0
  9
$LIMMAX
 10
431.8
 20
279.4
  9
$ORTHOMODE
 70
     0
  9
$REGENMODE
 70
     1
  9
$FILLMODE
 70
     1
  9
$QTEXTMODE
 70
     0
  9
$MIRRTEXT
 70
     1
  9
$LTSCALE
 40
1.0
  9
$ATTMODE
 70
     1
  9
$TEXTSIZE
 40
3.5
  9
$TRACEWID
 40
1.0
  9
$TEXTSTYLE
  7
Standard
  9
$CLAYER
  8
0
  9
$CELTYPE
  6
ByLayer
  9
$CECOLOR
 62
   256
  9
$CELTSCALE
 40
1.0
  9
$DISPSILH
 70
     0
  9
$DIMSCALE
 40
1.0
  9
$DIMASZ
 40
3.302
  9
$DIMEXO
 40
1.0
  9
$DIMDLI
 40
3.75
  9
$DIMRND
 40
0.0
  9
$DIMDLE
 40
0.0
  9
$DIMEXE
 40
1.0
  9
$DIMTP
 40
0.0
  9
$DIMTM
 40
0.0
  9
$DIMTXT
 40
3.5
  9
$DIMCEN
 40
2.5
  9
$DIMTSZ
 40
0.0
  9
$DIMTOL
 70
     0
  9
$DIMLIM
 70
     0
  9
$DIMTIH
 70
     1
  9
$DIMTOH
 70
     1
  9
$DIMSE1
 70
     0
  9
$DIMSE2
 70
     0
  9
$DIMTAD
 70
     1
  9
$DIMZIN
 70
     1
  9
$DIMBLK
  1

  9
$DIMASO
 70
     1
  9
$DIMSHO
 70
     1
  9
$DIMPOST
  1

  9
$DIMAPOST
  1

  9
$DIMALT
 70
     0
  9
$DIMALTD
 70
     3
  9
$DIMALTF
 40
0.0393700787
  9
$DIMLFAC
 40
1.0
  9
$DIMTOFL
 70
     1
  9
$DIMTVP
 40
0.0
  9
$DIMTIX
 70
     0
  9
$DIMSOXD
 70
     0
  9
$DIMSAH
 70
     0
  9
$DIMBLK1
  1

  9
$DIMBLK2
  1

  9
$DIMSTYLE
  2
ISO-25
  9
$DIMCLRD
 70
     0
  9
$DIMCLRE
 70
     0
  9
$DIMCLRT
 70
     0
  9
$DIMTFAC
 40
1.0
  9
$DIMGAP
 40
1.524
  9
$DIMJUST
 70
     0
  9
$DIMSD1
 70
     0
  9
$DIMSD2
 70
     0
  9
$DIMTOLJ
 70
     0
  9
$DIMTZIN
 70
     1
  9
$DIMALTZ
 70
     0
  9
$DIMALTTZ
 70
     0
  9
$DIMUPT
 70
     0
  9
$DIMDEC
 70
     2
  9
$DIMTDEC
 70
     2
  9
$DIMALTU
 70
     2
  9
$DIMALTTD
 70
     3
  9
$DIMTXSTY
  7
Standard
  9
$DIMAUNIT
 70
     0
  9
$DIMADEC
 70
     2
  9
$DIMALTRND
 40
0.0
  9
$DIMAZIN
 70
     0
  9
$DIMDSEP
 70
    44
  9
$DIMATFIT
 70
     3
  9
$DIMFRAC
 70
     0
  9
$DIMLDRBLK
  1

  9
$DIMLUNIT
 70
     2
  9
$DIMLWD
 70
    -2
  9
$DIMLWE
 70
    -2
  9
$DIMTMOVE
 70
     0
  9
$LUNITS
 70
     2
  9
$LUPREC
 70
     2
  9
$SKETCHINC
 40
1.0
  9
$FILLETRAD
 40
10.0
  9
$AUNITS
 70
     0
  9
$AUPREC
 70
     2
  9
$MENU
  1
.
  9
$ELEVATION
 40
0.0
  9
$PELEVATION
 40
0.0
  9
$THICKNESS
 40
0.0
  9
$LIMCHECK
 70
     0
  9
$CHAMFERA
 40
0.0
  9
$CHAMFERB
 40
0.0
  9
$CHAMFERC
 40
0.0
  9
$CHAMFERD
 40
0.0
  9
$SKPOLY
 70
     0
  9
$TDCREATE
 40
2459227.761629317
  9
$TDUCREATE
 40
2459227.386629317
  9
$TDUPDATE
 40
2459227.76162985
  9
$TDUUPDATE
 40
2459227.38662985
  9
$TDINDWG
 40
0.0000000116
  9
$TDUSRTIMER
 40
0.0000000116
  9
$USRTIMER
 70
     1
  9
$ANGBASE
 50
0.0
  9
$ANGDIR
 70
     0
  9
$PDMODE
 70
     0
  9
$PDSIZE
 40
-1.0
  9
$PLINEWID
 40
0.0
  9
$SPLFRAME
 70
     0
  9
$SPLINETYPE
 70
     6
  9
$SPLINESEGS
 70
     8
  9
$HANDSEED
  5
10B
  9
$SURFTAB1
 70
     6
  9
$SURFTAB2
 70
     6
  9
$SURFTYPE
 70
     6
  9
$SURFU
 70
     6
  9
$SURFV
 70
     6
  9
$UCSBASE
  2

  9
$UCSNAME
  2

  9
$UCSORG
 10
0.0
 20
0.0
 30
0.0
  9
$UCSXDIR
 10
1.0
 20
0.0
 30
0.0
  9
$UCSYDIR
 10
0.0
 20
1.0
 30
0.0
  9
$UCSORTHOREF
  2

  9
$UCSORTHOVIEW
 70
     0
  9
$UCSORGTOP
 10
0.0
 20
0.0
 30
0.0
  9
$UCSORGBOTTOM
 10
0.0
 20
0.0
 30
0.0
  9
$UCSORGLEFT
 10
0.0
 20
0.0
 30
0.0
  9
$UCSORGRIGHT
 10
0.0
 20
0.0
 30
0.0
  9
$UCSORGFRONT
 10
0.0
 20
0.0
 30
0.0
  9
$UCSORGBACK
 10
0.0
 20
0.0
 30
0.0
  9
$PUCSBASE
  2

  9
$PUCSNAME
  2

  9
$PUCSORG
 10
0.0
 20
0.0
 30
0.0
  9
$PUCSXDIR
 10
1.0
 20
0.0
 30
0.0
  9
$PUCSYDIR
 10
0.0
 20
1.0
 30
0.0
  9
$PUCSORTHOREF
  2

  9
$PUCSORTHOVIEW
 70
     0
  9
$PUCSORGTOP
 10
0.0
 20
0.0
 30
0.0
  9
$PUCSORGBOTTOM
 10
0.0
 20
0.0
 30
0.0
  9
$PUCSORGLEFT
 10
0.0
 20
0.0
 30
0.0
  9
$PUCSORGRIGHT
 10
0.0
 20
0.0
 30
0.0
  9
$PUCSORGFRONT
 10
0.0
 20
0.0
 30
0.0
  9
$PUCSORGBACK
 10
0.0
 20
0.0
 30
0.0
  9
$USERI1
 70
     0
  9
$USERI2
 70
     0
  9
$USERI3
 70
     0
  9
$USERI4
 70
     0
  9
$USERI5
 70
     0
  9
$USERR1
 40
0.0
  9
$USERR2
 40
0.0
  9
$USERR3
 40
0.0
  9
$USERR4
 40
0.0
  9
$USERR5
 40
0.0
  9
$WORLDVIEW
 70
     1
  9
$SHADEDGE
 70
     3
  9
$SHADEDIF
 70
    70
  9
$TILEMODE
 70
     1
  9
$MAXACTVP
 70
    64
  9
$PINSBASE
 10
0.0
 20
0.0
 30
0.0
  9
$PLIMCHECK
 70
     0
  9
$PEXTMIN
 10
1.0000000000E+20
 20
1.0000000000E+20
 30
1.0000000000E+20
  9
$PEXTMAX
 10
-1.0000000000E+20
 20
-1.0000000000E+20
 30
-1.0000000000E+20
  9
$PLIMMIN
 10
0.0
 20
0.0
  9
$PLIMMAX
 10
420.0
 20
297.0
  9
$UNITMODE
 70
     0
  9
$VISRETAIN
 70
     1
  9
$PLINEGEN
 70
     0
  9
$PSLTSCALE
 70
     1
  9
$TREEDEPTH
 70
  3020
  9
$CMLSTYLE
  2
Standard
  9
$CMLJUST
 70
     0
  9
$CMLSCALE
 40
20.0
  9
$PROXYGRAPHICS
 70
     1
  9
$MEASUREMENT
 70
     1
  9
$CELWEIGHT
370
    -1
  9
$ENDCAPS
280
     0
  9
$JOINSTYLE
280
     0
  9
$LWDISPLAY
290
     1
  9
$INSUNITS
 70
     4
  9
$HYPERLINKBASE
  1

  9
$STYLESHEET
  1

  9
$XEDIT
290
     1
  9
$CEPSNTYPE
380
     0
  9
$PSTYLEMODE
290
     1
  9
$FINGERPRINTGUID
  2
{3667E49B-7A5B-4830-A3F5-8A82B23890C9}
  9
$VERSIONGUID
  2
{FAEB1C32-E019-11D5-929B-00C0DF256EC4}
  9
$EXTNAMES
290
     1
  9
$PSVPSCALE
 40
0.0
  9
$OLESTARTUP
290
     0
  0
ENDSEC
  0
SECTION
  2
CLASSES
  0
CLASS
  1
ACDBDICTIONARYWDFLT
  2
AcDbDictionaryWithDefault
  3
ObjectDBX Classes
 90
        0
280
     0
281
     0
  0
CLASS
  1
VISUALSTYLE
  2
AcDbVisualStyle
  3
ObjectDBX Classes
 90
     4095
280
     0
281
     0
  0
CLASS
  1
MATERIAL
  2
AcDbMaterial
  3
ObjectDBX Classes
 90
     1153
280
     0
281
     0
  0
CLASS
  1
SCALE
  2
AcDbScale
  3
ObjectDBX Classes
 90
     1153
280
     0
281
     0
  0
CLASS
  1
TABLESTYLE
  2
AcDbTableStyle
  3
ObjectDBX Classes
 90
     4095
280
     0
281
     0
  0
CLASS
  1
MLEADERSTYLE
  2
AcDbMLeaderStyle
  3
ACDB_MLEADERSTYLE_CLASS
 90
     4095
280
     0
281
     0
  0
CLASS
  1
SUN
  2
AcDbSun
  3
SCENEOE
 90
     1153
280
     0
281
     0
  0
CLASS
  1
ACDBPLACEHOLDER
  2
AcDbPlaceHolder
  3
ObjectDBX Classes
 90
        0
280
     0
281
     0
  0
CLASS
  1
LAYOUT
  2
AcDbLayout
  3
ObjectDBX Classes
 90
        0
280
     0
281
     0
  0
ENDSEC
  0
SECTION
  2
TABLES
  0
TABLE
  2
VPORT
  5
8
330
0
100
AcDbSymbolTable
 70
     1
  0
VPORT
  5
29
330
8
100
AcDbSymbolTableRecord
100
AcDbViewportTableRecord
  2
*Active
 70
     0
 10
0.0
 20
0.0
 11
1.0
 21
1.0
 12
215.9
 22
139.7
 13
0.0
 23
0.0
 14
10.0
 24
10.0
 15
10.0
 25
10.0
 16
0.0
 26
0.0
 36
1.0
 17
0.0
 27
0.0
 37
0.0
 40
279.4
 41
1.5454545455
 42
50.0
 43
0.0
 44
0.0
 50
0.0
 51
0.0
 71
     0
 72
  2000
 73
     1
 74
     3
 75
     0
 76
     0
 77
     0
 78
     0
281
     0
 65
     1
110
0.0
120
0.0
130
0.0
111
1.0
121
0.0
131
0.0
112
0.0
122
1.0
132
0.0
 79
     0
146
0.0
  0
ENDTAB
  0
TABLE
  2
LTYPE
  5
5
330
0
100
AcDbSymbolTable
 70
     6
  0
LTYPE
  5
14
330
5
100
AcDbSymbolTableRecord
100
AcDbLinetypeTableRecord
  2
ByBlock
 70
     0
  3

 72
    65
 73
     0
 40
0.0
  0
LTYPE
  5
15
330
5
100
AcDbSymbolTableRecord
100
AcDbLinetypeTableRecord
  2
ByLayer
 70
     0
  3

 72
    65
 73
     0
 40
0.0
  0
LTYPE
  5
16
330
5
100
AcDbSymbolTableRecord
100
AcDbLinetypeTableRecord
  2
Continuous
 70
     0
  3
Solid line
 72
    65
 73
     0
 40
0.0
  0
LTYPE
  5
6E
330
5
100
AcDbSymbolTableRecord
100
AcDbLinetypeTableRecord
  2
HIDDEN
 70
     0
  3
Hidden __ __ __ __ __ __ __ __ __ __ __ __ __ __
 72
    65
 73
     2
 40
1.905
 49
1.27
 74
     0
 49
-0.635
 74
     0
  0
LTYPE
  5
6F
330
5
100
AcDbSymbolTableRecord
100
AcDbLinetypeTableRecord
  2
PHANTOM
 70
     0
  3
Phantom ______  __  __  ______  __  __  ______
 72
    65
 73
     6
 40
12.7
 49
6.35
 74
     0
 49
-1.27
 74
     0
 49
1.27
 74
     0
 49
-1.27
 74
     0
 49
1.27
 74
     0
 49
-1.27
 74
     0
  0
LTYPE
  5
70
330
5
100
AcDbSymbolTableRecord
100
AcDbLinetypeTableRecord
  2
CENTER
 70
     0
  3
Center ____ _ ____ _ ____ _ ____ _ ____ _ ____
 72
    65
 73
     4
 40
10.16
 49
6.35
 74
     0
 49
-1.27
 74
     0
 49
1.27
 74
     0
 49
-1.27
 74
     0
  0
LTYPE
  5
71
330
5
100
AcDbSymbolTableRecord
100
AcDbLinetypeTableRecord
  2
CENTERX2
 70
     0
  3
Center (2x) ________  __  ________  __  _____
 72
    65
 73
     4
 40
20.32
 49
12.7
 74
     0
 49
-2.54
 74
     0
 49
2.54
 74
     0
 49
-2.54
 74
     0
  0
LTYPE
  5
72
330
5
100
AcDbSymbolTableRecord
100
AcDbLinetypeTableRecord
  2
DOT2
 70
     0
  3
Dot (.5x) ........................................
 72
    65
 73
     2
 40
0.635
 49
0.0
 74
     0
 49
-0.635
 74
     0
  0
ENDTAB
  0
TABLE
  2
LAYER
  5
2
330
0
100
AcDbSymbolTable
 70
     1
  0
LAYER
  5
10
330
2
100
AcDbSymbolTableRecord
100
AcDbLayerTableRecord
  2
0
 70
     0
 62
     7
  6
Continuous
370
    -3
390
F
  0
ENDTAB
  0
TABLE
  2
STYLE
  5
3
330
0
100
AcDbSymbolTable
 70
     2
  0
STYLE
  5
11
330
3
100
AcDbSymbolTableRecord
100
AcDbTextStyleTableRecord
  2
Standard
 70
     0
 40
0.0
 41
1.0
 50
0.0
 71
     0
 42
3.5
  3
txt
  4
bigfont
  0
STYLE
  5
73
330
3
100
AcDbSymbolTableRecord
100
AcDbTextStyleTableRecord
  2
SLDTEXTSTYLE0
 70
     0
 40
0.0
 41
0.7
 50
0.0
 71
     0
 42
3.5
  3
TXT
  4
bigfont
  0
ENDTAB
  0
TABLE
  2
VIEW
  5
6
330
0
100
AcDbSymbolTable
 70
     0
  0
ENDTAB
  0
TABLE
  2
UCS
  5
7
330
0
100
AcDbSymbolTable
 70
     0
  0
ENDTAB
  0
TABLE
  2
APPID
  5
9
330
0
100
AcDbSymbolTable
 70
     1
  0
APPID
  5
12
330
9
100
AcDbSymbolTableRecord
100
AcDbRegAppTableRecord
  2
ACAD
 70
     0
  0
ENDTAB
  0
TABLE
  2
DIMSTYLE
  5
A
330
0
100
AcDbSymbolTable
 70
     1
100
AcDbDimStyleTable
  0
DIMSTYLE
105
27
330
A
100
AcDbSymbolTableRecord
100
AcDbDimStyleTableRecord
  2
ISO-25
 70
     0
 41
2.5
 42
0.625
 43
3.75
 44
1.25
 73
     0
 74
     0
 77
     1
 78
     8
140
2.5
141
2.5
143
0.0393700787
147
0.625
171
     3
172
     1
178
     0
271
     2
272
     2
274
     3
278
    44
283
     0
284
     8
340
11
  0
ENDTAB
  0
TABLE
  2
BLOCK_RECORD
  5
1
330
0
100
AcDbSymbolTable
 70
     2
  0
BLOCK_RECORD
  5
1F
330
1
100
AcDbSymbolTableRecord
100
AcDbBlockTableRecord
  2
*Model_Space
340
22
  0
BLOCK_RECORD
  5
1B
330
1
100
AcDbSymbolTableRecord
100
AcDbBlockTableRecord
  2
*Paper_Space
340
1E
  0
BLOCK_RECORD
  5
23
330
1
100
AcDbSymbolTableRecord
100
AcDbBlockTableRecord
  2
*Paper_Space0
340
26
  0
BLOCK_RECORD
  5
C7
330
1
100
AcDbSymbolTableRecord
100
AcDbBlockTableRecord
  2
SW_CENTERMARKSYMBOL_0
340
0
102
{BLKREFS
331
D2
102
}
  0
ENDTAB
  0
ENDSEC
  0
SECTION
  2
BLOCKS
  0
BLOCK
  5
20
330
1F
100
AcDbEntity
  8
0
100
AcDbBlockBegin
  2
*Model_Space
 70
     0
 10
0.0
 20
0.0
 30
0.0
  3
*Model_Space
  1

  0
ENDBLK
  5
21
330
1F
100
AcDbEntity
  8
0
100
AcDbBlockEnd
  0
BLOCK
  5
1C
330
1B
100
AcDbEntity
 67
     1
  8
0
100
AcDbBlockBegin
  2
*Paper_Space
 70
     0
 10
0.0
 20
0.0
 30
0.0
  3
*Paper_Space
  1

  0
ENDBLK
  5
1D
330
1B
100
AcDbEntity
 67
     1
  8
0
100
AcDbBlockEnd
  0
BLOCK
  5
24
330
23
100
AcDbEntity
  8
0
100
AcDbBlockBegin
  2
*Paper_Space0
 70
     0
 10
0.0
 20
0.0
 30
0.0
  3
*Paper_Space0
  1

  0
ENDBLK
  5
25
330
23
100
AcDbEntity
  8
0
100
AcDbBlockEnd
  0
BLOCK
  5
C8
330
C7
100
AcDbEntity
  8
0
100
AcDbBlockBegin
  2
SW_CENTERMARKSYMBOL_0
 70
     0
 10
0.0
 20
0.0
 30
0.0
  3
SW_CENTERMARKSYMBOL_0
  1

  0
LINE
  5
CA
330
C7
100
AcDbEntity
  8
0
  6
Continuous
 62
     0
370
    18
100
AcDbLine
 10
0.0
 20
0.0
 30
0.0
 11
0.0
 21
2.5
 31
0.0
  0
LINE
  5
CB
330
C7
100
AcDbEntity
  8
0
  6
Continuous
 62
     0
370
    18
100
AcDbLine
 10
0.0
 20
0.0
 30
0.0
 11
-2.5
 21
0.0
 31
0.0
  0
LINE
  5
CC
330
C7
100
AcDbEntity
  8
0
  6
Continuous
 62
     0
370
    18
100
AcDbLine
 10
0.0
 20
0.0
 30
0.0
 11
0.0
 21
-2.5
 31
0.0
  0
LINE
  5
CD
330
C7
100
AcDbEntity
  8
0
  6
Continuous
 62
     0
370
    18
100
AcDbLine
 10
0.0
 20
0.0
 30
0.0
 11
2.5
 21
0.0
 31
0.0
  0
LINE
  5
CE
330
C7
100
AcDbEntity
  8
0
  6
Continuous
 62
     0
370
    18
100
AcDbLine
 10
0.0
 20
5.0
 30
0.0
 11
0.0
 21
20.7306507488
 31
0.0
  0
LINE
  5
CF
330
C7
100
AcDbEntity
  8
0
  6
Continuous
 62
     0
370
    18
100
AcDbLine
 10
-5.0
 20
0.0
 30
0.0
 11
-18.9916962143
 21
0.0
 31
0.0
  0
LINE
  5
D0
330
C7
100
AcDbEntity
  8
0
  6
Continuous
 62
     0
370
    18
100
AcDbLine
 10
0.0
 20
-5.0
 30
0.0
 11
0.0
 21
-21.4286038882
 31
0.0
  0
LINE
  5
D1
330
C7
100
AcDbEntity
  8
0
  6
Continuous
 62
     0
370
    18
100
AcDbLine
 10
5.0
 20
0.0
 30
0.0
 11
18.4989161306
 21
0.0
 31
0.0
  0
ENDBLK
  5
C9
330
C7
100
AcDbEntity
  8
0
100
AcDbBlockEnd
  0
ENDSEC
  0
SECTION
  2
ENTITIES
  0
MTEXT
  5
74
330
1F
100
AcDbEntity
  8
0
  6
Continuous
 62
     7
370
     0
100
AcDbMText
 10
175.7947685157
 20
130.7030168767
 30
0.0
 40
4.7625
 41
0.0
 71
     1
 72
     1
  1
5R-NS1066
  7
SLDTEXTSTYLE0
 73
     1
 44
1.0
  0
LINE
  5
75
330
1F
100
AcDbEntity
  8
0
  6
Continuous
 62
     7
370
    25
100
AcDbLine
 10
161.5668474719
 20
71.3107081489
 30
0.0
 11
163.1402473988
 21
74.035916763
 31
0.0
  0
LINE
  5
76
330
1F
100
AcDbEntity
  8
0
  6
Continuous
 62
     7
370
    25
100
AcDbLine
 10
163.1402473988
 20
105.535916763
 30
0.0
 11
161.5668474719
 21
108.2611253771
 31
0.0
  0
LINE
  5
77
330
1F
100
AcDbEntity
  8
0
  6
Continuous
 62
     7
370
    25
100
AcDbLine
 10
115.7136473258
 20
108.2611253771
 30
0.0
 11
114.1402473988
 21
105.535916763
 31
0.0
  0
LINE
  5
78
330
1F
100
AcDbEntity
  8
0
  6
Continuous
 62
     7
370
    25
100
AcDbLine
 10
114.1402473988
 20
74.035916763
 30
0.0
 11
115.7136473258
 21
71.3107081489
 31
0.0
  0
LINE
  5
79
330
1F
100
AcDbEntity
  8
0
  6
Continuous
 62
     7
370
    25
100
AcDbLine
 10
138.6402473988
 20
73.785916763
 30
0.0
 11
139.3500020477
 21
71.3107081489
 31
0.0
  0
LINE
  5
7A
330
1F
100
AcDbEntity
  8
0
  6
Continuous
 62
     7
370
    25
100
AcDbLine
 10
137.93049275
 20
71.3107081489
 30
0.0
 11
138.6402473988
 21
73.785916763
 31
0.0
  0
LINE
  5
7B
330
1F
100
AcDbEntity
  8
0
  6
Continuous
 62
     7
370
    25
100
AcDbLine
 10
139.3500020477
 20
108.2611253771
 30
0.0
 11
138.6402473988
 21
105.785916763
 31
0.0
  0
LINE
  5
7C
330
1F
100
AcDbEntity
  8
0
  6
Continuous
 62
     7
370
    25
100
AcDbLine
 10
138.6402473988
 20
105.785916763
 30
0.0
 11
137.93049275
 21
108.2611253771
 31
0.0
  0
LINE
  5
7D
330
1F
100
AcDbEntity
  8
0
  6
Continuous
 62
     7
370
    25
100
AcDbLine
 10
158.6402473988
 20
71.8107081489
 30
0.0
 11
158.7742219951
 21
71.3107081489
 31
0.0
  0
LINE
  5
7E
330
1F
100
AcDbEntity
  8
0
  6
Continuous
 62
     7
370
    25
100
AcDbLine
 10
158.5062728026
 20
71.3107081489
 30
0.0
 11
158.6402473988
 21
71.8107081489
 31
0.0
  0
LINE
  5
7F
330
1F
100
AcDbEntity
  8
0
  6
Continuous
 62
     7
370
    25
100
AcDbLine
 10
158.6402473988
 20
107.7611253771
 30
0.0
 11
158.5062728026
 21
108.2611253771
 31
0.0
  0
LINE
  5
80
330
1F
100
AcDbEntity
  8
0
  6
Continuous
 62
     7
370
    25
100
AcDbLine
 10
158.7742219951
 20
108.2611253771
 30
0.0
 11
158.6402473988
 21
107.7611253771
 31
0.0
  0
LINE
  5
81
330
1F
100
AcDbEntity
  8
0
  6
Continuous
 62
     7
370
    25
100
AcDbLine
 10
158.7742219951
 20
99.02352107
 30
0.0
 11
161.5668474719
 21
99.02352107
 31
0.0
  0
SPLINE
  5
82
330
1F
100
AcDbEntity
  8
0
  6
Continuous
 62
     7
370
    25
100
AcDbSpline
210
0.0
220
0.0
230
1.0
 70
     8
 71
     3
 72
    18
 73
    14
 74
     0
 42
0.000000001
 43
0.00000001
 40
0.0
 40
0.0
 40
0.0
 40
0.0
 40
0.125
 40
0.125
 40
0.2500000000000001
 40
0.2500000000000001
 40
0.5
 40
0.5
 40
0.625
 40
0.625
 40
0.75
 40
0.75
 40
1.0
 40
1.0
 40
1.0
 40
1.0
 10
161.5668474719139
 20
80.5483124559719
 30
0.0
 10
161.7839908991575
 20
81.30051935300298
 30
0.0
 10
161.98366202336
 20
82.06113360811601
 30
0.0
 10
162.3365748965373
 20
83.59381786840808
 30
0.0
 10
162.48896839307
 20
84.36223083923888
 30
0.0
 10
162.8617824095359
 20
86.67473027453445
 30
0.0
 10
162.99610038009
 20
88.22622666737456
 30
0.0
 10
162.9958142477215
 20
90.57083485438089
 30
0.0
 10
162.9623845452422
 20
91.3563429829878
 30
0.0
 10
162.8301396807271
 20
92.92837762780874
 30
0.0
 10
162.7322726902312
 20
93.70605171314263
 30
0.0
 10
162.3568300796244
 20
96.0175640085149
 30
0.0
 10
161.9979780833338
 20
97.53004082268497
 30
0.0
 10
161.5668474719139
 20
99.02352107003996
 30
0.0
  0
LINE
  5
83
330
1F
100
AcDbEntity
  8
0
  6
Continuous
 62
     7
370
    25
100
AcDbLine
 10
158.7742219951
 20
80.548312456
 30
0.0
 11
161.5668474719
 21
80.548312456
 31
0.0
  0
SPLINE
  5
84
330
1F
100
AcDbEntity
  8
0
  6
Continuous
 62
     7
370
    25
100
AcDbSpline
210
0.0
220
0.0
230
1.0
 70
     8
 71
     3
 72
     8
 73
     4
 74
     0
 42
0.000000001
 43
0.00000001
 40
0.0
 40
0.0
 40
0.0
 40
0.0
 40
1.0
 40
1.0
 40
1.0
 40
1.0
 10
158.7742219950595
 20
80.5483124559719
 30
0.0
 10
158.7275491524486
 20
80.89668329588659
 30
0.0
 10
158.6828327559076
 20
81.24522793567282
 30
0.0
 10
158.6402473988439
 20
81.59396188524533
 30
0.0
  0
SPLINE
  5
85
330
1F
100
AcDbEntity
  8
0
  6
Continuous
 62
     7
370
    25
100
AcDbSpline
210
0.0
220
0.0
230
1.0
 70
     8
 71
     3
 72
     8
 73
     4
 74
     0
 42
0.000000001
 43
0.00000001
 40
0.0
 40
0.0
 40
0.0
 40
0.0
 40
1.0
 40
1.0
 40
1.0
 40
1.0
 10
158.6402473988439
 20
81.59396188524533
 30
0.0
 10
158.5976432495239
 20
81.24507404479967
 30
0.0
 10
158.5529256449032
 20
80.89653401134571
 30
0.0
 10
158.5062728026284
 20
80.5483124559719
 30
0.0
  0
LINE
  5
86
330
1F
100
AcDbEntity
  8
0
  6
Continuous
 62
     7
370
    25
100
AcDbLine
 10
139.3500020477
 20
80.548312456
 30
0.0
 11
158.5062728026
 21
80.548312456
 31
0.0
  0
SPLINE
  5
87
330
1F
100
AcDbEntity
  8
0
  6
Continuous
 62
     7
370
    25
100
AcDbSpline
210
0.0
220
0.0
230
1.0
 70
     8
 71
     3
 72
    10
 73
     6
 74
     0
 42
0.000000001
 43
0.00000001
 40
0.0
 40
0.0
 40
0.0
 40
0.0
 40
0.5
 40
0.5
 40
1.0
 40
1.0
 40
1.0
 40
1.0
 10
139.3500020477184
 20
80.5483124559719
 30
0.0
 10
139.130020954063
 20
82.0826429427434
 30
0.0
 10
138.9499710799152
 20
83.62775210079911
 30
0.0
 10
138.7049488850032
 20
86.70965142660505
 30
0.0
 10
138.6402473988439
 20
88.24879487024565
 30
0.0
 10
138.6402473988439
 20
89.78591676300593
 30
0.0
  0
SPLINE
  5
88
330
1F
100
AcDbEntity
  8
0
  6
Continuous
 62
     7
370
    25
100
AcDbSpline
210
0.0
220
0.0
230
1.0
 70
     8
 71
     3
 72
    10
 73
     6
 74
     0
 42
0.000000001
 43
0.00000001
 40
0.0
 40
0.0
 40
0.0
 40
0.0
 40
0.5
 40
0.5
 40
1.0
 40
1.0
 40
1.0
 40
1.0
 10
138.6402473988439
 20
89.78591676300593
 30
0.0
 10
138.6402473988439
 20
91.32921344214967
 30
0.0
 10
138.7054418390843
 20
92.87047316842137
 30
0.0
 10
138.9505615101108
 20
95.94940794085319
 30
0.0
 10
139.1297222070993
 20
97.4871068743158
 30
0.0
 10
139.3500020477184
 20
99.02352107003998
 30
0.0
  0
LINE
  5
89
330
1F
100
AcDbEntity
  8
0
  6
Continuous
 62
     7
370
    25
100
AcDbLine
 10
139.3500020477
 20
99.02352107
 30
0.0
 11
158.5062728026
 21
99.02352107
 31
0.0
  0
SPLINE
  5
8A
330
1F
100
AcDbEntity
  8
0
  6
Continuous
 62
     7
370
    25
100
AcDbSpline
210
0.0
220
0.0
230
1.0
 70
     8
 71
     3
 72
     8
 73
     4
 74
     0
 42
0.000000001
 43
0.00000001
 40
0.0
 40
0.0
 40
0.0
 40
0.0
 40
1.0
 40
1.0
 40
1.0
 40
1.0
 10
158.5062728026284
 20
99.02352107003998
 30
0.0
 10
158.5529456452392
 20
98.67515023012527
 30
0.0
 10
158.5976620417802
 20
98.32660559033906
 30
0.0
 10
158.6402473988439
 20
97.97787164076654
 30
0.0
  0
SPLINE
  5
8B
330
1F
100
AcDbEntity
  8
0
  6
Continuous
 62
     7
370
    25
100
AcDbSpline
210
0.0
220
0.0
230
1.0
 70
     8
 71
     3
 72
     8
 73
     4
 74
     0
 42
0.000000001
 43
0.00000001
 40
0.0
 40
0.0
 40
0.0
 40
0.0
 40
1.0
 40
1.0
 40
1.0
 40
1.0
 10
158.6402473988439
 20
97.97787164076654
 30
0.0
 10
158.682851548164
 20
98.32675948121219
 30
0.0
 10
158.7275691527848
 20
98.67529951466616
 30
0.0
 10
158.7742219950595
 20
99.02352107003998
 30
0.0
  0
SPLINE
  5
8C
330
1F
100
AcDbEntity
  8
0
  6
Continuous
 62
     7
370
    25
100
AcDbSpline
210
0.0
220
0.0
230
1.0
 70
     8
 71
     3
 72
    16
 73
    12
 74
     0
 42
0.000000001
 43
0.00000001
 40
0.0
 40
0.0
 40
0.0
 40
0.0
 40
0.2499999999999999
 40
0.2499999999999999
 40
0.4999999999999998
 40
0.4999999999999998
 40
0.6249999999999998
 40
0.6249999999999998
 40
0.7499999999999997
 40
0.7499999999999997
 40
1.0
 40
1.0
 40
1.0
 40
1.0
 10
161.5668474719141
 20
80.54831245597191
 30
0.0
 10
162.0022636391045
 20
79.7941495319613
 30
0.0
 10
162.361125333032
 20
79.03448830037036
 30
0.0
 10
162.8582652172864
 20
77.49932305363522
 30
0.0
 10
162.9949035598099
 20
76.72370126108069
 30
0.0
 10
162.996404532056
 20
75.54565588409457
 30
0.0
 10
162.9630018247344
 20
75.15112578593622
 30
0.0
 10
162.8327486129357
 20
74.37070374428603
 30
0.0
 10
162.7360303228574
 20
73.98310918588001
 30
0.0
 10
162.3625564298896
 20
72.82722609533913
 30
0.0
 10
162.002806456238
 20
72.06581125980313
 30
0.0
 10
161.566847471914
 20
71.31070814893772
 30
0.0
  0
LINE
  5
8D
330
1F
100
AcDbEntity
  8
0
  6
Continuous
 62
     7
370
    25
100
AcDbLine
 10
158.7742219951
 20
71.3107081489
 30
0.0
 11
161.5668474719
 21
71.3107081489
 31
0.0
  0
SPLINE
  5
8E
330
1F
100
AcDbEntity
  8
0
  6
Continuous
 62
     7
370
    25
100
AcDbSpline
210
0.0
220
0.0
230
1.0
 70
     8
 71
     3
 72
     8
 73
     4
 74
     0
 42
0.000000001
 43
0.00000001
 40
0.0
 40
0.0
 40
0.0
 40
0.0
 40
1.0
 40
1.0
 40
1.0
 40
1.0
 10
158.7742219950595
 20
71.31070814893772
 30
0.0
 10
158.7275518314966
 20
71.48488357055209
 30
0.0
 10
158.6828352712375
 20
71.65915558969736
 30
0.0
 10
158.6402473988439
 20
71.83353286357445
 30
0.0
  0
SPLINE
  5
8F
330
1F
100
AcDbEntity
  8
0
  6
Continuous
 62
     7
370
    25
100
AcDbSpline
210
0.0
220
0.0
230
1.0
 70
     8
 71
     3
 72
     8
 73
     4
 74
     0
 42
0.000000001
 43
0.00000001
 40
0.0
 40
0.0
 40
0.0
 40
0.0
 40
1.0
 40
1.0
 40
1.0
 40
1.0
 10
158.6402473988439
 20
71.83353286357445
 30
0.0
 10
158.597642366414
 20
71.65908532743295
 30
0.0
 10
158.5529247058772
 20
71.48481542213214
 30
0.0
 10
158.5062728026284
 20
71.31070814893772
 30
0.0
  0
LINE
  5
90
330
1F
100
AcDbEntity
  8
0
  6
Continuous
 62
     7
370
    25
100
AcDbLine
 10
139.3500020477
 20
71.3107081489
 30
0.0
 11
158.5062728026
 21
71.3107081489
 31
0.0
  0
SPLINE
  5
91
330
1F
100
AcDbEntity
  8
0
  6
Continuous
 62
     7
370
    25
100
AcDbSpline
210
0.0
220
0.0
230
1.0
 70
     8
 71
     3
 72
    10
 73
     6
 74
     0
 42
0.000000001
 43
0.00000001
 40
0.0
 40
0.0
 40
0.0
 40
0.0
 40
0.5
 40
0.5
 40
1.0
 40
1.0
 40
1.0
 40
1.0
 10
139.3500020477182
 20
71.31070814893772
 30
0.0
 10
139.1292653468426
 20
72.08050850785725
 30
0.0
 10
138.9500288782961
 20
72.85030886677676
 30
0.0
 10
138.7051434957164
 20
74.38990958461578
 30
0.0
 10
138.6402473988439
 20
75.15970994353529
 30
0.0
 10
138.6402473988439
 20
75.92951030245482
 30
0.0
  0
SPLINE
  5
92
330
1F
100
AcDbEntity
  8
0
  6
Continuous
 62
     7
370
    25
100
AcDbSpline
210
0.0
220
0.0
230
1.0
 70
     8
 71
     3
 72
    10
 73
     6
 74
     0
 42
0.000000001
 43
0.00000001
 40
0.0
 40
0.0
 40
0.0
 40
0.0
 40
0.5
 40
0.5
 40
1.0
 40
1.0
 40
1.0
 40
1.0
 10
138.6402473988439
 20
75.92951030245482
 30
0.0
 10
138.6402473988439
 20
76.69931066137433
 30
0.0
 10
138.7051434957164
 20
77.46911102029382
 30
0.0
 10
138.9500288782961
 20
79.00871173813287
 30
0.0
 10
139.1292653468426
 20
79.77851209705237
 30
0.0
 10
139.3500020477182
 20
80.5483124559719
 30
0.0
  0
SPLINE
  5
93
330
1F
100
AcDbEntity
  8
0
  6
Continuous
 62
     7
370
    25
100
AcDbSpline
210
0.0
220
0.0
230
1.0
 70
     8
 71
     3
 72
     8
 73
     4
 74
     0
 42
0.000000001
 43
0.00000001
 40
0.0
 40
0.0
 40
0.0
 40
0.0
 40
1.0
 40
1.0
 40
1.0
 40
1.0
 10
158.5062728026284
 20
80.5483124559719
 30
0.0
 10
158.5529429661913
 20
80.37413703435753
 30
0.0
 10
158.5976595264504
 20
80.19986501521225
 30
0.0
 10
158.6402473988439
 20
80.02548774133517
 30
0.0
  0
SPLINE
  5
94
330
1F
100
AcDbEntity
  8
0
  6
Continuous
 62
     7
370
    25
100
AcDbSpline
210
0.0
220
0.0
230
1.0
 70
     8
 71
     3
 72
     8
 73
     4
 74
     0
 42
0.000000001
 43
0.00000001
 40
0.0
 40
0.0
 40
0.0
 40
0.0
 40
1.0
 40
1.0
 40
1.0
 40
1.0
 10
158.6402473988439
 20
80.02548774133517
 30
0.0
 10
158.6828524312738
 20
80.19993527747667
 30
0.0
 10
158.7275700918107
 20
80.37420518277747
 30
0.0
 10
158.7742219950595
 20
80.5483124559719
 30
0.0
  0
LINE
  5
95
330
1F
100
AcDbEntity
  8
0
  6
Continuous
 62
     7
370
    25
100
AcDbLine
 10
138.6402473988
 20
75.9295103025
 30
0.0
 11
138.6402473988
 21
89.785916763
 31
0.0
  0
SPLINE
  5
96
330
1F
100
AcDbEntity
  8
0
  6
Continuous
 62
     7
370
    25
100
AcDbSpline
210
0.0
220
0.0
230
1.0
 70
     8
 71
     3
 72
    10
 73
     6
 74
     0
 42
0.000000001
 43
0.00000001
 40
0.0
 40
0.0
 40
0.0
 40
0.0
 40
0.5
 40
0.5
 40
1.0
 40
1.0
 40
1.0
 40
1.0
 10
138.6402473988439
 20
75.92951030245482
 30
0.0
 10
138.6402473988439
 20
76.69931066137433
 30
0.0
 10
138.5753513019714
 20
77.46911102029382
 30
0.0
 10
138.3304659193917
 20
79.00871173813287
 30
0.0
 10
138.1512294508452
 20
79.77851209705237
 30
0.0
 10
137.9304927499696
 20
80.5483124559719
 30
0.0
  0
SPLINE
  5
97
330
1F
100
AcDbEntity
  8
0
  6
Continuous
 62
     7
370
    25
100
AcDbSpline
210
0.0
220
0.0
230
1.0
 70
     8
 71
     3
 72
    10
 73
     6
 74
     0
 42
0.000000001
 43
0.00000001
 40
0.0
 40
0.0
 40
0.0
 40
0.0
 40
0.5
 40
0.5
 40
1.0
 40
1.0
 40
1.0
 40
1.0
 10
137.9304927499695
 20
80.5483124559719
 30
0.0
 10
138.1504738436249
 20
82.0826429427434
 30
0.0
 10
138.3305237177727
 20
83.62775210079911
 30
0.0
 10
138.5755459126847
 20
86.70965142660505
 30
0.0
 10
138.6402473988439
 20
88.24879487024565
 30
0.0
 10
138.6402473988439
 20
89.78591676300593
 30
0.0
  0
LINE
  5
98
330
1F
100
AcDbEntity
  8
0
  6
Continuous
 62
     7
370
    25
100
AcDbLine
 10
115.7136473258
 20
80.548312456
 30
0.0
 11
137.93049275
 21
80.548312456
 31
0.0
  0
SPLINE
  5
99
330
1F
100
AcDbEntity
  8
0
  6
Continuous
 62
     7
370
    25
100
AcDbSpline
210
0.0
220
0.0
230
1.0
 70
     8
 71
     3
 72
    10
 73
     6
 74
     0
 42
0.000000001
 43
0.00000001
 40
0.0
 40
0.0
 40
0.0
 40
0.0
 40
0.5
 40
0.5
 40
1.0
 40
1.0
 40
1.0
 40
1.0
 10
137.9304927499696
 20
71.31070814893772
 30
0.0
 10
138.1512294508452
 20
72.08050850785725
 30
0.0
 10
138.3304659193917
 20
72.85030886677676
 30
0.0
 10
138.5753513019714
 20
74.38990958461578
 30
0.0
 10
138.6402473988439
 20
75.15970994353529
 30
0.0
 10
138.6402473988439
 20
75.92951030245482
 30
0.0
  0
LINE
  5
9A
330
1F
100
AcDbEntity
  8
0
  6
Continuous
 62
     7
370
    25
100
AcDbLine
 10
115.7136473258
 20
71.3107081489
 30
0.0
 11
137.93049275
 21
71.3107081489
 31
0.0
  0
SPLINE
  5
9B
330
1F
100
AcDbEntity
  8
0
  6
Continuous
 62
     7
370
    25
100
AcDbSpline
210
0.0
220
0.0
230
1.0
 70
     8
 71
     3
 72
    16
 73
    12
 74
     0
 42
0.000000001
 43
0.00000001
 40
0.0
 40
0.0
 40
0.0
 40
0.0
 40
0.2500000000000002
 40
0.2500000000000002
 40
0.5000000000000003
 40
0.5000000000000003
 40
0.6250000000000003
 40
0.6250000000000003
 40
0.7500000000000003
 40
0.7500000000000003
 40
1.0
 40
1.0
 40
1.0
 40
1.0
 10
115.7136473257738
 20
71.3107081489377
 30
0.0
 10
115.2782311585834
 20
72.06487107294832
 30
0.0
 10
114.9193694646559
 20
72.82453230453925
 30
0.0
 10
114.4222295804014
 20
74.35969755127441
 30
0.0
 10
114.285591237878
 20
75.13531934382894
 30
0.0
 10
114.2840902656319
 20
76.31336472081504
 30
0.0
 10
114.3174929729534
 20
76.7078948189734
 30
0.0
 10
114.4477461847521
 20
77.48831686062357
 30
0.0
 10
114.5444644748304
 20
77.8759114190296
 30
0.0
 10
114.9179383677982
 20
79.03179450957049
 30
0.0
 10
115.2776883414498
 20
79.79320934510649
 30
0.0
 10
115.7136473257739
 20
80.54831245597191
 30
0.0
  0
LINE
  5
9C
330
1F
100
AcDbEntity
  8
0
  6
Continuous
 62
     7
370
    25
100
AcDbLine
 10
115.7136473258
 20
99.02352107
 30
0.0
 11
137.93049275
 21
99.02352107
 31
0.0
  0
SPLINE
  5
9D
330
1F
100
AcDbEntity
  8
0
  6
Continuous
 62
     7
370
    25
100
AcDbSpline
210
0.0
220
0.0
230
1.0
 70
     8
 71
     3
 72
    10
 73
     6
 74
     0
 42
0.000000001
 43
0.00000001
 40
0.0
 40
0.0
 40
0.0
 40
0.0
 40
0.5
 40
0.5
 40
1.0
 40
1.0
 40
1.0
 40
1.0
 10
138.6402473988439
 20
89.78591676300593
 30
0.0
 10
138.6402473988439
 20
91.32921344214967
 30
0.0
 10
138.5750529586035
 20
92.87047316842137
 30
0.0
 10
138.329933287577
 20
95.94940794085319
 30
0.0
 10
138.1507725905886
 20
97.4871068743158
 30
0.0
 10
137.9304927499695
 20
99.02352107003998
 30
0.0
  0
SPLINE
  5
9E
330
1F
100
AcDbEntity
  8
0
  6
Continuous
 62
     7
370
    25
100
AcDbSpline
210
0.0
220
0.0
230
1.0
 70
     8
 71
     3
 72
    16
 73
    12
 74
     0
 42
0.000000001
 43
0.00000001
 40
0.0
 40
0.0
 40
0.0
 40
0.0
 40
0.25
 40
0.25
 40
0.5
 40
0.5
 40
0.625
 40
0.625
 40
0.75
 40
0.75
 40
1.0
 40
1.0
 40
1.0
 40
1.0
 10
115.713647325774
 20
80.5483124559719
 30
0.0
 10
115.2794664100783
 20
82.0523592672955
 30
0.0
 10
114.9158198000393
 20
83.59123939012629
 30
0.0
 10
114.4186676527267
 20
86.6750292522761
 30
0.0
 10
114.2844030820604
 20
88.22647241905156
 30
0.0
 10
114.28467619034
 20
90.57048230117692
 30
0.0
 10
114.318033932253
 20
91.35513130735184
 30
0.0
 10
114.4502747319365
 20
92.92772614073438
 30
0.0
 10
114.548157281623
 20
93.70560806186468
 30
0.0
 10
114.9236509725698
 20
96.01756842280162
 30
0.0
 10
115.282537454723
 20
97.5301126694304
 30
0.0
 10
115.713647325774
 20
99.02352107003996
 30
0.0
  0
LINE
  5
9F
330
1F
100
AcDbEntity
  8
0
  6
Continuous
 62
     7
370
    25
100
AcDbLine
 10
138.6402473988
 20
89.785916763
 30
0.0
 11
138.6402473988
 21
103.6423232236
 31
0.0
  0
SPLINE
  5
A0
330
1F
100
AcDbEntity
  8
0
  6
Continuous
 62
     7
370
    25
100
AcDbSpline
210
0.0
220
0.0
230
1.0
 70
     8
 71
     3
 72
    10
 73
     6
 74
     0
 42
0.000000001
 43
0.00000001
 40
0.0
 40
0.0
 40
0.0
 40
0.0
 40
0.5
 40
0.5
 40
1.0
 40
1.0
 40
1.0
 40
1.0
 10
139.3500020477182
 20
99.02352107003996
 30
0.0
 10
139.1292653468426
 20
99.79332142895946
 30
0.0
 10
138.9500288782961
 20
100.5631217878789
 30
0.0
 10
138.7051434957165
 20
102.1027225057179
 30
0.0
 10
138.6402473988439
 20
102.8725228646374
 30
0.0
 10
138.6402473988439
 20
103.6423232235569
 30
0.0
  0
SPLINE
  5
A1
330
1F
100
AcDbEntity
  8
0
  6
Continuous
 62
     7
370
    25
100
AcDbSpline
210
0.0
220
0.0
230
1.0
 70
     8
 71
     3
 72
    10
 73
     6
 74
     0
 42
0.000000001
 43
0.00000001
 40
0.0
 40
0.0
 40
0.0
 40
0.0
 40
0.5
 40
0.5
 40
1.0
 40
1.0
 40
1.0
 40
1.0
 10
137.9304927499696
 20
99.02352107003996
 30
0.0
 10
138.1512294508452
 20
99.79332142895946
 30
0.0
 10
138.3304659193917
 20
100.5631217878789
 30
0.0
 10
138.5753513019714
 20
102.1027225057179
 30
0.0
 10
138.6402473988439
 20
102.8725228646374
 30
0.0
 10
138.6402473988439
 20
103.6423232235569
 30
0.0
  0
SPLINE
  5
A2
330
1F
100
AcDbEntity
  8
0
  6
Continuous
 62
     7
370
    25
100
AcDbSpline
210
0.0
220
0.0
230
1.0
 70
     8
 71
     3
 72
    16
 73
    12
 74
     0
 42
0.000000001
 43
0.00000001
 40
0.0
 40
0.0
 40
0.0
 40
0.0
 40
0.2500000000000001
 40
0.2500000000000001
 40
0.5000000000000001
 40
0.5000000000000001
 40
0.6250000000000001
 40
0.6250000000000001
 40
0.7500000000000002
 40
0.7500000000000002
 40
1.0
 40
1.0
 40
1.0
 40
1.0
 10
161.5668474719141
 20
108.2611253770738
 30
0.0
 10
162.0022636391045
 20
107.5069624530632
 30
0.0
 10
162.361125333032
 20
106.7473012214723
 30
0.0
 10
162.8582652172864
 20
105.2121359747372
 30
0.0
 10
162.9949035598098
 20
104.4365141821827
 30
0.0
 10
162.9964045320559
 20
103.2584688051967
 30
0.0
 10
162.9630018247344
 20
102.8639387070383
 30
0.0
 10
162.8327486129357
 20
102.0835166653882
 30
0.0
 10
162.7360303228573
 20
101.6959221069822
 30
0.0
 10
162.3625564298896
 20
100.5400390164413
 30
0.0
 10
162.002806456238
 20
99.77862418090534
 30
0.0
 10
161.566847471914
 20
99.02352107003996
 30
0.0
  0
LINE
  5
A3
330
1F
100
AcDbEntity
  8
0
  6
Continuous
 62
     7
370
    25
100
AcDbLine
 10
163.1402473988
 20
105.535916763
 30
0.0
 11
163.1402473988
 21
74.035916763
 31
0.0
  0
SPLINE
  5
A4
330
1F
100
AcDbEntity
  8
0
  6
Continuous
 62
     7
370
    25
100
AcDbSpline
210
0.0
220
0.0
230
1.0
 70
     8
 71
     3
 72
    16
 73
    12
 74
     0
 42
0.000000001
 43
0.00000001
 40
0.0
 40
0.0
 40
0.0
 40
0.0
 40
0.2500000000000001
 40
0.2500000000000001
 40
0.5000000000000001
 40
0.5000000000000001
 40
0.625
 40
0.625
 40
0.7499999999999999
 40
0.7499999999999999
 40
1.0
 40
1.0
 40
1.0
 40
1.0
 10
115.7136473257738
 20
99.02352107003995
 30
0.0
 10
115.2782311585834
 20
99.77768399405055
 30
0.0
 10
114.9193694646559
 20
100.5373452256414
 30
0.0
 10
114.4222295804014
 20
102.0725104723765
 30
0.0
 10
114.285591237878
 20
102.848132264931
 30
0.0
 10
114.2840902656319
 20
104.0261776419171
 30
0.0
 10
114.3174929729535
 20
104.4207077400754
 30
0.0
 10
114.4477461847521
 20
105.2011297817256
 30
0.0
 10
114.5444644748305
 20
105.5887243401316
 30
0.0
 10
114.9179383677983
 20
106.7446074306724
 30
0.0
 10
115.2776883414498
 20
107.5060222662084
 30
0.0
 10
115.7136473257739
 20
108.2611253770738
 30
0.0
  0
LINE
  5
A5
330
1F
100
AcDbEntity
  8
0
  6
Continuous
 62
     7
370
    25
100
AcDbLine
 10
114.1402473988
 20
89.785916763
 30
0.0
 11
114.1402473988
 21
105.535916763
 31
0.0
  0
LINE
  5
A6
330
1F
100
AcDbEntity
  8
0
  6
Continuous
 62
     7
370
    25
100
AcDbLine
 10
114.1402473988
 20
74.035916763
 30
0.0
 11
114.1402473988
 21
89.785916763
 31
0.0
  0
LINE
  5
A7
330
1F
100
AcDbEntity
  8
0
  6
Continuous
 62
     7
370
    25
100
AcDbLine
 10
158.6402473988
 20
81.5939618852
 30
0.0
 11
158.6402473988
 21
80.0254877413
 31
0.0
  0
SPLINE
  5
A8
330
1F
100
AcDbEntity
  8
0
  6
Continuous
 62
     7
370
    25
100
AcDbSpline
210
0.0
220
0.0
230
1.0
 70
     8
 71
     3
 72
     8
 73
     4
 74
     0
 42
0.000000001
 43
0.00000001
 40
0.0
 40
0.0
 40
0.0
 40
0.0
 40
1.0
 40
1.0
 40
1.0
 40
1.0
 10
158.6402473988439
 20
99.54634578467669
 30
0.0
 10
158.597642366414
 20
99.37189824853519
 30
0.0
 10
158.5529247058772
 20
99.1976283432344
 30
0.0
 10
158.5062728026284
 20
99.02352107003998
 30
0.0
  0
LINE
  5
A9
330
1F
100
AcDbEntity
  8
0
  6
Continuous
 62
     7
370
    25
100
AcDbLine
 10
158.6402473988
 20
99.5463457847
 30
0.0
 11
158.6402473988
 21
97.9778716408
 31
0.0
  0
SPLINE
  5
AA
330
1F
100
AcDbEntity
  8
0
  6
Continuous
 62
     7
370
    25
100
AcDbSpline
210
0.0
220
0.0
230
1.0
 70
     8
 71
     3
 72
     8
 73
     4
 74
     0
 42
0.000000001
 43
0.00000001
 40
0.0
 40
0.0
 40
0.0
 40
0.0
 40
1.0
 40
1.0
 40
1.0
 40
1.0
 10
158.7742219950595
 20
99.02352107003998
 30
0.0
 10
158.7275518314966
 20
99.19769649165433
 30
0.0
 10
158.6828352712375
 20
99.3719685107996
 30
0.0
 10
158.6402473988439
 20
99.54634578467667
 30
0.0
  0
LINE
  5
AB
330
1F
100
AcDbEntity
  8
0
  6
Continuous
 62
     7
370
    25
100
AcDbLine
 10
115.7136473258
 20
108.2611253771
 30
0.0
 11
137.93049275
 21
108.2611253771
 31
0.0
  0
SPLINE
  5
AC
330
1F
100
AcDbEntity
  8
0
  6
Continuous
 62
     7
370
    25
100
AcDbSpline
210
0.0
220
0.0
230
1.0
 70
     8
 71
     3
 72
    10
 73
     6
 74
     0
 42
0.000000001
 43
0.00000001
 40
0.0
 40
0.0
 40
0.0
 40
0.0
 40
0.5
 40
0.5
 40
1.0
 40
1.0
 40
1.0
 40
1.0
 10
138.6402473988439
 20
103.6423232235569
 30
0.0
 10
138.6402473988439
 20
104.4121235824764
 30
0.0
 10
138.5753513019714
 20
105.1819239413959
 30
0.0
 10
138.3304659193917
 20
106.7215246592348
 30
0.0
 10
138.1512294508452
 20
107.4913250181543
 30
0.0
 10
137.9304927499696
 20
108.2611253770738
 30
0.0
  0
LINE
  5
AD
330
1F
100
AcDbEntity
  8
0
  6
Continuous
 62
     7
370
    25
100
AcDbLine
 10
158.7742219951
 20
108.2611253771
 30
0.0
 11
161.5668474719
 21
108.2611253771
 31
0.0
  0
SPLINE
  5
AE
330
1F
100
AcDbEntity
  8
0
  6
Continuous
 62
     7
370
    25
100
AcDbSpline
210
0.0
220
0.0
230
1.0
 70
     8
 71
     3
 72
    10
 73
     6
 74
     0
 42
0.000000001
 43
0.00000001
 40
0.0
 40
0.0
 40
0.0
 40
0.0
 40
0.5
 40
0.5
 40
1.0
 40
1.0
 40
1.0
 40
1.0
 10
138.6402473988439
 20
103.6423232235569
 30
0.0
 10
138.6402473988439
 20
104.4121235824764
 30
0.0
 10
138.7051434957165
 20
105.1819239413959
 30
0.0
 10
138.9500288782961
 20
106.7215246592348
 30
0.0
 10
139.1292653468426
 20
107.4913250181543
 30
0.0
 10
139.3500020477182
 20
108.2611253770738
 30
0.0
  0
LINE
  5
AF
330
1F
100
AcDbEntity
  8
0
  6
Continuous
 62
     7
370
    25
100
AcDbLine
 10
139.3500020477
 20
108.2611253771
 30
0.0
 11
158.5062728026
 21
108.2611253771
 31
0.0
  0
SPLINE
  5
B0
330
1F
100
AcDbEntity
  8
0
  6
Continuous
 62
     7
370
    25
100
AcDbSpline
210
0.0
220
0.0
230
1.0
 70
     8
 71
     3
 72
     8
 73
     4
 74
     0
 42
0.000000001
 43
0.00000001
 40
0.0
 40
0.0
 40
0.0
 40
0.0
 40
1.0
 40
1.0
 40
1.0
 40
1.0
 10
158.5062728026284
 20
108.2611253770738
 30
0.0
 10
158.5529429661913
 20
108.0869499554594
 30
0.0
 10
158.5976595264504
 20
107.9126779363142
 30
0.0
 10
158.6402473988439
 20
107.7383006624371
 30
0.0
  0
SPLINE
  5
B1
330
1F
100
AcDbEntity
  8
0
  6
Continuous
 62
     7
370
    25
100
AcDbSpline
210
0.0
220
0.0
230
1.0
 70
     8
 71
     3
 72
     8
 73
     4
 74
     0
 42
0.000000001
 43
0.00000001
 40
0.0
 40
0.0
 40
0.0
 40
0.0
 40
1.0
 40
1.0
 40
1.0
 40
1.0
 10
158.6402473988439
 20
107.7383006624371
 30
0.0
 10
158.6828524312738
 20
107.9127481985786
 30
0.0
 10
158.7275700918107
 20
108.0870181038794
 30
0.0
 10
158.7742219950595
 20
108.2611253770738
 30
0.0
  0
LINE
  5
B2
330
1F
100
AcDbEntity
  8
0
  6
Continuous
 62
     7
370
    25
100
AcDbLine
 10
138.6402473988
 20
73.785916763
 30
0.0
 11
138.6402473988
 21
75.9295103025
 31
0.0
  0
LINE
  5
B3
330
1F
100
AcDbEntity
  8
0
  6
Continuous
 62
     7
370
    25
100
AcDbLine
 10
138.6402473988
 20
103.6423232236
 30
0.0
 11
138.6402473988
 21
105.785916763
 31
0.0
  0
LINE
  5
B4
330
1F
100
AcDbEntity
  8
0
  6
Continuous
 62
     7
370
    25
100
AcDbLine
 10
158.6402473988
 20
71.8335328636
 30
0.0
 11
158.6402473988
 21
71.8107081489
 31
0.0
  0
LINE
  5
B5
330
1F
100
AcDbEntity
  8
0
  6
Continuous
 62
     7
370
    25
100
AcDbLine
 10
158.6402473988
 20
107.7611253771
 30
0.0
 11
158.6402473988
 21
107.7383006624
 31
0.0
  0
LINE
  5
B6
330
1F
100
AcDbEntity
  8
0
  6
CENTERX2
 62
     7
370
    18
100
AcDbLine
 10
159.5668474719
 20
89.785916763
 30
0.0
 11
165.1402473988
 21
89.785916763
 31
0.0
  0
LINE
  5
B7
330
1F
100
AcDbEntity
  8
0
  6
CENTERX2
 62
     7
370
    18
100
AcDbLine
 10
156.7742219951
 20
89.785916763
 30
0.0
 11
161.5668474719
 21
89.785916763
 31
0.0
  0
LINE
  5
B8
330
1F
100
AcDbEntity
  8
0
  6
CENTERX2
 62
     7
370
    18
100
AcDbLine
 10
137.3500020477
 20
89.785916763
 30
0.0
 11
160.5062728026
 21
89.785916763
 31
0.0
  0
LINE
  5
B9
330
1F
100
AcDbEntity
  8
0
  6
CENTERX2
 62
     7
370
    18
100
AcDbLine
 10
113.7136473258
 20
89.785916763
 30
0.0
 11
139.93049275
 21
89.785916763
 31
0.0
  0
LINE
  5
BA
330
1F
100
AcDbEntity
  8
0
  6
CENTERX2
 62
     7
370
    18
100
AcDbLine
 10
117.7136473258
 20
89.785916763
 30
0.0
 11
112.1402473988
 21
89.785916763
 31
0.0
  0
SPLINE
  5
BB
330
1F
100
AcDbEntity
  8
0
  6
Continuous
 62
     7
370
    25
100
AcDbSpline
210
0.0
220
0.0
230
1.0
 70
    24
 71
     3
 72
    16
 73
    12
 74
     0
 42
0.000000001
 43
0.00000001
 40
0.0
 40
0.0
 40
0.0
 40
0.0
 40
0.2500000000000001
 40
0.2500000000000001
 40
0.5000000000000001
 40
0.5000000000000001
 40
0.6250000000000001
 40
0.6250000000000001
 40
0.7500000000000002
 40
0.7500000000000002
 40
1.0
 40
1.0
 40
1.0
 40
1.0
 10
214.4174034682081
 20
108.2611253770738
 30
0.0
 10
213.1111549666371
 20
107.5069624530632
 30
0.0
 10
211.7953831169812
 20
106.7473012214723
 30
0.0
 10
209.136398911622
 20
105.2121359747372
 30
0.0
 10
207.7929825594599
 20
104.4365141821827
 30
0.0
 10
205.7525481128984
 20
103.2584688051967
 30
0.0
 10
205.069201937773
 20
102.8639387070383
 30
0.0
 10
203.7174713102883
 20
102.0835166653882
 30
0.0
 10
203.0461378423919
 20
101.6959221069822
 30
0.0
 10
201.0440896019654
 20
100.5400390164413
 30
0.0
 10
199.7252804211803
 20
99.77862418090534
 30
0.0
 10
198.4174034682082
 20
99.02352107003996
 30
0.0
  0
SPLINE
  5
BC
330
1F
100
AcDbEntity
  8
0
  6
Continuous
 62
     7
370
    25
100
AcDbSpline
210
0.0
220
0.0
230
1.0
 70
    24
 71
     3
 72
    16
 73
    12
 74
     0
 42
0.000000001
 43
0.00000001
 40
0.0
 40
0.0
 40
0.0
 40
0.0
 40
0.25
 40
0.25
 40
0.5
 40
0.5
 40
0.625
 40
0.625
 40
0.75
 40
0.75
 40
1.0
 40
1.0
 40
1.0
 40
1.0
 10
230.4174034682082
 20
99.02352107003972
 30
0.0
 10
229.1111549666371
 20
99.77768399405035
 30
0.0
 10
227.7953831169812
 20
100.5373452256413
 30
0.0
 10
225.136398911622
 20
102.0725104723764
 30
0.0
 10
223.7929825594599
 20
102.8481322649309
 30
0.0
 10
221.7525481128984
 20
104.026177641917
 30
0.0
 10
221.069201937773
 20
104.4207077400753
 30
0.0
 10
219.7174713102883
 20
105.2011297817255
 30
0.0
 10
219.0461378423918
 20
105.5887243401315
 30
0.0
 10
217.0440896019653
 20
106.7446074306724
 30
0.0
 10
215.7252804211803
 20
107.5060222662084
 30
0.0
 10
214.4174034682081
 20
108.2611253770738
 30
0.0
  0
SPLINE
  5
BD
330
1F
100
AcDbEntity
  8
0
  6
Continuous
 62
     7
370
    25
100
AcDbSpline
210
0.0
220
0.0
230
1.0
 70
    24
 71
     3
 72
    18
 73
    14
 74
     0
 42
0.000000001
 43
0.00000001
 40
0.0
 40
0.0
 40
0.0
 40
0.0
 40
0.125
 40
0.125
 40
0.25
 40
0.25
 40
0.5
 40
0.5
 40
0.625
 40
0.625
 40
0.75
 40
0.75
 40
1.0
 40
1.0
 40
1.0
 40
1.0
 10
230.4174034682081
 20
80.54831245597167
 30
0.0
 10
230.4174034682081
 20
81.30051935300231
 30
0.0
 10
230.4174034682081
 20
82.06113360811334
 30
0.0
 10
230.4174034682081
 20
83.59381786840747
 30
0.0
 10
230.4174034682081
 20
84.36223083923974
 30
0.0
 10
230.4174034682081
 20
86.67473027454155
 30
0.0
 10
230.4174034682081
 20
88.22622666738809
 30
0.0
 10
230.4174034682081
 20
90.5708348544083
 30
0.0
 10
230.4174034682081
 20
91.35634298303218
 30
0.0
 10
230.4174034682081
 20
92.92837762783738
 30
0.0
 10
230.4174034682081
 20
93.70605171316492
 30
0.0
 10
230.4174034682081
 20
96.01756400852199
 30
0.0
 10
230.4174034682081
 20
97.5300408226869
 30
0.0
 10
230.4174034682081
 20
99.02352107003975
 30
0.0
  0
SPLINE
  5
BE
330
1F
100
AcDbEntity
  8
0
  6
Continuous
 62
     7
370
    25
100
AcDbSpline
210
0.0
220
0.0
230
1.0
 70
    24
 71
     3
 72
    16
 73
    12
 74
     0
 42
0.000000001
 43
0.00000001
 40
0.0
 40
0.0
 40
0.0
 40
0.0
 40
0.2500000000000002
 40
0.2500000000000002
 40
0.5000000000000003
 40
0.5000000000000003
 40
0.6250000000000002
 40
0.6250000000000002
 40
0.75
 40
0.75
 40
1.0
 40
1.0
 40
1.0
 40
1.0
 10
214.4174034682079
 20
71.3107081489377
 30
0.0
 10
215.723651969779
 20
72.06487107294832
 30
0.0
 10
217.0394238194348
 20
72.82453230453922
 30
0.0
 10
219.6984080247941
 20
74.35969755127434
 30
0.0
 10
221.0418243769562
 20
75.13531934382884
 30
0.0
 10
223.0822588235177
 20
76.31336472081493
 30
0.0
 10
223.7656049986431
 20
76.70789481897326
 30
0.0
 10
225.1173356261278
 20
77.48831686062344
 30
0.0
 10
225.7886690940243
 20
77.87591141902945
 30
0.0
 10
227.7907173344508
 20
79.03179450957029
 30
0.0
 10
229.1095265152359
 20
79.79320934510628
 30
0.0
 10
230.4174034682081
 20
80.54831245597167
 30
0.0
  0
SPLINE
  5
BF
330
1F
100
AcDbEntity
  8
0
  6
Continuous
 62
     7
370
    25
100
AcDbSpline
210
0.0
220
0.0
230
1.0
 70
    24
 71
     3
 72
    16
 73
    12
 74
     0
 42
0.000000001
 43
0.00000001
 40
0.0
 40
0.0
 40
0.0
 40
0.0
 40
0.2499999999999999
 40
0.2499999999999999
 40
0.4999999999999998
 40
0.4999999999999998
 40
0.6249999999999998
 40
0.6249999999999998
 40
0.7499999999999997
 40
0.7499999999999997
 40
1.0
 40
1.0
 40
1.0
 40
1.0
 10
198.417403468208
 20
80.54831245597191
 30
0.0
 10
199.723651969779
 20
79.7941495319613
 30
0.0
 10
201.0394238194349
 20
79.03448830037036
 30
0.0
 10
203.6984080247941
 20
77.49932305363522
 30
0.0
 10
205.0418243769562
 20
76.72370126108069
 30
0.0
 10
207.0822588235177
 20
75.54565588409457
 30
0.0
 10
207.7656049986431
 20
75.15112578593622
 30
0.0
 10
209.1173356261278
 20
74.37070374428603
 30
0.0
 10
209.7886690940243
 20
73.98310918588001
 30
0.0
 10
211.7907173344508
 20
72.82722609533913
 30
0.0
 10
213.1095265152358
 20
72.06581125980313
 30
0.0
 10
214.417403468208
 20
71.31070814893772
 30
0.0
  0
SPLINE
  5
C0
330
1F
100
AcDbEntity
  8
0
  6
Continuous
 62
     7
370
    25
100
AcDbSpline
210
0.0
220
0.0
230
1.0
 70
    24
 71
     3
 72
    18
 73
    14
 74
     0
 42
0.000000001
 43
0.00000001
 40
0.0
 40
0.0
 40
0.0
 40
0.0
 40
0.125
 40
0.125
 40
0.2500000000000001
 40
0.2500000000000001
 40
0.5
 40
0.5
 40
0.625
 40
0.625
 40
0.75
 40
0.75
 40
1.0
 40
1.0
 40
1.0
 40
1.0
 10
198.417403468208
 20
80.5483124559719
 30
0.0
 10
198.417403468208
 20
81.30051935300298
 30
0.0
 10
198.417403468208
 20
82.06113360811601
 30
0.0
 10
198.417403468208
 20
83.59381786840808
 30
0.0
 10
198.417403468208
 20
84.36223083923888
 30
0.0
 10
198.4174034682081
 20
86.67473027453445
 30
0.0
 10
198.4174034682081
 20
88.22622666737456
 30
0.0
 10
198.4174034682081
 20
90.57083485438089
 30
0.0
 10
198.4174034682081
 20
91.3563429829878
 30
0.0
 10
198.4174034682081
 20
92.92837762780874
 30
0.0
 10
198.4174034682081
 20
93.70605171314263
 30
0.0
 10
198.4174034682082
 20
96.0175640085149
 30
0.0
 10
198.4174034682082
 20
97.53004082268497
 30
0.0
 10
198.4174034682082
 20
99.02352107003996
 30
0.0
  0
CIRCLE
  5
C1
330
1F
100
AcDbEntity
  8
0
  6
Continuous
 62
     7
370
    25
100
AcDbCircle
 10
214.4174034682
 20
89.785916763
 30
0.0
 40
15.75
  0
CIRCLE
  5
C2
330
1F
100
AcDbEntity
  8
0
  6
Continuous
 62
     7
370
    25
100
AcDbCircle
 10
214.4174034682
 20
89.785916763
 30
0.0
 40
13.50000000000003
  0
CIRCLE
  5
C3
330
1F
100
AcDbEntity
  8
0
  6
Continuous
 62
     7
370
    25
100
AcDbCircle
 10
214.4174034682
 20
89.785916763
 30
0.0
 40
12.62991560365154
  0
CIRCLE
  5
C4
330
1F
100
AcDbEntity
  8
0
  6
Continuous
 62
     7
370
    25
100
AcDbCircle
 10
214.4174034682
 20
89.785916763
 30
0.0
 40
12.13066913135702
  0
CIRCLE
  5
C5
330
1F
100
AcDbEntity
  8
0
  6
Continuous
 62
     7
370
    25
100
AcDbCircle
 10
214.4174034682
 20
89.785916763
 30
0.0
 40
12.05850000000001
  0
CIRCLE
  5
C6
330
1F
100
AcDbEntity
  8
0
  6
Continuous
 62
     7
370
    25
100
AcDbCircle
 10
214.4174034682
 20
89.785916763
 30
0.0
 40
11.75
  0
INSERT
  5
D2
330
1F
100
AcDbEntity
  8
0
  6
Continuous
 62
     7
370
    18
100
AcDbBlockReference
  2
SW_CENTERMARKSYMBOL_0
 10
214.4174034682
 20
89.785916763
 30
0.0
  0
ARC
  5
D3
330
1F
100
AcDbEntity
  8
0
  6
Continuous
 62
     7
370
    18
100
AcDbCircle
 10
214.4174034682
 20
89.785916763
 30
0.0
 40
13.25796000000001
100
AcDbArc
 50
75.0
 51
345.0
  0
LINE
  5
D4
330
1F
100
AcDbEntity
  8
0
  6
Continuous
 62
     7
370
    25
100
AcDbLine
 10
114.2845849661
 20
169.702300578
 30
0.0
 11
114.1402473988
 21
169.452300578
 31
0.0
  0
LINE
  5
D5
330
1F
100
AcDbEntity
  8
0
  6
Continuous
 62
     7
370
    25
100
AcDbLine
 10
114.1402473988
 20
137.952300578
 30
0.0
 11
114.2845849661
 21
137.702300578
 31
0.0
  0
LINE
  5
D6
330
1F
100
AcDbEntity
  8
0
  6
Continuous
 62
     7
370
    25
100
AcDbLine
 10
162.9959098315
 20
137.702300578
 30
0.0
 11
163.1402473988
 21
137.952300578
 31
0.0
  0
LINE
  5
D7
330
1F
100
AcDbEntity
  8
0
  6
Continuous
 62
     7
370
    25
100
AcDbLine
 10
163.1402473988
 20
169.452300578
 30
0.0
 11
162.9959098315
 21
169.702300578
 31
0.0
  0
SPLINE
  5
D8
330
1F
100
AcDbEntity
  8
0
  6
Continuous
 62
     7
370
    25
100
AcDbSpline
210
0.0
220
0.0
230
1.0
 70
    24
 71
     3
 72
    13
 73
     9
 74
     0
 42
0.000000001
 43
0.00000001
 40
0.0
 40
0.0
 40
0.0
 40
0.0
 40
0.1159409313444062
 40
0.2451304088952723
 40
0.4325359128797807
 40
0.6205503964897482
 40
0.8100851528456202
 40
1.0
 40
1.0
 40
1.0
 40
1.0
 10
114.2870250582235
 20
137.7023005780347
 30
0.0
 10
114.2901872687049
 20
137.7023005780347
 30
0.0
 10
114.2968730348042
 20
137.7023005780347
 30
0.0
 10
114.383033633189
 20
137.7023005780347
 30
0.0
 10
114.5582726710445
 20
137.7023005780347
 30
0.0
 10
114.8563810752667
 20
137.7023005780348
 30
0.0
 10
115.2381796509041
 20
137.7023005780348
 30
0.0
 10
115.5550522981175
 20
137.7023005780348
 30
0.0
 10
115.713647325774
 20
137.7023005780348
 30
0.0
  0
SPLINE
  5
D9
330
1F
100
AcDbEntity
  8
0
  6
Continuous
 62
     7
370
    25
100
AcDbSpline
210
0.0
220
0.0
230
1.0
 70
    24
 71
     3
 72
    13
 73
     9
 74
     0
 42
0.000000001
 43
0.00000001
 40
0.0
 40
0.0
 40
0.0
 40
0.0
 40
0.1876755657267019
 40
0.3756827298141302
 40
0.5649826749126815
 40
0.7548679226839164
 40
0.8799144739458582
 40
1.0
 40
1.0
 40
1.0
 40
1.0
 10
115.713647325774
 20
169.7023005780347
 30
0.0
 10
115.5568550001343
 20
169.7023005780347
 30
0.0
 10
115.2429933171703
 20
169.7023005780347
 30
0.0
 10
114.8615476422128
 20
169.7023005780347
 30
0.0
 10
114.5607578354086
 20
169.7023005780347
 30
0.0
 10
114.3847870979712
 20
169.7023005780347
 30
0.0
 10
114.2978845231638
 20
169.7023005780347
 30
0.0
 10
114.2895926773895
 20
169.7023005780347
 30
0.0
 10
114.285530660404
 20
169.7023005780347
 30
0.0
  0
SPLINE
  5
DA
330
1F
100
AcDbEntity
  8
0
  6
Continuous
 62
     7
370
    25
100
AcDbSpline
210
0.0
220
0.0
230
1.0
 70
     8
 71
     3
 72
    16
 73
    12
 74
     0
 42
0.000000001
 43
0.00000001
 40
0.0
 40
0.0
 40
0.0
 40
0.0
 40
0.25
 40
0.25
 40
0.5
 40
0.5
 40
0.625
 40
0.625
 40
0.75
 40
0.75
 40
1.0
 40
1.0
 40
1.0
 40
1.0
 10
115.7136473257738
 20
153.7023005780347
 30
0.0
 10
115.2782311585834
 20
155.0085490796057
 30
0.0
 10
114.9193694646559
 20
156.3243209292616
 30
0.0
 10
114.4222295804014
 20
158.9833051346208
 30
0.0
 10
114.285591237878
 20
160.3267214867829
 30
0.0
 10
114.2840902656319
 20
162.3671559333444
 30
0.0
 10
114.3174929729534
 20
163.0505021084698
 30
0.0
 10
114.4477461847521
 20
164.4022327359546
 30
0.0
 10
114.5444644748305
 20
165.073566203851
 30
0.0
 10
114.9179383677982
 20
167.0756144442775
 30
0.0
 10
115.2776883414498
 20
168.3944236250626
 30
0.0
 10
115.7136473257739
 20
169.7023005780347
 30
0.0
  0
SPLINE
  5
DB
330
1F
100
AcDbEntity
  8
0
  6
Continuous
 62
     7
370
    25
100
AcDbSpline
210
0.0
220
0.0
230
1.0
 70
     8
 71
     3
 72
    16
 73
    12
 74
     0
 42
0.000000001
 43
0.00000001
 40
0.0
 40
0.0
 40
0.0
 40
0.0
 40
0.2500000000000001
 40
0.2500000000000001
 40
0.5000000000000001
 40
0.5000000000000001
 40
0.625
 40
0.625
 40
0.7499999999999999
 40
0.7499999999999999
 40
1.0
 40
1.0
 40
1.0
 40
1.0
 10
115.7136473257738
 20
137.7023005780348
 30
0.0
 10
115.2782311585834
 20
139.0085490796058
 30
0.0
 10
114.9193694646559
 20
140.3243209292616
 30
0.0
 10
114.4222295804014
 20
142.9833051346209
 30
0.0
 10
114.285591237878
 20
144.3267214867829
 30
0.0
 10
114.2840902656319
 20
146.3671559333445
 30
0.0
 10
114.3174929729535
 20
147.0505021084699
 30
0.0
 10
114.4477461847521
 20
148.4022327359546
 30
0.0
 10
114.5444644748305
 20
149.073566203851
 30
0.0
 10
114.9179383677983
 20
151.0756144442775
 30
0.0
 10
115.2776883414498
 20
152.3944236250625
 30
0.0
 10
115.7136473257739
 20
153.7023005780347
 30
0.0
  0
LINE
  5
DC
330
1F
100
AcDbEntity
  8
0
  6
Continuous
 62
     7
370
    25
100
AcDbLine
 10
114.1402473988
 20
137.952300578
 30
0.0
 11
114.1402473988
 21
169.452300578
 31
0.0
  0
SPLINE
  5
DD
330
1F
100
AcDbEntity
  8
0
  6
Continuous
 62
     7
370
    25
100
AcDbSpline
210
0.0
220
0.0
230
1.0
 70
     8
 71
     3
 72
    16
 73
    12
 74
     0
 42
0.000000001
 43
0.00000001
 40
0.0
 40
0.0
 40
0.0
 40
0.0
 40
0.2500000000000001
 40
0.2500000000000001
 40
0.5000000000000001
 40
0.5000000000000001
 40
0.6250000000000001
 40
0.6250000000000001
 40
0.7500000000000002
 40
0.7500000000000002
 40
1.0
 40
1.0
 40
1.0
 40
1.0
 10
161.5668474719141
 20
153.7023005780347
 30
0.0
 10
162.0022636391045
 20
152.3960520764636
 30
0.0
 10
162.361125333032
 20
151.0802802268078
 30
0.0
 10
162.8582652172864
 20
148.4212960214486
 30
0.0
 10
162.9949035598098
 20
147.0778796692865
 30
0.0
 10
162.9964045320559
 20
145.037445222725
 30
0.0
 10
162.9630018247344
 20
144.3540990475996
 30
0.0
 10
162.8327486129357
 20
143.0023684201149
 30
0.0
 10
162.7360303228573
 20
142.3310349522185
 30
0.0
 10
162.3625564298896
 20
140.328986711792
 30
0.0
 10
162.002806456238
 20
139.0101775310069
 30
0.0
 10
161.566847471914
 20
137.7023005780348
 30
0.0
  0
SPLINE
  5
DE
330
1F
100
AcDbEntity
  8
0
  6
Continuous
 62
     7
370
    25
100
AcDbSpline
210
0.0
220
0.0
230
1.0
 70
     8
 71
     3
 72
    16
 73
    12
 74
     0
 42
0.000000001
 43
0.00000001
 40
0.0
 40
0.0
 40
0.0
 40
0.0
 40
0.25
 40
0.25
 40
0.5
 40
0.5
 40
0.625
 40
0.625
 40
0.75
 40
0.75
 40
1.0
 40
1.0
 40
1.0
 40
1.0
 10
161.5668474719141
 20
169.7023005780348
 30
0.0
 10
162.0022636391045
 20
168.3960520764637
 30
0.0
 10
162.361125333032
 20
167.0802802268078
 30
0.0
 10
162.8582652172864
 20
164.4212960214486
 30
0.0
 10
162.9949035598099
 20
163.0778796692865
 30
0.0
 10
162.996404532056
 20
161.037445222725
 30
0.0
 10
162.9630018247344
 20
160.3540990475996
 30
0.0
 10
162.8327486129357
 20
159.0023684201149
 30
0.0
 10
162.7360303228574
 20
158.3310349522184
 30
0.0
 10
162.3625564298896
 20
156.3289867117919
 30
0.0
 10
162.002806456238
 20
155.0101775310069
 30
0.0
 10
161.566847471914
 20
153.7023005780347
 30
0.0
  0
SPLINE
  5
DF
330
1F
100
AcDbEntity
  8
0
  6
Continuous
 62
     7
370
    25
100
AcDbSpline
210
0.0
220
0.0
230
1.0
 70
    24
 71
     3
 72
    13
 73
     9
 74
     0
 42
0.000000001
 43
0.00000001
 40
0.0
 40
0.0
 40
0.0
 40
0.0
 40
0.1084563893486824
 40
0.2378895393149461
 40
0.4270603360470017
 40
0.6168610836664826
 40
0.8082342206675077
 40
1.0
 40
1.0
 40
1.0
 40
1.0
 10
162.9922939230815
 20
169.7023005780347
 30
0.0
 10
162.9901134333007
 20
169.7023005780347
 30
0.0
 10
162.9853307209815
 20
169.7023005780347
 30
0.0
 10
162.9029743124428
 20
169.7023005780347
 30
0.0
 10
162.7297919852717
 20
169.7023005780347
 30
0.0
 10
162.4310244553672
 20
169.7023005780347
 30
0.0
 10
162.0467654948668
 20
169.7023005780347
 30
0.0
 10
161.7269294026775
 20
169.7023005780347
 30
0.0
 10
161.5668474719139
 20
169.7023005780347
 30
0.0
  0
SPLINE
  5
E0
330
1F
100
AcDbEntity
  8
0
  6
Continuous
 62
     7
370
    25
100
AcDbSpline
210
0.0
220
0.0
230
1.0
 70
    24
 71
     3
 72
    13
 73
     9
 74
     0
 42
0.000000001
 43
0.00000001
 40
0.0
 40
0.0
 40
0.0
 40
0.0
 40
0.1894512450832736
 40
0.3792444623658113
 40
0.5703735980187333
 40
0.7621086390384929
 40
0.8873922774309363
 40
1.0
 40
1.0
 40
1.0
 40
1.0
 10
161.5668474719139
 20
137.7023005780348
 30
0.0
 10
161.7250674559975
 20
137.7023005780348
 30
0.0
 10
162.0417930218441
 20
137.7023005780348
 30
0.0
 10
162.4257083458357
 20
137.7023005780348
 30
0.0
 10
162.7272579499235
 20
137.7023005780347
 30
0.0
 10
162.9012578389378
 20
137.7023005780347
 30
0.0
 10
162.9843167813637
 20
137.7023005780347
 30
0.0
 10
162.990646330859
 20
137.7023005780347
 30
0.0
 10
162.9936424722518
 20
137.7023005780347
 30
0.0
  0
LINE
  5
E1
330
1F
100
AcDbEntity
  8
0
  6
Continuous
 62
     7
370
    25
100
AcDbLine
 10
163.1402473988
 20
169.452300578
 30
0.0
 11
163.1402473988
 21
137.952300578
 31
0.0
  0
LINE
  5
E2
330
1F
100
AcDbEntity
  8
0
  6
Continuous
 62
     7
370
    25
100
AcDbLine
 10
158.7742219951
 20
169.702300578
 30
0.0
 11
161.5668474719
 21
169.702300578
 31
0.0
  0
LINE
  5
E3
330
1F
100
AcDbEntity
  8
0
  6
Continuous
 62
     7
370
    25
100
AcDbLine
 10
158.7742219951
 20
153.702300578
 30
0.0
 11
161.5668474719
 21
153.702300578
 31
0.0
  0
SPLINE
  5
E4
330
1F
100
AcDbEntity
  8
0
  6
Continuous
 62
     7
370
    25
100
AcDbSpline
210
0.0
220
0.0
230
1.0
 70
     8
 71
     3
 72
     8
 73
     4
 74
     0
 42
0.000000001
 43
0.00000001
 40
0.0
 40
0.0
 40
0.0
 40
0.0
 40
1.0
 40
1.0
 40
1.0
 40
1.0
 10
158.7742219950595
 20
153.7023005780347
 30
0.0
 10
158.7275518314966
 20
154.0039812577005
 30
0.0
 10
158.6828352712375
 20
154.3058292491977
 30
0.0
 10
158.6402473988439
 20
154.6078595472382
 30
0.0
  0
SPLINE
  5
E5
330
1F
100
AcDbEntity
  8
0
  6
Continuous
 62
     7
370
    25
100
AcDbSpline
210
0.0
220
0.0
230
1.0
 70
     8
 71
     3
 72
     8
 73
     4
 74
     0
 42
0.000000001
 43
0.00000001
 40
0.0
 40
0.0
 40
0.0
 40
0.0
 40
1.0
 40
1.0
 40
1.0
 40
1.0
 10
158.6402473988439
 20
154.6078595472382
 30
0.0
 10
158.597642366414
 20
154.3057075513859
 30
0.0
 10
158.5529247058772
 20
154.0038632211747
 30
0.0
 10
158.5062728026284
 20
153.7023005780347
 30
0.0
  0
LINE
  5
E6
330
1F
100
AcDbEntity
  8
0
  6
Continuous
 62
     7
370
    25
100
AcDbLine
 10
139.3500020477
 20
153.702300578
 30
0.0
 11
158.5062728026
 21
153.702300578
 31
0.0
  0
SPLINE
  5
E7
330
1F
100
AcDbEntity
  8
0
  6
Continuous
 62
     7
370
    25
100
AcDbSpline
210
0.0
220
0.0
230
1.0
 70
     8
 71
     3
 72
    10
 73
     6
 74
     0
 42
0.000000001
 43
0.00000001
 40
0.0
 40
0.0
 40
0.0
 40
0.0
 40
0.4999999999999998
 40
0.4999999999999998
 40
1.0
 40
1.0
 40
1.0
 40
1.0
 10
139.3500020477182
 20
153.7023005780347
 30
0.0
 10
139.1292653468426
 20
155.035633911368
 30
0.0
 10
138.9500288782961
 20
156.3689672447014
 30
0.0
 10
138.7051434957164
 20
159.035633911368
 30
0.0
 10
138.6402473988439
 20
160.3689672447014
 30
0.0
 10
138.6402473988439
 20
161.7023005780347
 30
0.0
  0
SPLINE
  5
E8
330
1F
100
AcDbEntity
  8
0
  6
Continuous
 62
     7
370
    25
100
AcDbSpline
210
0.0
220
0.0
230
1.0
 70
     8
 71
     3
 72
    10
 73
     6
 74
     0
 42
0.000000001
 43
0.00000001
 40
0.0
 40
0.0
 40
0.0
 40
0.0
 40
0.5
 40
0.5
 40
1.0
 40
1.0
 40
1.0
 40
1.0
 10
138.6402473988439
 20
161.7023005780347
 30
0.0
 10
138.6402473988439
 20
163.0356339113681
 30
0.0
 10
138.7051434957164
 20
164.3689672447014
 30
0.0
 10
138.9500288782961
 20
167.0356339113681
 30
0.0
 10
139.1292653468426
 20
168.3689672447014
 30
0.0
 10
139.3500020477182
 20
169.7023005780347
 30
0.0
  0
LINE
  5
E9
330
1F
100
AcDbEntity
  8
0
  6
Continuous
 62
     7
370
    25
100
AcDbLine
 10
139.3500020477
 20
169.702300578
 30
0.0
 11
158.5062728026
 21
169.702300578
 31
0.0
  0
SPLINE
  5
EA
330
1F
100
AcDbEntity
  8
0
  6
Continuous
 62
     7
370
    25
100
AcDbSpline
210
0.0
220
0.0
230
1.0
 70
     8
 71
     3
 72
     8
 73
     4
 74
     0
 42
0.000000001
 43
0.00000001
 40
0.0
 40
0.0
 40
0.0
 40
0.0
 40
1.0
 40
1.0
 40
1.0
 40
1.0
 10
158.5062728026284
 20
169.7023005780347
 30
0.0
 10
158.5529429661913
 20
169.4006198983689
 30
0.0
 10
158.5976595264504
 20
169.0987719068717
 30
0.0
 10
158.6402473988439
 20
168.7967416088312
 30
0.0
  0
SPLINE
  5
EB
330
1F
100
AcDbEntity
  8
0
  6
Continuous
 62
     7
370
    25
100
AcDbSpline
210
0.0
220
0.0
230
1.0
 70
     8
 71
     3
 72
     8
 73
     4
 74
     0
 42
0.000000001
 43
0.00000001
 40
0.0
 40
0.0
 40
0.0
 40
0.0
 40
1.0
 40
1.0
 40
1.0
 40
1.0
 10
158.6402473988439
 20
168.7967416088312
 30
0.0
 10
158.6828524312738
 20
169.0988936046835
 30
0.0
 10
158.7275700918107
 20
169.4007379348947
 30
0.0
 10
158.7742219950595
 20
169.7023005780347
 30
0.0
  0
LINE
  5
EC
330
1F
100
AcDbEntity
  8
0
  6
Continuous
 62
     7
370
    25
100
AcDbLine
 10
115.7136473258
 20
169.702300578
 30
0.0
 11
137.93049275
 21
169.702300578
 31
0.0
  0
SPLINE
  5
ED
330
1F
100
AcDbEntity
  8
0
  6
Continuous
 62
     7
370
    25
100
AcDbSpline
210
0.0
220
0.0
230
1.0
 70
     8
 71
     3
 72
    10
 73
     6
 74
     0
 42
0.000000001
 43
0.00000001
 40
0.0
 40
0.0
 40
0.0
 40
0.0
 40
0.5
 40
0.5
 40
1.0
 40
1.0
 40
1.0
 40
1.0
 10
138.6402473988439
 20
161.7023005780347
 30
0.0
 10
138.6402473988439
 20
163.0356339113681
 30
0.0
 10
138.5753513019714
 20
164.3689672447014
 30
0.0
 10
138.3304659193917
 20
167.0356339113681
 30
0.0
 10
138.1512294508452
 20
168.3689672447014
 30
0.0
 10
137.9304927499696
 20
169.7023005780347
 30
0.0
  0
SPLINE
  5
EE
330
1F
100
AcDbEntity
  8
0
  6
Continuous
 62
     7
370
    25
100
AcDbSpline
210
0.0
220
0.0
230
1.0
 70
     8
 71
     3
 72
    10
 73
     6
 74
     0
 42
0.000000001
 43
0.00000001
 40
0.0
 40
0.0
 40
0.0
 40
0.0
 40
0.4999999999999998
 40
0.4999999999999998
 40
1.0
 40
1.0
 40
1.0
 40
1.0
 10
137.9304927499696
 20
153.7023005780347
 30
0.0
 10
138.1512294508452
 20
155.035633911368
 30
0.0
 10
138.3304659193917
 20
156.3689672447014
 30
0.0
 10
138.5753513019714
 20
159.035633911368
 30
0.0
 10
138.6402473988439
 20
160.3689672447014
 30
0.0
 10
138.6402473988439
 20
161.7023005780347
 30
0.0
  0
LINE
  5
EF
330
1F
100
AcDbEntity
  8
0
  6
Continuous
 62
     7
370
    25
100
AcDbLine
 10
115.7136473258
 20
153.702300578
 30
0.0
 11
137.93049275
 21
153.702300578
 31
0.0
  0
LINE
  5
F0
330
1F
100
AcDbEntity
  8
0
  6
Continuous
 62
     7
370
    25
100
AcDbLine
 10
138.6402473988
 20
145.702300578
 30
0.0
 11
138.6402473988
 21
161.702300578
 31
0.0
  0
SPLINE
  5
F1
330
1F
100
AcDbEntity
  8
0
  6
Continuous
 62
     7
370
    25
100
AcDbSpline
210
0.0
220
0.0
230
1.0
 70
     8
 71
     3
 72
    10
 73
     6
 74
     0
 42
0.000000001
 43
0.00000001
 40
0.0
 40
0.0
 40
0.0
 40
0.0
 40
0.5
 40
0.5
 40
1.0
 40
1.0
 40
1.0
 40
1.0
 10
138.6402473988439
 20
145.7023005780347
 30
0.0
 10
138.6402473988439
 20
147.0356339113681
 30
0.0
 10
138.7051434957165
 20
148.3689672447014
 30
0.0
 10
138.9500288782961
 20
151.0356339113681
 30
0.0
 10
139.1292653468426
 20
152.3689672447014
 30
0.0
 10
139.3500020477182
 20
153.7023005780347
 30
0.0
  0
SPLINE
  5
F2
330
1F
100
AcDbEntity
  8
0
  6
Continuous
 62
     7
370
    25
100
AcDbSpline
210
0.0
220
0.0
230
1.0
 70
     8
 71
     3
 72
    10
 73
     6
 74
     0
 42
0.000000001
 43
0.00000001
 40
0.0
 40
0.0
 40
0.0
 40
0.0
 40
0.5
 40
0.5
 40
1.0
 40
1.0
 40
1.0
 40
1.0
 10
138.6402473988439
 20
145.7023005780347
 30
0.0
 10
138.6402473988439
 20
147.0356339113681
 30
0.0
 10
138.5753513019714
 20
148.3689672447014
 30
0.0
 10
138.3304659193917
 20
151.0356339113681
 30
0.0
 10
138.1512294508452
 20
152.3689672447014
 30
0.0
 10
137.9304927499696
 20
153.7023005780347
 30
0.0
  0
SPLINE
  5
F3
330
1F
100
AcDbEntity
  8
0
  6
Continuous
 62
     7
370
    25
100
AcDbSpline
210
0.0
220
0.0
230
1.0
 70
     8
 71
     3
 72
     8
 73
     4
 74
     0
 42
0.000000001
 43
0.00000001
 40
0.0
 40
0.0
 40
0.0
 40
0.0
 40
1.0
 40
1.0
 40
1.0
 40
1.0
 10
158.6402473988439
 20
152.7967416088312
 30
0.0
 10
158.6828524312738
 20
153.0988936046835
 30
0.0
 10
158.7275700918107
 20
153.4007379348947
 30
0.0
 10
158.7742219950595
 20
153.7023005780347
 30
0.0
  0
LINE
  5
F4
330
1F
100
AcDbEntity
  8
0
  6
Continuous
 62
     7
370
    25
100
AcDbLine
 10
158.6402473988
 20
154.6078595472
 30
0.0
 11
158.6402473988
 21
152.7967416088
 31
0.0
  0
SPLINE
  5
F5
330
1F
100
AcDbEntity
  8
0
  6
Continuous
 62
     7
370
    25
100
AcDbSpline
210
0.0
220
0.0
230
1.0
 70
     8
 71
     3
 72
     8
 73
     4
 74
     0
 42
0.000000001
 43
0.00000001
 40
0.0
 40
0.0
 40
0.0
 40
0.0
 40
1.0
 40
1.0
 40
1.0
 40
1.0
 10
158.5062728026284
 20
153.7023005780347
 30
0.0
 10
158.5529429661913
 20
153.4006198983689
 30
0.0
 10
158.5976595264504
 20
153.0987719068717
 30
0.0
 10
158.6402473988439
 20
152.7967416088312
 30
0.0
  0
SPLINE
  5
F6
330
1F
100
AcDbEntity
  8
0
  6
Continuous
 62
     7
370
    25
100
AcDbSpline
210
0.0
220
0.0
230
1.0
 70
     8
 71
     3
 72
    10
 73
     6
 74
     0
 42
0.000000001
 43
0.00000001
 40
0.0
 40
0.0
 40
0.0
 40
0.0
 40
0.5
 40
0.5
 40
1.0
 40
1.0
 40
1.0
 40
1.0
 10
137.9304927499696
 20
137.7023005780348
 30
0.0
 10
138.1512294508452
 20
139.0356339113681
 30
0.0
 10
138.3304659193917
 20
140.3689672447014
 30
0.0
 10
138.5753513019714
 20
143.0356339113681
 30
0.0
 10
138.6402473988439
 20
144.3689672447014
 30
0.0
 10
138.6402473988439
 20
145.7023005780347
 30
0.0
  0
LINE
  5
F7
330
1F
100
AcDbEntity
  8
0
  6
Continuous
 62
     7
370
    25
100
AcDbLine
 10
115.7136473258
 20
137.702300578
 30
0.0
 11
137.93049275
 21
137.702300578
 31
0.0
  0
LINE
  5
F8
330
1F
100
AcDbEntity
  8
0
  6
Continuous
 62
     7
370
    25
100
AcDbLine
 10
158.7742219951
 20
137.702300578
 30
0.0
 11
161.5668474719
 21
137.702300578
 31
0.0
  0
SPLINE
  5
F9
330
1F
100
AcDbEntity
  8
0
  6
Continuous
 62
     7
370
    25
100
AcDbSpline
210
0.0
220
0.0
230
1.0
 70
     8
 71
     3
 72
     8
 73
     4
 74
     0
 42
0.000000001
 43
0.00000001
 40
0.0
 40
0.0
 40
0.0
 40
0.0
 40
1.0
 40
1.0
 40
1.0
 40
1.0
 10
158.7742219950595
 20
137.7023005780348
 30
0.0
 10
158.7275518314966
 20
138.0039812577006
 30
0.0
 10
158.6828352712375
 20
138.3058292491978
 30
0.0
 10
158.6402473988439
 20
138.6078595472383
 30
0.0
  0
SPLINE
  5
FA
330
1F
100
AcDbEntity
  8
0
  6
Continuous
 62
     7
370
    25
100
AcDbSpline
210
0.0
220
0.0
230
1.0
 70
     8
 71
     3
 72
     8
 73
     4
 74
     0
 42
0.000000001
 43
0.00000001
 40
0.0
 40
0.0
 40
0.0
 40
0.0
 40
1.0
 40
1.0
 40
1.0
 40
1.0
 10
158.6402473988439
 20
138.6078595472383
 30
0.0
 10
158.597642366414
 20
138.305707551386
 30
0.0
 10
158.5529247058772
 20
138.0038632211748
 30
0.0
 10
158.5062728026284
 20
137.7023005780348
 30
0.0
  0
LINE
  5
FB
330
1F
100
AcDbEntity
  8
0
  6
Continuous
 62
     7
370
    25
100
AcDbLine
 10
139.3500020477
 20
137.702300578
 30
0.0
 11
158.5062728026
 21
137.702300578
 31
0.0
  0
SPLINE
  5
FC
330
1F
100
AcDbEntity
  8
0
  6
Continuous
 62
     7
370
    25
100
AcDbSpline
210
0.0
220
0.0
230
1.0
 70
     8
 71
     3
 72
    10
 73
     6
 74
     0
 42
0.000000001
 43
0.00000001
 40
0.0
 40
0.0
 40
0.0
 40
0.0
 40
0.5
 40
0.5
 40
1.0
 40
1.0
 40
1.0
 40
1.0
 10
139.3500020477182
 20
137.7023005780348
 30
0.0
 10
139.1292653468426
 20
139.0356339113681
 30
0.0
 10
138.9500288782961
 20
140.3689672447014
 30
0.0
 10
138.7051434957165
 20
143.0356339113681
 30
0.0
 10
138.6402473988439
 20
144.3689672447014
 30
0.0
 10
138.6402473988439
 20
145.7023005780347
 30
0.0
  0
SPLINE
  5
FD
330
1F
100
AcDbEntity
  8
0
  6
Continuous
 62
     7
370
    25
100
AcDbSpline
210
0.0
220
0.0
230
1.0
 70
    24
 71
     3
 72
    10
 73
     6
 74
     0
 42
0.000000001
 43
0.00000001
 40
0.0
 40
0.0
 40
0.0
 40
0.0
 40
0.5
 40
0.5
 40
1.0
 40
1.0
 40
1.0
 40
1.0
 10
138.6402473988439
 20
137.7023005780347
 30
0.0
 10
138.6402473988439
 20
137.7023005780347
 30
0.0
 10
138.7054418390843
 20
137.7023005780347
 30
0.0
 10
138.9505615101108
 20
137.7023005780348
 30
0.0
 10
139.1297222070993
 20
137.7023005780348
 30
0.0
 10
139.3500020477184
 20
137.7023005780348
 30
0.0
  0
LINE
  5
FE
330
1F
100
AcDbEntity
  8
0
  6
Continuous
 62
     7
370
    25
100
AcDbLine
 10
138.6402473988
 20
137.702300578
 30
0.0
 11
138.6402473988
 21
145.702300578
 31
0.0
  0
SPLINE
  5
FF
330
1F
100
AcDbEntity
  8
0
  6
Continuous
 62
     7
370
    25
100
AcDbSpline
210
0.0
220
0.0
230
1.0
 70
    24
 71
     3
 72
    10
 73
     6
 74
     0
 42
0.000000001
 43
0.00000001
 40
0.0
 40
0.0
 40
0.0
 40
0.0
 40
0.5
 40
0.5
 40
1.0
 40
1.0
 40
1.0
 40
1.0
 10
138.6402473988439
 20
137.7023005780347
 30
0.0
 10
138.6402473988439
 20
137.7023005780347
 30
0.0
 10
138.5750529586035
 20
137.7023005780347
 30
0.0
 10
138.329933287577
 20
137.7023005780348
 30
0.0
 10
138.1507725905886
 20
137.7023005780348
 30
0.0
 10
137.9304927499695
 20
137.7023005780348
 30
0.0
  0
LINE
  5
100
330
1F
100
AcDbEntity
  8
0
  6
Continuous
 62
     7
370
    25
100
AcDbLine
 10
138.6402473988
 20
161.702300578
 30
0.0
 11
138.6402473988
 21
169.702300578
 31
0.0
  0
SPLINE
  5
101
330
1F
100
AcDbEntity
  8
0
  6
Continuous
 62
     7
370
    25
100
AcDbSpline
210
0.0
220
0.0
230
1.0
 70
    24
 71
     3
 72
    10
 73
     6
 74
     0
 42
0.000000001
 43
0.00000001
 40
0.0
 40
0.0
 40
0.0
 40
0.0
 40
0.5
 40
0.5
 40
1.0
 40
1.0
 40
1.0
 40
1.0
 10
138.6402473988439
 20
169.7023005780347
 30
0.0
 10
138.6402473988439
 20
169.7023005780347
 30
0.0
 10
138.7054418390843
 20
169.7023005780347
 30
0.0
 10
138.9505615101108
 20
169.7023005780347
 30
0.0
 10
139.1297222070993
 20
169.7023005780347
 30
0.0
 10
139.3500020477184
 20
169.7023005780347
 30
0.0
  0
SPLINE
  5
102
330
1F
100
AcDbEntity
  8
0
  6
Continuous
 62
     7
370
    25
100
AcDbSpline
210
0.0
220
0.0
230
1.0
 70
    24
 71
     3
 72
    10
 73
     6
 74
     0
 42
0.000000001
 43
0.00000001
 40
0.0
 40
0.0
 40
0.0
 40
0.0
 40
0.5
 40
0.5
 40
1.0
 40
1.0
 40
1.0
 40
1.0
 10
138.6402473988439
 20
169.7023005780347
 30
0.0
 10
138.6402473988439
 20
169.7023005780347
 30
0.0
 10
138.5750529586035
 20
169.7023005780347
 30
0.0
 10
138.329933287577
 20
169.7023005780347
 30
0.0
 10
138.1507725905886
 20
169.7023005780347
 30
0.0
 10
137.9304927499695
 20
169.7023005780347
 30
0.0
  0
LINE
  5
103
330
1F
100
AcDbEntity
  8
0
  6
Continuous
 62
     7
370
    25
100
AcDbLine
 10
158.6402473988
 20
138.6078595472
 30
0.0
 11
158.6402473988
 21
137.702300578
 31
0.0
  0
SPLINE
  5
104
330
1F
100
AcDbEntity
  8
0
  6
Continuous
 62
     7
370
    25
100
AcDbSpline
210
0.0
220
0.0
230
1.0
 70
    24
 71
     3
 72
     8
 73
     4
 74
     0
 42
0.000000001
 43
0.00000001
 40
0.0
 40
0.0
 40
0.0
 40
0.0
 40
1.0
 40
1.0
 40
1.0
 40
1.0
 10
158.5062728026284
 20
137.7023005780348
 30
0.0
 10
158.5529456452392
 20
137.7023005780348
 30
0.0
 10
158.5976620417802
 20
137.7023005780348
 30
0.0
 10
158.6402473988439
 20
137.7023005780348
 30
0.0
  0
SPLINE
  5
105
330
1F
100
AcDbEntity
  8
0
  6
Continuous
 62
     7
370
    25
100
AcDbSpline
210
0.0
220
0.0
230
1.0
 70
    24
 71
     3
 72
     8
 73
     4
 74
     0
 42
0.000000001
 43
0.00000001
 40
0.0
 40
0.0
 40
0.0
 40
0.0
 40
1.0
 40
1.0
 40
1.0
 40
1.0
 10
158.6402473988439
 20
137.7023005780348
 30
0.0
 10
158.682851548164
 20
137.7023005780348
 30
0.0
 10
158.7275691527848
 20
137.7023005780348
 30
0.0
 10
158.7742219950595
 20
137.7023005780348
 30
0.0
  0
LINE
  5
106
330
1F
100
AcDbEntity
  8
0
  6
Continuous
 62
     7
370
    25
100
AcDbLine
 10
158.6402473988
 20
169.702300578
 30
0.0
 11
158.6402473988
 21
168.7967416088
 31
0.0
  0
SPLINE
  5
107
330
1F
100
AcDbEntity
  8
0
  6
Continuous
 62
     7
370
    25
100
AcDbSpline
210
0.0
220
0.0
230
1.0
 70
    24
 71
     3
 72
     8
 73
     4
 74
     0
 42
0.000000001
 43
0.00000001
 40
0.0
 40
0.0
 40
0.0
 40
0.0
 40
1.0
 40
1.0
 40
1.0
 40
1.0
 10
158.6402473988439
 20
169.7023005780347
 30
0.0
 10
158.5976432495239
 20
169.7023005780347
 30
0.0
 10
158.5529256449032
 20
169.7023005780347
 30
0.0
 10
158.5062728026284
 20
169.7023005780347
 30
0.0
  0
SPLINE
  5
108
330
1F
100
AcDbEntity
  8
0
  6
Continuous
 62
     7
370
    25
100
AcDbSpline
210
0.0
220
0.0
230
1.0
 70
    24
 71
     3
 72
     8
 73
     4
 74
     0
 42
0.000000001
 43
0.00000001
 40
0.0
 40
0.0
 40
0.0
 40
0.0
 40
1.0
 40
1.0
 40
1.0
 40
1.0
 10
158.7742219950595
 20
169.7023005780347
 30
0.0
 10
158.7275491524486
 20
169.7023005780347
 30
0.0
 10
158.6828327559076
 20
169.7023005780347
 30
0.0
 10
158.6402473988439
 20
169.7023005780347
 30
0.0
  0
LINE
  5
109
330
1F
100
AcDbEntity
  8
0
  6
CENTERX2
 62
     7
370
    18
100
AcDbLine
 10
117.7136473258
 20
153.702300578
 30
0.0
 11
112.1402473988
 21
153.702300578
 31
0.0
  0
LINE
  5
10A
330
1F
100
AcDbEntity
  8
0
  6
CENTERX2
 62
     7
370
    18
100
AcDbLine
 10
159.5668474719
 20
153.702300578
 30
0.0
 11
165.1402473988
 21
153.702300578
 31
0.0
  0
ENDSEC
  0
SECTION
  2
OBJECTS
  0
DICTIONARY
  5
C
330
0
100
AcDbDictionary
281
     1
  3
ACAD_GROUP
350
D
  3
ACAD_LAYOUT
350
1A
  3
ACAD_MLINESTYLE
350
17
  3
ACAD_PLOTSETTINGS
350
19
  3
ACAD_PLOTSTYLENAME
350
E
  3
ACAD_SCALELIST
350
47
  0
DICTIONARY
  5
D
102
{ACAD_REACTORS
330
C
102
}
330
C
100
AcDbDictionary
281
     1
  0
DICTIONARY
  5
1A
102
{ACAD_REACTORS
330
C
102
}
330
C
100
AcDbDictionary
281
     1
  3
Layout1
350
1E
  3
Layout2
350
26
  3
Model
350
22
  0
DICTIONARY
  5
17
102
{ACAD_REACTORS
330
C
102
}
330
C
100
AcDbDictionary
281
     1
  3
Standard
350
18
  0
DICTIONARY
  5
19
102
{ACAD_REACTORS
330
C
102
}
330
C
100
AcDbDictionary
281
     1
  0
ACDBDICTIONARYWDFLT
  5
E
102
{ACAD_REACTORS
330
C
102
}
330
C
100
AcDbDictionary
281
     1
  3
Normal
350
F
100
AcDbDictionaryWithDefault
340
F
  0
DICTIONARY
  5
47
102
{ACAD_REACTORS
330
C
102
}
330
C
100
AcDbDictionary
281
     1
  3
A0
350
48
  3
A1
350
49
  3
A2
350
4A
  3
A3
350
4B
  3
A4
350
4C
  3
A5
350
4D
  3
A6
350
4E
  3
A7
350
4F
  3
A8
350
50
  3
A9
350
51
  3
B0
350
52
  3
B1
350
53
  3
B2
350
54
  3
B3
350
55
  3
B4
350
56
  3
B5
350
57
  3
B6
350
58
  3
B7
350
59
  3
B8
350
5A
  3
B9
350
5B
  3
C0
350
5C
  3
C1
350
5D
  3
C2
350
5E
  3
C3
350
5F
  3
C4
350
60
  3
C5
350
61
  3
C6
350
62
  3
C7
350
63
  3
C8
350
64
  3
C9
350
65
  3
D0
350
66
  3
D1
350
67
  3
D2
350
68
  0
LAYOUT
  5
1E
102
{ACAD_REACTORS
330
1A
102
}
330
1A
100
AcDbPlotSettings
  1

  2
none_device
  4

  6

 40
0.0
 41
0.0
 42
0.0
 43
0.0
 44
0.0
 45
0.0
 46
0.0
 47
0.0
 48
0.0
 49
0.0
140
0.0
141
0.0
142
1.0
143
1.0
 70
   688
 72
     1
 73
     0
 74
     5
  7

 75
    16
147
1.0
148
0.0
149
0.0
100
AcDbLayout
  1
Layout1
 70
     1
 71
     1
 10
0.0
 20
0.0
 11
420.0
 21
297.0
 12
0.0
 22
0.0
 32
0.0
 14
1.0000000000E+20
 24
1.0000000000E+20
 34
1.0000000000E+20
 15
-1.0000000000E+20
 25
-1.0000000000E+20
 35
-1.0000000000E+20
146
0.0
 13
0.0
 23
0.0
 33
0.0
 16
1.0
 26
0.0
 36
0.0
 17
0.0
 27
1.0
 37
0.0
 76
     0
330
1B
  0
LAYOUT
  5
26
102
{ACAD_REACTORS
330
1A
102
}
330
1A
100
AcDbPlotSettings
  1

  2
none_device
  4

  6

 40
0.0
 41
0.0
 42
0.0
 43
0.0
 44
0.0
 45
0.0
 46
0.0
 47
0.0
 48
0.0
 49
0.0
140
0.0
141
0.0
142
1.0
143
1.0
 70
   688
 72
     1
 73
     0
 74
     5
  7

 75
    16
147
1.0
148
0.0
149
0.0
100
AcDbLayout
  1
Layout2
 70
     1
 71
     2
 10
0.0
 20
0.0
 11
0.0
 21
0.0
 12
0.0
 22
0.0
 32
0.0
 14
0.0
 24
0.0
 34
0.0
 15
0.0
 25
0.0
 35
0.0
146
0.0
 13
0.0
 23
0.0
 33
0.0
 16
1.0
 26
0.0
 36
0.0
 17
0.0
 27
1.0
 37
0.0
 76
     0
330
23
  0
LAYOUT
  5
22
102
{ACAD_REACTORS
330
1A
102
}
330
1A
100
AcDbPlotSettings
  1

  2
none_device
  4
Letter_(8.50_x_11.00_Inches)
  6

 40
6.35
 41
6.35
 42
6.35000508
 43
6.35000508
 44
215.9
 45
279.4
 46
0.0
 47
0.0
 48
0.0
 49
0.0
140
0.0
141
0.0
142
1.0
143
1.0
 70
  1712
 72
     1
 73
     0
 74
     0
  7

 75
     0
147
1.0
148
0.0
149
0.0
100
AcDbLayout
  1
Model
 70
     1
 71
     0
 10
0.0
 20
0.0
 11
431.8
 21
279.4
 12
0.0
 22
0.0
 32
0.0
 14
0.0
 24
0.0
 34
0.0
 15
431.8
 25
279.4
 35
0.0
146
0.0
 13
0.0
 23
0.0
 33
0.0
 16
1.0
 26
0.0
 36
0.0
 17
0.0
 27
1.0
 37
0.0
 76
     0
330
1F
331
29
  0
MLINESTYLE
  5
18
102
{ACAD_REACTORS
330
17
102
}
330
17
100
AcDbMlineStyle
  2
Standard
 70
     0
  3

 62
   256
 51
90.0
 52
90.0
 71
     2
 49
0.5
 62
   256
  6
BYLAYER
 49
-0.5
 62
   256
  6
BYLAYER
  0
ACDBPLACEHOLDER
  5
F
102
{ACAD_REACTORS
330
E
102
}
330
E
  0
SCALE
  5
48
102
{ACAD_REACTORS
330
47
102
}
330
47
100
AcDbScale
 70
     0
300
1:1
140
1.0
141
1.0
290
     1
  0
SCALE
  5
49
102
{ACAD_REACTORS
330
47
102
}
330
47
100
AcDbScale
 70
     0
300
1:2
140
1.0
141
2.0
290
     0
  0
SCALE
  5
4A
102
{ACAD_REACTORS
330
47
102
}
330
47
100
AcDbScale
 70
     0
300
1:4
140
1.0
141
4.0
290
     0
  0
SCALE
  5
4B
102
{ACAD_REACTORS
330
47
102
}
330
47
100
AcDbScale
 70
     0
300
1:5
140
1.0
141
5.0
290
     0
  0
SCALE
  5
4C
102
{ACAD_REACTORS
330
47
102
}
330
47
100
AcDbScale
 70
     0
300
1:8
140
1.0
141
8.0
290
     0
  0
SCALE
  5
4D
102
{ACAD_REACTORS
330
47
102
}
330
47
100
AcDbScale
 70
     0
300
1:10
140
1.0
141
10.0
290
     0
  0
SCALE
  5
4E
102
{ACAD_REACTORS
330
47
102
}
330
47
100
AcDbScale
 70
     0
300
1:16
140
1.0
141
16.0
290
     0
  0
SCALE
  5
4F
102
{ACAD_REACTORS
330
47
102
}
330
47
100
AcDbScale
 70
     0
300
1:20
140
1.0
141
20.0
290
     0
  0
SCALE
  5
50
102
{ACAD_REACTORS
330
47
102
}
330
47
100
AcDbScale
 70
     0
300
1:30
140
1.0
141
30.0
290
     0
  0
SCALE
  5
51
102
{ACAD_REACTORS
330
47
102
}
330
47
100
AcDbScale
 70
     0
300
1:40
140
1.0
141
40.0
290
     0
  0
SCALE
  5
52
102
{ACAD_REACTORS
330
47
102
}
330
47
100
AcDbScale
 70
     0
300
1:50
140
1.0
141
50.0
290
     0
  0
SCALE
  5
53
102
{ACAD_REACTORS
330
47
102
}
330
47
100
AcDbScale
 70
     0
300
1:100
140
1.0
141
100.0
290
     0
  0
SCALE
  5
54
102
{ACAD_REACTORS
330
47
102
}
330
47
100
AcDbScale
 70
     0
300
2:1
140
2.0
141
1.0
290
     0
  0
SCALE
  5
55
102
{ACAD_REACTORS
330
47
102
}
330
47
100
AcDbScale
 70
     0
300
4:1
140
4.0
141
1.0
290
     0
  0
SCALE
  5
56
102
{ACAD_REACTORS
330
47
102
}
330
47
100
AcDbScale
 70
     0
300
8:1
140
8.0
141
1.0
290
     0
  0
SCALE
  5
57
102
{ACAD_REACTORS
330
47
102
}
330
47
100
AcDbScale
 70
     0
300
10:1
140
10.0
141
1.0
290
     0
  0
SCALE
  5
58
102
{ACAD_REACTORS
330
47
102
}
330
47
100
AcDbScale
 70
     0
300
100:1
140
100.0
141
1.0
290
     0
  0
SCALE
  5
59
102
{ACAD_REACTORS
330
47
102
}
330
47
100
AcDbScale
 70
     0
300
1/128" = 1'-0"
140
0.0078125
141
12.0
290
     0
  0
SCALE
  5
5A
102
{ACAD_REACTORS
330
47
102
}
330
47
100
AcDbScale
 70
     0
300
1/64" = 1'-0"
140
0.015625
141
12.0
290
     0
  0
SCALE
  5
5B
102
{ACAD_REACTORS
330
47
102
}
330
47
100
AcDbScale
 70
     0
300
1/32" = 1'-0"
140
0.03125
141
12.0
290
     0
  0
SCALE
  5
5C
102
{ACAD_REACTORS
330
47
102
}
330
47
100
AcDbScale
 70
     0
300
1/16" = 1'-0"
140
0.0625
141
12.0
290
     0
  0
SCALE
  5
5D
102
{ACAD_REACTORS
330
47
102
}
330
47
100
AcDbScale
 70
     0
300
3/32" = 1'-0"
140
0.09375
141
12.0
290
     0
  0
SCALE
  5
5E
102
{ACAD_REACTORS
330
47
102
}
330
47
100
AcDbScale
 70
     0
300
1/8" = 1'-0"
140
0.125
141
12.0
290
     0
  0
SCALE
  5
5F
102
{ACAD_REACTORS
330
47
102
}
330
47
100
AcDbScale
 70
     0
300
3/16" = 1'-0"
140
0.1875
141
12.0
290
     0
  0
SCALE
  5
60
102
{ACAD_REACTORS
330
47
102
}
330
47
100
AcDbScale
 70
     0
300
1/4" = 1'-0"
140
0.25
141
12.0
290
     0
  0
SCALE
  5
61
102
{ACAD_REACTORS
330
47
102
}
330
47
100
AcDbScale
 70
     0
300
3/8" = 1'-0"
140
0.375
141
12.0
290
     0
  0
SCALE
  5
62
102
{ACAD_REACTORS
330
47
102
}
330
47
100
AcDbScale
 70
     0
300
1/2" = 1'-0"
140
0.5
141
12.0
290
     0
  0
SCALE
  5
63
102
{ACAD_REACTORS
330
47
102
}
330
47
100
AcDbScale
 70
     0
300
3/4" = 1'-0"
140
0.75
141
12.0
290
     0
  0
SCALE
  5
64
102
{ACAD_REACTORS
330
47
102
}
330
47
100
AcDbScale
 70
     0
300
1" = 1'-0"
140
1.0
141
12.0
290
     0
  0
SCALE
  5
65
102
{ACAD_REACTORS
330
47
102
}
330
47
100
AcDbScale
 70
     0
300
1-1/2" = 1'-0"
140
1.5
141
12.0
290
     0
  0
SCALE
  5
66
102
{ACAD_REACTORS
330
47
102
}
330
47
100
AcDbScale
 70
     0
300
3" = 1'-0"
140
3.0
141
12.0
290
     0
  0
SCALE
  5
67
102
{ACAD_REACTORS
330
47
102
}
330
47
100
AcDbScale
 70
     0
300
6" = 1'-0"
140
6.0
141
12.0
290
     0
  0
SCALE
  5
68
102
{ACAD_REACTORS
330
47
102
}
330
47
100
AcDbScale
 70
     0
300
1'-0" = 1'-0"
140
12.0
141
12.0
290
     0
  0
ENDSEC
  0
EOF
