  0
SECTION
  2
HEADER
  9
$ACADVER
  1
AC1015
  9
$ACADMAINTVER
 70
     6
  9
$DWGCODEPAGE
  3
DOS932
  9
$INSBASE
 10
0.0
 20
0.0
 30
0.0
  9
$EXTMIN
 10
0.0
 20
0.0
 30
0.0
  9
$EXTMAX
 10
431.8
 20
279.4
 30
0.0
  9
$LIMMIN
 10
0.0
 20
0.0
  9
$LIMMAX
 10
431.8
 20
279.4
  9
$ORTHOMODE
 70
     0
  9
$REGENMODE
 70
     1
  9
$FILLMODE
 70
     1
  9
$QTEXTMODE
 70
     0
  9
$MIRRTEXT
 70
     1
  9
$LTSCALE
 40
1.0
  9
$ATTMODE
 70
     1
  9
$TEXTSIZE
 40
3.5
  9
$TRACEWID
 40
1.0
  9
$TEXTSTYLE
  7
Standard
  9
$CLAYER
  8
0
  9
$CELTYPE
  6
ByLayer
  9
$CECOLOR
 62
   256
  9
$CELTSCALE
 40
1.0
  9
$DISPSILH
 70
     0
  9
$DIMSCALE
 40
1.0
  9
$DIMASZ
 40
3.302
  9
$DIMEXO
 40
1.0
  9
$DIMDLI
 40
3.75
  9
$DIMRND
 40
0.0
  9
$DIMDLE
 40
0.0
  9
$DIMEXE
 40
1.0
  9
$DIMTP
 40
0.0
  9
$DIMTM
 40
0.0
  9
$DIMTXT
 40
3.5
  9
$DIMCEN
 40
2.5
  9
$DIMTSZ
 40
0.0
  9
$DIMTOL
 70
     0
  9
$DIMLIM
 70
     0
  9
$DIMTIH
 70
     1
  9
$DIMTOH
 70
     1
  9
$DIMSE1
 70
     0
  9
$DIMSE2
 70
     0
  9
$DIMTAD
 70
     1
  9
$DIMZIN
 70
     1
  9
$DIMBLK
  1

  9
$DIMASO
 70
     1
  9
$DIMSHO
 70
     1
  9
$DIMPOST
  1

  9
$DIMAPOST
  1

  9
$DIMALT
 70
     0
  9
$DIMALTD
 70
     3
  9
$DIMALTF
 40
0.0393700787
  9
$DIMLFAC
 40
1.0
  9
$DIMTOFL
 70
     1
  9
$DIMTVP
 40
0.0
  9
$DIMTIX
 70
     0
  9
$DIMSOXD
 70
     0
  9
$DIMSAH
 70
     0
  9
$DIMBLK1
  1

  9
$DIMBLK2
  1

  9
$DIMSTYLE
  2
ISO-25
  9
$DIMCLRD
 70
     0
  9
$DIMCLRE
 70
     0
  9
$DIMCLRT
 70
     0
  9
$DIMTFAC
 40
1.0
  9
$DIMGAP
 40
1.524
  9
$DIMJUST
 70
     0
  9
$DIMSD1
 70
     0
  9
$DIMSD2
 70
     0
  9
$DIMTOLJ
 70
     0
  9
$DIMTZIN
 70
     1
  9
$DIMALTZ
 70
     0
  9
$DIMALTTZ
 70
     0
  9
$DIMUPT
 70
     0
  9
$DIMDEC
 70
     2
  9
$DIMTDEC
 70
     2
  9
$DIMALTU
 70
     2
  9
$DIMALTTD
 70
     3
  9
$DIMTXSTY
  7
Standard
  9
$DIMAUNIT
 70
     0
  9
$DIMADEC
 70
     2
  9
$DIMALTRND
 40
0.0
  9
$DIMAZIN
 70
     0
  9
$DIMDSEP
 70
    44
  9
$DIMATFIT
 70
     3
  9
$DIMFRAC
 70
     0
  9
$DIMLDRBLK
  1

  9
$DIMLUNIT
 70
     2
  9
$DIMLWD
 70
    -2
  9
$DIMLWE
 70
    -2
  9
$DIMTMOVE
 70
     0
  9
$LUNITS
 70
     2
  9
$LUPREC
 70
     2
  9
$SKETCHINC
 40
1.0
  9
$FILLETRAD
 40
10.0
  9
$AUNITS
 70
     0
  9
$AUPREC
 70
     2
  9
$MENU
  1
.
  9
$ELEVATION
 40
0.0
  9
$PELEVATION
 40
0.0
  9
$THICKNESS
 40
0.0
  9
$LIMCHECK
 70
     0
  9
$CHAMFERA
 40
0.0
  9
$CHAMFERB
 40
0.0
  9
$CHAMFERC
 40
0.0
  9
$CHAMFERD
 40
0.0
  9
$SKPOLY
 70
     0
  9
$TDCREATE
 40
2459227.768408055
  9
$TDUCREATE
 40
2459227.393408055
  9
$TDUPDATE
 40
2459227.768408634
  9
$TDUUPDATE
 40
2459227.393408634
  9
$TDINDWG
 40
0.0000000116
  9
$TDUSRTIMER
 40
0.0000000116
  9
$USRTIMER
 70
     1
  9
$ANGBASE
 50
0.0
  9
$ANGDIR
 70
     0
  9
$PDMODE
 70
     0
  9
$PDSIZE
 40
-1.0
  9
$PLINEWID
 40
0.0
  9
$SPLFRAME
 70
     0
  9
$SPLINETYPE
 70
     6
  9
$SPLINESEGS
 70
     8
  9
$HANDSEED
  5
10D
  9
$SURFTAB1
 70
     6
  9
$SURFTAB2
 70
     6
  9
$SURFTYPE
 70
     6
  9
$SURFU
 70
     6
  9
$SURFV
 70
     6
  9
$UCSBASE
  2

  9
$UCSNAME
  2

  9
$UCSORG
 10
0.0
 20
0.0
 30
0.0
  9
$UCSXDIR
 10
1.0
 20
0.0
 30
0.0
  9
$UCSYDIR
 10
0.0
 20
1.0
 30
0.0
  9
$UCSORTHOREF
  2

  9
$UCSORTHOVIEW
 70
     0
  9
$UCSORGTOP
 10
0.0
 20
0.0
 30
0.0
  9
$UCSORGBOTTOM
 10
0.0
 20
0.0
 30
0.0
  9
$UCSORGLEFT
 10
0.0
 20
0.0
 30
0.0
  9
$UCSORGRIGHT
 10
0.0
 20
0.0
 30
0.0
  9
$UCSORGFRONT
 10
0.0
 20
0.0
 30
0.0
  9
$UCSORGBACK
 10
0.0
 20
0.0
 30
0.0
  9
$PUCSBASE
  2

  9
$PUCSNAME
  2

  9
$PUCSORG
 10
0.0
 20
0.0
 30
0.0
  9
$PUCSXDIR
 10
1.0
 20
0.0
 30
0.0
  9
$PUCSYDIR
 10
0.0
 20
1.0
 30
0.0
  9
$PUCSORTHOREF
  2

  9
$PUCSORTHOVIEW
 70
     0
  9
$PUCSORGTOP
 10
0.0
 20
0.0
 30
0.0
  9
$PUCSORGBOTTOM
 10
0.0
 20
0.0
 30
0.0
  9
$PUCSORGLEFT
 10
0.0
 20
0.0
 30
0.0
  9
$PUCSORGRIGHT
 10
0.0
 20
0.0
 30
0.0
  9
$PUCSORGFRONT
 10
0.0
 20
0.0
 30
0.0
  9
$PUCSORGBACK
 10
0.0
 20
0.0
 30
0.0
  9
$USERI1
 70
     0
  9
$USERI2
 70
     0
  9
$USERI3
 70
     0
  9
$USERI4
 70
     0
  9
$USERI5
 70
     0
  9
$USERR1
 40
0.0
  9
$USERR2
 40
0.0
  9
$USERR3
 40
0.0
  9
$USERR4
 40
0.0
  9
$USERR5
 40
0.0
  9
$WORLDVIEW
 70
     1
  9
$SHADEDGE
 70
     3
  9
$SHADEDIF
 70
    70
  9
$TILEMODE
 70
     1
  9
$MAXACTVP
 70
    64
  9
$PINSBASE
 10
0.0
 20
0.0
 30
0.0
  9
$PLIMCHECK
 70
     0
  9
$PEXTMIN
 10
1.0000000000E+20
 20
1.0000000000E+20
 30
1.0000000000E+20
  9
$PEXTMAX
 10
-1.0000000000E+20
 20
-1.0000000000E+20
 30
-1.0000000000E+20
  9
$PLIMMIN
 10
0.0
 20
0.0
  9
$PLIMMAX
 10
420.0
 20
297.0
  9
$UNITMODE
 70
     0
  9
$VISRETAIN
 70
     1
  9
$PLINEGEN
 70
     0
  9
$PSLTSCALE
 70
     1
  9
$TREEDEPTH
 70
  3020
  9
$CMLSTYLE
  2
Standard
  9
$CMLJUST
 70
     0
  9
$CMLSCALE
 40
20.0
  9
$PROXYGRAPHICS
 70
     1
  9
$MEASUREMENT
 70
     1
  9
$CELWEIGHT
370
    -1
  9
$ENDCAPS
280
     0
  9
$JOINSTYLE
280
     0
  9
$LWDISPLAY
290
     1
  9
$INSUNITS
 70
     4
  9
$HYPERLINKBASE
  1

  9
$STYLESHEET
  1

  9
$XEDIT
290
     1
  9
$CEPSNTYPE
380
     0
  9
$PSTYLEMODE
290
     1
  9
$FINGERPRINTGUID
  2
{1D3FF1DB-437B-4277-9548-C95CB4F860CE}
  9
$VERSIONGUID
  2
{FAEB1C32-E019-11D5-929B-00C0DF256EC4}
  9
$EXTNAMES
290
     1
  9
$PSVPSCALE
 40
0.0
  9
$OLESTARTUP
290
     0
  0
ENDSEC
  0
SECTION
  2
CLASSES
  0
CLASS
  1
ACDBDICTIONARYWDFLT
  2
AcDbDictionaryWithDefault
  3
ObjectDBX Classes
 90
        0
280
     0
281
     0
  0
CLASS
  1
VISUALSTYLE
  2
AcDbVisualStyle
  3
ObjectDBX Classes
 90
     4095
280
     0
281
     0
  0
CLASS
  1
MATERIAL
  2
AcDbMaterial
  3
ObjectDBX Classes
 90
     1153
280
     0
281
     0
  0
CLASS
  1
SCALE
  2
AcDbScale
  3
ObjectDBX Classes
 90
     1153
280
     0
281
     0
  0
CLASS
  1
TABLESTYLE
  2
AcDbTableStyle
  3
ObjectDBX Classes
 90
     4095
280
     0
281
     0
  0
CLASS
  1
MLEADERSTYLE
  2
AcDbMLeaderStyle
  3
ACDB_MLEADERSTYLE_CLASS
 90
     4095
280
     0
281
     0
  0
CLASS
  1
SUN
  2
AcDbSun
  3
SCENEOE
 90
     1153
280
     0
281
     0
  0
CLASS
  1
ACDBPLACEHOLDER
  2
AcDbPlaceHolder
  3
ObjectDBX Classes
 90
        0
280
     0
281
     0
  0
CLASS
  1
LAYOUT
  2
AcDbLayout
  3
ObjectDBX Classes
 90
        0
280
     0
281
     0
  0
ENDSEC
  0
SECTION
  2
TABLES
  0
TABLE
  2
VPORT
  5
8
330
0
100
AcDbSymbolTable
 70
     1
  0
VPORT
  5
29
330
8
100
AcDbSymbolTableRecord
100
AcDbViewportTableRecord
  2
*Active
 70
     0
 10
0.0
 20
0.0
 11
1.0
 21
1.0
 12
215.9
 22
139.7
 13
0.0
 23
0.0
 14
10.0
 24
10.0
 15
10.0
 25
10.0
 16
0.0
 26
0.0
 36
1.0
 17
0.0
 27
0.0
 37
0.0
 40
279.4
 41
1.5454545455
 42
50.0
 43
0.0
 44
0.0
 50
0.0
 51
0.0
 71
     0
 72
  2000
 73
     1
 74
     3
 75
     0
 76
     0
 77
     0
 78
     0
281
     0
 65
     1
110
0.0
120
0.0
130
0.0
111
1.0
121
0.0
131
0.0
112
0.0
122
1.0
132
0.0
 79
     0
146
0.0
  0
ENDTAB
  0
TABLE
  2
LTYPE
  5
5
330
0
100
AcDbSymbolTable
 70
     6
  0
LTYPE
  5
14
330
5
100
AcDbSymbolTableRecord
100
AcDbLinetypeTableRecord
  2
ByBlock
 70
     0
  3

 72
    65
 73
     0
 40
0.0
  0
LTYPE
  5
15
330
5
100
AcDbSymbolTableRecord
100
AcDbLinetypeTableRecord
  2
ByLayer
 70
     0
  3

 72
    65
 73
     0
 40
0.0
  0
LTYPE
  5
16
330
5
100
AcDbSymbolTableRecord
100
AcDbLinetypeTableRecord
  2
Continuous
 70
     0
  3
Solid line
 72
    65
 73
     0
 40
0.0
  0
LTYPE
  5
6E
330
5
100
AcDbSymbolTableRecord
100
AcDbLinetypeTableRecord
  2
HIDDEN
 70
     0
  3
Hidden __ __ __ __ __ __ __ __ __ __ __ __ __ __
 72
    65
 73
     2
 40
1.905
 49
1.27
 74
     0
 49
-0.635
 74
     0
  0
LTYPE
  5
6F
330
5
100
AcDbSymbolTableRecord
100
AcDbLinetypeTableRecord
  2
PHANTOM
 70
     0
  3
Phantom ______  __  __  ______  __  __  ______
 72
    65
 73
     6
 40
12.7
 49
6.35
 74
     0
 49
-1.27
 74
     0
 49
1.27
 74
     0
 49
-1.27
 74
     0
 49
1.27
 74
     0
 49
-1.27
 74
     0
  0
LTYPE
  5
70
330
5
100
AcDbSymbolTableRecord
100
AcDbLinetypeTableRecord
  2
CENTER
 70
     0
  3
Center ____ _ ____ _ ____ _ ____ _ ____ _ ____
 72
    65
 73
     4
 40
10.16
 49
6.35
 74
     0
 49
-1.27
 74
     0
 49
1.27
 74
     0
 49
-1.27
 74
     0
  0
LTYPE
  5
71
330
5
100
AcDbSymbolTableRecord
100
AcDbLinetypeTableRecord
  2
CENTERX2
 70
     0
  3
Center (2x) ________  __  ________  __  _____
 72
    65
 73
     4
 40
20.32
 49
12.7
 74
     0
 49
-2.54
 74
     0
 49
2.54
 74
     0
 49
-2.54
 74
     0
  0
LTYPE
  5
72
330
5
100
AcDbSymbolTableRecord
100
AcDbLinetypeTableRecord
  2
DOT2
 70
     0
  3
Dot (.5x) ........................................
 72
    65
 73
     2
 40
0.635
 49
0.0
 74
     0
 49
-0.635
 74
     0
  0
ENDTAB
  0
TABLE
  2
LAYER
  5
2
330
0
100
AcDbSymbolTable
 70
     1
  0
LAYER
  5
10
330
2
100
AcDbSymbolTableRecord
100
AcDbLayerTableRecord
  2
0
 70
     0
 62
     7
  6
Continuous
370
    -3
390
F
  0
ENDTAB
  0
TABLE
  2
STYLE
  5
3
330
0
100
AcDbSymbolTable
 70
     2
  0
STYLE
  5
11
330
3
100
AcDbSymbolTableRecord
100
AcDbTextStyleTableRecord
  2
Standard
 70
     0
 40
0.0
 41
1.0
 50
0.0
 71
     0
 42
3.5
  3
txt
  4
bigfont
  0
STYLE
  5
73
330
3
100
AcDbSymbolTableRecord
100
AcDbTextStyleTableRecord
  2
SLDTEXTSTYLE0
 70
     0
 40
0.0
 41
0.7
 50
0.0
 71
     0
 42
3.5
  3
TXT
  4
bigfont
  0
ENDTAB
  0
TABLE
  2
VIEW
  5
6
330
0
100
AcDbSymbolTable
 70
     0
  0
ENDTAB
  0
TABLE
  2
UCS
  5
7
330
0
100
AcDbSymbolTable
 70
     0
  0
ENDTAB
  0
TABLE
  2
APPID
  5
9
330
0
100
AcDbSymbolTable
 70
     1
  0
APPID
  5
12
330
9
100
AcDbSymbolTableRecord
100
AcDbRegAppTableRecord
  2
ACAD
 70
     0
  0
ENDTAB
  0
TABLE
  2
DIMSTYLE
  5
A
330
0
100
AcDbSymbolTable
 70
     1
100
AcDbDimStyleTable
  0
DIMSTYLE
105
27
330
A
100
AcDbSymbolTableRecord
100
AcDbDimStyleTableRecord
  2
ISO-25
 70
     0
 41
2.5
 42
0.625
 43
3.75
 44
1.25
 73
     0
 74
     0
 77
     1
 78
     8
140
2.5
141
2.5
143
0.0393700787
147
0.625
171
     3
172
     1
178
     0
271
     2
272
     2
274
     3
278
    44
283
     0
284
     8
340
11
  0
ENDTAB
  0
TABLE
  2
BLOCK_RECORD
  5
1
330
0
100
AcDbSymbolTable
 70
     2
  0
BLOCK_RECORD
  5
1F
330
1
100
AcDbSymbolTableRecord
100
AcDbBlockTableRecord
  2
*Model_Space
340
22
  0
BLOCK_RECORD
  5
1B
330
1
100
AcDbSymbolTableRecord
100
AcDbBlockTableRecord
  2
*Paper_Space
340
1E
  0
BLOCK_RECORD
  5
23
330
1
100
AcDbSymbolTableRecord
100
AcDbBlockTableRecord
  2
*Paper_Space0
340
26
  0
BLOCK_RECORD
  5
C8
330
1
100
AcDbSymbolTableRecord
100
AcDbBlockTableRecord
  2
SW_CENTERMARKSYMBOL_0
340
0
102
{BLKREFS
331
D3
102
}
  0
ENDTAB
  0
ENDSEC
  0
SECTION
  2
BLOCKS
  0
BLOCK
  5
20
330
1F
100
AcDbEntity
  8
0
100
AcDbBlockBegin
  2
*Model_Space
 70
     0
 10
0.0
 20
0.0
 30
0.0
  3
*Model_Space
  1

  0
ENDBLK
  5
21
330
1F
100
AcDbEntity
  8
0
100
AcDbBlockEnd
  0
BLOCK
  5
1C
330
1B
100
AcDbEntity
 67
     1
  8
0
100
AcDbBlockBegin
  2
*Paper_Space
 70
     0
 10
0.0
 20
0.0
 30
0.0
  3
*Paper_Space
  1

  0
ENDBLK
  5
1D
330
1B
100
AcDbEntity
 67
     1
  8
0
100
AcDbBlockEnd
  0
BLOCK
  5
24
330
23
100
AcDbEntity
  8
0
100
AcDbBlockBegin
  2
*Paper_Space0
 70
     0
 10
0.0
 20
0.0
 30
0.0
  3
*Paper_Space0
  1

  0
ENDBLK
  5
25
330
23
100
AcDbEntity
  8
0
100
AcDbBlockEnd
  0
BLOCK
  5
C9
330
C8
100
AcDbEntity
  8
0
100
AcDbBlockBegin
  2
SW_CENTERMARKSYMBOL_0
 70
     0
 10
0.0
 20
0.0
 30
0.0
  3
SW_CENTERMARKSYMBOL_0
  1

  0
LINE
  5
CB
330
C8
100
AcDbEntity
  8
0
  6
Continuous
 62
     0
370
    18
100
AcDbLine
 10
0.0
 20
0.0
 30
0.0
 11
0.0
 21
2.5
 31
0.0
  0
LINE
  5
CC
330
C8
100
AcDbEntity
  8
0
  6
Continuous
 62
     0
370
    18
100
AcDbLine
 10
0.0
 20
0.0
 30
0.0
 11
-2.5
 21
0.0
 31
0.0
  0
LINE
  5
CD
330
C8
100
AcDbEntity
  8
0
  6
Continuous
 62
     0
370
    18
100
AcDbLine
 10
0.0
 20
0.0
 30
0.0
 11
0.0
 21
-2.5
 31
0.0
  0
LINE
  5
CE
330
C8
100
AcDbEntity
  8
0
  6
Continuous
 62
     0
370
    18
100
AcDbLine
 10
0.0
 20
0.0
 30
0.0
 11
2.5
 21
0.0
 31
0.0
  0
LINE
  5
CF
330
C8
100
AcDbEntity
  8
0
  6
Continuous
 62
     0
370
    18
100
AcDbLine
 10
0.0
 20
5.0
 30
0.0
 11
0.0
 21
20.6619876869
 31
0.0
  0
LINE
  5
D0
330
C8
100
AcDbEntity
  8
0
  6
Continuous
 62
     0
370
    18
100
AcDbLine
 10
-5.0
 20
0.0
 30
0.0
 11
-18.1969617922
 21
0.0
 31
0.0
  0
LINE
  5
D1
330
C8
100
AcDbEntity
  8
0
  6
Continuous
 62
     0
370
    18
100
AcDbLine
 10
0.0
 20
-5.0
 30
0.0
 11
0.0
 21
-20.6527813318
 31
0.0
  0
LINE
  5
D2
330
C8
100
AcDbEntity
  8
0
  6
Continuous
 62
     0
370
    18
100
AcDbLine
 10
5.0
 20
0.0
 30
0.0
 11
17.5376306318
 21
0.0
 31
0.0
  0
ENDBLK
  5
CA
330
C8
100
AcDbEntity
  8
0
100
AcDbBlockEnd
  0
ENDSEC
  0
SECTION
  2
ENTITIES
  0
MTEXT
  5
74
330
1F
100
AcDbEntity
  8
0
  6
Continuous
 62
     7
370
     0
100
AcDbMText
 10
182.7091828742
 20
119.6287689815
 30
0.0
 40
4.7625
 41
0.0
 71
     1
 72
     1
  1
5R-NS1046
  7
SLDTEXTSTYLE0
 73
     1
 44
1.0
  0
LINE
  5
75
330
1F
100
AcDbEntity
  8
0
  6
Continuous
 62
     7
370
    25
100
AcDbLine
 10
171.9276197262
 20
63.403526646
 30
0.0
 11
173.5010196532
 21
66.1287352601
 31
0.0
  0
LINE
  5
76
330
1F
100
AcDbEntity
  8
0
  6
Continuous
 62
     7
370
    25
100
AcDbLine
 10
173.5010196532
 20
97.6287352601
 30
0.0
 11
171.9276197262
 21
100.3539438742
 31
0.0
  0
LINE
  5
77
330
1F
100
AcDbEntity
  8
0
  6
Continuous
 62
     7
370
    25
100
AcDbLine
 10
129.0744195801
 20
100.3539438742
 30
0.0
 11
127.5010196532
 21
97.6287352601
 31
0.0
  0
LINE
  5
78
330
1F
100
AcDbEntity
  8
0
  6
Continuous
 62
     7
370
    25
100
AcDbLine
 10
127.5010196532
 20
66.1287352601
 30
0.0
 11
129.0744195801
 21
63.403526646
 31
0.0
  0
LINE
  5
79
330
1F
100
AcDbEntity
  8
0
  6
Continuous
 62
     7
370
    25
100
AcDbLine
 10
149.8377895039
 20
63.403526646
 30
0.0
 11
150.5010196532
 21
65.8787352601
 31
0.0
  0
LINE
  5
7A
330
1F
100
AcDbEntity
  8
0
  6
Continuous
 62
     7
370
    25
100
AcDbLine
 10
150.5010196532
 20
65.8787352601
 30
0.0
 11
151.1642498024
 21
63.403526646
 31
0.0
  0
LINE
  5
7B
330
1F
100
AcDbEntity
  8
0
  6
Continuous
 62
     7
370
    25
100
AcDbLine
 10
151.1642498024
 20
100.3539438742
 30
0.0
 11
150.5010196532
 21
97.8787352601
 31
0.0
  0
LINE
  5
7C
330
1F
100
AcDbEntity
  8
0
  6
Continuous
 62
     7
370
    25
100
AcDbLine
 10
150.5010196532
 20
97.8787352601
 30
0.0
 11
149.8377895039
 21
100.3539438742
 31
0.0
  0
LINE
  5
7D
330
1F
100
AcDbEntity
  8
0
  6
Continuous
 62
     7
370
    25
100
AcDbLine
 10
169.0010196532
 20
63.903526646
 30
0.0
 11
169.1349942494
 21
63.403526646
 31
0.0
  0
LINE
  5
7E
330
1F
100
AcDbEntity
  8
0
  6
Continuous
 62
     7
370
    25
100
AcDbLine
 10
168.867045057
 20
63.403526646
 30
0.0
 11
169.0010196532
 21
63.903526646
 31
0.0
  0
LINE
  5
7F
330
1F
100
AcDbEntity
  8
0
  6
Continuous
 62
     7
370
    25
100
AcDbLine
 10
169.1349942494
 20
100.3539438742
 30
0.0
 11
169.0010196532
 21
99.8539438742
 31
0.0
  0
LINE
  5
80
330
1F
100
AcDbEntity
  8
0
  6
Continuous
 62
     7
370
    25
100
AcDbLine
 10
169.0010196532
 20
99.8539438742
 30
0.0
 11
168.867045057
 21
100.3539438742
 31
0.0
  0
LINE
  5
81
330
1F
100
AcDbEntity
  8
0
  6
Continuous
 62
     7
370
    25
100
AcDbLine
 10
151.1642498024
 20
72.6411309531
 30
0.0
 11
168.867045057
 21
72.6411309531
 31
0.0
  0
SPLINE
  5
82
330
1F
100
AcDbEntity
  8
0
  6
Continuous
 62
     7
370
    25
100
AcDbSpline
210
0.0
220
0.0
230
1.0
 70
     8
 71
     3
 72
    10
 73
     6
 74
     0
 42
0.000000001
 43
0.00000001
 40
0.0
 40
0.0
 40
0.0
 40
0.0
 40
0.5
 40
0.5
 40
1.0
 40
1.0
 40
1.0
 40
1.0
 10
151.1642498024172
 20
72.64113095308177
 30
0.0
 10
150.9585882590013
 20
74.17620961146447
 30
0.0
 10
150.7904431208061
 20
75.72060329519483
 30
0.0
 10
150.5615078578883
 20
78.80203183132946
 30
0.0
 10
150.5010196531792
 20
80.34123192284359
 30
0.0
 10
150.5010196531792
 20
81.8787352601158
 30
0.0
  0
SPLINE
  5
83
330
1F
100
AcDbEntity
  8
0
  6
Continuous
 62
     7
370
    25
100
AcDbSpline
210
0.0
220
0.0
230
1.0
 70
     8
 71
     3
 72
    10
 73
     6
 74
     0
 42
0.000000001
 43
0.00000001
 40
0.0
 40
0.0
 40
0.0
 40
0.0
 40
0.5
 40
0.5
 40
1.0
 40
1.0
 40
1.0
 40
1.0
 10
150.5010196531792
 20
81.8787352601158
 30
0.0
 10
150.5010196531792
 20
83.42143668873112
 30
0.0
 10
150.5618957132027
 20
84.96243048337759
 30
0.0
 10
150.7909126618808
 20
88.0414091876513
 30
0.0
 10
150.9583408321674
 20
89.57941408973693
 30
0.0
 10
151.1642498024172
 20
91.11633956714984
 30
0.0
  0
LINE
  5
84
330
1F
100
AcDbEntity
  8
0
  6
Continuous
 62
     7
370
    25
100
AcDbLine
 10
151.1642498024
 20
91.1163395671
 30
0.0
 11
168.867045057
 21
91.1163395671
 31
0.0
  0
SPLINE
  5
85
330
1F
100
AcDbEntity
  8
0
  6
Continuous
 62
     7
370
    25
100
AcDbSpline
210
0.0
220
0.0
230
1.0
 70
     8
 71
     3
 72
     8
 73
     4
 74
     0
 42
0.000000001
 43
0.00000001
 40
0.0
 40
0.0
 40
0.0
 40
0.0
 40
1.0
 40
1.0
 40
1.0
 40
1.0
 10
169.0010196531792
 20
90.0706901378764
 30
0.0
 10
168.9584155038591
 20
90.41957797832207
 30
0.0
 10
168.9136978992383
 20
90.76811801177602
 30
0.0
 10
168.8670450569636
 20
91.11633956714984
 30
0.0
  0
SPLINE
  5
86
330
1F
100
AcDbEntity
  8
0
  6
Continuous
 62
     7
370
    25
100
AcDbSpline
210
0.0
220
0.0
230
1.0
 70
     8
 71
     3
 72
     8
 73
     4
 74
     0
 42
0.000000001
 43
0.00000001
 40
0.0
 40
0.0
 40
0.0
 40
0.0
 40
1.0
 40
1.0
 40
1.0
 40
1.0
 10
169.1349942493947
 20
91.11633956714984
 30
0.0
 10
169.0883214067839
 20
90.76796872723514
 30
0.0
 10
169.0436050102429
 20
90.41942408744892
 30
0.0
 10
169.0010196531792
 20
90.0706901378764
 30
0.0
  0
LINE
  5
87
330
1F
100
AcDbEntity
  8
0
  6
Continuous
 62
     7
370
    25
100
AcDbLine
 10
169.1349942494
 20
91.1163395671
 30
0.0
 11
171.9276197262
 21
91.1163395671
 31
0.0
  0
SPLINE
  5
88
330
1F
100
AcDbEntity
  8
0
  6
Continuous
 62
     7
370
    25
100
AcDbSpline
210
0.0
220
0.0
230
1.0
 70
     8
 71
     3
 72
    18
 73
    14
 74
     0
 42
0.000000001
 43
0.00000001
 40
0.0
 40
0.0
 40
0.0
 40
0.0
 40
0.1250000000000001
 40
0.1250000000000001
 40
0.2500000000000001
 40
0.2500000000000001
 40
0.5000000000000001
 40
0.5000000000000001
 40
0.6250000000000001
 40
0.6250000000000001
 40
0.7500000000000001
 40
0.7500000000000001
 40
1.0
 40
1.0
 40
1.0
 40
1.0
 10
171.9276197262491
 20
72.64113095308176
 30
0.0
 10
172.1448438064174
 20
73.39361724003953
 30
0.0
 10
172.3446716679464
 20
74.15492587768124
 30
0.0
 10
172.6973944248288
 20
75.68689892271077
 30
0.0
 10
172.8497358718032
 20
76.45504501905633
 30
0.0
 10
173.2224840832222
 20
78.76706037067069
 30
0.0
 10
173.3568867114781
 20
80.31866204941075
 30
0.0
 10
173.3565794163354
 20
82.66421791759613
 30
0.0
 10
173.3230442951129
 20
83.45094246313062
 30
0.0
 10
173.1907954423288
 20
85.0221365317177
 30
0.0
 10
173.0929526399165
 20
85.79950033827328
 30
0.0
 10
172.717587649286
 20
88.11034920668361
 30
0.0
 10
172.3587858525036
 20
89.62273629279912
 30
0.0
 10
171.9276197262491
 20
91.11633956714984
 30
0.0
  0
LINE
  5
89
330
1F
100
AcDbEntity
  8
0
  6
Continuous
 62
     7
370
    25
100
AcDbLine
 10
169.1349942494
 20
72.6411309531
 30
0.0
 11
171.9276197262
 21
72.6411309531
 31
0.0
  0
SPLINE
  5
8A
330
1F
100
AcDbEntity
  8
0
  6
Continuous
 62
     7
370
    25
100
AcDbSpline
210
0.0
220
0.0
230
1.0
 70
     8
 71
     3
 72
     8
 73
     4
 74
     0
 42
0.000000001
 43
0.00000001
 40
0.0
 40
0.0
 40
0.0
 40
0.0
 40
1.0
 40
1.0
 40
1.0
 40
1.0
 10
169.0010196531792
 20
73.6867803823552
 30
0.0
 10
169.0436238024992
 20
73.33789254190954
 30
0.0
 10
169.0883414071199
 20
72.98935250845558
 30
0.0
 10
169.1349942493947
 20
72.64113095308177
 30
0.0
  0
SPLINE
  5
8B
330
1F
100
AcDbEntity
  8
0
  6
Continuous
 62
     7
370
    25
100
AcDbSpline
210
0.0
220
0.0
230
1.0
 70
     8
 71
     3
 72
     8
 73
     4
 74
     0
 42
0.000000001
 43
0.00000001
 40
0.0
 40
0.0
 40
0.0
 40
0.0
 40
1.0
 40
1.0
 40
1.0
 40
1.0
 10
168.8670450569636
 20
72.64113095308177
 30
0.0
 10
168.9137178995744
 20
72.98950179299646
 30
0.0
 10
168.9584342961155
 20
73.33804643278268
 30
0.0
 10
169.0010196531792
 20
73.6867803823552
 30
0.0
  0
LINE
  5
8C
330
1F
100
AcDbEntity
  8
0
  6
Continuous
 62
     7
370
    25
100
AcDbLine
 10
151.1642498024
 20
63.403526646
 30
0.0
 11
168.867045057
 21
63.403526646
 31
0.0
  0
SPLINE
  5
8D
330
1F
100
AcDbEntity
  8
0
  6
Continuous
 62
     7
370
    25
100
AcDbSpline
210
0.0
220
0.0
230
1.0
 70
     8
 71
     3
 72
    10
 73
     6
 74
     0
 42
0.000000001
 43
0.00000001
 40
0.0
 40
0.0
 40
0.0
 40
0.0
 40
0.4999999999999998
 40
0.4999999999999998
 40
1.0
 40
1.0
 40
1.0
 40
1.0
 10
151.1642498024172
 20
63.4035266460476
 30
0.0
 10
150.9579824179115
 20
64.17332700496709
 30
0.0
 10
150.7904949206876
 20
64.94312736388662
 30
0.0
 10
150.5616618033673
 20
66.48272808172564
 30
0.0
 10
150.5010196531792
 20
67.25252844064516
 30
0.0
 10
150.5010196531792
 20
68.02232879956469
 30
0.0
  0
SPLINE
  5
8E
330
1F
100
AcDbEntity
  8
0
  6
Continuous
 62
     7
370
    25
100
AcDbSpline
210
0.0
220
0.0
230
1.0
 70
     8
 71
     3
 72
    10
 73
     6
 74
     0
 42
0.000000001
 43
0.00000001
 40
0.0
 40
0.0
 40
0.0
 40
0.0
 40
0.5
 40
0.5
 40
1.0
 40
1.0
 40
1.0
 40
1.0
 10
150.5010196531792
 20
68.02232879956469
 30
0.0
 10
150.5010196531792
 20
68.79212915848419
 30
0.0
 10
150.5616618033673
 20
69.5619295174037
 30
0.0
 10
150.7904949206876
 20
71.10153023524273
 30
0.0
 10
150.9579824179115
 20
71.87133059416225
 30
0.0
 10
151.1642498024172
 20
72.64113095308177
 30
0.0
  0
SPLINE
  5
8F
330
1F
100
AcDbEntity
  8
0
  6
Continuous
 62
     7
370
    25
100
AcDbSpline
210
0.0
220
0.0
230
1.0
 70
     8
 71
     3
 72
     8
 73
     4
 74
     0
 42
0.000000001
 43
0.00000001
 40
0.0
 40
0.0
 40
0.0
 40
0.0
 40
1.0
 40
1.0
 40
1.0
 40
1.0
 10
169.0010196531792
 20
72.11830623844503
 30
0.0
 10
168.9584146207493
 20
72.29275377458653
 30
0.0
 10
168.9136969602124
 20
72.46702367988735
 30
0.0
 10
168.8670450569636
 20
72.64113095308177
 30
0.0
  0
SPLINE
  5
90
330
1F
100
AcDbEntity
  8
0
  6
Continuous
 62
     7
370
    25
100
AcDbSpline
210
0.0
220
0.0
230
1.0
 70
     8
 71
     3
 72
     8
 73
     4
 74
     0
 42
0.000000001
 43
0.00000001
 40
0.0
 40
0.0
 40
0.0
 40
0.0
 40
1.0
 40
1.0
 40
1.0
 40
1.0
 10
169.1349942493947
 20
72.64113095308177
 30
0.0
 10
169.0883240858318
 20
72.46695553146739
 30
0.0
 10
169.0436075255727
 20
72.29268351232214
 30
0.0
 10
169.0010196531792
 20
72.11830623844503
 30
0.0
  0
SPLINE
  5
91
330
1F
100
AcDbEntity
  8
0
  6
Continuous
 62
     7
370
    25
100
AcDbSpline
210
0.0
220
0.0
230
1.0
 70
     8
 71
     3
 72
    16
 73
    12
 74
     0
 42
0.000000001
 43
0.00000001
 40
0.0
 40
0.0
 40
0.0
 40
0.0
 40
0.2499999999999999
 40
0.2499999999999999
 40
0.4999999999999998
 40
0.4999999999999998
 40
0.6249999999999998
 40
0.6249999999999998
 40
0.7499999999999997
 40
0.7499999999999997
 40
1.0
 40
1.0
 40
1.0
 40
1.0
 10
171.9276197262493
 20
72.64113095308178
 30
0.0
 10
172.3630358934397
 20
71.88696802907116
 30
0.0
 10
172.7218975873672
 20
71.12730679748022
 30
0.0
 10
173.2190374716217
 20
69.59214155074508
 30
0.0
 10
173.3556758141451
 20
68.81651975819055
 30
0.0
 10
173.3571767863912
 20
67.63847438120443
 30
0.0
 10
173.3237740790697
 20
67.24394428304609
 30
0.0
 10
173.193520867271
 20
66.4635222413959
 30
0.0
 10
173.0968025771926
 20
66.07592768298989
 30
0.0
 10
172.7233286842248
 20
64.92004459244899
 30
0.0
 10
172.3635787105733
 20
64.158629756913
 30
0.0
 10
171.9276197262492
 20
63.40352664604758
 30
0.0
  0
LINE
  5
92
330
1F
100
AcDbEntity
  8
0
  6
Continuous
 62
     7
370
    25
100
AcDbLine
 10
169.1349942494
 20
63.403526646
 30
0.0
 11
171.9276197262
 21
63.403526646
 31
0.0
  0
SPLINE
  5
93
330
1F
100
AcDbEntity
  8
0
  6
Continuous
 62
     7
370
    25
100
AcDbSpline
210
0.0
220
0.0
230
1.0
 70
     8
 71
     3
 72
     8
 73
     4
 74
     0
 42
0.000000001
 43
0.00000001
 40
0.0
 40
0.0
 40
0.0
 40
0.0
 40
1.0
 40
1.0
 40
1.0
 40
1.0
 10
169.0010196531792
 20
63.92635136068431
 30
0.0
 10
169.043624685609
 20
63.75190382454282
 30
0.0
 10
169.0883423461459
 20
63.57763391924201
 30
0.0
 10
169.1349942493947
 20
63.4035266460476
 30
0.0
  0
SPLINE
  5
94
330
1F
100
AcDbEntity
  8
0
  6
Continuous
 62
     7
370
    25
100
AcDbSpline
210
0.0
220
0.0
230
1.0
 70
     8
 71
     3
 72
     8
 73
     4
 74
     0
 42
0.000000001
 43
0.00000001
 40
0.0
 40
0.0
 40
0.0
 40
0.0
 40
1.0
 40
1.0
 40
1.0
 40
1.0
 10
168.8670450569636
 20
63.4035266460476
 30
0.0
 10
168.9137152205265
 20
63.57770206766196
 30
0.0
 10
168.9584317807856
 20
63.75197408680722
 30
0.0
 10
169.0010196531792
 20
63.92635136068431
 30
0.0
  0
LINE
  5
95
330
1F
100
AcDbEntity
  8
0
  6
Continuous
 62
     7
370
    25
100
AcDbLine
 10
169.0010196532
 20
72.1183062384
 30
0.0
 11
169.0010196532
 21
73.6867803824
 31
0.0
  0
SPLINE
  5
96
330
1F
100
AcDbEntity
  8
0
  6
Continuous
 62
     7
370
    25
100
AcDbSpline
210
0.0
220
0.0
230
1.0
 70
     8
 71
     3
 72
    10
 73
     6
 74
     0
 42
0.000000001
 43
0.00000001
 40
0.0
 40
0.0
 40
0.0
 40
0.0
 40
0.5
 40
0.5
 40
1.0
 40
1.0
 40
1.0
 40
1.0
 10
149.8377895039412
 20
91.11633956714984
 30
0.0
 10
150.0440568884468
 20
91.88613992606932
 30
0.0
 10
150.2115443856707
 20
92.6559402849888
 30
0.0
 10
150.4403775029911
 20
94.19554100282778
 30
0.0
 10
150.5010196531791
 20
94.96534136174726
 30
0.0
 10
150.5010196531791
 20
95.73514172066676
 30
0.0
  0
LINE
  5
97
330
1F
100
AcDbEntity
  8
0
  6
Continuous
 62
     7
370
    25
100
AcDbLine
 10
150.5010196532
 20
81.8787352601
 30
0.0
 11
150.5010196532
 21
95.7351417207
 31
0.0
  0
SPLINE
  5
98
330
1F
100
AcDbEntity
  8
0
  6
Continuous
 62
     7
370
    25
100
AcDbSpline
210
0.0
220
0.0
230
1.0
 70
     8
 71
     3
 72
    10
 73
     6
 74
     0
 42
0.000000001
 43
0.00000001
 40
0.0
 40
0.0
 40
0.0
 40
0.0
 40
0.5
 40
0.5
 40
1.0
 40
1.0
 40
1.0
 40
1.0
 10
150.5010196531792
 20
81.8787352601158
 30
0.0
 10
150.5010196531792
 20
83.42143668873112
 30
0.0
 10
150.4401435931556
 20
84.96243048337759
 30
0.0
 10
150.2111266444775
 20
88.0414091876513
 30
0.0
 10
150.0436984741909
 20
89.57941408973693
 30
0.0
 10
149.8377895039411
 20
91.11633956714984
 30
0.0
  0
LINE
  5
99
330
1F
100
AcDbEntity
  8
0
  6
Continuous
 62
     7
370
    25
100
AcDbLine
 10
150.5010196532
 20
68.0223287996
 30
0.0
 11
150.5010196532
 21
81.8787352601
 31
0.0
  0
LINE
  5
9A
330
1F
100
AcDbEntity
  8
0
  6
Continuous
 62
     7
370
    25
100
AcDbLine
 10
129.0744195801
 20
91.1163395671
 30
0.0
 11
149.8377895039
 21
91.1163395671
 31
0.0
  0
SPLINE
  5
9B
330
1F
100
AcDbEntity
  8
0
  6
Continuous
 62
     7
370
    25
100
AcDbSpline
210
0.0
220
0.0
230
1.0
 70
     8
 71
     3
 72
    10
 73
     6
 74
     0
 42
0.000000001
 43
0.00000001
 40
0.0
 40
0.0
 40
0.0
 40
0.0
 40
0.5
 40
0.5
 40
1.0
 40
1.0
 40
1.0
 40
1.0
 10
149.8377895039411
 20
72.64113095308177
 30
0.0
 10
150.043451047357
 20
74.17620961146447
 30
0.0
 10
150.2115961855522
 20
75.72060329519483
 30
0.0
 10
150.4405314484701
 20
78.80203183132946
 30
0.0
 10
150.5010196531792
 20
80.34123192284359
 30
0.0
 10
150.5010196531792
 20
81.8787352601158
 30
0.0
  0
LINE
  5
9C
330
1F
100
AcDbEntity
  8
0
  6
Continuous
 62
     7
370
    25
100
AcDbLine
 10
129.0744195801
 20
72.6411309531
 30
0.0
 11
149.8377895039
 21
72.6411309531
 31
0.0
  0
SPLINE
  5
9D
330
1F
100
AcDbEntity
  8
0
  6
Continuous
 62
     7
370
    25
100
AcDbSpline
210
0.0
220
0.0
230
1.0
 70
     8
 71
     3
 72
    16
 73
    12
 74
     0
 42
0.000000001
 43
0.00000001
 40
0.0
 40
0.0
 40
0.0
 40
0.0
 40
0.2500000000000001
 40
0.2500000000000001
 40
0.5000000000000001
 40
0.5000000000000001
 40
0.6250000000000001
 40
0.6250000000000001
 40
0.7500000000000002
 40
0.7500000000000002
 40
1.0
 40
1.0
 40
1.0
 40
1.0
 10
129.0744195801092
 20
72.64113095308177
 30
0.0
 10
128.6402485661938
 20
74.14514346363222
 30
0.0
 10
128.2765945635261
 20
75.68404080452457
 30
0.0
 10
127.7794357953823
 20
78.76787477243941
 30
0.0
 10
127.6451761245261
 20
80.3193136139107
 30
0.0
 10
127.6454480481807
 20
82.66326855402993
 30
0.0
 10
127.6787989542294
 20
83.4478348415584
 30
0.0
 10
127.8110393152047
 20
85.02048236738067
 30
0.0
 10
127.9089233059771
 20
85.79838388017141
 30
0.0
 10
128.2844217756771
 20
88.11038662438686
 30
0.0
 10
128.6433115428875
 20
89.6229375191112
 30
0.0
 10
129.0744195801092
 20
91.11633956714984
 30
0.0
  0
SPLINE
  5
9E
330
1F
100
AcDbEntity
  8
0
  6
Continuous
 62
     7
370
    25
100
AcDbSpline
210
0.0
220
0.0
230
1.0
 70
     8
 71
     3
 72
    16
 73
    12
 74
     0
 42
0.000000001
 43
0.00000001
 40
0.0
 40
0.0
 40
0.0
 40
0.0
 40
0.2500000000000001
 40
0.2500000000000001
 40
0.5000000000000001
 40
0.5000000000000001
 40
0.6250000000000001
 40
0.6250000000000001
 40
0.7500000000000002
 40
0.7500000000000002
 40
1.0
 40
1.0
 40
1.0
 40
1.0
 10
171.9276197262493
 20
100.3539438741837
 30
0.0
 10
172.3630358934396
 20
99.5997809501731
 30
0.0
 10
172.7218975873672
 20
98.8401197185822
 30
0.0
 10
173.2190374716216
 20
97.3049544718471
 30
0.0
 10
173.3556758141451
 20
96.52933267929261
 30
0.0
 10
173.3571767863912
 20
95.35128730230653
 30
0.0
 10
173.3237740790696
 20
94.9567572041482
 30
0.0
 10
173.193520867271
 20
94.17633516249805
 30
0.0
 10
173.0968025771926
 20
93.78874060409204
 30
0.0
 10
172.7233286842248
 20
92.6328575135512
 30
0.0
 10
172.3635787105733
 20
91.87144267801521
 30
0.0
 10
171.9276197262492
 20
91.11633956714984
 30
0.0
  0
LINE
  5
9F
330
1F
100
AcDbEntity
  8
0
  6
Continuous
 62
     7
370
    25
100
AcDbLine
 10
173.5010196532
 20
97.6287352601
 30
0.0
 11
173.5010196532
 21
66.1287352601
 31
0.0
  0
SPLINE
  5
A0
330
1F
100
AcDbEntity
  8
0
  6
Continuous
 62
     7
370
    25
100
AcDbSpline
210
0.0
220
0.0
230
1.0
 70
     8
 71
     3
 72
    10
 73
     6
 74
     0
 42
0.000000001
 43
0.00000001
 40
0.0
 40
0.0
 40
0.0
 40
0.0
 40
0.5
 40
0.5
 40
1.0
 40
1.0
 40
1.0
 40
1.0
 10
151.1642498024172
 20
91.11633956714984
 30
0.0
 10
150.9579824179115
 20
91.88613992606932
 30
0.0
 10
150.7904949206876
 20
92.6559402849888
 30
0.0
 10
150.5616618033673
 20
94.19554100282778
 30
0.0
 10
150.5010196531792
 20
94.96534136174726
 30
0.0
 10
150.5010196531792
 20
95.73514172066676
 30
0.0
  0
SPLINE
  5
A1
330
1F
100
AcDbEntity
  8
0
  6
Continuous
 62
     7
370
    25
100
AcDbSpline
210
0.0
220
0.0
230
1.0
 70
     8
 71
     3
 72
    16
 73
    12
 74
     0
 42
0.000000001
 43
0.00000001
 40
0.0
 40
0.0
 40
0.0
 40
0.0
 40
0.25
 40
0.25
 40
0.5
 40
0.5
 40
0.625
 40
0.625
 40
0.75
 40
0.75
 40
1.0
 40
1.0
 40
1.0
 40
1.0
 10
129.074419580109
 20
63.40352664604758
 30
0.0
 10
128.6390034129186
 20
64.15768957005818
 30
0.0
 10
128.2801417189911
 20
64.91735080164912
 30
0.0
 10
127.7830018347367
 20
66.45251604838428
 30
0.0
 10
127.6463634922132
 20
67.22813784093881
 30
0.0
 10
127.6448625199671
 20
68.40618321792492
 30
0.0
 10
127.6782652272887
 20
68.80071331608328
 30
0.0
 10
127.8085184390873
 20
69.58113535773344
 30
0.0
 10
127.9052367291657
 20
69.96872991613948
 30
0.0
 10
128.2787106221335
 20
71.12461300668035
 30
0.0
 10
128.638460595785
 20
71.88602784221635
 30
0.0
 10
129.0744195801091
 20
72.64113095308178
 30
0.0
  0
SPLINE
  5
A2
330
1F
100
AcDbEntity
  8
0
  6
Continuous
 62
     7
370
    25
100
AcDbSpline
210
0.0
220
0.0
230
1.0
 70
     8
 71
     3
 72
    16
 73
    12
 74
     0
 42
0.000000001
 43
0.00000001
 40
0.0
 40
0.0
 40
0.0
 40
0.0
 40
0.2500000000000001
 40
0.2500000000000001
 40
0.5000000000000001
 40
0.5000000000000001
 40
0.625
 40
0.625
 40
0.7499999999999999
 40
0.7499999999999999
 40
1.0
 40
1.0
 40
1.0
 40
1.0
 10
129.074419580109
 20
91.11633956714982
 30
0.0
 10
128.6390034129186
 20
91.87050249116041
 30
0.0
 10
128.2801417189911
 20
92.63016372275132
 30
0.0
 10
127.7830018347367
 20
94.16532896948641
 30
0.0
 10
127.6463634922133
 20
94.94095076204091
 30
0.0
 10
127.6448625199671
 20
96.11899613902698
 30
0.0
 10
127.6782652272887
 20
96.51352623718532
 30
0.0
 10
127.8085184390874
 20
97.29394827883547
 30
0.0
 10
127.9052367291657
 20
97.68154283724148
 30
0.0
 10
128.2787106221335
 20
98.83742592778232
 30
0.0
 10
128.6384605957851
 20
99.5988407633183
 30
0.0
 10
129.0744195801091
 20
100.3539438741837
 30
0.0
  0
LINE
  5
A3
330
1F
100
AcDbEntity
  8
0
  6
Continuous
 62
     7
370
    25
100
AcDbLine
 10
127.5010196532
 20
81.8787352601
 30
0.0
 11
127.5010196532
 21
97.6287352601
 31
0.0
  0
LINE
  5
A4
330
1F
100
AcDbEntity
  8
0
  6
Continuous
 62
     7
370
    25
100
AcDbLine
 10
127.5010196532
 20
66.1287352601
 30
0.0
 11
127.5010196532
 21
81.8787352601
 31
0.0
  0
LINE
  5
A5
330
1F
100
AcDbEntity
  8
0
  6
Continuous
 62
     7
370
    25
100
AcDbLine
 10
169.0010196532
 20
90.0706901379
 30
0.0
 11
169.0010196532
 21
91.6391642818
 31
0.0
  0
SPLINE
  5
A6
330
1F
100
AcDbEntity
  8
0
  6
Continuous
 62
     7
370
    25
100
AcDbSpline
210
0.0
220
0.0
230
1.0
 70
     8
 71
     3
 72
     8
 73
     4
 74
     0
 42
0.000000001
 43
0.00000001
 40
0.0
 40
0.0
 40
0.0
 40
0.0
 40
1.0
 40
1.0
 40
1.0
 40
1.0
 10
169.0010196531792
 20
91.63916428178656
 30
0.0
 10
169.043624685609
 20
91.46471674564506
 30
0.0
 10
169.0883423461459
 20
91.29044684034425
 30
0.0
 10
169.1349942493947
 20
91.11633956714984
 30
0.0
  0
SPLINE
  5
A7
330
1F
100
AcDbEntity
  8
0
  6
Continuous
 62
     7
370
    25
100
AcDbSpline
210
0.0
220
0.0
230
1.0
 70
     8
 71
     3
 72
    10
 73
     6
 74
     0
 42
0.000000001
 43
0.00000001
 40
0.0
 40
0.0
 40
0.0
 40
0.0
 40
0.5
 40
0.5
 40
1.0
 40
1.0
 40
1.0
 40
1.0
 10
150.5010196531792
 20
68.02232879956469
 30
0.0
 10
150.5010196531792
 20
68.79212915848419
 30
0.0
 10
150.4403775029911
 20
69.5619295174037
 30
0.0
 10
150.2115443856707
 20
71.10153023524273
 30
0.0
 10
150.0440568884468
 20
71.87133059416225
 30
0.0
 10
149.8377895039412
 20
72.64113095308177
 30
0.0
  0
SPLINE
  5
A8
330
1F
100
AcDbEntity
  8
0
  6
Continuous
 62
     7
370
    25
100
AcDbSpline
210
0.0
220
0.0
230
1.0
 70
     8
 71
     3
 72
     8
 73
     4
 74
     0
 42
0.000000001
 43
0.00000001
 40
0.0
 40
0.0
 40
0.0
 40
0.0
 40
1.0
 40
1.0
 40
1.0
 40
1.0
 10
168.8670450569636
 20
91.11633956714984
 30
0.0
 10
168.9137152205265
 20
91.2905149887642
 30
0.0
 10
168.9584317807856
 20
91.46478700790945
 30
0.0
 10
169.0010196531792
 20
91.63916428178656
 30
0.0
  0
SPLINE
  5
A9
330
1F
100
AcDbEntity
  8
0
  6
Continuous
 62
     7
370
    25
100
AcDbSpline
210
0.0
220
0.0
230
1.0
 70
     8
 71
     3
 72
    10
 73
     6
 74
     0
 42
0.000000001
 43
0.00000001
 40
0.0
 40
0.0
 40
0.0
 40
0.0
 40
0.4999999999999998
 40
0.4999999999999998
 40
1.0
 40
1.0
 40
1.0
 40
1.0
 10
149.8377895039412
 20
63.4035266460476
 30
0.0
 10
150.0440568884468
 20
64.17332700496709
 30
0.0
 10
150.2115443856707
 20
64.94312736388662
 30
0.0
 10
150.4403775029911
 20
66.48272808172564
 30
0.0
 10
150.5010196531792
 20
67.25252844064516
 30
0.0
 10
150.5010196531792
 20
68.02232879956469
 30
0.0
  0
LINE
  5
AA
330
1F
100
AcDbEntity
  8
0
  6
Continuous
 62
     7
370
    25
100
AcDbLine
 10
129.0744195801
 20
63.403526646
 30
0.0
 11
149.8377895039
 21
63.403526646
 31
0.0
  0
SPLINE
  5
AB
330
1F
100
AcDbEntity
  8
0
  6
Continuous
 62
     7
370
    25
100
AcDbSpline
210
0.0
220
0.0
230
1.0
 70
     8
 71
     3
 72
    10
 73
     6
 74
     0
 42
0.000000001
 43
0.00000001
 40
0.0
 40
0.0
 40
0.0
 40
0.0
 40
0.5
 40
0.5
 40
1.0
 40
1.0
 40
1.0
 40
1.0
 10
150.5010196531792
 20
95.73514172066676
 30
0.0
 10
150.5010196531792
 20
96.50494207958624
 30
0.0
 10
150.5616618033673
 20
97.27474243850573
 30
0.0
 10
150.7904949206876
 20
98.8143431563447
 30
0.0
 10
150.9579824179115
 20
99.58414351526417
 30
0.0
 10
151.1642498024172
 20
100.3539438741837
 30
0.0
  0
LINE
  5
AC
330
1F
100
AcDbEntity
  8
0
  6
Continuous
 62
     7
370
    25
100
AcDbLine
 10
151.1642498024
 20
100.3539438742
 30
0.0
 11
168.867045057
 21
100.3539438742
 31
0.0
  0
SPLINE
  5
AD
330
1F
100
AcDbEntity
  8
0
  6
Continuous
 62
     7
370
    25
100
AcDbSpline
210
0.0
220
0.0
230
1.0
 70
     8
 71
     3
 72
     8
 73
     4
 74
     0
 42
0.000000001
 43
0.00000001
 40
0.0
 40
0.0
 40
0.0
 40
0.0
 40
1.0
 40
1.0
 40
1.0
 40
1.0
 10
169.0010196531792
 20
99.83111915954696
 30
0.0
 10
168.9584146207493
 20
100.0055666956885
 30
0.0
 10
168.9136969602124
 20
100.1798366009892
 30
0.0
 10
168.8670450569636
 20
100.3539438741837
 30
0.0
  0
SPLINE
  5
AE
330
1F
100
AcDbEntity
  8
0
  6
Continuous
 62
     7
370
    25
100
AcDbSpline
210
0.0
220
0.0
230
1.0
 70
     8
 71
     3
 72
     8
 73
     4
 74
     0
 42
0.000000001
 43
0.00000001
 40
0.0
 40
0.0
 40
0.0
 40
0.0
 40
1.0
 40
1.0
 40
1.0
 40
1.0
 10
169.1349942493947
 20
100.3539438741837
 30
0.0
 10
169.0883240858318
 20
100.1797684525693
 30
0.0
 10
169.0436075255727
 20
100.005496433424
 30
0.0
 10
169.0010196531792
 20
99.83111915954696
 30
0.0
  0
LINE
  5
AF
330
1F
100
AcDbEntity
  8
0
  6
Continuous
 62
     7
370
    25
100
AcDbLine
 10
169.1349942494
 20
100.3539438742
 30
0.0
 11
171.9276197262
 21
100.3539438742
 31
0.0
  0
LINE
  5
B0
330
1F
100
AcDbEntity
  8
0
  6
Continuous
 62
     7
370
    25
100
AcDbLine
 10
129.0744195801
 20
100.3539438742
 30
0.0
 11
149.8377895039
 21
100.3539438742
 31
0.0
  0
SPLINE
  5
B1
330
1F
100
AcDbEntity
  8
0
  6
Continuous
 62
     7
370
    25
100
AcDbSpline
210
0.0
220
0.0
230
1.0
 70
     8
 71
     3
 72
    10
 73
     6
 74
     0
 42
0.000000001
 43
0.00000001
 40
0.0
 40
0.0
 40
0.0
 40
0.0
 40
0.5
 40
0.5
 40
1.0
 40
1.0
 40
1.0
 40
1.0
 10
150.5010196531791
 20
95.73514172066676
 30
0.0
 10
150.5010196531791
 20
96.50494207958624
 30
0.0
 10
150.4403775029911
 20
97.27474243850573
 30
0.0
 10
150.2115443856707
 20
98.8143431563447
 30
0.0
 10
150.0440568884468
 20
99.58414351526417
 30
0.0
 10
149.8377895039412
 20
100.3539438741837
 30
0.0
  0
LINE
  5
B2
330
1F
100
AcDbEntity
  8
0
  6
Continuous
 62
     7
370
    25
100
AcDbLine
 10
150.5010196532
 20
65.8787352601
 30
0.0
 11
150.5010196532
 21
68.0223287996
 31
0.0
  0
LINE
  5
B3
330
1F
100
AcDbEntity
  8
0
  6
Continuous
 62
     7
370
    25
100
AcDbLine
 10
150.5010196532
 20
95.7351417207
 30
0.0
 11
150.5010196532
 21
97.8787352601
 31
0.0
  0
LINE
  5
B4
330
1F
100
AcDbEntity
  8
0
  6
Continuous
 62
     7
370
    25
100
AcDbLine
 10
169.0010196532
 20
63.903526646
 30
0.0
 11
169.0010196532
 21
63.9263513607
 31
0.0
  0
LINE
  5
B5
330
1F
100
AcDbEntity
  8
0
  6
Continuous
 62
     7
370
    25
100
AcDbLine
 10
169.0010196532
 20
99.8311191595
 30
0.0
 11
169.0010196532
 21
99.8539438742
 31
0.0
  0
LINE
  5
B6
330
1F
100
AcDbEntity
  8
0
  6
CENTERX2
 62
     7
370
    18
100
AcDbLine
 10
169.9276197262
 20
81.8787352601
 30
0.0
 11
175.5010196532
 21
81.8787352601
 31
0.0
  0
LINE
  5
B7
330
1F
100
AcDbEntity
  8
0
  6
CENTERX2
 62
     7
370
    18
100
AcDbLine
 10
167.1349942494
 20
81.8787352601
 30
0.0
 11
171.9276197262
 21
81.8787352601
 31
0.0
  0
LINE
  5
B8
330
1F
100
AcDbEntity
  8
0
  6
CENTERX2
 62
     7
370
    18
100
AcDbLine
 10
149.1642498024
 20
81.8787352601
 30
0.0
 11
170.867045057
 21
81.8787352601
 31
0.0
  0
LINE
  5
B9
330
1F
100
AcDbEntity
  8
0
  6
CENTERX2
 62
     7
370
    18
100
AcDbLine
 10
127.0744195801
 20
81.8787352601
 30
0.0
 11
151.8377895039
 21
81.8787352601
 31
0.0
  0
LINE
  5
BA
330
1F
100
AcDbEntity
  8
0
  6
CENTERX2
 62
     7
370
    18
100
AcDbLine
 10
131.0744195801
 20
81.8787352601
 30
0.0
 11
125.5010196532
 21
81.8787352601
 31
0.0
  0
CIRCLE
  5
BB
330
1F
100
AcDbEntity
  8
0
  6
Continuous
 62
     7
370
    25
100
AcDbCircle
 10
225.9487098266
 20
81.8787352601
 30
0.0
 40
15.75
  0
CIRCLE
  5
BC
330
1F
100
AcDbEntity
  8
0
  6
Continuous
 62
     7
370
    25
100
AcDbCircle
 10
225.9487098266
 20
81.8787352601
 30
0.0
 40
13.5
  0
SPLINE
  5
BD
330
1F
100
AcDbEntity
  8
0
  6
Continuous
 62
     7
370
    25
100
AcDbSpline
210
0.0
220
0.0
230
1.0
 70
    24
 71
     3
 72
    16
 73
    12
 74
     0
 42
0.000000001
 43
0.00000001
 40
0.0
 40
0.0
 40
0.0
 40
0.0
 40
0.2500000000000001
 40
0.2500000000000001
 40
0.5000000000000001
 40
0.5000000000000001
 40
0.6250000000000001
 40
0.6250000000000001
 40
0.7500000000000002
 40
0.7500000000000002
 40
1.0
 40
1.0
 40
1.0
 40
1.0
 10
225.9487098265896
 20
100.3539438741837
 30
0.0
 10
224.6424613250185
 20
99.5997809501731
 30
0.0
 10
223.3266894753627
 20
98.8401197185822
 30
0.0
 10
220.6677052700035
 20
97.3049544718471
 30
0.0
 10
219.3242889178414
 20
96.52933267929261
 30
0.0
 10
217.2838544712799
 20
95.35128730230653
 30
0.0
 10
216.6005082961545
 20
94.9567572041482
 30
0.0
 10
215.2487776686698
 20
94.17633516249805
 30
0.0
 10
214.5774442007734
 20
93.78874060409204
 30
0.0
 10
212.5753959603469
 20
92.6328575135512
 30
0.0
 10
211.2565867795618
 20
91.87144267801521
 30
0.0
 10
209.9487098265896
 20
91.11633956714984
 30
0.0
  0
SPLINE
  5
BE
330
1F
100
AcDbEntity
  8
0
  6
Continuous
 62
     7
370
    25
100
AcDbSpline
210
0.0
220
0.0
230
1.0
 70
    24
 71
     3
 72
    16
 73
    12
 74
     0
 42
0.000000001
 43
0.00000001
 40
0.0
 40
0.0
 40
0.0
 40
0.0
 40
0.25
 40
0.25
 40
0.5
 40
0.5
 40
0.625
 40
0.625
 40
0.75
 40
0.75
 40
1.0
 40
1.0
 40
1.0
 40
1.0
 10
241.9487098265896
 20
91.1163395671496
 30
0.0
 10
240.6424613250185
 20
91.87050249116021
 30
0.0
 10
239.3266894753627
 20
92.63016372275113
 30
0.0
 10
236.6677052700035
 20
94.16532896948627
 30
0.0
 10
235.3242889178414
 20
94.94095076204077
 30
0.0
 10
233.2838544712799
 20
96.11899613902689
 30
0.0
 10
232.6005082961545
 20
96.51352623718522
 30
0.0
 10
231.2487776686698
 20
97.29394827883539
 30
0.0
 10
230.5774442007733
 20
97.68154283724142
 30
0.0
 10
228.5753959603468
 20
98.83742592778228
 30
0.0
 10
227.2565867795618
 20
99.59884076331828
 30
0.0
 10
225.9487098265895
 20
100.3539438741837
 30
0.0
  0
SPLINE
  5
BF
330
1F
100
AcDbEntity
  8
0
  6
Continuous
 62
     7
370
    25
100
AcDbSpline
210
0.0
220
0.0
230
1.0
 70
    24
 71
     3
 72
    18
 73
    14
 74
     0
 42
0.000000001
 43
0.00000001
 40
0.0
 40
0.0
 40
0.0
 40
0.0
 40
0.125
 40
0.125
 40
0.25
 40
0.25
 40
0.4999999999999999
 40
0.4999999999999999
 40
0.625
 40
0.625
 40
0.75
 40
0.75
 40
1.0
 40
1.0
 40
1.0
 40
1.0
 10
241.9487098265895
 20
72.64113095308153
 30
0.0
 10
241.9487098265895
 20
73.39361724004095
 30
0.0
 10
241.9487098265895
 20
74.15492587768912
 30
0.0
 10
241.9487098265895
 20
75.68689892271036
 30
0.0
 10
241.9487098265895
 20
76.45504501904993
 30
0.0
 10
241.9487098265895
 20
78.76706037063978
 30
0.0
 10
241.9487098265895
 20
80.31866204935467
 30
0.0
 10
241.9487098265896
 20
82.66421791748596
 30
0.0
 10
241.9487098265896
 20
83.45094246296217
 30
0.0
 10
241.9487098265896
 20
85.02213653160919
 30
0.0
 10
241.9487098265896
 20
85.79950033818876
 30
0.0
 10
241.9487098265896
 20
88.11034920665658
 30
0.0
 10
241.9487098265896
 20
89.62273629279127
 30
0.0
 10
241.9487098265896
 20
91.11633956714961
 30
0.0
  0
SPLINE
  5
C0
330
1F
100
AcDbEntity
  8
0
  6
Continuous
 62
     7
370
    25
100
AcDbSpline
210
0.0
220
0.0
230
1.0
 70
    24
 71
     3
 72
    16
 73
    12
 74
     0
 42
0.000000001
 43
0.00000001
 40
0.0
 40
0.0
 40
0.0
 40
0.0
 40
0.2500000000000001
 40
0.2500000000000001
 40
0.5000000000000003
 40
0.5000000000000003
 40
0.6250000000000004
 40
0.6250000000000004
 40
0.7500000000000004
 40
0.7500000000000004
 40
1.0
 40
1.0
 40
1.0
 40
1.0
 10
225.9487098265894
 20
63.40352664604758
 30
0.0
 10
227.2549583281605
 20
64.15768957005817
 30
0.0
 10
228.5707301778163
 20
64.91735080164909
 30
0.0
 10
231.2297143831756
 20
66.4525160483842
 30
0.0
 10
232.5731307353377
 20
67.22813784093871
 30
0.0
 10
234.6135651818992
 20
68.40618321792479
 30
0.0
 10
235.2969113570246
 20
68.80071331608313
 30
0.0
 10
236.6486419845093
 20
69.58113535773329
 30
0.0
 10
237.3199754524058
 20
69.96872991613931
 30
0.0
 10
239.3220236928323
 20
71.12461300668016
 30
0.0
 10
240.6408328736174
 20
71.88602784221615
 30
0.0
 10
241.9487098265895
 20
72.64113095308154
 30
0.0
  0
SPLINE
  5
C1
330
1F
100
AcDbEntity
  8
0
  6
Continuous
 62
     7
370
    25
100
AcDbSpline
210
0.0
220
0.0
230
1.0
 70
    24
 71
     3
 72
    16
 73
    12
 74
     0
 42
0.000000001
 43
0.00000001
 40
0.0
 40
0.0
 40
0.0
 40
0.0
 40
0.2499999999999999
 40
0.2499999999999999
 40
0.4999999999999998
 40
0.4999999999999998
 40
0.6249999999999998
 40
0.6249999999999998
 40
0.7499999999999997
 40
0.7499999999999997
 40
1.0
 40
1.0
 40
1.0
 40
1.0
 10
209.9487098265894
 20
72.64113095308178
 30
0.0
 10
211.2549583281605
 20
71.88696802907116
 30
0.0
 10
212.5707301778163
 20
71.12730679748022
 30
0.0
 10
215.2297143831756
 20
69.59214155074508
 30
0.0
 10
216.5731307353377
 20
68.81651975819055
 30
0.0
 10
218.6135651818992
 20
67.63847438120443
 30
0.0
 10
219.2969113570246
 20
67.24394428304609
 30
0.0
 10
220.6486419845093
 20
66.4635222413959
 30
0.0
 10
221.3199754524057
 20
66.07592768298989
 30
0.0
 10
223.3220236928322
 20
64.92004459244899
 30
0.0
 10
224.6408328736173
 20
64.158629756913
 30
0.0
 10
225.9487098265895
 20
63.40352664604758
 30
0.0
  0
SPLINE
  5
C2
330
1F
100
AcDbEntity
  8
0
  6
Continuous
 62
     7
370
    25
100
AcDbSpline
210
0.0
220
0.0
230
1.0
 70
    24
 71
     3
 72
    18
 73
    14
 74
     0
 42
0.000000001
 43
0.00000001
 40
0.0
 40
0.0
 40
0.0
 40
0.0
 40
0.1250000000000001
 40
0.1250000000000001
 40
0.2500000000000001
 40
0.2500000000000001
 40
0.5000000000000001
 40
0.5000000000000001
 40
0.6250000000000001
 40
0.6250000000000001
 40
0.7500000000000001
 40
0.7500000000000001
 40
1.0
 40
1.0
 40
1.0
 40
1.0
 10
209.9487098265895
 20
72.64113095308176
 30
0.0
 10
209.9487098265895
 20
73.39361724003953
 30
0.0
 10
209.9487098265895
 20
74.15492587768124
 30
0.0
 10
209.9487098265895
 20
75.68689892271077
 30
0.0
 10
209.9487098265895
 20
76.45504501905633
 30
0.0
 10
209.9487098265895
 20
78.76706037067069
 30
0.0
 10
209.9487098265895
 20
80.31866204941075
 30
0.0
 10
209.9487098265896
 20
82.66421791759613
 30
0.0
 10
209.9487098265896
 20
83.45094246313062
 30
0.0
 10
209.9487098265896
 20
85.0221365317177
 30
0.0
 10
209.9487098265896
 20
85.79950033827328
 30
0.0
 10
209.9487098265896
 20
88.11034920668361
 30
0.0
 10
209.9487098265896
 20
89.62273629279912
 30
0.0
 10
209.9487098265897
 20
91.11633956714984
 30
0.0
  0
CIRCLE
  5
C3
330
1F
100
AcDbEntity
  8
0
  6
Continuous
 62
     7
370
    25
100
AcDbCircle
 10
225.9487098266
 20
81.8787352601
 30
0.0
 40
12.62991560365154
  0
CIRCLE
  5
C4
330
1F
100
AcDbEntity
  8
0
  6
Continuous
 62
     7
370
    25
100
AcDbCircle
 10
225.9487098266
 20
81.8787352601
 30
0.0
 40
12.13066913135702
  0
CIRCLE
  5
C5
330
1F
100
AcDbEntity
  8
0
  6
Continuous
 62
     7
370
    25
100
AcDbCircle
 10
225.9487098266
 20
81.8787352601
 30
0.0
 40
12.05849999999998
  0
CIRCLE
  5
C6
330
1F
100
AcDbEntity
  8
0
  6
Continuous
 62
     7
370
    25
100
AcDbCircle
 10
225.9487098266
 20
81.8787352601
 30
0.0
 40
11.75
  0
CIRCLE
  5
C7
330
1F
100
AcDbEntity
  8
0
  6
Continuous
 62
     7
370
    25
100
AcDbCircle
 10
225.9487098266
 20
81.8787352601
 30
0.0
 40
9.47099732642576
  0
INSERT
  5
D3
330
1F
100
AcDbEntity
  8
0
  6
Continuous
 62
     7
370
    18
100
AcDbBlockReference
  2
SW_CENTERMARKSYMBOL_0
 10
225.9487098266
 20
81.8787352601
 30
0.0
  0
ARC
  5
D4
330
1F
100
AcDbEntity
  8
0
  6
Continuous
 62
     7
370
    18
100
AcDbCircle
 10
225.9487098266
 20
81.8787352601
 30
0.0
 40
10.53993299999999
100
AcDbArc
 50
75.0
 51
345.0
  0
ARC
  5
D5
330
1F
100
AcDbEntity
  8
0
  6
Continuous
 62
     7
370
    18
100
AcDbCircle
 10
225.9487098266
 20
81.8787352601
 30
0.0
 40
13.25795999999999
100
AcDbArc
 50
75.0
 51
345.0
  0
LINE
  5
D6
330
1F
100
AcDbEntity
  8
0
  6
Continuous
 62
     7
370
    25
100
AcDbLine
 10
127.6453572205
 20
158.5004601156
 30
0.0
 11
127.5010196532
 21
158.2504601156
 31
0.0
  0
LINE
  5
D7
330
1F
100
AcDbEntity
  8
0
  6
Continuous
 62
     7
370
    25
100
AcDbLine
 10
127.5010196532
 20
126.7504601156
 30
0.0
 11
127.6453572205
 21
126.5004601156
 31
0.0
  0
LINE
  5
D8
330
1F
100
AcDbEntity
  8
0
  6
Continuous
 62
     7
370
    25
100
AcDbLine
 10
173.3566820859
 20
126.5004601156
 30
0.0
 11
173.5010196532
 21
126.7504601156
 31
0.0
  0
LINE
  5
D9
330
1F
100
AcDbEntity
  8
0
  6
Continuous
 62
     7
370
    25
100
AcDbLine
 10
173.5010196532
 20
158.2504601156
 30
0.0
 11
173.3566820859
 21
158.5004601156
 31
0.0
  0
SPLINE
  5
DA
330
1F
100
AcDbEntity
  8
0
  6
Continuous
 62
     7
370
    25
100
AcDbSpline
210
0.0
220
0.0
230
1.0
 70
    24
 71
     3
 72
    13
 73
     9
 74
     0
 42
0.000000001
 43
0.00000001
 40
0.0
 40
0.0
 40
0.0
 40
0.0
 40
0.1166401412668028
 40
0.2458070109608723
 40
0.4330475083822743
 40
0.6208950503252048
 40
0.8102580586402097
 40
1.0
 40
1.0
 40
1.0
 40
1.0
 10
127.6476781612854
 20
126.500460115607
 30
0.0
 10
127.6509379610246
 20
126.500460115607
 30
0.0
 10
127.6578076511804
 20
126.500460115607
 30
0.0
 10
127.7443288682768
 20
126.500460115607
 30
0.0
 10
127.9197562582404
 20
126.500460115607
 30
0.0
 10
128.2178007623337
 20
126.500460115607
 30
0.0
 10
128.5993679679729
 20
126.500460115607
 30
0.0
 10
128.9159635587202
 20
126.5004601156071
 30
0.0
 10
129.0744195801092
 20
126.5004601156071
 30
0.0
  0
SPLINE
  5
DB
330
1F
100
AcDbEntity
  8
0
  6
Continuous
 62
     7
370
    25
100
AcDbSpline
210
0.0
220
0.0
230
1.0
 70
    24
 71
     3
 72
    13
 73
     9
 74
     0
 42
0.000000001
 43
0.00000001
 40
0.0
 40
0.0
 40
0.0
 40
0.0
 40
0.1875096096592034
 40
0.3753498595278135
 40
0.5644789108681281
 40
0.7541913656643779
 40
0.879215947989108
 40
1.0
 40
1.0
 40
1.0
 40
1.0
 10
129.0744195801092
 20
158.500460115607
 30
0.0
 10
128.917760792284
 20
158.500460115607
 30
0.0
 10
128.604166976421
 20
158.500460115607
 30
0.0
 10
128.2229534748104
 20
158.500460115607
 30
0.0
 10
127.9222368357019
 20
158.500460115607
 30
0.0
 10
127.7460856964103
 20
158.500460115607
 30
0.0
 10
127.6588189453459
 20
158.500460115607
 30
0.0
 10
127.6503376727672
 20
158.500460115607
 30
0.0
 10
127.6461701931707
 20
158.500460115607
 30
0.0
  0
SPLINE
  5
DC
330
1F
100
AcDbEntity
  8
0
  6
Continuous
 62
     7
370
    25
100
AcDbSpline
210
0.0
220
0.0
230
1.0
 70
     8
 71
     3
 72
    16
 73
    12
 74
     0
 42
0.000000001
 43
0.00000001
 40
0.0
 40
0.0
 40
0.0
 40
0.0
 40
0.2500000000000001
 40
0.2500000000000001
 40
0.5000000000000001
 40
0.5000000000000001
 40
0.6250000000000001
 40
0.6250000000000001
 40
0.7500000000000002
 40
0.7500000000000002
 40
1.0
 40
1.0
 40
1.0
 40
1.0
 10
129.074419580109
 20
142.5004601156069
 30
0.0
 10
128.6390034129186
 20
143.806708617178
 30
0.0
 10
128.2801417189911
 20
145.1224804668338
 30
0.0
 10
127.7830018347367
 20
147.7814646721931
 30
0.0
 10
127.6463634922132
 20
149.1248810243552
 30
0.0
 10
127.6448625199671
 20
151.1653154709167
 30
0.0
 10
127.6782652272887
 20
151.8486616460421
 30
0.0
 10
127.8085184390873
 20
153.2003922735268
 30
0.0
 10
127.9052367291657
 20
153.8717257414233
 30
0.0
 10
128.2787106221335
 20
155.8737739818498
 30
0.0
 10
128.638460595785
 20
157.1925831626348
 30
0.0
 10
129.0744195801091
 20
158.500460115607
 30
0.0
  0
SPLINE
  5
DD
330
1F
100
AcDbEntity
  8
0
  6
Continuous
 62
     7
370
    25
100
AcDbSpline
210
0.0
220
0.0
230
1.0
 70
     8
 71
     3
 72
    16
 73
    12
 74
     0
 42
0.000000001
 43
0.00000001
 40
0.0
 40
0.0
 40
0.0
 40
0.0
 40
0.2500000000000001
 40
0.2500000000000001
 40
0.5000000000000001
 40
0.5000000000000001
 40
0.625
 40
0.625
 40
0.7499999999999999
 40
0.7499999999999999
 40
1.0
 40
1.0
 40
1.0
 40
1.0
 10
129.074419580109
 20
126.500460115607
 30
0.0
 10
128.6390034129186
 20
127.8067086171781
 30
0.0
 10
128.2801417189911
 20
129.1224804668339
 30
0.0
 10
127.7830018347367
 20
131.7814646721932
 30
0.0
 10
127.6463634922133
 20
133.1248810243552
 30
0.0
 10
127.6448625199671
 20
135.1653154709167
 30
0.0
 10
127.6782652272887
 20
135.8486616460421
 30
0.0
 10
127.8085184390874
 20
137.2003922735268
 30
0.0
 10
127.9052367291657
 20
137.8717257414233
 30
0.0
 10
128.2787106221335
 20
139.8737739818498
 30
0.0
 10
128.6384605957851
 20
141.1925831626348
 30
0.0
 10
129.0744195801091
 20
142.500460115607
 30
0.0
  0
LINE
  5
DE
330
1F
100
AcDbEntity
  8
0
  6
Continuous
 62
     7
370
    25
100
AcDbLine
 10
127.5010196532
 20
126.7504601156
 30
0.0
 11
127.5010196532
 21
158.2504601156
 31
0.0
  0
SPLINE
  5
DF
330
1F
100
AcDbEntity
  8
0
  6
Continuous
 62
     7
370
    25
100
AcDbSpline
210
0.0
220
0.0
230
1.0
 70
     8
 71
     3
 72
    16
 73
    12
 74
     0
 42
0.000000001
 43
0.00000001
 40
0.0
 40
0.0
 40
0.0
 40
0.0
 40
0.2500000000000001
 40
0.2500000000000001
 40
0.5000000000000001
 40
0.5000000000000001
 40
0.6250000000000001
 40
0.6250000000000001
 40
0.7500000000000002
 40
0.7500000000000002
 40
1.0
 40
1.0
 40
1.0
 40
1.0
 10
171.9276197262493
 20
142.500460115607
 30
0.0
 10
172.3630358934396
 20
141.1942116140359
 30
0.0
 10
172.7218975873672
 20
139.8784397643801
 30
0.0
 10
173.2190374716216
 20
137.2194555590209
 30
0.0
 10
173.3556758141451
 20
135.8760392068588
 30
0.0
 10
173.3571767863912
 20
133.8356047602973
 30
0.0
 10
173.3237740790696
 20
133.1522585851719
 30
0.0
 10
173.193520867271
 20
131.8005279576872
 30
0.0
 10
173.0968025771926
 20
131.1291944897907
 30
0.0
 10
172.7233286842248
 20
129.1271462493642
 30
0.0
 10
172.3635787105733
 20
127.8083370685792
 30
0.0
 10
171.9276197262492
 20
126.5004601156071
 30
0.0
  0
SPLINE
  5
E0
330
1F
100
AcDbEntity
  8
0
  6
Continuous
 62
     7
370
    25
100
AcDbSpline
210
0.0
220
0.0
230
1.0
 70
     8
 71
     3
 72
    16
 73
    12
 74
     0
 42
0.000000001
 43
0.00000001
 40
0.0
 40
0.0
 40
0.0
 40
0.0
 40
0.25
 40
0.25
 40
0.5
 40
0.5
 40
0.625
 40
0.625
 40
0.75
 40
0.75
 40
1.0
 40
1.0
 40
1.0
 40
1.0
 10
171.9276197262493
 20
158.500460115607
 30
0.0
 10
172.3630358934397
 20
157.1942116140359
 30
0.0
 10
172.7218975873672
 20
155.8784397643801
 30
0.0
 10
173.2190374716217
 20
153.2194555590209
 30
0.0
 10
173.3556758141451
 20
151.8760392068588
 30
0.0
 10
173.3571767863912
 20
149.8356047602973
 30
0.0
 10
173.3237740790697
 20
149.1522585851719
 30
0.0
 10
173.193520867271
 20
147.8005279576871
 30
0.0
 10
173.0968025771926
 20
147.1291944897907
 30
0.0
 10
172.7233286842248
 20
145.1271462493642
 30
0.0
 10
172.3635787105733
 20
143.8083370685792
 30
0.0
 10
171.9276197262492
 20
142.5004601156069
 30
0.0
  0
SPLINE
  5
E1
330
1F
100
AcDbEntity
  8
0
  6
Continuous
 62
     7
370
    25
100
AcDbSpline
210
0.0
220
0.0
230
1.0
 70
    24
 71
     3
 72
    13
 73
     9
 74
     0
 42
0.000000001
 43
0.00000001
 40
0.0
 40
0.0
 40
0.0
 40
0.0
 40
0.0970562310568211
 40
0.2268651424608796
 40
0.4187215494234816
 40
0.611240784302763
 40
0.8054142225443869
 40
1.0
 40
1.0
 40
1.0
 40
1.0
 10
173.3516261296916
 20
158.500460115607
 30
0.0
 10
173.3507223626252
 20
158.500460115607
 30
0.0
 10
173.3486098424702
 20
158.500460115607
 30
0.0
 10
173.2718508506523
 20
158.500460115607
 30
0.0
 10
173.1019497390529
 20
158.500460115607
 30
0.0
 10
172.8022640397199
 20
158.500460115607
 30
0.0
 10
172.4143113957559
 20
158.500460115607
 30
0.0
 10
172.0899649559223
 20
158.500460115607
 30
0.0
 10
171.9276197262491
 20
158.500460115607
 30
0.0
  0
SPLINE
  5
E2
330
1F
100
AcDbEntity
  8
0
  6
Continuous
 62
     7
370
    25
100
AcDbSpline
210
0.0
220
0.0
230
1.0
 70
    24
 71
     3
 72
    13
 73
     9
 74
     0
 42
0.000000001
 43
0.00000001
 40
0.0
 40
0.0
 40
0.0
 40
0.0
 40
0.1921532075128466
 40
0.384664616121184
 40
0.5785796115659778
 40
0.7731328863591544
 40
0.8987830141939326
 40
1.0
 40
1.0
 40
1.0
 40
1.0
 10
171.9276197262491
 20
126.5004601156071
 30
0.0
 10
172.0880101649233
 20
126.5004601156071
 30
0.0
 10
172.4090900330175
 20
126.500460115607
 30
0.0
 10
172.7967156097907
 20
126.500460115607
 30
0.0
 10
173.0993420837154
 20
126.500460115607
 30
0.0
 10
173.270194424521
 20
126.500460115607
 30
0.0
 10
173.3475910326614
 20
126.500460115607
 30
0.0
 10
173.3511590274824
 20
126.500460115607
 30
0.0
 10
173.3527508918799
 20
126.500460115607
 30
0.0
  0
LINE
  5
E3
330
1F
100
AcDbEntity
  8
0
  6
Continuous
 62
     7
370
    25
100
AcDbLine
 10
173.5010196532
 20
158.2504601156
 30
0.0
 11
173.5010196532
 21
126.7504601156
 31
0.0
  0
LINE
  5
E4
330
1F
100
AcDbEntity
  8
0
  6
Continuous
 62
     7
370
    25
100
AcDbLine
 10
129.0744195801
 20
158.5004601156
 30
0.0
 11
149.8377895039
 21
158.5004601156
 31
0.0
  0
SPLINE
  5
E5
330
1F
100
AcDbEntity
  8
0
  6
Continuous
 62
     7
370
    25
100
AcDbSpline
210
0.0
220
0.0
230
1.0
 70
     8
 71
     3
 72
    10
 73
     6
 74
     0
 42
0.000000001
 43
0.00000001
 40
0.0
 40
0.0
 40
0.0
 40
0.0
 40
0.5
 40
0.5
 40
1.0
 40
1.0
 40
1.0
 40
1.0
 10
150.5010196531792
 20
150.500460115607
 30
0.0
 10
150.5010196531792
 20
151.8337934489403
 30
0.0
 10
150.4403775029911
 20
153.1671267822736
 30
0.0
 10
150.2115443856707
 20
155.8337934489403
 30
0.0
 10
150.0440568884468
 20
157.1671267822736
 30
0.0
 10
149.8377895039412
 20
158.500460115607
 30
0.0
  0
SPLINE
  5
E6
330
1F
100
AcDbEntity
  8
0
  6
Continuous
 62
     7
370
    25
100
AcDbSpline
210
0.0
220
0.0
230
1.0
 70
     8
 71
     3
 72
    10
 73
     6
 74
     0
 42
0.000000001
 43
0.00000001
 40
0.0
 40
0.0
 40
0.0
 40
0.0
 40
0.5000000000000001
 40
0.5000000000000001
 40
1.0
 40
1.0
 40
1.0
 40
1.0
 10
149.8377895039412
 20
142.500460115607
 30
0.0
 10
150.0440568884468
 20
143.8337934489403
 30
0.0
 10
150.2115443856707
 20
145.1671267822736
 30
0.0
 10
150.4403775029911
 20
147.8337934489403
 30
0.0
 10
150.5010196531792
 20
149.1671267822736
 30
0.0
 10
150.5010196531792
 20
150.500460115607
 30
0.0
  0
LINE
  5
E7
330
1F
100
AcDbEntity
  8
0
  6
Continuous
 62
     7
370
    25
100
AcDbLine
 10
129.0744195801
 20
142.5004601156
 30
0.0
 11
149.8377895039
 21
142.5004601156
 31
0.0
  0
LINE
  5
E8
330
1F
100
AcDbEntity
  8
0
  6
Continuous
 62
     7
370
    25
100
AcDbLine
 10
151.1642498024
 20
142.5004601156
 30
0.0
 11
168.867045057
 21
142.5004601156
 31
0.0
  0
SPLINE
  5
E9
330
1F
100
AcDbEntity
  8
0
  6
Continuous
 62
     7
370
    25
100
AcDbSpline
210
0.0
220
0.0
230
1.0
 70
     8
 71
     3
 72
    10
 73
     6
 74
     0
 42
0.000000001
 43
0.00000001
 40
0.0
 40
0.0
 40
0.0
 40
0.0
 40
0.5000000000000001
 40
0.5000000000000001
 40
1.0
 40
1.0
 40
1.0
 40
1.0
 10
151.1642498024172
 20
142.500460115607
 30
0.0
 10
150.9579824179115
 20
143.8337934489403
 30
0.0
 10
150.7904949206876
 20
145.1671267822736
 30
0.0
 10
150.5616618033673
 20
147.8337934489403
 30
0.0
 10
150.5010196531792
 20
149.1671267822736
 30
0.0
 10
150.5010196531792
 20
150.500460115607
 30
0.0
  0
SPLINE
  5
EA
330
1F
100
AcDbEntity
  8
0
  6
Continuous
 62
     7
370
    25
100
AcDbSpline
210
0.0
220
0.0
230
1.0
 70
     8
 71
     3
 72
    10
 73
     6
 74
     0
 42
0.000000001
 43
0.00000001
 40
0.0
 40
0.0
 40
0.0
 40
0.0
 40
0.5
 40
0.5
 40
1.0
 40
1.0
 40
1.0
 40
1.0
 10
150.5010196531792
 20
150.500460115607
 30
0.0
 10
150.5010196531792
 20
151.8337934489403
 30
0.0
 10
150.5616618033673
 20
153.1671267822736
 30
0.0
 10
150.7904949206876
 20
155.8337934489403
 30
0.0
 10
150.9579824179115
 20
157.1671267822736
 30
0.0
 10
151.1642498024172
 20
158.500460115607
 30
0.0
  0
LINE
  5
EB
330
1F
100
AcDbEntity
  8
0
  6
Continuous
 62
     7
370
    25
100
AcDbLine
 10
151.1642498024
 20
158.5004601156
 30
0.0
 11
168.867045057
 21
158.5004601156
 31
0.0
  0
SPLINE
  5
EC
330
1F
100
AcDbEntity
  8
0
  6
Continuous
 62
     7
370
    25
100
AcDbSpline
210
0.0
220
0.0
230
1.0
 70
     8
 71
     3
 72
     8
 73
     4
 74
     0
 42
0.000000001
 43
0.00000001
 40
0.0
 40
0.0
 40
0.0
 40
0.0
 40
1.0
 40
1.0
 40
1.0
 40
1.0
 10
169.0010196531792
 20
157.5949011464035
 30
0.0
 10
168.9584146207493
 20
157.8970531422558
 30
0.0
 10
168.9136969602124
 20
158.198897472467
 30
0.0
 10
168.8670450569636
 20
158.500460115607
 30
0.0
  0
SPLINE
  5
ED
330
1F
100
AcDbEntity
  8
0
  6
Continuous
 62
     7
370
    25
100
AcDbSpline
210
0.0
220
0.0
230
1.0
 70
     8
 71
     3
 72
     8
 73
     4
 74
     0
 42
0.000000001
 43
0.00000001
 40
0.0
 40
0.0
 40
0.0
 40
0.0
 40
1.0
 40
1.0
 40
1.0
 40
1.0
 10
169.1349942493947
 20
158.500460115607
 30
0.0
 10
169.0883240858318
 20
158.1987794359412
 30
0.0
 10
169.0436075255727
 20
157.896931444444
 30
0.0
 10
169.0010196531792
 20
157.5949011464035
 30
0.0
  0
LINE
  5
EE
330
1F
100
AcDbEntity
  8
0
  6
Continuous
 62
     7
370
    25
100
AcDbLine
 10
169.1349942494
 20
158.5004601156
 30
0.0
 11
171.9276197262
 21
158.5004601156
 31
0.0
  0
LINE
  5
EF
330
1F
100
AcDbEntity
  8
0
  6
Continuous
 62
     7
370
    25
100
AcDbLine
 10
169.1349942494
 20
142.5004601156
 30
0.0
 11
171.9276197262
 21
142.5004601156
 31
0.0
  0
SPLINE
  5
F0
330
1F
100
AcDbEntity
  8
0
  6
Continuous
 62
     7
370
    25
100
AcDbSpline
210
0.0
220
0.0
230
1.0
 70
     8
 71
     3
 72
     8
 73
     4
 74
     0
 42
0.000000001
 43
0.00000001
 40
0.0
 40
0.0
 40
0.0
 40
0.0
 40
1.0
 40
1.0
 40
1.0
 40
1.0
 10
169.0010196531792
 20
143.4060190848105
 30
0.0
 10
169.043624685609
 20
143.1038670889582
 30
0.0
 10
169.0883423461459
 20
142.802022758747
 30
0.0
 10
169.1349942493947
 20
142.500460115607
 30
0.0
  0
SPLINE
  5
F1
330
1F
100
AcDbEntity
  8
0
  6
Continuous
 62
     7
370
    25
100
AcDbSpline
210
0.0
220
0.0
230
1.0
 70
     8
 71
     3
 72
     8
 73
     4
 74
     0
 42
0.000000001
 43
0.00000001
 40
0.0
 40
0.0
 40
0.0
 40
0.0
 40
1.0
 40
1.0
 40
1.0
 40
1.0
 10
168.8670450569636
 20
142.500460115607
 30
0.0
 10
168.9137152205265
 20
142.8021407952728
 30
0.0
 10
168.9584317807856
 20
143.10398878677
 30
0.0
 10
169.0010196531792
 20
143.4060190848105
 30
0.0
  0
SPLINE
  5
F2
330
1F
100
AcDbEntity
  8
0
  6
Continuous
 62
     7
370
    25
100
AcDbSpline
210
0.0
220
0.0
230
1.0
 70
     8
 71
     3
 72
    10
 73
     6
 74
     0
 42
0.000000001
 43
0.00000001
 40
0.0
 40
0.0
 40
0.0
 40
0.0
 40
0.5
 40
0.5
 40
1.0
 40
1.0
 40
1.0
 40
1.0
 10
150.5010196531791
 20
134.500460115607
 30
0.0
 10
150.5010196531791
 20
135.8337934489403
 30
0.0
 10
150.4403775029911
 20
137.1671267822737
 30
0.0
 10
150.2115443856707
 20
139.8337934489403
 30
0.0
 10
150.0440568884468
 20
141.1671267822736
 30
0.0
 10
149.8377895039412
 20
142.500460115607
 30
0.0
  0
LINE
  5
F3
330
1F
100
AcDbEntity
  8
0
  6
Continuous
 62
     7
370
    25
100
AcDbLine
 10
150.5010196532
 20
134.5004601156
 30
0.0
 11
150.5010196532
 21
150.5004601156
 31
0.0
  0
SPLINE
  5
F4
330
1F
100
AcDbEntity
  8
0
  6
Continuous
 62
     7
370
    25
100
AcDbSpline
210
0.0
220
0.0
230
1.0
 70
     8
 71
     3
 72
    10
 73
     6
 74
     0
 42
0.000000001
 43
0.00000001
 40
0.0
 40
0.0
 40
0.0
 40
0.0
 40
0.5
 40
0.5
 40
1.0
 40
1.0
 40
1.0
 40
1.0
 10
150.5010196531792
 20
134.500460115607
 30
0.0
 10
150.5010196531792
 20
135.8337934489403
 30
0.0
 10
150.5616618033673
 20
137.1671267822737
 30
0.0
 10
150.7904949206876
 20
139.8337934489403
 30
0.0
 10
150.9579824179115
 20
141.1671267822736
 30
0.0
 10
151.1642498024172
 20
142.500460115607
 30
0.0
  0
LINE
  5
F5
330
1F
100
AcDbEntity
  8
0
  6
Continuous
 62
     7
370
    25
100
AcDbLine
 10
169.0010196532
 20
141.5949011464
 30
0.0
 11
169.0010196532
 21
143.4060190848
 31
0.0
  0
SPLINE
  5
F6
330
1F
100
AcDbEntity
  8
0
  6
Continuous
 62
     7
370
    25
100
AcDbSpline
210
0.0
220
0.0
230
1.0
 70
     8
 71
     3
 72
     8
 73
     4
 74
     0
 42
0.000000001
 43
0.00000001
 40
0.0
 40
0.0
 40
0.0
 40
0.0
 40
1.0
 40
1.0
 40
1.0
 40
1.0
 10
169.0010196531792
 20
141.5949011464035
 30
0.0
 10
168.9584146207493
 20
141.8970531422558
 30
0.0
 10
168.9136969602124
 20
142.1988974724669
 30
0.0
 10
168.8670450569636
 20
142.500460115607
 30
0.0
  0
SPLINE
  5
F7
330
1F
100
AcDbEntity
  8
0
  6
Continuous
 62
     7
370
    25
100
AcDbSpline
210
0.0
220
0.0
230
1.0
 70
     8
 71
     3
 72
     8
 73
     4
 74
     0
 42
0.000000001
 43
0.00000001
 40
0.0
 40
0.0
 40
0.0
 40
0.0
 40
1.0
 40
1.0
 40
1.0
 40
1.0
 10
169.1349942493947
 20
142.500460115607
 30
0.0
 10
169.0883240858318
 20
142.1987794359411
 30
0.0
 10
169.0436075255727
 20
141.8969314444439
 30
0.0
 10
169.0010196531792
 20
141.5949011464035
 30
0.0
  0
LINE
  5
F8
330
1F
100
AcDbEntity
  8
0
  6
Continuous
 62
     7
370
    25
100
AcDbLine
 10
151.1642498024
 20
126.5004601156
 30
0.0
 11
168.867045057
 21
126.5004601156
 31
0.0
  0
SPLINE
  5
F9
330
1F
100
AcDbEntity
  8
0
  6
Continuous
 62
     7
370
    25
100
AcDbSpline
210
0.0
220
0.0
230
1.0
 70
     8
 71
     3
 72
    10
 73
     6
 74
     0
 42
0.000000001
 43
0.00000001
 40
0.0
 40
0.0
 40
0.0
 40
0.0
 40
0.5
 40
0.5
 40
1.0
 40
1.0
 40
1.0
 40
1.0
 10
151.1642498024172
 20
126.5004601156071
 30
0.0
 10
150.9579824179115
 20
127.8337934489404
 30
0.0
 10
150.7904949206876
 20
129.1671267822737
 30
0.0
 10
150.5616618033673
 20
131.8337934489404
 30
0.0
 10
150.5010196531792
 20
133.1671267822737
 30
0.0
 10
150.5010196531792
 20
134.500460115607
 30
0.0
  0
LINE
  5
FA
330
1F
100
AcDbEntity
  8
0
  6
Continuous
 62
     7
370
    25
100
AcDbLine
 10
169.1349942494
 20
126.5004601156
 30
0.0
 11
171.9276197262
 21
126.5004601156
 31
0.0
  0
SPLINE
  5
FB
330
1F
100
AcDbEntity
  8
0
  6
Continuous
 62
     7
370
    25
100
AcDbSpline
210
0.0
220
0.0
230
1.0
 70
     8
 71
     3
 72
     8
 73
     4
 74
     0
 42
0.000000001
 43
0.00000001
 40
0.0
 40
0.0
 40
0.0
 40
0.0
 40
1.0
 40
1.0
 40
1.0
 40
1.0
 10
169.0010196531792
 20
127.4060190848106
 30
0.0
 10
169.043624685609
 20
127.1038670889583
 30
0.0
 10
169.0883423461459
 20
126.8020227587471
 30
0.0
 10
169.1349942493947
 20
126.5004601156071
 30
0.0
  0
SPLINE
  5
FC
330
1F
100
AcDbEntity
  8
0
  6
Continuous
 62
     7
370
    25
100
AcDbSpline
210
0.0
220
0.0
230
1.0
 70
     8
 71
     3
 72
     8
 73
     4
 74
     0
 42
0.000000001
 43
0.00000001
 40
0.0
 40
0.0
 40
0.0
 40
0.0
 40
1.0
 40
1.0
 40
1.0
 40
1.0
 10
168.8670450569636
 20
126.5004601156071
 30
0.0
 10
168.9137152205265
 20
126.8021407952729
 30
0.0
 10
168.9584317807856
 20
127.1039887867701
 30
0.0
 10
169.0010196531792
 20
127.4060190848106
 30
0.0
  0
SPLINE
  5
FD
330
1F
100
AcDbEntity
  8
0
  6
Continuous
 62
     7
370
    25
100
AcDbSpline
210
0.0
220
0.0
230
1.0
 70
     8
 71
     3
 72
    10
 73
     6
 74
     0
 42
0.000000001
 43
0.00000001
 40
0.0
 40
0.0
 40
0.0
 40
0.0
 40
0.5
 40
0.5
 40
1.0
 40
1.0
 40
1.0
 40
1.0
 10
149.8377895039412
 20
126.5004601156071
 30
0.0
 10
150.0440568884468
 20
127.8337934489404
 30
0.0
 10
150.2115443856707
 20
129.1671267822737
 30
0.0
 10
150.4403775029911
 20
131.8337934489404
 30
0.0
 10
150.5010196531791
 20
133.1671267822737
 30
0.0
 10
150.5010196531791
 20
134.500460115607
 30
0.0
  0
LINE
  5
FE
330
1F
100
AcDbEntity
  8
0
  6
Continuous
 62
     7
370
    25
100
AcDbLine
 10
129.0744195801
 20
126.5004601156
 30
0.0
 11
149.8377895039
 21
126.5004601156
 31
0.0
  0
SPLINE
  5
FF
330
1F
100
AcDbEntity
  8
0
  6
Continuous
 62
     7
370
    25
100
AcDbSpline
210
0.0
220
0.0
230
1.0
 70
    24
 71
     3
 72
    10
 73
     6
 74
     0
 42
0.000000001
 43
0.00000001
 40
0.0
 40
0.0
 40
0.0
 40
0.0
 40
0.5
 40
0.5
 40
1.0
 40
1.0
 40
1.0
 40
1.0
 10
150.5010196531792
 20
126.500460115607
 30
0.0
 10
150.5010196531792
 20
126.500460115607
 30
0.0
 10
150.5618957132027
 20
126.500460115607
 30
0.0
 10
150.7909126618808
 20
126.500460115607
 30
0.0
 10
150.9583408321674
 20
126.500460115607
 30
0.0
 10
151.1642498024172
 20
126.5004601156071
 30
0.0
  0
LINE
  5
100
330
1F
100
AcDbEntity
  8
0
  6
Continuous
 62
     7
370
    25
100
AcDbLine
 10
150.5010196532
 20
126.5004601156
 30
0.0
 11
150.5010196532
 21
134.5004601156
 31
0.0
  0
SPLINE
  5
101
330
1F
100
AcDbEntity
  8
0
  6
Continuous
 62
     7
370
    25
100
AcDbSpline
210
0.0
220
0.0
230
1.0
 70
    24
 71
     3
 72
    10
 73
     6
 74
     0
 42
0.000000001
 43
0.00000001
 40
0.0
 40
0.0
 40
0.0
 40
0.0
 40
0.5
 40
0.5
 40
1.0
 40
1.0
 40
1.0
 40
1.0
 10
150.5010196531792
 20
126.500460115607
 30
0.0
 10
150.5010196531792
 20
126.500460115607
 30
0.0
 10
150.4401435931556
 20
126.500460115607
 30
0.0
 10
150.2111266444775
 20
126.500460115607
 30
0.0
 10
150.0436984741909
 20
126.500460115607
 30
0.0
 10
149.8377895039411
 20
126.5004601156071
 30
0.0
  0
SPLINE
  5
102
330
1F
100
AcDbEntity
  8
0
  6
Continuous
 62
     7
370
    25
100
AcDbSpline
210
0.0
220
0.0
230
1.0
 70
    24
 71
     3
 72
    10
 73
     6
 74
     0
 42
0.000000001
 43
0.00000001
 40
0.0
 40
0.0
 40
0.0
 40
0.0
 40
0.4999999999999999
 40
0.4999999999999999
 40
1.0
 40
1.0
 40
1.0
 40
1.0
 10
150.5010196531792
 20
158.500460115607
 30
0.0
 10
150.5010196531792
 20
158.500460115607
 30
0.0
 10
150.4401435931556
 20
158.500460115607
 30
0.0
 10
150.2111266444775
 20
158.500460115607
 30
0.0
 10
150.0436984741909
 20
158.500460115607
 30
0.0
 10
149.8377895039411
 20
158.500460115607
 30
0.0
  0
LINE
  5
103
330
1F
100
AcDbEntity
  8
0
  6
Continuous
 62
     7
370
    25
100
AcDbLine
 10
150.5010196532
 20
150.5004601156
 30
0.0
 11
150.5010196532
 21
158.5004601156
 31
0.0
  0
SPLINE
  5
104
330
1F
100
AcDbEntity
  8
0
  6
Continuous
 62
     7
370
    25
100
AcDbSpline
210
0.0
220
0.0
230
1.0
 70
    24
 71
     3
 72
    10
 73
     6
 74
     0
 42
0.000000001
 43
0.00000001
 40
0.0
 40
0.0
 40
0.0
 40
0.0
 40
0.4999999999999999
 40
0.4999999999999999
 40
1.0
 40
1.0
 40
1.0
 40
1.0
 10
150.5010196531792
 20
158.500460115607
 30
0.0
 10
150.5010196531792
 20
158.500460115607
 30
0.0
 10
150.5618957132027
 20
158.500460115607
 30
0.0
 10
150.7909126618808
 20
158.500460115607
 30
0.0
 10
150.9583408321674
 20
158.500460115607
 30
0.0
 10
151.1642498024172
 20
158.500460115607
 30
0.0
  0
SPLINE
  5
105
330
1F
100
AcDbEntity
  8
0
  6
Continuous
 62
     7
370
    25
100
AcDbSpline
210
0.0
220
0.0
230
1.0
 70
    24
 71
     3
 72
     8
 73
     4
 74
     0
 42
0.000000001
 43
0.00000001
 40
0.0
 40
0.0
 40
0.0
 40
0.0
 40
1.0
 40
1.0
 40
1.0
 40
1.0
 10
169.0010196531792
 20
126.5004601156071
 30
0.0
 10
168.9584155038591
 20
126.5004601156071
 30
0.0
 10
168.9136978992383
 20
126.5004601156071
 30
0.0
 10
168.8670450569636
 20
126.5004601156071
 30
0.0
  0
LINE
  5
106
330
1F
100
AcDbEntity
  8
0
  6
Continuous
 62
     7
370
    25
100
AcDbLine
 10
169.0010196532
 20
126.5004601156
 30
0.0
 11
169.0010196532
 21
127.4060190848
 31
0.0
  0
SPLINE
  5
107
330
1F
100
AcDbEntity
  8
0
  6
Continuous
 62
     7
370
    25
100
AcDbSpline
210
0.0
220
0.0
230
1.0
 70
    24
 71
     3
 72
     8
 73
     4
 74
     0
 42
0.000000001
 43
0.00000001
 40
0.0
 40
0.0
 40
0.0
 40
0.0
 40
1.0
 40
1.0
 40
1.0
 40
1.0
 10
169.1349942493947
 20
126.5004601156071
 30
0.0
 10
169.0883214067839
 20
126.5004601156071
 30
0.0
 10
169.0436050102429
 20
126.5004601156071
 30
0.0
 10
169.0010196531792
 20
126.5004601156071
 30
0.0
  0
SPLINE
  5
108
330
1F
100
AcDbEntity
  8
0
  6
Continuous
 62
     7
370
    25
100
AcDbSpline
210
0.0
220
0.0
230
1.0
 70
    24
 71
     3
 72
     8
 73
     4
 74
     0
 42
0.000000001
 43
0.00000001
 40
0.0
 40
0.0
 40
0.0
 40
0.0
 40
1.0
 40
1.0
 40
1.0
 40
1.0
 10
169.0010196531792
 20
158.500460115607
 30
0.0
 10
169.0436238024992
 20
158.500460115607
 30
0.0
 10
169.0883414071199
 20
158.500460115607
 30
0.0
 10
169.1349942493947
 20
158.500460115607
 30
0.0
  0
LINE
  5
109
330
1F
100
AcDbEntity
  8
0
  6
Continuous
 62
     7
370
    25
100
AcDbLine
 10
169.0010196532
 20
157.5949011464
 30
0.0
 11
169.0010196532
 21
158.5004601156
 31
0.0
  0
SPLINE
  5
10A
330
1F
100
AcDbEntity
  8
0
  6
Continuous
 62
     7
370
    25
100
AcDbSpline
210
0.0
220
0.0
230
1.0
 70
    24
 71
     3
 72
     8
 73
     4
 74
     0
 42
0.000000001
 43
0.00000001
 40
0.0
 40
0.0
 40
0.0
 40
0.0
 40
1.0
 40
1.0
 40
1.0
 40
1.0
 10
168.8670450569636
 20
158.500460115607
 30
0.0
 10
168.9137178995744
 20
158.500460115607
 30
0.0
 10
168.9584342961155
 20
158.500460115607
 30
0.0
 10
169.0010196531792
 20
158.500460115607
 30
0.0
  0
LINE
  5
10B
330
1F
100
AcDbEntity
  8
0
  6
CENTERX2
 62
     7
370
    18
100
AcDbLine
 10
131.0744195801
 20
142.5004601156
 30
0.0
 11
125.5010196532
 21
142.5004601156
 31
0.0
  0
LINE
  5
10C
330
1F
100
AcDbEntity
  8
0
  6
CENTERX2
 62
     7
370
    18
100
AcDbLine
 10
169.9276197262
 20
142.5004601156
 30
0.0
 11
175.5010196532
 21
142.5004601156
 31
0.0
  0
ENDSEC
  0
SECTION
  2
OBJECTS
  0
DICTIONARY
  5
C
330
0
100
AcDbDictionary
281
     1
  3
ACAD_GROUP
350
D
  3
ACAD_LAYOUT
350
1A
  3
ACAD_MLINESTYLE
350
17
  3
ACAD_PLOTSETTINGS
350
19
  3
ACAD_PLOTSTYLENAME
350
E
  3
ACAD_SCALELIST
350
47
  0
DICTIONARY
  5
D
102
{ACAD_REACTORS
330
C
102
}
330
C
100
AcDbDictionary
281
     1
  0
DICTIONARY
  5
1A
102
{ACAD_REACTORS
330
C
102
}
330
C
100
AcDbDictionary
281
     1
  3
Layout1
350
1E
  3
Layout2
350
26
  3
Model
350
22
  0
DICTIONARY
  5
17
102
{ACAD_REACTORS
330
C
102
}
330
C
100
AcDbDictionary
281
     1
  3
Standard
350
18
  0
DICTIONARY
  5
19
102
{ACAD_REACTORS
330
C
102
}
330
C
100
AcDbDictionary
281
     1
  0
ACDBDICTIONARYWDFLT
  5
E
102
{ACAD_REACTORS
330
C
102
}
330
C
100
AcDbDictionary
281
     1
  3
Normal
350
F
100
AcDbDictionaryWithDefault
340
F
  0
DICTIONARY
  5
47
102
{ACAD_REACTORS
330
C
102
}
330
C
100
AcDbDictionary
281
     1
  3
A0
350
48
  3
A1
350
49
  3
A2
350
4A
  3
A3
350
4B
  3
A4
350
4C
  3
A5
350
4D
  3
A6
350
4E
  3
A7
350
4F
  3
A8
350
50
  3
A9
350
51
  3
B0
350
52
  3
B1
350
53
  3
B2
350
54
  3
B3
350
55
  3
B4
350
56
  3
B5
350
57
  3
B6
350
58
  3
B7
350
59
  3
B8
350
5A
  3
B9
350
5B
  3
C0
350
5C
  3
C1
350
5D
  3
C2
350
5E
  3
C3
350
5F
  3
C4
350
60
  3
C5
350
61
  3
C6
350
62
  3
C7
350
63
  3
C8
350
64
  3
C9
350
65
  3
D0
350
66
  3
D1
350
67
  3
D2
350
68
  0
LAYOUT
  5
1E
102
{ACAD_REACTORS
330
1A
102
}
330
1A
100
AcDbPlotSettings
  1

  2
none_device
  4

  6

 40
0.0
 41
0.0
 42
0.0
 43
0.0
 44
0.0
 45
0.0
 46
0.0
 47
0.0
 48
0.0
 49
0.0
140
0.0
141
0.0
142
1.0
143
1.0
 70
   688
 72
     1
 73
     0
 74
     5
  7

 75
    16
147
1.0
148
0.0
149
0.0
100
AcDbLayout
  1
Layout1
 70
     1
 71
     1
 10
0.0
 20
0.0
 11
420.0
 21
297.0
 12
0.0
 22
0.0
 32
0.0
 14
1.0000000000E+20
 24
1.0000000000E+20
 34
1.0000000000E+20
 15
-1.0000000000E+20
 25
-1.0000000000E+20
 35
-1.0000000000E+20
146
0.0
 13
0.0
 23
0.0
 33
0.0
 16
1.0
 26
0.0
 36
0.0
 17
0.0
 27
1.0
 37
0.0
 76
     0
330
1B
  0
LAYOUT
  5
26
102
{ACAD_REACTORS
330
1A
102
}
330
1A
100
AcDbPlotSettings
  1

  2
none_device
  4

  6

 40
0.0
 41
0.0
 42
0.0
 43
0.0
 44
0.0
 45
0.0
 46
0.0
 47
0.0
 48
0.0
 49
0.0
140
0.0
141
0.0
142
1.0
143
1.0
 70
   688
 72
     1
 73
     0
 74
     5
  7

 75
    16
147
1.0
148
0.0
149
0.0
100
AcDbLayout
  1
Layout2
 70
     1
 71
     2
 10
0.0
 20
0.0
 11
0.0
 21
0.0
 12
0.0
 22
0.0
 32
0.0
 14
0.0
 24
0.0
 34
0.0
 15
0.0
 25
0.0
 35
0.0
146
0.0
 13
0.0
 23
0.0
 33
0.0
 16
1.0
 26
0.0
 36
0.0
 17
0.0
 27
1.0
 37
0.0
 76
     0
330
23
  0
LAYOUT
  5
22
102
{ACAD_REACTORS
330
1A
102
}
330
1A
100
AcDbPlotSettings
  1

  2
none_device
  4
Letter_(8.50_x_11.00_Inches)
  6

 40
6.35
 41
6.35
 42
6.35000508
 43
6.35000508
 44
215.9
 45
279.4
 46
0.0
 47
0.0
 48
0.0
 49
0.0
140
0.0
141
0.0
142
1.0
143
1.0
 70
  1712
 72
     1
 73
     0
 74
     0
  7

 75
     0
147
1.0
148
0.0
149
0.0
100
AcDbLayout
  1
Model
 70
     1
 71
     0
 10
0.0
 20
0.0
 11
431.8
 21
279.4
 12
0.0
 22
0.0
 32
0.0
 14
0.0
 24
0.0
 34
0.0
 15
431.8
 25
279.4
 35
0.0
146
0.0
 13
0.0
 23
0.0
 33
0.0
 16
1.0
 26
0.0
 36
0.0
 17
0.0
 27
1.0
 37
0.0
 76
     0
330
1F
331
29
  0
MLINESTYLE
  5
18
102
{ACAD_REACTORS
330
17
102
}
330
17
100
AcDbMlineStyle
  2
Standard
 70
     0
  3

 62
   256
 51
90.0
 52
90.0
 71
     2
 49
0.5
 62
   256
  6
BYLAYER
 49
-0.5
 62
   256
  6
BYLAYER
  0
ACDBPLACEHOLDER
  5
F
102
{ACAD_REACTORS
330
E
102
}
330
E
  0
SCALE
  5
48
102
{ACAD_REACTORS
330
47
102
}
330
47
100
AcDbScale
 70
     0
300
1:1
140
1.0
141
1.0
290
     1
  0
SCALE
  5
49
102
{ACAD_REACTORS
330
47
102
}
330
47
100
AcDbScale
 70
     0
300
1:2
140
1.0
141
2.0
290
     0
  0
SCALE
  5
4A
102
{ACAD_REACTORS
330
47
102
}
330
47
100
AcDbScale
 70
     0
300
1:4
140
1.0
141
4.0
290
     0
  0
SCALE
  5
4B
102
{ACAD_REACTORS
330
47
102
}
330
47
100
AcDbScale
 70
     0
300
1:5
140
1.0
141
5.0
290
     0
  0
SCALE
  5
4C
102
{ACAD_REACTORS
330
47
102
}
330
47
100
AcDbScale
 70
     0
300
1:8
140
1.0
141
8.0
290
     0
  0
SCALE
  5
4D
102
{ACAD_REACTORS
330
47
102
}
330
47
100
AcDbScale
 70
     0
300
1:10
140
1.0
141
10.0
290
     0
  0
SCALE
  5
4E
102
{ACAD_REACTORS
330
47
102
}
330
47
100
AcDbScale
 70
     0
300
1:16
140
1.0
141
16.0
290
     0
  0
SCALE
  5
4F
102
{ACAD_REACTORS
330
47
102
}
330
47
100
AcDbScale
 70
     0
300
1:20
140
1.0
141
20.0
290
     0
  0
SCALE
  5
50
102
{ACAD_REACTORS
330
47
102
}
330
47
100
AcDbScale
 70
     0
300
1:30
140
1.0
141
30.0
290
     0
  0
SCALE
  5
51
102
{ACAD_REACTORS
330
47
102
}
330
47
100
AcDbScale
 70
     0
300
1:40
140
1.0
141
40.0
290
     0
  0
SCALE
  5
52
102
{ACAD_REACTORS
330
47
102
}
330
47
100
AcDbScale
 70
     0
300
1:50
140
1.0
141
50.0
290
     0
  0
SCALE
  5
53
102
{ACAD_REACTORS
330
47
102
}
330
47
100
AcDbScale
 70
     0
300
1:100
140
1.0
141
100.0
290
     0
  0
SCALE
  5
54
102
{ACAD_REACTORS
330
47
102
}
330
47
100
AcDbScale
 70
     0
300
2:1
140
2.0
141
1.0
290
     0
  0
SCALE
  5
55
102
{ACAD_REACTORS
330
47
102
}
330
47
100
AcDbScale
 70
     0
300
4:1
140
4.0
141
1.0
290
     0
  0
SCALE
  5
56
102
{ACAD_REACTORS
330
47
102
}
330
47
100
AcDbScale
 70
     0
300
8:1
140
8.0
141
1.0
290
     0
  0
SCALE
  5
57
102
{ACAD_REACTORS
330
47
102
}
330
47
100
AcDbScale
 70
     0
300
10:1
140
10.0
141
1.0
290
     0
  0
SCALE
  5
58
102
{ACAD_REACTORS
330
47
102
}
330
47
100
AcDbScale
 70
     0
300
100:1
140
100.0
141
1.0
290
     0
  0
SCALE
  5
59
102
{ACAD_REACTORS
330
47
102
}
330
47
100
AcDbScale
 70
     0
300
1/128" = 1'-0"
140
0.0078125
141
12.0
290
     0
  0
SCALE
  5
5A
102
{ACAD_REACTORS
330
47
102
}
330
47
100
AcDbScale
 70
     0
300
1/64" = 1'-0"
140
0.015625
141
12.0
290
     0
  0
SCALE
  5
5B
102
{ACAD_REACTORS
330
47
102
}
330
47
100
AcDbScale
 70
     0
300
1/32" = 1'-0"
140
0.03125
141
12.0
290
     0
  0
SCALE
  5
5C
102
{ACAD_REACTORS
330
47
102
}
330
47
100
AcDbScale
 70
     0
300
1/16" = 1'-0"
140
0.0625
141
12.0
290
     0
  0
SCALE
  5
5D
102
{ACAD_REACTORS
330
47
102
}
330
47
100
AcDbScale
 70
     0
300
3/32" = 1'-0"
140
0.09375
141
12.0
290
     0
  0
SCALE
  5
5E
102
{ACAD_REACTORS
330
47
102
}
330
47
100
AcDbScale
 70
     0
300
1/8" = 1'-0"
140
0.125
141
12.0
290
     0
  0
SCALE
  5
5F
102
{ACAD_REACTORS
330
47
102
}
330
47
100
AcDbScale
 70
     0
300
3/16" = 1'-0"
140
0.1875
141
12.0
290
     0
  0
SCALE
  5
60
102
{ACAD_REACTORS
330
47
102
}
330
47
100
AcDbScale
 70
     0
300
1/4" = 1'-0"
140
0.25
141
12.0
290
     0
  0
SCALE
  5
61
102
{ACAD_REACTORS
330
47
102
}
330
47
100
AcDbScale
 70
     0
300
3/8" = 1'-0"
140
0.375
141
12.0
290
     0
  0
SCALE
  5
62
102
{ACAD_REACTORS
330
47
102
}
330
47
100
AcDbScale
 70
     0
300
1/2" = 1'-0"
140
0.5
141
12.0
290
     0
  0
SCALE
  5
63
102
{ACAD_REACTORS
330
47
102
}
330
47
100
AcDbScale
 70
     0
300
3/4" = 1'-0"
140
0.75
141
12.0
290
     0
  0
SCALE
  5
64
102
{ACAD_REACTORS
330
47
102
}
330
47
100
AcDbScale
 70
     0
300
1" = 1'-0"
140
1.0
141
12.0
290
     0
  0
SCALE
  5
65
102
{ACAD_REACTORS
330
47
102
}
330
47
100
AcDbScale
 70
     0
300
1-1/2" = 1'-0"
140
1.5
141
12.0
290
     0
  0
SCALE
  5
66
102
{ACAD_REACTORS
330
47
102
}
330
47
100
AcDbScale
 70
     0
300
3" = 1'-0"
140
3.0
141
12.0
290
     0
  0
SCALE
  5
67
102
{ACAD_REACTORS
330
47
102
}
330
47
100
AcDbScale
 70
     0
300
6" = 1'-0"
140
6.0
141
12.0
290
     0
  0
SCALE
  5
68
102
{ACAD_REACTORS
330
47
102
}
330
47
100
AcDbScale
 70
     0
300
1'-0" = 1'-0"
140
12.0
141
12.0
290
     0
  0
ENDSEC
  0
EOF
