  0
SECTION
  2
HEADER
  9
$ACADVER
  1
AC1015
  9
$ACADMAINTVER
 70
     6
  9
$DWGCODEPAGE
  3
DOS932
  9
$INSBASE
 10
0.0
 20
0.0
 30
0.0
  9
$EXTMIN
 10
0.0
 20
0.0
 30
0.0
  9
$EXTMAX
 10
431.8
 20
279.4
 30
0.0
  9
$LIMMIN
 10
0.0
 20
0.0
  9
$LIMMAX
 10
431.8
 20
279.4
  9
$ORTHOMODE
 70
     0
  9
$REGENMODE
 70
     1
  9
$FILLMODE
 70
     1
  9
$QTEXTMODE
 70
     0
  9
$MIRRTEXT
 70
     1
  9
$LTSCALE
 40
1.0
  9
$ATTMODE
 70
     1
  9
$TEXTSIZE
 40
3.5
  9
$TRACEWID
 40
1.0
  9
$TEXTSTYLE
  7
Standard
  9
$CLAYER
  8
0
  9
$CELTYPE
  6
ByLayer
  9
$CECOLOR
 62
   256
  9
$CELTSCALE
 40
1.0
  9
$DISPSILH
 70
     0
  9
$DIMSCALE
 40
1.0
  9
$DIMASZ
 40
3.302
  9
$DIMEXO
 40
1.0
  9
$DIMDLI
 40
3.75
  9
$DIMRND
 40
0.0
  9
$DIMDLE
 40
0.0
  9
$DIMEXE
 40
1.0
  9
$DIMTP
 40
0.0
  9
$DIMTM
 40
0.0
  9
$DIMTXT
 40
3.5
  9
$DIMCEN
 40
2.5
  9
$DIMTSZ
 40
0.0
  9
$DIMTOL
 70
     0
  9
$DIMLIM
 70
     0
  9
$DIMTIH
 70
     1
  9
$DIMTOH
 70
     1
  9
$DIMSE1
 70
     0
  9
$DIMSE2
 70
     0
  9
$DIMTAD
 70
     1
  9
$DIMZIN
 70
     1
  9
$DIMBLK
  1

  9
$DIMASO
 70
     1
  9
$DIMSHO
 70
     1
  9
$DIMPOST
  1

  9
$DIMAPOST
  1

  9
$DIMALT
 70
     0
  9
$DIMALTD
 70
     3
  9
$DIMALTF
 40
0.0393700787
  9
$DIMLFAC
 40
1.0
  9
$DIMTOFL
 70
     1
  9
$DIMTVP
 40
0.0
  9
$DIMTIX
 70
     0
  9
$DIMSOXD
 70
     0
  9
$DIMSAH
 70
     0
  9
$DIMBLK1
  1

  9
$DIMBLK2
  1

  9
$DIMSTYLE
  2
ISO-25
  9
$DIMCLRD
 70
     0
  9
$DIMCLRE
 70
     0
  9
$DIMCLRT
 70
     0
  9
$DIMTFAC
 40
1.0
  9
$DIMGAP
 40
1.524
  9
$DIMJUST
 70
     0
  9
$DIMSD1
 70
     0
  9
$DIMSD2
 70
     0
  9
$DIMTOLJ
 70
     0
  9
$DIMTZIN
 70
     1
  9
$DIMALTZ
 70
     0
  9
$DIMALTTZ
 70
     0
  9
$DIMUPT
 70
     0
  9
$DIMDEC
 70
     2
  9
$DIMTDEC
 70
     2
  9
$DIMALTU
 70
     2
  9
$DIMALTTD
 70
     3
  9
$DIMTXSTY
  7
Standard
  9
$DIMAUNIT
 70
     0
  9
$DIMADEC
 70
     2
  9
$DIMALTRND
 40
0.0
  9
$DIMAZIN
 70
     0
  9
$DIMDSEP
 70
    44
  9
$DIMATFIT
 70
     3
  9
$DIMFRAC
 70
     0
  9
$DIMLDRBLK
  1

  9
$DIMLUNIT
 70
     2
  9
$DIMLWD
 70
    -2
  9
$DIMLWE
 70
    -2
  9
$DIMTMOVE
 70
     0
  9
$LUNITS
 70
     2
  9
$LUPREC
 70
     2
  9
$SKETCHINC
 40
1.0
  9
$FILLETRAD
 40
10.0
  9
$AUNITS
 70
     0
  9
$AUPREC
 70
     2
  9
$MENU
  1
.
  9
$ELEVATION
 40
0.0
  9
$PELEVATION
 40
0.0
  9
$THICKNESS
 40
0.0
  9
$LIMCHECK
 70
     0
  9
$CHAMFERA
 40
0.0
  9
$CHAMFERB
 40
0.0
  9
$CHAMFERC
 40
0.0
  9
$CHAMFERD
 40
0.0
  9
$SKPOLY
 70
     0
  9
$TDCREATE
 40
2459227.767599213
  9
$TDUCREATE
 40
2459227.392599213
  9
$TDUPDATE
 40
2459227.767599757
  9
$TDUUPDATE
 40
2459227.392599757
  9
$TDINDWG
 40
0.0000000116
  9
$TDUSRTIMER
 40
0.0000000116
  9
$USRTIMER
 70
     1
  9
$ANGBASE
 50
0.0
  9
$ANGDIR
 70
     0
  9
$PDMODE
 70
     0
  9
$PDSIZE
 40
-1.0
  9
$PLINEWID
 40
0.0
  9
$SPLFRAME
 70
     0
  9
$SPLINETYPE
 70
     6
  9
$SPLINESEGS
 70
     8
  9
$HANDSEED
  5
10D
  9
$SURFTAB1
 70
     6
  9
$SURFTAB2
 70
     6
  9
$SURFTYPE
 70
     6
  9
$SURFU
 70
     6
  9
$SURFV
 70
     6
  9
$UCSBASE
  2

  9
$UCSNAME
  2

  9
$UCSORG
 10
0.0
 20
0.0
 30
0.0
  9
$UCSXDIR
 10
1.0
 20
0.0
 30
0.0
  9
$UCSYDIR
 10
0.0
 20
1.0
 30
0.0
  9
$UCSORTHOREF
  2

  9
$UCSORTHOVIEW
 70
     0
  9
$UCSORGTOP
 10
0.0
 20
0.0
 30
0.0
  9
$UCSORGBOTTOM
 10
0.0
 20
0.0
 30
0.0
  9
$UCSORGLEFT
 10
0.0
 20
0.0
 30
0.0
  9
$UCSORGRIGHT
 10
0.0
 20
0.0
 30
0.0
  9
$UCSORGFRONT
 10
0.0
 20
0.0
 30
0.0
  9
$UCSORGBACK
 10
0.0
 20
0.0
 30
0.0
  9
$PUCSBASE
  2

  9
$PUCSNAME
  2

  9
$PUCSORG
 10
0.0
 20
0.0
 30
0.0
  9
$PUCSXDIR
 10
1.0
 20
0.0
 30
0.0
  9
$PUCSYDIR
 10
0.0
 20
1.0
 30
0.0
  9
$PUCSORTHOREF
  2

  9
$PUCSORTHOVIEW
 70
     0
  9
$PUCSORGTOP
 10
0.0
 20
0.0
 30
0.0
  9
$PUCSORGBOTTOM
 10
0.0
 20
0.0
 30
0.0
  9
$PUCSORGLEFT
 10
0.0
 20
0.0
 30
0.0
  9
$PUCSORGRIGHT
 10
0.0
 20
0.0
 30
0.0
  9
$PUCSORGFRONT
 10
0.0
 20
0.0
 30
0.0
  9
$PUCSORGBACK
 10
0.0
 20
0.0
 30
0.0
  9
$USERI1
 70
     0
  9
$USERI2
 70
     0
  9
$USERI3
 70
     0
  9
$USERI4
 70
     0
  9
$USERI5
 70
     0
  9
$USERR1
 40
0.0
  9
$USERR2
 40
0.0
  9
$USERR3
 40
0.0
  9
$USERR4
 40
0.0
  9
$USERR5
 40
0.0
  9
$WORLDVIEW
 70
     1
  9
$SHADEDGE
 70
     3
  9
$SHADEDIF
 70
    70
  9
$TILEMODE
 70
     1
  9
$MAXACTVP
 70
    64
  9
$PINSBASE
 10
0.0
 20
0.0
 30
0.0
  9
$PLIMCHECK
 70
     0
  9
$PEXTMIN
 10
1.0000000000E+20
 20
1.0000000000E+20
 30
1.0000000000E+20
  9
$PEXTMAX
 10
-1.0000000000E+20
 20
-1.0000000000E+20
 30
-1.0000000000E+20
  9
$PLIMMIN
 10
0.0
 20
0.0
  9
$PLIMMAX
 10
420.0
 20
297.0
  9
$UNITMODE
 70
     0
  9
$VISRETAIN
 70
     1
  9
$PLINEGEN
 70
     0
  9
$PSLTSCALE
 70
     1
  9
$TREEDEPTH
 70
  3020
  9
$CMLSTYLE
  2
Standard
  9
$CMLJUST
 70
     0
  9
$CMLSCALE
 40
20.0
  9
$PROXYGRAPHICS
 70
     1
  9
$MEASUREMENT
 70
     1
  9
$CELWEIGHT
370
    -1
  9
$ENDCAPS
280
     0
  9
$JOINSTYLE
280
     0
  9
$LWDISPLAY
290
     1
  9
$INSUNITS
 70
     4
  9
$HYPERLINKBASE
  1

  9
$STYLESHEET
  1

  9
$XEDIT
290
     1
  9
$CEPSNTYPE
380
     0
  9
$PSTYLEMODE
290
     1
  9
$FINGERPRINTGUID
  2
{31DFFC2D-62B1-4FB8-A5BE-1D44FF883105}
  9
$VERSIONGUID
  2
{FAEB1C32-E019-11D5-929B-00C0DF256EC4}
  9
$EXTNAMES
290
     1
  9
$PSVPSCALE
 40
0.0
  9
$OLESTARTUP
290
     0
  0
ENDSEC
  0
SECTION
  2
CLASSES
  0
CLASS
  1
ACDBDICTIONARYWDFLT
  2
AcDbDictionaryWithDefault
  3
ObjectDBX Classes
 90
        0
280
     0
281
     0
  0
CLASS
  1
VISUALSTYLE
  2
AcDbVisualStyle
  3
ObjectDBX Classes
 90
     4095
280
     0
281
     0
  0
CLASS
  1
MATERIAL
  2
AcDbMaterial
  3
ObjectDBX Classes
 90
     1153
280
     0
281
     0
  0
CLASS
  1
SCALE
  2
AcDbScale
  3
ObjectDBX Classes
 90
     1153
280
     0
281
     0
  0
CLASS
  1
TABLESTYLE
  2
AcDbTableStyle
  3
ObjectDBX Classes
 90
     4095
280
     0
281
     0
  0
CLASS
  1
MLEADERSTYLE
  2
AcDbMLeaderStyle
  3
ACDB_MLEADERSTYLE_CLASS
 90
     4095
280
     0
281
     0
  0
CLASS
  1
SUN
  2
AcDbSun
  3
SCENEOE
 90
     1153
280
     0
281
     0
  0
CLASS
  1
ACDBPLACEHOLDER
  2
AcDbPlaceHolder
  3
ObjectDBX Classes
 90
        0
280
     0
281
     0
  0
CLASS
  1
LAYOUT
  2
AcDbLayout
  3
ObjectDBX Classes
 90
        0
280
     0
281
     0
  0
ENDSEC
  0
SECTION
  2
TABLES
  0
TABLE
  2
VPORT
  5
8
330
0
100
AcDbSymbolTable
 70
     1
  0
VPORT
  5
29
330
8
100
AcDbSymbolTableRecord
100
AcDbViewportTableRecord
  2
*Active
 70
     0
 10
0.0
 20
0.0
 11
1.0
 21
1.0
 12
215.9
 22
139.7
 13
0.0
 23
0.0
 14
10.0
 24
10.0
 15
10.0
 25
10.0
 16
0.0
 26
0.0
 36
1.0
 17
0.0
 27
0.0
 37
0.0
 40
279.4
 41
1.5454545455
 42
50.0
 43
0.0
 44
0.0
 50
0.0
 51
0.0
 71
     0
 72
  2000
 73
     1
 74
     3
 75
     0
 76
     0
 77
     0
 78
     0
281
     0
 65
     1
110
0.0
120
0.0
130
0.0
111
1.0
121
0.0
131
0.0
112
0.0
122
1.0
132
0.0
 79
     0
146
0.0
  0
ENDTAB
  0
TABLE
  2
LTYPE
  5
5
330
0
100
AcDbSymbolTable
 70
     6
  0
LTYPE
  5
14
330
5
100
AcDbSymbolTableRecord
100
AcDbLinetypeTableRecord
  2
ByBlock
 70
     0
  3

 72
    65
 73
     0
 40
0.0
  0
LTYPE
  5
15
330
5
100
AcDbSymbolTableRecord
100
AcDbLinetypeTableRecord
  2
ByLayer
 70
     0
  3

 72
    65
 73
     0
 40
0.0
  0
LTYPE
  5
16
330
5
100
AcDbSymbolTableRecord
100
AcDbLinetypeTableRecord
  2
Continuous
 70
     0
  3
Solid line
 72
    65
 73
     0
 40
0.0
  0
LTYPE
  5
6E
330
5
100
AcDbSymbolTableRecord
100
AcDbLinetypeTableRecord
  2
HIDDEN
 70
     0
  3
Hidden __ __ __ __ __ __ __ __ __ __ __ __ __ __
 72
    65
 73
     2
 40
1.905
 49
1.27
 74
     0
 49
-0.635
 74
     0
  0
LTYPE
  5
6F
330
5
100
AcDbSymbolTableRecord
100
AcDbLinetypeTableRecord
  2
PHANTOM
 70
     0
  3
Phantom ______  __  __  ______  __  __  ______
 72
    65
 73
     6
 40
12.7
 49
6.35
 74
     0
 49
-1.27
 74
     0
 49
1.27
 74
     0
 49
-1.27
 74
     0
 49
1.27
 74
     0
 49
-1.27
 74
     0
  0
LTYPE
  5
70
330
5
100
AcDbSymbolTableRecord
100
AcDbLinetypeTableRecord
  2
CENTER
 70
     0
  3
Center ____ _ ____ _ ____ _ ____ _ ____ _ ____
 72
    65
 73
     4
 40
10.16
 49
6.35
 74
     0
 49
-1.27
 74
     0
 49
1.27
 74
     0
 49
-1.27
 74
     0
  0
LTYPE
  5
71
330
5
100
AcDbSymbolTableRecord
100
AcDbLinetypeTableRecord
  2
CENTERX2
 70
     0
  3
Center (2x) ________  __  ________  __  _____
 72
    65
 73
     4
 40
20.32
 49
12.7
 74
     0
 49
-2.54
 74
     0
 49
2.54
 74
     0
 49
-2.54
 74
     0
  0
LTYPE
  5
72
330
5
100
AcDbSymbolTableRecord
100
AcDbLinetypeTableRecord
  2
DOT2
 70
     0
  3
Dot (.5x) ........................................
 72
    65
 73
     2
 40
0.635
 49
0.0
 74
     0
 49
-0.635
 74
     0
  0
ENDTAB
  0
TABLE
  2
LAYER
  5
2
330
0
100
AcDbSymbolTable
 70
     1
  0
LAYER
  5
10
330
2
100
AcDbSymbolTableRecord
100
AcDbLayerTableRecord
  2
0
 70
     0
 62
     7
  6
Continuous
370
    -3
390
F
  0
ENDTAB
  0
TABLE
  2
STYLE
  5
3
330
0
100
AcDbSymbolTable
 70
     2
  0
STYLE
  5
11
330
3
100
AcDbSymbolTableRecord
100
AcDbTextStyleTableRecord
  2
Standard
 70
     0
 40
0.0
 41
1.0
 50
0.0
 71
     0
 42
3.5
  3
txt
  4
bigfont
  0
STYLE
  5
73
330
3
100
AcDbSymbolTableRecord
100
AcDbTextStyleTableRecord
  2
SLDTEXTSTYLE0
 70
     0
 40
0.0
 41
0.7
 50
0.0
 71
     0
 42
3.5
  3
TXT
  4
bigfont
  0
ENDTAB
  0
TABLE
  2
VIEW
  5
6
330
0
100
AcDbSymbolTable
 70
     0
  0
ENDTAB
  0
TABLE
  2
UCS
  5
7
330
0
100
AcDbSymbolTable
 70
     0
  0
ENDTAB
  0
TABLE
  2
APPID
  5
9
330
0
100
AcDbSymbolTable
 70
     1
  0
APPID
  5
12
330
9
100
AcDbSymbolTableRecord
100
AcDbRegAppTableRecord
  2
ACAD
 70
     0
  0
ENDTAB
  0
TABLE
  2
DIMSTYLE
  5
A
330
0
100
AcDbSymbolTable
 70
     1
100
AcDbDimStyleTable
  0
DIMSTYLE
105
27
330
A
100
AcDbSymbolTableRecord
100
AcDbDimStyleTableRecord
  2
ISO-25
 70
     0
 41
2.5
 42
0.625
 43
3.75
 44
1.25
 73
     0
 74
     0
 77
     1
 78
     8
140
2.5
141
2.5
143
0.0393700787
147
0.625
171
     3
172
     1
178
     0
271
     2
272
     2
274
     3
278
    44
283
     0
284
     8
340
11
  0
ENDTAB
  0
TABLE
  2
BLOCK_RECORD
  5
1
330
0
100
AcDbSymbolTable
 70
     2
  0
BLOCK_RECORD
  5
1F
330
1
100
AcDbSymbolTableRecord
100
AcDbBlockTableRecord
  2
*Model_Space
340
22
  0
BLOCK_RECORD
  5
1B
330
1
100
AcDbSymbolTableRecord
100
AcDbBlockTableRecord
  2
*Paper_Space
340
1E
  0
BLOCK_RECORD
  5
23
330
1
100
AcDbSymbolTableRecord
100
AcDbBlockTableRecord
  2
*Paper_Space0
340
26
  0
BLOCK_RECORD
  5
C8
330
1
100
AcDbSymbolTableRecord
100
AcDbBlockTableRecord
  2
SW_CENTERMARKSYMBOL_0
340
0
102
{BLKREFS
331
D3
102
}
  0
ENDTAB
  0
ENDSEC
  0
SECTION
  2
BLOCKS
  0
BLOCK
  5
20
330
1F
100
AcDbEntity
  8
0
100
AcDbBlockBegin
  2
*Model_Space
 70
     0
 10
0.0
 20
0.0
 30
0.0
  3
*Model_Space
  1

  0
ENDBLK
  5
21
330
1F
100
AcDbEntity
  8
0
100
AcDbBlockEnd
  0
BLOCK
  5
1C
330
1B
100
AcDbEntity
 67
     1
  8
0
100
AcDbBlockBegin
  2
*Paper_Space
 70
     0
 10
0.0
 20
0.0
 30
0.0
  3
*Paper_Space
  1

  0
ENDBLK
  5
1D
330
1B
100
AcDbEntity
 67
     1
  8
0
100
AcDbBlockEnd
  0
BLOCK
  5
24
330
23
100
AcDbEntity
  8
0
100
AcDbBlockBegin
  2
*Paper_Space0
 70
     0
 10
0.0
 20
0.0
 30
0.0
  3
*Paper_Space0
  1

  0
ENDBLK
  5
25
330
23
100
AcDbEntity
  8
0
100
AcDbBlockEnd
  0
BLOCK
  5
C9
330
C8
100
AcDbEntity
  8
0
100
AcDbBlockBegin
  2
SW_CENTERMARKSYMBOL_0
 70
     0
 10
0.0
 20
0.0
 30
0.0
  3
SW_CENTERMARKSYMBOL_0
  1

  0
LINE
  5
CB
330
C8
100
AcDbEntity
  8
0
  6
Continuous
 62
     0
370
    18
100
AcDbLine
 10
0.0
 20
0.0
 30
0.0
 11
0.0
 21
2.5
 31
0.0
  0
LINE
  5
CC
330
C8
100
AcDbEntity
  8
0
  6
Continuous
 62
     0
370
    18
100
AcDbLine
 10
0.0
 20
0.0
 30
0.0
 11
-2.5
 21
0.0
 31
0.0
  0
LINE
  5
CD
330
C8
100
AcDbEntity
  8
0
  6
Continuous
 62
     0
370
    18
100
AcDbLine
 10
0.0
 20
0.0
 30
0.0
 11
0.0
 21
-2.5
 31
0.0
  0
LINE
  5
CE
330
C8
100
AcDbEntity
  8
0
  6
Continuous
 62
     0
370
    18
100
AcDbLine
 10
0.0
 20
0.0
 30
0.0
 11
2.5
 21
0.0
 31
0.0
  0
LINE
  5
CF
330
C8
100
AcDbEntity
  8
0
  6
Continuous
 62
     0
370
    18
100
AcDbLine
 10
0.0
 20
5.0
 30
0.0
 11
0.0
 21
21.3534224864
 31
0.0
  0
LINE
  5
D0
330
C8
100
AcDbEntity
  8
0
  6
Continuous
 62
     0
370
    18
100
AcDbLine
 10
-5.0
 20
0.0
 30
0.0
 11
-18.2634038823
 21
0.0
 31
0.0
  0
LINE
  5
D1
330
C8
100
AcDbEntity
  8
0
  6
Continuous
 62
     0
370
    18
100
AcDbLine
 10
0.0
 20
-5.0
 30
0.0
 11
0.0
 21
-20.8767496065
 31
0.0
  0
LINE
  5
D2
330
C8
100
AcDbEntity
  8
0
  6
Continuous
 62
     0
370
    18
100
AcDbLine
 10
5.0
 20
0.0
 30
0.0
 11
18.1246495416
 21
0.0
 31
0.0
  0
ENDBLK
  5
CA
330
C8
100
AcDbEntity
  8
0
100
AcDbBlockEnd
  0
ENDSEC
  0
SECTION
  2
ENTITIES
  0
MTEXT
  5
74
330
1F
100
AcDbEntity
  8
0
  6
Continuous
 62
     7
370
     0
100
AcDbMText
 10
182.7091828742
 20
119.6287689815
 30
0.0
 40
4.7625
 41
0.0
 71
     1
 72
     1
  1
5R-NS1036
  7
SLDTEXTSTYLE0
 73
     1
 44
1.0
  0
LINE
  5
75
330
1F
100
AcDbEntity
  8
0
  6
Continuous
 62
     7
370
    25
100
AcDbLine
 10
170.5981538303
 20
68.0160491894
 30
0.0
 11
172.1715537572
 21
70.7412578035
 31
0.0
  0
LINE
  5
76
330
1F
100
AcDbEntity
  8
0
  6
Continuous
 62
     7
370
    25
100
AcDbLine
 10
172.1715537572
 20
102.2412578035
 30
0.0
 11
170.5981538303
 21
104.9664664175
 31
0.0
  0
LINE
  5
77
330
1F
100
AcDbEntity
  8
0
  6
Continuous
 62
     7
370
    25
100
AcDbLine
 10
129.7449536842
 20
104.9664664175
 30
0.0
 11
128.1715537572
 21
102.2412578035
 31
0.0
  0
LINE
  5
78
330
1F
100
AcDbEntity
  8
0
  6
Continuous
 62
     7
370
    25
100
AcDbLine
 10
128.1715537572
 20
70.7412578035
 30
0.0
 11
129.7449536842
 21
68.0160491894
 31
0.0
  0
LINE
  5
79
330
1F
100
AcDbEntity
  8
0
  6
Continuous
 62
     7
370
    25
100
AcDbLine
 10
149.508323608
 20
68.0160491894
 30
0.0
 11
150.1715537572
 21
70.4912578035
 31
0.0
  0
LINE
  5
7A
330
1F
100
AcDbEntity
  8
0
  6
Continuous
 62
     7
370
    25
100
AcDbLine
 10
150.1715537572
 20
70.4912578035
 30
0.0
 11
150.8347839065
 21
68.0160491894
 31
0.0
  0
LINE
  5
7B
330
1F
100
AcDbEntity
  8
0
  6
Continuous
 62
     7
370
    25
100
AcDbLine
 10
150.8347839065
 20
104.9664664175
 30
0.0
 11
150.1715537572
 21
102.4912578035
 31
0.0
  0
LINE
  5
7C
330
1F
100
AcDbEntity
  8
0
  6
Continuous
 62
     7
370
    25
100
AcDbLine
 10
150.1715537572
 20
102.4912578035
 30
0.0
 11
149.508323608
 21
104.9664664175
 31
0.0
  0
LINE
  5
7D
330
1F
100
AcDbEntity
  8
0
  6
Continuous
 62
     7
370
    25
100
AcDbLine
 10
167.6715537572
 20
68.5160491894
 30
0.0
 11
167.8055283534
 21
68.0160491894
 31
0.0
  0
LINE
  5
7E
330
1F
100
AcDbEntity
  8
0
  6
Continuous
 62
     7
370
    25
100
AcDbLine
 10
167.537579161
 20
68.0160491894
 30
0.0
 11
167.6715537572
 21
68.5160491894
 31
0.0
  0
LINE
  5
7F
330
1F
100
AcDbEntity
  8
0
  6
Continuous
 62
     7
370
    25
100
AcDbLine
 10
167.8055283534
 20
104.9664664175
 30
0.0
 11
167.6715537572
 21
104.4664664175
 31
0.0
  0
LINE
  5
80
330
1F
100
AcDbEntity
  8
0
  6
Continuous
 62
     7
370
    25
100
AcDbLine
 10
167.6715537572
 20
104.4664664175
 30
0.0
 11
167.537579161
 21
104.9664664175
 31
0.0
  0
SPLINE
  5
81
330
1F
100
AcDbEntity
  8
0
  6
Continuous
 62
     7
370
    25
100
AcDbSpline
210
0.0
220
0.0
230
1.0
 70
     8
 71
     3
 72
     8
 73
     4
 74
     0
 42
0.000000001
 43
0.00000001
 40
0.0
 40
0.0
 40
0.0
 40
0.0
 40
1.0
 40
1.0
 40
1.0
 40
1.0
 10
167.5375791610099
 20
77.25365349643435
 30
0.0
 10
167.5842520036207
 20
77.60202433634905
 30
0.0
 10
167.6289684001617
 20
77.95056897613527
 30
0.0
 10
167.6715537572254
 20
78.29930292570779
 30
0.0
  0
LINE
  5
82
330
1F
100
AcDbEntity
  8
0
  6
Continuous
 62
     7
370
    25
100
AcDbLine
 10
167.6715537572
 20
76.7308287818
 30
0.0
 11
167.6715537572
 21
78.2993029257
 31
0.0
  0
SPLINE
  5
83
330
1F
100
AcDbEntity
  8
0
  6
Continuous
 62
     7
370
    25
100
AcDbSpline
210
0.0
220
0.0
230
1.0
 70
     8
 71
     3
 72
     8
 73
     4
 74
     0
 42
0.000000001
 43
0.00000001
 40
0.0
 40
0.0
 40
0.0
 40
0.0
 40
1.0
 40
1.0
 40
1.0
 40
1.0
 10
167.6715537572254
 20
76.73082878179763
 30
0.0
 10
167.6289487247955
 20
76.90527631793913
 30
0.0
 10
167.5842310642587
 20
77.07954622323994
 30
0.0
 10
167.5375791610099
 20
77.25365349643435
 30
0.0
  0
LINE
  5
84
330
1F
100
AcDbEntity
  8
0
  6
Continuous
 62
     7
370
    25
100
AcDbLine
 10
150.8347839065
 20
77.2536534964
 30
0.0
 11
167.537579161
 21
77.2536534964
 31
0.0
  0
SPLINE
  5
85
330
1F
100
AcDbEntity
  8
0
  6
Continuous
 62
     7
370
    25
100
AcDbSpline
210
0.0
220
0.0
230
1.0
 70
     8
 71
     3
 72
    10
 73
     6
 74
     0
 42
0.000000001
 43
0.00000001
 40
0.0
 40
0.0
 40
0.0
 40
0.0
 40
0.5
 40
0.5
 40
1.0
 40
1.0
 40
1.0
 40
1.0
 10
150.8347839064635
 20
77.25365349643434
 30
0.0
 10
150.6291362355654
 20
78.78862860893409
 30
0.0
 10
150.4609866160035
 20
80.33301723364971
 30
0.0
 10
150.2320411563741
 20
83.41454741969989
 30
0.0
 10
150.1715537572254
 20
84.95376792281829
 30
0.0
 10
150.1715537572254
 20
86.49125780346839
 30
0.0
  0
SPLINE
  5
86
330
1F
100
AcDbEntity
  8
0
  6
Continuous
 62
     7
370
    25
100
AcDbSpline
210
0.0
220
0.0
230
1.0
 70
     8
 71
     3
 72
    10
 73
     6
 74
     0
 42
0.000000001
 43
0.00000001
 40
0.0
 40
0.0
 40
0.0
 40
0.0
 40
0.5
 40
0.5
 40
1.0
 40
1.0
 40
1.0
 40
1.0
 10
150.1715537572254
 20
86.49125780346839
 30
0.0
 10
150.1715537572254
 20
88.03402116623859
 30
0.0
 10
150.232434486994
 20
89.5750426528444
 30
0.0
 10
150.4614550905332
 20
92.65401680367067
 30
0.0
 10
150.6288820679074
 20
94.19198986477612
 30
0.0
 10
150.8347839064635
 20
95.72886211050243
 30
0.0
  0
LINE
  5
87
330
1F
100
AcDbEntity
  8
0
  6
Continuous
 62
     7
370
    25
100
AcDbLine
 10
150.8347839065
 20
95.7288621105
 30
0.0
 11
167.537579161
 21
95.7288621105
 31
0.0
  0
SPLINE
  5
88
330
1F
100
AcDbEntity
  8
0
  6
Continuous
 62
     7
370
    25
100
AcDbSpline
210
0.0
220
0.0
230
1.0
 70
     8
 71
     3
 72
     8
 73
     4
 74
     0
 42
0.000000001
 43
0.00000001
 40
0.0
 40
0.0
 40
0.0
 40
0.0
 40
1.0
 40
1.0
 40
1.0
 40
1.0
 10
167.6715537572254
 20
94.683212681229
 30
0.0
 10
167.6289496079054
 20
95.03210052167465
 30
0.0
 10
167.5842320032847
 20
95.38064055512862
 30
0.0
 10
167.5375791610099
 20
95.72886211050243
 30
0.0
  0
SPLINE
  5
89
330
1F
100
AcDbEntity
  8
0
  6
Continuous
 62
     7
370
    25
100
AcDbSpline
210
0.0
220
0.0
230
1.0
 70
     8
 71
     3
 72
     8
 73
     4
 74
     0
 42
0.000000001
 43
0.00000001
 40
0.0
 40
0.0
 40
0.0
 40
0.0
 40
1.0
 40
1.0
 40
1.0
 40
1.0
 10
167.805528353441
 20
95.72886211050243
 30
0.0
 10
167.7588555108301
 20
95.38049127058774
 30
0.0
 10
167.7141391142891
 20
95.03194663080151
 30
0.0
 10
167.6715537572254
 20
94.683212681229
 30
0.0
  0
LINE
  5
8A
330
1F
100
AcDbEntity
  8
0
  6
Continuous
 62
     7
370
    25
100
AcDbLine
 10
167.8055283534
 20
95.7288621105
 30
0.0
 11
170.5981538303
 21
95.7288621105
 31
0.0
  0
SPLINE
  5
8B
330
1F
100
AcDbEntity
  8
0
  6
Continuous
 62
     7
370
    25
100
AcDbSpline
210
0.0
220
0.0
230
1.0
 70
     8
 71
     3
 72
    18
 73
    14
 74
     0
 42
0.000000001
 43
0.00000001
 40
0.0
 40
0.0
 40
0.0
 40
0.0
 40
0.125
 40
0.125
 40
0.25
 40
0.25
 40
0.5000000000000001
 40
0.5000000000000001
 40
0.6250000000000001
 40
0.6250000000000001
 40
0.7500000000000001
 40
0.7500000000000001
 40
1.0
 40
1.0
 40
1.0
 40
1.0
 10
170.5981538302954
 20
77.25365349643434
 30
0.0
 10
170.8153444190624
 20
78.00602376577493
 30
0.0
 10
171.0151111874296
 20
78.76706008290319
 30
0.0
 10
171.3679113945752
 20
80.29932458521093
 30
0.0
 10
171.5202738196066
 20
81.06757961294196
 30
0.0
 10
171.8930478415589
 20
83.3797904317375
 30
0.0
 10
172.0274148331816
 20
84.93134485477489
 30
0.0
 10
172.0271165320159
 20
87.27650183298188
 30
0.0
 10
171.9936245757919
 20
88.06273478443322
 30
0.0
 10
171.8613770573706
 20
89.63427610445245
 30
0.0
 10
171.7635241377265
 20
90.41176785538087
 30
0.0
 10
171.3881269370677
 20
92.72288946977335
 30
0.0
 10
171.029304632138
 20
94.23531192147166
 30
0.0
 10
170.5981538302954
 20
95.72886211050243
 30
0.0
  0
LINE
  5
8C
330
1F
100
AcDbEntity
  8
0
  6
Continuous
 62
     7
370
    25
100
AcDbLine
 10
167.8055283534
 20
77.2536534964
 30
0.0
 11
170.5981538303
 21
77.2536534964
 31
0.0
  0
SPLINE
  5
8D
330
1F
100
AcDbEntity
  8
0
  6
Continuous
 62
     7
370
    25
100
AcDbSpline
210
0.0
220
0.0
230
1.0
 70
     8
 71
     3
 72
     8
 73
     4
 74
     0
 42
0.000000001
 43
0.00000001
 40
0.0
 40
0.0
 40
0.0
 40
0.0
 40
1.0
 40
1.0
 40
1.0
 40
1.0
 10
167.6715537572254
 20
78.29930292570779
 30
0.0
 10
167.7141579065455
 20
77.95041508526212
 30
0.0
 10
167.7588755111663
 20
77.60187505180815
 30
0.0
 10
167.805528353441
 20
77.25365349643434
 30
0.0
  0
LINE
  5
8E
330
1F
100
AcDbEntity
  8
0
  6
Continuous
 62
     7
370
    25
100
AcDbLine
 10
150.8347839065
 20
68.0160491894
 30
0.0
 11
167.537579161
 21
68.0160491894
 31
0.0
  0
SPLINE
  5
8F
330
1F
100
AcDbEntity
  8
0
  6
Continuous
 62
     7
370
    25
100
AcDbSpline
210
0.0
220
0.0
230
1.0
 70
     8
 71
     3
 72
    10
 73
     6
 74
     0
 42
0.000000001
 43
0.00000001
 40
0.0
 40
0.0
 40
0.0
 40
0.0
 40
0.5
 40
0.5
 40
1.0
 40
1.0
 40
1.0
 40
1.0
 10
150.8347839064634
 20
68.01604918940018
 30
0.0
 10
150.6285165219577
 20
68.7858495483197
 30
0.0
 10
150.4610290247338
 20
69.55564990723921
 30
0.0
 10
150.2321959074135
 20
71.09525062507824
 30
0.0
 10
150.1715537572254
 20
71.86505098399776
 30
0.0
 10
150.1715537572254
 20
72.63485134291727
 30
0.0
  0
SPLINE
  5
90
330
1F
100
AcDbEntity
  8
0
  6
Continuous
 62
     7
370
    25
100
AcDbSpline
210
0.0
220
0.0
230
1.0
 70
     8
 71
     3
 72
    10
 73
     6
 74
     0
 42
0.000000001
 43
0.00000001
 40
0.0
 40
0.0
 40
0.0
 40
0.0
 40
0.5
 40
0.5
 40
1.0
 40
1.0
 40
1.0
 40
1.0
 10
150.1715537572254
 20
72.63485134291727
 30
0.0
 10
150.1715537572254
 20
73.40465170183678
 30
0.0
 10
150.2321959074135
 20
74.1744520607563
 30
0.0
 10
150.4610290247338
 20
75.71405277859533
 30
0.0
 10
150.6285165219577
 20
76.48385313751484
 30
0.0
 10
150.8347839064634
 20
77.25365349643435
 30
0.0
  0
SPLINE
  5
91
330
1F
100
AcDbEntity
  8
0
  6
Continuous
 62
     7
370
    25
100
AcDbSpline
210
0.0
220
0.0
230
1.0
 70
     8
 71
     3
 72
     8
 73
     4
 74
     0
 42
0.000000001
 43
0.00000001
 40
0.0
 40
0.0
 40
0.0
 40
0.0
 40
1.0
 40
1.0
 40
1.0
 40
1.0
 10
167.805528353441
 20
77.25365349643434
 30
0.0
 10
167.7588581898781
 20
77.07947807481997
 30
0.0
 10
167.714141629619
 20
76.90520605567473
 30
0.0
 10
167.6715537572254
 20
76.73082878179763
 30
0.0
  0
SPLINE
  5
92
330
1F
100
AcDbEntity
  8
0
  6
Continuous
 62
     7
370
    25
100
AcDbSpline
210
0.0
220
0.0
230
1.0
 70
     8
 71
     3
 72
    16
 73
    12
 74
     0
 42
0.000000001
 43
0.00000001
 40
0.0
 40
0.0
 40
0.0
 40
0.0
 40
0.2499999999999999
 40
0.2499999999999999
 40
0.4999999999999998
 40
0.4999999999999998
 40
0.6249999999999998
 40
0.6249999999999998
 40
0.7499999999999997
 40
0.7499999999999997
 40
1.0
 40
1.0
 40
1.0
 40
1.0
 10
170.5981538302956
 20
77.25365349643437
 30
0.0
 10
171.033569997486
 20
76.49949057242375
 30
0.0
 10
171.3924316914135
 20
75.73982934083281
 30
0.0
 10
171.889571575668
 20
74.20466409409768
 30
0.0
 10
172.0262099181914
 20
73.42904230154315
 30
0.0
 10
172.0277108904375
 20
72.25099692455703
 30
0.0
 10
171.9943081831159
 20
71.85646682639867
 30
0.0
 10
171.8640549713173
 20
71.07604478474849
 30
0.0
 10
171.7673366812389
 20
70.68845022634247
 30
0.0
 10
171.3938627882711
 20
69.53256713580159
 30
0.0
 10
171.0341128146196
 20
68.7711523002656
 30
0.0
 10
170.5981538302955
 20
68.01604918940018
 30
0.0
  0
LINE
  5
93
330
1F
100
AcDbEntity
  8
0
  6
Continuous
 62
     7
370
    25
100
AcDbLine
 10
167.8055283534
 20
68.0160491894
 30
0.0
 11
170.5981538303
 21
68.0160491894
 31
0.0
  0
SPLINE
  5
94
330
1F
100
AcDbEntity
  8
0
  6
Continuous
 62
     7
370
    25
100
AcDbSpline
210
0.0
220
0.0
230
1.0
 70
     8
 71
     3
 72
     8
 73
     4
 74
     0
 42
0.000000001
 43
0.00000001
 40
0.0
 40
0.0
 40
0.0
 40
0.0
 40
1.0
 40
1.0
 40
1.0
 40
1.0
 10
167.6715537572254
 20
68.53887390403692
 30
0.0
 10
167.7141587896553
 20
68.36442636789542
 30
0.0
 10
167.7588764501922
 20
68.1901564625946
 30
0.0
 10
167.805528353441
 20
68.01604918940018
 30
0.0
  0
SPLINE
  5
95
330
1F
100
AcDbEntity
  8
0
  6
Continuous
 62
     7
370
    25
100
AcDbSpline
210
0.0
220
0.0
230
1.0
 70
     8
 71
     3
 72
     8
 73
     4
 74
     0
 42
0.000000001
 43
0.00000001
 40
0.0
 40
0.0
 40
0.0
 40
0.0
 40
1.0
 40
1.0
 40
1.0
 40
1.0
 10
167.5375791610099
 20
68.01604918940018
 30
0.0
 10
167.5842493245728
 20
68.19022461101456
 30
0.0
 10
167.6289658848319
 20
68.3644966301598
 30
0.0
 10
167.6715537572254
 20
68.5388739040369
 30
0.0
  0
SPLINE
  5
96
330
1F
100
AcDbEntity
  8
0
  6
Continuous
 62
     7
370
    25
100
AcDbSpline
210
0.0
220
0.0
230
1.0
 70
     8
 71
     3
 72
    10
 73
     6
 74
     0
 42
0.000000001
 43
0.00000001
 40
0.0
 40
0.0
 40
0.0
 40
0.0
 40
0.5
 40
0.5
 40
1.0
 40
1.0
 40
1.0
 40
1.0
 10
149.5083236079874
 20
95.72886211050243
 30
0.0
 10
149.7145909924931
 20
96.49866246942192
 30
0.0
 10
149.882078489717
 20
97.26846282834141
 30
0.0
 10
150.1109116070373
 20
98.80806354618038
 30
0.0
 10
150.1715537572254
 20
99.57786390509986
 30
0.0
 10
150.1715537572254
 20
100.3476642640194
 30
0.0
  0
LINE
  5
97
330
1F
100
AcDbEntity
  8
0
  6
Continuous
 62
     7
370
    25
100
AcDbLine
 10
150.1715537572
 20
86.4912578035
 30
0.0
 11
150.1715537572
 21
100.347664264
 31
0.0
  0
SPLINE
  5
98
330
1F
100
AcDbEntity
  8
0
  6
Continuous
 62
     7
370
    25
100
AcDbSpline
210
0.0
220
0.0
230
1.0
 70
     8
 71
     3
 72
    10
 73
     6
 74
     0
 42
0.000000001
 43
0.00000001
 40
0.0
 40
0.0
 40
0.0
 40
0.0
 40
0.5
 40
0.5
 40
1.0
 40
1.0
 40
1.0
 40
1.0
 10
150.1715537572254
 20
86.49125780346839
 30
0.0
 10
150.1715537572254
 20
88.03402116623859
 30
0.0
 10
150.1106730274569
 20
89.5750426528444
 30
0.0
 10
149.8816524239176
 20
92.65401680367067
 30
0.0
 10
149.7142254465435
 20
94.19198986477612
 30
0.0
 10
149.5083236079874
 20
95.72886211050243
 30
0.0
  0
LINE
  5
99
330
1F
100
AcDbEntity
  8
0
  6
Continuous
 62
     7
370
    25
100
AcDbLine
 10
150.1715537572
 20
72.6348513429
 30
0.0
 11
150.1715537572
 21
86.4912578035
 31
0.0
  0
SPLINE
  5
9A
330
1F
100
AcDbEntity
  8
0
  6
Continuous
 62
     7
370
    25
100
AcDbSpline
210
0.0
220
0.0
230
1.0
 70
     8
 71
     3
 72
    10
 73
     6
 74
     0
 42
0.000000001
 43
0.00000001
 40
0.0
 40
0.0
 40
0.0
 40
0.0
 40
0.5
 40
0.5
 40
1.0
 40
1.0
 40
1.0
 40
1.0
 10
150.1715537572254
 20
72.63485134291727
 30
0.0
 10
150.1715537572254
 20
73.40465170183678
 30
0.0
 10
150.1109116070373
 20
74.1744520607563
 30
0.0
 10
149.882078489717
 20
75.71405277859533
 30
0.0
 10
149.7145909924931
 20
76.48385313751484
 30
0.0
 10
149.5083236079874
 20
77.25365349643435
 30
0.0
  0
SPLINE
  5
9B
330
1F
100
AcDbEntity
  8
0
  6
Continuous
 62
     7
370
    25
100
AcDbSpline
210
0.0
220
0.0
230
1.0
 70
     8
 71
     3
 72
    10
 73
     6
 74
     0
 42
0.000000001
 43
0.00000001
 40
0.0
 40
0.0
 40
0.0
 40
0.0
 40
0.5
 40
0.5
 40
1.0
 40
1.0
 40
1.0
 40
1.0
 10
149.5083236079874
 20
77.25365349643434
 30
0.0
 10
149.7139712788855
 20
78.78862860893409
 30
0.0
 10
149.8821208984473
 20
80.33301723364971
 30
0.0
 10
150.1110663580768
 20
83.41454741969989
 30
0.0
 10
150.1715537572254
 20
84.95376792281829
 30
0.0
 10
150.1715537572254
 20
86.49125780346839
 30
0.0
  0
LINE
  5
9C
330
1F
100
AcDbEntity
  8
0
  6
Continuous
 62
     7
370
    25
100
AcDbLine
 10
129.7449536842
 20
95.7288621105
 30
0.0
 11
149.508323608
 21
95.7288621105
 31
0.0
  0
LINE
  5
9D
330
1F
100
AcDbEntity
  8
0
  6
Continuous
 62
     7
370
    25
100
AcDbLine
 10
129.7449536842
 20
77.2536534964
 30
0.0
 11
149.508323608
 21
77.2536534964
 31
0.0
  0
SPLINE
  5
9E
330
1F
100
AcDbEntity
  8
0
  6
Continuous
 62
     7
370
    25
100
AcDbSpline
210
0.0
220
0.0
230
1.0
 70
     8
 71
     3
 72
    16
 73
    12
 74
     0
 42
0.000000001
 43
0.00000001
 40
0.0
 40
0.0
 40
0.0
 40
0.0
 40
0.2500000000000001
 40
0.2500000000000001
 40
0.5000000000000001
 40
0.5000000000000001
 40
0.6250000000000001
 40
0.6250000000000001
 40
0.7500000000000002
 40
0.7500000000000002
 40
1.0
 40
1.0
 40
1.0
 40
1.0
 10
129.7449536841555
 20
77.25365349643435
 30
0.0
 10
129.3107311804704
 20
78.75784437277893
 30
0.0
 10
128.9471164600831
 20
80.29664788757692
 30
0.0
 10
128.4499914120782
 20
83.38025505713155
 30
0.0
 10
128.3157060905139
 20
84.93171760510512
 30
0.0
 10
128.3159842341278
 20
87.27596007723848
 30
0.0
 10
128.3493704820196
 20
88.06095199895596
 30
0.0
 10
128.4816130144631
 20
89.63332614527414
 30
0.0
 10
128.5794894869173
 20
90.41112609074268
 30
0.0
 10
128.9549631152331
 20
92.72290938203837
 30
0.0
 10
129.3138359154293
 20
94.23542635154352
 30
0.0
 10
129.7449536841555
 20
95.72886211050243
 30
0.0
  0
SPLINE
  5
9F
330
1F
100
AcDbEntity
  8
0
  6
Continuous
 62
     7
370
    25
100
AcDbSpline
210
0.0
220
0.0
230
1.0
 70
     8
 71
     3
 72
    16
 73
    12
 74
     0
 42
0.000000001
 43
0.00000001
 40
0.0
 40
0.0
 40
0.0
 40
0.0
 40
0.2499999999999999
 40
0.2499999999999999
 40
0.4999999999999998
 40
0.4999999999999998
 40
0.6249999999999999
 40
0.6249999999999999
 40
0.7499999999999999
 40
0.7499999999999999
 40
1.0
 40
1.0
 40
1.0
 40
1.0
 10
170.5981538302956
 20
104.9664664175363
 30
0.0
 10
171.033569997486
 20
104.2123034935257
 30
0.0
 10
171.3924316914135
 20
103.4526422619348
 30
0.0
 10
171.8895715756679
 20
101.9174770151997
 30
0.0
 10
172.0262099181913
 20
101.1418552226452
 30
0.0
 10
172.0277108904374
 20
99.96380984565913
 30
0.0
 10
171.9943081831159
 20
99.5692797475008
 30
0.0
 10
171.8640549713172
 20
98.78885770585063
 30
0.0
 10
171.7673366812389
 20
98.40126314744461
 30
0.0
 10
171.3938627882711
 20
97.2453800569038
 30
0.0
 10
171.0341128146195
 20
96.48396522136781
 30
0.0
 10
170.5981538302955
 20
95.72886211050242
 30
0.0
  0
LINE
  5
A0
330
1F
100
AcDbEntity
  8
0
  6
Continuous
 62
     7
370
    25
100
AcDbLine
 10
172.1715537572
 20
102.2412578035
 30
0.0
 11
172.1715537572
 21
70.7412578035
 31
0.0
  0
SPLINE
  5
A1
330
1F
100
AcDbEntity
  8
0
  6
Continuous
 62
     7
370
    25
100
AcDbSpline
210
0.0
220
0.0
230
1.0
 70
     8
 71
     3
 72
    10
 73
     6
 74
     0
 42
0.000000001
 43
0.00000001
 40
0.0
 40
0.0
 40
0.0
 40
0.0
 40
0.5
 40
0.5
 40
1.0
 40
1.0
 40
1.0
 40
1.0
 10
150.8347839064634
 20
95.72886211050243
 30
0.0
 10
150.6285165219578
 20
96.49866246942192
 30
0.0
 10
150.4610290247338
 20
97.26846282834141
 30
0.0
 10
150.2321959074135
 20
98.80806354618038
 30
0.0
 10
150.1715537572255
 20
99.57786390509986
 30
0.0
 10
150.1715537572255
 20
100.3476642640194
 30
0.0
  0
SPLINE
  5
A2
330
1F
100
AcDbEntity
  8
0
  6
Continuous
 62
     7
370
    25
100
AcDbSpline
210
0.0
220
0.0
230
1.0
 70
     8
 71
     3
 72
    16
 73
    12
 74
     0
 42
0.000000001
 43
0.00000001
 40
0.0
 40
0.0
 40
0.0
 40
0.0
 40
0.2500000000000002
 40
0.2500000000000002
 40
0.5000000000000003
 40
0.5000000000000003
 40
0.6250000000000003
 40
0.6250000000000003
 40
0.7500000000000003
 40
0.7500000000000003
 40
1.0
 40
1.0
 40
1.0
 40
1.0
 10
129.7449536841553
 20
68.01604918940018
 30
0.0
 10
129.3095375169649
 20
68.77021211341078
 30
0.0
 10
128.9506758230374
 20
69.52987334500172
 30
0.0
 10
128.4535359387829
 20
71.06503859173687
 30
0.0
 10
128.3168975962595
 20
71.84066038429141
 30
0.0
 10
128.3153966240134
 20
73.01870576127752
 30
0.0
 10
128.348799331335
 20
73.41323585943586
 30
0.0
 10
128.4790525431336
 20
74.19365790108604
 30
0.0
 10
128.575770833212
 20
74.58125245949206
 30
0.0
 10
128.9492447261798
 20
75.73713555003295
 30
0.0
 10
129.3089946998313
 20
76.49855038556895
 30
0.0
 10
129.7449536841554
 20
77.25365349643437
 30
0.0
  0
SPLINE
  5
A3
330
1F
100
AcDbEntity
  8
0
  6
Continuous
 62
     7
370
    25
100
AcDbSpline
210
0.0
220
0.0
230
1.0
 70
     8
 71
     3
 72
    16
 73
    12
 74
     0
 42
0.000000001
 43
0.00000001
 40
0.0
 40
0.0
 40
0.0
 40
0.0
 40
0.25
 40
0.25
 40
0.5
 40
0.5
 40
0.6249999999999999
 40
0.6249999999999999
 40
0.7499999999999998
 40
0.7499999999999998
 40
1.0
 40
1.0
 40
1.0
 40
1.0
 10
129.7449536841553
 20
95.7288621105024
 30
0.0
 10
129.309537516965
 20
96.483025034513
 30
0.0
 10
128.9506758230374
 20
97.24268626610392
 30
0.0
 10
128.4535359387829
 20
98.777851512839
 30
0.0
 10
128.3168975962595
 20
99.55347330539351
 30
0.0
 10
128.3153966240134
 20
100.7315186823796
 30
0.0
 10
128.348799331335
 20
101.1260487805379
 30
0.0
 10
128.4790525431336
 20
101.9064708221881
 30
0.0
 10
128.575770833212
 20
102.2940653805941
 30
0.0
 10
128.9492447261798
 20
103.4499484711349
 30
0.0
 10
129.3089946998313
 20
104.2113633066709
 30
0.0
 10
129.7449536841554
 20
104.9664664175363
 30
0.0
  0
LINE
  5
A4
330
1F
100
AcDbEntity
  8
0
  6
Continuous
 62
     7
370
    25
100
AcDbLine
 10
128.1715537572
 20
86.4912578035
 30
0.0
 11
128.1715537572
 21
102.2412578035
 31
0.0
  0
LINE
  5
A5
330
1F
100
AcDbEntity
  8
0
  6
Continuous
 62
     7
370
    25
100
AcDbLine
 10
128.1715537572
 20
70.7412578035
 30
0.0
 11
128.1715537572
 21
86.4912578035
 31
0.0
  0
LINE
  5
A6
330
1F
100
AcDbEntity
  8
0
  6
Continuous
 62
     7
370
    25
100
AcDbLine
 10
167.6715537572
 20
94.6832126812
 30
0.0
 11
167.6715537572
 21
96.2516868251
 31
0.0
  0
SPLINE
  5
A7
330
1F
100
AcDbEntity
  8
0
  6
Continuous
 62
     7
370
    25
100
AcDbSpline
210
0.0
220
0.0
230
1.0
 70
     8
 71
     3
 72
     8
 73
     4
 74
     0
 42
0.000000001
 43
0.00000001
 40
0.0
 40
0.0
 40
0.0
 40
0.0
 40
1.0
 40
1.0
 40
1.0
 40
1.0
 10
167.6715537572254
 20
96.25168682513916
 30
0.0
 10
167.7141587896553
 20
96.07723928899766
 30
0.0
 10
167.7588764501922
 20
95.90296938369686
 30
0.0
 10
167.805528353441
 20
95.72886211050243
 30
0.0
  0
SPLINE
  5
A8
330
1F
100
AcDbEntity
  8
0
  6
Continuous
 62
     7
370
    25
100
AcDbSpline
210
0.0
220
0.0
230
1.0
 70
     8
 71
     3
 72
    10
 73
     6
 74
     0
 42
0.000000001
 43
0.00000001
 40
0.0
 40
0.0
 40
0.0
 40
0.0
 40
0.5
 40
0.5
 40
1.0
 40
1.0
 40
1.0
 40
1.0
 10
149.5083236079874
 20
68.01604918940018
 30
0.0
 10
149.7145909924931
 20
68.7858495483197
 30
0.0
 10
149.882078489717
 20
69.55564990723921
 30
0.0
 10
150.1109116070373
 20
71.09525062507824
 30
0.0
 10
150.1715537572254
 20
71.86505098399776
 30
0.0
 10
150.1715537572254
 20
72.63485134291727
 30
0.0
  0
LINE
  5
A9
330
1F
100
AcDbEntity
  8
0
  6
Continuous
 62
     7
370
    25
100
AcDbLine
 10
129.7449536842
 20
68.0160491894
 30
0.0
 11
149.508323608
 21
68.0160491894
 31
0.0
  0
SPLINE
  5
AA
330
1F
100
AcDbEntity
  8
0
  6
Continuous
 62
     7
370
    25
100
AcDbSpline
210
0.0
220
0.0
230
1.0
 70
     8
 71
     3
 72
     8
 73
     4
 74
     0
 42
0.000000001
 43
0.00000001
 40
0.0
 40
0.0
 40
0.0
 40
0.0
 40
1.0
 40
1.0
 40
1.0
 40
1.0
 10
167.5375791610099
 20
95.72886211050243
 30
0.0
 10
167.5842493245728
 20
95.90303753211681
 30
0.0
 10
167.6289658848319
 20
96.07730955126206
 30
0.0
 10
167.6715537572254
 20
96.25168682513916
 30
0.0
  0
LINE
  5
AB
330
1F
100
AcDbEntity
  8
0
  6
Continuous
 62
     7
370
    25
100
AcDbLine
 10
129.7449536842
 20
104.9664664175
 30
0.0
 11
149.508323608
 21
104.9664664175
 31
0.0
  0
SPLINE
  5
AC
330
1F
100
AcDbEntity
  8
0
  6
Continuous
 62
     7
370
    25
100
AcDbSpline
210
0.0
220
0.0
230
1.0
 70
     8
 71
     3
 72
    10
 73
     6
 74
     0
 42
0.000000001
 43
0.00000001
 40
0.0
 40
0.0
 40
0.0
 40
0.0
 40
0.5
 40
0.5
 40
1.0
 40
1.0
 40
1.0
 40
1.0
 10
150.1715537572254
 20
100.3476642640194
 30
0.0
 10
150.1715537572254
 20
101.1174646229388
 30
0.0
 10
150.1109116070373
 20
101.8872649818583
 30
0.0
 10
149.882078489717
 20
103.4268656996973
 30
0.0
 10
149.7145909924931
 20
104.1966660586168
 30
0.0
 10
149.5083236079874
 20
104.9664664175363
 30
0.0
  0
SPLINE
  5
AD
330
1F
100
AcDbEntity
  8
0
  6
Continuous
 62
     7
370
    25
100
AcDbSpline
210
0.0
220
0.0
230
1.0
 70
     8
 71
     3
 72
    10
 73
     6
 74
     0
 42
0.000000001
 43
0.00000001
 40
0.0
 40
0.0
 40
0.0
 40
0.0
 40
0.5
 40
0.5
 40
1.0
 40
1.0
 40
1.0
 40
1.0
 10
150.1715537572255
 20
100.3476642640194
 30
0.0
 10
150.1715537572255
 20
101.1174646229388
 30
0.0
 10
150.2321959074135
 20
101.8872649818583
 30
0.0
 10
150.4610290247338
 20
103.4268656996973
 30
0.0
 10
150.6285165219578
 20
104.1966660586168
 30
0.0
 10
150.8347839064634
 20
104.9664664175363
 30
0.0
  0
LINE
  5
AE
330
1F
100
AcDbEntity
  8
0
  6
Continuous
 62
     7
370
    25
100
AcDbLine
 10
150.8347839065
 20
104.9664664175
 30
0.0
 11
167.537579161
 21
104.9664664175
 31
0.0
  0
SPLINE
  5
AF
330
1F
100
AcDbEntity
  8
0
  6
Continuous
 62
     7
370
    25
100
AcDbSpline
210
0.0
220
0.0
230
1.0
 70
     8
 71
     3
 72
     8
 73
     4
 74
     0
 42
0.000000001
 43
0.00000001
 40
0.0
 40
0.0
 40
0.0
 40
0.0
 40
1.0
 40
1.0
 40
1.0
 40
1.0
 10
167.6715537572254
 20
104.4436417028996
 30
0.0
 10
167.6289487247955
 20
104.6180892390411
 30
0.0
 10
167.5842310642587
 20
104.7923591443418
 30
0.0
 10
167.5375791610099
 20
104.9664664175363
 30
0.0
  0
SPLINE
  5
B0
330
1F
100
AcDbEntity
  8
0
  6
Continuous
 62
     7
370
    25
100
AcDbSpline
210
0.0
220
0.0
230
1.0
 70
     8
 71
     3
 72
     8
 73
     4
 74
     0
 42
0.000000001
 43
0.00000001
 40
0.0
 40
0.0
 40
0.0
 40
0.0
 40
1.0
 40
1.0
 40
1.0
 40
1.0
 10
167.805528353441
 20
104.9664664175363
 30
0.0
 10
167.7588581898781
 20
104.7922909959219
 30
0.0
 10
167.714141629619
 20
104.6180189767766
 30
0.0
 10
167.6715537572254
 20
104.4436417028996
 30
0.0
  0
LINE
  5
B1
330
1F
100
AcDbEntity
  8
0
  6
Continuous
 62
     7
370
    25
100
AcDbLine
 10
167.8055283534
 20
104.9664664175
 30
0.0
 11
170.5981538303
 21
104.9664664175
 31
0.0
  0
LINE
  5
B2
330
1F
100
AcDbEntity
  8
0
  6
Continuous
 62
     7
370
    25
100
AcDbLine
 10
150.1715537572
 20
70.4912578035
 30
0.0
 11
150.1715537572
 21
72.6348513429
 31
0.0
  0
LINE
  5
B3
330
1F
100
AcDbEntity
  8
0
  6
Continuous
 62
     7
370
    25
100
AcDbLine
 10
150.1715537572
 20
100.347664264
 30
0.0
 11
150.1715537572
 21
102.4912578035
 31
0.0
  0
LINE
  5
B4
330
1F
100
AcDbEntity
  8
0
  6
Continuous
 62
     7
370
    25
100
AcDbLine
 10
167.6715537572
 20
68.5160491894
 30
0.0
 11
167.6715537572
 21
68.538873904
 31
0.0
  0
LINE
  5
B5
330
1F
100
AcDbEntity
  8
0
  6
Continuous
 62
     7
370
    25
100
AcDbLine
 10
167.6715537572
 20
104.4436417029
 30
0.0
 11
167.6715537572
 21
104.4664664175
 31
0.0
  0
LINE
  5
B6
330
1F
100
AcDbEntity
  8
0
  6
CENTERX2
 62
     7
370
    18
100
AcDbLine
 10
168.5981538303
 20
86.4912578035
 30
0.0
 11
174.1715537572
 21
86.4912578035
 31
0.0
  0
LINE
  5
B7
330
1F
100
AcDbEntity
  8
0
  6
CENTERX2
 62
     7
370
    18
100
AcDbLine
 10
165.8055283534
 20
86.4912578035
 30
0.0
 11
170.5981538303
 21
86.4912578035
 31
0.0
  0
LINE
  5
B8
330
1F
100
AcDbEntity
  8
0
  6
CENTERX2
 62
     7
370
    18
100
AcDbLine
 10
148.8347839065
 20
86.4912578035
 30
0.0
 11
169.537579161
 21
86.4912578035
 31
0.0
  0
LINE
  5
B9
330
1F
100
AcDbEntity
  8
0
  6
CENTERX2
 62
     7
370
    18
100
AcDbLine
 10
127.7449536842
 20
86.4912578035
 30
0.0
 11
151.508323608
 21
86.4912578035
 31
0.0
  0
LINE
  5
BA
330
1F
100
AcDbEntity
  8
0
  6
CENTERX2
 62
     7
370
    18
100
AcDbLine
 10
131.7449536842
 20
86.4912578035
 30
0.0
 11
126.1715537572
 21
86.4912578035
 31
0.0
  0
CIRCLE
  5
BB
330
1F
100
AcDbEntity
  8
0
  6
Continuous
 62
     7
370
    25
100
AcDbCircle
 10
224.6308462428
 20
86.4912578035
 30
0.0
 40
15.75000000000003
  0
CIRCLE
  5
BC
330
1F
100
AcDbEntity
  8
0
  6
Continuous
 62
     7
370
    25
100
AcDbCircle
 10
224.6308462428
 20
86.4912578035
 30
0.0
 40
13.50000000000003
  0
SPLINE
  5
BD
330
1F
100
AcDbEntity
  8
0
  6
Continuous
 62
     7
370
    25
100
AcDbSpline
210
0.0
220
0.0
230
1.0
 70
    24
 71
     3
 72
    16
 73
    12
 74
     0
 42
0.000000001
 43
0.00000001
 40
0.0
 40
0.0
 40
0.0
 40
0.0
 40
0.2499999999999999
 40
0.2499999999999999
 40
0.4999999999999998
 40
0.4999999999999998
 40
0.6249999999999999
 40
0.6249999999999999
 40
0.7499999999999999
 40
0.7499999999999999
 40
1.0
 40
1.0
 40
1.0
 40
1.0
 10
224.6308462427746
 20
104.9664664175363
 30
0.0
 10
223.3245977412035
 20
104.2123034935257
 30
0.0
 10
222.0088258915477
 20
103.4526422619348
 30
0.0
 10
219.3498416861885
 20
101.9174770151997
 30
0.0
 10
218.0064253340264
 20
101.1418552226452
 30
0.0
 10
215.9659908874649
 20
99.96380984565913
 30
0.0
 10
215.2826447123395
 20
99.5692797475008
 30
0.0
 10
213.9309140848548
 20
98.78885770585063
 30
0.0
 10
213.2595806169583
 20
98.40126314744461
 30
0.0
 10
211.2575323765319
 20
97.2453800569038
 30
0.0
 10
209.9387231957468
 20
96.48396522136781
 30
0.0
 10
208.6308462427746
 20
95.72886211050242
 30
0.0
  0
SPLINE
  5
BE
330
1F
100
AcDbEntity
  8
0
  6
Continuous
 62
     7
370
    25
100
AcDbSpline
210
0.0
220
0.0
230
1.0
 70
    24
 71
     3
 72
    16
 73
    12
 74
     0
 42
0.000000001
 43
0.00000001
 40
0.0
 40
0.0
 40
0.0
 40
0.0
 40
0.25
 40
0.25
 40
0.5
 40
0.5
 40
0.625
 40
0.625
 40
0.75
 40
0.75
 40
1.0
 40
1.0
 40
1.0
 40
1.0
 10
240.6308462427746
 20
95.72886211050219
 30
0.0
 10
239.3245977412035
 20
96.48302503451279
 30
0.0
 10
238.0088258915477
 20
97.24268626610372
 30
0.0
 10
235.3498416861885
 20
98.77785151283885
 30
0.0
 10
234.0064253340264
 20
99.55347330539337
 30
0.0
 10
231.9659908874648
 20
100.7315186823795
 30
0.0
 10
231.2826447123394
 20
101.1260487805378
 30
0.0
 10
229.9309140848547
 20
101.906470822188
 30
0.0
 10
229.2595806169583
 20
102.294065380594
 30
0.0
 10
227.2575323765318
 20
103.4499484711349
 30
0.0
 10
225.9387231957467
 20
104.2113633066709
 30
0.0
 10
224.6308462427745
 20
104.9664664175363
 30
0.0
  0
SPLINE
  5
BF
330
1F
100
AcDbEntity
  8
0
  6
Continuous
 62
     7
370
    25
100
AcDbSpline
210
0.0
220
0.0
230
1.0
 70
    24
 71
     3
 72
    18
 73
    14
 74
     0
 42
0.000000001
 43
0.00000001
 40
0.0
 40
0.0
 40
0.0
 40
0.0
 40
0.1249999999999999
 40
0.1249999999999999
 40
0.2499999999999999
 40
0.2499999999999999
 40
0.5
 40
0.5
 40
0.625
 40
0.625
 40
0.7500000000000001
 40
0.7500000000000001
 40
1.0
 40
1.0
 40
1.0
 40
1.0
 10
240.6308462427745
 20
77.25365349643413
 30
0.0
 10
240.6308462427745
 20
78.0060237657747
 30
0.0
 10
240.6308462427745
 20
78.76706008290296
 30
0.0
 10
240.6308462427745
 20
80.2993245852107
 30
0.0
 10
240.6308462427745
 20
81.06757961294174
 30
0.0
 10
240.6308462427745
 20
83.37979043173728
 30
0.0
 10
240.6308462427745
 20
84.93134485477468
 30
0.0
 10
240.6308462427746
 20
87.27650183298167
 30
0.0
 10
240.6308462427746
 20
88.062734784433
 30
0.0
 10
240.6308462427746
 20
89.63427610445225
 30
0.0
 10
240.6308462427746
 20
90.41176785538065
 30
0.0
 10
240.6308462427746
 20
92.72288946977312
 30
0.0
 10
240.6308462427746
 20
94.23531192147145
 30
0.0
 10
240.6308462427746
 20
95.7288621105022
 30
0.0
  0
SPLINE
  5
C0
330
1F
100
AcDbEntity
  8
0
  6
Continuous
 62
     7
370
    25
100
AcDbSpline
210
0.0
220
0.0
230
1.0
 70
    24
 71
     3
 72
    16
 73
    12
 74
     0
 42
0.000000001
 43
0.00000001
 40
0.0
 40
0.0
 40
0.0
 40
0.0
 40
0.2500000000000001
 40
0.2500000000000001
 40
0.5000000000000002
 40
0.5000000000000002
 40
0.6250000000000002
 40
0.6250000000000002
 40
0.7500000000000003
 40
0.7500000000000003
 40
1.0
 40
1.0
 40
1.0
 40
1.0
 10
224.6308462427744
 20
68.01604918940018
 30
0.0
 10
225.9370947443455
 20
68.77021211341078
 30
0.0
 10
227.2528665940013
 20
69.52987334500169
 30
0.0
 10
229.9118507993606
 20
71.0650385917368
 30
0.0
 10
231.2552671515226
 20
71.84066038429131
 30
0.0
 10
233.2957015980842
 20
73.01870576127739
 30
0.0
 10
233.9790477732096
 20
73.41323585943573
 30
0.0
 10
235.3307784006943
 20
74.1936579010859
 30
0.0
 10
236.0021118685908
 20
74.5812524594919
 30
0.0
 10
238.0041601090173
 20
75.73713555003275
 30
0.0
 10
239.3229692898024
 20
76.49855038556875
 30
0.0
 10
240.6308462427745
 20
77.25365349643414
 30
0.0
  0
SPLINE
  5
C1
330
1F
100
AcDbEntity
  8
0
  6
Continuous
 62
     7
370
    25
100
AcDbSpline
210
0.0
220
0.0
230
1.0
 70
    24
 71
     3
 72
    16
 73
    12
 74
     0
 42
0.000000001
 43
0.00000001
 40
0.0
 40
0.0
 40
0.0
 40
0.0
 40
0.2499999999999999
 40
0.2499999999999999
 40
0.4999999999999998
 40
0.4999999999999998
 40
0.6249999999999998
 40
0.6249999999999998
 40
0.7499999999999997
 40
0.7499999999999997
 40
1.0
 40
1.0
 40
1.0
 40
1.0
 10
208.6308462427744
 20
77.25365349643437
 30
0.0
 10
209.9370947443455
 20
76.49949057242375
 30
0.0
 10
211.2528665940013
 20
75.73982934083281
 30
0.0
 10
213.9118507993605
 20
74.20466409409768
 30
0.0
 10
215.2552671515226
 20
73.42904230154315
 30
0.0
 10
217.2957015980842
 20
72.25099692455703
 30
0.0
 10
217.9790477732095
 20
71.85646682639867
 30
0.0
 10
219.3307784006943
 20
71.07604478474849
 30
0.0
 10
220.0021118685907
 20
70.68845022634247
 30
0.0
 10
222.0041601090172
 20
69.53256713580159
 30
0.0
 10
223.3229692898022
 20
68.7711523002656
 30
0.0
 10
224.6308462427744
 20
68.01604918940018
 30
0.0
  0
SPLINE
  5
C2
330
1F
100
AcDbEntity
  8
0
  6
Continuous
 62
     7
370
    25
100
AcDbSpline
210
0.0
220
0.0
230
1.0
 70
    24
 71
     3
 72
    18
 73
    14
 74
     0
 42
0.000000001
 43
0.00000001
 40
0.0
 40
0.0
 40
0.0
 40
0.0
 40
0.125
 40
0.125
 40
0.25
 40
0.25
 40
0.5000000000000001
 40
0.5000000000000001
 40
0.6250000000000001
 40
0.6250000000000001
 40
0.7500000000000001
 40
0.7500000000000001
 40
1.0
 40
1.0
 40
1.0
 40
1.0
 10
208.6308462427745
 20
77.25365349643434
 30
0.0
 10
208.6308462427745
 20
78.00602376577493
 30
0.0
 10
208.6308462427745
 20
78.76706008290319
 30
0.0
 10
208.6308462427745
 20
80.29932458521093
 30
0.0
 10
208.6308462427745
 20
81.06757961294196
 30
0.0
 10
208.6308462427745
 20
83.3797904317375
 30
0.0
 10
208.6308462427745
 20
84.93134485477489
 30
0.0
 10
208.6308462427746
 20
87.27650183298188
 30
0.0
 10
208.6308462427746
 20
88.06273478443322
 30
0.0
 10
208.6308462427746
 20
89.63427610445245
 30
0.0
 10
208.6308462427746
 20
90.41176785538087
 30
0.0
 10
208.6308462427746
 20
92.72288946977335
 30
0.0
 10
208.6308462427746
 20
94.23531192147166
 30
0.0
 10
208.6308462427747
 20
95.72886211050243
 30
0.0
  0
CIRCLE
  5
C3
330
1F
100
AcDbEntity
  8
0
  6
Continuous
 62
     7
370
    25
100
AcDbCircle
 10
224.6308462428
 20
86.4912578035
 30
0.0
 40
12.62991560365154
  0
CIRCLE
  5
C4
330
1F
100
AcDbEntity
  8
0
  6
Continuous
 62
     7
370
    25
100
AcDbCircle
 10
224.6308462428
 20
86.4912578035
 30
0.0
 40
12.13066913135702
  0
CIRCLE
  5
C5
330
1F
100
AcDbEntity
  8
0
  6
Continuous
 62
     7
370
    25
100
AcDbCircle
 10
224.6308462428
 20
86.4912578035
 30
0.0
 40
12.05850000000001
  0
CIRCLE
  5
C6
330
1F
100
AcDbEntity
  8
0
  6
Continuous
 62
     7
370
    25
100
AcDbCircle
 10
224.6308462428
 20
86.4912578035
 30
0.0
 40
11.75000000000003
  0
CIRCLE
  5
C7
330
1F
100
AcDbEntity
  8
0
  6
Continuous
 62
     7
370
    25
100
AcDbCircle
 10
224.6308462428
 20
86.4912578035
 30
0.0
 40
7.624511680103495
  0
INSERT
  5
D3
330
1F
100
AcDbEntity
  8
0
  6
Continuous
 62
     7
370
    18
100
AcDbBlockReference
  2
SW_CENTERMARKSYMBOL_0
 10
224.6308462428
 20
86.4912578035
 30
0.0
  0
ARC
  5
D4
330
1F
100
AcDbEntity
  8
0
  6
Continuous
 62
     7
370
    18
100
AcDbCircle
 10
224.6308462428
 20
86.4912578035
 30
0.0
 40
8.474596500000025
100
AcDbArc
 50
75.0
 51
345.0
  0
ARC
  5
D5
330
1F
100
AcDbEntity
  8
0
  6
Continuous
 62
     7
370
    18
100
AcDbCircle
 10
224.6308462428
 20
86.4912578035
 30
0.0
 40
13.25796000000002
100
AcDbArc
 50
75.0
 51
345.0
  0
LINE
  5
D6
330
1F
100
AcDbEntity
  8
0
  6
Continuous
 62
     7
370
    25
100
AcDbLine
 10
128.3158913245
 20
163.2387580645
 30
0.0
 11
128.1715537572
 21
162.9887580645
 31
0.0
  0
LINE
  5
D7
330
1F
100
AcDbEntity
  8
0
  6
Continuous
 62
     7
370
    25
100
AcDbLine
 10
128.1715537572
 20
131.4887580645
 30
0.0
 11
128.3158913245
 21
131.2387580645
 31
0.0
  0
LINE
  5
D8
330
1F
100
AcDbEntity
  8
0
  6
Continuous
 62
     7
370
    25
100
AcDbLine
 10
172.0272161899
 20
131.2387580645
 30
0.0
 11
172.1715537572
 21
131.4887580645
 31
0.0
  0
LINE
  5
D9
330
1F
100
AcDbEntity
  8
0
  6
Continuous
 62
     7
370
    25
100
AcDbLine
 10
172.1715537572
 20
162.9887580645
 30
0.0
 11
172.0272161899
 21
163.2387580645
 31
0.0
  0
SPLINE
  5
DA
330
1F
100
AcDbEntity
  8
0
  6
Continuous
 62
     7
370
    25
100
AcDbSpline
210
0.0
220
0.0
230
1.0
 70
    24
 71
     3
 72
    13
 73
     9
 74
     0
 42
0.000000001
 43
0.00000001
 40
0.0
 40
0.0
 40
0.0
 40
0.0
 40
0.113002433933352
 40
0.2422873459940512
 40
0.4303861068446243
 40
0.6191020222089042
 40
0.8093585198338626
 40
1.0
 40
1.0
 40
1.0
 40
1.0
 10
128.318814802006
 20
131.2387580645309
 30
0.0
 10
128.3215780146728
 20
131.2387580645309
 30
0.0
 10
128.3275025902783
 20
131.2387580645309
 30
0.0
 10
128.4121577995027
 20
131.2387580645309
 30
0.0
 10
128.5865985088905
 20
131.2387580645309
 30
0.0
 10
128.8849710161751
 20
131.2387580645309
 30
0.0
 10
129.2677387287333
 20
131.238758064531
 30
0.0
 10
129.5857748834752
 20
131.238758064531
 30
0.0
 10
129.7449536841555
 20
131.238758064531
 30
0.0
  0
SPLINE
  5
DB
330
1F
100
AcDbEntity
  8
0
  6
Continuous
 62
     7
370
    25
100
AcDbSpline
210
0.0
220
0.0
230
1.0
 70
    24
 71
     3
 72
    13
 73
     9
 74
     0
 42
0.000000001
 43
0.00000001
 40
0.0
 40
0.0
 40
0.0
 40
0.0
 40
0.1883728795225874
 40
0.3770814034879202
 40
0.5670995220085333
 40
0.7577109700548795
 40
0.8828503298589125
 40
1.0
 40
1.0
 40
1.0
 40
1.0
 10
129.7449536841555
 20
163.2387580645309
 30
0.0
 10
129.5876006815043
 20
163.2387580645309
 30
0.0
 10
129.2726143032468
 20
163.2387580645309
 30
0.0
 10
128.8901960018539
 20
163.2387580645309
 30
0.0
 10
128.5891029031376
 20
163.2387580645309
 30
0.0
 10
128.4138969657968
 20
163.2387580645309
 30
0.0
 10
128.3285149875295
 20
163.2387580645309
 30
0.0
 10
128.3210075206505
 20
163.2387580645309
 30
0.0
 10
128.3173775698076
 20
163.2387580645309
 30
0.0
  0
SPLINE
  5
DC
330
1F
100
AcDbEntity
  8
0
  6
Continuous
 62
     7
370
    25
100
AcDbSpline
210
0.0
220
0.0
230
1.0
 70
     8
 71
     3
 72
    16
 73
    12
 74
     0
 42
0.000000001
 43
0.00000001
 40
0.0
 40
0.0
 40
0.0
 40
0.0
 40
0.2500000000000001
 40
0.2500000000000001
 40
0.5000000000000001
 40
0.5000000000000001
 40
0.6250000000000001
 40
0.6250000000000001
 40
0.7500000000000002
 40
0.7500000000000002
 40
1.0
 40
1.0
 40
1.0
 40
1.0
 10
129.7449536841553
 20
147.2387580645309
 30
0.0
 10
129.3095375169649
 20
148.545006566102
 30
0.0
 10
128.9506758230374
 20
149.8607784157578
 30
0.0
 10
128.4535359387829
 20
152.519762621117
 30
0.0
 10
128.3168975962595
 20
153.8631789732791
 30
0.0
 10
128.3153966240134
 20
155.9036134198407
 30
0.0
 10
128.348799331335
 20
156.586959594966
 30
0.0
 10
128.4790525431336
 20
157.9386902224508
 30
0.0
 10
128.575770833212
 20
158.6100236903472
 30
0.0
 10
128.9492447261798
 20
160.6120719307737
 30
0.0
 10
129.3089946998313
 20
161.9308811115588
 30
0.0
 10
129.7449536841554
 20
163.2387580645309
 30
0.0
  0
SPLINE
  5
DD
330
1F
100
AcDbEntity
  8
0
  6
Continuous
 62
     7
370
    25
100
AcDbSpline
210
0.0
220
0.0
230
1.0
 70
     8
 71
     3
 72
    16
 73
    12
 74
     0
 42
0.000000001
 43
0.00000001
 40
0.0
 40
0.0
 40
0.0
 40
0.0
 40
0.25
 40
0.25
 40
0.5
 40
0.5
 40
0.6249999999999999
 40
0.6249999999999999
 40
0.7499999999999998
 40
0.7499999999999998
 40
1.0
 40
1.0
 40
1.0
 40
1.0
 10
129.7449536841553
 20
131.238758064531
 30
0.0
 10
129.309537516965
 20
132.545006566102
 30
0.0
 10
128.9506758230374
 20
133.8607784157579
 30
0.0
 10
128.4535359387829
 20
136.5197626211171
 30
0.0
 10
128.3168975962595
 20
137.8631789732791
 30
0.0
 10
128.3153966240134
 20
139.9036134198407
 30
0.0
 10
128.348799331335
 20
140.586959594966
 30
0.0
 10
128.4790525431336
 20
141.9386902224508
 30
0.0
 10
128.575770833212
 20
142.6100236903472
 30
0.0
 10
128.9492447261798
 20
144.6120719307737
 30
0.0
 10
129.3089946998313
 20
145.9308811115587
 30
0.0
 10
129.7449536841554
 20
147.2387580645309
 30
0.0
  0
LINE
  5
DE
330
1F
100
AcDbEntity
  8
0
  6
Continuous
 62
     7
370
    25
100
AcDbLine
 10
128.1715537572
 20
131.4887580645
 30
0.0
 11
128.1715537572
 21
162.9887580645
 31
0.0
  0
SPLINE
  5
DF
330
1F
100
AcDbEntity
  8
0
  6
Continuous
 62
     7
370
    25
100
AcDbSpline
210
0.0
220
0.0
230
1.0
 70
     8
 71
     3
 72
    16
 73
    12
 74
     0
 42
0.000000001
 43
0.00000001
 40
0.0
 40
0.0
 40
0.0
 40
0.0
 40
0.2499999999999999
 40
0.2499999999999999
 40
0.4999999999999998
 40
0.4999999999999998
 40
0.6249999999999999
 40
0.6249999999999999
 40
0.7499999999999999
 40
0.7499999999999999
 40
1.0
 40
1.0
 40
1.0
 40
1.0
 10
170.5981538302956
 20
147.2387580645309
 30
0.0
 10
171.033569997486
 20
145.9325095629599
 30
0.0
 10
171.3924316914135
 20
144.616737713304
 30
0.0
 10
171.8895715756679
 20
141.9577535079448
 30
0.0
 10
172.0262099181913
 20
140.6143371557827
 30
0.0
 10
172.0277108904374
 20
138.5739027092212
 30
0.0
 10
171.9943081831159
 20
137.8905565340959
 30
0.0
 10
171.8640549713172
 20
136.5388259066112
 30
0.0
 10
171.7673366812389
 20
135.8674924387147
 30
0.0
 10
171.3938627882711
 20
133.8654441982882
 30
0.0
 10
171.0341128146195
 20
132.5466350175031
 30
0.0
 10
170.5981538302955
 20
131.238758064531
 30
0.0
  0
SPLINE
  5
E0
330
1F
100
AcDbEntity
  8
0
  6
Continuous
 62
     7
370
    25
100
AcDbSpline
210
0.0
220
0.0
230
1.0
 70
     8
 71
     3
 72
    16
 73
    12
 74
     0
 42
0.000000001
 43
0.00000001
 40
0.0
 40
0.0
 40
0.0
 40
0.0
 40
0.25
 40
0.25
 40
0.5
 40
0.5
 40
0.625
 40
0.625
 40
0.75
 40
0.75
 40
1.0
 40
1.0
 40
1.0
 40
1.0
 10
170.5981538302956
 20
163.238758064531
 30
0.0
 10
171.033569997486
 20
161.9325095629599
 30
0.0
 10
171.3924316914135
 20
160.6167377133041
 30
0.0
 10
171.889571575668
 20
157.9577535079448
 30
0.0
 10
172.0262099181914
 20
156.6143371557827
 30
0.0
 10
172.0277108904375
 20
154.5739027092212
 30
0.0
 10
171.9943081831159
 20
153.8905565340958
 30
0.0
 10
171.8640549713173
 20
152.5388259066111
 30
0.0
 10
171.7673366812389
 20
151.8674924387146
 30
0.0
 10
171.3938627882711
 20
149.8654441982881
 30
0.0
 10
171.0341128146195
 20
148.5466350175031
 30
0.0
 10
170.5981538302955
 20
147.2387580645309
 30
0.0
  0
SPLINE
  5
E1
330
1F
100
AcDbEntity
  8
0
  6
Continuous
 62
     7
370
    25
100
AcDbSpline
210
0.0
220
0.0
230
1.0
 70
    24
 71
     3
 72
    13
 73
     9
 74
     0
 42
0.000000001
 43
0.00000001
 40
0.0
 40
0.0
 40
0.0
 40
0.0
 40
0.1017906867447479
 40
0.2314429016961197
 40
0.4221844484462028
 40
0.6135750310687832
 40
0.8065854789859762
 40
1.0
 40
1.0
 40
1.0
 40
1.0
 10
172.0227067799444
 20
163.2387580645309
 30
0.0
 10
172.0213046754257
 20
163.2387580645309
 30
0.0
 10
172.0181166908596
 20
163.2387580645309
 30
0.0
 10
171.9390623570908
 20
163.2387580645309
 30
0.0
 10
171.7677763416454
 20
163.2387580645309
 30
0.0
 10
171.4684594866892
 20
163.2387580645309
 30
0.0
 10
171.0820329699797
 20
163.2387580645309
 30
0.0
 10
170.75955927724
 20
163.2387580645309
 30
0.0
 10
170.5981538302954
 20
163.2387580645309
 30
0.0
  0
SPLINE
  5
E2
330
1F
100
AcDbEntity
  8
0
  6
Continuous
 62
     7
370
    25
100
AcDbSpline
210
0.0
220
0.0
230
1.0
 70
    24
 71
     3
 72
    13
 73
     9
 74
     0
 42
0.000000001
 43
0.00000001
 40
0.0
 40
0.0
 40
0.0
 40
0.0
 40
0.1910314866688131
 40
0.3824143711635355
 40
0.5751724485305201
 40
0.7685552130917932
 40
0.8940523885407187
 40
1.0
 40
1.0
 40
1.0
 40
1.0
 10
170.5981538302954
 20
131.238758064531
 30
0.0
 10
170.7576434313588
 20
131.238758064531
 30
0.0
 10
171.0769160107714
 20
131.238758064531
 30
0.0
 10
171.4630082065995
 20
131.2387580645309
 30
0.0
 10
171.7651991328777
 20
131.2387580645309
 30
0.0
 10
171.9373804306738
 20
131.2387580645309
 30
0.0
 10
172.0171000735729
 20
131.2387580645309
 30
0.0
 10
172.0217816367498
 20
131.2387580645309
 30
0.0
 10
172.0239246983546
 20
131.2387580645309
 30
0.0
  0
LINE
  5
E3
330
1F
100
AcDbEntity
  8
0
  6
Continuous
 62
     7
370
    25
100
AcDbLine
 10
172.1715537572
 20
162.9887580645
 30
0.0
 11
172.1715537572
 21
131.4887580645
 31
0.0
  0
LINE
  5
E4
330
1F
100
AcDbEntity
  8
0
  6
Continuous
 62
     7
370
    25
100
AcDbLine
 10
129.7449536842
 20
163.2387580645
 30
0.0
 11
149.508323608
 21
163.2387580645
 31
0.0
  0
SPLINE
  5
E5
330
1F
100
AcDbEntity
  8
0
  6
Continuous
 62
     7
370
    25
100
AcDbSpline
210
0.0
220
0.0
230
1.0
 70
     8
 71
     3
 72
    10
 73
     6
 74
     0
 42
0.000000001
 43
0.00000001
 40
0.0
 40
0.0
 40
0.0
 40
0.0
 40
0.5
 40
0.5
 40
1.0
 40
1.0
 40
1.0
 40
1.0
 10
150.1715537572254
 20
155.2387580645309
 30
0.0
 10
150.1715537572254
 20
156.5720913978643
 30
0.0
 10
150.1109116070373
 20
157.9054247311976
 30
0.0
 10
149.882078489717
 20
160.5720913978643
 30
0.0
 10
149.7145909924931
 20
161.9054247311976
 30
0.0
 10
149.5083236079874
 20
163.2387580645309
 30
0.0
  0
SPLINE
  5
E6
330
1F
100
AcDbEntity
  8
0
  6
Continuous
 62
     7
370
    25
100
AcDbSpline
210
0.0
220
0.0
230
1.0
 70
     8
 71
     3
 72
    10
 73
     6
 74
     0
 42
0.000000001
 43
0.00000001
 40
0.0
 40
0.0
 40
0.0
 40
0.0
 40
0.4999999999999998
 40
0.4999999999999998
 40
1.0
 40
1.0
 40
1.0
 40
1.0
 10
149.5083236079874
 20
147.2387580645309
 30
0.0
 10
149.7145909924931
 20
148.5720913978642
 30
0.0
 10
149.882078489717
 20
149.9054247311976
 30
0.0
 10
150.1109116070373
 20
152.5720913978643
 30
0.0
 10
150.1715537572254
 20
153.9054247311976
 30
0.0
 10
150.1715537572254
 20
155.2387580645309
 30
0.0
  0
LINE
  5
E7
330
1F
100
AcDbEntity
  8
0
  6
Continuous
 62
     7
370
    25
100
AcDbLine
 10
129.7449536842
 20
147.2387580645
 30
0.0
 11
149.508323608
 21
147.2387580645
 31
0.0
  0
LINE
  5
E8
330
1F
100
AcDbEntity
  8
0
  6
Continuous
 62
     7
370
    25
100
AcDbLine
 10
150.8347839065
 20
147.2387580645
 30
0.0
 11
167.537579161
 21
147.2387580645
 31
0.0
  0
SPLINE
  5
E9
330
1F
100
AcDbEntity
  8
0
  6
Continuous
 62
     7
370
    25
100
AcDbSpline
210
0.0
220
0.0
230
1.0
 70
     8
 71
     3
 72
    10
 73
     6
 74
     0
 42
0.000000001
 43
0.00000001
 40
0.0
 40
0.0
 40
0.0
 40
0.0
 40
0.4999999999999998
 40
0.4999999999999998
 40
1.0
 40
1.0
 40
1.0
 40
1.0
 10
150.8347839064634
 20
147.2387580645309
 30
0.0
 10
150.6285165219578
 20
148.5720913978642
 30
0.0
 10
150.4610290247338
 20
149.9054247311976
 30
0.0
 10
150.2321959074135
 20
152.5720913978643
 30
0.0
 10
150.1715537572254
 20
153.9054247311976
 30
0.0
 10
150.1715537572254
 20
155.2387580645309
 30
0.0
  0
SPLINE
  5
EA
330
1F
100
AcDbEntity
  8
0
  6
Continuous
 62
     7
370
    25
100
AcDbSpline
210
0.0
220
0.0
230
1.0
 70
     8
 71
     3
 72
    10
 73
     6
 74
     0
 42
0.000000001
 43
0.00000001
 40
0.0
 40
0.0
 40
0.0
 40
0.0
 40
0.5
 40
0.5
 40
1.0
 40
1.0
 40
1.0
 40
1.0
 10
150.1715537572254
 20
155.2387580645309
 30
0.0
 10
150.1715537572254
 20
156.5720913978643
 30
0.0
 10
150.2321959074135
 20
157.9054247311976
 30
0.0
 10
150.4610290247338
 20
160.5720913978643
 30
0.0
 10
150.6285165219578
 20
161.9054247311976
 30
0.0
 10
150.8347839064634
 20
163.2387580645309
 30
0.0
  0
LINE
  5
EB
330
1F
100
AcDbEntity
  8
0
  6
Continuous
 62
     7
370
    25
100
AcDbLine
 10
150.8347839065
 20
163.2387580645
 30
0.0
 11
167.537579161
 21
163.2387580645
 31
0.0
  0
SPLINE
  5
EC
330
1F
100
AcDbEntity
  8
0
  6
Continuous
 62
     7
370
    25
100
AcDbSpline
210
0.0
220
0.0
230
1.0
 70
     8
 71
     3
 72
     8
 73
     4
 74
     0
 42
0.000000001
 43
0.00000001
 40
0.0
 40
0.0
 40
0.0
 40
0.0
 40
1.0
 40
1.0
 40
1.0
 40
1.0
 10
167.6715537572254
 20
162.3331990953274
 30
0.0
 10
167.6289487247955
 20
162.6353510911797
 30
0.0
 10
167.5842310642587
 20
162.9371954213909
 30
0.0
 10
167.5375791610099
 20
163.2387580645309
 30
0.0
  0
SPLINE
  5
ED
330
1F
100
AcDbEntity
  8
0
  6
Continuous
 62
     7
370
    25
100
AcDbSpline
210
0.0
220
0.0
230
1.0
 70
     8
 71
     3
 72
     8
 73
     4
 74
     0
 42
0.000000001
 43
0.00000001
 40
0.0
 40
0.0
 40
0.0
 40
0.0
 40
1.0
 40
1.0
 40
1.0
 40
1.0
 10
167.805528353441
 20
163.2387580645309
 30
0.0
 10
167.7588581898781
 20
162.9370773848651
 30
0.0
 10
167.714141629619
 20
162.6352293933679
 30
0.0
 10
167.6715537572254
 20
162.3331990953274
 30
0.0
  0
LINE
  5
EE
330
1F
100
AcDbEntity
  8
0
  6
Continuous
 62
     7
370
    25
100
AcDbLine
 10
167.8055283534
 20
163.2387580645
 30
0.0
 11
170.5981538303
 21
163.2387580645
 31
0.0
  0
LINE
  5
EF
330
1F
100
AcDbEntity
  8
0
  6
Continuous
 62
     7
370
    25
100
AcDbLine
 10
167.8055283534
 20
147.2387580645
 30
0.0
 11
170.5981538303
 21
147.2387580645
 31
0.0
  0
SPLINE
  5
F0
330
1F
100
AcDbEntity
  8
0
  6
Continuous
 62
     7
370
    25
100
AcDbSpline
210
0.0
220
0.0
230
1.0
 70
     8
 71
     3
 72
     8
 73
     4
 74
     0
 42
0.000000001
 43
0.00000001
 40
0.0
 40
0.0
 40
0.0
 40
0.0
 40
1.0
 40
1.0
 40
1.0
 40
1.0
 10
167.6715537572254
 20
148.1443170337344
 30
0.0
 10
167.7141587896553
 20
147.8421650378821
 30
0.0
 10
167.7588764501922
 20
147.5403207076709
 30
0.0
 10
167.805528353441
 20
147.2387580645309
 30
0.0
  0
SPLINE
  5
F1
330
1F
100
AcDbEntity
  8
0
  6
Continuous
 62
     7
370
    25
100
AcDbSpline
210
0.0
220
0.0
230
1.0
 70
     8
 71
     3
 72
     8
 73
     4
 74
     0
 42
0.000000001
 43
0.00000001
 40
0.0
 40
0.0
 40
0.0
 40
0.0
 40
1.0
 40
1.0
 40
1.0
 40
1.0
 10
167.5375791610099
 20
147.2387580645309
 30
0.0
 10
167.5842493245728
 20
147.5404387441967
 30
0.0
 10
167.6289658848319
 20
147.8422867356939
 30
0.0
 10
167.6715537572254
 20
148.1443170337344
 30
0.0
  0
SPLINE
  5
F2
330
1F
100
AcDbEntity
  8
0
  6
Continuous
 62
     7
370
    25
100
AcDbSpline
210
0.0
220
0.0
230
1.0
 70
     8
 71
     3
 72
    10
 73
     6
 74
     0
 42
0.000000001
 43
0.00000001
 40
0.0
 40
0.0
 40
0.0
 40
0.0
 40
0.5
 40
0.5
 40
1.0
 40
1.0
 40
1.0
 40
1.0
 10
150.1715537572254
 20
139.2387580645309
 30
0.0
 10
150.1715537572254
 20
140.5720913978643
 30
0.0
 10
150.1109116070373
 20
141.9054247311976
 30
0.0
 10
149.882078489717
 20
144.5720913978643
 30
0.0
 10
149.7145909924931
 20
145.9054247311976
 30
0.0
 10
149.5083236079874
 20
147.2387580645309
 30
0.0
  0
LINE
  5
F3
330
1F
100
AcDbEntity
  8
0
  6
Continuous
 62
     7
370
    25
100
AcDbLine
 10
150.1715537572
 20
139.2387580645
 30
0.0
 11
150.1715537572
 21
155.2387580645
 31
0.0
  0
SPLINE
  5
F4
330
1F
100
AcDbEntity
  8
0
  6
Continuous
 62
     7
370
    25
100
AcDbSpline
210
0.0
220
0.0
230
1.0
 70
     8
 71
     3
 72
    10
 73
     6
 74
     0
 42
0.000000001
 43
0.00000001
 40
0.0
 40
0.0
 40
0.0
 40
0.0
 40
0.5
 40
0.5
 40
1.0
 40
1.0
 40
1.0
 40
1.0
 10
150.1715537572255
 20
139.2387580645309
 30
0.0
 10
150.1715537572255
 20
140.5720913978643
 30
0.0
 10
150.2321959074135
 20
141.9054247311976
 30
0.0
 10
150.4610290247338
 20
144.5720913978643
 30
0.0
 10
150.6285165219578
 20
145.9054247311976
 30
0.0
 10
150.8347839064634
 20
147.2387580645309
 30
0.0
  0
LINE
  5
F5
330
1F
100
AcDbEntity
  8
0
  6
Continuous
 62
     7
370
    25
100
AcDbLine
 10
167.6715537572
 20
146.3331990953
 30
0.0
 11
167.6715537572
 21
148.1443170337
 31
0.0
  0
SPLINE
  5
F6
330
1F
100
AcDbEntity
  8
0
  6
Continuous
 62
     7
370
    25
100
AcDbSpline
210
0.0
220
0.0
230
1.0
 70
     8
 71
     3
 72
     8
 73
     4
 74
     0
 42
0.000000001
 43
0.00000001
 40
0.0
 40
0.0
 40
0.0
 40
0.0
 40
1.0
 40
1.0
 40
1.0
 40
1.0
 10
167.6715537572254
 20
146.3331990953274
 30
0.0
 10
167.6289487247955
 20
146.6353510911797
 30
0.0
 10
167.5842310642587
 20
146.9371954213909
 30
0.0
 10
167.5375791610099
 20
147.2387580645309
 30
0.0
  0
SPLINE
  5
F7
330
1F
100
AcDbEntity
  8
0
  6
Continuous
 62
     7
370
    25
100
AcDbSpline
210
0.0
220
0.0
230
1.0
 70
     8
 71
     3
 72
     8
 73
     4
 74
     0
 42
0.000000001
 43
0.00000001
 40
0.0
 40
0.0
 40
0.0
 40
0.0
 40
1.0
 40
1.0
 40
1.0
 40
1.0
 10
167.805528353441
 20
147.2387580645309
 30
0.0
 10
167.7588581898781
 20
146.9370773848651
 30
0.0
 10
167.714141629619
 20
146.6352293933679
 30
0.0
 10
167.6715537572254
 20
146.3331990953274
 30
0.0
  0
LINE
  5
F8
330
1F
100
AcDbEntity
  8
0
  6
Continuous
 62
     7
370
    25
100
AcDbLine
 10
150.8347839065
 20
131.2387580645
 30
0.0
 11
167.537579161
 21
131.2387580645
 31
0.0
  0
SPLINE
  5
F9
330
1F
100
AcDbEntity
  8
0
  6
Continuous
 62
     7
370
    25
100
AcDbSpline
210
0.0
220
0.0
230
1.0
 70
     8
 71
     3
 72
    10
 73
     6
 74
     0
 42
0.000000001
 43
0.00000001
 40
0.0
 40
0.0
 40
0.0
 40
0.0
 40
0.5
 40
0.5
 40
1.0
 40
1.0
 40
1.0
 40
1.0
 10
150.8347839064634
 20
131.238758064531
 30
0.0
 10
150.6285165219578
 20
132.5720913978643
 30
0.0
 10
150.4610290247338
 20
133.9054247311977
 30
0.0
 10
150.2321959074135
 20
136.5720913978643
 30
0.0
 10
150.1715537572255
 20
137.9054247311976
 30
0.0
 10
150.1715537572255
 20
139.2387580645309
 30
0.0
  0
LINE
  5
FA
330
1F
100
AcDbEntity
  8
0
  6
Continuous
 62
     7
370
    25
100
AcDbLine
 10
167.8055283534
 20
131.2387580645
 30
0.0
 11
170.5981538303
 21
131.2387580645
 31
0.0
  0
SPLINE
  5
FB
330
1F
100
AcDbEntity
  8
0
  6
Continuous
 62
     7
370
    25
100
AcDbSpline
210
0.0
220
0.0
230
1.0
 70
     8
 71
     3
 72
     8
 73
     4
 74
     0
 42
0.000000001
 43
0.00000001
 40
0.0
 40
0.0
 40
0.0
 40
0.0
 40
1.0
 40
1.0
 40
1.0
 40
1.0
 10
167.6715537572254
 20
132.1443170337345
 30
0.0
 10
167.7141587896553
 20
131.8421650378822
 30
0.0
 10
167.7588764501922
 20
131.540320707671
 30
0.0
 10
167.805528353441
 20
131.238758064531
 30
0.0
  0
SPLINE
  5
FC
330
1F
100
AcDbEntity
  8
0
  6
Continuous
 62
     7
370
    25
100
AcDbSpline
210
0.0
220
0.0
230
1.0
 70
     8
 71
     3
 72
     8
 73
     4
 74
     0
 42
0.000000001
 43
0.00000001
 40
0.0
 40
0.0
 40
0.0
 40
0.0
 40
1.0
 40
1.0
 40
1.0
 40
1.0
 10
167.5375791610099
 20
131.238758064531
 30
0.0
 10
167.5842493245728
 20
131.5404387441968
 30
0.0
 10
167.6289658848319
 20
131.842286735694
 30
0.0
 10
167.6715537572254
 20
132.1443170337345
 30
0.0
  0
SPLINE
  5
FD
330
1F
100
AcDbEntity
  8
0
  6
Continuous
 62
     7
370
    25
100
AcDbSpline
210
0.0
220
0.0
230
1.0
 70
     8
 71
     3
 72
    10
 73
     6
 74
     0
 42
0.000000001
 43
0.00000001
 40
0.0
 40
0.0
 40
0.0
 40
0.0
 40
0.5
 40
0.5
 40
1.0
 40
1.0
 40
1.0
 40
1.0
 10
149.5083236079874
 20
131.238758064531
 30
0.0
 10
149.7145909924931
 20
132.5720913978643
 30
0.0
 10
149.882078489717
 20
133.9054247311977
 30
0.0
 10
150.1109116070373
 20
136.5720913978643
 30
0.0
 10
150.1715537572254
 20
137.9054247311976
 30
0.0
 10
150.1715537572254
 20
139.2387580645309
 30
0.0
  0
LINE
  5
FE
330
1F
100
AcDbEntity
  8
0
  6
Continuous
 62
     7
370
    25
100
AcDbLine
 10
129.7449536842
 20
131.2387580645
 30
0.0
 11
149.508323608
 21
131.2387580645
 31
0.0
  0
SPLINE
  5
FF
330
1F
100
AcDbEntity
  8
0
  6
Continuous
 62
     7
370
    25
100
AcDbSpline
210
0.0
220
0.0
230
1.0
 70
    24
 71
     3
 72
    10
 73
     6
 74
     0
 42
0.000000001
 43
0.00000001
 40
0.0
 40
0.0
 40
0.0
 40
0.0
 40
0.5
 40
0.5
 40
1.0
 40
1.0
 40
1.0
 40
1.0
 10
150.1715537572254
 20
131.2387580645309
 30
0.0
 10
150.1715537572254
 20
131.2387580645309
 30
0.0
 10
150.232434486994
 20
131.2387580645309
 30
0.0
 10
150.4614550905332
 20
131.238758064531
 30
0.0
 10
150.6288820679074
 20
131.238758064531
 30
0.0
 10
150.8347839064635
 20
131.238758064531
 30
0.0
  0
LINE
  5
100
330
1F
100
AcDbEntity
  8
0
  6
Continuous
 62
     7
370
    25
100
AcDbLine
 10
150.1715537572
 20
131.2387580645
 30
0.0
 11
150.1715537572
 21
139.2387580645
 31
0.0
  0
SPLINE
  5
101
330
1F
100
AcDbEntity
  8
0
  6
Continuous
 62
     7
370
    25
100
AcDbSpline
210
0.0
220
0.0
230
1.0
 70
    24
 71
     3
 72
    10
 73
     6
 74
     0
 42
0.000000001
 43
0.00000001
 40
0.0
 40
0.0
 40
0.0
 40
0.0
 40
0.5
 40
0.5
 40
1.0
 40
1.0
 40
1.0
 40
1.0
 10
150.1715537572254
 20
131.2387580645309
 30
0.0
 10
150.1715537572254
 20
131.2387580645309
 30
0.0
 10
150.1106730274569
 20
131.2387580645309
 30
0.0
 10
149.8816524239176
 20
131.238758064531
 30
0.0
 10
149.7142254465435
 20
131.238758064531
 30
0.0
 10
149.5083236079874
 20
131.238758064531
 30
0.0
  0
SPLINE
  5
102
330
1F
100
AcDbEntity
  8
0
  6
Continuous
 62
     7
370
    25
100
AcDbSpline
210
0.0
220
0.0
230
1.0
 70
    24
 71
     3
 72
    10
 73
     6
 74
     0
 42
0.000000001
 43
0.00000001
 40
0.0
 40
0.0
 40
0.0
 40
0.0
 40
0.5
 40
0.5
 40
1.0
 40
1.0
 40
1.0
 40
1.0
 10
150.1715537572254
 20
163.2387580645309
 30
0.0
 10
150.1715537572254
 20
163.2387580645309
 30
0.0
 10
150.1106730274569
 20
163.2387580645309
 30
0.0
 10
149.8816524239176
 20
163.2387580645309
 30
0.0
 10
149.7142254465435
 20
163.2387580645309
 30
0.0
 10
149.5083236079874
 20
163.2387580645309
 30
0.0
  0
LINE
  5
103
330
1F
100
AcDbEntity
  8
0
  6
Continuous
 62
     7
370
    25
100
AcDbLine
 10
150.1715537572
 20
155.2387580645
 30
0.0
 11
150.1715537572
 21
163.2387580645
 31
0.0
  0
SPLINE
  5
104
330
1F
100
AcDbEntity
  8
0
  6
Continuous
 62
     7
370
    25
100
AcDbSpline
210
0.0
220
0.0
230
1.0
 70
    24
 71
     3
 72
    10
 73
     6
 74
     0
 42
0.000000001
 43
0.00000001
 40
0.0
 40
0.0
 40
0.0
 40
0.0
 40
0.5
 40
0.5
 40
1.0
 40
1.0
 40
1.0
 40
1.0
 10
150.1715537572254
 20
163.2387580645309
 30
0.0
 10
150.1715537572254
 20
163.2387580645309
 30
0.0
 10
150.232434486994
 20
163.2387580645309
 30
0.0
 10
150.4614550905332
 20
163.2387580645309
 30
0.0
 10
150.6288820679074
 20
163.2387580645309
 30
0.0
 10
150.8347839064635
 20
163.2387580645309
 30
0.0
  0
SPLINE
  5
105
330
1F
100
AcDbEntity
  8
0
  6
Continuous
 62
     7
370
    25
100
AcDbSpline
210
0.0
220
0.0
230
1.0
 70
    24
 71
     3
 72
     8
 73
     4
 74
     0
 42
0.000000001
 43
0.00000001
 40
0.0
 40
0.0
 40
0.0
 40
0.0
 40
1.0
 40
1.0
 40
1.0
 40
1.0
 10
167.6715537572254
 20
131.238758064531
 30
0.0
 10
167.6289496079054
 20
131.238758064531
 30
0.0
 10
167.5842320032847
 20
131.238758064531
 30
0.0
 10
167.5375791610099
 20
131.238758064531
 30
0.0
  0
LINE
  5
106
330
1F
100
AcDbEntity
  8
0
  6
Continuous
 62
     7
370
    25
100
AcDbLine
 10
167.6715537572
 20
131.2387580645
 30
0.0
 11
167.6715537572
 21
132.1443170337
 31
0.0
  0
SPLINE
  5
107
330
1F
100
AcDbEntity
  8
0
  6
Continuous
 62
     7
370
    25
100
AcDbSpline
210
0.0
220
0.0
230
1.0
 70
    24
 71
     3
 72
     8
 73
     4
 74
     0
 42
0.000000001
 43
0.00000001
 40
0.0
 40
0.0
 40
0.0
 40
0.0
 40
1.0
 40
1.0
 40
1.0
 40
1.0
 10
167.805528353441
 20
131.238758064531
 30
0.0
 10
167.7588555108301
 20
131.238758064531
 30
0.0
 10
167.7141391142891
 20
131.238758064531
 30
0.0
 10
167.6715537572254
 20
131.238758064531
 30
0.0
  0
SPLINE
  5
108
330
1F
100
AcDbEntity
  8
0
  6
Continuous
 62
     7
370
    25
100
AcDbSpline
210
0.0
220
0.0
230
1.0
 70
    24
 71
     3
 72
     8
 73
     4
 74
     0
 42
0.000000001
 43
0.00000001
 40
0.0
 40
0.0
 40
0.0
 40
0.0
 40
1.0
 40
1.0
 40
1.0
 40
1.0
 10
167.6715537572254
 20
163.2387580645309
 30
0.0
 10
167.7141579065455
 20
163.2387580645309
 30
0.0
 10
167.7588755111663
 20
163.2387580645309
 30
0.0
 10
167.805528353441
 20
163.2387580645309
 30
0.0
  0
LINE
  5
109
330
1F
100
AcDbEntity
  8
0
  6
Continuous
 62
     7
370
    25
100
AcDbLine
 10
167.6715537572
 20
162.3331990953
 30
0.0
 11
167.6715537572
 21
163.2387580645
 31
0.0
  0
SPLINE
  5
10A
330
1F
100
AcDbEntity
  8
0
  6
Continuous
 62
     7
370
    25
100
AcDbSpline
210
0.0
220
0.0
230
1.0
 70
    24
 71
     3
 72
     8
 73
     4
 74
     0
 42
0.000000001
 43
0.00000001
 40
0.0
 40
0.0
 40
0.0
 40
0.0
 40
1.0
 40
1.0
 40
1.0
 40
1.0
 10
167.5375791610099
 20
163.2387580645309
 30
0.0
 10
167.5842520036207
 20
163.2387580645309
 30
0.0
 10
167.6289684001617
 20
163.2387580645309
 30
0.0
 10
167.6715537572254
 20
163.2387580645309
 30
0.0
  0
LINE
  5
10B
330
1F
100
AcDbEntity
  8
0
  6
CENTERX2
 62
     7
370
    18
100
AcDbLine
 10
168.5981538303
 20
147.2387580645
 30
0.0
 11
174.1715537572
 21
147.2387580645
 31
0.0
  0
LINE
  5
10C
330
1F
100
AcDbEntity
  8
0
  6
CENTERX2
 62
     7
370
    18
100
AcDbLine
 10
131.7449536842
 20
147.2387580645
 30
0.0
 11
126.1715537572
 21
147.2387580645
 31
0.0
  0
ENDSEC
  0
SECTION
  2
OBJECTS
  0
DICTIONARY
  5
C
330
0
100
AcDbDictionary
281
     1
  3
ACAD_GROUP
350
D
  3
ACAD_LAYOUT
350
1A
  3
ACAD_MLINESTYLE
350
17
  3
ACAD_PLOTSETTINGS
350
19
  3
ACAD_PLOTSTYLENAME
350
E
  3
ACAD_SCALELIST
350
47
  0
DICTIONARY
  5
D
102
{ACAD_REACTORS
330
C
102
}
330
C
100
AcDbDictionary
281
     1
  0
DICTIONARY
  5
1A
102
{ACAD_REACTORS
330
C
102
}
330
C
100
AcDbDictionary
281
     1
  3
Layout1
350
1E
  3
Layout2
350
26
  3
Model
350
22
  0
DICTIONARY
  5
17
102
{ACAD_REACTORS
330
C
102
}
330
C
100
AcDbDictionary
281
     1
  3
Standard
350
18
  0
DICTIONARY
  5
19
102
{ACAD_REACTORS
330
C
102
}
330
C
100
AcDbDictionary
281
     1
  0
ACDBDICTIONARYWDFLT
  5
E
102
{ACAD_REACTORS
330
C
102
}
330
C
100
AcDbDictionary
281
     1
  3
Normal
350
F
100
AcDbDictionaryWithDefault
340
F
  0
DICTIONARY
  5
47
102
{ACAD_REACTORS
330
C
102
}
330
C
100
AcDbDictionary
281
     1
  3
A0
350
48
  3
A1
350
49
  3
A2
350
4A
  3
A3
350
4B
  3
A4
350
4C
  3
A5
350
4D
  3
A6
350
4E
  3
A7
350
4F
  3
A8
350
50
  3
A9
350
51
  3
B0
350
52
  3
B1
350
53
  3
B2
350
54
  3
B3
350
55
  3
B4
350
56
  3
B5
350
57
  3
B6
350
58
  3
B7
350
59
  3
B8
350
5A
  3
B9
350
5B
  3
C0
350
5C
  3
C1
350
5D
  3
C2
350
5E
  3
C3
350
5F
  3
C4
350
60
  3
C5
350
61
  3
C6
350
62
  3
C7
350
63
  3
C8
350
64
  3
C9
350
65
  3
D0
350
66
  3
D1
350
67
  3
D2
350
68
  0
LAYOUT
  5
1E
102
{ACAD_REACTORS
330
1A
102
}
330
1A
100
AcDbPlotSettings
  1

  2
none_device
  4

  6

 40
0.0
 41
0.0
 42
0.0
 43
0.0
 44
0.0
 45
0.0
 46
0.0
 47
0.0
 48
0.0
 49
0.0
140
0.0
141
0.0
142
1.0
143
1.0
 70
   688
 72
     1
 73
     0
 74
     5
  7

 75
    16
147
1.0
148
0.0
149
0.0
100
AcDbLayout
  1
Layout1
 70
     1
 71
     1
 10
0.0
 20
0.0
 11
420.0
 21
297.0
 12
0.0
 22
0.0
 32
0.0
 14
1.0000000000E+20
 24
1.0000000000E+20
 34
1.0000000000E+20
 15
-1.0000000000E+20
 25
-1.0000000000E+20
 35
-1.0000000000E+20
146
0.0
 13
0.0
 23
0.0
 33
0.0
 16
1.0
 26
0.0
 36
0.0
 17
0.0
 27
1.0
 37
0.0
 76
     0
330
1B
  0
LAYOUT
  5
26
102
{ACAD_REACTORS
330
1A
102
}
330
1A
100
AcDbPlotSettings
  1

  2
none_device
  4

  6

 40
0.0
 41
0.0
 42
0.0
 43
0.0
 44
0.0
 45
0.0
 46
0.0
 47
0.0
 48
0.0
 49
0.0
140
0.0
141
0.0
142
1.0
143
1.0
 70
   688
 72
     1
 73
     0
 74
     5
  7

 75
    16
147
1.0
148
0.0
149
0.0
100
AcDbLayout
  1
Layout2
 70
     1
 71
     2
 10
0.0
 20
0.0
 11
0.0
 21
0.0
 12
0.0
 22
0.0
 32
0.0
 14
0.0
 24
0.0
 34
0.0
 15
0.0
 25
0.0
 35
0.0
146
0.0
 13
0.0
 23
0.0
 33
0.0
 16
1.0
 26
0.0
 36
0.0
 17
0.0
 27
1.0
 37
0.0
 76
     0
330
23
  0
LAYOUT
  5
22
102
{ACAD_REACTORS
330
1A
102
}
330
1A
100
AcDbPlotSettings
  1

  2
none_device
  4
Letter_(8.50_x_11.00_Inches)
  6

 40
6.35
 41
6.35
 42
6.35000508
 43
6.35000508
 44
215.9
 45
279.4
 46
0.0
 47
0.0
 48
0.0
 49
0.0
140
0.0
141
0.0
142
1.0
143
1.0
 70
  1712
 72
     1
 73
     0
 74
     0
  7

 75
     0
147
1.0
148
0.0
149
0.0
100
AcDbLayout
  1
Model
 70
     1
 71
     0
 10
0.0
 20
0.0
 11
431.8
 21
279.4
 12
0.0
 22
0.0
 32
0.0
 14
0.0
 24
0.0
 34
0.0
 15
431.8
 25
279.4
 35
0.0
146
0.0
 13
0.0
 23
0.0
 33
0.0
 16
1.0
 26
0.0
 36
0.0
 17
0.0
 27
1.0
 37
0.0
 76
     0
330
1F
331
29
  0
MLINESTYLE
  5
18
102
{ACAD_REACTORS
330
17
102
}
330
17
100
AcDbMlineStyle
  2
Standard
 70
     0
  3

 62
   256
 51
90.0
 52
90.0
 71
     2
 49
0.5
 62
   256
  6
BYLAYER
 49
-0.5
 62
   256
  6
BYLAYER
  0
ACDBPLACEHOLDER
  5
F
102
{ACAD_REACTORS
330
E
102
}
330
E
  0
SCALE
  5
48
102
{ACAD_REACTORS
330
47
102
}
330
47
100
AcDbScale
 70
     0
300
1:1
140
1.0
141
1.0
290
     1
  0
SCALE
  5
49
102
{ACAD_REACTORS
330
47
102
}
330
47
100
AcDbScale
 70
     0
300
1:2
140
1.0
141
2.0
290
     0
  0
SCALE
  5
4A
102
{ACAD_REACTORS
330
47
102
}
330
47
100
AcDbScale
 70
     0
300
1:4
140
1.0
141
4.0
290
     0
  0
SCALE
  5
4B
102
{ACAD_REACTORS
330
47
102
}
330
47
100
AcDbScale
 70
     0
300
1:5
140
1.0
141
5.0
290
     0
  0
SCALE
  5
4C
102
{ACAD_REACTORS
330
47
102
}
330
47
100
AcDbScale
 70
     0
300
1:8
140
1.0
141
8.0
290
     0
  0
SCALE
  5
4D
102
{ACAD_REACTORS
330
47
102
}
330
47
100
AcDbScale
 70
     0
300
1:10
140
1.0
141
10.0
290
     0
  0
SCALE
  5
4E
102
{ACAD_REACTORS
330
47
102
}
330
47
100
AcDbScale
 70
     0
300
1:16
140
1.0
141
16.0
290
     0
  0
SCALE
  5
4F
102
{ACAD_REACTORS
330
47
102
}
330
47
100
AcDbScale
 70
     0
300
1:20
140
1.0
141
20.0
290
     0
  0
SCALE
  5
50
102
{ACAD_REACTORS
330
47
102
}
330
47
100
AcDbScale
 70
     0
300
1:30
140
1.0
141
30.0
290
     0
  0
SCALE
  5
51
102
{ACAD_REACTORS
330
47
102
}
330
47
100
AcDbScale
 70
     0
300
1:40
140
1.0
141
40.0
290
     0
  0
SCALE
  5
52
102
{ACAD_REACTORS
330
47
102
}
330
47
100
AcDbScale
 70
     0
300
1:50
140
1.0
141
50.0
290
     0
  0
SCALE
  5
53
102
{ACAD_REACTORS
330
47
102
}
330
47
100
AcDbScale
 70
     0
300
1:100
140
1.0
141
100.0
290
     0
  0
SCALE
  5
54
102
{ACAD_REACTORS
330
47
102
}
330
47
100
AcDbScale
 70
     0
300
2:1
140
2.0
141
1.0
290
     0
  0
SCALE
  5
55
102
{ACAD_REACTORS
330
47
102
}
330
47
100
AcDbScale
 70
     0
300
4:1
140
4.0
141
1.0
290
     0
  0
SCALE
  5
56
102
{ACAD_REACTORS
330
47
102
}
330
47
100
AcDbScale
 70
     0
300
8:1
140
8.0
141
1.0
290
     0
  0
SCALE
  5
57
102
{ACAD_REACTORS
330
47
102
}
330
47
100
AcDbScale
 70
     0
300
10:1
140
10.0
141
1.0
290
     0
  0
SCALE
  5
58
102
{ACAD_REACTORS
330
47
102
}
330
47
100
AcDbScale
 70
     0
300
100:1
140
100.0
141
1.0
290
     0
  0
SCALE
  5
59
102
{ACAD_REACTORS
330
47
102
}
330
47
100
AcDbScale
 70
     0
300
1/128" = 1'-0"
140
0.0078125
141
12.0
290
     0
  0
SCALE
  5
5A
102
{ACAD_REACTORS
330
47
102
}
330
47
100
AcDbScale
 70
     0
300
1/64" = 1'-0"
140
0.015625
141
12.0
290
     0
  0
SCALE
  5
5B
102
{ACAD_REACTORS
330
47
102
}
330
47
100
AcDbScale
 70
     0
300
1/32" = 1'-0"
140
0.03125
141
12.0
290
     0
  0
SCALE
  5
5C
102
{ACAD_REACTORS
330
47
102
}
330
47
100
AcDbScale
 70
     0
300
1/16" = 1'-0"
140
0.0625
141
12.0
290
     0
  0
SCALE
  5
5D
102
{ACAD_REACTORS
330
47
102
}
330
47
100
AcDbScale
 70
     0
300
3/32" = 1'-0"
140
0.09375
141
12.0
290
     0
  0
SCALE
  5
5E
102
{ACAD_REACTORS
330
47
102
}
330
47
100
AcDbScale
 70
     0
300
1/8" = 1'-0"
140
0.125
141
12.0
290
     0
  0
SCALE
  5
5F
102
{ACAD_REACTORS
330
47
102
}
330
47
100
AcDbScale
 70
     0
300
3/16" = 1'-0"
140
0.1875
141
12.0
290
     0
  0
SCALE
  5
60
102
{ACAD_REACTORS
330
47
102
}
330
47
100
AcDbScale
 70
     0
300
1/4" = 1'-0"
140
0.25
141
12.0
290
     0
  0
SCALE
  5
61
102
{ACAD_REACTORS
330
47
102
}
330
47
100
AcDbScale
 70
     0
300
3/8" = 1'-0"
140
0.375
141
12.0
290
     0
  0
SCALE
  5
62
102
{ACAD_REACTORS
330
47
102
}
330
47
100
AcDbScale
 70
     0
300
1/2" = 1'-0"
140
0.5
141
12.0
290
     0
  0
SCALE
  5
63
102
{ACAD_REACTORS
330
47
102
}
330
47
100
AcDbScale
 70
     0
300
3/4" = 1'-0"
140
0.75
141
12.0
290
     0
  0
SCALE
  5
64
102
{ACAD_REACTORS
330
47
102
}
330
47
100
AcDbScale
 70
     0
300
1" = 1'-0"
140
1.0
141
12.0
290
     0
  0
SCALE
  5
65
102
{ACAD_REACTORS
330
47
102
}
330
47
100
AcDbScale
 70
     0
300
1-1/2" = 1'-0"
140
1.5
141
12.0
290
     0
  0
SCALE
  5
66
102
{ACAD_REACTORS
330
47
102
}
330
47
100
AcDbScale
 70
     0
300
3" = 1'-0"
140
3.0
141
12.0
290
     0
  0
SCALE
  5
67
102
{ACAD_REACTORS
330
47
102
}
330
47
100
AcDbScale
 70
     0
300
6" = 1'-0"
140
6.0
141
12.0
290
     0
  0
SCALE
  5
68
102
{ACAD_REACTORS
330
47
102
}
330
47
100
AcDbScale
 70
     0
300
1'-0" = 1'-0"
140
12.0
141
12.0
290
     0
  0
ENDSEC
  0
EOF
