  0
SECTION
  2
HEADER
  9
$ACADVER
  1
AC1015
  9
$ACADMAINTVER
 70
     6
  9
$DWGCODEPAGE
  3
DOS932
  9
$INSBASE
 10
0.0
 20
0.0
 30
0.0
  9
$EXTMIN
 10
0.0
 20
0.0
 30
0.0
  9
$EXTMAX
 10
215.9
 20
139.7
 30
0.0
  9
$LIMMIN
 10
0.0
 20
0.0
  9
$LIMMAX
 10
215.9
 20
139.7
  9
$ORTHOMODE
 70
     0
  9
$REGENMODE
 70
     1
  9
$FILLMODE
 70
     1
  9
$QTEXTMODE
 70
     0
  9
$MIRRTEXT
 70
     1
  9
$LTSCALE
 40
0.5
  9
$ATTMODE
 70
     1
  9
$TEXTSIZE
 40
1.75
  9
$TRACEWID
 40
1.0
  9
$TEXTSTYLE
  7
Standard
  9
$CLAYER
  8
0
  9
$CELTYPE
  6
ByLayer
  9
$CECOLOR
 62
   256
  9
$CELTSCALE
 40
1.0
  9
$DISPSILH
 70
     0
  9
$DIMSCALE
 40
1.0
  9
$DIMASZ
 40
1.651
  9
$DIMEXO
 40
0.5
  9
$DIMDLI
 40
3.75
  9
$DIMRND
 40
0.0
  9
$DIMDLE
 40
0.0
  9
$DIMEXE
 40
0.5
  9
$DIMTP
 40
0.0
  9
$DIMTM
 40
0.0
  9
$DIMTXT
 40
1.75
  9
$DIMCEN
 40
2.5
  9
$DIMTSZ
 40
0.0
  9
$DIMTOL
 70
     0
  9
$DIMLIM
 70
     0
  9
$DIMTIH
 70
     1
  9
$DIMTOH
 70
     1
  9
$DIMSE1
 70
     0
  9
$DIMSE2
 70
     0
  9
$DIMTAD
 70
     1
  9
$DIMZIN
 70
     1
  9
$DIMBLK
  1

  9
$DIMASO
 70
     1
  9
$DIMSHO
 70
     1
  9
$DIMPOST
  1

  9
$DIMAPOST
  1

  9
$DIMALT
 70
     0
  9
$DIMALTD
 70
     3
  9
$DIMALTF
 40
0.0393700787
  9
$DIMLFAC
 40
1.0
  9
$DIMTOFL
 70
     1
  9
$DIMTVP
 40
0.0
  9
$DIMTIX
 70
     0
  9
$DIMSOXD
 70
     0
  9
$DIMSAH
 70
     0
  9
$DIMBLK1
  1

  9
$DIMBLK2
  1

  9
$DIMSTYLE
  2
ISO-25
  9
$DIMCLRD
 70
     0
  9
$DIMCLRE
 70
     0
  9
$DIMCLRT
 70
     0
  9
$DIMTFAC
 40
1.0
  9
$DIMGAP
 40
0.762
  9
$DIMJUST
 70
     0
  9
$DIMSD1
 70
     0
  9
$DIMSD2
 70
     0
  9
$DIMTOLJ
 70
     0
  9
$DIMTZIN
 70
     1
  9
$DIMALTZ
 70
     0
  9
$DIMALTTZ
 70
     0
  9
$DIMUPT
 70
     0
  9
$DIMDEC
 70
     2
  9
$DIMTDEC
 70
     2
  9
$DIMALTU
 70
     2
  9
$DIMALTTD
 70
     3
  9
$DIMTXSTY
  7
Standard
  9
$DIMAUNIT
 70
     0
  9
$DIMADEC
 70
     2
  9
$DIMALTRND
 40
0.0
  9
$DIMAZIN
 70
     0
  9
$DIMDSEP
 70
    44
  9
$DIMATFIT
 70
     3
  9
$DIMFRAC
 70
     0
  9
$DIMLDRBLK
  1

  9
$DIMLUNIT
 70
     2
  9
$DIMLWD
 70
    -2
  9
$DIMLWE
 70
    -2
  9
$DIMTMOVE
 70
     0
  9
$LUNITS
 70
     2
  9
$LUPREC
 70
     2
  9
$SKETCHINC
 40
1.0
  9
$FILLETRAD
 40
10.0
  9
$AUNITS
 70
     0
  9
$AUPREC
 70
     2
  9
$MENU
  1
.
  9
$ELEVATION
 40
0.0
  9
$PELEVATION
 40
0.0
  9
$THICKNESS
 40
0.0
  9
$LIMCHECK
 70
     0
  9
$CHAMFERA
 40
0.0
  9
$CHAMFERB
 40
0.0
  9
$CHAMFERC
 40
0.0
  9
$CHAMFERD
 40
0.0
  9
$SKPOLY
 70
     0
  9
$TDCREATE
 40
2459227.766510787
  9
$TDUCREATE
 40
2459227.391510787
  9
$TDUPDATE
 40
2459227.766511215
  9
$TDUUPDATE
 40
2459227.391511215
  9
$TDINDWG
 40
0.0000000116
  9
$TDUSRTIMER
 40
0.0000000116
  9
$USRTIMER
 70
     1
  9
$ANGBASE
 50
0.0
  9
$ANGDIR
 70
     0
  9
$PDMODE
 70
     0
  9
$PDSIZE
 40
-1.0
  9
$PLINEWID
 40
0.0
  9
$SPLFRAME
 70
     0
  9
$SPLINETYPE
 70
     6
  9
$SPLINESEGS
 70
     8
  9
$HANDSEED
  5
10D
  9
$SURFTAB1
 70
     6
  9
$SURFTAB2
 70
     6
  9
$SURFTYPE
 70
     6
  9
$SURFU
 70
     6
  9
$SURFV
 70
     6
  9
$UCSBASE
  2

  9
$UCSNAME
  2

  9
$UCSORG
 10
0.0
 20
0.0
 30
0.0
  9
$UCSXDIR
 10
1.0
 20
0.0
 30
0.0
  9
$UCSYDIR
 10
0.0
 20
1.0
 30
0.0
  9
$UCSORTHOREF
  2

  9
$UCSORTHOVIEW
 70
     0
  9
$UCSORGTOP
 10
0.0
 20
0.0
 30
0.0
  9
$UCSORGBOTTOM
 10
0.0
 20
0.0
 30
0.0
  9
$UCSORGLEFT
 10
0.0
 20
0.0
 30
0.0
  9
$UCSORGRIGHT
 10
0.0
 20
0.0
 30
0.0
  9
$UCSORGFRONT
 10
0.0
 20
0.0
 30
0.0
  9
$UCSORGBACK
 10
0.0
 20
0.0
 30
0.0
  9
$PUCSBASE
  2

  9
$PUCSNAME
  2

  9
$PUCSORG
 10
0.0
 20
0.0
 30
0.0
  9
$PUCSXDIR
 10
1.0
 20
0.0
 30
0.0
  9
$PUCSYDIR
 10
0.0
 20
1.0
 30
0.0
  9
$PUCSORTHOREF
  2

  9
$PUCSORTHOVIEW
 70
     0
  9
$PUCSORGTOP
 10
0.0
 20
0.0
 30
0.0
  9
$PUCSORGBOTTOM
 10
0.0
 20
0.0
 30
0.0
  9
$PUCSORGLEFT
 10
0.0
 20
0.0
 30
0.0
  9
$PUCSORGRIGHT
 10
0.0
 20
0.0
 30
0.0
  9
$PUCSORGFRONT
 10
0.0
 20
0.0
 30
0.0
  9
$PUCSORGBACK
 10
0.0
 20
0.0
 30
0.0
  9
$USERI1
 70
     0
  9
$USERI2
 70
     0
  9
$USERI3
 70
     0
  9
$USERI4
 70
     0
  9
$USERI5
 70
     0
  9
$USERR1
 40
0.0
  9
$USERR2
 40
0.0
  9
$USERR3
 40
0.0
  9
$USERR4
 40
0.0
  9
$USERR5
 40
0.0
  9
$WORLDVIEW
 70
     1
  9
$SHADEDGE
 70
     3
  9
$SHADEDIF
 70
    70
  9
$TILEMODE
 70
     1
  9
$MAXACTVP
 70
    64
  9
$PINSBASE
 10
0.0
 20
0.0
 30
0.0
  9
$PLIMCHECK
 70
     0
  9
$PEXTMIN
 10
1.0000000000E+20
 20
1.0000000000E+20
 30
1.0000000000E+20
  9
$PEXTMAX
 10
-1.0000000000E+20
 20
-1.0000000000E+20
 30
-1.0000000000E+20
  9
$PLIMMIN
 10
0.0
 20
0.0
  9
$PLIMMAX
 10
420.0
 20
297.0
  9
$UNITMODE
 70
     0
  9
$VISRETAIN
 70
     1
  9
$PLINEGEN
 70
     0
  9
$PSLTSCALE
 70
     1
  9
$TREEDEPTH
 70
  3020
  9
$CMLSTYLE
  2
Standard
  9
$CMLJUST
 70
     0
  9
$CMLSCALE
 40
20.0
  9
$PROXYGRAPHICS
 70
     1
  9
$MEASUREMENT
 70
     1
  9
$CELWEIGHT
370
    -1
  9
$ENDCAPS
280
     0
  9
$JOINSTYLE
280
     0
  9
$LWDISPLAY
290
     1
  9
$INSUNITS
 70
     4
  9
$HYPERLINKBASE
  1

  9
$STYLESHEET
  1

  9
$XEDIT
290
     1
  9
$CEPSNTYPE
380
     0
  9
$PSTYLEMODE
290
     1
  9
$FINGERPRINTGUID
  2
{DB3DE52B-816F-42E7-BF70-818BAC311014}
  9
$VERSIONGUID
  2
{FAEB1C32-E019-11D5-929B-00C0DF256EC4}
  9
$EXTNAMES
290
     1
  9
$PSVPSCALE
 40
0.0
  9
$OLESTARTUP
290
     0
  0
ENDSEC
  0
SECTION
  2
CLASSES
  0
CLASS
  1
ACDBDICTIONARYWDFLT
  2
AcDbDictionaryWithDefault
  3
ObjectDBX Classes
 90
        0
280
     0
281
     0
  0
CLASS
  1
VISUALSTYLE
  2
AcDbVisualStyle
  3
ObjectDBX Classes
 90
     4095
280
     0
281
     0
  0
CLASS
  1
MATERIAL
  2
AcDbMaterial
  3
ObjectDBX Classes
 90
     1153
280
     0
281
     0
  0
CLASS
  1
SCALE
  2
AcDbScale
  3
ObjectDBX Classes
 90
     1153
280
     0
281
     0
  0
CLASS
  1
TABLESTYLE
  2
AcDbTableStyle
  3
ObjectDBX Classes
 90
     4095
280
     0
281
     0
  0
CLASS
  1
MLEADERSTYLE
  2
AcDbMLeaderStyle
  3
ACDB_MLEADERSTYLE_CLASS
 90
     4095
280
     0
281
     0
  0
CLASS
  1
SUN
  2
AcDbSun
  3
SCENEOE
 90
     1153
280
     0
281
     0
  0
CLASS
  1
ACDBPLACEHOLDER
  2
AcDbPlaceHolder
  3
ObjectDBX Classes
 90
        0
280
     0
281
     0
  0
CLASS
  1
LAYOUT
  2
AcDbLayout
  3
ObjectDBX Classes
 90
        0
280
     0
281
     0
  0
ENDSEC
  0
SECTION
  2
TABLES
  0
TABLE
  2
VPORT
  5
8
330
0
100
AcDbSymbolTable
 70
     1
  0
VPORT
  5
29
330
8
100
AcDbSymbolTableRecord
100
AcDbViewportTableRecord
  2
*Active
 70
     0
 10
0.0
 20
0.0
 11
1.0
 21
1.0
 12
107.95
 22
69.85
 13
0.0
 23
0.0
 14
10.0
 24
10.0
 15
10.0
 25
10.0
 16
0.0
 26
0.0
 36
1.0
 17
0.0
 27
0.0
 37
0.0
 40
139.7
 41
1.5454545455
 42
50.0
 43
0.0
 44
0.0
 50
0.0
 51
0.0
 71
     0
 72
  2000
 73
     1
 74
     3
 75
     0
 76
     0
 77
     0
 78
     0
281
     0
 65
     1
110
0.0
120
0.0
130
0.0
111
1.0
121
0.0
131
0.0
112
0.0
122
1.0
132
0.0
 79
     0
146
0.0
  0
ENDTAB
  0
TABLE
  2
LTYPE
  5
5
330
0
100
AcDbSymbolTable
 70
     6
  0
LTYPE
  5
14
330
5
100
AcDbSymbolTableRecord
100
AcDbLinetypeTableRecord
  2
ByBlock
 70
     0
  3

 72
    65
 73
     0
 40
0.0
  0
LTYPE
  5
15
330
5
100
AcDbSymbolTableRecord
100
AcDbLinetypeTableRecord
  2
ByLayer
 70
     0
  3

 72
    65
 73
     0
 40
0.0
  0
LTYPE
  5
16
330
5
100
AcDbSymbolTableRecord
100
AcDbLinetypeTableRecord
  2
Continuous
 70
     0
  3
Solid line
 72
    65
 73
     0
 40
0.0
  0
LTYPE
  5
6E
330
5
100
AcDbSymbolTableRecord
100
AcDbLinetypeTableRecord
  2
HIDDEN
 70
     0
  3
Hidden __ __ __ __ __ __ __ __ __ __ __ __ __ __
 72
    65
 73
     2
 40
1.905
 49
1.27
 74
     0
 49
-0.635
 74
     0
  0
LTYPE
  5
6F
330
5
100
AcDbSymbolTableRecord
100
AcDbLinetypeTableRecord
  2
PHANTOM
 70
     0
  3
Phantom ______  __  __  ______  __  __  ______
 72
    65
 73
     6
 40
12.7
 49
6.35
 74
     0
 49
-1.27
 74
     0
 49
1.27
 74
     0
 49
-1.27
 74
     0
 49
1.27
 74
     0
 49
-1.27
 74
     0
  0
LTYPE
  5
70
330
5
100
AcDbSymbolTableRecord
100
AcDbLinetypeTableRecord
  2
CENTER
 70
     0
  3
Center ____ _ ____ _ ____ _ ____ _ ____ _ ____
 72
    65
 73
     4
 40
10.16
 49
6.35
 74
     0
 49
-1.27
 74
     0
 49
1.27
 74
     0
 49
-1.27
 74
     0
  0
LTYPE
  5
71
330
5
100
AcDbSymbolTableRecord
100
AcDbLinetypeTableRecord
  2
CENTERX2
 70
     0
  3
Center (2x) ________  __  ________  __  _____
 72
    65
 73
     4
 40
20.32
 49
12.7
 74
     0
 49
-2.54
 74
     0
 49
2.54
 74
     0
 49
-2.54
 74
     0
  0
LTYPE
  5
72
330
5
100
AcDbSymbolTableRecord
100
AcDbLinetypeTableRecord
  2
DOT2
 70
     0
  3
Dot (.5x) ........................................
 72
    65
 73
     2
 40
0.635
 49
0.0
 74
     0
 49
-0.635
 74
     0
  0
ENDTAB
  0
TABLE
  2
LAYER
  5
2
330
0
100
AcDbSymbolTable
 70
     1
  0
LAYER
  5
10
330
2
100
AcDbSymbolTableRecord
100
AcDbLayerTableRecord
  2
0
 70
     0
 62
     7
  6
Continuous
370
    -3
390
F
  0
ENDTAB
  0
TABLE
  2
STYLE
  5
3
330
0
100
AcDbSymbolTable
 70
     2
  0
STYLE
  5
11
330
3
100
AcDbSymbolTableRecord
100
AcDbTextStyleTableRecord
  2
Standard
 70
     0
 40
0.0
 41
1.0
 50
0.0
 71
     0
 42
1.75
  3
txt
  4
bigfont
  0
STYLE
  5
73
330
3
100
AcDbSymbolTableRecord
100
AcDbTextStyleTableRecord
  2
SLDTEXTSTYLE0
 70
     0
 40
0.0
 41
0.7
 50
0.0
 71
     0
 42
1.75
  3
TXT
  4
bigfont
  0
ENDTAB
  0
TABLE
  2
VIEW
  5
6
330
0
100
AcDbSymbolTable
 70
     0
  0
ENDTAB
  0
TABLE
  2
UCS
  5
7
330
0
100
AcDbSymbolTable
 70
     0
  0
ENDTAB
  0
TABLE
  2
APPID
  5
9
330
0
100
AcDbSymbolTable
 70
     1
  0
APPID
  5
12
330
9
100
AcDbSymbolTableRecord
100
AcDbRegAppTableRecord
  2
ACAD
 70
     0
  0
ENDTAB
  0
TABLE
  2
DIMSTYLE
  5
A
330
0
100
AcDbSymbolTable
 70
     1
100
AcDbDimStyleTable
  0
DIMSTYLE
105
27
330
A
100
AcDbSymbolTableRecord
100
AcDbDimStyleTableRecord
  2
ISO-25
 70
     0
 41
2.5
 42
0.625
 43
3.75
 44
1.25
 73
     0
 74
     0
 77
     1
 78
     8
140
2.5
141
2.5
143
0.0393700787
147
0.625
171
     3
172
     1
178
     0
271
     2
272
     2
274
     3
278
    44
283
     0
284
     8
340
11
  0
ENDTAB
  0
TABLE
  2
BLOCK_RECORD
  5
1
330
0
100
AcDbSymbolTable
 70
     2
  0
BLOCK_RECORD
  5
1F
330
1
100
AcDbSymbolTableRecord
100
AcDbBlockTableRecord
  2
*Model_Space
340
22
  0
BLOCK_RECORD
  5
1B
330
1
100
AcDbSymbolTableRecord
100
AcDbBlockTableRecord
  2
*Paper_Space
340
1E
  0
BLOCK_RECORD
  5
23
330
1
100
AcDbSymbolTableRecord
100
AcDbBlockTableRecord
  2
*Paper_Space0
340
26
  0
BLOCK_RECORD
  5
C8
330
1
100
AcDbSymbolTableRecord
100
AcDbBlockTableRecord
  2
SW_CENTERMARKSYMBOL_0
340
0
102
{BLKREFS
331
D3
102
}
  0
ENDTAB
  0
ENDSEC
  0
SECTION
  2
BLOCKS
  0
BLOCK
  5
20
330
1F
100
AcDbEntity
  8
0
100
AcDbBlockBegin
  2
*Model_Space
 70
     0
 10
0.0
 20
0.0
 30
0.0
  3
*Model_Space
  1

  0
ENDBLK
  5
21
330
1F
100
AcDbEntity
  8
0
100
AcDbBlockEnd
  0
BLOCK
  5
1C
330
1B
100
AcDbEntity
 67
     1
  8
0
100
AcDbBlockBegin
  2
*Paper_Space
 70
     0
 10
0.0
 20
0.0
 30
0.0
  3
*Paper_Space
  1

  0
ENDBLK
  5
1D
330
1B
100
AcDbEntity
 67
     1
  8
0
100
AcDbBlockEnd
  0
BLOCK
  5
24
330
23
100
AcDbEntity
  8
0
100
AcDbBlockBegin
  2
*Paper_Space0
 70
     0
 10
0.0
 20
0.0
 30
0.0
  3
*Paper_Space0
  1

  0
ENDBLK
  5
25
330
23
100
AcDbEntity
  8
0
100
AcDbBlockEnd
  0
BLOCK
  5
C9
330
C8
100
AcDbEntity
  8
0
100
AcDbBlockBegin
  2
SW_CENTERMARKSYMBOL_0
 70
     0
 10
0.0
 20
0.0
 30
0.0
  3
SW_CENTERMARKSYMBOL_0
  1

  0
LINE
  5
CB
330
C8
100
AcDbEntity
  8
0
  6
Continuous
 62
     0
370
    18
100
AcDbLine
 10
0.0
 20
0.0
 30
0.0
 11
0.0
 21
2.5
 31
0.0
  0
LINE
  5
CC
330
C8
100
AcDbEntity
  8
0
  6
Continuous
 62
     0
370
    18
100
AcDbLine
 10
0.0
 20
0.0
 30
0.0
 11
-2.5
 21
0.0
 31
0.0
  0
LINE
  5
CD
330
C8
100
AcDbEntity
  8
0
  6
Continuous
 62
     0
370
    18
100
AcDbLine
 10
0.0
 20
0.0
 30
0.0
 11
0.0
 21
-2.5
 31
0.0
  0
LINE
  5
CE
330
C8
100
AcDbEntity
  8
0
  6
Continuous
 62
     0
370
    18
100
AcDbLine
 10
0.0
 20
0.0
 30
0.0
 11
2.5
 21
0.0
 31
0.0
  0
LINE
  5
CF
330
C8
100
AcDbEntity
  8
0
  6
Continuous
 62
     0
370
    18
100
AcDbLine
 10
0.0
 20
5.0
 30
0.0
 11
0.0
 21
16.3371823104
 31
0.0
  0
LINE
  5
D0
330
C8
100
AcDbEntity
  8
0
  6
Continuous
 62
     0
370
    18
100
AcDbLine
 10
-5.0
 20
0.0
 30
0.0
 11
-14.29841879
 21
0.0
 31
0.0
  0
LINE
  5
D1
330
C8
100
AcDbEntity
  8
0
  6
Continuous
 62
     0
370
    18
100
AcDbLine
 10
0.0
 20
-5.0
 30
0.0
 11
0.0
 21
-15.9613880453
 31
0.0
  0
LINE
  5
D2
330
C8
100
AcDbEntity
  8
0
  6
Continuous
 62
     0
370
    18
100
AcDbLine
 10
5.0
 20
0.0
 30
0.0
 11
14.4114215261
 21
0.0
 31
0.0
  0
ENDBLK
  5
CA
330
C8
100
AcDbEntity
  8
0
100
AcDbBlockEnd
  0
ENDSEC
  0
SECTION
  2
ENTITIES
  0
MTEXT
  5
74
330
1F
100
AcDbEntity
  8
0
  6
Continuous
 62
     7
370
     0
100
AcDbMText
 10
91.5215091134
 20
62.8570903215
 30
0.0
 40
2.9104166667
 41
0.0
 71
     1
 72
     1
  1
5R-NS1034
  7
SLDTEXTSTYLE0
 73
     1
 44
1.0
  0
LINE
  5
75
330
1F
100
AcDbEntity
  8
0
  6
Continuous
 62
     7
370
    25
100
AcDbLine
 10
49.6487790582
 20
52.9852815654
 30
0.0
 11
48.3433283237
 21
50.7241745665
 31
0.0
  0
LINE
  5
76
330
1F
100
AcDbEntity
  8
0
  6
Continuous
 62
     7
370
    25
100
AcDbLine
 10
48.3433283237
 20
25.2241745665
 30
0.0
 11
49.6487790582
 21
22.9630675675
 31
0.0
  0
LINE
  5
77
330
1F
100
AcDbEntity
  8
0
  6
Continuous
 62
     7
370
    25
100
AcDbLine
 10
85.0378775892
 20
22.9630675675
 30
0.0
 11
86.3433283237
 21
25.2241745665
 31
0.0
  0
LINE
  5
78
330
1F
100
AcDbEntity
  8
0
  6
Continuous
 62
     7
370
    25
100
AcDbLine
 10
86.3433283237
 20
50.7241745665
 30
0.0
 11
85.0378775892
 21
52.9852815654
 31
0.0
  0
LINE
  5
79
330
1F
100
AcDbEntity
  8
0
  6
Continuous
 62
     7
370
    25
100
AcDbLine
 10
67.3433283237
 20
24.9741745665
 30
0.0
 11
67.9200039759
 21
22.9630675675
 31
0.0
  0
LINE
  5
7A
330
1F
100
AcDbEntity
  8
0
  6
Continuous
 62
     7
370
    25
100
AcDbLine
 10
66.7666526715
 20
22.9630675675
 30
0.0
 11
67.3433283237
 21
24.9741745665
 31
0.0
  0
LINE
  5
7B
330
1F
100
AcDbEntity
  8
0
  6
Continuous
 62
     7
370
    25
100
AcDbLine
 10
67.3433283237
 20
50.9741745665
 30
0.0
 11
66.7666526715
 21
52.9852815654
 31
0.0
  0
LINE
  5
7C
330
1F
100
AcDbEntity
  8
0
  6
Continuous
 62
     7
370
    25
100
AcDbLine
 10
67.9200039759
 20
52.9852815654
 30
0.0
 11
67.3433283237
 21
50.9741745665
 31
0.0
  0
LINE
  5
7D
330
1F
100
AcDbEntity
  8
0
  6
Continuous
 62
     7
370
    25
100
AcDbLine
 10
81.8433283237
 20
23.4630675675
 30
0.0
 11
81.9773029199
 21
22.9630675675
 31
0.0
  0
LINE
  5
7E
330
1F
100
AcDbEntity
  8
0
  6
Continuous
 62
     7
370
    25
100
AcDbLine
 10
81.7093537275
 20
22.9630675675
 30
0.0
 11
81.8433283237
 21
23.4630675675
 31
0.0
  0
LINE
  5
7F
330
1F
100
AcDbEntity
  8
0
  6
Continuous
 62
     7
370
    25
100
AcDbLine
 10
81.8433283237
 20
52.4852815654
 30
0.0
 11
81.7093537275
 21
52.9852815654
 31
0.0
  0
LINE
  5
80
330
1F
100
AcDbEntity
  8
0
  6
Continuous
 62
     7
370
    25
100
AcDbLine
 10
81.9773029199
 20
52.9852815654
 30
0.0
 11
81.8433283237
 21
52.4852815654
 31
0.0
  0
LINE
  5
81
330
1F
100
AcDbEntity
  8
0
  6
Continuous
 62
     7
370
    25
100
AcDbLine
 10
49.6487790582
 20
45.4797280659
 30
0.0
 11
66.7666526715
 21
45.4797280659
 31
0.0
  0
SPLINE
  5
82
330
1F
100
AcDbEntity
  8
0
  6
Continuous
 62
     7
370
    25
100
AcDbSpline
210
0.0
220
0.0
230
1.0
 70
     8
 71
     3
 72
    10
 73
     6
 74
     0
 42
0.000000001
 43
0.00000001
 40
0.0
 40
0.0
 40
0.0
 40
0.0
 40
0.5
 40
0.5
 40
1.0
 40
1.0
 40
1.0
 40
1.0
 10
67.34332832369942
 20
37.97417456647415
 30
0.0
 10
67.34332832369942
 20
39.22808838720856
 30
0.0
 10
67.29035902940221
 20
40.48035533940836
 30
0.0
 10
67.09120022546855
 20
42.98199093373103
 30
0.0
 10
66.94563185482849
 20
44.23137888768883
 30
0.0
 10
66.76665267148893
 20
45.4797280659393
 30
0.0
  0
SPLINE
  5
83
330
1F
100
AcDbEntity
  8
0
  6
Continuous
 62
     7
370
    25
100
AcDbSpline
210
0.0
220
0.0
230
1.0
 70
     8
 71
     3
 72
    10
 73
     6
 74
     0
 42
0.000000001
 43
0.00000001
 40
0.0
 40
0.0
 40
0.0
 40
0.0
 40
0.5
 40
0.5
 40
1.0
 40
1.0
 40
1.0
 40
1.0
 10
66.76665267148893
 20
30.46862106700898
 30
0.0
 10
66.94539084567009
 20
31.71528924761935
 30
0.0
 10
67.09168030565347
 20
32.97069245433735
 30
0.0
 10
67.29075817844618
 20
35.47471104656855
 30
0.0
 10
67.34332832369942
 20
36.72526003581641
 30
0.0
 10
67.34332832369942
 20
37.97417456647415
 30
0.0
  0
LINE
  5
84
330
1F
100
AcDbEntity
  8
0
  6
Continuous
 62
     7
370
    25
100
AcDbLine
 10
49.6487790582
 20
30.468621067
 30
0.0
 11
66.7666526715
 21
30.468621067
 31
0.0
  0
SPLINE
  5
85
330
1F
100
AcDbEntity
  8
0
  6
Continuous
 62
     7
370
    25
100
AcDbSpline
210
0.0
220
0.0
230
1.0
 70
     8
 71
     3
 72
    16
 73
    12
 74
     0
 42
0.000000001
 43
0.00000001
 40
0.0
 40
0.0
 40
0.0
 40
0.0
 40
0.25
 40
0.25
 40
0.5
 40
0.5
 40
0.625
 40
0.625
 40
0.75
 40
0.75
 40
1.0
 40
1.0
 40
1.0
 40
1.0
 10
49.64877905819831
 20
30.46862106700897
 30
0.0
 10
49.29614463144279
 20
31.69018255428603
 30
0.0
 10
49.0005878169152
 20
32.94071714677969
 30
0.0
 10
48.59655235799453
 20
35.44693552711939
 30
0.0
 10
48.48752867959961
 20
36.7074355178168
 30
0.0
 10
48.48773469445447
 20
38.61119903527197
 30
0.0
 10
48.51477399475016
 20
39.24793039365286
 30
0.0
 10
48.62214811193031
 20
40.52562882794291
 30
0.0
 10
48.7017285627991
 20
41.15830753476388
 30
0.0
 10
49.00688366850384
 20
43.03737387144223
 30
0.0
 10
49.2985257625897
 20
44.26641505891401
 30
0.0
 10
49.64877905819836
 20
45.4797280659393
 30
0.0
  0
LINE
  5
86
330
1F
100
AcDbEntity
  8
0
  6
Continuous
 62
     7
370
    25
100
AcDbLine
 10
67.9200039759
 20
30.468621067
 30
0.0
 11
81.7093537275
 21
30.468621067
 31
0.0
  0
SPLINE
  5
87
330
1F
100
AcDbEntity
  8
0
  6
Continuous
 62
     7
370
    25
100
AcDbSpline
210
0.0
220
0.0
230
1.0
 70
     8
 71
     3
 72
    10
 73
     6
 74
     0
 42
0.000000001
 43
0.00000001
 40
0.0
 40
0.0
 40
0.0
 40
0.0
 40
0.5
 40
0.5
 40
1.0
 40
1.0
 40
1.0
 40
1.0
 10
67.92000397590992
 20
30.46862106700898
 30
0.0
 10
67.74126580172874
 20
31.71528924761935
 30
0.0
 10
67.59497634174537
 20
32.97069245433735
 30
0.0
 10
67.39589846895267
 20
35.47471104656855
 30
0.0
 10
67.34332832369942
 20
36.72526003581641
 30
0.0
 10
67.34332832369942
 20
37.97417456647415
 30
0.0
  0
SPLINE
  5
88
330
1F
100
AcDbEntity
  8
0
  6
Continuous
 62
     7
370
    25
100
AcDbSpline
210
0.0
220
0.0
230
1.0
 70
     8
 71
     3
 72
    10
 73
     6
 74
     0
 42
0.000000001
 43
0.00000001
 40
0.0
 40
0.0
 40
0.0
 40
0.0
 40
0.5
 40
0.5
 40
1.0
 40
1.0
 40
1.0
 40
1.0
 10
67.34332832369942
 20
37.97417456647415
 30
0.0
 10
67.34332832369942
 20
39.22808838720856
 30
0.0
 10
67.39629761799664
 20
40.48035533940836
 30
0.0
 10
67.5954564219303
 20
42.98199093373103
 30
0.0
 10
67.74102479257036
 20
44.23137888768883
 30
0.0
 10
67.92000397590992
 20
45.4797280659393
 30
0.0
  0
LINE
  5
89
330
1F
100
AcDbEntity
  8
0
  6
Continuous
 62
     7
370
    25
100
AcDbLine
 10
67.9200039759
 20
45.4797280659
 30
0.0
 11
81.7093537275
 21
45.4797280659
 31
0.0
  0
SPLINE
  5
8A
330
1F
100
AcDbEntity
  8
0
  6
Continuous
 62
     7
370
    25
100
AcDbSpline
210
0.0
220
0.0
230
1.0
 70
     8
 71
     3
 72
     8
 73
     4
 74
     0
 42
0.000000001
 43
0.00000001
 40
0.0
 40
0.0
 40
0.0
 40
0.0
 40
1.0
 40
1.0
 40
1.0
 40
1.0
 10
81.84332832369942
 20
44.4218273436019
 30
0.0
 10
81.80129356132863
 20
44.77489265235038
 30
0.0
 10
81.75654188764778
 20
45.12751084344433
 30
0.0
 10
81.70935372748386
 20
45.4797280659393
 30
0.0
  0
SPLINE
  5
8B
330
1F
100
AcDbEntity
  8
0
  6
Continuous
 62
     7
370
    25
100
AcDbSpline
210
0.0
220
0.0
230
1.0
 70
     8
 71
     3
 72
     8
 73
     4
 74
     0
 42
0.000000001
 43
0.00000001
 40
0.0
 40
0.0
 40
0.0
 40
0.0
 40
1.0
 40
1.0
 40
1.0
 40
1.0
 10
81.97730291991498
 20
45.4797280659393
 30
0.0
 10
81.93008939203632
 20
45.12732149624379
 30
0.0
 10
81.88533967947606
 20
44.77469605182445
 30
0.0
 10
81.84332832369942
 20
44.4218273436019
 30
0.0
  0
LINE
  5
8C
330
1F
100
AcDbEntity
  8
0
  6
Continuous
 62
     7
370
    25
100
AcDbLine
 10
81.9773029199
 20
45.4797280659
 30
0.0
 11
85.0378775892
 21
45.4797280659
 31
0.0
  0
SPLINE
  5
8D
330
1F
100
AcDbEntity
  8
0
  6
Continuous
 62
     7
370
    25
100
AcDbSpline
210
0.0
220
0.0
230
1.0
 70
     8
 71
     3
 72
    16
 73
    12
 74
     0
 42
0.000000001
 43
0.00000001
 40
0.0
 40
0.0
 40
0.0
 40
0.0
 40
0.2499999999999999
 40
0.2499999999999999
 40
0.4999999999999999
 40
0.4999999999999999
 40
0.6249999999999999
 40
0.6249999999999999
 40
0.7499999999999998
 40
0.7499999999999998
 40
1.0
 40
1.0
 40
1.0
 40
1.0
 10
85.0378775892005
 20
30.46862106700897
 30
0.0
 10
85.3907728102909
 20
31.69108597236256
 30
0.0
 10
85.68613594164455
 20
32.94117225541807
 30
0.0
 10
86.08999620731836
 20
35.44622628114718
 30
0.0
 10
86.19914872751704
 20
36.70683894402774
 30
0.0
 10
86.19891150903999
 20
38.61204771842504
 30
0.0
 10
86.17172518126833
 20
39.25056241637536
 30
0.0
 10
86.06427509145361
 20
40.52764573833434
 30
0.0
 10
85.98476368303845
 20
41.15943385698419
 30
0.0
 10
85.67973445435726
 20
43.03738292984126
 30
0.0
 10
85.38817899875305
 20
44.26624838732321
 30
0.0
 10
85.03787758920048
 20
45.4797280659393
 30
0.0
  0
LINE
  5
8E
330
1F
100
AcDbEntity
  8
0
  6
Continuous
 62
     7
370
    25
100
AcDbLine
 10
81.9773029199
 20
30.468621067
 30
0.0
 11
85.0378775892
 21
30.468621067
 31
0.0
  0
SPLINE
  5
8F
330
1F
100
AcDbEntity
  8
0
  6
Continuous
 62
     7
370
    25
100
AcDbSpline
210
0.0
220
0.0
230
1.0
 70
     8
 71
     3
 72
     8
 73
     4
 74
     0
 42
0.000000001
 43
0.00000001
 40
0.0
 40
0.0
 40
0.0
 40
0.0
 40
1.0
 40
1.0
 40
1.0
 40
1.0
 10
81.84332832369942
 20
31.52652178934638
 30
0.0
 10
81.88536308607021
 20
31.17345648059791
 30
0.0
 10
81.93011475975105
 20
30.82083828950395
 30
0.0
 10
81.97730291991498
 20
30.46862106700898
 30
0.0
  0
SPLINE
  5
90
330
1F
100
AcDbEntity
  8
0
  6
Continuous
 62
     7
370
    25
100
AcDbSpline
210
0.0
220
0.0
230
1.0
 70
     8
 71
     3
 72
     8
 73
     4
 74
     0
 42
0.000000001
 43
0.00000001
 40
0.0
 40
0.0
 40
0.0
 40
0.0
 40
1.0
 40
1.0
 40
1.0
 40
1.0
 10
81.70935372748386
 20
30.46862106700899
 30
0.0
 10
81.75656725536254
 20
30.8210276367045
 30
0.0
 10
81.80131696792279
 20
31.17365308112383
 30
0.0
 10
81.84332832369942
 20
31.52652178934638
 30
0.0
  0
LINE
  5
91
330
1F
100
AcDbEntity
  8
0
  6
Continuous
 62
     7
370
    25
100
AcDbLine
 10
67.9200039759
 20
22.9630675675
 30
0.0
 11
81.7093537275
 21
22.9630675675
 31
0.0
  0
SPLINE
  5
92
330
1F
100
AcDbEntity
  8
0
  6
Continuous
 62
     7
370
    25
100
AcDbSpline
210
0.0
220
0.0
230
1.0
 70
     8
 71
     3
 72
    10
 73
     6
 74
     0
 42
0.000000001
 43
0.00000001
 40
0.0
 40
0.0
 40
0.0
 40
0.0
 40
0.5
 40
0.5
 40
1.0
 40
1.0
 40
1.0
 40
1.0
 10
67.92000397590976
 20
22.96306756754372
 30
0.0
 10
67.7406554064483
 20
23.58853035916583
 30
0.0
 10
67.59502577575432
 20
24.21399315078794
 30
0.0
 10
67.39605640240835
 20
25.46491873403214
 30
0.0
 10
67.34332832369942
 20
26.09038152565425
 30
0.0
 10
67.34332832369942
 20
26.71584431727635
 30
0.0
  0
SPLINE
  5
93
330
1F
100
AcDbEntity
  8
0
  6
Continuous
 62
     7
370
    25
100
AcDbSpline
210
0.0
220
0.0
230
1.0
 70
     8
 71
     3
 72
    10
 73
     6
 74
     0
 42
0.000000001
 43
0.00000001
 40
0.0
 40
0.0
 40
0.0
 40
0.0
 40
0.5
 40
0.5
 40
1.0
 40
1.0
 40
1.0
 40
1.0
 10
67.34332832369942
 20
26.71584431727635
 30
0.0
 10
67.34332832369942
 20
27.34130710889846
 30
0.0
 10
67.39605640240835
 20
27.96676990052057
 30
0.0
 10
67.59502577575432
 20
29.21769548376478
 30
0.0
 10
67.7406554064483
 20
29.84315827538687
 30
0.0
 10
67.92000397590976
 20
30.46862106700898
 30
0.0
  0
SPLINE
  5
94
330
1F
100
AcDbEntity
  8
0
  6
Continuous
 62
     7
370
    25
100
AcDbSpline
210
0.0
220
0.0
230
1.0
 70
     8
 71
     3
 72
     8
 73
     4
 74
     0
 42
0.000000001
 43
0.00000001
 40
0.0
 40
0.0
 40
0.0
 40
0.0
 40
1.0
 40
1.0
 40
1.0
 40
1.0
 10
81.84332832369942
 20
29.93967070584029
 30
0.0
 10
81.80129246109395
 20
30.11620798085084
 30
0.0
 10
81.75654069659554
 20
30.29251690082904
 30
0.0
 10
81.70935372748386
 20
30.46862106700899
 30
0.0
  0
SPLINE
  5
95
330
1F
100
AcDbEntity
  8
0
  6
Continuous
 62
     7
370
    25
100
AcDbSpline
210
0.0
220
0.0
230
1.0
 70
     8
 71
     3
 72
     8
 73
     4
 74
     0
 42
0.000000001
 43
0.00000001
 40
0.0
 40
0.0
 40
0.0
 40
0.0
 40
1.0
 40
1.0
 40
1.0
 40
1.0
 10
81.97730291991498
 20
30.46862106700898
 30
0.0
 10
81.93009279010147
 20
30.29243046391298
 30
0.0
 10
81.88534281187385
 20
30.11611821502767
 30
0.0
 10
81.84332832369942
 20
29.93967070584029
 30
0.0
  0
SPLINE
  5
96
330
1F
100
AcDbEntity
  8
0
  6
Continuous
 62
     7
370
    25
100
AcDbSpline
210
0.0
220
0.0
230
1.0
 70
     8
 71
     3
 72
    16
 73
    12
 74
     0
 42
0.000000001
 43
0.00000001
 40
0.0
 40
0.0
 40
0.0
 40
0.0
 40
0.2499999999999999
 40
0.2499999999999999
 40
0.4999999999999999
 40
0.4999999999999999
 40
0.6249999999999999
 40
0.6249999999999999
 40
0.7499999999999998
 40
0.7499999999999998
 40
1.0
 40
1.0
 40
1.0
 40
1.0
 10
85.03787758920076
 20
30.468621067009
 30
0.0
 10
85.39165319098603
 20
29.85586375023864
 30
0.0
 10
85.6832283246736
 20
29.23863901541341
 30
0.0
 10
86.08715451778913
 20
27.99131715284205
 30
0.0
 10
86.19817319982987
 20
27.36112432988691
 30
0.0
 10
86.19939268161711
 20
26.40396215647964
 30
0.0
 10
86.17225295457462
 20
26.08340650418668
 30
0.0
 10
86.06642219408394
 20
25.44931367224451
 30
0.0
 10
85.9878385776121
 20
25.13439313239126
 30
0.0
 10
85.68439104233666
 20
24.19523823884324
 30
0.0
 10
85.39209421746361
 20
23.57658876458095
 30
0.0
 10
85.03787758920062
 20
22.96306756754371
 30
0.0
  0
LINE
  5
97
330
1F
100
AcDbEntity
  8
0
  6
Continuous
 62
     7
370
    25
100
AcDbLine
 10
81.9773029199
 20
22.9630675675
 30
0.0
 11
85.0378775892
 21
22.9630675675
 31
0.0
  0
SPLINE
  5
98
330
1F
100
AcDbEntity
  8
0
  6
Continuous
 62
     7
370
    25
100
AcDbSpline
210
0.0
220
0.0
230
1.0
 70
     8
 71
     3
 72
     8
 73
     4
 74
     0
 42
0.000000001
 43
0.00000001
 40
0.0
 40
0.0
 40
0.0
 40
0.0
 40
1.0
 40
1.0
 40
1.0
 40
1.0
 10
81.84332832369942
 20
23.49201792871243
 30
0.0
 10
81.8853641863049
 20
23.31548065370188
 30
0.0
 10
81.93011595080331
 20
23.13917173372368
 30
0.0
 10
81.97730291991498
 20
22.96306756754372
 30
0.0
  0
SPLINE
  5
99
330
1F
100
AcDbEntity
  8
0
  6
Continuous
 62
     7
370
    25
100
AcDbSpline
210
0.0
220
0.0
230
1.0
 70
     8
 71
     3
 72
     8
 73
     4
 74
     0
 42
0.000000001
 43
0.00000001
 40
0.0
 40
0.0
 40
0.0
 40
0.0
 40
1.0
 40
1.0
 40
1.0
 40
1.0
 10
81.70935372748386
 20
22.96306756754372
 30
0.0
 10
81.7565638572974
 20
23.13925817063973
 30
0.0
 10
81.80131383552498
 20
23.31557041952504
 30
0.0
 10
81.84332832369942
 20
23.49201792871243
 30
0.0
  0
SPLINE
  5
9A
330
1F
100
AcDbEntity
  8
0
  6
Continuous
 62
     7
370
    25
100
AcDbSpline
210
0.0
220
0.0
230
1.0
 70
     8
 71
     3
 72
    10
 73
     6
 74
     0
 42
0.000000001
 43
0.00000001
 40
0.0
 40
0.0
 40
0.0
 40
0.0
 40
0.5
 40
0.5
 40
1.0
 40
1.0
 40
1.0
 40
1.0
 10
66.76665267148908
 20
45.4797280659393
 30
0.0
 10
66.94600124095052
 20
46.10519085756138
 30
0.0
 10
67.09163087164453
 20
46.73065364918347
 30
0.0
 10
67.29060024499047
 20
47.98157923242763
 30
0.0
 10
67.34332832369941
 20
48.60704202404971
 30
0.0
 10
67.34332832369941
 20
49.23250481567179
 30
0.0
  0
LINE
  5
9B
330
1F
100
AcDbEntity
  8
0
  6
Continuous
 62
     7
370
    25
100
AcDbLine
 10
67.3433283237
 20
37.9741745665
 30
0.0
 11
67.3433283237
 21
49.2325048157
 31
0.0
  0
LINE
  5
9C
330
1F
100
AcDbEntity
  8
0
  6
Continuous
 62
     7
370
    25
100
AcDbLine
 10
67.3433283237
 20
26.7158443173
 30
0.0
 11
67.3433283237
 21
37.9741745665
 31
0.0
  0
SPLINE
  5
9D
330
1F
100
AcDbEntity
  8
0
  6
Continuous
 62
     7
370
    25
100
AcDbSpline
210
0.0
220
0.0
230
1.0
 70
     8
 71
     3
 72
    10
 73
     6
 74
     0
 42
0.000000001
 43
0.00000001
 40
0.0
 40
0.0
 40
0.0
 40
0.0
 40
0.5
 40
0.5
 40
1.0
 40
1.0
 40
1.0
 40
1.0
 10
67.34332832369942
 20
26.71584431727635
 30
0.0
 10
67.34332832369942
 20
27.34130710889846
 30
0.0
 10
67.29060024499049
 20
27.96676990052057
 30
0.0
 10
67.09163087164453
 20
29.21769548376478
 30
0.0
 10
66.94600124095054
 20
29.84315827538687
 30
0.0
 10
66.76665267148908
 20
30.46862106700898
 30
0.0
  0
SPLINE
  5
9E
330
1F
100
AcDbEntity
  8
0
  6
Continuous
 62
     7
370
    25
100
AcDbSpline
210
0.0
220
0.0
230
1.0
 70
     8
 71
     3
 72
    16
 73
    12
 74
     0
 42
0.000000001
 43
0.00000001
 40
0.0
 40
0.0
 40
0.0
 40
0.0
 40
0.2500000000000001
 40
0.2500000000000001
 40
0.5000000000000001
 40
0.5000000000000001
 40
0.6250000000000001
 40
0.6250000000000001
 40
0.75
 40
0.75
 40
1.0
 40
1.0
 40
1.0
 40
1.0
 10
49.64877905819809
 20
22.96306756754371
 30
0.0
 10
49.29500345641281
 20
23.57582488431406
 30
0.0
 10
49.00342832272523
 20
24.1930496191393
 30
0.0
 10
48.59950212960972
 20
25.44037148171066
 30
0.0
 10
48.48848344756898
 20
26.0705643046658
 30
0.0
 10
48.48726396578174
 20
27.02772647807307
 30
0.0
 10
48.51440369282423
 20
27.34828213036603
 30
0.0
 10
48.6202344533149
 20
27.9823749623082
 30
0.0
 10
48.69881806978675
 20
28.29729550216145
 30
0.0
 10
49.00226560506217
 20
29.23645039570947
 30
0.0
 10
49.29456242993524
 20
29.85509986997176
 30
0.0
 10
49.64877905819823
 20
30.468621067009
 30
0.0
  0
SPLINE
  5
9F
330
1F
100
AcDbEntity
  8
0
  6
Continuous
 62
     7
370
    25
100
AcDbSpline
210
0.0
220
0.0
230
1.0
 70
     8
 71
     3
 72
    16
 73
    12
 74
     0
 42
0.000000001
 43
0.00000001
 40
0.0
 40
0.0
 40
0.0
 40
0.0
 40
0.2500000000000001
 40
0.2500000000000001
 40
0.5000000000000001
 40
0.5000000000000001
 40
0.625
 40
0.625
 40
0.7499999999999999
 40
0.7499999999999999
 40
1.0
 40
1.0
 40
1.0
 40
1.0
 10
49.64877905819809
 20
45.47972806593928
 30
0.0
 10
49.29500345641283
 20
46.09248538270962
 30
0.0
 10
49.00342832272525
 20
46.70971011753483
 30
0.0
 10
48.59950212960974
 20
47.95703198010614
 30
0.0
 10
48.48848344756901
 20
48.58722480306126
 30
0.0
 10
48.48726396578177
 20
49.5443869764685
 30
0.0
 10
48.51440369282426
 20
49.86494262876144
 30
0.0
 10
48.62023445331493
 20
50.49903546070359
 30
0.0
 10
48.69881806978677
 20
50.81395600055683
 30
0.0
 10
49.00226560506218
 20
51.75311089410481
 30
0.0
 10
49.29456242993524
 20
52.37176036836709
 30
0.0
 10
49.64877905819823
 20
52.9852815654043
 30
0.0
  0
LINE
  5
A0
330
1F
100
AcDbEntity
  8
0
  6
Continuous
 62
     7
370
    25
100
AcDbLine
 10
48.3433283237
 20
37.9741745665
 30
0.0
 11
48.3433283237
 21
50.7241745665
 31
0.0
  0
LINE
  5
A1
330
1F
100
AcDbEntity
  8
0
  6
Continuous
 62
     7
370
    25
100
AcDbLine
 10
48.3433283237
 20
25.2241745665
 30
0.0
 11
48.3433283237
 21
37.9741745665
 31
0.0
  0
SPLINE
  5
A2
330
1F
100
AcDbEntity
  8
0
  6
Continuous
 62
     7
370
    25
100
AcDbSpline
210
0.0
220
0.0
230
1.0
 70
     8
 71
     3
 72
     8
 73
     4
 74
     0
 42
0.000000001
 43
0.00000001
 40
0.0
 40
0.0
 40
0.0
 40
0.0
 40
1.0
 40
1.0
 40
1.0
 40
1.0
 10
81.70935372748386
 20
45.47972806593929
 30
0.0
 10
81.7565638572974
 20
45.65591866903529
 30
0.0
 10
81.80131383552498
 20
45.8322309179206
 30
0.0
 10
81.84332832369942
 20
46.00867842710799
 30
0.0
  0
LINE
  5
A3
330
1F
100
AcDbEntity
  8
0
  6
Continuous
 62
     7
370
    25
100
AcDbLine
 10
81.8433283237
 20
44.4218273436
 30
0.0
 11
81.8433283237
 21
46.0086784271
 31
0.0
  0
SPLINE
  5
A4
330
1F
100
AcDbEntity
  8
0
  6
Continuous
 62
     7
370
    25
100
AcDbSpline
210
0.0
220
0.0
230
1.0
 70
     8
 71
     3
 72
    10
 73
     6
 74
     0
 42
0.000000001
 43
0.00000001
 40
0.0
 40
0.0
 40
0.0
 40
0.0
 40
0.5
 40
0.5
 40
1.0
 40
1.0
 40
1.0
 40
1.0
 10
67.92000397590976
 20
45.4797280659393
 30
0.0
 10
67.74065540644831
 20
46.10519085756138
 30
0.0
 10
67.59502577575432
 20
46.73065364918347
 30
0.0
 10
67.39605640240836
 20
47.98157923242763
 30
0.0
 10
67.34332832369944
 20
48.60704202404971
 30
0.0
 10
67.34332832369944
 20
49.23250481567179
 30
0.0
  0
LINE
  5
A5
330
1F
100
AcDbEntity
  8
0
  6
Continuous
 62
     7
370
    25
100
AcDbLine
 10
81.8433283237
 20
29.9396707058
 30
0.0
 11
81.8433283237
 21
31.5265217893
 31
0.0
  0
SPLINE
  5
A6
330
1F
100
AcDbEntity
  8
0
  6
Continuous
 62
     7
370
    25
100
AcDbSpline
210
0.0
220
0.0
230
1.0
 70
     8
 71
     3
 72
    16
 73
    12
 74
     0
 42
0.000000001
 43
0.00000001
 40
0.0
 40
0.0
 40
0.0
 40
0.0
 40
0.2500000000000001
 40
0.2500000000000001
 40
0.5000000000000001
 40
0.5000000000000001
 40
0.6250000000000001
 40
0.6250000000000001
 40
0.7500000000000002
 40
0.7500000000000002
 40
1.0
 40
1.0
 40
1.0
 40
1.0
 10
85.03787758920076
 20
52.9852815654043
 30
0.0
 10
85.39165319098602
 20
52.37252424863398
 30
0.0
 10
85.68322832467359
 20
51.75529951380876
 30
0.0
 10
86.0871545177891
 20
50.50797765123744
 30
0.0
 10
86.19817319982982
 20
49.87778482828232
 30
0.0
 10
86.19939268161708
 20
48.92062265487509
 30
0.0
 10
86.17225295457459
 20
48.60006700258214
 30
0.0
 10
86.06642219408391
 20
47.96597417064
 30
0.0
 10
85.98783857761208
 20
47.65105363078676
 30
0.0
 10
85.68439104233666
 20
46.71189873723877
 30
0.0
 10
85.39209421746361
 20
46.0932492629765
 30
0.0
 10
85.03787758920062
 20
45.47972806593928
 30
0.0
  0
LINE
  5
A7
330
1F
100
AcDbEntity
  8
0
  6
Continuous
 62
     7
370
    25
100
AcDbLine
 10
86.3433283237
 20
50.7241745665
 30
0.0
 11
86.3433283237
 21
25.2241745665
 31
0.0
  0
SPLINE
  5
A8
330
1F
100
AcDbEntity
  8
0
  6
Continuous
 62
     7
370
    25
100
AcDbSpline
210
0.0
220
0.0
230
1.0
 70
     8
 71
     3
 72
    10
 73
     6
 74
     0
 42
0.000000001
 43
0.00000001
 40
0.0
 40
0.0
 40
0.0
 40
0.0
 40
0.5
 40
0.5
 40
1.0
 40
1.0
 40
1.0
 40
1.0
 10
66.76665267148908
 20
22.96306756754372
 30
0.0
 10
66.94600124095054
 20
23.58853035916583
 30
0.0
 10
67.09163087164453
 20
24.21399315078794
 30
0.0
 10
67.29060024499049
 20
25.46491873403214
 30
0.0
 10
67.34332832369942
 20
26.09038152565425
 30
0.0
 10
67.34332832369942
 20
26.71584431727635
 30
0.0
  0
LINE
  5
A9
330
1F
100
AcDbEntity
  8
0
  6
Continuous
 62
     7
370
    25
100
AcDbLine
 10
49.6487790582
 20
22.9630675675
 30
0.0
 11
66.7666526715
 21
22.9630675675
 31
0.0
  0
SPLINE
  5
AA
330
1F
100
AcDbEntity
  8
0
  6
Continuous
 62
     7
370
    25
100
AcDbSpline
210
0.0
220
0.0
230
1.0
 70
     8
 71
     3
 72
     8
 73
     4
 74
     0
 42
0.000000001
 43
0.00000001
 40
0.0
 40
0.0
 40
0.0
 40
0.0
 40
1.0
 40
1.0
 40
1.0
 40
1.0
 10
81.84332832369942
 20
46.00867842710799
 30
0.0
 10
81.8853641863049
 20
45.83214115209744
 30
0.0
 10
81.93011595080331
 20
45.65583223211924
 30
0.0
 10
81.97730291991498
 20
45.4797280659393
 30
0.0
  0
SPLINE
  5
AB
330
1F
100
AcDbEntity
  8
0
  6
Continuous
 62
     7
370
    25
100
AcDbSpline
210
0.0
220
0.0
230
1.0
 70
     8
 71
     3
 72
    10
 73
     6
 74
     0
 42
0.000000001
 43
0.00000001
 40
0.0
 40
0.0
 40
0.0
 40
0.0
 40
0.4999999999999999
 40
0.4999999999999999
 40
1.0
 40
1.0
 40
1.0
 40
1.0
 10
67.34332832369944
 20
49.23250481567179
 30
0.0
 10
67.34332832369944
 20
49.85796760729388
 30
0.0
 10
67.39605640240836
 20
50.48343039891596
 30
0.0
 10
67.59502577575432
 20
51.73435598216011
 30
0.0
 10
67.74065540644831
 20
52.3598187737822
 30
0.0
 10
67.92000397590976
 20
52.98528156540429
 30
0.0
  0
LINE
  5
AC
330
1F
100
AcDbEntity
  8
0
  6
Continuous
 62
     7
370
    25
100
AcDbLine
 10
67.9200039759
 20
52.9852815654
 30
0.0
 11
81.7093537275
 21
52.9852815654
 31
0.0
  0
SPLINE
  5
AD
330
1F
100
AcDbEntity
  8
0
  6
Continuous
 62
     7
370
    25
100
AcDbSpline
210
0.0
220
0.0
230
1.0
 70
     8
 71
     3
 72
     8
 73
     4
 74
     0
 42
0.000000001
 43
0.00000001
 40
0.0
 40
0.0
 40
0.0
 40
0.0
 40
1.0
 40
1.0
 40
1.0
 40
1.0
 10
81.84332832369942
 20
52.45633120423559
 30
0.0
 10
81.80129246109395
 20
52.63286847924613
 30
0.0
 10
81.75654069659554
 20
52.80917739922433
 30
0.0
 10
81.70935372748386
 20
52.98528156540429
 30
0.0
  0
SPLINE
  5
AE
330
1F
100
AcDbEntity
  8
0
  6
Continuous
 62
     7
370
    25
100
AcDbSpline
210
0.0
220
0.0
230
1.0
 70
     8
 71
     3
 72
     8
 73
     4
 74
     0
 42
0.000000001
 43
0.00000001
 40
0.0
 40
0.0
 40
0.0
 40
0.0
 40
1.0
 40
1.0
 40
1.0
 40
1.0
 10
81.97730291991498
 20
52.98528156540429
 30
0.0
 10
81.93009279010145
 20
52.80909096230828
 30
0.0
 10
81.88534281187385
 20
52.63277871342298
 30
0.0
 10
81.84332832369942
 20
52.45633120423559
 30
0.0
  0
LINE
  5
AF
330
1F
100
AcDbEntity
  8
0
  6
Continuous
 62
     7
370
    25
100
AcDbLine
 10
81.9773029199
 20
52.9852815654
 30
0.0
 11
85.0378775892
 21
52.9852815654
 31
0.0
  0
LINE
  5
B0
330
1F
100
AcDbEntity
  8
0
  6
Continuous
 62
     7
370
    25
100
AcDbLine
 10
49.6487790582
 20
52.9852815654
 30
0.0
 11
66.7666526715
 21
52.9852815654
 31
0.0
  0
SPLINE
  5
B1
330
1F
100
AcDbEntity
  8
0
  6
Continuous
 62
     7
370
    25
100
AcDbSpline
210
0.0
220
0.0
230
1.0
 70
     8
 71
     3
 72
    10
 73
     6
 74
     0
 42
0.000000001
 43
0.00000001
 40
0.0
 40
0.0
 40
0.0
 40
0.0
 40
0.4999999999999999
 40
0.4999999999999999
 40
1.0
 40
1.0
 40
1.0
 40
1.0
 10
67.34332832369941
 20
49.23250481567179
 30
0.0
 10
67.34332832369941
 20
49.85796760729388
 30
0.0
 10
67.29060024499047
 20
50.48343039891596
 30
0.0
 10
67.09163087164453
 20
51.73435598216011
 30
0.0
 10
66.94600124095052
 20
52.3598187737822
 30
0.0
 10
66.76665267148908
 20
52.98528156540429
 30
0.0
  0
LINE
  5
B2
330
1F
100
AcDbEntity
  8
0
  6
Continuous
 62
     7
370
    25
100
AcDbLine
 10
67.3433283237
 20
24.9741745665
 30
0.0
 11
67.3433283237
 21
26.7158443173
 31
0.0
  0
LINE
  5
B3
330
1F
100
AcDbEntity
  8
0
  6
Continuous
 62
     7
370
    25
100
AcDbLine
 10
67.3433283237
 20
49.2325048157
 30
0.0
 11
67.3433283237
 21
50.9741745665
 31
0.0
  0
LINE
  5
B4
330
1F
100
AcDbEntity
  8
0
  6
Continuous
 62
     7
370
    25
100
AcDbLine
 10
81.8433283237
 20
23.4630675675
 30
0.0
 11
81.8433283237
 21
23.4920179287
 31
0.0
  0
LINE
  5
B5
330
1F
100
AcDbEntity
  8
0
  6
Continuous
 62
     7
370
    25
100
AcDbLine
 10
81.8433283237
 20
52.4563312042
 30
0.0
 11
81.8433283237
 21
52.4852815654
 31
0.0
  0
LINE
  5
B6
330
1F
100
AcDbEntity
  8
0
  6
CENTERX2
 62
     7
370
    18
100
AcDbLine
 10
84.0378775892
 20
37.9741745665
 30
0.0
 11
87.3433283237
 21
37.9741745665
 31
0.0
  0
LINE
  5
B7
330
1F
100
AcDbEntity
  8
0
  6
CENTERX2
 62
     7
370
    18
100
AcDbLine
 10
80.9773029199
 20
37.9741745665
 30
0.0
 11
85.0378775892
 21
37.9741745665
 31
0.0
  0
LINE
  5
B8
330
1F
100
AcDbEntity
  8
0
  6
CENTERX2
 62
     7
370
    18
100
AcDbLine
 10
66.9200039759
 20
37.9741745665
 30
0.0
 11
82.7093537275
 21
37.9741745665
 31
0.0
  0
LINE
  5
B9
330
1F
100
AcDbEntity
  8
0
  6
CENTERX2
 62
     7
370
    18
100
AcDbLine
 10
48.6487790582
 20
37.9741745665
 30
0.0
 11
67.7666526715
 21
37.9741745665
 31
0.0
  0
LINE
  5
BA
330
1F
100
AcDbEntity
  8
0
  6
CENTERX2
 62
     7
370
    18
100
AcDbLine
 10
50.6487790582
 20
37.9741745665
 30
0.0
 11
47.3433283237
 21
37.9741745665
 31
0.0
  0
CIRCLE
  5
BB
330
1F
100
AcDbEntity
  8
0
  6
Continuous
 62
     7
370
    25
100
AcDbCircle
 10
121.2110023121
 20
37.9741745665
 30
0.0
 40
12.75
  0
CIRCLE
  5
BC
330
1F
100
AcDbEntity
  8
0
  6
Continuous
 62
     7
370
    25
100
AcDbCircle
 10
121.2110023121
 20
37.9741745665
 30
0.0
 40
10.75
  0
SPLINE
  5
BD
330
1F
100
AcDbEntity
  8
0
  6
Continuous
 62
     7
370
    25
100
AcDbSpline
210
0.0
220
0.0
230
1.0
 70
    24
 71
     3
 72
    16
 73
    12
 74
     0
 42
0.000000001
 43
0.00000001
 40
0.0
 40
0.0
 40
0.0
 40
0.0
 40
0.2500000000000001
 40
0.2500000000000001
 40
0.5000000000000001
 40
0.5000000000000001
 40
0.6250000000000001
 40
0.6250000000000001
 40
0.7500000000000002
 40
0.7500000000000002
 40
1.0
 40
1.0
 40
1.0
 40
1.0
 10
121.2110023121388
 20
52.9852815654043
 30
0.0
 10
120.149675506783
 20
52.37252424863398
 30
0.0
 10
119.0806109063774
 20
51.75529951380876
 30
0.0
 10
116.9201860670125
 20
50.50797765123744
 30
0.0
 10
115.8286600790889
 20
49.87778482828232
 30
0.0
 10
114.1708065636645
 20
48.92062265487509
 30
0.0
 10
113.6155878872397
 20
48.60006700258214
 30
0.0
 10
112.5173068856007
 20
47.96597417064
 30
0.0
 10
111.9718485102278
 20
47.65105363078676
 30
0.0
 10
110.3451845184258
 20
46.71189873723877
 30
0.0
 10
109.2736521969277
 20
46.0932492629765
 30
0.0
 10
108.2110023121388
 20
45.47972806593928
 30
0.0
  0
SPLINE
  5
BE
330
1F
100
AcDbEntity
  8
0
  6
Continuous
 62
     7
370
    25
100
AcDbSpline
210
0.0
220
0.0
230
1.0
 70
    24
 71
     3
 72
    16
 73
    12
 74
     0
 42
0.000000001
 43
0.00000001
 40
0.0
 40
0.0
 40
0.0
 40
0.0
 40
0.2499999999999999
 40
0.2499999999999999
 40
0.4999999999999999
 40
0.4999999999999999
 40
0.625
 40
0.625
 40
0.75
 40
0.75
 40
1.0
 40
1.0
 40
1.0
 40
1.0
 10
134.2110023121388
 20
45.4797280659391
 30
0.0
 10
133.149675506783
 20
46.09248538270944
 30
0.0
 10
132.0806109063775
 20
46.70971011753468
 30
0.0
 10
129.9201860670125
 20
47.95703198010602
 30
0.0
 10
128.8286600790889
 20
48.58722480306115
 30
0.0
 10
127.1708065636645
 20
49.54438697646841
 30
0.0
 10
126.6155878872397
 20
49.86494262876136
 30
0.0
 10
125.5173068856006
 20
50.49903546070354
 30
0.0
 10
124.9718485102278
 20
50.81395600055679
 30
0.0
 10
123.3451845184257
 20
51.75311089410479
 30
0.0
 10
122.2736521969277
 20
52.37176036836707
 30
0.0
 10
121.2110023121387
 20
52.98528156540429
 30
0.0
  0
SPLINE
  5
BF
330
1F
100
AcDbEntity
  8
0
  6
Continuous
 62
     7
370
    25
100
AcDbSpline
210
0.0
220
0.0
230
1.0
 70
    24
 71
     3
 72
    16
 73
    12
 74
     0
 42
0.000000001
 43
0.00000001
 40
0.0
 40
0.0
 40
0.0
 40
0.0
 40
0.2499999999999999
 40
0.2499999999999999
 40
0.4999999999999999
 40
0.4999999999999999
 40
0.6249999999999999
 40
0.6249999999999999
 40
0.7499999999999998
 40
0.7499999999999998
 40
1.0
 40
1.0
 40
1.0
 40
1.0
 10
134.2110023121387
 20
30.46862106700879
 30
0.0
 10
134.2110023121387
 20
31.69108597236238
 30
0.0
 10
134.2110023121387
 20
32.94117225541789
 30
0.0
 10
134.2110023121387
 20
35.44622628114701
 30
0.0
 10
134.2110023121387
 20
36.70683894402756
 30
0.0
 10
134.2110023121387
 20
38.61204771842486
 30
0.0
 10
134.2110023121387
 20
39.25056241637518
 30
0.0
 10
134.2110023121387
 20
40.52764573833416
 30
0.0
 10
134.2110023121387
 20
41.159433856984
 30
0.0
 10
134.2110023121388
 20
43.03738292984107
 30
0.0
 10
134.2110023121388
 20
44.26624838732303
 30
0.0
 10
134.2110023121388
 20
45.47972806593912
 30
0.0
  0
SPLINE
  5
C0
330
1F
100
AcDbEntity
  8
0
  6
Continuous
 62
     7
370
    25
100
AcDbSpline
210
0.0
220
0.0
230
1.0
 70
    24
 71
     3
 72
    16
 73
    12
 74
     0
 42
0.000000001
 43
0.00000001
 40
0.0
 40
0.0
 40
0.0
 40
0.0
 40
0.2499999999999999
 40
0.2499999999999999
 40
0.4999999999999998
 40
0.4999999999999998
 40
0.6249999999999998
 40
0.6249999999999998
 40
0.75
 40
0.75
 40
1.0
 40
1.0
 40
1.0
 40
1.0
 10
121.2110023121386
 20
22.96306756754371
 30
0.0
 10
122.2723291174944
 20
23.57582488431405
 30
0.0
 10
123.3413937178999
 20
24.19304961913927
 30
0.0
 10
125.5018185572649
 20
25.44037148171061
 30
0.0
 10
126.5933445451885
 20
26.07056430466573
 30
0.0
 10
128.2511980606129
 20
27.02772647807297
 30
0.0
 10
128.8064167370377
 20
27.34828213036593
 30
0.0
 10
129.9046977386768
 20
27.98237496230808
 30
0.0
 10
130.4501561140496
 20
28.29729550216132
 30
0.0
 10
132.0768201058517
 20
29.23645039570932
 30
0.0
 10
133.1483524273498
 20
29.8550998699716
 30
0.0
 10
134.2110023121387
 20
30.46862106700882
 30
0.0
  0
SPLINE
  5
C1
330
1F
100
AcDbEntity
  8
0
  6
Continuous
 62
     7
370
    25
100
AcDbSpline
210
0.0
220
0.0
230
1.0
 70
    24
 71
     3
 72
    16
 73
    12
 74
     0
 42
0.000000001
 43
0.00000001
 40
0.0
 40
0.0
 40
0.0
 40
0.0
 40
0.2499999999999999
 40
0.2499999999999999
 40
0.4999999999999999
 40
0.4999999999999999
 40
0.6249999999999999
 40
0.6249999999999999
 40
0.7499999999999998
 40
0.7499999999999998
 40
1.0
 40
1.0
 40
1.0
 40
1.0
 10
108.2110023121386
 20
30.468621067009
 30
0.0
 10
109.2723291174944
 20
29.85586375023864
 30
0.0
 10
110.3413937178999
 20
29.23863901541341
 30
0.0
 10
112.5018185572649
 20
27.99131715284205
 30
0.0
 10
113.5933445451885
 20
27.36112432988691
 30
0.0
 10
115.2511980606129
 20
26.40396215647964
 30
0.0
 10
115.8064167370377
 20
26.08340650418668
 30
0.0
 10
116.9046977386767
 20
25.44931367224451
 30
0.0
 10
117.4501561140496
 20
25.13439313239126
 30
0.0
 10
119.0768201058517
 20
24.19523823884324
 30
0.0
 10
120.1483524273497
 20
23.57658876458095
 30
0.0
 10
121.2110023121386
 20
22.96306756754371
 30
0.0
  0
SPLINE
  5
C2
330
1F
100
AcDbEntity
  8
0
  6
Continuous
 62
     7
370
    25
100
AcDbSpline
210
0.0
220
0.0
230
1.0
 70
    24
 71
     3
 72
    16
 73
    12
 74
     0
 42
0.000000001
 43
0.00000001
 40
0.0
 40
0.0
 40
0.0
 40
0.0
 40
0.2499999999999999
 40
0.2499999999999999
 40
0.4999999999999999
 40
0.4999999999999999
 40
0.6249999999999999
 40
0.6249999999999999
 40
0.7499999999999998
 40
0.7499999999999998
 40
1.0
 40
1.0
 40
1.0
 40
1.0
 10
108.2110023121386
 20
30.46862106700897
 30
0.0
 10
108.2110023121387
 20
31.69108597236256
 30
0.0
 10
108.2110023121387
 20
32.94117225541807
 30
0.0
 10
108.2110023121387
 20
35.44622628114718
 30
0.0
 10
108.2110023121387
 20
36.70683894402774
 30
0.0
 10
108.2110023121387
 20
38.61204771842504
 30
0.0
 10
108.2110023121387
 20
39.25056241637536
 30
0.0
 10
108.2110023121388
 20
40.52764573833434
 30
0.0
 10
108.2110023121388
 20
41.15943385698419
 30
0.0
 10
108.2110023121388
 20
43.03738292984126
 30
0.0
 10
108.2110023121388
 20
44.26624838732321
 30
0.0
 10
108.2110023121388
 20
45.4797280659393
 30
0.0
  0
CIRCLE
  5
C3
330
1F
100
AcDbEntity
  8
0
  6
Continuous
 62
     7
370
    25
100
AcDbCircle
 10
121.2110023121
 20
37.9741745665
 30
0.0
 40
9.831213860099382
  0
CIRCLE
  5
C4
330
1F
100
AcDbEntity
  8
0
  6
Continuous
 62
     7
370
    25
100
AcDbCircle
 10
121.2110023121
 20
37.9741745665
 30
0.0
 40
9.42825049455297
  0
CIRCLE
  5
C5
330
1F
100
AcDbEntity
  8
0
  6
Continuous
 62
     7
370
    25
100
AcDbCircle
 10
121.2110023121
 20
37.9741745665
 30
0.0
 40
9.315499999999986
  0
CIRCLE
  5
C6
330
1F
100
AcDbEntity
  8
0
  6
Continuous
 62
     7
370
    25
100
AcDbCircle
 10
121.2110023121
 20
37.9741745665
 30
0.0
 40
9.0
  0
CIRCLE
  5
C7
330
1F
100
AcDbEntity
  8
0
  6
Continuous
 62
     7
370
    25
100
AcDbCircle
 10
121.2110023121
 20
37.9741745665
 30
0.0
 40
7.573879810809672
  0
INSERT
  5
D3
330
1F
100
AcDbEntity
  8
0
  6
Continuous
 62
     7
370
    18
100
AcDbBlockReference
  2
SW_CENTERMARKSYMBOL_0
 10
121.2110023121
 20
37.9741745665
 30
0.0
  0
ARC
  5
D4
330
1F
100
AcDbEntity
  8
0
  6
Continuous
 62
     7
370
    18
100
AcDbCircle
 10
121.2110023121
 20
37.9741745665
 30
0.0
 40
10.4618915
100
AcDbArc
 50
75.0
 51
345.0
  0
ARC
  5
D5
330
1F
100
AcDbEntity
  8
0
  6
Continuous
 62
     7
370
    18
100
AcDbCircle
 10
121.2110023121
 20
37.9741745665
 30
0.0
 40
8.411954614117967
100
AcDbArc
 50
75.0
 51
345.0
  0
LINE
  5
D6
330
1F
100
AcDbEntity
  8
0
  6
Continuous
 62
     7
370
    25
100
AcDbLine
 10
48.487665891
 20
93.3105421965
 30
0.0
 11
48.3433283237
 21
93.0605421965
 31
0.0
  0
LINE
  5
D7
330
1F
100
AcDbEntity
  8
0
  6
Continuous
 62
     7
370
    25
100
AcDbLine
 10
48.3433283237
 20
67.5605421965
 30
0.0
 11
48.487665891
 21
67.3105421965
 31
0.0
  0
LINE
  5
D8
330
1F
100
AcDbEntity
  8
0
  6
Continuous
 62
     7
370
    25
100
AcDbLine
 10
86.1989907564
 20
67.3105421965
 30
0.0
 11
86.3433283237
 21
67.5605421965
 31
0.0
  0
LINE
  5
D9
330
1F
100
AcDbEntity
  8
0
  6
Continuous
 62
     7
370
    25
100
AcDbLine
 10
86.3433283237
 20
93.0605421965
 30
0.0
 11
86.1989907564
 21
93.3105421965
 31
0.0
  0
SPLINE
  5
DA
330
1F
100
AcDbEntity
  8
0
  6
Continuous
 62
     7
370
    25
100
AcDbSpline
210
0.0
220
0.0
230
1.0
 70
    24
 71
     3
 72
    13
 73
     9
 74
     0
 42
0.000000001
 43
0.00000001
 40
0.0
 40
0.0
 40
0.0
 40
0.0
 40
0.1279017442385771
 40
0.2567068269369737
 40
0.4412878285590616
 40
0.6264452935272624
 40
0.8130423245474793
 40
1.0
 40
1.0
 40
1.0
 40
1.0
 10
48.48781462751985
 20
67.3105421965318
 30
0.0
 10
48.49185197074907
 20
67.3105421965318
 30
0.0
 10
48.4999551719665
 20
67.3105421965318
 30
0.0
 10
48.57506735178524
 20
67.31054219653183
 30
0.0
 10
48.71999374287486
 20
67.31054219653183
 30
0.0
 10
48.96127470852741
 20
67.31054219653184
 30
0.0
 10
49.2682446002046
 20
67.31054219653187
 30
0.0
 10
49.52185262447404
 20
67.31054219653187
 30
0.0
 10
49.64877905819835
 20
67.31054219653187
 30
0.0
  0
SPLINE
  5
DB
330
1F
100
AcDbEntity
  8
0
  6
Continuous
 62
     7
370
    25
100
AcDbSpline
210
0.0
220
0.0
230
1.0
 70
    24
 71
     3
 72
    14
 73
    10
 74
     0
 42
0.000000001
 43
0.00000001
 40
0.0
 40
0.0
 40
0.0
 40
0.0
 40
0.1848398049226502
 40
0.3699950929968728
 40
0.5563763382735154
 40
0.7433110284131608
 40
0.8679877415863468
 40
0.9926628595248648
 40
1.0
 40
1.0
 40
1.0
 40
1.0
 10
49.64877905819835
 20
93.31054219653183
 30
0.0
 10
49.52325493394449
 20
93.31054219653183
 30
0.0
 10
49.27199244183089
 20
93.31054219653183
 30
0.0
 10
48.96513411538042
 20
93.31054219653181
 30
0.0
 10
48.72250975247425
 20
93.31054219653181
 30
0.0
 10
48.57473242615003
 20
93.31054219653181
 30
0.0
 10
48.50632644832208
 20
93.31054219653181
 30
0.0
 10
48.48176362924835
 20
93.31054219653178
 30
0.0
 10
48.48841536363987
 20
93.3105421965318
 30
0.0
 10
48.48878506195593
 20
93.3105421965318
 30
0.0
  0
SPLINE
  5
DC
330
1F
100
AcDbEntity
  8
0
  6
Continuous
 62
     7
370
    25
100
AcDbSpline
210
0.0
220
0.0
230
1.0
 70
     8
 71
     3
 72
    16
 73
    12
 74
     0
 42
0.000000001
 43
0.00000001
 40
0.0
 40
0.0
 40
0.0
 40
0.0
 40
0.2499999999999999
 40
0.2499999999999999
 40
0.4999999999999999
 40
0.4999999999999999
 40
0.6249999999999999
 40
0.6249999999999999
 40
0.75
 40
0.75
 40
1.0
 40
1.0
 40
1.0
 40
1.0
 10
49.64877905819809
 20
80.31054219653177
 30
0.0
 10
49.29500345641281
 20
81.37186900188759
 30
0.0
 10
49.00342832272523
 20
82.44093360229311
 30
0.0
 10
48.59950212960972
 20
84.60135844165812
 30
0.0
 10
48.48848344756898
 20
85.69288442958167
 30
0.0
 10
48.48726396578174
 20
87.35073794500609
 30
0.0
 10
48.51440369282422
 20
87.90595662143086
 30
0.0
 10
48.6202344533149
 20
89.00423762306993
 30
0.0
 10
48.69881806978675
 20
89.54969599844276
 30
0.0
 10
49.00226560506217
 20
91.17635999024486
 30
0.0
 10
49.29456242993524
 20
92.24789231174289
 30
0.0
 10
49.64877905819823
 20
93.31054219653184
 30
0.0
  0
SPLINE
  5
DD
330
1F
100
AcDbEntity
  8
0
  6
Continuous
 62
     7
370
    25
100
AcDbSpline
210
0.0
220
0.0
230
1.0
 70
     8
 71
     3
 72
    16
 73
    12
 74
     0
 42
0.000000001
 43
0.00000001
 40
0.0
 40
0.0
 40
0.0
 40
0.0
 40
0.2500000000000001
 40
0.2500000000000001
 40
0.5000000000000001
 40
0.5000000000000001
 40
0.625
 40
0.625
 40
0.7499999999999999
 40
0.7499999999999999
 40
1.0
 40
1.0
 40
1.0
 40
1.0
 10
49.64877905819809
 20
67.31054219653184
 30
0.0
 10
49.29500345641283
 20
68.37186900188766
 30
0.0
 10
49.00342832272525
 20
69.44093360229317
 30
0.0
 10
48.59950212960974
 20
71.60135844165816
 30
0.0
 10
48.48848344756901
 20
72.6928844295817
 30
0.0
 10
48.48726396578177
 20
74.3507379450061
 30
0.0
 10
48.51440369282426
 20
74.90595662143087
 30
0.0
 10
48.62023445331493
 20
76.00423762306993
 30
0.0
 10
48.69881806978677
 20
76.54969599844276
 30
0.0
 10
49.00226560506218
 20
78.17635999024485
 30
0.0
 10
49.29456242993524
 20
79.24789231174289
 30
0.0
 10
49.64877905819823
 20
80.31054219653183
 30
0.0
  0
LINE
  5
DE
330
1F
100
AcDbEntity
  8
0
  6
Continuous
 62
     7
370
    25
100
AcDbLine
 10
48.3433283237
 20
67.5605421965
 30
0.0
 11
48.3433283237
 21
93.0605421965
 31
0.0
  0
SPLINE
  5
DF
330
1F
100
AcDbEntity
  8
0
  6
Continuous
 62
     7
370
    25
100
AcDbSpline
210
0.0
220
0.0
230
1.0
 70
     8
 71
     3
 72
    16
 73
    12
 74
     0
 42
0.000000001
 43
0.00000001
 40
0.0
 40
0.0
 40
0.0
 40
0.0
 40
0.2500000000000001
 40
0.2500000000000001
 40
0.5000000000000001
 40
0.5000000000000001
 40
0.6250000000000001
 40
0.6250000000000001
 40
0.7500000000000002
 40
0.7500000000000002
 40
1.0
 40
1.0
 40
1.0
 40
1.0
 10
85.03787758920076
 20
80.31054219653184
 30
0.0
 10
85.39165319098602
 20
79.24921539117604
 30
0.0
 10
85.68322832467359
 20
78.18015079077051
 30
0.0
 10
86.0871545177891
 20
76.01972595140552
 30
0.0
 10
86.19817319982982
 20
74.92819996348199
 30
0.0
 10
86.19939268161708
 20
73.27034644805758
 30
0.0
 10
86.17225295457459
 20
72.71512777163281
 30
0.0
 10
86.06642219408391
 20
71.61684676999376
 30
0.0
 10
85.98783857761208
 20
71.07138839462093
 30
0.0
 10
85.68439104233666
 20
69.44472440281885
 30
0.0
 10
85.39209421746361
 20
68.3731920813208
 30
0.0
 10
85.03787758920062
 20
67.31054219653186
 30
0.0
  0
SPLINE
  5
E0
330
1F
100
AcDbEntity
  8
0
  6
Continuous
 62
     7
370
    25
100
AcDbSpline
210
0.0
220
0.0
230
1.0
 70
     8
 71
     3
 72
    16
 73
    12
 74
     0
 42
0.000000001
 43
0.00000001
 40
0.0
 40
0.0
 40
0.0
 40
0.0
 40
0.2499999999999999
 40
0.2499999999999999
 40
0.4999999999999999
 40
0.4999999999999999
 40
0.625
 40
0.625
 40
0.75
 40
0.75
 40
1.0
 40
1.0
 40
1.0
 40
1.0
 10
85.03787758920076
 20
93.31054219653186
 30
0.0
 10
85.39165319098603
 20
92.24921539117605
 30
0.0
 10
85.6832283246736
 20
91.18015079077053
 30
0.0
 10
86.08715451778913
 20
89.01972595140552
 30
0.0
 10
86.19817319982987
 20
87.92819996348197
 30
0.0
 10
86.19939268161711
 20
86.27034644805755
 30
0.0
 10
86.17225295457462
 20
85.71512777163278
 30
0.0
 10
86.06642219408394
 20
84.6168467699937
 30
0.0
 10
85.98783857761211
 20
84.07138839462087
 30
0.0
 10
85.68439104233667
 20
82.44472440281878
 30
0.0
 10
85.39209421746361
 20
81.37319208132074
 30
0.0
 10
85.03787758920062
 20
80.31054219653178
 30
0.0
  0
SPLINE
  5
E1
330
1F
100
AcDbEntity
  8
0
  6
Continuous
 62
     7
370
    25
100
AcDbSpline
210
0.0
220
0.0
230
1.0
 70
    24
 71
     3
 72
    13
 73
     9
 74
     0
 42
0.000000001
 43
0.00000001
 40
0.0
 40
0.0
 40
0.0
 40
0.0
 40
0.1052252545334576
 40
0.2347643581536157
 40
0.4246967263960406
 40
0.6152682484871055
 40
0.8074350475904295
 40
1.0
 40
1.0
 40
1.0
 40
1.0
 10
86.19568621885682
 20
93.3105421965318
 30
0.0
 10
86.19423027847598
 20
93.3105421965318
 30
0.0
 10
86.1909819811872
 20
93.31054219653181
 30
0.0
 10
86.12537622716492
 20
93.3105421965318
 30
0.0
 10
85.98540618584403
 20
93.31054219653181
 30
0.0
 10
85.74243763308331
 20
93.31054219653181
 30
0.0
 10
85.42937127443473
 20
93.31054219653181
 30
0.0
 10
85.1684654868163
 20
93.31054219653183
 30
0.0
 10
85.03787758920048
 20
93.31054219653183
 30
0.0
  0
SPLINE
  5
E2
330
1F
100
AcDbEntity
  8
0
  6
Continuous
 62
     7
370
    25
100
AcDbSpline
210
0.0
220
0.0
230
1.0
 70
    24
 71
     3
 72
    13
 73
     9
 74
     0
 42
0.000000001
 43
0.00000001
 40
0.0
 40
0.0
 40
0.0
 40
0.0
 40
0.1902173900613808
 40
0.3807812991679295
 40
0.572700062960698
 40
0.7652337850484093
 40
0.8906206582653813
 40
1.0
 40
1.0
 40
1.0
 40
1.0
 10
85.03787758920048
 20
67.31054219653188
 30
0.0
 10
85.16693153642076
 20
67.31054219653187
 30
0.0
 10
85.42527452845437
 20
67.31054219653187
 30
0.0
 10
85.73806524711084
 20
67.31054219653186
 30
0.0
 10
85.98333024294335
 20
67.31054219653183
 30
0.0
 10
86.12399504177736
 20
67.31054219653181
 30
0.0
 10
86.19015714941087
 20
67.3105421965318
 30
0.0
 10
86.19464132253789
 20
67.3105421965318
 30
0.0
 10
86.19673053245661
 20
67.3105421965318
 30
0.0
  0
LINE
  5
E3
330
1F
100
AcDbEntity
  8
0
  6
Continuous
 62
     7
370
    25
100
AcDbLine
 10
86.3433283237
 20
93.0605421965
 30
0.0
 11
86.3433283237
 21
67.5605421965
 31
0.0
  0
LINE
  5
E4
330
1F
100
AcDbEntity
  8
0
  6
Continuous
 62
     7
370
    25
100
AcDbLine
 10
49.6487790582
 20
93.3105421965
 30
0.0
 11
66.7666526715
 21
93.3105421965
 31
0.0
  0
SPLINE
  5
E5
330
1F
100
AcDbEntity
  8
0
  6
Continuous
 62
     7
370
    25
100
AcDbSpline
210
0.0
220
0.0
230
1.0
 70
     8
 71
     3
 72
    10
 73
     6
 74
     0
 42
0.000000001
 43
0.00000001
 40
0.0
 40
0.0
 40
0.0
 40
0.0
 40
0.5
 40
0.5
 40
1.0
 40
1.0
 40
1.0
 40
1.0
 10
67.34332832369942
 20
86.81054219653183
 30
0.0
 10
67.34332832369942
 20
87.89387552986516
 30
0.0
 10
67.29060024499049
 20
88.97720886319848
 30
0.0
 10
67.09163087164453
 20
91.14387552986517
 30
0.0
 10
66.94600124095054
 20
92.22720886319848
 30
0.0
 10
66.76665267148908
 20
93.31054219653183
 30
0.0
  0
SPLINE
  5
E6
330
1F
100
AcDbEntity
  8
0
  6
Continuous
 62
     7
370
    25
100
AcDbSpline
210
0.0
220
0.0
230
1.0
 70
     8
 71
     3
 72
    10
 73
     6
 74
     0
 42
0.000000001
 43
0.00000001
 40
0.0
 40
0.0
 40
0.0
 40
0.0
 40
0.5
 40
0.5
 40
1.0
 40
1.0
 40
1.0
 40
1.0
 10
66.76665267148908
 20
80.3105421965318
 30
0.0
 10
66.94600124095054
 20
81.39387552986514
 30
0.0
 10
67.09163087164453
 20
82.47720886319848
 30
0.0
 10
67.29060024499049
 20
84.64387552986514
 30
0.0
 10
67.34332832369942
 20
85.72720886319848
 30
0.0
 10
67.34332832369942
 20
86.81054219653183
 30
0.0
  0
LINE
  5
E7
330
1F
100
AcDbEntity
  8
0
  6
Continuous
 62
     7
370
    25
100
AcDbLine
 10
49.6487790582
 20
80.3105421965
 30
0.0
 11
66.7666526715
 21
80.3105421965
 31
0.0
  0
LINE
  5
E8
330
1F
100
AcDbEntity
  8
0
  6
Continuous
 62
     7
370
    25
100
AcDbLine
 10
67.9200039759
 20
80.3105421965
 30
0.0
 11
81.7093537275
 21
80.3105421965
 31
0.0
  0
SPLINE
  5
E9
330
1F
100
AcDbEntity
  8
0
  6
Continuous
 62
     7
370
    25
100
AcDbSpline
210
0.0
220
0.0
230
1.0
 70
     8
 71
     3
 72
    10
 73
     6
 74
     0
 42
0.000000001
 43
0.00000001
 40
0.0
 40
0.0
 40
0.0
 40
0.0
 40
0.5
 40
0.5
 40
1.0
 40
1.0
 40
1.0
 40
1.0
 10
67.92000397590976
 20
80.3105421965318
 30
0.0
 10
67.7406554064483
 20
81.39387552986514
 30
0.0
 10
67.59502577575432
 20
82.47720886319848
 30
0.0
 10
67.39605640240835
 20
84.64387552986514
 30
0.0
 10
67.34332832369942
 20
85.72720886319848
 30
0.0
 10
67.34332832369942
 20
86.81054219653183
 30
0.0
  0
SPLINE
  5
EA
330
1F
100
AcDbEntity
  8
0
  6
Continuous
 62
     7
370
    25
100
AcDbSpline
210
0.0
220
0.0
230
1.0
 70
     8
 71
     3
 72
    10
 73
     6
 74
     0
 42
0.000000001
 43
0.00000001
 40
0.0
 40
0.0
 40
0.0
 40
0.0
 40
0.5
 40
0.5
 40
1.0
 40
1.0
 40
1.0
 40
1.0
 10
67.34332832369942
 20
86.81054219653183
 30
0.0
 10
67.34332832369942
 20
87.89387552986516
 30
0.0
 10
67.39605640240835
 20
88.97720886319848
 30
0.0
 10
67.59502577575432
 20
91.14387552986517
 30
0.0
 10
67.7406554064483
 20
92.22720886319848
 30
0.0
 10
67.92000397590976
 20
93.31054219653183
 30
0.0
  0
LINE
  5
EB
330
1F
100
AcDbEntity
  8
0
  6
Continuous
 62
     7
370
    25
100
AcDbLine
 10
67.9200039759
 20
93.3105421965
 30
0.0
 11
81.7093537275
 21
93.3105421965
 31
0.0
  0
SPLINE
  5
EC
330
1F
100
AcDbEntity
  8
0
  6
Continuous
 62
     7
370
    25
100
AcDbSpline
210
0.0
220
0.0
230
1.0
 70
     8
 71
     3
 72
     8
 73
     4
 74
     0
 42
0.000000001
 43
0.00000001
 40
0.0
 40
0.0
 40
0.0
 40
0.0
 40
1.0
 40
1.0
 40
1.0
 40
1.0
 10
81.84332832369942
 20
92.39437329630573
 30
0.0
 10
81.80129246109395
 20
92.70014482605376
 30
0.0
 10
81.75654069659554
 20
93.0055208332836
 30
0.0
 10
81.70935372748386
 20
93.31054219653183
 30
0.0
  0
SPLINE
  5
ED
330
1F
100
AcDbEntity
  8
0
  6
Continuous
 62
     7
370
    25
100
AcDbSpline
210
0.0
220
0.0
230
1.0
 70
     8
 71
     3
 72
     8
 73
     4
 74
     0
 42
0.000000001
 43
0.00000001
 40
0.0
 40
0.0
 40
0.0
 40
0.0
 40
1.0
 40
1.0
 40
1.0
 40
1.0
 10
81.97730291991498
 20
93.31054219653183
 30
0.0
 10
81.93009279010145
 20
93.00537112015336
 30
0.0
 10
81.88534281187385
 20
92.69998934708727
 30
0.0
 10
81.84332832369942
 20
92.39437329630574
 30
0.0
  0
LINE
  5
EE
330
1F
100
AcDbEntity
  8
0
  6
Continuous
 62
     7
370
    25
100
AcDbLine
 10
81.9773029199
 20
93.3105421965
 30
0.0
 11
85.0378775892
 21
93.3105421965
 31
0.0
  0
LINE
  5
EF
330
1F
100
AcDbEntity
  8
0
  6
Continuous
 62
     7
370
    25
100
AcDbLine
 10
81.9773029199
 20
80.3105421965
 30
0.0
 11
85.0378775892
 21
80.3105421965
 31
0.0
  0
SPLINE
  5
F0
330
1F
100
AcDbEntity
  8
0
  6
Continuous
 62
     7
370
    25
100
AcDbSpline
210
0.0
220
0.0
230
1.0
 70
     8
 71
     3
 72
     8
 73
     4
 74
     0
 42
0.000000001
 43
0.00000001
 40
0.0
 40
0.0
 40
0.0
 40
0.0
 40
1.0
 40
1.0
 40
1.0
 40
1.0
 10
81.84332832369942
 20
81.22671109675788
 30
0.0
 10
81.8853641863049
 20
80.92093956700987
 30
0.0
 10
81.93011595080331
 20
80.61556355978003
 30
0.0
 10
81.97730291991498
 20
80.3105421965318
 30
0.0
  0
SPLINE
  5
F1
330
1F
100
AcDbEntity
  8
0
  6
Continuous
 62
     7
370
    25
100
AcDbSpline
210
0.0
220
0.0
230
1.0
 70
     8
 71
     3
 72
     8
 73
     4
 74
     0
 42
0.000000001
 43
0.00000001
 40
0.0
 40
0.0
 40
0.0
 40
0.0
 40
1.0
 40
1.0
 40
1.0
 40
1.0
 10
81.70935372748386
 20
80.3105421965318
 30
0.0
 10
81.7565638572974
 20
80.61571327291027
 30
0.0
 10
81.80131383552498
 20
80.92109504597636
 30
0.0
 10
81.84332832369942
 20
81.22671109675788
 30
0.0
  0
SPLINE
  5
F2
330
1F
100
AcDbEntity
  8
0
  6
Continuous
 62
     7
370
    25
100
AcDbSpline
210
0.0
220
0.0
230
1.0
 70
     8
 71
     3
 72
    10
 73
     6
 74
     0
 42
0.000000001
 43
0.00000001
 40
0.0
 40
0.0
 40
0.0
 40
0.0
 40
0.4999999999999999
 40
0.4999999999999999
 40
1.0
 40
1.0
 40
1.0
 40
1.0
 10
67.34332832369941
 20
73.81054219653184
 30
0.0
 10
67.34332832369941
 20
74.89387552986517
 30
0.0
 10
67.29060024499047
 20
75.9772088631985
 30
0.0
 10
67.09163087164453
 20
78.14387552986516
 30
0.0
 10
66.94600124095052
 20
79.22720886319848
 30
0.0
 10
66.76665267148908
 20
80.3105421965318
 30
0.0
  0
LINE
  5
F3
330
1F
100
AcDbEntity
  8
0
  6
Continuous
 62
     7
370
    25
100
AcDbLine
 10
67.3433283237
 20
73.8105421965
 30
0.0
 11
67.3433283237
 21
86.8105421965
 31
0.0
  0
SPLINE
  5
F4
330
1F
100
AcDbEntity
  8
0
  6
Continuous
 62
     7
370
    25
100
AcDbSpline
210
0.0
220
0.0
230
1.0
 70
     8
 71
     3
 72
    10
 73
     6
 74
     0
 42
0.000000001
 43
0.00000001
 40
0.0
 40
0.0
 40
0.0
 40
0.0
 40
0.4999999999999999
 40
0.4999999999999999
 40
1.0
 40
1.0
 40
1.0
 40
1.0
 10
67.34332832369944
 20
73.81054219653184
 30
0.0
 10
67.34332832369944
 20
74.89387552986517
 30
0.0
 10
67.39605640240836
 20
75.9772088631985
 30
0.0
 10
67.59502577575432
 20
78.14387552986516
 30
0.0
 10
67.74065540644831
 20
79.22720886319848
 30
0.0
 10
67.92000397590976
 20
80.3105421965318
 30
0.0
  0
SPLINE
  5
F5
330
1F
100
AcDbEntity
  8
0
  6
Continuous
 62
     7
370
    25
100
AcDbSpline
210
0.0
220
0.0
230
1.0
 70
     8
 71
     3
 72
     8
 73
     4
 74
     0
 42
0.000000001
 43
0.00000001
 40
0.0
 40
0.0
 40
0.0
 40
0.0
 40
1.0
 40
1.0
 40
1.0
 40
1.0
 10
81.97730291991498
 20
80.3105421965318
 30
0.0
 10
81.93009279010145
 20
80.00537112015333
 30
0.0
 10
81.88534281187385
 20
79.69998934708724
 30
0.0
 10
81.84332832369942
 20
79.3943732963057
 30
0.0
  0
LINE
  5
F6
330
1F
100
AcDbEntity
  8
0
  6
Continuous
 62
     7
370
    25
100
AcDbLine
 10
81.8433283237
 20
79.3943732963
 30
0.0
 11
81.8433283237
 21
81.2267110968
 31
0.0
  0
SPLINE
  5
F7
330
1F
100
AcDbEntity
  8
0
  6
Continuous
 62
     7
370
    25
100
AcDbSpline
210
0.0
220
0.0
230
1.0
 70
     8
 71
     3
 72
     8
 73
     4
 74
     0
 42
0.000000001
 43
0.00000001
 40
0.0
 40
0.0
 40
0.0
 40
0.0
 40
1.0
 40
1.0
 40
1.0
 40
1.0
 10
81.84332832369942
 20
79.39437329630569
 30
0.0
 10
81.80129246109395
 20
79.70014482605374
 30
0.0
 10
81.75654069659554
 20
80.00552083328358
 30
0.0
 10
81.70935372748386
 20
80.3105421965318
 30
0.0
  0
SPLINE
  5
F8
330
1F
100
AcDbEntity
  8
0
  6
Continuous
 62
     7
370
    25
100
AcDbSpline
210
0.0
220
0.0
230
1.0
 70
     8
 71
     3
 72
    10
 73
     6
 74
     0
 42
0.000000001
 43
0.00000001
 40
0.0
 40
0.0
 40
0.0
 40
0.0
 40
0.5
 40
0.5
 40
1.0
 40
1.0
 40
1.0
 40
1.0
 10
66.76665267148908
 20
67.31054219653188
 30
0.0
 10
66.94600124095052
 20
68.39387552986521
 30
0.0
 10
67.09163087164453
 20
69.47720886319854
 30
0.0
 10
67.29060024499047
 20
71.64387552986518
 30
0.0
 10
67.34332832369941
 20
72.72720886319851
 30
0.0
 10
67.34332832369941
 20
73.81054219653184
 30
0.0
  0
LINE
  5
F9
330
1F
100
AcDbEntity
  8
0
  6
Continuous
 62
     7
370
    25
100
AcDbLine
 10
49.6487790582
 20
67.3105421965
 30
0.0
 11
66.7666526715
 21
67.3105421965
 31
0.0
  0
LINE
  5
FA
330
1F
100
AcDbEntity
  8
0
  6
Continuous
 62
     7
370
    25
100
AcDbLine
 10
67.9200039759
 20
67.3105421965
 30
0.0
 11
81.7093537275
 21
67.3105421965
 31
0.0
  0
SPLINE
  5
FB
330
1F
100
AcDbEntity
  8
0
  6
Continuous
 62
     7
370
    25
100
AcDbSpline
210
0.0
220
0.0
230
1.0
 70
     8
 71
     3
 72
    10
 73
     6
 74
     0
 42
0.000000001
 43
0.00000001
 40
0.0
 40
0.0
 40
0.0
 40
0.0
 40
0.5
 40
0.5
 40
1.0
 40
1.0
 40
1.0
 40
1.0
 10
67.92000397590976
 20
67.31054219653188
 30
0.0
 10
67.74065540644831
 20
68.39387552986521
 30
0.0
 10
67.59502577575432
 20
69.47720886319854
 30
0.0
 10
67.39605640240836
 20
71.64387552986518
 30
0.0
 10
67.34332832369944
 20
72.72720886319851
 30
0.0
 10
67.34332832369944
 20
73.81054219653184
 30
0.0
  0
LINE
  5
FC
330
1F
100
AcDbEntity
  8
0
  6
Continuous
 62
     7
370
    25
100
AcDbLine
 10
81.9773029199
 20
67.3105421965
 30
0.0
 11
85.0378775892
 21
67.3105421965
 31
0.0
  0
SPLINE
  5
FD
330
1F
100
AcDbEntity
  8
0
  6
Continuous
 62
     7
370
    25
100
AcDbSpline
210
0.0
220
0.0
230
1.0
 70
     8
 71
     3
 72
     8
 73
     4
 74
     0
 42
0.000000001
 43
0.00000001
 40
0.0
 40
0.0
 40
0.0
 40
0.0
 40
1.0
 40
1.0
 40
1.0
 40
1.0
 10
81.84332832369942
 20
68.22671109675798
 30
0.0
 10
81.8853641863049
 20
67.92093956700995
 30
0.0
 10
81.93011595080331
 20
67.61556355978011
 30
0.0
 10
81.97730291991498
 20
67.31054219653188
 30
0.0
  0
SPLINE
  5
FE
330
1F
100
AcDbEntity
  8
0
  6
Continuous
 62
     7
370
    25
100
AcDbSpline
210
0.0
220
0.0
230
1.0
 70
     8
 71
     3
 72
     8
 73
     4
 74
     0
 42
0.000000001
 43
0.00000001
 40
0.0
 40
0.0
 40
0.0
 40
0.0
 40
1.0
 40
1.0
 40
1.0
 40
1.0
 10
81.70935372748386
 20
67.31054219653187
 30
0.0
 10
81.7565638572974
 20
67.61571327291036
 30
0.0
 10
81.80131383552498
 20
67.92109504597644
 30
0.0
 10
81.84332832369942
 20
68.22671109675798
 30
0.0
  0
SPLINE
  5
FF
330
1F
100
AcDbEntity
  8
0
  6
Continuous
 62
     7
370
    25
100
AcDbSpline
210
0.0
220
0.0
230
1.0
 70
    24
 71
     3
 72
    10
 73
     6
 74
     0
 42
0.000000001
 43
0.00000001
 40
0.0
 40
0.0
 40
0.0
 40
0.0
 40
0.5
 40
0.5
 40
1.0
 40
1.0
 40
1.0
 40
1.0
 10
67.34332832369942
 20
67.3105421965318
 30
0.0
 10
67.34332832369942
 20
67.31054219653181
 30
0.0
 10
67.39629761799664
 20
67.31054219653183
 30
0.0
 10
67.5954564219303
 20
67.31054219653186
 30
0.0
 10
67.74102479257036
 20
67.31054219653187
 30
0.0
 10
67.92000397590992
 20
67.31054219653188
 30
0.0
  0
LINE
  5
100
330
1F
100
AcDbEntity
  8
0
  6
Continuous
 62
     7
370
    25
100
AcDbLine
 10
67.3433283237
 20
67.3105421965
 30
0.0
 11
67.3433283237
 21
73.8105421965
 31
0.0
  0
SPLINE
  5
101
330
1F
100
AcDbEntity
  8
0
  6
Continuous
 62
     7
370
    25
100
AcDbSpline
210
0.0
220
0.0
230
1.0
 70
    24
 71
     3
 72
    10
 73
     6
 74
     0
 42
0.000000001
 43
0.00000001
 40
0.0
 40
0.0
 40
0.0
 40
0.0
 40
0.5
 40
0.5
 40
1.0
 40
1.0
 40
1.0
 40
1.0
 10
67.34332832369942
 20
67.3105421965318
 30
0.0
 10
67.34332832369942
 20
67.31054219653181
 30
0.0
 10
67.29035902940221
 20
67.31054219653183
 30
0.0
 10
67.09120022546855
 20
67.31054219653186
 30
0.0
 10
66.94563185482849
 20
67.31054219653187
 30
0.0
 10
66.76665267148893
 20
67.31054219653188
 30
0.0
  0
LINE
  5
102
330
1F
100
AcDbEntity
  8
0
  6
Continuous
 62
     7
370
    25
100
AcDbLine
 10
67.3433283237
 20
86.8105421965
 30
0.0
 11
67.3433283237
 21
93.3105421965
 31
0.0
  0
SPLINE
  5
103
330
1F
100
AcDbEntity
  8
0
  6
Continuous
 62
     7
370
    25
100
AcDbSpline
210
0.0
220
0.0
230
1.0
 70
    24
 71
     3
 72
    10
 73
     6
 74
     0
 42
0.000000001
 43
0.00000001
 40
0.0
 40
0.0
 40
0.0
 40
0.0
 40
0.5
 40
0.5
 40
1.0
 40
1.0
 40
1.0
 40
1.0
 10
67.34332832369942
 20
93.3105421965318
 30
0.0
 10
67.34332832369942
 20
93.3105421965318
 30
0.0
 10
67.39629761799664
 20
93.31054219653181
 30
0.0
 10
67.5954564219303
 20
93.31054219653181
 30
0.0
 10
67.74102479257036
 20
93.31054219653183
 30
0.0
 10
67.92000397590992
 20
93.31054219653183
 30
0.0
  0
SPLINE
  5
104
330
1F
100
AcDbEntity
  8
0
  6
Continuous
 62
     7
370
    25
100
AcDbSpline
210
0.0
220
0.0
230
1.0
 70
    24
 71
     3
 72
    10
 73
     6
 74
     0
 42
0.000000001
 43
0.00000001
 40
0.0
 40
0.0
 40
0.0
 40
0.0
 40
0.5
 40
0.5
 40
1.0
 40
1.0
 40
1.0
 40
1.0
 10
67.34332832369942
 20
93.3105421965318
 30
0.0
 10
67.34332832369942
 20
93.3105421965318
 30
0.0
 10
67.29035902940221
 20
93.31054219653181
 30
0.0
 10
67.09120022546855
 20
93.31054219653181
 30
0.0
 10
66.94563185482849
 20
93.31054219653183
 30
0.0
 10
66.76665267148893
 20
93.31054219653183
 30
0.0
  0
SPLINE
  5
105
330
1F
100
AcDbEntity
  8
0
  6
Continuous
 62
     7
370
    25
100
AcDbSpline
210
0.0
220
0.0
230
1.0
 70
    24
 71
     3
 72
     8
 73
     4
 74
     0
 42
0.000000001
 43
0.00000001
 40
0.0
 40
0.0
 40
0.0
 40
0.0
 40
1.0
 40
1.0
 40
1.0
 40
1.0
 10
81.84332832369942
 20
67.31054219653187
 30
0.0
 10
81.80129356132863
 20
67.31054219653187
 30
0.0
 10
81.75654188764778
 20
67.31054219653187
 30
0.0
 10
81.70935372748386
 20
67.31054219653188
 30
0.0
  0
LINE
  5
106
330
1F
100
AcDbEntity
  8
0
  6
Continuous
 62
     7
370
    25
100
AcDbLine
 10
81.8433283237
 20
67.3105421965
 30
0.0
 11
81.8433283237
 21
68.2267110968
 31
0.0
  0
SPLINE
  5
107
330
1F
100
AcDbEntity
  8
0
  6
Continuous
 62
     7
370
    25
100
AcDbSpline
210
0.0
220
0.0
230
1.0
 70
    24
 71
     3
 72
     8
 73
     4
 74
     0
 42
0.000000001
 43
0.00000001
 40
0.0
 40
0.0
 40
0.0
 40
0.0
 40
1.0
 40
1.0
 40
1.0
 40
1.0
 10
81.97730291991498
 20
67.31054219653188
 30
0.0
 10
81.93008939203632
 20
67.31054219653187
 30
0.0
 10
81.88533967947606
 20
67.31054219653187
 30
0.0
 10
81.84332832369942
 20
67.31054219653187
 30
0.0
  0
SPLINE
  5
108
330
1F
100
AcDbEntity
  8
0
  6
Continuous
 62
     7
370
    25
100
AcDbSpline
210
0.0
220
0.0
230
1.0
 70
    24
 71
     3
 72
     8
 73
     4
 74
     0
 42
0.000000001
 43
0.00000001
 40
0.0
 40
0.0
 40
0.0
 40
0.0
 40
1.0
 40
1.0
 40
1.0
 40
1.0
 10
81.70935372748386
 20
93.31054219653183
 30
0.0
 10
81.75656725536254
 20
93.31054219653183
 30
0.0
 10
81.80131696792279
 20
93.31054219653183
 30
0.0
 10
81.84332832369942
 20
93.31054219653183
 30
0.0
  0
LINE
  5
109
330
1F
100
AcDbEntity
  8
0
  6
Continuous
 62
     7
370
    25
100
AcDbLine
 10
81.8433283237
 20
92.3943732963
 30
0.0
 11
81.8433283237
 21
93.3105421965
 31
0.0
  0
SPLINE
  5
10A
330
1F
100
AcDbEntity
  8
0
  6
Continuous
 62
     7
370
    25
100
AcDbSpline
210
0.0
220
0.0
230
1.0
 70
    24
 71
     3
 72
     8
 73
     4
 74
     0
 42
0.000000001
 43
0.00000001
 40
0.0
 40
0.0
 40
0.0
 40
0.0
 40
1.0
 40
1.0
 40
1.0
 40
1.0
 10
81.84332832369942
 20
93.31054219653183
 30
0.0
 10
81.88536308607021
 20
93.31054219653183
 30
0.0
 10
81.93011475975105
 20
93.31054219653183
 30
0.0
 10
81.97730291991498
 20
93.31054219653183
 30
0.0
  0
LINE
  5
10B
330
1F
100
AcDbEntity
  8
0
  6
CENTERX2
 62
     7
370
    18
100
AcDbLine
 10
50.6487790582
 20
80.3105421965
 30
0.0
 11
47.3433283237
 21
80.3105421965
 31
0.0
  0
LINE
  5
10C
330
1F
100
AcDbEntity
  8
0
  6
CENTERX2
 62
     7
370
    18
100
AcDbLine
 10
84.0378775892
 20
80.3105421965
 30
0.0
 11
87.3433283237
 21
80.3105421965
 31
0.0
  0
ENDSEC
  0
SECTION
  2
OBJECTS
  0
DICTIONARY
  5
C
330
0
100
AcDbDictionary
281
     1
  3
ACAD_GROUP
350
D
  3
ACAD_LAYOUT
350
1A
  3
ACAD_MLINESTYLE
350
17
  3
ACAD_PLOTSETTINGS
350
19
  3
ACAD_PLOTSTYLENAME
350
E
  3
ACAD_SCALELIST
350
47
  0
DICTIONARY
  5
D
102
{ACAD_REACTORS
330
C
102
}
330
C
100
AcDbDictionary
281
     1
  0
DICTIONARY
  5
1A
102
{ACAD_REACTORS
330
C
102
}
330
C
100
AcDbDictionary
281
     1
  3
Layout1
350
1E
  3
Layout2
350
26
  3
Model
350
22
  0
DICTIONARY
  5
17
102
{ACAD_REACTORS
330
C
102
}
330
C
100
AcDbDictionary
281
     1
  3
Standard
350
18
  0
DICTIONARY
  5
19
102
{ACAD_REACTORS
330
C
102
}
330
C
100
AcDbDictionary
281
     1
  0
ACDBDICTIONARYWDFLT
  5
E
102
{ACAD_REACTORS
330
C
102
}
330
C
100
AcDbDictionary
281
     1
  3
Normal
350
F
100
AcDbDictionaryWithDefault
340
F
  0
DICTIONARY
  5
47
102
{ACAD_REACTORS
330
C
102
}
330
C
100
AcDbDictionary
281
     1
  3
A0
350
48
  3
A1
350
49
  3
A2
350
4A
  3
A3
350
4B
  3
A4
350
4C
  3
A5
350
4D
  3
A6
350
4E
  3
A7
350
4F
  3
A8
350
50
  3
A9
350
51
  3
B0
350
52
  3
B1
350
53
  3
B2
350
54
  3
B3
350
55
  3
B4
350
56
  3
B5
350
57
  3
B6
350
58
  3
B7
350
59
  3
B8
350
5A
  3
B9
350
5B
  3
C0
350
5C
  3
C1
350
5D
  3
C2
350
5E
  3
C3
350
5F
  3
C4
350
60
  3
C5
350
61
  3
C6
350
62
  3
C7
350
63
  3
C8
350
64
  3
C9
350
65
  3
D0
350
66
  3
D1
350
67
  3
D2
350
68
  0
LAYOUT
  5
1E
102
{ACAD_REACTORS
330
1A
102
}
330
1A
100
AcDbPlotSettings
  1

  2
none_device
  4

  6

 40
0.0
 41
0.0
 42
0.0
 43
0.0
 44
0.0
 45
0.0
 46
0.0
 47
0.0
 48
0.0
 49
0.0
140
0.0
141
0.0
142
1.0
143
1.0
 70
   688
 72
     1
 73
     0
 74
     5
  7

 75
    16
147
1.0
148
0.0
149
0.0
100
AcDbLayout
  1
Layout1
 70
     1
 71
     1
 10
0.0
 20
0.0
 11
420.0
 21
297.0
 12
0.0
 22
0.0
 32
0.0
 14
1.0000000000E+20
 24
1.0000000000E+20
 34
1.0000000000E+20
 15
-1.0000000000E+20
 25
-1.0000000000E+20
 35
-1.0000000000E+20
146
0.0
 13
0.0
 23
0.0
 33
0.0
 16
1.0
 26
0.0
 36
0.0
 17
0.0
 27
1.0
 37
0.0
 76
     0
330
1B
  0
LAYOUT
  5
26
102
{ACAD_REACTORS
330
1A
102
}
330
1A
100
AcDbPlotSettings
  1

  2
none_device
  4

  6

 40
0.0
 41
0.0
 42
0.0
 43
0.0
 44
0.0
 45
0.0
 46
0.0
 47
0.0
 48
0.0
 49
0.0
140
0.0
141
0.0
142
1.0
143
1.0
 70
   688
 72
     1
 73
     0
 74
     5
  7

 75
    16
147
1.0
148
0.0
149
0.0
100
AcDbLayout
  1
Layout2
 70
     1
 71
     2
 10
0.0
 20
0.0
 11
0.0
 21
0.0
 12
0.0
 22
0.0
 32
0.0
 14
0.0
 24
0.0
 34
0.0
 15
0.0
 25
0.0
 35
0.0
146
0.0
 13
0.0
 23
0.0
 33
0.0
 16
1.0
 26
0.0
 36
0.0
 17
0.0
 27
1.0
 37
0.0
 76
     0
330
23
  0
LAYOUT
  5
22
102
{ACAD_REACTORS
330
1A
102
}
330
1A
100
AcDbPlotSettings
  1

  2
none_device
  4
Letter_(8.50_x_11.00_Inches)
  6

 40
6.35
 41
6.35
 42
6.35000508
 43
6.35000508
 44
215.9
 45
279.4
 46
0.0
 47
0.0
 48
0.0
 49
0.0
140
0.0
141
0.0
142
1.0
143
1.0
 70
  1712
 72
     1
 73
     0
 74
     0
  7

 75
     0
147
1.0
148
0.0
149
0.0
100
AcDbLayout
  1
Model
 70
     1
 71
     0
 10
0.0
 20
0.0
 11
215.9
 21
139.7
 12
0.0
 22
0.0
 32
0.0
 14
0.0
 24
0.0
 34
0.0
 15
215.9
 25
139.7
 35
0.0
146
0.0
 13
0.0
 23
0.0
 33
0.0
 16
1.0
 26
0.0
 36
0.0
 17
0.0
 27
1.0
 37
0.0
 76
     0
330
1F
331
29
  0
MLINESTYLE
  5
18
102
{ACAD_REACTORS
330
17
102
}
330
17
100
AcDbMlineStyle
  2
Standard
 70
     0
  3

 62
   256
 51
90.0
 52
90.0
 71
     2
 49
0.5
 62
   256
  6
BYLAYER
 49
-0.5
 62
   256
  6
BYLAYER
  0
ACDBPLACEHOLDER
  5
F
102
{ACAD_REACTORS
330
E
102
}
330
E
  0
SCALE
  5
48
102
{ACAD_REACTORS
330
47
102
}
330
47
100
AcDbScale
 70
     0
300
1:1
140
1.0
141
1.0
290
     1
  0
SCALE
  5
49
102
{ACAD_REACTORS
330
47
102
}
330
47
100
AcDbScale
 70
     0
300
1:2
140
1.0
141
2.0
290
     0
  0
SCALE
  5
4A
102
{ACAD_REACTORS
330
47
102
}
330
47
100
AcDbScale
 70
     0
300
1:4
140
1.0
141
4.0
290
     0
  0
SCALE
  5
4B
102
{ACAD_REACTORS
330
47
102
}
330
47
100
AcDbScale
 70
     0
300
1:5
140
1.0
141
5.0
290
     0
  0
SCALE
  5
4C
102
{ACAD_REACTORS
330
47
102
}
330
47
100
AcDbScale
 70
     0
300
1:8
140
1.0
141
8.0
290
     0
  0
SCALE
  5
4D
102
{ACAD_REACTORS
330
47
102
}
330
47
100
AcDbScale
 70
     0
300
1:10
140
1.0
141
10.0
290
     0
  0
SCALE
  5
4E
102
{ACAD_REACTORS
330
47
102
}
330
47
100
AcDbScale
 70
     0
300
1:16
140
1.0
141
16.0
290
     0
  0
SCALE
  5
4F
102
{ACAD_REACTORS
330
47
102
}
330
47
100
AcDbScale
 70
     0
300
1:20
140
1.0
141
20.0
290
     0
  0
SCALE
  5
50
102
{ACAD_REACTORS
330
47
102
}
330
47
100
AcDbScale
 70
     0
300
1:30
140
1.0
141
30.0
290
     0
  0
SCALE
  5
51
102
{ACAD_REACTORS
330
47
102
}
330
47
100
AcDbScale
 70
     0
300
1:40
140
1.0
141
40.0
290
     0
  0
SCALE
  5
52
102
{ACAD_REACTORS
330
47
102
}
330
47
100
AcDbScale
 70
     0
300
1:50
140
1.0
141
50.0
290
     0
  0
SCALE
  5
53
102
{ACAD_REACTORS
330
47
102
}
330
47
100
AcDbScale
 70
     0
300
1:100
140
1.0
141
100.0
290
     0
  0
SCALE
  5
54
102
{ACAD_REACTORS
330
47
102
}
330
47
100
AcDbScale
 70
     0
300
2:1
140
2.0
141
1.0
290
     0
  0
SCALE
  5
55
102
{ACAD_REACTORS
330
47
102
}
330
47
100
AcDbScale
 70
     0
300
4:1
140
4.0
141
1.0
290
     0
  0
SCALE
  5
56
102
{ACAD_REACTORS
330
47
102
}
330
47
100
AcDbScale
 70
     0
300
8:1
140
8.0
141
1.0
290
     0
  0
SCALE
  5
57
102
{ACAD_REACTORS
330
47
102
}
330
47
100
AcDbScale
 70
     0
300
10:1
140
10.0
141
1.0
290
     0
  0
SCALE
  5
58
102
{ACAD_REACTORS
330
47
102
}
330
47
100
AcDbScale
 70
     0
300
100:1
140
100.0
141
1.0
290
     0
  0
SCALE
  5
59
102
{ACAD_REACTORS
330
47
102
}
330
47
100
AcDbScale
 70
     0
300
1/128" = 1'-0"
140
0.0078125
141
12.0
290
     0
  0
SCALE
  5
5A
102
{ACAD_REACTORS
330
47
102
}
330
47
100
AcDbScale
 70
     0
300
1/64" = 1'-0"
140
0.015625
141
12.0
290
     0
  0
SCALE
  5
5B
102
{ACAD_REACTORS
330
47
102
}
330
47
100
AcDbScale
 70
     0
300
1/32" = 1'-0"
140
0.03125
141
12.0
290
     0
  0
SCALE
  5
5C
102
{ACAD_REACTORS
330
47
102
}
330
47
100
AcDbScale
 70
     0
300
1/16" = 1'-0"
140
0.0625
141
12.0
290
     0
  0
SCALE
  5
5D
102
{ACAD_REACTORS
330
47
102
}
330
47
100
AcDbScale
 70
     0
300
3/32" = 1'-0"
140
0.09375
141
12.0
290
     0
  0
SCALE
  5
5E
102
{ACAD_REACTORS
330
47
102
}
330
47
100
AcDbScale
 70
     0
300
1/8" = 1'-0"
140
0.125
141
12.0
290
     0
  0
SCALE
  5
5F
102
{ACAD_REACTORS
330
47
102
}
330
47
100
AcDbScale
 70
     0
300
3/16" = 1'-0"
140
0.1875
141
12.0
290
     0
  0
SCALE
  5
60
102
{ACAD_REACTORS
330
47
102
}
330
47
100
AcDbScale
 70
     0
300
1/4" = 1'-0"
140
0.25
141
12.0
290
     0
  0
SCALE
  5
61
102
{ACAD_REACTORS
330
47
102
}
330
47
100
AcDbScale
 70
     0
300
3/8" = 1'-0"
140
0.375
141
12.0
290
     0
  0
SCALE
  5
62
102
{ACAD_REACTORS
330
47
102
}
330
47
100
AcDbScale
 70
     0
300
1/2" = 1'-0"
140
0.5
141
12.0
290
     0
  0
SCALE
  5
63
102
{ACAD_REACTORS
330
47
102
}
330
47
100
AcDbScale
 70
     0
300
3/4" = 1'-0"
140
0.75
141
12.0
290
     0
  0
SCALE
  5
64
102
{ACAD_REACTORS
330
47
102
}
330
47
100
AcDbScale
 70
     0
300
1" = 1'-0"
140
1.0
141
12.0
290
     0
  0
SCALE
  5
65
102
{ACAD_REACTORS
330
47
102
}
330
47
100
AcDbScale
 70
     0
300
1-1/2" = 1'-0"
140
1.5
141
12.0
290
     0
  0
SCALE
  5
66
102
{ACAD_REACTORS
330
47
102
}
330
47
100
AcDbScale
 70
     0
300
3" = 1'-0"
140
3.0
141
12.0
290
     0
  0
SCALE
  5
67
102
{ACAD_REACTORS
330
47
102
}
330
47
100
AcDbScale
 70
     0
300
6" = 1'-0"
140
6.0
141
12.0
290
     0
  0
SCALE
  5
68
102
{ACAD_REACTORS
330
47
102
}
330
47
100
AcDbScale
 70
     0
300
1'-0" = 1'-0"
140
12.0
141
12.0
290
     0
  0
ENDSEC
  0
EOF
