  0
SECTION
  2
HEADER
  9
$ACADVER
  1
AC1015
  9
$ACADMAINTVER
 70
     6
  9
$DWGCODEPAGE
  3
DOS932
  9
$INSBASE
 10
0.0
 20
0.0
 30
0.0
  9
$EXTMIN
 10
0.0
 20
0.0
 30
0.0
  9
$EXTMAX
 10
215.9
 20
139.7
 30
0.0
  9
$LIMMIN
 10
0.0
 20
0.0
  9
$LIMMAX
 10
215.9
 20
139.7
  9
$ORTHOMODE
 70
     0
  9
$REGENMODE
 70
     1
  9
$FILLMODE
 70
     1
  9
$QTEXTMODE
 70
     0
  9
$MIRRTEXT
 70
     1
  9
$LTSCALE
 40
0.5
  9
$ATTMODE
 70
     1
  9
$TEXTSIZE
 40
1.75
  9
$TRACEWID
 40
1.0
  9
$TEXTSTYLE
  7
Standard
  9
$CLAYER
  8
0
  9
$CELTYPE
  6
ByLayer
  9
$CECOLOR
 62
   256
  9
$CELTSCALE
 40
1.0
  9
$DISPSILH
 70
     0
  9
$DIMSCALE
 40
1.0
  9
$DIMASZ
 40
1.651
  9
$DIMEXO
 40
0.5
  9
$DIMDLI
 40
3.75
  9
$DIMRND
 40
0.0
  9
$DIMDLE
 40
0.0
  9
$DIMEXE
 40
0.5
  9
$DIMTP
 40
0.0
  9
$DIMTM
 40
0.0
  9
$DIMTXT
 40
1.75
  9
$DIMCEN
 40
2.5
  9
$DIMTSZ
 40
0.0
  9
$DIMTOL
 70
     0
  9
$DIMLIM
 70
     0
  9
$DIMTIH
 70
     1
  9
$DIMTOH
 70
     1
  9
$DIMSE1
 70
     0
  9
$DIMSE2
 70
     0
  9
$DIMTAD
 70
     1
  9
$DIMZIN
 70
     1
  9
$DIMBLK
  1

  9
$DIMASO
 70
     1
  9
$DIMSHO
 70
     1
  9
$DIMPOST
  1

  9
$DIMAPOST
  1

  9
$DIMALT
 70
     0
  9
$DIMALTD
 70
     3
  9
$DIMALTF
 40
0.0393700787
  9
$DIMLFAC
 40
1.0
  9
$DIMTOFL
 70
     1
  9
$DIMTVP
 40
0.0
  9
$DIMTIX
 70
     0
  9
$DIMSOXD
 70
     0
  9
$DIMSAH
 70
     0
  9
$DIMBLK1
  1

  9
$DIMBLK2
  1

  9
$DIMSTYLE
  2
ISO-25
  9
$DIMCLRD
 70
     0
  9
$DIMCLRE
 70
     0
  9
$DIMCLRT
 70
     0
  9
$DIMTFAC
 40
1.0
  9
$DIMGAP
 40
0.762
  9
$DIMJUST
 70
     0
  9
$DIMSD1
 70
     0
  9
$DIMSD2
 70
     0
  9
$DIMTOLJ
 70
     0
  9
$DIMTZIN
 70
     1
  9
$DIMALTZ
 70
     0
  9
$DIMALTTZ
 70
     0
  9
$DIMUPT
 70
     0
  9
$DIMDEC
 70
     2
  9
$DIMTDEC
 70
     2
  9
$DIMALTU
 70
     2
  9
$DIMALTTD
 70
     3
  9
$DIMTXSTY
  7
Standard
  9
$DIMAUNIT
 70
     0
  9
$DIMADEC
 70
     2
  9
$DIMALTRND
 40
0.0
  9
$DIMAZIN
 70
     0
  9
$DIMDSEP
 70
    44
  9
$DIMATFIT
 70
     3
  9
$DIMFRAC
 70
     0
  9
$DIMLDRBLK
  1

  9
$DIMLUNIT
 70
     2
  9
$DIMLWD
 70
    -2
  9
$DIMLWE
 70
    -2
  9
$DIMTMOVE
 70
     0
  9
$LUNITS
 70
     2
  9
$LUPREC
 70
     2
  9
$SKETCHINC
 40
1.0
  9
$FILLETRAD
 40
10.0
  9
$AUNITS
 70
     0
  9
$AUPREC
 70
     2
  9
$MENU
  1
.
  9
$ELEVATION
 40
0.0
  9
$PELEVATION
 40
0.0
  9
$THICKNESS
 40
0.0
  9
$LIMCHECK
 70
     0
  9
$CHAMFERA
 40
0.0
  9
$CHAMFERB
 40
0.0
  9
$CHAMFERC
 40
0.0
  9
$CHAMFERD
 40
0.0
  9
$SKPOLY
 70
     0
  9
$TDCREATE
 40
2459227.759684051
  9
$TDUCREATE
 40
2459227.384684051
  9
$TDUPDATE
 40
2459227.759684595
  9
$TDUUPDATE
 40
2459227.384684595
  9
$TDINDWG
 40
0.0000000116
  9
$TDUSRTIMER
 40
0.0000000116
  9
$USRTIMER
 70
     1
  9
$ANGBASE
 50
0.0
  9
$ANGDIR
 70
     0
  9
$PDMODE
 70
     0
  9
$PDSIZE
 40
-1.0
  9
$PLINEWID
 40
0.0
  9
$SPLFRAME
 70
     0
  9
$SPLINETYPE
 70
     6
  9
$SPLINESEGS
 70
     8
  9
$HANDSEED
  5
10B
  9
$SURFTAB1
 70
     6
  9
$SURFTAB2
 70
     6
  9
$SURFTYPE
 70
     6
  9
$SURFU
 70
     6
  9
$SURFV
 70
     6
  9
$UCSBASE
  2

  9
$UCSNAME
  2

  9
$UCSORG
 10
0.0
 20
0.0
 30
0.0
  9
$UCSXDIR
 10
1.0
 20
0.0
 30
0.0
  9
$UCSYDIR
 10
0.0
 20
1.0
 30
0.0
  9
$UCSORTHOREF
  2

  9
$UCSORTHOVIEW
 70
     0
  9
$UCSORGTOP
 10
0.0
 20
0.0
 30
0.0
  9
$UCSORGBOTTOM
 10
0.0
 20
0.0
 30
0.0
  9
$UCSORGLEFT
 10
0.0
 20
0.0
 30
0.0
  9
$UCSORGRIGHT
 10
0.0
 20
0.0
 30
0.0
  9
$UCSORGFRONT
 10
0.0
 20
0.0
 30
0.0
  9
$UCSORGBACK
 10
0.0
 20
0.0
 30
0.0
  9
$PUCSBASE
  2

  9
$PUCSNAME
  2

  9
$PUCSORG
 10
0.0
 20
0.0
 30
0.0
  9
$PUCSXDIR
 10
1.0
 20
0.0
 30
0.0
  9
$PUCSYDIR
 10
0.0
 20
1.0
 30
0.0
  9
$PUCSORTHOREF
  2

  9
$PUCSORTHOVIEW
 70
     0
  9
$PUCSORGTOP
 10
0.0
 20
0.0
 30
0.0
  9
$PUCSORGBOTTOM
 10
0.0
 20
0.0
 30
0.0
  9
$PUCSORGLEFT
 10
0.0
 20
0.0
 30
0.0
  9
$PUCSORGRIGHT
 10
0.0
 20
0.0
 30
0.0
  9
$PUCSORGFRONT
 10
0.0
 20
0.0
 30
0.0
  9
$PUCSORGBACK
 10
0.0
 20
0.0
 30
0.0
  9
$USERI1
 70
     0
  9
$USERI2
 70
     0
  9
$USERI3
 70
     0
  9
$USERI4
 70
     0
  9
$USERI5
 70
     0
  9
$USERR1
 40
0.0
  9
$USERR2
 40
0.0
  9
$USERR3
 40
0.0
  9
$USERR4
 40
0.0
  9
$USERR5
 40
0.0
  9
$WORLDVIEW
 70
     1
  9
$SHADEDGE
 70
     3
  9
$SHADEDIF
 70
    70
  9
$TILEMODE
 70
     1
  9
$MAXACTVP
 70
    64
  9
$PINSBASE
 10
0.0
 20
0.0
 30
0.0
  9
$PLIMCHECK
 70
     0
  9
$PEXTMIN
 10
1.0000000000E+20
 20
1.0000000000E+20
 30
1.0000000000E+20
  9
$PEXTMAX
 10
-1.0000000000E+20
 20
-1.0000000000E+20
 30
-1.0000000000E+20
  9
$PLIMMIN
 10
0.0
 20
0.0
  9
$PLIMMAX
 10
420.0
 20
297.0
  9
$UNITMODE
 70
     0
  9
$VISRETAIN
 70
     1
  9
$PLINEGEN
 70
     0
  9
$PSLTSCALE
 70
     1
  9
$TREEDEPTH
 70
  3020
  9
$CMLSTYLE
  2
Standard
  9
$CMLJUST
 70
     0
  9
$CMLSCALE
 40
20.0
  9
$PROXYGRAPHICS
 70
     1
  9
$MEASUREMENT
 70
     1
  9
$CELWEIGHT
370
    -1
  9
$ENDCAPS
280
     0
  9
$JOINSTYLE
280
     0
  9
$LWDISPLAY
290
     1
  9
$INSUNITS
 70
     4
  9
$HYPERLINKBASE
  1

  9
$STYLESHEET
  1

  9
$XEDIT
290
     1
  9
$CEPSNTYPE
380
     0
  9
$PSTYLEMODE
290
     1
  9
$FINGERPRINTGUID
  2
{28B83D33-77C6-40DB-8A21-4BC1ECA93040}
  9
$VERSIONGUID
  2
{FAEB1C32-E019-11D5-929B-00C0DF256EC4}
  9
$EXTNAMES
290
     1
  9
$PSVPSCALE
 40
0.0
  9
$OLESTARTUP
290
     0
  0
ENDSEC
  0
SECTION
  2
CLASSES
  0
CLASS
  1
ACDBDICTIONARYWDFLT
  2
AcDbDictionaryWithDefault
  3
ObjectDBX Classes
 90
        0
280
     0
281
     0
  0
CLASS
  1
VISUALSTYLE
  2
AcDbVisualStyle
  3
ObjectDBX Classes
 90
     4095
280
     0
281
     0
  0
CLASS
  1
MATERIAL
  2
AcDbMaterial
  3
ObjectDBX Classes
 90
     1153
280
     0
281
     0
  0
CLASS
  1
SCALE
  2
AcDbScale
  3
ObjectDBX Classes
 90
     1153
280
     0
281
     0
  0
CLASS
  1
TABLESTYLE
  2
AcDbTableStyle
  3
ObjectDBX Classes
 90
     4095
280
     0
281
     0
  0
CLASS
  1
MLEADERSTYLE
  2
AcDbMLeaderStyle
  3
ACDB_MLEADERSTYLE_CLASS
 90
     4095
280
     0
281
     0
  0
CLASS
  1
SUN
  2
AcDbSun
  3
SCENEOE
 90
     1153
280
     0
281
     0
  0
CLASS
  1
ACDBPLACEHOLDER
  2
AcDbPlaceHolder
  3
ObjectDBX Classes
 90
        0
280
     0
281
     0
  0
CLASS
  1
LAYOUT
  2
AcDbLayout
  3
ObjectDBX Classes
 90
        0
280
     0
281
     0
  0
ENDSEC
  0
SECTION
  2
TABLES
  0
TABLE
  2
VPORT
  5
8
330
0
100
AcDbSymbolTable
 70
     1
  0
VPORT
  5
29
330
8
100
AcDbSymbolTableRecord
100
AcDbViewportTableRecord
  2
*Active
 70
     0
 10
0.0
 20
0.0
 11
1.0
 21
1.0
 12
107.95
 22
69.85
 13
0.0
 23
0.0
 14
10.0
 24
10.0
 15
10.0
 25
10.0
 16
0.0
 26
0.0
 36
1.0
 17
0.0
 27
0.0
 37
0.0
 40
139.7
 41
1.5454545455
 42
50.0
 43
0.0
 44
0.0
 50
0.0
 51
0.0
 71
     0
 72
  2000
 73
     1
 74
     3
 75
     0
 76
     0
 77
     0
 78
     0
281
     0
 65
     1
110
0.0
120
0.0
130
0.0
111
1.0
121
0.0
131
0.0
112
0.0
122
1.0
132
0.0
 79
     0
146
0.0
  0
ENDTAB
  0
TABLE
  2
LTYPE
  5
5
330
0
100
AcDbSymbolTable
 70
     6
  0
LTYPE
  5
14
330
5
100
AcDbSymbolTableRecord
100
AcDbLinetypeTableRecord
  2
ByBlock
 70
     0
  3

 72
    65
 73
     0
 40
0.0
  0
LTYPE
  5
15
330
5
100
AcDbSymbolTableRecord
100
AcDbLinetypeTableRecord
  2
ByLayer
 70
     0
  3

 72
    65
 73
     0
 40
0.0
  0
LTYPE
  5
16
330
5
100
AcDbSymbolTableRecord
100
AcDbLinetypeTableRecord
  2
Continuous
 70
     0
  3
Solid line
 72
    65
 73
     0
 40
0.0
  0
LTYPE
  5
6E
330
5
100
AcDbSymbolTableRecord
100
AcDbLinetypeTableRecord
  2
HIDDEN
 70
     0
  3
Hidden __ __ __ __ __ __ __ __ __ __ __ __ __ __
 72
    65
 73
     2
 40
1.905
 49
1.27
 74
     0
 49
-0.635
 74
     0
  0
LTYPE
  5
6F
330
5
100
AcDbSymbolTableRecord
100
AcDbLinetypeTableRecord
  2
PHANTOM
 70
     0
  3
Phantom ______  __  __  ______  __  __  ______
 72
    65
 73
     6
 40
12.7
 49
6.35
 74
     0
 49
-1.27
 74
     0
 49
1.27
 74
     0
 49
-1.27
 74
     0
 49
1.27
 74
     0
 49
-1.27
 74
     0
  0
LTYPE
  5
70
330
5
100
AcDbSymbolTableRecord
100
AcDbLinetypeTableRecord
  2
CENTER
 70
     0
  3
Center ____ _ ____ _ ____ _ ____ _ ____ _ ____
 72
    65
 73
     4
 40
10.16
 49
6.35
 74
     0
 49
-1.27
 74
     0
 49
1.27
 74
     0
 49
-1.27
 74
     0
  0
LTYPE
  5
71
330
5
100
AcDbSymbolTableRecord
100
AcDbLinetypeTableRecord
  2
CENTERX2
 70
     0
  3
Center (2x) ________  __  ________  __  _____
 72
    65
 73
     4
 40
20.32
 49
12.7
 74
     0
 49
-2.54
 74
     0
 49
2.54
 74
     0
 49
-2.54
 74
     0
  0
LTYPE
  5
72
330
5
100
AcDbSymbolTableRecord
100
AcDbLinetypeTableRecord
  2
DOT2
 70
     0
  3
Dot (.5x) ........................................
 72
    65
 73
     2
 40
0.635
 49
0.0
 74
     0
 49
-0.635
 74
     0
  0
ENDTAB
  0
TABLE
  2
LAYER
  5
2
330
0
100
AcDbSymbolTable
 70
     1
  0
LAYER
  5
10
330
2
100
AcDbSymbolTableRecord
100
AcDbLayerTableRecord
  2
0
 70
     0
 62
     7
  6
Continuous
370
    -3
390
F
  0
ENDTAB
  0
TABLE
  2
STYLE
  5
3
330
0
100
AcDbSymbolTable
 70
     2
  0
STYLE
  5
11
330
3
100
AcDbSymbolTableRecord
100
AcDbTextStyleTableRecord
  2
Standard
 70
     0
 40
0.0
 41
1.0
 50
0.0
 71
     0
 42
1.75
  3
txt
  4
bigfont
  0
STYLE
  5
73
330
3
100
AcDbSymbolTableRecord
100
AcDbTextStyleTableRecord
  2
SLDTEXTSTYLE0
 70
     0
 40
0.0
 41
0.7
 50
0.0
 71
     0
 42
1.75
  3
TXT
  4
bigfont
  0
ENDTAB
  0
TABLE
  2
VIEW
  5
6
330
0
100
AcDbSymbolTable
 70
     0
  0
ENDTAB
  0
TABLE
  2
UCS
  5
7
330
0
100
AcDbSymbolTable
 70
     0
  0
ENDTAB
  0
TABLE
  2
APPID
  5
9
330
0
100
AcDbSymbolTable
 70
     1
  0
APPID
  5
12
330
9
100
AcDbSymbolTableRecord
100
AcDbRegAppTableRecord
  2
ACAD
 70
     0
  0
ENDTAB
  0
TABLE
  2
DIMSTYLE
  5
A
330
0
100
AcDbSymbolTable
 70
     1
100
AcDbDimStyleTable
  0
DIMSTYLE
105
27
330
A
100
AcDbSymbolTableRecord
100
AcDbDimStyleTableRecord
  2
ISO-25
 70
     0
 41
2.5
 42
0.625
 43
3.75
 44
1.25
 73
     0
 74
     0
 77
     1
 78
     8
140
2.5
141
2.5
143
0.0393700787
147
0.625
171
     3
172
     1
178
     0
271
     2
272
     2
274
     3
278
    44
283
     0
284
     8
340
11
  0
ENDTAB
  0
TABLE
  2
BLOCK_RECORD
  5
1
330
0
100
AcDbSymbolTable
 70
     2
  0
BLOCK_RECORD
  5
1F
330
1
100
AcDbSymbolTableRecord
100
AcDbBlockTableRecord
  2
*Model_Space
340
22
  0
BLOCK_RECORD
  5
1B
330
1
100
AcDbSymbolTableRecord
100
AcDbBlockTableRecord
  2
*Paper_Space
340
1E
  0
BLOCK_RECORD
  5
23
330
1
100
AcDbSymbolTableRecord
100
AcDbBlockTableRecord
  2
*Paper_Space0
340
26
  0
BLOCK_RECORD
  5
C7
330
1
100
AcDbSymbolTableRecord
100
AcDbBlockTableRecord
  2
SW_CENTERMARKSYMBOL_0
340
0
102
{BLKREFS
331
D2
102
}
  0
ENDTAB
  0
ENDSEC
  0
SECTION
  2
BLOCKS
  0
BLOCK
  5
20
330
1F
100
AcDbEntity
  8
0
100
AcDbBlockBegin
  2
*Model_Space
 70
     0
 10
0.0
 20
0.0
 30
0.0
  3
*Model_Space
  1

  0
ENDBLK
  5
21
330
1F
100
AcDbEntity
  8
0
100
AcDbBlockEnd
  0
BLOCK
  5
1C
330
1B
100
AcDbEntity
 67
     1
  8
0
100
AcDbBlockBegin
  2
*Paper_Space
 70
     0
 10
0.0
 20
0.0
 30
0.0
  3
*Paper_Space
  1

  0
ENDBLK
  5
1D
330
1B
100
AcDbEntity
 67
     1
  8
0
100
AcDbBlockEnd
  0
BLOCK
  5
24
330
23
100
AcDbEntity
  8
0
100
AcDbBlockBegin
  2
*Paper_Space0
 70
     0
 10
0.0
 20
0.0
 30
0.0
  3
*Paper_Space0
  1

  0
ENDBLK
  5
25
330
23
100
AcDbEntity
  8
0
100
AcDbBlockEnd
  0
BLOCK
  5
C8
330
C7
100
AcDbEntity
  8
0
100
AcDbBlockBegin
  2
SW_CENTERMARKSYMBOL_0
 70
     0
 10
0.0
 20
0.0
 30
0.0
  3
SW_CENTERMARKSYMBOL_0
  1

  0
LINE
  5
CA
330
C7
100
AcDbEntity
  8
0
  6
Continuous
 62
     0
370
    18
100
AcDbLine
 10
0.0
 20
0.0
 30
0.0
 11
0.0
 21
2.5
 31
0.0
  0
LINE
  5
CB
330
C7
100
AcDbEntity
  8
0
  6
Continuous
 62
     0
370
    18
100
AcDbLine
 10
0.0
 20
0.0
 30
0.0
 11
-2.5
 21
0.0
 31
0.0
  0
LINE
  5
CC
330
C7
100
AcDbEntity
  8
0
  6
Continuous
 62
     0
370
    18
100
AcDbLine
 10
0.0
 20
0.0
 30
0.0
 11
0.0
 21
-2.5
 31
0.0
  0
LINE
  5
CD
330
C7
100
AcDbEntity
  8
0
  6
Continuous
 62
     0
370
    18
100
AcDbLine
 10
0.0
 20
0.0
 30
0.0
 11
2.5
 21
0.0
 31
0.0
  0
LINE
  5
CE
330
C7
100
AcDbEntity
  8
0
  6
Continuous
 62
     0
370
    18
100
AcDbLine
 10
0.0
 20
5.0
 30
0.0
 11
0.0
 21
13.9786952833
 31
0.0
  0
LINE
  5
CF
330
C7
100
AcDbEntity
  8
0
  6
Continuous
 62
     0
370
    18
100
AcDbLine
 10
-5.0
 20
0.0
 30
0.0
 11
-12.5063284751
 21
0.0
 31
0.0
  0
LINE
  5
D0
330
C7
100
AcDbEntity
  8
0
  6
Continuous
 62
     0
370
    18
100
AcDbLine
 10
0.0
 20
-5.0
 30
0.0
 11
0.0
 21
-14.2983483038
 31
0.0
  0
LINE
  5
D1
330
C7
100
AcDbEntity
  8
0
  6
Continuous
 62
     0
370
    18
100
AcDbLine
 10
5.0
 20
0.0
 30
0.0
 11
12.1698930822
 21
0.0
 31
0.0
  0
ENDBLK
  5
C9
330
C7
100
AcDbEntity
  8
0
100
AcDbBlockEnd
  0
ENDSEC
  0
SECTION
  2
ENTITIES
  0
MTEXT
  5
74
330
1F
100
AcDbEntity
  8
0
  6
Continuous
 62
     7
370
     0
100
AcDbMText
 10
86.4147877261
 20
65.3397963588
 30
0.0
 40
2.6458333333
 41
0.0
 71
     1
 72
     1
  1
5R-NS1033
  7
SLDTEXTSTYLE0
 73
     1
 44
1.0
  0
LINE
  5
75
330
1F
100
AcDbEntity
  8
0
  6
Continuous
 62
     7
370
    25
100
AcDbLine
 10
78.4723107794
 20
29.309210821
 30
0.0
 11
79.5544705202
 21
31.183566474
 31
0.0
  0
LINE
  5
76
330
1F
100
AcDbEntity
  8
0
  6
Continuous
 62
     7
370
    25
100
AcDbLine
 10
79.5544705202
 20
51.683566474
 30
0.0
 11
78.4723107794
 21
53.557922127
 31
0.0
  0
LINE
  5
77
330
1F
100
AcDbEntity
  8
0
  6
Continuous
 62
     7
370
    25
100
AcDbLine
 10
48.636630261
 20
53.557922127
 30
0.0
 11
47.5544705202
 21
51.683566474
 31
0.0
  0
LINE
  5
78
330
1F
100
AcDbEntity
  8
0
  6
Continuous
 62
     7
370
    25
100
AcDbLine
 10
47.5544705202
 20
31.183566474
 30
0.0
 11
48.636630261
 21
29.309210821
 31
0.0
  0
LINE
  5
79
330
1F
100
AcDbEntity
  8
0
  6
Continuous
 62
     7
370
    25
100
AcDbLine
 10
63.5544705202
 20
51.933566474
 30
0.0
 11
63.1192257348
 21
53.557922127
 31
0.0
  0
LINE
  5
7A
330
1F
100
AcDbEntity
  8
0
  6
Continuous
 62
     7
370
    25
100
AcDbLine
 10
63.9897153057
 20
53.557922127
 30
0.0
 11
63.5544705202
 21
51.933566474
 31
0.0
  0
LINE
  5
7B
330
1F
100
AcDbEntity
  8
0
  6
Continuous
 62
     7
370
    25
100
AcDbLine
 10
63.5544705202
 20
30.933566474
 30
0.0
 11
63.9897153057
 21
29.309210821
 31
0.0
  0
LINE
  5
7C
330
1F
100
AcDbEntity
  8
0
  6
Continuous
 62
     7
370
    25
100
AcDbLine
 10
63.1192257348
 20
29.309210821
 30
0.0
 11
63.5544705202
 21
30.933566474
 31
0.0
  0
LINE
  5
7D
330
1F
100
AcDbEntity
  8
0
  6
Continuous
 62
     7
370
    25
100
AcDbLine
 10
75.0544705202
 20
53.257922127
 30
0.0
 11
74.9740857625
 21
53.557922127
 31
0.0
  0
LINE
  5
7E
330
1F
100
AcDbEntity
  8
0
  6
Continuous
 62
     7
370
    25
100
AcDbLine
 10
75.134855278
 20
53.557922127
 30
0.0
 11
75.0544705202
 21
53.257922127
 31
0.0
  0
LINE
  5
7F
330
1F
100
AcDbEntity
  8
0
  6
Continuous
 62
     7
370
    25
100
AcDbLine
 10
75.0544705202
 20
29.609210821
 30
0.0
 11
75.134855278
 21
29.309210821
 31
0.0
  0
LINE
  5
80
330
1F
100
AcDbEntity
  8
0
  6
Continuous
 62
     7
370
    25
100
AcDbLine
 10
74.9740857625
 20
29.309210821
 30
0.0
 11
75.0544705202
 21
29.609210821
 31
0.0
  0
LINE
  5
81
330
1F
100
AcDbEntity
  8
0
  6
Continuous
 62
     7
370
    25
100
AcDbLine
 10
63.1192257348
 20
53.557922127
 30
0.0
 11
48.636630261
 21
53.557922127
 31
0.0
  0
SPLINE
  5
82
330
1F
100
AcDbEntity
  8
0
  6
Continuous
 62
     7
370
    25
100
AcDbSpline
210
0.0
220
0.0
230
1.0
 70
     8
 71
     3
 72
    10
 73
     6
 74
     0
 42
0.000000001
 43
0.00000001
 40
0.0
 40
0.0
 40
0.0
 40
0.0
 40
0.5
 40
0.5
 40
1.0
 40
1.0
 40
1.0
 40
1.0
 10
63.11922573479385
 20
53.5579221269706
 30
0.0
 10
63.25458870587569
 20
53.05274064142967
 30
0.0
 10
63.36450237592882
 20
52.54755915588876
 30
0.0
 10
63.51467410917028
 20
51.5371961848069
 30
0.0
 10
63.55447052023121
 20
51.03201469926598
 30
0.0
 10
63.55447052023121
 20
50.52683321372505
 30
0.0
  0
SPLINE
  5
83
330
1F
100
AcDbEntity
  8
0
  6
Continuous
 62
     7
370
    25
100
AcDbSpline
210
0.0
220
0.0
230
1.0
 70
     8
 71
     3
 72
    10
 73
     6
 74
     0
 42
0.000000001
 43
0.00000001
 40
0.0
 40
0.0
 40
0.0
 40
0.0
 40
0.5
 40
0.5
 40
1.0
 40
1.0
 40
1.0
 40
1.0
 10
63.55447052023121
 20
50.52683321372505
 30
0.0
 10
63.55447052023121
 20
50.02165172818412
 30
0.0
 10
63.51467410917028
 20
49.5164702426432
 30
0.0
 10
63.36450237592882
 20
48.50610727156135
 30
0.0
 10
63.25458870587569
 20
48.00092578602043
 30
0.0
 10
63.11922573479385
 20
47.4957443004795
 30
0.0
  0
LINE
  5
84
330
1F
100
AcDbEntity
  8
0
  6
Continuous
 62
     7
370
    25
100
AcDbLine
 10
63.1192257348
 20
47.4957443005
 30
0.0
 11
48.636630261
 21
47.4957443005
 31
0.0
  0
SPLINE
  5
85
330
1F
100
AcDbEntity
  8
0
  6
Continuous
 62
     7
370
    25
100
AcDbSpline
210
0.0
220
0.0
230
1.0
 70
     8
 71
     3
 72
    16
 73
    12
 74
     0
 42
0.000000001
 43
0.00000001
 40
0.0
 40
0.0
 40
0.0
 40
0.0
 40
0.2499999999999999
 40
0.2499999999999999
 40
0.4999999999999998
 40
0.4999999999999998
 40
0.6249999999999999
 40
0.6249999999999999
 40
0.75
 40
0.75
 40
1.0
 40
1.0
 40
1.0
 40
1.0
 10
48.63663026103721
 20
47.49574430047948
 30
0.0
 10
48.35088846375453
 20
47.99066361121912
 30
0.0
 10
48.11538546359932
 20
48.48919126540897
 30
0.0
 10
47.78913734643286
 20
49.49664364118224
 30
0.0
 10
47.69946838146194
 20
50.00564565614028
 30
0.0
 10
47.69848347505971
 20
50.77873849323534
 30
0.0
 10
47.72040405186949
 20
51.03764877396333
 30
0.0
 10
47.80588276960388
 20
51.5498005978142
 30
0.0
 10
47.86935415807037
 20
51.8041594555395
 30
0.0
 10
48.11444639526874
 20
52.56270751825831
 30
0.0
 10
48.35053226282594
 20
53.06238585812466
 30
0.0
 10
48.63663026103738
 20
53.55792212697062
 30
0.0
  0
LINE
  5
86
330
1F
100
AcDbEntity
  8
0
  6
Continuous
 62
     7
370
    25
100
AcDbLine
 10
78.4723107794
 20
53.557922127
 30
0.0
 11
75.134855278
 21
53.557922127
 31
0.0
  0
SPLINE
  5
87
330
1F
100
AcDbEntity
  8
0
  6
Continuous
 62
     7
370
    25
100
AcDbSpline
210
0.0
220
0.0
230
1.0
 70
     8
 71
     3
 72
    16
 73
    12
 74
     0
 42
0.000000001
 43
0.00000001
 40
0.0
 40
0.0
 40
0.0
 40
0.0
 40
0.2499999999999999
 40
0.2499999999999999
 40
0.4999999999999998
 40
0.4999999999999998
 40
0.6249999999999998
 40
0.6249999999999998
 40
0.7499999999999999
 40
0.7499999999999999
 40
1.0
 40
1.0
 40
1.0
 40
1.0
 10
78.47231077942521
 20
53.55792212697062
 30
0.0
 10
78.75805257670788
 20
53.06300281623098
 30
0.0
 10
78.99355557686309
 20
52.56447516204113
 30
0.0
 10
79.31980369402956
 20
51.55702278626786
 30
0.0
 10
79.40947265900047
 20
51.04802077130981
 30
0.0
 10
79.4104575654027
 20
50.27492793421477
 30
0.0
 10
79.38853698859292
 20
50.01601765348677
 30
0.0
 10
79.30305827085854
 20
49.50386582963591
 30
0.0
 10
79.23958688239205
 20
49.2495069719106
 30
0.0
 10
78.99449464519367
 20
48.4909589091918
 30
0.0
 10
78.75840877763649
 20
47.99128056932545
 30
0.0
 10
78.47231077942504
 20
47.49574430047949
 30
0.0
  0
LINE
  5
88
330
1F
100
AcDbEntity
  8
0
  6
Continuous
 62
     7
370
    25
100
AcDbLine
 10
78.4723107794
 20
47.4957443005
 30
0.0
 11
75.134855278
 21
47.4957443005
 31
0.0
  0
SPLINE
  5
89
330
1F
100
AcDbEntity
  8
0
  6
Continuous
 62
     7
370
    25
100
AcDbSpline
210
0.0
220
0.0
230
1.0
 70
     8
 71
     3
 72
     8
 73
     4
 74
     0
 42
0.000000001
 43
0.00000001
 40
0.0
 40
0.0
 40
0.0
 40
0.0
 40
1.0
 40
1.0
 40
1.0
 40
1.0
 10
75.13485527796054
 20
47.4957443004795
 30
0.0
 10
75.10696856937876
 20
47.59981891376257
 30
0.0
 10
75.08014477321237
 20
47.70394608382456
 30
0.0
 10
75.0544705202312
 20
47.80813009421149
 30
0.0
  0
SPLINE
  5
8A
330
1F
100
AcDbEntity
  8
0
  6
Continuous
 62
     7
370
    25
100
AcDbSpline
210
0.0
220
0.0
230
1.0
 70
     8
 71
     3
 72
     8
 73
     4
 74
     0
 42
0.000000001
 43
0.00000001
 40
0.0
 40
0.0
 40
0.0
 40
0.0
 40
1.0
 40
1.0
 40
1.0
 40
1.0
 10
75.0544705202312
 20
47.80813009421149
 30
0.0
 10
75.02878689646303
 20
47.70390805794035
 30
0.0
 10
75.0019625621885
 20
47.59978193326239
 30
0.0
 10
74.97408576250187
 20
47.4957443004795
 30
0.0
  0
LINE
  5
8B
330
1F
100
AcDbEntity
  8
0
  6
Continuous
 62
     7
370
    25
100
AcDbLine
 10
74.9740857625
 20
47.4957443005
 30
0.0
 11
63.9897153057
 21
47.4957443005
 31
0.0
  0
SPLINE
  5
8C
330
1F
100
AcDbEntity
  8
0
  6
Continuous
 62
     7
370
    25
100
AcDbSpline
210
0.0
220
0.0
230
1.0
 70
     8
 71
     3
 72
    10
 73
     6
 74
     0
 42
0.000000001
 43
0.00000001
 40
0.0
 40
0.0
 40
0.0
 40
0.0
 40
0.5
 40
0.5
 40
1.0
 40
1.0
 40
1.0
 40
1.0
 10
63.55447052023121
 20
50.52683321372505
 30
0.0
 10
63.55447052023121
 20
50.02165172818412
 30
0.0
 10
63.59426693129214
 20
49.5164702426432
 30
0.0
 10
63.7444386645336
 20
48.50610727156135
 30
0.0
 10
63.85435233458672
 20
48.00092578602043
 30
0.0
 10
63.98971530566856
 20
47.4957443004795
 30
0.0
  0
SPLINE
  5
8D
330
1F
100
AcDbEntity
  8
0
  6
Continuous
 62
     7
370
    25
100
AcDbSpline
210
0.0
220
0.0
230
1.0
 70
     8
 71
     3
 72
    10
 73
     6
 74
     0
 42
0.000000001
 43
0.00000001
 40
0.0
 40
0.0
 40
0.0
 40
0.0
 40
0.5
 40
0.5
 40
1.0
 40
1.0
 40
1.0
 40
1.0
 10
63.98971530566856
 20
53.5579221269706
 30
0.0
 10
63.85435233458672
 20
53.05274064142967
 30
0.0
 10
63.7444386645336
 20
52.54755915588876
 30
0.0
 10
63.59426693129214
 20
51.5371961848069
 30
0.0
 10
63.55447052023121
 20
51.03201469926598
 30
0.0
 10
63.55447052023121
 20
50.52683321372505
 30
0.0
  0
LINE
  5
8E
330
1F
100
AcDbEntity
  8
0
  6
Continuous
 62
     7
370
    25
100
AcDbLine
 10
74.9740857625
 20
53.557922127
 30
0.0
 11
63.9897153057
 21
53.557922127
 31
0.0
  0
SPLINE
  5
8F
330
1F
100
AcDbEntity
  8
0
  6
Continuous
 62
     7
370
    25
100
AcDbSpline
210
0.0
220
0.0
230
1.0
 70
     8
 71
     3
 72
     8
 73
     4
 74
     0
 42
0.000000001
 43
0.00000001
 40
0.0
 40
0.0
 40
0.0
 40
0.0
 40
1.0
 40
1.0
 40
1.0
 40
1.0
 10
74.97408576250187
 20
53.5579221269706
 30
0.0
 10
75.00197247108365
 20
53.45384751368753
 30
0.0
 10
75.02879626725003
 20
53.34972034362553
 30
0.0
 10
75.0544705202312
 20
53.2455363332386
 30
0.0
  0
SPLINE
  5
90
330
1F
100
AcDbEntity
  8
0
  6
Continuous
 62
     7
370
    25
100
AcDbSpline
210
0.0
220
0.0
230
1.0
 70
     8
 71
     3
 72
     8
 73
     4
 74
     0
 42
0.000000001
 43
0.00000001
 40
0.0
 40
0.0
 40
0.0
 40
0.0
 40
1.0
 40
1.0
 40
1.0
 40
1.0
 10
75.0544705202312
 20
53.24553633323861
 30
0.0
 10
75.08015414399938
 20
53.34975836950975
 30
0.0
 10
75.10697847827393
 20
53.45388449418771
 30
0.0
 10
75.13485527796054
 20
53.5579221269706
 30
0.0
  0
SPLINE
  5
91
330
1F
100
AcDbEntity
  8
0
  6
Continuous
 62
     7
370
    25
100
AcDbSpline
210
0.0
220
0.0
230
1.0
 70
     8
 71
     3
 72
    16
 73
    12
 74
     0
 42
0.000000001
 43
0.00000001
 40
0.0
 40
0.0
 40
0.0
 40
0.0
 40
0.25
 40
0.25
 40
0.5
 40
0.5
 40
0.625
 40
0.625
 40
0.75
 40
0.75
 40
1.0
 40
1.0
 40
1.0
 40
1.0
 10
78.4723107794249
 20
35.37138864749732
 30
0.0
 10
78.75717011428695
 20
36.35817032948
 30
0.0
 10
78.99586402785559
 20
37.36817088394857
 30
0.0
 10
79.32217058784109
 20
39.39223679601344
 30
0.0
 10
79.4102467188963
 20
40.41034405063379
 30
0.0
 10
79.4100759016701
 20
41.9482077720295
 30
0.0
 10
79.3882290041459
 20
42.46259198186304
 30
0.0
 10
79.301461829587
 20
43.49484535763246
 30
0.0
 10
79.23720992374172
 20
44.00554642938692
 30
0.0
 10
78.99075746436927
 20
45.52308130158365
 30
0.0
 10
78.7552139721619
 20
46.51573889359157
 30
0.0
 10
78.47231077942487
 20
47.4957443004795
 30
0.0
  0
LINE
  5
92
330
1F
100
AcDbEntity
  8
0
  6
Continuous
 62
     7
370
    25
100
AcDbLine
 10
78.4723107794
 20
35.3713886475
 30
0.0
 11
75.134855278
 21
35.3713886475
 31
0.0
  0
SPLINE
  5
93
330
1F
100
AcDbEntity
  8
0
  6
Continuous
 62
     7
370
    25
100
AcDbSpline
210
0.0
220
0.0
230
1.0
 70
     8
 71
     3
 72
     8
 73
     4
 74
     0
 42
0.000000001
 43
0.00000001
 40
0.0
 40
0.0
 40
0.0
 40
0.0
 40
1.0
 40
1.0
 40
1.0
 40
1.0
 10
75.13485527796054
 20
35.37138864749733
 30
0.0
 10
75.10696711559531
 20
35.57954872525085
 30
0.0
 10
75.08014339951252
 20
35.7878033629098
 30
0.0
 10
75.0544705202312
 20
35.99616023496131
 30
0.0
  0
SPLINE
  5
94
330
1F
100
AcDbEntity
  8
0
  6
Continuous
 62
     7
370
    25
100
AcDbSpline
210
0.0
220
0.0
230
1.0
 70
     8
 71
     3
 72
     8
 73
     4
 74
     0
 42
0.000000001
 43
0.00000001
 40
0.0
 40
0.0
 40
0.0
 40
0.0
 40
1.0
 40
1.0
 40
1.0
 40
1.0
 10
75.0544705202312
 20
35.99616023496131
 30
0.0
 10
75.02878737868276
 20
35.78772007603516
 30
0.0
 10
75.00196307175094
 20
35.57946771648893
 30
0.0
 10
74.97408576250187
 20
35.37138864749733
 30
0.0
  0
LINE
  5
95
330
1F
100
AcDbEntity
  8
0
  6
Continuous
 62
     7
370
    25
100
AcDbLine
 10
74.9740857625
 20
35.3713886475
 30
0.0
 11
63.9897153057
 21
35.3713886475
 31
0.0
  0
SPLINE
  5
96
330
1F
100
AcDbEntity
  8
0
  6
Continuous
 62
     7
370
    25
100
AcDbSpline
210
0.0
220
0.0
230
1.0
 70
     8
 71
     3
 72
    10
 73
     6
 74
     0
 42
0.000000001
 43
0.00000001
 40
0.0
 40
0.0
 40
0.0
 40
0.0
 40
0.5000000000000001
 40
0.5000000000000001
 40
1.0
 40
1.0
 40
1.0
 40
1.0
 10
63.9897153056687
 20
35.37138864749733
 30
0.0
 10
63.85476354429376
 20
36.37868230754171
 30
0.0
 10
63.74441401663513
 20
37.3921843618899
 30
0.0
 10
63.59416513647822
 20
39.41447240590607
 30
0.0
 10
63.55447052023121
 20
40.42459284003382
 30
0.0
 10
63.55447052023121
 20
41.43356647398841
 30
0.0
  0
SPLINE
  5
97
330
1F
100
AcDbEntity
  8
0
  6
Continuous
 62
     7
370
    25
100
AcDbSpline
210
0.0
220
0.0
230
1.0
 70
     8
 71
     3
 72
    10
 73
     6
 74
     0
 42
0.000000001
 43
0.00000001
 40
0.0
 40
0.0
 40
0.0
 40
0.0
 40
0.5
 40
0.5
 40
1.0
 40
1.0
 40
1.0
 40
1.0
 10
63.55447052023121
 20
41.43356647398841
 30
0.0
 10
63.55447052023121
 20
42.44602519021363
 30
0.0
 10
63.59442502664835
 20
43.45732959788999
 30
0.0
 10
63.7447209931071
 20
45.47790489388325
 30
0.0
 10
63.8545945567177
 20
46.48718929999573
 30
0.0
 10
63.9897153056687
 20
47.4957443004795
 30
0.0
  0
SPLINE
  5
98
330
1F
100
AcDbEntity
  8
0
  6
Continuous
 62
     7
370
    25
100
AcDbSpline
210
0.0
220
0.0
230
1.0
 70
     8
 71
     3
 72
     8
 73
     4
 74
     0
 42
0.000000001
 43
0.00000001
 40
0.0
 40
0.0
 40
0.0
 40
0.0
 40
1.0
 40
1.0
 40
1.0
 40
1.0
 10
74.97408576250187
 20
47.4957443004795
 30
0.0
 10
75.0019739248671
 20
47.28758422272598
 30
0.0
 10
75.02879764094989
 20
47.07932958506703
 30
0.0
 10
75.0544705202312
 20
46.87097271301552
 30
0.0
  0
SPLINE
  5
99
330
1F
100
AcDbEntity
  8
0
  6
Continuous
 62
     7
370
    25
100
AcDbSpline
210
0.0
220
0.0
230
1.0
 70
     8
 71
     3
 72
     8
 73
     4
 74
     0
 42
0.000000001
 43
0.00000001
 40
0.0
 40
0.0
 40
0.0
 40
0.0
 40
1.0
 40
1.0
 40
1.0
 40
1.0
 10
75.0544705202312
 20
46.87097271301552
 30
0.0
 10
75.08015366177966
 20
47.07941287194166
 30
0.0
 10
75.10697796871149
 20
47.28766523148791
 30
0.0
 10
75.13485527796054
 20
47.4957443004795
 30
0.0
  0
SPLINE
  5
9A
330
1F
100
AcDbEntity
  8
0
  6
Continuous
 62
     7
370
    25
100
AcDbSpline
210
0.0
220
0.0
230
1.0
 70
     8
 71
     3
 72
    10
 73
     6
 74
     0
 42
0.000000001
 43
0.00000001
 40
0.0
 40
0.0
 40
0.0
 40
0.0
 40
0.5000000000000002
 40
0.5000000000000002
 40
1.0
 40
1.0
 40
1.0
 40
1.0
 10
63.98971530566856
 20
35.37138864749733
 30
0.0
 10
63.85435233458672
 20
34.8662071619564
 30
0.0
 10
63.7444386645336
 20
34.36102567641549
 30
0.0
 10
63.59426693129214
 20
33.35066270533365
 30
0.0
 10
63.55447052023121
 20
32.84548121979274
 30
0.0
 10
63.55447052023121
 20
32.34029973425181
 30
0.0
  0
LINE
  5
9B
330
1F
100
AcDbEntity
  8
0
  6
Continuous
 62
     7
370
    25
100
AcDbLine
 10
63.5544705202
 20
41.433566474
 30
0.0
 11
63.5544705202
 21
32.3402997343
 31
0.0
  0
LINE
  5
9C
330
1F
100
AcDbEntity
  8
0
  6
Continuous
 62
     7
370
    25
100
AcDbLine
 10
63.5544705202
 20
50.5268332137
 30
0.0
 11
63.5544705202
 21
41.433566474
 31
0.0
  0
SPLINE
  5
9D
330
1F
100
AcDbEntity
  8
0
  6
Continuous
 62
     7
370
    25
100
AcDbSpline
210
0.0
220
0.0
230
1.0
 70
     8
 71
     3
 72
    10
 73
     6
 74
     0
 42
0.000000001
 43
0.00000001
 40
0.0
 40
0.0
 40
0.0
 40
0.0
 40
0.5
 40
0.5
 40
1.0
 40
1.0
 40
1.0
 40
1.0
 10
63.55447052023121
 20
41.43356647398841
 30
0.0
 10
63.55447052023121
 20
42.44602519021363
 30
0.0
 10
63.51451601381407
 20
43.45732959788999
 30
0.0
 10
63.36422004735531
 20
45.47790489388325
 30
0.0
 10
63.25434648374471
 20
46.48718929999573
 30
0.0
 10
63.11922573479372
 20
47.4957443004795
 30
0.0
  0
SPLINE
  5
9E
330
1F
100
AcDbEntity
  8
0
  6
Continuous
 62
     7
370
    25
100
AcDbSpline
210
0.0
220
0.0
230
1.0
 70
     8
 71
     3
 72
    10
 73
     6
 74
     0
 42
0.000000001
 43
0.00000001
 40
0.0
 40
0.0
 40
0.0
 40
0.0
 40
0.5000000000000001
 40
0.5000000000000001
 40
1.0
 40
1.0
 40
1.0
 40
1.0
 10
63.11922573479372
 20
35.37138864749733
 30
0.0
 10
63.25417749616866
 20
36.37868230754171
 30
0.0
 10
63.36452702382729
 20
37.3921843618899
 30
0.0
 10
63.51477590398419
 20
39.41447240590607
 30
0.0
 10
63.55447052023121
 20
40.42459284003382
 30
0.0
 10
63.55447052023121
 20
41.43356647398841
 30
0.0
  0
LINE
  5
9F
330
1F
100
AcDbEntity
  8
0
  6
Continuous
 62
     7
370
    25
100
AcDbLine
 10
63.1192257348
 20
35.3713886475
 30
0.0
 11
48.636630261
 21
35.3713886475
 31
0.0
  0
SPLINE
  5
A0
330
1F
100
AcDbEntity
  8
0
  6
Continuous
 62
     7
370
    25
100
AcDbSpline
210
0.0
220
0.0
230
1.0
 70
     8
 71
     3
 72
    16
 73
    12
 74
     0
 42
0.000000001
 43
0.00000001
 40
0.0
 40
0.0
 40
0.0
 40
0.0
 40
0.2499999999999999
 40
0.2499999999999999
 40
0.4999999999999999
 40
0.4999999999999999
 40
0.6249999999999999
 40
0.6249999999999999
 40
0.7499999999999998
 40
0.7499999999999998
 40
1.0
 40
1.0
 40
1.0
 40
1.0
 10
48.63663026103752
 20
35.37138864749732
 30
0.0
 10
48.35160444906717
 20
36.35874702309977
 30
0.0
 10
48.11303764535214
 20
37.36844367743389
 30
0.0
 10
47.78684000418433
 20
39.39177677317538
 30
0.0
 10
47.69868091858348
 20
40.40996091127951
 30
0.0
 10
47.69887188206489
 20
41.94875466403231
 30
0.0
 10
47.72082680214537
 20
42.46443997506571
 30
0.0
 10
47.80761327143944
 20
43.4959562205554
 30
0.0
 10
47.87183476125649
 20
44.0062561876444
 30
0.0
 10
48.11820690302132
 20
45.52308170615542
 30
0.0
 10
48.3536955606637
 20
46.51562974793598
 30
0.0
 10
48.63663026103755
 20
47.4957443004795
 30
0.0
  0
LINE
  5
A1
330
1F
100
AcDbEntity
  8
0
  6
Continuous
 62
     7
370
    25
100
AcDbLine
 10
75.0544705202
 20
47.8081300942
 30
0.0
 11
75.0544705202
 21
46.870972713
 31
0.0
  0
SPLINE
  5
A2
330
1F
100
AcDbEntity
  8
0
  6
Continuous
 62
     7
370
    25
100
AcDbSpline
210
0.0
220
0.0
230
1.0
 70
     8
 71
     3
 72
    16
 73
    12
 74
     0
 42
0.000000001
 43
0.00000001
 40
0.0
 40
0.0
 40
0.0
 40
0.0
 40
0.2500000000000001
 40
0.2500000000000001
 40
0.5000000000000002
 40
0.5000000000000002
 40
0.6250000000000002
 40
0.6250000000000002
 40
0.7500000000000003
 40
0.7500000000000003
 40
1.0
 40
1.0
 40
1.0
 40
1.0
 10
78.47231077942521
 20
35.37138864749735
 30
0.0
 10
78.75805257670788
 20
34.87646933675772
 30
0.0
 10
78.99355557686309
 20
34.37794168256787
 30
0.0
 10
79.31980369402956
 20
33.37048930679461
 30
0.0
 10
79.40947265900047
 20
32.86148729183657
 30
0.0
 10
79.4104575654027
 20
32.08839445474153
 30
0.0
 10
79.38853698859292
 20
31.82948417401354
 30
0.0
 10
79.30305827085854
 20
31.31733235016268
 30
0.0
 10
79.23958688239205
 20
31.06297349243738
 30
0.0
 10
78.99449464519367
 20
30.30442542971859
 30
0.0
 10
78.75840877763649
 20
29.80474708985223
 30
0.0
 10
78.47231077942504
 20
29.30921082100629
 30
0.0
  0
LINE
  5
A3
330
1F
100
AcDbEntity
  8
0
  6
Continuous
 62
     7
370
    25
100
AcDbLine
 10
79.5544705202
 20
51.683566474
 30
0.0
 11
79.5544705202
 21
31.183566474
 31
0.0
  0
SPLINE
  5
A4
330
1F
100
AcDbEntity
  8
0
  6
Continuous
 62
     7
370
    25
100
AcDbSpline
210
0.0
220
0.0
230
1.0
 70
     8
 71
     3
 72
    10
 73
     6
 74
     0
 42
0.000000001
 43
0.00000001
 40
0.0
 40
0.0
 40
0.0
 40
0.0
 40
0.5000000000000002
 40
0.5000000000000002
 40
1.0
 40
1.0
 40
1.0
 40
1.0
 10
63.11922573479385
 20
35.37138864749733
 30
0.0
 10
63.25458870587569
 20
34.8662071619564
 30
0.0
 10
63.36450237592882
 20
34.36102567641549
 30
0.0
 10
63.51467410917028
 20
33.35066270533365
 30
0.0
 10
63.55447052023121
 20
32.84548121979274
 30
0.0
 10
63.55447052023121
 20
32.34029973425181
 30
0.0
  0
LINE
  5
A5
330
1F
100
AcDbEntity
  8
0
  6
Continuous
 62
     7
370
    25
100
AcDbLine
 10
75.0544705202
 20
35.996160235
 30
0.0
 11
75.0544705202
 21
35.0590028538
 31
0.0
  0
SPLINE
  5
A6
330
1F
100
AcDbEntity
  8
0
  6
Continuous
 62
     7
370
    25
100
AcDbSpline
210
0.0
220
0.0
230
1.0
 70
     8
 71
     3
 72
     8
 73
     4
 74
     0
 42
0.000000001
 43
0.00000001
 40
0.0
 40
0.0
 40
0.0
 40
0.0
 40
1.0
 40
1.0
 40
1.0
 40
1.0
 10
74.97408576250187
 20
35.37138864749733
 30
0.0
 10
75.00197247108365
 20
35.26731403421427
 30
0.0
 10
75.02879626725003
 20
35.16318686415227
 30
0.0
 10
75.0544705202312
 20
35.05900285376534
 30
0.0
  0
SPLINE
  5
A7
330
1F
100
AcDbEntity
  8
0
  6
Continuous
 62
     7
370
    25
100
AcDbSpline
210
0.0
220
0.0
230
1.0
 70
     8
 71
     3
 72
     8
 73
     4
 74
     0
 42
0.000000001
 43
0.00000001
 40
0.0
 40
0.0
 40
0.0
 40
0.0
 40
1.0
 40
1.0
 40
1.0
 40
1.0
 10
75.0544705202312
 20
35.05900285376534
 30
0.0
 10
75.08015414399938
 20
35.16322489003648
 30
0.0
 10
75.10697847827393
 20
35.26735101471444
 30
0.0
 10
75.13485527796054
 20
35.37138864749733
 30
0.0
  0
SPLINE
  5
A8
330
1F
100
AcDbEntity
  8
0
  6
Continuous
 62
     7
370
    25
100
AcDbSpline
210
0.0
220
0.0
230
1.0
 70
     8
 71
     3
 72
    16
 73
    12
 74
     0
 42
0.000000001
 43
0.00000001
 40
0.0
 40
0.0
 40
0.0
 40
0.0
 40
0.2500000000000001
 40
0.2500000000000001
 40
0.5000000000000002
 40
0.5000000000000002
 40
0.6250000000000001
 40
0.6250000000000001
 40
0.7500000000000001
 40
0.7500000000000001
 40
1.0
 40
1.0
 40
1.0
 40
1.0
 10
48.63663026103721
 20
29.30921082100628
 30
0.0
 10
48.35088846375454
 20
29.80413013174592
 30
0.0
 10
48.11538546359933
 20
30.30265778593576
 30
0.0
 10
47.78913734643285
 20
31.31011016170902
 30
0.0
 10
47.69946838146194
 20
31.81911217666705
 30
0.0
 10
47.69848347505971
 20
32.5922050137621
 30
0.0
 10
47.72040405186949
 20
32.85111529449009
 30
0.0
 10
47.80588276960388
 20
33.36326711834095
 30
0.0
 10
47.86935415807037
 20
33.61762597606625
 30
0.0
 10
48.11444639526874
 20
34.37617403878504
 30
0.0
 10
48.35053226282594
 20
34.87585237865139
 30
0.0
 10
48.63663026103738
 20
35.37138864749734
 30
0.0
  0
LINE
  5
A9
330
1F
100
AcDbEntity
  8
0
  6
Continuous
 62
     7
370
    25
100
AcDbLine
 10
47.5544705202
 20
41.433566474
 30
0.0
 11
47.5544705202
 21
51.683566474
 31
0.0
  0
LINE
  5
AA
330
1F
100
AcDbEntity
  8
0
  6
Continuous
 62
     7
370
    25
100
AcDbLine
 10
47.5544705202
 20
31.183566474
 30
0.0
 11
47.5544705202
 21
41.433566474
 31
0.0
  0
LINE
  5
AB
330
1F
100
AcDbEntity
  8
0
  6
Continuous
 62
     7
370
    25
100
AcDbLine
 10
78.4723107794
 20
29.309210821
 30
0.0
 11
75.134855278
 21
29.309210821
 31
0.0
  0
SPLINE
  5
AC
330
1F
100
AcDbEntity
  8
0
  6
Continuous
 62
     7
370
    25
100
AcDbSpline
210
0.0
220
0.0
230
1.0
 70
     8
 71
     3
 72
     8
 73
     4
 74
     0
 42
0.000000001
 43
0.00000001
 40
0.0
 40
0.0
 40
0.0
 40
0.0
 40
1.0
 40
1.0
 40
1.0
 40
1.0
 10
75.13485527796054
 20
29.3092108210063
 30
0.0
 10
75.10696856937876
 20
29.41328543428937
 30
0.0
 10
75.08014477321237
 20
29.51741260435136
 30
0.0
 10
75.0544705202312
 20
29.62159661473829
 30
0.0
  0
SPLINE
  5
AD
330
1F
100
AcDbEntity
  8
0
  6
Continuous
 62
     7
370
    25
100
AcDbSpline
210
0.0
220
0.0
230
1.0
 70
     8
 71
     3
 72
     8
 73
     4
 74
     0
 42
0.000000001
 43
0.00000001
 40
0.0
 40
0.0
 40
0.0
 40
0.0
 40
1.0
 40
1.0
 40
1.0
 40
1.0
 10
75.0544705202312
 20
29.62159661473829
 30
0.0
 10
75.02878689646303
 20
29.51737457846715
 30
0.0
 10
75.0019625621885
 20
29.41324845378919
 30
0.0
 10
74.97408576250187
 20
29.3092108210063
 30
0.0
  0
LINE
  5
AE
330
1F
100
AcDbEntity
  8
0
  6
Continuous
 62
     7
370
    25
100
AcDbLine
 10
74.9740857625
 20
29.309210821
 30
0.0
 11
63.9897153057
 21
29.309210821
 31
0.0
  0
SPLINE
  5
AF
330
1F
100
AcDbEntity
  8
0
  6
Continuous
 62
     7
370
    25
100
AcDbSpline
210
0.0
220
0.0
230
1.0
 70
     8
 71
     3
 72
    10
 73
     6
 74
     0
 42
0.000000001
 43
0.00000001
 40
0.0
 40
0.0
 40
0.0
 40
0.0
 40
0.5
 40
0.5
 40
1.0
 40
1.0
 40
1.0
 40
1.0
 10
63.55447052023121
 20
32.34029973425181
 30
0.0
 10
63.55447052023121
 20
31.8351182487109
 30
0.0
 10
63.59426693129214
 20
31.32993676316998
 30
0.0
 10
63.7444386645336
 20
30.31957379208814
 30
0.0
 10
63.85435233458672
 20
29.81439230654722
 30
0.0
 10
63.98971530566856
 20
29.3092108210063
 30
0.0
  0
SPLINE
  5
B0
330
1F
100
AcDbEntity
  8
0
  6
Continuous
 62
     7
370
    25
100
AcDbSpline
210
0.0
220
0.0
230
1.0
 70
     8
 71
     3
 72
    10
 73
     6
 74
     0
 42
0.000000001
 43
0.00000001
 40
0.0
 40
0.0
 40
0.0
 40
0.0
 40
0.5
 40
0.5
 40
1.0
 40
1.0
 40
1.0
 40
1.0
 10
63.55447052023121
 20
32.34029973425181
 30
0.0
 10
63.55447052023121
 20
31.8351182487109
 30
0.0
 10
63.51467410917028
 20
31.32993676316998
 30
0.0
 10
63.36450237592882
 20
30.31957379208814
 30
0.0
 10
63.25458870587569
 20
29.81439230654722
 30
0.0
 10
63.11922573479385
 20
29.3092108210063
 30
0.0
  0
LINE
  5
B1
330
1F
100
AcDbEntity
  8
0
  6
Continuous
 62
     7
370
    25
100
AcDbLine
 10
63.1192257348
 20
29.309210821
 30
0.0
 11
48.636630261
 21
29.309210821
 31
0.0
  0
LINE
  5
B2
330
1F
100
AcDbEntity
  8
0
  6
Continuous
 62
     7
370
    25
100
AcDbLine
 10
63.5544705202
 20
51.933566474
 30
0.0
 11
63.5544705202
 21
50.5268332137
 31
0.0
  0
LINE
  5
B3
330
1F
100
AcDbEntity
  8
0
  6
Continuous
 62
     7
370
    25
100
AcDbLine
 10
63.5544705202
 20
32.3402997343
 30
0.0
 11
63.5544705202
 21
30.933566474
 31
0.0
  0
LINE
  5
B4
330
1F
100
AcDbEntity
  8
0
  6
Continuous
 62
     7
370
    25
100
AcDbLine
 10
75.0544705202
 20
53.257922127
 30
0.0
 11
75.0544705202
 21
53.2455363332
 31
0.0
  0
LINE
  5
B5
330
1F
100
AcDbEntity
  8
0
  6
Continuous
 62
     7
370
    25
100
AcDbLine
 10
75.0544705202
 20
29.6215966147
 30
0.0
 11
75.0544705202
 21
29.609210821
 31
0.0
  0
LINE
  5
B6
330
1F
100
AcDbEntity
  8
0
  6
CENTERX2
 62
     7
370
    18
100
AcDbLine
 10
77.4723107794
 20
41.433566474
 30
0.0
 11
80.5544705202
 21
41.433566474
 31
0.0
  0
LINE
  5
B7
330
1F
100
AcDbEntity
  8
0
  6
CENTERX2
 62
     7
370
    18
100
AcDbLine
 10
78.4723107794
 20
41.433566474
 30
0.0
 11
74.134855278
 21
41.433566474
 31
0.0
  0
LINE
  5
B8
330
1F
100
AcDbEntity
  8
0
  6
CENTERX2
 62
     7
370
    18
100
AcDbLine
 10
75.9740857625
 20
41.433566474
 30
0.0
 11
62.9897153057
 21
41.433566474
 31
0.0
  0
LINE
  5
B9
330
1F
100
AcDbEntity
  8
0
  6
CENTERX2
 62
     7
370
    18
100
AcDbLine
 10
64.1192257348
 20
41.433566474
 30
0.0
 11
47.636630261
 21
41.433566474
 31
0.0
  0
LINE
  5
BA
330
1F
100
AcDbEntity
  8
0
  6
CENTERX2
 62
     7
370
    18
100
AcDbLine
 10
49.636630261
 20
41.433566474
 30
0.0
 11
46.5544705202
 21
41.433566474
 31
0.0
  0
SPLINE
  5
BB
330
1F
100
AcDbEntity
  8
0
  6
Continuous
 62
     7
370
    25
100
AcDbSpline
210
0.0
220
0.0
230
1.0
 70
    24
 71
     3
 72
    16
 73
    12
 74
     0
 42
0.000000001
 43
0.00000001
 40
0.0
 40
0.0
 40
0.0
 40
0.0
 40
0.2500000000000001
 40
0.2500000000000001
 40
0.5
 40
0.5
 40
0.625
 40
0.625
 40
0.7499999999999999
 40
0.7499999999999999
 40
1.0
 40
1.0
 40
1.0
 40
1.0
 10
121.8270254335261
 20
35.37138864749746
 30
0.0
 10
121.8270254335261
 20
36.35817032948011
 30
0.0
 10
121.8270254335261
 20
37.36817088394866
 30
0.0
 10
121.827025433526
 20
39.3922367960138
 30
0.0
 10
121.827025433526
 20
40.41034405063436
 30
0.0
 10
121.827025433526
 20
41.94820777203052
 30
0.0
 10
121.827025433526
 20
42.46259198186424
 30
0.0
 10
121.827025433526
 20
43.49484535763406
 30
0.0
 10
121.827025433526
 20
44.00554642938785
 30
0.0
 10
121.827025433526
 20
45.52308130158406
 30
0.0
 10
121.827025433526
 20
46.5157388935918
 30
0.0
 10
121.8270254335259
 20
47.49574430047965
 30
0.0
  0
SPLINE
  5
BC
330
1F
100
AcDbEntity
  8
0
  6
Continuous
 62
     7
370
    25
100
AcDbSpline
210
0.0
220
0.0
230
1.0
 70
    24
 71
     3
 72
    16
 73
    12
 74
     0
 42
0.000000001
 43
0.00000001
 40
0.0
 40
0.0
 40
0.0
 40
0.0
 40
0.2500000000000001
 40
0.2500000000000001
 40
0.5000000000000002
 40
0.5000000000000002
 40
0.6250000000000002
 40
0.6250000000000002
 40
0.7500000000000003
 40
0.7500000000000003
 40
1.0
 40
1.0
 40
1.0
 40
1.0
 10
111.327025433526
 20
29.30921082100628
 30
0.0
 10
112.1842508253741
 20
29.80413013174593
 30
0.0
 10
113.047726051409
 20
30.30265778593578
 30
0.0
 10
114.7926847524543
 20
31.31011016170907
 30
0.0
 10
115.6743021035165
 20
31.81911217666712
 30
0.0
 10
117.0133381763327
 20
32.59220501376218
 30
0.0
 10
117.4617839371555
 20
32.85111529449018
 30
0.0
 10
118.3488569172543
 20
33.36326711834105
 30
0.0
 10
118.7894193821897
 20
33.61762597606635
 30
0.0
 10
120.1032631668016
 20
34.37617403878517
 30
0.0
 10
120.9687314388918
 20
34.87585237865152
 30
0.0
 10
121.8270254335261
 20
35.37138864749749
 30
0.0
  0
SPLINE
  5
BD
330
1F
100
AcDbEntity
  8
0
  6
Continuous
 62
     7
370
    25
100
AcDbSpline
210
0.0
220
0.0
230
1.0
 70
    24
 71
     3
 72
    16
 73
    12
 74
     0
 42
0.000000001
 43
0.00000001
 40
0.0
 40
0.0
 40
0.0
 40
0.0
 40
0.2500000000000001
 40
0.2500000000000001
 40
0.5000000000000002
 40
0.5000000000000002
 40
0.6250000000000002
 40
0.6250000000000002
 40
0.7500000000000003
 40
0.7500000000000003
 40
1.0
 40
1.0
 40
1.0
 40
1.0
 10
100.827025433526
 20
35.37138864749735
 30
0.0
 10
101.684250825374
 20
34.87646933675772
 30
0.0
 10
102.547726051409
 20
34.37794168256787
 30
0.0
 10
104.2926847524542
 20
33.37048930679461
 30
0.0
 10
105.1743021035165
 20
32.86148729183657
 30
0.0
 10
106.5133381763327
 20
32.08839445474153
 30
0.0
 10
106.9617839371555
 20
31.82948417401354
 30
0.0
 10
107.8488569172543
 20
31.31733235016268
 30
0.0
 10
108.2894193821897
 20
31.06297349243738
 30
0.0
 10
109.6032631668016
 20
30.30442542971859
 30
0.0
 10
110.4687314388918
 20
29.80474708985223
 30
0.0
 10
111.3270254335261
 20
29.30921082100629
 30
0.0
  0
SPLINE
  5
BE
330
1F
100
AcDbEntity
  8
0
  6
Continuous
 62
     7
370
    25
100
AcDbSpline
210
0.0
220
0.0
230
1.0
 70
    24
 71
     3
 72
    16
 73
    12
 74
     0
 42
0.000000001
 43
0.00000001
 40
0.0
 40
0.0
 40
0.0
 40
0.0
 40
0.25
 40
0.25
 40
0.5
 40
0.5
 40
0.625
 40
0.625
 40
0.75
 40
0.75
 40
1.0
 40
1.0
 40
1.0
 40
1.0
 10
100.827025433526
 20
35.37138864749732
 30
0.0
 10
100.827025433526
 20
36.35817032948
 30
0.0
 10
100.827025433526
 20
37.36817088394857
 30
0.0
 10
100.827025433526
 20
39.39223679601344
 30
0.0
 10
100.827025433526
 20
40.41034405063379
 30
0.0
 10
100.827025433526
 20
41.9482077720295
 30
0.0
 10
100.827025433526
 20
42.46259198186304
 30
0.0
 10
100.827025433526
 20
43.49484535763246
 30
0.0
 10
100.827025433526
 20
44.00554642938692
 30
0.0
 10
100.827025433526
 20
45.52308130158365
 30
0.0
 10
100.827025433526
 20
46.51573889359157
 30
0.0
 10
100.827025433526
 20
47.4957443004795
 30
0.0
  0
SPLINE
  5
BF
330
1F
100
AcDbEntity
  8
0
  6
Continuous
 62
     7
370
    25
100
AcDbSpline
210
0.0
220
0.0
230
1.0
 70
    24
 71
     3
 72
    16
 73
    12
 74
     0
 42
0.000000001
 43
0.00000001
 40
0.0
 40
0.0
 40
0.0
 40
0.0
 40
0.2499999999999999
 40
0.2499999999999999
 40
0.4999999999999998
 40
0.4999999999999998
 40
0.6249999999999998
 40
0.6249999999999998
 40
0.7499999999999999
 40
0.7499999999999999
 40
1.0
 40
1.0
 40
1.0
 40
1.0
 10
111.327025433526
 20
53.55792212697062
 30
0.0
 10
110.469800041678
 20
53.06300281623098
 30
0.0
 10
109.6063248156431
 20
52.56447516204113
 30
0.0
 10
107.8613661145978
 20
51.55702278626786
 30
0.0
 10
106.9797487635355
 20
51.04802077130981
 30
0.0
 10
105.6407126907193
 20
50.27492793421477
 30
0.0
 10
105.1922669298965
 20
50.01601765348677
 30
0.0
 10
104.3051939497978
 20
49.50386582963591
 30
0.0
 10
103.8646314848624
 20
49.2495069719106
 30
0.0
 10
102.5507877002505
 20
48.4909589091918
 30
0.0
 10
101.6853194281603
 20
47.99128056932545
 30
0.0
 10
100.8270254335259
 20
47.49574430047949
 30
0.0
  0
SPLINE
  5
C0
330
1F
100
AcDbEntity
  8
0
  6
Continuous
 62
     7
370
    25
100
AcDbSpline
210
0.0
220
0.0
230
1.0
 70
    24
 71
     3
 72
    16
 73
    12
 74
     0
 42
0.000000001
 43
0.00000001
 40
0.0
 40
0.0
 40
0.0
 40
0.0
 40
0.2500000000000001
 40
0.2500000000000001
 40
0.5000000000000001
 40
0.5000000000000001
 40
0.6250000000000001
 40
0.6250000000000001
 40
0.7500000000000001
 40
0.7500000000000001
 40
1.0
 40
1.0
 40
1.0
 40
1.0
 10
121.827025433526
 20
47.49574430047963
 30
0.0
 10
120.969800041678
 20
47.99066361121926
 30
0.0
 10
120.106324815643
 20
48.48919126540909
 30
0.0
 10
118.3613661145978
 20
49.49664364118235
 30
0.0
 10
117.4797487635355
 20
50.00564565614037
 30
0.0
 10
116.1407126907193
 20
50.77873849323542
 30
0.0
 10
115.6922669298965
 20
51.0376487739634
 30
0.0
 10
114.8051939497978
 20
51.54980059781425
 30
0.0
 10
114.3646314848624
 20
51.80415945553954
 30
0.0
 10
113.0507877002505
 20
52.56270751825833
 30
0.0
 10
112.1853194281603
 20
53.06238585812467
 30
0.0
 10
111.327025433526
 20
53.55792212697061
 30
0.0
  0
CIRCLE
  5
C1
330
1F
100
AcDbEntity
  8
0
  6
Continuous
 62
     7
370
    25
100
AcDbCircle
 10
111.3270254335
 20
41.433566474
 30
0.0
 40
10.25
  0
CIRCLE
  5
C2
330
1F
100
AcDbEntity
  8
0
  6
Continuous
 62
     7
370
    25
100
AcDbCircle
 10
111.3270254335
 20
41.433566474
 30
0.0
 40
8.5
  0
CIRCLE
  5
C3
330
1F
100
AcDbEntity
  8
0
  6
Continuous
 62
     7
370
    25
100
AcDbCircle
 10
111.3270254335
 20
41.433566474
 30
0.0
 40
7.905177158368943
  0
CIRCLE
  5
C4
330
1F
100
AcDbEntity
  8
0
  6
Continuous
 62
     7
370
    25
100
AcDbCircle
 10
111.3270254335
 20
41.433566474
 30
0.0
 40
7.547130736683584
  0
CIRCLE
  5
C5
330
1F
100
AcDbEntity
  8
0
  6
Continuous
 62
     7
370
    25
100
AcDbCircle
 10
111.3270254335
 20
41.433566474
 30
0.0
 40
7.474999999999994
  0
CIRCLE
  5
C6
330
1F
100
AcDbEntity
  8
0
  6
Continuous
 62
     7
370
    25
100
AcDbCircle
 10
111.3270254335
 20
41.433566474
 30
0.0
 40
7.249999999999986
  0
INSERT
  5
D2
330
1F
100
AcDbEntity
  8
0
  6
Continuous
 62
     7
370
    18
100
AcDbBlockReference
  2
SW_CENTERMARKSYMBOL_0
 10
111.3270254335
 20
41.433566474
 30
0.0
  0
ARC
  5
D3
330
1F
100
AcDbEntity
  8
0
  6
Continuous
 62
     7
370
    18
100
AcDbCircle
 10
111.3270254335
 20
41.433566474
 30
0.0
 40
8.365338499999996
100
AcDbArc
 50
75.0
 51
345.0
  0
LINE
  5
D4
330
1F
100
AcDbEntity
  8
0
  6
Continuous
 62
     7
370
    25
100
AcDbLine
 10
79.4101329529
 20
70.6342069364
 30
0.0
 11
79.5544705202
 21
70.8842069364
 31
0.0
  0
LINE
  5
D5
330
1F
100
AcDbEntity
  8
0
  6
Continuous
 62
     7
370
    25
100
AcDbLine
 10
79.5544705202
 20
91.3842069364
 30
0.0
 11
79.4101329529
 21
91.6342069364
 31
0.0
  0
LINE
  5
D6
330
1F
100
AcDbEntity
  8
0
  6
Continuous
 62
     7
370
    25
100
AcDbLine
 10
47.6988080875
 20
91.6342069364
 30
0.0
 11
47.5544705202
 21
91.3842069364
 31
0.0
  0
LINE
  5
D7
330
1F
100
AcDbEntity
  8
0
  6
Continuous
 62
     7
370
    25
100
AcDbLine
 10
47.5544705202
 20
70.8842069364
 30
0.0
 11
47.6988080875
 21
70.6342069364
 31
0.0
  0
LINE
  5
D8
330
1F
100
AcDbEntity
  8
0
  6
Continuous
 62
     7
370
    25
100
AcDbLine
 10
78.4723107794
 20
91.6342069364
 30
0.0
 11
75.134855278
 21
91.6342069364
 31
0.0
  0
SPLINE
  5
D9
330
1F
100
AcDbEntity
  8
0
  6
Continuous
 62
     7
370
    25
100
AcDbSpline
210
0.0
220
0.0
230
1.0
 70
     8
 71
     3
 72
    16
 73
    12
 74
     0
 42
0.000000001
 43
0.00000001
 40
0.0
 40
0.0
 40
0.0
 40
0.0
 40
0.2500000000000001
 40
0.2500000000000001
 40
0.5000000000000001
 40
0.5000000000000001
 40
0.6250000000000001
 40
0.6250000000000001
 40
0.7500000000000001
 40
0.7500000000000001
 40
1.0
 40
1.0
 40
1.0
 40
1.0
 10
78.47231077942521
 20
91.63420693641618
 30
0.0
 10
78.75805257670787
 20
90.77698154456814
 30
0.0
 10
78.99355557686307
 20
89.91350631853322
 30
0.0
 10
79.31980369402953
 20
88.16854761748795
 30
0.0
 10
79.40947265900044
 20
87.2869302664257
 30
0.0
 10
79.41045756540268
 20
85.94789419360951
 30
0.0
 10
79.38853698859289
 20
85.49944843278672
 30
0.0
 10
79.30305827085851
 20
84.61237545268794
 30
0.0
 10
79.23958688239203
 20
84.17181298775255
 30
0.0
 10
78.99449464519367
 20
82.85796920314066
 30
0.0
 10
78.75840877763648
 20
81.99250093105047
 30
0.0
 10
78.47231077942504
 20
81.13420693641616
 30
0.0
  0
LINE
  5
DA
330
1F
100
AcDbEntity
  8
0
  6
Continuous
 62
     7
370
    25
100
AcDbLine
 10
78.4723107794
 20
81.1342069364
 30
0.0
 11
75.134855278
 21
81.1342069364
 31
0.0
  0
SPLINE
  5
DB
330
1F
100
AcDbEntity
  8
0
  6
Continuous
 62
     7
370
    25
100
AcDbSpline
210
0.0
220
0.0
230
1.0
 70
     8
 71
     3
 72
     8
 73
     4
 74
     0
 42
0.000000001
 43
0.00000001
 40
0.0
 40
0.0
 40
0.0
 40
0.0
 40
1.0
 40
1.0
 40
1.0
 40
1.0
 10
75.13485527796054
 20
81.13420693641619
 30
0.0
 10
75.10696856937876
 20
81.31446945440055
 30
0.0
 10
75.08014477321237
 20
81.49482300339629
 30
0.0
 10
75.0544705202312
 20
81.67527500272274
 30
0.0
  0
SPLINE
  5
DC
330
1F
100
AcDbEntity
  8
0
  6
Continuous
 62
     7
370
    25
100
AcDbSpline
210
0.0
220
0.0
230
1.0
 70
     8
 71
     3
 72
     8
 73
     4
 74
     0
 42
0.000000001
 43
0.00000001
 40
0.0
 40
0.0
 40
0.0
 40
0.0
 40
1.0
 40
1.0
 40
1.0
 40
1.0
 10
75.0544705202312
 20
81.67527500272274
 30
0.0
 10
75.02878689646303
 20
81.49475714063284
 30
0.0
 10
75.0019625621885
 20
81.31440540229534
 30
0.0
 10
74.97408576250187
 20
81.13420693641619
 30
0.0
  0
LINE
  5
DD
330
1F
100
AcDbEntity
  8
0
  6
Continuous
 62
     7
370
    25
100
AcDbLine
 10
74.9740857625
 20
81.1342069364
 30
0.0
 11
63.9897153057
 21
81.1342069364
 31
0.0
  0
SPLINE
  5
DE
330
1F
100
AcDbEntity
  8
0
  6
Continuous
 62
     7
370
    25
100
AcDbSpline
210
0.0
220
0.0
230
1.0
 70
     8
 71
     3
 72
    10
 73
     6
 74
     0
 42
0.000000001
 43
0.00000001
 40
0.0
 40
0.0
 40
0.0
 40
0.0
 40
0.5
 40
0.5
 40
1.0
 40
1.0
 40
1.0
 40
1.0
 10
63.55447052023122
 20
86.38420693641616
 30
0.0
 10
63.55447052023122
 20
85.50920693641618
 30
0.0
 10
63.59426693129215
 20
84.63420693641618
 30
0.0
 10
63.74443866453361
 20
82.88420693641618
 30
0.0
 10
63.85435233458672
 20
82.00920693641618
 30
0.0
 10
63.98971530566856
 20
81.13420693641619
 30
0.0
  0
SPLINE
  5
DF
330
1F
100
AcDbEntity
  8
0
  6
Continuous
 62
     7
370
    25
100
AcDbSpline
210
0.0
220
0.0
230
1.0
 70
     8
 71
     3
 72
    10
 73
     6
 74
     0
 42
0.000000001
 43
0.00000001
 40
0.0
 40
0.0
 40
0.0
 40
0.0
 40
0.5000000000000001
 40
0.5000000000000001
 40
1.0
 40
1.0
 40
1.0
 40
1.0
 10
63.98971530566856
 20
91.63420693641613
 30
0.0
 10
63.85435233458672
 20
90.75920693641615
 30
0.0
 10
63.74443866453361
 20
89.88420693641615
 30
0.0
 10
63.59426693129215
 20
88.13420693641616
 30
0.0
 10
63.55447052023122
 20
87.25920693641616
 30
0.0
 10
63.55447052023122
 20
86.38420693641616
 30
0.0
  0
LINE
  5
E0
330
1F
100
AcDbEntity
  8
0
  6
Continuous
 62
     7
370
    25
100
AcDbLine
 10
74.9740857625
 20
91.6342069364
 30
0.0
 11
63.9897153057
 21
91.6342069364
 31
0.0
  0
SPLINE
  5
E1
330
1F
100
AcDbEntity
  8
0
  6
Continuous
 62
     7
370
    25
100
AcDbSpline
210
0.0
220
0.0
230
1.0
 70
     8
 71
     3
 72
     8
 73
     4
 74
     0
 42
0.000000001
 43
0.00000001
 40
0.0
 40
0.0
 40
0.0
 40
0.0
 40
1.0
 40
1.0
 40
1.0
 40
1.0
 10
74.97408576250187
 20
91.63420693641613
 30
0.0
 10
75.00197247108365
 20
91.45394441843179
 30
0.0
 10
75.02879626725003
 20
91.27359086943603
 30
0.0
 10
75.0544705202312
 20
91.09313887010958
 30
0.0
  0
SPLINE
  5
E2
330
1F
100
AcDbEntity
  8
0
  6
Continuous
 62
     7
370
    25
100
AcDbSpline
210
0.0
220
0.0
230
1.0
 70
     8
 71
     3
 72
     8
 73
     4
 74
     0
 42
0.000000001
 43
0.00000001
 40
0.0
 40
0.0
 40
0.0
 40
0.0
 40
1.0
 40
1.0
 40
1.0
 40
1.0
 10
75.0544705202312
 20
91.09313887010958
 30
0.0
 10
75.08015414399938
 20
91.27365673219948
 30
0.0
 10
75.10697847827393
 20
91.45400847053698
 30
0.0
 10
75.13485527796054
 20
91.63420693641613
 30
0.0
  0
LINE
  5
E3
330
1F
100
AcDbEntity
  8
0
  6
Continuous
 62
     7
370
    25
100
AcDbLine
 10
63.1192257348
 20
91.6342069364
 30
0.0
 11
48.636630261
 21
91.6342069364
 31
0.0
  0
SPLINE
  5
E4
330
1F
100
AcDbEntity
  8
0
  6
Continuous
 62
     7
370
    25
100
AcDbSpline
210
0.0
220
0.0
230
1.0
 70
     8
 71
     3
 72
    10
 73
     6
 74
     0
 42
0.000000001
 43
0.00000001
 40
0.0
 40
0.0
 40
0.0
 40
0.0
 40
0.5000000000000001
 40
0.5000000000000001
 40
1.0
 40
1.0
 40
1.0
 40
1.0
 10
63.11922573479385
 20
91.63420693641613
 30
0.0
 10
63.25458870587569
 20
90.75920693641615
 30
0.0
 10
63.36450237592881
 20
89.88420693641615
 30
0.0
 10
63.51467410917027
 20
88.13420693641616
 30
0.0
 10
63.55447052023119
 20
87.25920693641616
 30
0.0
 10
63.55447052023119
 20
86.38420693641616
 30
0.0
  0
SPLINE
  5
E5
330
1F
100
AcDbEntity
  8
0
  6
Continuous
 62
     7
370
    25
100
AcDbSpline
210
0.0
220
0.0
230
1.0
 70
     8
 71
     3
 72
    10
 73
     6
 74
     0
 42
0.000000001
 43
0.00000001
 40
0.0
 40
0.0
 40
0.0
 40
0.0
 40
0.5
 40
0.5
 40
1.0
 40
1.0
 40
1.0
 40
1.0
 10
63.55447052023119
 20
86.38420693641616
 30
0.0
 10
63.55447052023119
 20
85.50920693641618
 30
0.0
 10
63.51467410917027
 20
84.63420693641618
 30
0.0
 10
63.36450237592881
 20
82.88420693641618
 30
0.0
 10
63.25458870587569
 20
82.00920693641618
 30
0.0
 10
63.11922573479385
 20
81.13420693641619
 30
0.0
  0
LINE
  5
E6
330
1F
100
AcDbEntity
  8
0
  6
Continuous
 62
     7
370
    25
100
AcDbLine
 10
63.1192257348
 20
81.1342069364
 30
0.0
 11
48.636630261
 21
81.1342069364
 31
0.0
  0
SPLINE
  5
E7
330
1F
100
AcDbEntity
  8
0
  6
Continuous
 62
     7
370
    25
100
AcDbSpline
210
0.0
220
0.0
230
1.0
 70
     8
 71
     3
 72
    16
 73
    12
 74
     0
 42
0.000000001
 43
0.00000001
 40
0.0
 40
0.0
 40
0.0
 40
0.0
 40
0.2500000000000002
 40
0.2500000000000002
 40
0.5000000000000003
 40
0.5000000000000003
 40
0.6250000000000002
 40
0.6250000000000002
 40
0.75
 40
0.75
 40
1.0
 40
1.0
 40
1.0
 40
1.0
 10
48.63663026103721
 20
81.13420693641615
 30
0.0
 10
48.35088846375454
 20
81.99143232826418
 30
0.0
 10
48.11538546359935
 20
82.85490755429912
 30
0.0
 10
47.78913734643288
 20
84.59986625534438
 30
0.0
 10
47.69946838146197
 20
85.48148360640663
 30
0.0
 10
47.69848347505972
 20
86.82051967922281
 30
0.0
 10
47.72040405186952
 20
87.26896544004562
 30
0.0
 10
47.8058827696039
 20
88.15603842014437
 30
0.0
 10
47.86935415807039
 20
88.59660088507977
 30
0.0
 10
48.11444639526875
 20
89.91044466969167
 30
0.0
 10
48.35053226282594
 20
90.77591294178185
 30
0.0
 10
48.63663026103738
 20
91.63420693641615
 30
0.0
  0
SPLINE
  5
E8
330
1F
100
AcDbEntity
  8
0
  6
Continuous
 62
     7
370
    25
100
AcDbSpline
210
0.0
220
0.0
230
1.0
 70
    24
 71
     3
 72
    13
 73
     9
 74
     0
 42
0.000000001
 43
0.00000001
 40
0.0
 40
0.0
 40
0.0
 40
0.0
 40
0.1236797941673578
 40
0.2526198429450411
 40
0.4381983269704804
 40
0.6243646129999442
 40
0.8119985946237191
 40
1.0
 40
1.0
 40
1.0
 40
1.0
 10
79.40945520059783
 20
91.63420693641619
 30
0.0
 10
79.40663482827838
 20
91.63420693641619
 30
0.0
 10
79.40087412971656
 20
91.63420693641619
 30
0.0
 10
79.34168122988824
 20
91.63420693641618
 30
0.0
 10
79.22533675542809
 20
91.63420693641616
 30
0.0
 10
79.03018152060955
 20
91.63420693641616
 30
0.0
 10
78.78131484994528
 20
91.63420693641613
 30
0.0
 10
78.5753792808261
 20
91.63420693641613
 30
0.0
 10
78.47231077942487
 20
91.63420693641613
 30
0.0
  0
SPLINE
  5
E9
330
1F
100
AcDbEntity
  8
0
  6
Continuous
 62
     7
370
    25
100
AcDbSpline
210
0.0
220
0.0
230
1.0
 70
    24
 71
     3
 72
    14
 73
    10
 74
     0
 42
0.000000001
 43
0.00000001
 40
0.0
 40
0.0
 40
0.0
 40
0.0
 40
0.185843037032793
 40
0.3720071856022738
 40
0.5594206025842848
 40
0.747398569196351
 40
0.8722062332756482
 40
0.9970123434749836
 40
1.0
 40
1.0
 40
1.0
 40
1.0
 10
78.47231077942487
 20
70.63420693641618
 30
0.0
 10
78.57422476848366
 20
70.63420693641618
 30
0.0
 10
78.77822884013781
 20
70.63420693641618
 30
0.0
 10
79.02702069039353
 20
70.63420693641619
 30
0.0
 10
79.22324788351345
 20
70.63420693641619
 30
0.0
 10
79.34208549347414
 20
70.63420693641619
 30
0.0
 10
79.39606485073503
 20
70.6342069364162
 30
0.0
 10
79.41530810356306
 20
70.63420693641618
 30
0.0
 10
79.40987796488601
 20
70.6342069364162
 30
0.0
 10
79.40975101511636
 20
70.6342069364162
 30
0.0
  0
SPLINE
  5
EA
330
1F
100
AcDbEntity
  8
0
  6
Continuous
 62
     7
370
    25
100
AcDbSpline
210
0.0
220
0.0
230
1.0
 70
     8
 71
     3
 72
    16
 73
    12
 74
     0
 42
0.000000001
 43
0.00000001
 40
0.0
 40
0.0
 40
0.0
 40
0.0
 40
0.2499999999999999
 40
0.2499999999999999
 40
0.4999999999999998
 40
0.4999999999999998
 40
0.6249999999999998
 40
0.6249999999999998
 40
0.7499999999999999
 40
0.7499999999999999
 40
1.0
 40
1.0
 40
1.0
 40
1.0
 10
78.47231077942521
 20
81.13420693641623
 30
0.0
 10
78.75805257670788
 20
80.2769815445682
 30
0.0
 10
78.99355557686309
 20
79.41350631853327
 30
0.0
 10
79.31980369402956
 20
77.66854761748799
 30
0.0
 10
79.40947265900047
 20
76.78693026642571
 30
0.0
 10
79.4104575654027
 20
75.44789419360951
 30
0.0
 10
79.38853698859292
 20
74.99944843278672
 30
0.0
 10
79.30305827085854
 20
74.11237545268796
 30
0.0
 10
79.23958688239205
 20
73.67181298775255
 30
0.0
 10
78.99449464519367
 20
72.35796920314066
 30
0.0
 10
78.75840877763649
 20
71.49250093105044
 30
0.0
 10
78.47231077942504
 20
70.63420693641615
 30
0.0
  0
LINE
  5
EB
330
1F
100
AcDbEntity
  8
0
  6
Continuous
 62
     7
370
    25
100
AcDbLine
 10
79.5544705202
 20
91.3842069364
 30
0.0
 11
79.5544705202
 21
70.8842069364
 31
0.0
  0
SPLINE
  5
EC
330
1F
100
AcDbEntity
  8
0
  6
Continuous
 62
     7
370
    25
100
AcDbSpline
210
0.0
220
0.0
230
1.0
 70
     8
 71
     3
 72
    16
 73
    12
 74
     0
 42
0.000000001
 43
0.00000001
 40
0.0
 40
0.0
 40
0.0
 40
0.0
 40
0.2499999999999999
 40
0.2499999999999999
 40
0.4999999999999998
 40
0.4999999999999998
 40
0.6249999999999999
 40
0.6249999999999999
 40
0.75
 40
0.75
 40
1.0
 40
1.0
 40
1.0
 40
1.0
 10
48.63663026103721
 20
70.63420693641613
 30
0.0
 10
48.35088846375453
 20
71.49143232826415
 30
0.0
 10
48.11538546359932
 20
72.3549075542991
 30
0.0
 10
47.78913734643286
 20
74.09986625534438
 30
0.0
 10
47.69946838146194
 20
74.98148360640666
 30
0.0
 10
47.69848347505971
 20
76.32051967922285
 30
0.0
 10
47.72040405186949
 20
76.76896544004565
 30
0.0
 10
47.80588276960388
 20
77.65603842014441
 30
0.0
 10
47.86935415807037
 20
78.09660088507982
 30
0.0
 10
48.11444639526874
 20
79.41044466969171
 30
0.0
 10
48.35053226282594
 20
80.27591294178193
 30
0.0
 10
48.63663026103738
 20
81.13420693641622
 30
0.0
  0
SPLINE
  5
ED
330
1F
100
AcDbEntity
  8
0
  6
Continuous
 62
     7
370
    25
100
AcDbSpline
210
0.0
220
0.0
230
1.0
 70
    24
 71
     3
 72
    13
 73
     9
 74
     0
 42
0.000000001
 43
0.00000001
 40
0.0
 40
0.0
 40
0.0
 40
0.0
 40
0.1057577217938853
 40
0.235279320006074
 40
0.4250862113063614
 40
0.6155307339075443
 40
0.8075667462381831
 40
1.0
 40
1.0
 40
1.0
 40
1.0
 10
47.70142987696558
 20
70.6342069364162
 30
0.0
 10
47.70264688347035
 20
70.6342069364162
 30
0.0
 10
47.70535435918019
 20
70.6342069364162
 30
0.0
 10
47.75851693409748
 20
70.6342069364162
 30
0.0
 10
47.87166886570087
 20
70.63420693641619
 30
0.0
 10
48.06788380463443
 20
70.63420693641619
 30
0.0
 10
48.32063142908718
 20
70.63420693641618
 30
0.0
 10
48.53122478728003
 20
70.63420693641618
 30
0.0
 10
48.63663026103754
 20
70.63420693641618
 30
0.0
  0
SPLINE
  5
EE
330
1F
100
AcDbEntity
  8
0
  6
Continuous
 62
     7
370
    25
100
AcDbSpline
210
0.0
220
0.0
230
1.0
 70
    24
 71
     3
 72
    13
 73
     9
 74
     0
 42
0.000000001
 43
0.00000001
 40
0.0
 40
0.0
 40
0.0
 40
0.0
 40
0.1900911521342196
 40
0.3805280712922969
 40
0.5723167119831083
 40
0.7647188127385693
 40
0.8900886213607844
 40
1.0
 40
1.0
 40
1.0
 40
1.0
 10
48.63663026103754
 20
91.63420693641613
 30
0.0
 10
48.53246092549897
 20
91.63420693641613
 30
0.0
 10
48.32393277521292
 20
91.63420693641613
 30
0.0
 10
48.07140826815051
 20
91.63420693641616
 30
0.0
 10
47.87334332493133
 20
91.63420693641616
 30
0.0
 10
47.75963431259163
 20
91.63420693641618
 30
0.0
 10
47.70602042821353
 20
91.63420693641619
 30
0.0
 10
47.70231195441195
 20
91.63420693641619
 30
0.0
 10
47.70057954446911
 20
91.63420693641619
 30
0.0
  0
LINE
  5
EF
330
1F
100
AcDbEntity
  8
0
  6
Continuous
 62
     7
370
    25
100
AcDbLine
 10
47.5544705202
 20
70.8842069364
 30
0.0
 11
47.5544705202
 21
91.3842069364
 31
0.0
  0
LINE
  5
F0
330
1F
100
AcDbEntity
  8
0
  6
Continuous
 62
     7
370
    25
100
AcDbLine
 10
63.5544705202
 20
86.3842069364
 30
0.0
 11
63.5544705202
 21
75.8842069364
 31
0.0
  0
SPLINE
  5
F1
330
1F
100
AcDbEntity
  8
0
  6
Continuous
 62
     7
370
    25
100
AcDbSpline
210
0.0
220
0.0
230
1.0
 70
     8
 71
     3
 72
    10
 73
     6
 74
     0
 42
0.000000001
 43
0.00000001
 40
0.0
 40
0.0
 40
0.0
 40
0.0
 40
0.5
 40
0.5
 40
1.0
 40
1.0
 40
1.0
 40
1.0
 10
63.11922573479385
 20
81.13420693641619
 30
0.0
 10
63.25458870587569
 20
80.25920693641619
 30
0.0
 10
63.36450237592882
 20
79.38420693641619
 30
0.0
 10
63.51467410917028
 20
77.63420693641619
 30
0.0
 10
63.55447052023121
 20
76.75920693641619
 30
0.0
 10
63.55447052023121
 20
75.88420693641619
 30
0.0
  0
SPLINE
  5
F2
330
1F
100
AcDbEntity
  8
0
  6
Continuous
 62
     7
370
    25
100
AcDbSpline
210
0.0
220
0.0
230
1.0
 70
     8
 71
     3
 72
    10
 73
     6
 74
     0
 42
0.000000001
 43
0.00000001
 40
0.0
 40
0.0
 40
0.0
 40
0.0
 40
0.5
 40
0.5
 40
1.0
 40
1.0
 40
1.0
 40
1.0
 10
63.98971530566856
 20
81.13420693641619
 30
0.0
 10
63.85435233458672
 20
80.25920693641619
 30
0.0
 10
63.7444386645336
 20
79.38420693641619
 30
0.0
 10
63.59426693129214
 20
77.63420693641619
 30
0.0
 10
63.55447052023121
 20
76.75920693641619
 30
0.0
 10
63.55447052023121
 20
75.88420693641619
 30
0.0
  0
LINE
  5
F3
330
1F
100
AcDbEntity
  8
0
  6
Continuous
 62
     7
370
    25
100
AcDbLine
 10
75.0544705202
 20
81.6752750027
 30
0.0
 11
75.0544705202
 21
80.5931388701
 31
0.0
  0
SPLINE
  5
F4
330
1F
100
AcDbEntity
  8
0
  6
Continuous
 62
     7
370
    25
100
AcDbSpline
210
0.0
220
0.0
230
1.0
 70
     8
 71
     3
 72
     8
 73
     4
 74
     0
 42
0.000000001
 43
0.00000001
 40
0.0
 40
0.0
 40
0.0
 40
0.0
 40
1.0
 40
1.0
 40
1.0
 40
1.0
 10
74.97408576250187
 20
81.13420693641619
 30
0.0
 10
75.00197247108365
 20
80.95394441843185
 30
0.0
 10
75.02879626725003
 20
80.7735908694361
 30
0.0
 10
75.0544705202312
 20
80.59313887010966
 30
0.0
  0
LINE
  5
F5
330
1F
100
AcDbEntity
  8
0
  6
Continuous
 62
     7
370
    25
100
AcDbLine
 10
78.4723107794
 20
70.6342069364
 30
0.0
 11
75.134855278
 21
70.6342069364
 31
0.0
  0
SPLINE
  5
F6
330
1F
100
AcDbEntity
  8
0
  6
Continuous
 62
     7
370
    25
100
AcDbSpline
210
0.0
220
0.0
230
1.0
 70
     8
 71
     3
 72
     8
 73
     4
 74
     0
 42
0.000000001
 43
0.00000001
 40
0.0
 40
0.0
 40
0.0
 40
0.0
 40
1.0
 40
1.0
 40
1.0
 40
1.0
 10
75.13485527796054
 20
70.63420693641618
 30
0.0
 10
75.10696856937876
 20
70.81446945440052
 30
0.0
 10
75.08014477321237
 20
70.99482300339626
 30
0.0
 10
75.0544705202312
 20
71.17527500272271
 30
0.0
  0
SPLINE
  5
F7
330
1F
100
AcDbEntity
  8
0
  6
Continuous
 62
     7
370
    25
100
AcDbSpline
210
0.0
220
0.0
230
1.0
 70
     8
 71
     3
 72
     8
 73
     4
 74
     0
 42
0.000000001
 43
0.00000001
 40
0.0
 40
0.0
 40
0.0
 40
0.0
 40
1.0
 40
1.0
 40
1.0
 40
1.0
 10
75.0544705202312
 20
71.17527500272271
 30
0.0
 10
75.02878689646303
 20
70.9947571406328
 30
0.0
 10
75.0019625621885
 20
70.81440540229534
 30
0.0
 10
74.97408576250187
 20
70.63420693641618
 30
0.0
  0
LINE
  5
F8
330
1F
100
AcDbEntity
  8
0
  6
Continuous
 62
     7
370
    25
100
AcDbLine
 10
74.9740857625
 20
70.6342069364
 30
0.0
 11
63.9897153057
 21
70.6342069364
 31
0.0
  0
SPLINE
  5
F9
330
1F
100
AcDbEntity
  8
0
  6
Continuous
 62
     7
370
    25
100
AcDbSpline
210
0.0
220
0.0
230
1.0
 70
     8
 71
     3
 72
    10
 73
     6
 74
     0
 42
0.000000001
 43
0.00000001
 40
0.0
 40
0.0
 40
0.0
 40
0.0
 40
0.5
 40
0.5
 40
1.0
 40
1.0
 40
1.0
 40
1.0
 10
63.55447052023121
 20
75.88420693641619
 30
0.0
 10
63.55447052023121
 20
75.00920693641619
 30
0.0
 10
63.59426693129214
 20
74.13420693641618
 30
0.0
 10
63.7444386645336
 20
72.38420693641618
 30
0.0
 10
63.85435233458672
 20
71.50920693641618
 30
0.0
 10
63.98971530566856
 20
70.63420693641618
 30
0.0
  0
SPLINE
  5
FA
330
1F
100
AcDbEntity
  8
0
  6
Continuous
 62
     7
370
    25
100
AcDbSpline
210
0.0
220
0.0
230
1.0
 70
     8
 71
     3
 72
     8
 73
     4
 74
     0
 42
0.000000001
 43
0.00000001
 40
0.0
 40
0.0
 40
0.0
 40
0.0
 40
1.0
 40
1.0
 40
1.0
 40
1.0
 10
75.0544705202312
 20
80.59313887010966
 30
0.0
 10
75.08015414399938
 20
80.77365673219957
 30
0.0
 10
75.10697847827393
 20
80.95400847053705
 30
0.0
 10
75.13485527796054
 20
81.13420693641619
 30
0.0
  0
SPLINE
  5
FB
330
1F
100
AcDbEntity
  8
0
  6
Continuous
 62
     7
370
    25
100
AcDbSpline
210
0.0
220
0.0
230
1.0
 70
     8
 71
     3
 72
    10
 73
     6
 74
     0
 42
0.000000001
 43
0.00000001
 40
0.0
 40
0.0
 40
0.0
 40
0.0
 40
0.5
 40
0.5
 40
1.0
 40
1.0
 40
1.0
 40
1.0
 10
63.55447052023121
 20
75.88420693641619
 30
0.0
 10
63.55447052023121
 20
75.00920693641619
 30
0.0
 10
63.51467410917028
 20
74.13420693641618
 30
0.0
 10
63.36450237592882
 20
72.38420693641618
 30
0.0
 10
63.25458870587569
 20
71.50920693641618
 30
0.0
 10
63.11922573479385
 20
70.63420693641618
 30
0.0
  0
LINE
  5
FC
330
1F
100
AcDbEntity
  8
0
  6
Continuous
 62
     7
370
    25
100
AcDbLine
 10
63.1192257348
 20
70.6342069364
 30
0.0
 11
48.636630261
 21
70.6342069364
 31
0.0
  0
SPLINE
  5
FD
330
1F
100
AcDbEntity
  8
0
  6
Continuous
 62
     7
370
    25
100
AcDbSpline
210
0.0
220
0.0
230
1.0
 70
    24
 71
     3
 72
    10
 73
     6
 74
     0
 42
0.000000001
 43
0.00000001
 40
0.0
 40
0.0
 40
0.0
 40
0.0
 40
0.5
 40
0.5
 40
1.0
 40
1.0
 40
1.0
 40
1.0
 10
63.55447052023121
 20
91.63420693641619
 30
0.0
 10
63.55447052023121
 20
91.63420693641619
 30
0.0
 10
63.51451601381407
 20
91.63420693641618
 30
0.0
 10
63.36422004735531
 20
91.63420693641615
 30
0.0
 10
63.25434648374471
 20
91.63420693641613
 30
0.0
 10
63.11922573479372
 20
91.63420693641613
 30
0.0
  0
LINE
  5
FE
330
1F
100
AcDbEntity
  8
0
  6
Continuous
 62
     7
370
    25
100
AcDbLine
 10
63.5544705202
 20
91.6342069364
 30
0.0
 11
63.5544705202
 21
86.3842069364
 31
0.0
  0
SPLINE
  5
FF
330
1F
100
AcDbEntity
  8
0
  6
Continuous
 62
     7
370
    25
100
AcDbSpline
210
0.0
220
0.0
230
1.0
 70
    24
 71
     3
 72
    10
 73
     6
 74
     0
 42
0.000000001
 43
0.00000001
 40
0.0
 40
0.0
 40
0.0
 40
0.0
 40
0.5
 40
0.5
 40
1.0
 40
1.0
 40
1.0
 40
1.0
 10
63.55447052023121
 20
91.63420693641619
 30
0.0
 10
63.55447052023121
 20
91.63420693641619
 30
0.0
 10
63.59442502664835
 20
91.63420693641618
 30
0.0
 10
63.7447209931071
 20
91.63420693641615
 30
0.0
 10
63.8545945567177
 20
91.63420693641613
 30
0.0
 10
63.9897153056687
 20
91.63420693641613
 30
0.0
  0
SPLINE
  5
100
330
1F
100
AcDbEntity
  8
0
  6
Continuous
 62
     7
370
    25
100
AcDbSpline
210
0.0
220
0.0
230
1.0
 70
    24
 71
     3
 72
    10
 73
     6
 74
     0
 42
0.000000001
 43
0.00000001
 40
0.0
 40
0.0
 40
0.0
 40
0.0
 40
0.5
 40
0.5
 40
1.0
 40
1.0
 40
1.0
 40
1.0
 10
63.55447052023121
 20
70.6342069364162
 30
0.0
 10
63.55447052023121
 20
70.63420693641619
 30
0.0
 10
63.59442502664835
 20
70.63420693641619
 30
0.0
 10
63.7447209931071
 20
70.63420693641619
 30
0.0
 10
63.8545945567177
 20
70.63420693641618
 30
0.0
 10
63.9897153056687
 20
70.63420693641618
 30
0.0
  0
LINE
  5
101
330
1F
100
AcDbEntity
  8
0
  6
Continuous
 62
     7
370
    25
100
AcDbLine
 10
63.5544705202
 20
75.8842069364
 30
0.0
 11
63.5544705202
 21
70.6342069364
 31
0.0
  0
SPLINE
  5
102
330
1F
100
AcDbEntity
  8
0
  6
Continuous
 62
     7
370
    25
100
AcDbSpline
210
0.0
220
0.0
230
1.0
 70
    24
 71
     3
 72
    10
 73
     6
 74
     0
 42
0.000000001
 43
0.00000001
 40
0.0
 40
0.0
 40
0.0
 40
0.0
 40
0.5
 40
0.5
 40
1.0
 40
1.0
 40
1.0
 40
1.0
 10
63.55447052023121
 20
70.6342069364162
 30
0.0
 10
63.55447052023121
 20
70.63420693641619
 30
0.0
 10
63.51451601381407
 20
70.63420693641619
 30
0.0
 10
63.36422004735531
 20
70.63420693641619
 30
0.0
 10
63.25434648374471
 20
70.63420693641618
 30
0.0
 10
63.11922573479372
 20
70.63420693641618
 30
0.0
  0
SPLINE
  5
103
330
1F
100
AcDbEntity
  8
0
  6
Continuous
 62
     7
370
    25
100
AcDbSpline
210
0.0
220
0.0
230
1.0
 70
    24
 71
     3
 72
     8
 73
     4
 74
     0
 42
0.000000001
 43
0.00000001
 40
0.0
 40
0.0
 40
0.0
 40
0.0
 40
1.0
 40
1.0
 40
1.0
 40
1.0
 10
75.0544705202312
 20
91.63420693641613
 30
0.0
 10
75.02878737868276
 20
91.63420693641613
 30
0.0
 10
75.00196307175094
 20
91.63420693641613
 30
0.0
 10
74.97408576250187
 20
91.63420693641613
 30
0.0
  0
LINE
  5
104
330
1F
100
AcDbEntity
  8
0
  6
Continuous
 62
     7
370
    25
100
AcDbLine
 10
75.0544705202
 20
91.6342069364
 30
0.0
 11
75.0544705202
 21
91.0931388701
 31
0.0
  0
SPLINE
  5
105
330
1F
100
AcDbEntity
  8
0
  6
Continuous
 62
     7
370
    25
100
AcDbSpline
210
0.0
220
0.0
230
1.0
 70
    24
 71
     3
 72
     8
 73
     4
 74
     0
 42
0.000000001
 43
0.00000001
 40
0.0
 40
0.0
 40
0.0
 40
0.0
 40
1.0
 40
1.0
 40
1.0
 40
1.0
 10
75.13485527796054
 20
91.63420693641613
 30
0.0
 10
75.10696711559531
 20
91.63420693641613
 30
0.0
 10
75.08014339951252
 20
91.63420693641613
 30
0.0
 10
75.0544705202312
 20
91.63420693641613
 30
0.0
  0
SPLINE
  5
106
330
1F
100
AcDbEntity
  8
0
  6
Continuous
 62
     7
370
    25
100
AcDbSpline
210
0.0
220
0.0
230
1.0
 70
    24
 71
     3
 72
     8
 73
     4
 74
     0
 42
0.000000001
 43
0.00000001
 40
0.0
 40
0.0
 40
0.0
 40
0.0
 40
1.0
 40
1.0
 40
1.0
 40
1.0
 10
75.0544705202312
 20
70.63420693641618
 30
0.0
 10
75.08015366177966
 20
70.63420693641618
 30
0.0
 10
75.10697796871149
 20
70.63420693641618
 30
0.0
 10
75.13485527796054
 20
70.63420693641618
 30
0.0
  0
LINE
  5
107
330
1F
100
AcDbEntity
  8
0
  6
Continuous
 62
     7
370
    25
100
AcDbLine
 10
75.0544705202
 20
71.1752750027
 30
0.0
 11
75.0544705202
 21
70.6342069364
 31
0.0
  0
SPLINE
  5
108
330
1F
100
AcDbEntity
  8
0
  6
Continuous
 62
     7
370
    25
100
AcDbSpline
210
0.0
220
0.0
230
1.0
 70
    24
 71
     3
 72
     8
 73
     4
 74
     0
 42
0.000000001
 43
0.00000001
 40
0.0
 40
0.0
 40
0.0
 40
0.0
 40
1.0
 40
1.0
 40
1.0
 40
1.0
 10
74.97408576250187
 20
70.63420693641618
 30
0.0
 10
75.0019739248671
 20
70.63420693641618
 30
0.0
 10
75.02879764094989
 20
70.63420693641618
 30
0.0
 10
75.0544705202312
 20
70.63420693641618
 30
0.0
  0
LINE
  5
109
330
1F
100
AcDbEntity
  8
0
  6
CENTERX2
 62
     7
370
    18
100
AcDbLine
 10
77.4723107794
 20
81.1342069364
 30
0.0
 11
80.5544705202
 21
81.1342069364
 31
0.0
  0
LINE
  5
10A
330
1F
100
AcDbEntity
  8
0
  6
CENTERX2
 62
     7
370
    18
100
AcDbLine
 10
49.636630261
 20
81.1342069364
 30
0.0
 11
46.5544705202
 21
81.1342069364
 31
0.0
  0
ENDSEC
  0
SECTION
  2
OBJECTS
  0
DICTIONARY
  5
C
330
0
100
AcDbDictionary
281
     1
  3
ACAD_GROUP
350
D
  3
ACAD_LAYOUT
350
1A
  3
ACAD_MLINESTYLE
350
17
  3
ACAD_PLOTSETTINGS
350
19
  3
ACAD_PLOTSTYLENAME
350
E
  3
ACAD_SCALELIST
350
47
  0
DICTIONARY
  5
D
102
{ACAD_REACTORS
330
C
102
}
330
C
100
AcDbDictionary
281
     1
  0
DICTIONARY
  5
1A
102
{ACAD_REACTORS
330
C
102
}
330
C
100
AcDbDictionary
281
     1
  3
Layout1
350
1E
  3
Layout2
350
26
  3
Model
350
22
  0
DICTIONARY
  5
17
102
{ACAD_REACTORS
330
C
102
}
330
C
100
AcDbDictionary
281
     1
  3
Standard
350
18
  0
DICTIONARY
  5
19
102
{ACAD_REACTORS
330
C
102
}
330
C
100
AcDbDictionary
281
     1
  0
ACDBDICTIONARYWDFLT
  5
E
102
{ACAD_REACTORS
330
C
102
}
330
C
100
AcDbDictionary
281
     1
  3
Normal
350
F
100
AcDbDictionaryWithDefault
340
F
  0
DICTIONARY
  5
47
102
{ACAD_REACTORS
330
C
102
}
330
C
100
AcDbDictionary
281
     1
  3
A0
350
48
  3
A1
350
49
  3
A2
350
4A
  3
A3
350
4B
  3
A4
350
4C
  3
A5
350
4D
  3
A6
350
4E
  3
A7
350
4F
  3
A8
350
50
  3
A9
350
51
  3
B0
350
52
  3
B1
350
53
  3
B2
350
54
  3
B3
350
55
  3
B4
350
56
  3
B5
350
57
  3
B6
350
58
  3
B7
350
59
  3
B8
350
5A
  3
B9
350
5B
  3
C0
350
5C
  3
C1
350
5D
  3
C2
350
5E
  3
C3
350
5F
  3
C4
350
60
  3
C5
350
61
  3
C6
350
62
  3
C7
350
63
  3
C8
350
64
  3
C9
350
65
  3
D0
350
66
  3
D1
350
67
  3
D2
350
68
  0
LAYOUT
  5
1E
102
{ACAD_REACTORS
330
1A
102
}
330
1A
100
AcDbPlotSettings
  1

  2
none_device
  4

  6

 40
0.0
 41
0.0
 42
0.0
 43
0.0
 44
0.0
 45
0.0
 46
0.0
 47
0.0
 48
0.0
 49
0.0
140
0.0
141
0.0
142
1.0
143
1.0
 70
   688
 72
     1
 73
     0
 74
     5
  7

 75
    16
147
1.0
148
0.0
149
0.0
100
AcDbLayout
  1
Layout1
 70
     1
 71
     1
 10
0.0
 20
0.0
 11
420.0
 21
297.0
 12
0.0
 22
0.0
 32
0.0
 14
1.0000000000E+20
 24
1.0000000000E+20
 34
1.0000000000E+20
 15
-1.0000000000E+20
 25
-1.0000000000E+20
 35
-1.0000000000E+20
146
0.0
 13
0.0
 23
0.0
 33
0.0
 16
1.0
 26
0.0
 36
0.0
 17
0.0
 27
1.0
 37
0.0
 76
     0
330
1B
  0
LAYOUT
  5
26
102
{ACAD_REACTORS
330
1A
102
}
330
1A
100
AcDbPlotSettings
  1

  2
none_device
  4

  6

 40
0.0
 41
0.0
 42
0.0
 43
0.0
 44
0.0
 45
0.0
 46
0.0
 47
0.0
 48
0.0
 49
0.0
140
0.0
141
0.0
142
1.0
143
1.0
 70
   688
 72
     1
 73
     0
 74
     5
  7

 75
    16
147
1.0
148
0.0
149
0.0
100
AcDbLayout
  1
Layout2
 70
     1
 71
     2
 10
0.0
 20
0.0
 11
0.0
 21
0.0
 12
0.0
 22
0.0
 32
0.0
 14
0.0
 24
0.0
 34
0.0
 15
0.0
 25
0.0
 35
0.0
146
0.0
 13
0.0
 23
0.0
 33
0.0
 16
1.0
 26
0.0
 36
0.0
 17
0.0
 27
1.0
 37
0.0
 76
     0
330
23
  0
LAYOUT
  5
22
102
{ACAD_REACTORS
330
1A
102
}
330
1A
100
AcDbPlotSettings
  1

  2
none_device
  4
Letter_(8.50_x_11.00_Inches)
  6

 40
6.35
 41
6.35
 42
6.35000508
 43
6.35000508
 44
215.9
 45
279.4
 46
0.0
 47
0.0
 48
0.0
 49
0.0
140
0.0
141
0.0
142
1.0
143
1.0
 70
  1712
 72
     1
 73
     0
 74
     0
  7

 75
     0
147
1.0
148
0.0
149
0.0
100
AcDbLayout
  1
Model
 70
     1
 71
     0
 10
0.0
 20
0.0
 11
215.9
 21
139.7
 12
0.0
 22
0.0
 32
0.0
 14
0.0
 24
0.0
 34
0.0
 15
215.9
 25
139.7
 35
0.0
146
0.0
 13
0.0
 23
0.0
 33
0.0
 16
1.0
 26
0.0
 36
0.0
 17
0.0
 27
1.0
 37
0.0
 76
     0
330
1F
331
29
  0
MLINESTYLE
  5
18
102
{ACAD_REACTORS
330
17
102
}
330
17
100
AcDbMlineStyle
  2
Standard
 70
     0
  3

 62
   256
 51
90.0
 52
90.0
 71
     2
 49
0.5
 62
   256
  6
BYLAYER
 49
-0.5
 62
   256
  6
BYLAYER
  0
ACDBPLACEHOLDER
  5
F
102
{ACAD_REACTORS
330
E
102
}
330
E
  0
SCALE
  5
48
102
{ACAD_REACTORS
330
47
102
}
330
47
100
AcDbScale
 70
     0
300
1:1
140
1.0
141
1.0
290
     1
  0
SCALE
  5
49
102
{ACAD_REACTORS
330
47
102
}
330
47
100
AcDbScale
 70
     0
300
1:2
140
1.0
141
2.0
290
     0
  0
SCALE
  5
4A
102
{ACAD_REACTORS
330
47
102
}
330
47
100
AcDbScale
 70
     0
300
1:4
140
1.0
141
4.0
290
     0
  0
SCALE
  5
4B
102
{ACAD_REACTORS
330
47
102
}
330
47
100
AcDbScale
 70
     0
300
1:5
140
1.0
141
5.0
290
     0
  0
SCALE
  5
4C
102
{ACAD_REACTORS
330
47
102
}
330
47
100
AcDbScale
 70
     0
300
1:8
140
1.0
141
8.0
290
     0
  0
SCALE
  5
4D
102
{ACAD_REACTORS
330
47
102
}
330
47
100
AcDbScale
 70
     0
300
1:10
140
1.0
141
10.0
290
     0
  0
SCALE
  5
4E
102
{ACAD_REACTORS
330
47
102
}
330
47
100
AcDbScale
 70
     0
300
1:16
140
1.0
141
16.0
290
     0
  0
SCALE
  5
4F
102
{ACAD_REACTORS
330
47
102
}
330
47
100
AcDbScale
 70
     0
300
1:20
140
1.0
141
20.0
290
     0
  0
SCALE
  5
50
102
{ACAD_REACTORS
330
47
102
}
330
47
100
AcDbScale
 70
     0
300
1:30
140
1.0
141
30.0
290
     0
  0
SCALE
  5
51
102
{ACAD_REACTORS
330
47
102
}
330
47
100
AcDbScale
 70
     0
300
1:40
140
1.0
141
40.0
290
     0
  0
SCALE
  5
52
102
{ACAD_REACTORS
330
47
102
}
330
47
100
AcDbScale
 70
     0
300
1:50
140
1.0
141
50.0
290
     0
  0
SCALE
  5
53
102
{ACAD_REACTORS
330
47
102
}
330
47
100
AcDbScale
 70
     0
300
1:100
140
1.0
141
100.0
290
     0
  0
SCALE
  5
54
102
{ACAD_REACTORS
330
47
102
}
330
47
100
AcDbScale
 70
     0
300
2:1
140
2.0
141
1.0
290
     0
  0
SCALE
  5
55
102
{ACAD_REACTORS
330
47
102
}
330
47
100
AcDbScale
 70
     0
300
4:1
140
4.0
141
1.0
290
     0
  0
SCALE
  5
56
102
{ACAD_REACTORS
330
47
102
}
330
47
100
AcDbScale
 70
     0
300
8:1
140
8.0
141
1.0
290
     0
  0
SCALE
  5
57
102
{ACAD_REACTORS
330
47
102
}
330
47
100
AcDbScale
 70
     0
300
10:1
140
10.0
141
1.0
290
     0
  0
SCALE
  5
58
102
{ACAD_REACTORS
330
47
102
}
330
47
100
AcDbScale
 70
     0
300
100:1
140
100.0
141
1.0
290
     0
  0
SCALE
  5
59
102
{ACAD_REACTORS
330
47
102
}
330
47
100
AcDbScale
 70
     0
300
1/128" = 1'-0"
140
0.0078125
141
12.0
290
     0
  0
SCALE
  5
5A
102
{ACAD_REACTORS
330
47
102
}
330
47
100
AcDbScale
 70
     0
300
1/64" = 1'-0"
140
0.015625
141
12.0
290
     0
  0
SCALE
  5
5B
102
{ACAD_REACTORS
330
47
102
}
330
47
100
AcDbScale
 70
     0
300
1/32" = 1'-0"
140
0.03125
141
12.0
290
     0
  0
SCALE
  5
5C
102
{ACAD_REACTORS
330
47
102
}
330
47
100
AcDbScale
 70
     0
300
1/16" = 1'-0"
140
0.0625
141
12.0
290
     0
  0
SCALE
  5
5D
102
{ACAD_REACTORS
330
47
102
}
330
47
100
AcDbScale
 70
     0
300
3/32" = 1'-0"
140
0.09375
141
12.0
290
     0
  0
SCALE
  5
5E
102
{ACAD_REACTORS
330
47
102
}
330
47
100
AcDbScale
 70
     0
300
1/8" = 1'-0"
140
0.125
141
12.0
290
     0
  0
SCALE
  5
5F
102
{ACAD_REACTORS
330
47
102
}
330
47
100
AcDbScale
 70
     0
300
3/16" = 1'-0"
140
0.1875
141
12.0
290
     0
  0
SCALE
  5
60
102
{ACAD_REACTORS
330
47
102
}
330
47
100
AcDbScale
 70
     0
300
1/4" = 1'-0"
140
0.25
141
12.0
290
     0
  0
SCALE
  5
61
102
{ACAD_REACTORS
330
47
102
}
330
47
100
AcDbScale
 70
     0
300
3/8" = 1'-0"
140
0.375
141
12.0
290
     0
  0
SCALE
  5
62
102
{ACAD_REACTORS
330
47
102
}
330
47
100
AcDbScale
 70
     0
300
1/2" = 1'-0"
140
0.5
141
12.0
290
     0
  0
SCALE
  5
63
102
{ACAD_REACTORS
330
47
102
}
330
47
100
AcDbScale
 70
     0
300
3/4" = 1'-0"
140
0.75
141
12.0
290
     0
  0
SCALE
  5
64
102
{ACAD_REACTORS
330
47
102
}
330
47
100
AcDbScale
 70
     0
300
1" = 1'-0"
140
1.0
141
12.0
290
     0
  0
SCALE
  5
65
102
{ACAD_REACTORS
330
47
102
}
330
47
100
AcDbScale
 70
     0
300
1-1/2" = 1'-0"
140
1.5
141
12.0
290
     0
  0
SCALE
  5
66
102
{ACAD_REACTORS
330
47
102
}
330
47
100
AcDbScale
 70
     0
300
3" = 1'-0"
140
3.0
141
12.0
290
     0
  0
SCALE
  5
67
102
{ACAD_REACTORS
330
47
102
}
330
47
100
AcDbScale
 70
     0
300
6" = 1'-0"
140
6.0
141
12.0
290
     0
  0
SCALE
  5
68
102
{ACAD_REACTORS
330
47
102
}
330
47
100
AcDbScale
 70
     0
300
1'-0" = 1'-0"
140
12.0
141
12.0
290
     0
  0
ENDSEC
  0
EOF
