  0
SECTION
  2
HEADER
  9
$ACADVER
  1
AC1015
  9
$ACADMAINTVER
 70
     6
  9
$DWGCODEPAGE
  3
DOS932
  9
$INSBASE
 10
0.0
 20
0.0
 30
0.0
  9
$EXTMIN
 10
0.0
 20
0.0
 30
0.0
  9
$EXTMAX
 10
215.9
 20
139.7
 30
0.0
  9
$LIMMIN
 10
0.0
 20
0.0
  9
$LIMMAX
 10
215.9
 20
139.7
  9
$ORTHOMODE
 70
     0
  9
$REGENMODE
 70
     1
  9
$FILLMODE
 70
     1
  9
$QTEXTMODE
 70
     0
  9
$MIRRTEXT
 70
     1
  9
$LTSCALE
 40
0.5
  9
$ATTMODE
 70
     1
  9
$TEXTSIZE
 40
1.75
  9
$TRACEWID
 40
1.0
  9
$TEXTSTYLE
  7
Standard
  9
$CLAYER
  8
0
  9
$CELTYPE
  6
ByLayer
  9
$CECOLOR
 62
   256
  9
$CELTSCALE
 40
1.0
  9
$DISPSILH
 70
     0
  9
$DIMSCALE
 40
1.0
  9
$DIMASZ
 40
1.651
  9
$DIMEXO
 40
0.5
  9
$DIMDLI
 40
3.75
  9
$DIMRND
 40
0.0
  9
$DIMDLE
 40
0.0
  9
$DIMEXE
 40
0.5
  9
$DIMTP
 40
0.0
  9
$DIMTM
 40
0.0
  9
$DIMTXT
 40
1.75
  9
$DIMCEN
 40
2.5
  9
$DIMTSZ
 40
0.0
  9
$DIMTOL
 70
     0
  9
$DIMLIM
 70
     0
  9
$DIMTIH
 70
     1
  9
$DIMTOH
 70
     1
  9
$DIMSE1
 70
     0
  9
$DIMSE2
 70
     0
  9
$DIMTAD
 70
     1
  9
$DIMZIN
 70
     1
  9
$DIMBLK
  1

  9
$DIMASO
 70
     1
  9
$DIMSHO
 70
     1
  9
$DIMPOST
  1

  9
$DIMAPOST
  1

  9
$DIMALT
 70
     0
  9
$DIMALTD
 70
     3
  9
$DIMALTF
 40
0.0393700787
  9
$DIMLFAC
 40
1.0
  9
$DIMTOFL
 70
     1
  9
$DIMTVP
 40
0.0
  9
$DIMTIX
 70
     0
  9
$DIMSOXD
 70
     0
  9
$DIMSAH
 70
     0
  9
$DIMBLK1
  1

  9
$DIMBLK2
  1

  9
$DIMSTYLE
  2
ISO-25
  9
$DIMCLRD
 70
     0
  9
$DIMCLRE
 70
     0
  9
$DIMCLRT
 70
     0
  9
$DIMTFAC
 40
1.0
  9
$DIMGAP
 40
0.762
  9
$DIMJUST
 70
     0
  9
$DIMSD1
 70
     0
  9
$DIMSD2
 70
     0
  9
$DIMTOLJ
 70
     0
  9
$DIMTZIN
 70
     1
  9
$DIMALTZ
 70
     0
  9
$DIMALTTZ
 70
     0
  9
$DIMUPT
 70
     0
  9
$DIMDEC
 70
     2
  9
$DIMTDEC
 70
     2
  9
$DIMALTU
 70
     2
  9
$DIMALTTD
 70
     3
  9
$DIMTXSTY
  7
Standard
  9
$DIMAUNIT
 70
     0
  9
$DIMADEC
 70
     2
  9
$DIMALTRND
 40
0.0
  9
$DIMAZIN
 70
     0
  9
$DIMDSEP
 70
    44
  9
$DIMATFIT
 70
     3
  9
$DIMFRAC
 70
     0
  9
$DIMLDRBLK
  1

  9
$DIMLUNIT
 70
     2
  9
$DIMLWD
 70
    -2
  9
$DIMLWE
 70
    -2
  9
$DIMTMOVE
 70
     0
  9
$LUNITS
 70
     2
  9
$LUPREC
 70
     2
  9
$SKETCHINC
 40
1.0
  9
$FILLETRAD
 40
10.0
  9
$AUNITS
 70
     0
  9
$AUPREC
 70
     2
  9
$MENU
  1
.
  9
$ELEVATION
 40
0.0
  9
$PELEVATION
 40
0.0
  9
$THICKNESS
 40
0.0
  9
$LIMCHECK
 70
     0
  9
$CHAMFERA
 40
0.0
  9
$CHAMFERB
 40
0.0
  9
$CHAMFERC
 40
0.0
  9
$CHAMFERD
 40
0.0
  9
$SKPOLY
 70
     0
  9
$TDCREATE
 40
2459227.765577408
  9
$TDUCREATE
 40
2459227.390577408
  9
$TDUPDATE
 40
2459227.76557794
  9
$TDUUPDATE
 40
2459227.39057794
  9
$TDINDWG
 40
0.0000000116
  9
$TDUSRTIMER
 40
0.0000000116
  9
$USRTIMER
 70
     1
  9
$ANGBASE
 50
0.0
  9
$ANGDIR
 70
     0
  9
$PDMODE
 70
     0
  9
$PDSIZE
 40
-1.0
  9
$PLINEWID
 40
0.0
  9
$SPLFRAME
 70
     0
  9
$SPLINETYPE
 70
     6
  9
$SPLINESEGS
 70
     8
  9
$HANDSEED
  5
10D
  9
$SURFTAB1
 70
     6
  9
$SURFTAB2
 70
     6
  9
$SURFTYPE
 70
     6
  9
$SURFU
 70
     6
  9
$SURFV
 70
     6
  9
$UCSBASE
  2

  9
$UCSNAME
  2

  9
$UCSORG
 10
0.0
 20
0.0
 30
0.0
  9
$UCSXDIR
 10
1.0
 20
0.0
 30
0.0
  9
$UCSYDIR
 10
0.0
 20
1.0
 30
0.0
  9
$UCSORTHOREF
  2

  9
$UCSORTHOVIEW
 70
     0
  9
$UCSORGTOP
 10
0.0
 20
0.0
 30
0.0
  9
$UCSORGBOTTOM
 10
0.0
 20
0.0
 30
0.0
  9
$UCSORGLEFT
 10
0.0
 20
0.0
 30
0.0
  9
$UCSORGRIGHT
 10
0.0
 20
0.0
 30
0.0
  9
$UCSORGFRONT
 10
0.0
 20
0.0
 30
0.0
  9
$UCSORGBACK
 10
0.0
 20
0.0
 30
0.0
  9
$PUCSBASE
  2

  9
$PUCSNAME
  2

  9
$PUCSORG
 10
0.0
 20
0.0
 30
0.0
  9
$PUCSXDIR
 10
1.0
 20
0.0
 30
0.0
  9
$PUCSYDIR
 10
0.0
 20
1.0
 30
0.0
  9
$PUCSORTHOREF
  2

  9
$PUCSORTHOVIEW
 70
     0
  9
$PUCSORGTOP
 10
0.0
 20
0.0
 30
0.0
  9
$PUCSORGBOTTOM
 10
0.0
 20
0.0
 30
0.0
  9
$PUCSORGLEFT
 10
0.0
 20
0.0
 30
0.0
  9
$PUCSORGRIGHT
 10
0.0
 20
0.0
 30
0.0
  9
$PUCSORGFRONT
 10
0.0
 20
0.0
 30
0.0
  9
$PUCSORGBACK
 10
0.0
 20
0.0
 30
0.0
  9
$USERI1
 70
     0
  9
$USERI2
 70
     0
  9
$USERI3
 70
     0
  9
$USERI4
 70
     0
  9
$USERI5
 70
     0
  9
$USERR1
 40
0.0
  9
$USERR2
 40
0.0
  9
$USERR3
 40
0.0
  9
$USERR4
 40
0.0
  9
$USERR5
 40
0.0
  9
$WORLDVIEW
 70
     1
  9
$SHADEDGE
 70
     3
  9
$SHADEDIF
 70
    70
  9
$TILEMODE
 70
     1
  9
$MAXACTVP
 70
    64
  9
$PINSBASE
 10
0.0
 20
0.0
 30
0.0
  9
$PLIMCHECK
 70
     0
  9
$PEXTMIN
 10
1.0000000000E+20
 20
1.0000000000E+20
 30
1.0000000000E+20
  9
$PEXTMAX
 10
-1.0000000000E+20
 20
-1.0000000000E+20
 30
-1.0000000000E+20
  9
$PLIMMIN
 10
0.0
 20
0.0
  9
$PLIMMAX
 10
420.0
 20
297.0
  9
$UNITMODE
 70
     0
  9
$VISRETAIN
 70
     1
  9
$PLINEGEN
 70
     0
  9
$PSLTSCALE
 70
     1
  9
$TREEDEPTH
 70
  3020
  9
$CMLSTYLE
  2
Standard
  9
$CMLJUST
 70
     0
  9
$CMLSCALE
 40
20.0
  9
$PROXYGRAPHICS
 70
     1
  9
$MEASUREMENT
 70
     1
  9
$CELWEIGHT
370
    -1
  9
$ENDCAPS
280
     0
  9
$JOINSTYLE
280
     0
  9
$LWDISPLAY
290
     1
  9
$INSUNITS
 70
     4
  9
$HYPERLINKBASE
  1

  9
$STYLESHEET
  1

  9
$XEDIT
290
     1
  9
$CEPSNTYPE
380
     0
  9
$PSTYLEMODE
290
     1
  9
$FINGERPRINTGUID
  2
{92CE8EBB-D777-43C5-AF6D-414BC51E9976}
  9
$VERSIONGUID
  2
{FAEB1C32-E019-11D5-929B-00C0DF256EC4}
  9
$EXTNAMES
290
     1
  9
$PSVPSCALE
 40
0.0
  9
$OLESTARTUP
290
     0
  0
ENDSEC
  0
SECTION
  2
CLASSES
  0
CLASS
  1
ACDBDICTIONARYWDFLT
  2
AcDbDictionaryWithDefault
  3
ObjectDBX Classes
 90
        0
280
     0
281
     0
  0
CLASS
  1
VISUALSTYLE
  2
AcDbVisualStyle
  3
ObjectDBX Classes
 90
     4095
280
     0
281
     0
  0
CLASS
  1
MATERIAL
  2
AcDbMaterial
  3
ObjectDBX Classes
 90
     1153
280
     0
281
     0
  0
CLASS
  1
SCALE
  2
AcDbScale
  3
ObjectDBX Classes
 90
     1153
280
     0
281
     0
  0
CLASS
  1
TABLESTYLE
  2
AcDbTableStyle
  3
ObjectDBX Classes
 90
     4095
280
     0
281
     0
  0
CLASS
  1
MLEADERSTYLE
  2
AcDbMLeaderStyle
  3
ACDB_MLEADERSTYLE_CLASS
 90
     4095
280
     0
281
     0
  0
CLASS
  1
SUN
  2
AcDbSun
  3
SCENEOE
 90
     1153
280
     0
281
     0
  0
CLASS
  1
ACDBPLACEHOLDER
  2
AcDbPlaceHolder
  3
ObjectDBX Classes
 90
        0
280
     0
281
     0
  0
CLASS
  1
LAYOUT
  2
AcDbLayout
  3
ObjectDBX Classes
 90
        0
280
     0
281
     0
  0
ENDSEC
  0
SECTION
  2
TABLES
  0
TABLE
  2
VPORT
  5
8
330
0
100
AcDbSymbolTable
 70
     1
  0
VPORT
  5
29
330
8
100
AcDbSymbolTableRecord
100
AcDbViewportTableRecord
  2
*Active
 70
     0
 10
0.0
 20
0.0
 11
1.0
 21
1.0
 12
107.95
 22
69.85
 13
0.0
 23
0.0
 14
10.0
 24
10.0
 15
10.0
 25
10.0
 16
0.0
 26
0.0
 36
1.0
 17
0.0
 27
0.0
 37
0.0
 40
139.7
 41
1.5454545455
 42
50.0
 43
0.0
 44
0.0
 50
0.0
 51
0.0
 71
     0
 72
  2000
 73
     1
 74
     3
 75
     0
 76
     0
 77
     0
 78
     0
281
     0
 65
     1
110
0.0
120
0.0
130
0.0
111
1.0
121
0.0
131
0.0
112
0.0
122
1.0
132
0.0
 79
     0
146
0.0
  0
ENDTAB
  0
TABLE
  2
LTYPE
  5
5
330
0
100
AcDbSymbolTable
 70
     6
  0
LTYPE
  5
14
330
5
100
AcDbSymbolTableRecord
100
AcDbLinetypeTableRecord
  2
ByBlock
 70
     0
  3

 72
    65
 73
     0
 40
0.0
  0
LTYPE
  5
15
330
5
100
AcDbSymbolTableRecord
100
AcDbLinetypeTableRecord
  2
ByLayer
 70
     0
  3

 72
    65
 73
     0
 40
0.0
  0
LTYPE
  5
16
330
5
100
AcDbSymbolTableRecord
100
AcDbLinetypeTableRecord
  2
Continuous
 70
     0
  3
Solid line
 72
    65
 73
     0
 40
0.0
  0
LTYPE
  5
6E
330
5
100
AcDbSymbolTableRecord
100
AcDbLinetypeTableRecord
  2
HIDDEN
 70
     0
  3
Hidden __ __ __ __ __ __ __ __ __ __ __ __ __ __
 72
    65
 73
     2
 40
1.905
 49
1.27
 74
     0
 49
-0.635
 74
     0
  0
LTYPE
  5
6F
330
5
100
AcDbSymbolTableRecord
100
AcDbLinetypeTableRecord
  2
PHANTOM
 70
     0
  3
Phantom ______  __  __  ______  __  __  ______
 72
    65
 73
     6
 40
12.7
 49
6.35
 74
     0
 49
-1.27
 74
     0
 49
1.27
 74
     0
 49
-1.27
 74
     0
 49
1.27
 74
     0
 49
-1.27
 74
     0
  0
LTYPE
  5
70
330
5
100
AcDbSymbolTableRecord
100
AcDbLinetypeTableRecord
  2
CENTER
 70
     0
  3
Center ____ _ ____ _ ____ _ ____ _ ____ _ ____
 72
    65
 73
     4
 40
10.16
 49
6.35
 74
     0
 49
-1.27
 74
     0
 49
1.27
 74
     0
 49
-1.27
 74
     0
  0
LTYPE
  5
71
330
5
100
AcDbSymbolTableRecord
100
AcDbLinetypeTableRecord
  2
CENTERX2
 70
     0
  3
Center (2x) ________  __  ________  __  _____
 72
    65
 73
     4
 40
20.32
 49
12.7
 74
     0
 49
-2.54
 74
     0
 49
2.54
 74
     0
 49
-2.54
 74
     0
  0
LTYPE
  5
72
330
5
100
AcDbSymbolTableRecord
100
AcDbLinetypeTableRecord
  2
DOT2
 70
     0
  3
Dot (.5x) ........................................
 72
    65
 73
     2
 40
0.635
 49
0.0
 74
     0
 49
-0.635
 74
     0
  0
ENDTAB
  0
TABLE
  2
LAYER
  5
2
330
0
100
AcDbSymbolTable
 70
     1
  0
LAYER
  5
10
330
2
100
AcDbSymbolTableRecord
100
AcDbLayerTableRecord
  2
0
 70
     0
 62
     7
  6
Continuous
370
    -3
390
F
  0
ENDTAB
  0
TABLE
  2
STYLE
  5
3
330
0
100
AcDbSymbolTable
 70
     2
  0
STYLE
  5
11
330
3
100
AcDbSymbolTableRecord
100
AcDbTextStyleTableRecord
  2
Standard
 70
     0
 40
0.0
 41
1.0
 50
0.0
 71
     0
 42
1.75
  3
txt
  4
bigfont
  0
STYLE
  5
73
330
3
100
AcDbSymbolTableRecord
100
AcDbTextStyleTableRecord
  2
SLDTEXTSTYLE0
 70
     0
 40
0.0
 41
0.7
 50
0.0
 71
     0
 42
1.75
  3
TXT
  4
bigfont
  0
ENDTAB
  0
TABLE
  2
VIEW
  5
6
330
0
100
AcDbSymbolTable
 70
     0
  0
ENDTAB
  0
TABLE
  2
UCS
  5
7
330
0
100
AcDbSymbolTable
 70
     0
  0
ENDTAB
  0
TABLE
  2
APPID
  5
9
330
0
100
AcDbSymbolTable
 70
     1
  0
APPID
  5
12
330
9
100
AcDbSymbolTableRecord
100
AcDbRegAppTableRecord
  2
ACAD
 70
     0
  0
ENDTAB
  0
TABLE
  2
DIMSTYLE
  5
A
330
0
100
AcDbSymbolTable
 70
     1
100
AcDbDimStyleTable
  0
DIMSTYLE
105
27
330
A
100
AcDbSymbolTableRecord
100
AcDbDimStyleTableRecord
  2
ISO-25
 70
     0
 41
2.5
 42
0.625
 43
3.75
 44
1.25
 73
     0
 74
     0
 77
     1
 78
     8
140
2.5
141
2.5
143
0.0393700787
147
0.625
171
     3
172
     1
178
     0
271
     2
272
     2
274
     3
278
    44
283
     0
284
     8
340
11
  0
ENDTAB
  0
TABLE
  2
BLOCK_RECORD
  5
1
330
0
100
AcDbSymbolTable
 70
     2
  0
BLOCK_RECORD
  5
1F
330
1
100
AcDbSymbolTableRecord
100
AcDbBlockTableRecord
  2
*Model_Space
340
22
  0
BLOCK_RECORD
  5
1B
330
1
100
AcDbSymbolTableRecord
100
AcDbBlockTableRecord
  2
*Paper_Space
340
1E
  0
BLOCK_RECORD
  5
23
330
1
100
AcDbSymbolTableRecord
100
AcDbBlockTableRecord
  2
*Paper_Space0
340
26
  0
BLOCK_RECORD
  5
C8
330
1
100
AcDbSymbolTableRecord
100
AcDbBlockTableRecord
  2
SW_CENTERMARKSYMBOL_0
340
0
102
{BLKREFS
331
D3
102
}
  0
ENDTAB
  0
ENDSEC
  0
SECTION
  2
BLOCKS
  0
BLOCK
  5
20
330
1F
100
AcDbEntity
  8
0
100
AcDbBlockBegin
  2
*Model_Space
 70
     0
 10
0.0
 20
0.0
 30
0.0
  3
*Model_Space
  1

  0
ENDBLK
  5
21
330
1F
100
AcDbEntity
  8
0
100
AcDbBlockEnd
  0
BLOCK
  5
1C
330
1B
100
AcDbEntity
 67
     1
  8
0
100
AcDbBlockBegin
  2
*Paper_Space
 70
     0
 10
0.0
 20
0.0
 30
0.0
  3
*Paper_Space
  1

  0
ENDBLK
  5
1D
330
1B
100
AcDbEntity
 67
     1
  8
0
100
AcDbBlockEnd
  0
BLOCK
  5
24
330
23
100
AcDbEntity
  8
0
100
AcDbBlockBegin
  2
*Paper_Space0
 70
     0
 10
0.0
 20
0.0
 30
0.0
  3
*Paper_Space0
  1

  0
ENDBLK
  5
25
330
23
100
AcDbEntity
  8
0
100
AcDbBlockEnd
  0
BLOCK
  5
C9
330
C8
100
AcDbEntity
  8
0
100
AcDbBlockBegin
  2
SW_CENTERMARKSYMBOL_0
 70
     0
 10
0.0
 20
0.0
 30
0.0
  3
SW_CENTERMARKSYMBOL_0
  1

  0
LINE
  5
CB
330
C8
100
AcDbEntity
  8
0
  6
Continuous
 62
     0
370
    18
100
AcDbLine
 10
0.0
 20
0.0
 30
0.0
 11
0.0
 21
2.5
 31
0.0
  0
LINE
  5
CC
330
C8
100
AcDbEntity
  8
0
  6
Continuous
 62
     0
370
    18
100
AcDbLine
 10
0.0
 20
0.0
 30
0.0
 11
-2.5
 21
0.0
 31
0.0
  0
LINE
  5
CD
330
C8
100
AcDbEntity
  8
0
  6
Continuous
 62
     0
370
    18
100
AcDbLine
 10
0.0
 20
0.0
 30
0.0
 11
0.0
 21
-2.5
 31
0.0
  0
LINE
  5
CE
330
C8
100
AcDbEntity
  8
0
  6
Continuous
 62
     0
370
    18
100
AcDbLine
 10
0.0
 20
0.0
 30
0.0
 11
2.5
 21
0.0
 31
0.0
  0
LINE
  5
CF
330
C8
100
AcDbEntity
  8
0
  6
Continuous
 62
     0
370
    18
100
AcDbLine
 10
0.0
 20
5.0
 30
0.0
 11
0.0
 21
13.336385632
 31
0.0
  0
LINE
  5
D0
330
C8
100
AcDbEntity
  8
0
  6
Continuous
 62
     0
370
    18
100
AcDbLine
 10
-5.0
 20
0.0
 30
0.0
 11
-11.761508257
 21
0.0
 31
0.0
  0
LINE
  5
D1
330
C8
100
AcDbEntity
  8
0
  6
Continuous
 62
     0
370
    18
100
AcDbLine
 10
0.0
 20
-5.0
 30
0.0
 11
0.0
 21
-13.1689602544
 31
0.0
  0
LINE
  5
D2
330
C8
100
AcDbEntity
  8
0
  6
Continuous
 62
     0
370
    18
100
AcDbLine
 10
5.0
 20
0.0
 30
0.0
 11
11.4002733547
 21
0.0
 31
0.0
  0
ENDBLK
  5
CA
330
C8
100
AcDbEntity
  8
0
100
AcDbBlockEnd
  0
ENDSEC
  0
SECTION
  2
ENTITIES
  0
MTEXT
  5
74
330
1F
100
AcDbEntity
  8
0
  6
Continuous
 62
     7
370
     0
100
AcDbMText
 10
91.5215091134
 20
62.8688021391
 30
0.0
 40
2.6458333333
 41
0.0
 71
     1
 72
     1
  1
5R-NS1023
  7
SLDTEXTSTYLE0
 73
     1
 44
1.0
  0
LINE
  5
75
330
1F
100
AcDbEntity
  8
0
  6
Continuous
 62
     7
370
    25
100
AcDbLine
 10
59.0264082957
 20
52.8989903351
 30
0.0
 11
57.9442485549
 21
51.0246346821
 31
0.0
  0
LINE
  5
76
330
1F
100
AcDbEntity
  8
0
  6
Continuous
 62
     7
370
    25
100
AcDbLine
 10
57.9442485549
 20
30.5246346821
 30
0.0
 11
59.0264082957
 21
28.6502790291
 31
0.0
  0
LINE
  5
77
330
1F
100
AcDbEntity
  8
0
  6
Continuous
 62
     7
370
    25
100
AcDbLine
 10
86.8620888141
 20
28.6502790291
 30
0.0
 11
87.9442485549
 21
30.5246346821
 31
0.0
  0
LINE
  5
78
330
1F
100
AcDbEntity
  8
0
  6
Continuous
 62
     7
370
    25
100
AcDbLine
 10
87.9442485549
 20
51.0246346821
 30
0.0
 11
86.8620888141
 21
52.8989903351
 31
0.0
  0
LINE
  5
79
330
1F
100
AcDbEntity
  8
0
  6
Continuous
 62
     7
370
    25
100
AcDbLine
 10
72.9442485549
 20
51.2746346821
 30
0.0
 11
72.5090037695
 21
52.8989903351
 31
0.0
  0
LINE
  5
7A
330
1F
100
AcDbEntity
  8
0
  6
Continuous
 62
     7
370
    25
100
AcDbLine
 10
73.3794933404
 20
52.8989903351
 30
0.0
 11
72.9442485549
 21
51.2746346821
 31
0.0
  0
LINE
  5
7B
330
1F
100
AcDbEntity
  8
0
  6
Continuous
 62
     7
370
    25
100
AcDbLine
 10
72.9442485549
 20
30.2746346821
 30
0.0
 11
73.3794933404
 21
28.6502790291
 31
0.0
  0
LINE
  5
7C
330
1F
100
AcDbEntity
  8
0
  6
Continuous
 62
     7
370
    25
100
AcDbLine
 10
72.5090037695
 20
28.6502790291
 30
0.0
 11
72.9442485549
 21
30.2746346821
 31
0.0
  0
LINE
  5
7D
330
1F
100
AcDbEntity
  8
0
  6
Continuous
 62
     7
370
    25
100
AcDbLine
 10
83.4442485549
 20
52.5989903351
 30
0.0
 11
83.3638637972
 21
52.8989903351
 31
0.0
  0
LINE
  5
7E
330
1F
100
AcDbEntity
  8
0
  6
Continuous
 62
     7
370
    25
100
AcDbLine
 10
83.5246333126
 20
52.8989903351
 30
0.0
 11
83.4442485549
 21
52.5989903351
 31
0.0
  0
LINE
  5
7F
330
1F
100
AcDbEntity
  8
0
  6
Continuous
 62
     7
370
    25
100
AcDbLine
 10
83.4442485549
 20
28.9502790291
 30
0.0
 11
83.5246333126
 21
28.6502790291
 31
0.0
  0
LINE
  5
80
330
1F
100
AcDbEntity
  8
0
  6
Continuous
 62
     7
370
    25
100
AcDbLine
 10
83.3638637972
 20
28.6502790291
 30
0.0
 11
83.4442485549
 21
28.9502790291
 31
0.0
  0
LINE
  5
81
330
1F
100
AcDbEntity
  8
0
  6
Continuous
 62
     7
370
    25
100
AcDbLine
 10
72.5090037695
 20
52.8989903351
 30
0.0
 11
59.0264082957
 21
52.8989903351
 31
0.0
  0
SPLINE
  5
82
330
1F
100
AcDbEntity
  8
0
  6
Continuous
 62
     7
370
    25
100
AcDbSpline
210
0.0
220
0.0
230
1.0
 70
     8
 71
     3
 72
    10
 73
     6
 74
     0
 42
0.000000001
 43
0.00000001
 40
0.0
 40
0.0
 40
0.0
 40
0.0
 40
0.5
 40
0.5
 40
1.0
 40
1.0
 40
1.0
 40
1.0
 10
72.50900376947592
 20
52.89899033506309
 30
0.0
 10
72.64436674055777
 20
52.39380884952216
 30
0.0
 10
72.7542804106109
 20
51.88862736398124
 30
0.0
 10
72.90445214385235
 20
50.87826439289939
 30
0.0
 10
72.94424855491329
 20
50.37308290735847
 30
0.0
 10
72.94424855491329
 20
49.86790142181754
 30
0.0
  0
SPLINE
  5
83
330
1F
100
AcDbEntity
  8
0
  6
Continuous
 62
     7
370
    25
100
AcDbSpline
210
0.0
220
0.0
230
1.0
 70
     8
 71
     3
 72
    10
 73
     6
 74
     0
 42
0.000000001
 43
0.00000001
 40
0.0
 40
0.0
 40
0.0
 40
0.0
 40
0.4999999999999998
 40
0.4999999999999998
 40
1.0
 40
1.0
 40
1.0
 40
1.0
 10
72.94424855491329
 20
49.86790142181754
 30
0.0
 10
72.94424855491329
 20
49.36271993627662
 30
0.0
 10
72.90445214385235
 20
48.85753845073569
 30
0.0
 10
72.7542804106109
 20
47.84717547965383
 30
0.0
 10
72.64436674055777
 20
47.34199399411292
 30
0.0
 10
72.50900376947592
 20
46.83681250857199
 30
0.0
  0
LINE
  5
84
330
1F
100
AcDbEntity
  8
0
  6
Continuous
 62
     7
370
    25
100
AcDbLine
 10
72.5090037695
 20
46.8368125086
 30
0.0
 11
59.0264082957
 21
46.8368125086
 31
0.0
  0
SPLINE
  5
85
330
1F
100
AcDbEntity
  8
0
  6
Continuous
 62
     7
370
    25
100
AcDbSpline
210
0.0
220
0.0
230
1.0
 70
     8
 71
     3
 72
    16
 73
    12
 74
     0
 42
0.000000001
 43
0.00000001
 40
0.0
 40
0.0
 40
0.0
 40
0.0
 40
0.2499999999999999
 40
0.2499999999999999
 40
0.4999999999999998
 40
0.4999999999999998
 40
0.6249999999999999
 40
0.6249999999999999
 40
0.75
 40
0.75
 40
1.0
 40
1.0
 40
1.0
 40
1.0
 10
59.02640829571929
 20
46.83681250857197
 30
0.0
 10
58.74066649843662
 20
47.33173181931161
 30
0.0
 10
58.50516349828141
 20
47.83025947350146
 30
0.0
 10
58.17891538111493
 20
48.83771184927473
 30
0.0
 10
58.08924641614402
 20
49.34671386423278
 30
0.0
 10
58.08826150974179
 20
50.11980670132783
 30
0.0
 10
58.11018208655157
 20
50.37871698205582
 30
0.0
 10
58.19566080428596
 20
50.89086880590669
 30
0.0
 10
58.25913219275245
 20
51.14522766363199
 30
0.0
 10
58.50422442995081
 20
51.90377572635079
 30
0.0
 10
58.74031029750802
 20
52.40345406621714
 30
0.0
 10
59.02640829571945
 20
52.8989903350631
 30
0.0
  0
LINE
  5
86
330
1F
100
AcDbEntity
  8
0
  6
Continuous
 62
     7
370
    25
100
AcDbLine
 10
83.3638637972
 20
46.8368125086
 30
0.0
 11
73.3794933404
 21
46.8368125086
 31
0.0
  0
SPLINE
  5
87
330
1F
100
AcDbEntity
  8
0
  6
Continuous
 62
     7
370
    25
100
AcDbSpline
210
0.0
220
0.0
230
1.0
 70
     8
 71
     3
 72
    10
 73
     6
 74
     0
 42
0.000000001
 43
0.00000001
 40
0.0
 40
0.0
 40
0.0
 40
0.0
 40
0.4999999999999998
 40
0.4999999999999998
 40
1.0
 40
1.0
 40
1.0
 40
1.0
 10
72.94424855491329
 20
49.86790142181754
 30
0.0
 10
72.94424855491329
 20
49.36271993627662
 30
0.0
 10
72.98404496597422
 20
48.85753845073569
 30
0.0
 10
73.13421669921567
 20
47.84717547965383
 30
0.0
 10
73.2441303692688
 20
47.34199399411292
 30
0.0
 10
73.37949334035063
 20
46.83681250857199
 30
0.0
  0
SPLINE
  5
88
330
1F
100
AcDbEntity
  8
0
  6
Continuous
 62
     7
370
    25
100
AcDbSpline
210
0.0
220
0.0
230
1.0
 70
     8
 71
     3
 72
    10
 73
     6
 74
     0
 42
0.000000001
 43
0.00000001
 40
0.0
 40
0.0
 40
0.0
 40
0.0
 40
0.5
 40
0.5
 40
1.0
 40
1.0
 40
1.0
 40
1.0
 10
73.37949334035063
 20
52.89899033506309
 30
0.0
 10
73.2441303692688
 20
52.39380884952216
 30
0.0
 10
73.13421669921567
 20
51.88862736398124
 30
0.0
 10
72.98404496597422
 20
50.87826439289939
 30
0.0
 10
72.94424855491329
 20
50.37308290735847
 30
0.0
 10
72.94424855491329
 20
49.86790142181754
 30
0.0
  0
LINE
  5
89
330
1F
100
AcDbEntity
  8
0
  6
Continuous
 62
     7
370
    25
100
AcDbLine
 10
83.3638637972
 20
52.8989903351
 30
0.0
 11
73.3794933404
 21
52.8989903351
 31
0.0
  0
SPLINE
  5
8A
330
1F
100
AcDbEntity
  8
0
  6
Continuous
 62
     7
370
    25
100
AcDbSpline
210
0.0
220
0.0
230
1.0
 70
     8
 71
     3
 72
     8
 73
     4
 74
     0
 42
0.000000001
 43
0.00000001
 40
0.0
 40
0.0
 40
0.0
 40
0.0
 40
1.0
 40
1.0
 40
1.0
 40
1.0
 10
83.44424855491329
 20
52.5866045413311
 30
0.0
 10
83.41856493114511
 20
52.69082657760224
 30
0.0
 10
83.39174059687058
 20
52.79495270228021
 30
0.0
 10
83.36386379718394
 20
52.89899033506309
 30
0.0
  0
SPLINE
  5
8B
330
1F
100
AcDbEntity
  8
0
  6
Continuous
 62
     7
370
    25
100
AcDbSpline
210
0.0
220
0.0
230
1.0
 70
     8
 71
     3
 72
     8
 73
     4
 74
     0
 42
0.000000001
 43
0.00000001
 40
0.0
 40
0.0
 40
0.0
 40
0.0
 40
1.0
 40
1.0
 40
1.0
 40
1.0
 10
83.52463331264262
 20
52.89899033506309
 30
0.0
 10
83.49674660406085
 20
52.79491572178003
 30
0.0
 10
83.46992280789445
 20
52.69078855171803
 30
0.0
 10
83.44424855491329
 20
52.5866045413311
 30
0.0
  0
LINE
  5
8C
330
1F
100
AcDbEntity
  8
0
  6
Continuous
 62
     7
370
    25
100
AcDbLine
 10
86.8620888141
 20
52.8989903351
 30
0.0
 11
83.5246333126
 21
52.8989903351
 31
0.0
  0
SPLINE
  5
8D
330
1F
100
AcDbEntity
  8
0
  6
Continuous
 62
     7
370
    25
100
AcDbSpline
210
0.0
220
0.0
230
1.0
 70
     8
 71
     3
 72
    16
 73
    12
 74
     0
 42
0.000000001
 43
0.00000001
 40
0.0
 40
0.0
 40
0.0
 40
0.0
 40
0.2499999999999998
 40
0.2499999999999998
 40
0.4999999999999997
 40
0.4999999999999997
 40
0.6249999999999997
 40
0.6249999999999997
 40
0.7499999999999997
 40
0.7499999999999997
 40
1.0
 40
1.0
 40
1.0
 40
1.0
 10
86.86208881410728
 20
52.89899033506312
 30
0.0
 10
87.14783061138995
 20
52.40407102432347
 30
0.0
 10
87.38333361154517
 20
51.90554337013362
 30
0.0
 10
87.70958172871164
 20
50.89809099436035
 30
0.0
 10
87.79925069368255
 20
50.3890889794023
 30
0.0
 10
87.80023560008478
 20
49.61599614230725
 30
0.0
 10
87.77831502327498
 20
49.35708586157926
 30
0.0
 10
87.69283630554062
 20
48.84493403772838
 30
0.0
 10
87.62936491707413
 20
48.59057518000309
 30
0.0
 10
87.38427267987575
 20
47.83202711728429
 30
0.0
 10
87.14818681231854
 20
47.33234877741793
 30
0.0
 10
86.86208881410712
 20
46.83681250857197
 30
0.0
  0
LINE
  5
8E
330
1F
100
AcDbEntity
  8
0
  6
Continuous
 62
     7
370
    25
100
AcDbLine
 10
86.8620888141
 20
46.8368125086
 30
0.0
 11
83.5246333126
 21
46.8368125086
 31
0.0
  0
SPLINE
  5
8F
330
1F
100
AcDbEntity
  8
0
  6
Continuous
 62
     7
370
    25
100
AcDbSpline
210
0.0
220
0.0
230
1.0
 70
     8
 71
     3
 72
     8
 73
     4
 74
     0
 42
0.000000001
 43
0.00000001
 40
0.0
 40
0.0
 40
0.0
 40
0.0
 40
1.0
 40
1.0
 40
1.0
 40
1.0
 10
83.44424855491329
 20
47.14919830230398
 30
0.0
 10
83.46993217868146
 20
47.04497626603284
 30
0.0
 10
83.496756512956
 20
46.94085014135488
 30
0.0
 10
83.52463331264262
 20
46.83681250857199
 30
0.0
  0
SPLINE
  5
90
330
1F
100
AcDbEntity
  8
0
  6
Continuous
 62
     7
370
    25
100
AcDbSpline
210
0.0
220
0.0
230
1.0
 70
     8
 71
     3
 72
     8
 73
     4
 74
     0
 42
0.000000001
 43
0.00000001
 40
0.0
 40
0.0
 40
0.0
 40
0.0
 40
1.0
 40
1.0
 40
1.0
 40
1.0
 10
83.36386379718394
 20
46.83681250857199
 30
0.0
 10
83.39175050576573
 20
46.94088712185506
 30
0.0
 10
83.41857430193211
 20
47.04501429191705
 30
0.0
 10
83.44424855491329
 20
47.14919830230398
 30
0.0
  0
LINE
  5
91
330
1F
100
AcDbEntity
  8
0
  6
Continuous
 62
     7
370
    25
100
AcDbLine
 10
83.3638637972
 20
34.7124568556
 30
0.0
 11
73.3794933404
 21
34.7124568556
 31
0.0
  0
SPLINE
  5
92
330
1F
100
AcDbEntity
  8
0
  6
Continuous
 62
     7
370
    25
100
AcDbSpline
210
0.0
220
0.0
230
1.0
 70
     8
 71
     3
 72
    10
 73
     6
 74
     0
 42
0.000000001
 43
0.00000001
 40
0.0
 40
0.0
 40
0.0
 40
0.0
 40
0.4999999999999999
 40
0.4999999999999999
 40
1.0
 40
1.0
 40
1.0
 40
1.0
 10
73.37949334035078
 20
34.71245685558981
 30
0.0
 10
73.24453861403533
 20
35.71977264625139
 30
0.0
 10
73.1341899555812
 20
36.73327675514867
 30
0.0
 10
72.98394332638489
 20
38.75554254736883
 30
0.0
 10
72.94424855491329
 20
39.76565838176499
 30
0.0
 10
72.94424855491329
 20
40.7746346820809
 30
0.0
  0
SPLINE
  5
93
330
1F
100
AcDbEntity
  8
0
  6
Continuous
 62
     7
370
    25
100
AcDbSpline
210
0.0
220
0.0
230
1.0
 70
     8
 71
     3
 72
    10
 73
     6
 74
     0
 42
0.000000001
 43
0.00000001
 40
0.0
 40
0.0
 40
0.0
 40
0.0
 40
0.5
 40
0.5
 40
1.0
 40
1.0
 40
1.0
 40
1.0
 10
72.94424855491329
 20
40.7746346820809
 30
0.0
 10
72.94424855491329
 20
41.78708011158178
 30
0.0
 10
72.98420205954778
 20
42.79837857944343
 30
0.0
 10
73.13449724204885
 20
44.81895485301725
 30
0.0
 10
73.24437106162972
 20
45.82824608972906
 30
0.0
 10
73.37949334035078
 20
46.836812508572
 30
0.0
  0
SPLINE
  5
94
330
1F
100
AcDbEntity
  8
0
  6
Continuous
 62
     7
370
    25
100
AcDbSpline
210
0.0
220
0.0
230
1.0
 70
     8
 71
     3
 72
     8
 73
     4
 74
     0
 42
0.000000001
 43
0.00000001
 40
0.0
 40
0.0
 40
0.0
 40
0.0
 40
1.0
 40
1.0
 40
1.0
 40
1.0
 10
83.44424855491329
 20
46.21204092110801
 30
0.0
 10
83.41856541336485
 20
46.42048108003416
 30
0.0
 10
83.391741106433
 20
46.62873343958039
 30
0.0
 10
83.36386379718394
 20
46.83681250857199
 30
0.0
  0
SPLINE
  5
95
330
1F
100
AcDbEntity
  8
0
  6
Continuous
 62
     7
370
    25
100
AcDbSpline
210
0.0
220
0.0
230
1.0
 70
     8
 71
     3
 72
     8
 73
     4
 74
     0
 42
0.000000001
 43
0.00000001
 40
0.0
 40
0.0
 40
0.0
 40
0.0
 40
1.0
 40
1.0
 40
1.0
 40
1.0
 10
83.52463331264262
 20
46.836812508572
 30
0.0
 10
83.49674515027739
 20
46.62865243081847
 30
0.0
 10
83.4699214341946
 20
46.42039779315952
 30
0.0
 10
83.44424855491329
 20
46.21204092110801
 30
0.0
  0
SPLINE
  5
96
330
1F
100
AcDbEntity
  8
0
  6
Continuous
 62
     7
370
    25
100
AcDbSpline
210
0.0
220
0.0
230
1.0
 70
     8
 71
     3
 72
    16
 73
    12
 74
     0
 42
0.000000001
 43
0.00000001
 40
0.0
 40
0.0
 40
0.0
 40
0.0
 40
0.2499999999999999
 40
0.2499999999999999
 40
0.4999999999999999
 40
0.4999999999999999
 40
0.6249999999999999
 40
0.6249999999999999
 40
0.7499999999999999
 40
0.7499999999999999
 40
1.0
 40
1.0
 40
1.0
 40
1.0
 10
86.86208881410698
 20
34.71245685558981
 30
0.0
 10
87.14706938914085
 20
35.69965852584757
 30
0.0
 10
87.38567399003988
 20
36.7094544011894
 30
0.0
 10
87.71189847600593
 20
38.73297668413531
 30
0.0
 10
87.80003435572632
 20
39.75113519923931
 30
0.0
 10
87.7998491058122
 20
41.28966909650536
 30
0.0
 10
87.77792442094969
 20
41.80499841669351
 30
0.0
 10
87.69113942500421
 20
42.83675238612193
 30
0.0
 10
87.6269112322033
 20
43.34714036265804
 30
0.0
 10
87.38051729785002
 20
44.86415496360298
 30
0.0
 10
87.14501418992847
 20
45.85673025722522
 30
0.0
 10
86.86208881410695
 20
46.836812508572
 30
0.0
  0
LINE
  5
97
330
1F
100
AcDbEntity
  8
0
  6
Continuous
 62
     7
370
    25
100
AcDbLine
 10
86.8620888141
 20
34.7124568556
 30
0.0
 11
83.5246333126
 21
34.7124568556
 31
0.0
  0
SPLINE
  5
98
330
1F
100
AcDbEntity
  8
0
  6
Continuous
 62
     7
370
    25
100
AcDbSpline
210
0.0
220
0.0
230
1.0
 70
     8
 71
     3
 72
     8
 73
     4
 74
     0
 42
0.000000001
 43
0.00000001
 40
0.0
 40
0.0
 40
0.0
 40
0.0
 40
1.0
 40
1.0
 40
1.0
 40
1.0
 10
83.44424855491329
 20
35.3372284430538
 30
0.0
 10
83.46993169646173
 20
35.12878828412764
 30
0.0
 10
83.49675600339357
 20
34.92053592458142
 30
0.0
 10
83.52463331264262
 20
34.71245685558981
 30
0.0
  0
SPLINE
  5
99
330
1F
100
AcDbEntity
  8
0
  6
Continuous
 62
     7
370
    25
100
AcDbSpline
210
0.0
220
0.0
230
1.0
 70
     8
 71
     3
 72
     8
 73
     4
 74
     0
 42
0.000000001
 43
0.00000001
 40
0.0
 40
0.0
 40
0.0
 40
0.0
 40
1.0
 40
1.0
 40
1.0
 40
1.0
 10
83.36386379718394
 20
34.71245685558981
 30
0.0
 10
83.39175195954918
 20
34.92061693334334
 30
0.0
 10
83.41857567563196
 20
35.12887157100228
 30
0.0
 10
83.44424855491329
 20
35.33722844305379
 30
0.0
  0
SPLINE
  5
9A
330
1F
100
AcDbEntity
  8
0
  6
Continuous
 62
     7
370
    25
100
AcDbSpline
210
0.0
220
0.0
230
1.0
 70
     8
 71
     3
 72
    16
 73
    12
 74
     0
 42
0.000000001
 43
0.00000001
 40
0.0
 40
0.0
 40
0.0
 40
0.0
 40
0.25
 40
0.25
 40
0.5
 40
0.5
 40
0.625
 40
0.625
 40
0.75
 40
0.75
 40
1.0
 40
1.0
 40
1.0
 40
1.0
 10
59.02640829571959
 20
34.71245685558981
 30
0.0
 10
58.7414722412471
 20
35.69950430209895
 30
0.0
 10
58.50283279117986
 20
36.7093858189336
 30
0.0
 10
58.17657989548189
 20
38.73310150755366
 30
0.0
 10
58.08846637492508
 20
39.75123824227685
 30
0.0
 10
58.08864618221367
 20
41.28952159086524
 30
0.0
 10
58.11054052584048
 20
41.80448766322469
 30
0.0
 10
58.19732376028946
 20
42.83647735177863
 30
0.0
 10
58.26155847982687
 20
43.3469528208493
 30
0.0
 10
58.50797388450724
 20
44.86415617645427
 30
0.0
 10
58.74349154097702
 20
45.85676012151858
 30
0.0
 10
59.02640829571963
 20
46.83681250857199
 30
0.0
  0
SPLINE
  5
9B
330
1F
100
AcDbEntity
  8
0
  6
Continuous
 62
     7
370
    25
100
AcDbSpline
210
0.0
220
0.0
230
1.0
 70
     8
 71
     3
 72
    16
 73
    12
 74
     0
 42
0.000000001
 43
0.00000001
 40
0.0
 40
0.0
 40
0.0
 40
0.0
 40
0.2500000000000001
 40
0.2500000000000001
 40
0.5000000000000001
 40
0.5000000000000001
 40
0.625
 40
0.625
 40
0.7499999999999999
 40
0.7499999999999999
 40
1.0
 40
1.0
 40
1.0
 40
1.0
 10
59.02640829571929
 20
28.65027902909876
 30
0.0
 10
58.74066649843662
 20
29.1451983398384
 30
0.0
 10
58.50516349828141
 20
29.64372599402824
 30
0.0
 10
58.17891538111493
 20
30.6511783698015
 30
0.0
 10
58.08924641614402
 20
31.16018038475954
 30
0.0
 10
58.08826150974179
 20
31.93327322185459
 30
0.0
 10
58.11018208655157
 20
32.19218350258257
 30
0.0
 10
58.19566080428595
 20
32.70433532643344
 30
0.0
 10
58.25913219275245
 20
32.95869418415874
 30
0.0
 10
58.50422442995081
 20
33.71724224687753
 30
0.0
 10
58.74031029750802
 20
34.21692058674387
 30
0.0
 10
59.02640829571945
 20
34.71245685558982
 30
0.0
  0
LINE
  5
9C
330
1F
100
AcDbEntity
  8
0
  6
Continuous
 62
     7
370
    25
100
AcDbLine
 10
57.9442485549
 20
40.7746346821
 30
0.0
 11
57.9442485549
 21
51.0246346821
 31
0.0
  0
LINE
  5
9D
330
1F
100
AcDbEntity
  8
0
  6
Continuous
 62
     7
370
    25
100
AcDbLine
 10
57.9442485549
 20
30.5246346821
 30
0.0
 11
57.9442485549
 21
40.7746346821
 31
0.0
  0
SPLINE
  5
9E
330
1F
100
AcDbEntity
  8
0
  6
Continuous
 62
     7
370
    25
100
AcDbSpline
210
0.0
220
0.0
230
1.0
 70
     8
 71
     3
 72
    16
 73
    12
 74
     0
 42
0.000000001
 43
0.00000001
 40
0.0
 40
0.0
 40
0.0
 40
0.0
 40
0.2500000000000002
 40
0.2500000000000002
 40
0.5000000000000003
 40
0.5000000000000003
 40
0.6250000000000003
 40
0.6250000000000003
 40
0.7500000000000002
 40
0.7500000000000002
 40
1.0
 40
1.0
 40
1.0
 40
1.0
 10
86.86208881410728
 20
34.71245685558983
 30
0.0
 10
87.14783061138995
 20
34.2175375448502
 30
0.0
 10
87.38333361154515
 20
33.71900989066036
 30
0.0
 10
87.70958172871164
 20
32.71155751488709
 30
0.0
 10
87.79925069368255
 20
32.20255549992905
 30
0.0
 10
87.80023560008478
 20
31.42946266283402
 30
0.0
 10
87.77831502327498
 20
31.17055238210602
 30
0.0
 10
87.69283630554062
 20
30.65840055825516
 30
0.0
 10
87.62936491707413
 20
30.40404170052986
 30
0.0
 10
87.38427267987575
 20
29.64549363781107
 30
0.0
 10
87.14818681231854
 20
29.14581529794471
 30
0.0
 10
86.86208881410712
 20
28.65027902909877
 30
0.0
  0
LINE
  5
9F
330
1F
100
AcDbEntity
  8
0
  6
Continuous
 62
     7
370
    25
100
AcDbLine
 10
87.9442485549
 20
51.0246346821
 30
0.0
 11
87.9442485549
 21
30.5246346821
 31
0.0
  0
LINE
  5
A0
330
1F
100
AcDbEntity
  8
0
  6
Continuous
 62
     7
370
    25
100
AcDbLine
 10
83.4442485549
 20
34.4000710619
 30
0.0
 11
83.4442485549
 21
35.3372284431
 31
0.0
  0
SPLINE
  5
A1
330
1F
100
AcDbEntity
  8
0
  6
Continuous
 62
     7
370
    25
100
AcDbSpline
210
0.0
220
0.0
230
1.0
 70
     8
 71
     3
 72
     8
 73
     4
 74
     0
 42
0.000000001
 43
0.00000001
 40
0.0
 40
0.0
 40
0.0
 40
0.0
 40
1.0
 40
1.0
 40
1.0
 40
1.0
 10
83.44424855491329
 20
34.40007106185783
 30
0.0
 10
83.41856493114511
 20
34.50429309812897
 30
0.0
 10
83.39174059687058
 20
34.60841922280693
 30
0.0
 10
83.36386379718394
 20
34.71245685558981
 30
0.0
  0
SPLINE
  5
A2
330
1F
100
AcDbEntity
  8
0
  6
Continuous
 62
     7
370
    25
100
AcDbSpline
210
0.0
220
0.0
230
1.0
 70
     8
 71
     3
 72
     8
 73
     4
 74
     0
 42
0.000000001
 43
0.00000001
 40
0.0
 40
0.0
 40
0.0
 40
0.0
 40
1.0
 40
1.0
 40
1.0
 40
1.0
 10
83.52463331264262
 20
34.71245685558981
 30
0.0
 10
83.49674660406085
 20
34.60838224230675
 30
0.0
 10
83.46992280789445
 20
34.50425507224475
 30
0.0
 10
83.44424855491329
 20
34.40007106185783
 30
0.0
  0
LINE
  5
A3
330
1F
100
AcDbEntity
  8
0
  6
Continuous
 62
     7
370
    25
100
AcDbLine
 10
83.4442485549
 20
46.2120409211
 30
0.0
 11
83.4442485549
 21
47.1491983023
 31
0.0
  0
LINE
  5
A4
330
1F
100
AcDbEntity
  8
0
  6
Continuous
 62
     7
370
    25
100
AcDbLine
 10
72.9442485549
 20
40.7746346821
 30
0.0
 11
72.9442485549
 21
31.6813679423
 31
0.0
  0
SPLINE
  5
A5
330
1F
100
AcDbEntity
  8
0
  6
Continuous
 62
     7
370
    25
100
AcDbSpline
210
0.0
220
0.0
230
1.0
 70
     8
 71
     3
 72
    10
 73
     6
 74
     0
 42
0.000000001
 43
0.00000001
 40
0.0
 40
0.0
 40
0.0
 40
0.0
 40
0.5000000000000001
 40
0.5000000000000001
 40
1.0
 40
1.0
 40
1.0
 40
1.0
 10
72.50900376947592
 20
34.71245685558981
 30
0.0
 10
72.64436674055777
 20
34.2072753700489
 30
0.0
 10
72.7542804106109
 20
33.70209388450797
 30
0.0
 10
72.90445214385235
 20
32.69173091342613
 30
0.0
 10
72.94424855491329
 20
32.18654942788523
 30
0.0
 10
72.94424855491329
 20
31.6813679423443
 30
0.0
  0
SPLINE
  5
A6
330
1F
100
AcDbEntity
  8
0
  6
Continuous
 62
     7
370
    25
100
AcDbSpline
210
0.0
220
0.0
230
1.0
 70
     8
 71
     3
 72
    10
 73
     6
 74
     0
 42
0.000000001
 43
0.00000001
 40
0.0
 40
0.0
 40
0.0
 40
0.0
 40
0.4999999999999999
 40
0.4999999999999999
 40
1.0
 40
1.0
 40
1.0
 40
1.0
 10
72.5090037694758
 20
34.71245685558981
 30
0.0
 10
72.64395849579124
 20
35.71977264625139
 30
0.0
 10
72.75430715424537
 20
36.73327675514867
 30
0.0
 10
72.90455378344168
 20
38.75554254736883
 30
0.0
 10
72.94424855491329
 20
39.76565838176499
 30
0.0
 10
72.94424855491329
 20
40.7746346820809
 30
0.0
  0
SPLINE
  5
A7
330
1F
100
AcDbEntity
  8
0
  6
Continuous
 62
     7
370
    25
100
AcDbSpline
210
0.0
220
0.0
230
1.0
 70
     8
 71
     3
 72
    10
 73
     6
 74
     0
 42
0.000000001
 43
0.00000001
 40
0.0
 40
0.0
 40
0.0
 40
0.0
 40
0.5000000000000001
 40
0.5000000000000001
 40
1.0
 40
1.0
 40
1.0
 40
1.0
 10
73.37949334035063
 20
34.71245685558981
 30
0.0
 10
73.2441303692688
 20
34.2072753700489
 30
0.0
 10
73.13421669921567
 20
33.70209388450797
 30
0.0
 10
72.98404496597422
 20
32.69173091342613
 30
0.0
 10
72.94424855491329
 20
32.18654942788523
 30
0.0
 10
72.94424855491329
 20
31.6813679423443
 30
0.0
  0
LINE
  5
A8
330
1F
100
AcDbEntity
  8
0
  6
Continuous
 62
     7
370
    25
100
AcDbLine
 10
72.9442485549
 20
49.8679014218
 30
0.0
 11
72.9442485549
 21
40.7746346821
 31
0.0
  0
SPLINE
  5
A9
330
1F
100
AcDbEntity
  8
0
  6
Continuous
 62
     7
370
    25
100
AcDbSpline
210
0.0
220
0.0
230
1.0
 70
     8
 71
     3
 72
    10
 73
     6
 74
     0
 42
0.000000001
 43
0.00000001
 40
0.0
 40
0.0
 40
0.0
 40
0.0
 40
0.5
 40
0.5
 40
1.0
 40
1.0
 40
1.0
 40
1.0
 10
72.94424855491329
 20
40.7746346820809
 30
0.0
 10
72.94424855491329
 20
41.78708011158178
 30
0.0
 10
72.90429505027879
 20
42.79837857944343
 30
0.0
 10
72.75399986777772
 20
44.81895485301725
 30
0.0
 10
72.64412604819685
 20
45.82824608972906
 30
0.0
 10
72.5090037694758
 20
46.836812508572
 30
0.0
  0
LINE
  5
AA
330
1F
100
AcDbEntity
  8
0
  6
Continuous
 62
     7
370
    25
100
AcDbLine
 10
72.5090037695
 20
34.7124568556
 30
0.0
 11
59.0264082957
 21
34.7124568556
 31
0.0
  0
LINE
  5
AB
330
1F
100
AcDbEntity
  8
0
  6
Continuous
 62
     7
370
    25
100
AcDbLine
 10
83.3638637972
 20
28.6502790291
 30
0.0
 11
73.3794933404
 21
28.6502790291
 31
0.0
  0
SPLINE
  5
AC
330
1F
100
AcDbEntity
  8
0
  6
Continuous
 62
     7
370
    25
100
AcDbSpline
210
0.0
220
0.0
230
1.0
 70
     8
 71
     3
 72
    10
 73
     6
 74
     0
 42
0.000000001
 43
0.00000001
 40
0.0
 40
0.0
 40
0.0
 40
0.0
 40
0.5
 40
0.5
 40
1.0
 40
1.0
 40
1.0
 40
1.0
 10
72.94424855491329
 20
31.6813679423443
 30
0.0
 10
72.94424855491329
 20
31.17618645680338
 30
0.0
 10
72.98404496597422
 20
30.67100497126246
 30
0.0
 10
73.13421669921567
 20
29.66064200018062
 30
0.0
 10
73.2441303692688
 20
29.1554605146397
 30
0.0
 10
73.37949334035063
 20
28.65027902909878
 30
0.0
  0
LINE
  5
AD
330
1F
100
AcDbEntity
  8
0
  6
Continuous
 62
     7
370
    25
100
AcDbLine
 10
86.8620888141
 20
28.6502790291
 30
0.0
 11
83.5246333126
 21
28.6502790291
 31
0.0
  0
SPLINE
  5
AE
330
1F
100
AcDbEntity
  8
0
  6
Continuous
 62
     7
370
    25
100
AcDbSpline
210
0.0
220
0.0
230
1.0
 70
     8
 71
     3
 72
     8
 73
     4
 74
     0
 42
0.000000001
 43
0.00000001
 40
0.0
 40
0.0
 40
0.0
 40
0.0
 40
1.0
 40
1.0
 40
1.0
 40
1.0
 10
83.44424855491329
 20
28.96266482283077
 30
0.0
 10
83.46993217868146
 20
28.85844278655963
 30
0.0
 10
83.496756512956
 20
28.75431666188167
 30
0.0
 10
83.52463331264262
 20
28.65027902909878
 30
0.0
  0
SPLINE
  5
AF
330
1F
100
AcDbEntity
  8
0
  6
Continuous
 62
     7
370
    25
100
AcDbSpline
210
0.0
220
0.0
230
1.0
 70
     8
 71
     3
 72
     8
 73
     4
 74
     0
 42
0.000000001
 43
0.00000001
 40
0.0
 40
0.0
 40
0.0
 40
0.0
 40
1.0
 40
1.0
 40
1.0
 40
1.0
 10
83.36386379718394
 20
28.65027902909879
 30
0.0
 10
83.39175050576573
 20
28.75435364238184
 30
0.0
 10
83.41857430193211
 20
28.85848081244384
 30
0.0
 10
83.44424855491329
 20
28.96266482283077
 30
0.0
  0
SPLINE
  5
B0
330
1F
100
AcDbEntity
  8
0
  6
Continuous
 62
     7
370
    25
100
AcDbSpline
210
0.0
220
0.0
230
1.0
 70
     8
 71
     3
 72
    10
 73
     6
 74
     0
 42
0.000000001
 43
0.00000001
 40
0.0
 40
0.0
 40
0.0
 40
0.0
 40
0.5
 40
0.5
 40
1.0
 40
1.0
 40
1.0
 40
1.0
 10
72.94424855491329
 20
31.6813679423443
 30
0.0
 10
72.94424855491329
 20
31.17618645680338
 30
0.0
 10
72.90445214385235
 20
30.67100497126246
 30
0.0
 10
72.7542804106109
 20
29.66064200018062
 30
0.0
 10
72.64436674055777
 20
29.1554605146397
 30
0.0
 10
72.50900376947592
 20
28.65027902909878
 30
0.0
  0
LINE
  5
B1
330
1F
100
AcDbEntity
  8
0
  6
Continuous
 62
     7
370
    25
100
AcDbLine
 10
72.5090037695
 20
28.6502790291
 30
0.0
 11
59.0264082957
 21
28.6502790291
 31
0.0
  0
LINE
  5
B2
330
1F
100
AcDbEntity
  8
0
  6
Continuous
 62
     7
370
    25
100
AcDbLine
 10
72.9442485549
 20
51.2746346821
 30
0.0
 11
72.9442485549
 21
49.8679014218
 31
0.0
  0
LINE
  5
B3
330
1F
100
AcDbEntity
  8
0
  6
Continuous
 62
     7
370
    25
100
AcDbLine
 10
72.9442485549
 20
31.6813679423
 30
0.0
 11
72.9442485549
 21
30.2746346821
 31
0.0
  0
LINE
  5
B4
330
1F
100
AcDbEntity
  8
0
  6
Continuous
 62
     7
370
    25
100
AcDbLine
 10
83.4442485549
 20
52.5866045413
 30
0.0
 11
83.4442485549
 21
52.5989903351
 31
0.0
  0
LINE
  5
B5
330
1F
100
AcDbEntity
  8
0
  6
Continuous
 62
     7
370
    25
100
AcDbLine
 10
83.4442485549
 20
28.9502790291
 30
0.0
 11
83.4442485549
 21
28.9626648228
 31
0.0
  0
LINE
  5
B6
330
1F
100
AcDbEntity
  8
0
  6
CENTERX2
 62
     7
370
    18
100
AcDbLine
 10
85.8620888141
 20
40.7746346821
 30
0.0
 11
88.9442485549
 21
40.7746346821
 31
0.0
  0
LINE
  5
B7
330
1F
100
AcDbEntity
  8
0
  6
CENTERX2
 62
     7
370
    18
100
AcDbLine
 10
86.8620888141
 20
40.7746346821
 30
0.0
 11
82.5246333126
 21
40.7746346821
 31
0.0
  0
LINE
  5
B8
330
1F
100
AcDbEntity
  8
0
  6
CENTERX2
 62
     7
370
    18
100
AcDbLine
 10
84.3638637972
 20
40.7746346821
 30
0.0
 11
72.3794933404
 21
40.7746346821
 31
0.0
  0
LINE
  5
B9
330
1F
100
AcDbEntity
  8
0
  6
CENTERX2
 62
     7
370
    18
100
AcDbLine
 10
73.5090037695
 20
40.7746346821
 30
0.0
 11
58.0264082957
 21
40.7746346821
 31
0.0
  0
LINE
  5
BA
330
1F
100
AcDbEntity
  8
0
  6
CENTERX2
 62
     7
370
    18
100
AcDbLine
 10
60.0264082957
 20
40.7746346821
 30
0.0
 11
56.9442485549
 21
40.7746346821
 31
0.0
  0
CIRCLE
  5
BB
330
1F
100
AcDbEntity
  8
0
  6
Continuous
 62
     7
370
    25
100
AcDbCircle
 10
116.7632127168
 20
40.7746346821
 30
0.0
 40
10.24999999999999
  0
CIRCLE
  5
BC
330
1F
100
AcDbEntity
  8
0
  6
Continuous
 62
     7
370
    25
100
AcDbCircle
 10
116.7632127168
 20
40.7746346821
 30
0.0
 40
8.499999999999986
  0
SPLINE
  5
BD
330
1F
100
AcDbEntity
  8
0
  6
Continuous
 62
     7
370
    25
100
AcDbSpline
210
0.0
220
0.0
230
1.0
 70
    24
 71
     3
 72
    16
 73
    12
 74
     0
 42
0.000000001
 43
0.00000001
 40
0.0
 40
0.0
 40
0.0
 40
0.0
 40
0.2499999999999999
 40
0.2499999999999999
 40
0.4999999999999999
 40
0.4999999999999999
 40
0.6249999999999999
 40
0.6249999999999999
 40
0.7499999999999998
 40
0.7499999999999998
 40
1.0
 40
1.0
 40
1.0
 40
1.0
 10
127.2632127167631
 20
34.71245685558995
 30
0.0
 10
127.2632127167631
 20
35.69965852584728
 30
0.0
 10
127.2632127167631
 20
36.70945440118903
 30
0.0
 10
127.263212716763
 20
38.7329766841389
 30
0.0
 10
127.263212716763
 20
39.75113519924597
 30
0.0
 10
127.263212716763
 20
41.28966909651866
 30
0.0
 10
127.263212716763
 20
41.80499841671511
 30
0.0
 10
127.263212716763
 20
42.83675238613596
 30
0.0
 10
127.263212716763
 20
43.34714036266902
 30
0.0
 10
127.263212716763
 20
44.86415496360667
 30
0.0
 10
127.2632127167629
 20
45.85673025722642
 30
0.0
 10
127.2632127167629
 20
46.83681250857214
 30
0.0
  0
SPLINE
  5
BE
330
1F
100
AcDbEntity
  8
0
  6
Continuous
 62
     7
370
    25
100
AcDbSpline
210
0.0
220
0.0
230
1.0
 70
    24
 71
     3
 72
    16
 73
    12
 74
     0
 42
0.000000001
 43
0.00000001
 40
0.0
 40
0.0
 40
0.0
 40
0.0
 40
0.2500000000000001
 40
0.2500000000000001
 40
0.5000000000000002
 40
0.5000000000000002
 40
0.6250000000000001
 40
0.6250000000000001
 40
0.7500000000000001
 40
0.7500000000000001
 40
1.0
 40
1.0
 40
1.0
 40
1.0
 10
116.763212716763
 20
28.65027902909876
 30
0.0
 10
117.6204381086111
 20
29.14519833983841
 30
0.0
 10
118.483913334646
 20
29.64372599402826
 30
0.0
 10
120.2288720356913
 20
30.65117836980155
 30
0.0
 10
121.1104893867535
 20
31.1601803847596
 30
0.0
 10
122.4495254595697
 20
31.93327322185467
 30
0.0
 10
122.8979712203925
 20
32.19218350258266
 30
0.0
 10
123.7850442004913
 20
32.70433532643354
 30
0.0
 10
124.2256066654267
 20
32.95869418415884
 30
0.0
 10
125.5394504500386
 20
33.71724224687765
 30
0.0
 10
126.4049187221288
 20
34.21692058674401
 30
0.0
 10
127.2632127167631
 20
34.71245685558997
 30
0.0
  0
SPLINE
  5
BF
330
1F
100
AcDbEntity
  8
0
  6
Continuous
 62
     7
370
    25
100
AcDbSpline
210
0.0
220
0.0
230
1.0
 70
    24
 71
     3
 72
    16
 73
    12
 74
     0
 42
0.000000001
 43
0.00000001
 40
0.0
 40
0.0
 40
0.0
 40
0.0
 40
0.2500000000000002
 40
0.2500000000000002
 40
0.5000000000000003
 40
0.5000000000000003
 40
0.6250000000000003
 40
0.6250000000000003
 40
0.7500000000000002
 40
0.7500000000000002
 40
1.0
 40
1.0
 40
1.0
 40
1.0
 10
106.263212716763
 20
34.71245685558983
 30
0.0
 10
107.120438108611
 20
34.2175375448502
 30
0.0
 10
107.9839133346459
 20
33.71900989066036
 30
0.0
 10
109.7288720356913
 20
32.71155751488709
 30
0.0
 10
110.6104893867535
 20
32.20255549992905
 30
0.0
 10
111.9495254595697
 20
31.42946266283402
 30
0.0
 10
112.3979712203925
 20
31.17055238210602
 30
0.0
 10
113.2850442004913
 20
30.65840055825516
 30
0.0
 10
113.7256066654267
 20
30.40404170052986
 30
0.0
 10
115.0394504500386
 20
29.64549363781107
 30
0.0
 10
115.9049187221288
 20
29.14581529794471
 30
0.0
 10
116.7632127167631
 20
28.65027902909877
 30
0.0
  0
SPLINE
  5
C0
330
1F
100
AcDbEntity
  8
0
  6
Continuous
 62
     7
370
    25
100
AcDbSpline
210
0.0
220
0.0
230
1.0
 70
    24
 71
     3
 72
    16
 73
    12
 74
     0
 42
0.000000001
 43
0.00000001
 40
0.0
 40
0.0
 40
0.0
 40
0.0
 40
0.2499999999999999
 40
0.2499999999999999
 40
0.4999999999999999
 40
0.4999999999999999
 40
0.6249999999999999
 40
0.6249999999999999
 40
0.7499999999999999
 40
0.7499999999999999
 40
1.0
 40
1.0
 40
1.0
 40
1.0
 10
106.263212716763
 20
34.71245685558981
 30
0.0
 10
106.263212716763
 20
35.69965852584757
 30
0.0
 10
106.263212716763
 20
36.7094544011894
 30
0.0
 10
106.263212716763
 20
38.73297668413531
 30
0.0
 10
106.263212716763
 20
39.75113519923931
 30
0.0
 10
106.263212716763
 20
41.28966909650536
 30
0.0
 10
106.263212716763
 20
41.80499841669351
 30
0.0
 10
106.263212716763
 20
42.83675238612193
 30
0.0
 10
106.263212716763
 20
43.34714036265804
 30
0.0
 10
106.263212716763
 20
44.86415496360298
 30
0.0
 10
106.263212716763
 20
45.85673025722522
 30
0.0
 10
106.263212716763
 20
46.836812508572
 30
0.0
  0
SPLINE
  5
C1
330
1F
100
AcDbEntity
  8
0
  6
Continuous
 62
     7
370
    25
100
AcDbSpline
210
0.0
220
0.0
230
1.0
 70
    24
 71
     3
 72
    16
 73
    12
 74
     0
 42
0.000000001
 43
0.00000001
 40
0.0
 40
0.0
 40
0.0
 40
0.0
 40
0.2499999999999998
 40
0.2499999999999998
 40
0.4999999999999997
 40
0.4999999999999997
 40
0.6249999999999997
 40
0.6249999999999997
 40
0.7499999999999997
 40
0.7499999999999997
 40
1.0
 40
1.0
 40
1.0
 40
1.0
 10
116.763212716763
 20
52.89899033506312
 30
0.0
 10
115.905987324915
 20
52.40407102432347
 30
0.0
 10
115.0425120988801
 20
51.90554337013362
 30
0.0
 10
113.2975533978348
 20
50.89809099436035
 30
0.0
 10
112.4159360467725
 20
50.3890889794023
 30
0.0
 10
111.0768999739563
 20
49.61599614230725
 30
0.0
 10
110.6284542131335
 20
49.35708586157926
 30
0.0
 10
109.7413812330348
 20
48.84493403772838
 30
0.0
 10
109.3008187680994
 20
48.59057518000309
 30
0.0
 10
107.9869749834875
 20
47.83202711728429
 30
0.0
 10
107.1215067113972
 20
47.33234877741793
 30
0.0
 10
106.263212716763
 20
46.83681250857197
 30
0.0
  0
SPLINE
  5
C2
330
1F
100
AcDbEntity
  8
0
  6
Continuous
 62
     7
370
    25
100
AcDbSpline
210
0.0
220
0.0
230
1.0
 70
    24
 71
     3
 72
    16
 73
    12
 74
     0
 42
0.000000001
 43
0.00000001
 40
0.0
 40
0.0
 40
0.0
 40
0.0
 40
0.2499999999999999
 40
0.2499999999999999
 40
0.4999999999999999
 40
0.4999999999999999
 40
0.6249999999999999
 40
0.6249999999999999
 40
0.75
 40
0.75
 40
1.0
 40
1.0
 40
1.0
 40
1.0
 10
127.263212716763
 20
46.83681250857212
 30
0.0
 10
126.405987324915
 20
47.33173181931175
 30
0.0
 10
125.54251209888
 20
47.83025947350158
 30
0.0
 10
123.7975533978348
 20
48.83771184927484
 30
0.0
 10
122.9159360467725
 20
49.34671386423286
 30
0.0
 10
121.5768999739563
 20
50.1198067013279
 30
0.0
 10
121.1284542131335
 20
50.37871698205588
 30
0.0
 10
120.2413812330348
 20
50.89086880590673
 30
0.0
 10
119.8008187680993
 20
51.14522766363203
 30
0.0
 10
118.4869749834875
 20
51.90377572635082
 30
0.0
 10
117.6215067113973
 20
52.40345406621716
 30
0.0
 10
116.763212716763
 20
52.8989903350631
 30
0.0
  0
CIRCLE
  5
C3
330
1F
100
AcDbEntity
  8
0
  6
Continuous
 62
     7
370
    25
100
AcDbCircle
 10
116.7632127168
 20
40.7746346821
 30
0.0
 40
7.905177158368943
  0
CIRCLE
  5
C4
330
1F
100
AcDbEntity
  8
0
  6
Continuous
 62
     7
370
    25
100
AcDbCircle
 10
116.7632127168
 20
40.7746346821
 30
0.0
 40
7.547130736683584
  0
CIRCLE
  5
C5
330
1F
100
AcDbEntity
  8
0
  6
Continuous
 62
     7
370
    25
100
AcDbCircle
 10
116.7632127168
 20
40.7746346821
 30
0.0
 40
7.474999999999994
  0
CIRCLE
  5
C6
330
1F
100
AcDbEntity
  8
0
  6
Continuous
 62
     7
370
    25
100
AcDbCircle
 10
116.7632127168
 20
40.7746346821
 30
0.0
 40
7.249999999999986
  0
CIRCLE
  5
C7
330
1F
100
AcDbEntity
  8
0
  6
Continuous
 62
     7
370
    25
100
AcDbCircle
 10
116.7632127168
 20
40.7746346821
 30
0.0
 40
5.837118241830836
  0
INSERT
  5
D3
330
1F
100
AcDbEntity
  8
0
  6
Continuous
 62
     7
370
    18
100
AcDbBlockReference
  2
SW_CENTERMARKSYMBOL_0
 10
116.7632127168
 20
40.7746346821
 30
0.0
  0
ARC
  5
D4
330
1F
100
AcDbEntity
  8
0
  6
Continuous
 62
     7
370
    18
100
AcDbCircle
 10
116.7632127168
 20
40.7746346821
 30
0.0
 40
8.365338499999996
100
AcDbArc
 50
75.0
 51
345.0
  0
ARC
  5
D5
330
1F
100
AcDbEntity
  8
0
  6
Continuous
 62
     7
370
    18
100
AcDbCircle
 10
116.7632127168
 20
40.7746346821
 30
0.0
 40
6.609509818208131
100
AcDbArc
 50
75.0
 51
345.0
  0
LINE
  5
D6
330
1F
100
AcDbEntity
  8
0
  6
Continuous
 62
     7
370
    25
100
AcDbLine
 10
58.0885861222
 20
88.3395479769
 30
0.0
 11
57.9442485549
 21
88.0895479769
 31
0.0
  0
LINE
  5
D7
330
1F
100
AcDbEntity
  8
0
  6
Continuous
 62
     7
370
    25
100
AcDbLine
 10
57.9442485549
 20
67.5895479769
 30
0.0
 11
58.0885861222
 21
67.3395479769
 31
0.0
  0
LINE
  5
D8
330
1F
100
AcDbEntity
  8
0
  6
Continuous
 62
     7
370
    25
100
AcDbLine
 10
87.7999109876
 20
67.3395479769
 30
0.0
 11
87.9442485549
 21
67.5895479769
 31
0.0
  0
LINE
  5
D9
330
1F
100
AcDbEntity
  8
0
  6
Continuous
 62
     7
370
    25
100
AcDbLine
 10
87.9442485549
 20
88.0895479769
 30
0.0
 11
87.7999109876
 21
88.3395479769
 31
0.0
  0
LINE
  5
DA
330
1F
100
AcDbEntity
  8
0
  6
Continuous
 62
     7
370
    25
100
AcDbLine
 10
83.3638637972
 20
77.8395479769
 30
0.0
 11
73.3794933404
 21
77.8395479769
 31
0.0
  0
SPLINE
  5
DB
330
1F
100
AcDbEntity
  8
0
  6
Continuous
 62
     7
370
    25
100
AcDbSpline
210
0.0
220
0.0
230
1.0
 70
     8
 71
     3
 72
    10
 73
     6
 74
     0
 42
0.000000001
 43
0.00000001
 40
0.0
 40
0.0
 40
0.0
 40
0.0
 40
0.5
 40
0.5
 40
1.0
 40
1.0
 40
1.0
 40
1.0
 10
72.9442485549133
 20
83.08954797687859
 30
0.0
 10
72.9442485549133
 20
82.21454797687859
 30
0.0
 10
72.98404496597423
 20
81.33954797687859
 30
0.0
 10
73.13421669921568
 20
79.5895479768786
 30
0.0
 10
73.2441303692688
 20
78.71454797687862
 30
0.0
 10
73.37949334035063
 20
77.83954797687862
 30
0.0
  0
SPLINE
  5
DC
330
1F
100
AcDbEntity
  8
0
  6
Continuous
 62
     7
370
    25
100
AcDbSpline
210
0.0
220
0.0
230
1.0
 70
     8
 71
     3
 72
    10
 73
     6
 74
     0
 42
0.000000001
 43
0.00000001
 40
0.0
 40
0.0
 40
0.0
 40
0.0
 40
0.4999999999999998
 40
0.4999999999999998
 40
1.0
 40
1.0
 40
1.0
 40
1.0
 10
73.37949334035063
 20
88.33954797687855
 30
0.0
 10
73.2441303692688
 20
87.46454797687855
 30
0.0
 10
73.13421669921568
 20
86.58954797687856
 30
0.0
 10
72.98404496597423
 20
84.83954797687856
 30
0.0
 10
72.9442485549133
 20
83.96454797687858
 30
0.0
 10
72.9442485549133
 20
83.08954797687859
 30
0.0
  0
LINE
  5
DD
330
1F
100
AcDbEntity
  8
0
  6
Continuous
 62
     7
370
    25
100
AcDbLine
 10
83.3638637972
 20
88.3395479769
 30
0.0
 11
73.3794933404
 21
88.3395479769
 31
0.0
  0
SPLINE
  5
DE
330
1F
100
AcDbEntity
  8
0
  6
Continuous
 62
     7
370
    25
100
AcDbSpline
210
0.0
220
0.0
230
1.0
 70
     8
 71
     3
 72
     8
 73
     4
 74
     0
 42
0.000000001
 43
0.00000001
 40
0.0
 40
0.0
 40
0.0
 40
0.0
 40
1.0
 40
1.0
 40
1.0
 40
1.0
 10
83.44424855491329
 20
87.79847991057201
 30
0.0
 10
83.41856493114511
 20
87.97899777266191
 30
0.0
 10
83.39174059687058
 20
88.15934951099939
 30
0.0
 10
83.36386379718394
 20
88.33954797687855
 30
0.0
  0
SPLINE
  5
DF
330
1F
100
AcDbEntity
  8
0
  6
Continuous
 62
     7
370
    25
100
AcDbSpline
210
0.0
220
0.0
230
1.0
 70
     8
 71
     3
 72
     8
 73
     4
 74
     0
 42
0.000000001
 43
0.00000001
 40
0.0
 40
0.0
 40
0.0
 40
0.0
 40
1.0
 40
1.0
 40
1.0
 40
1.0
 10
83.52463331264262
 20
88.33954797687855
 30
0.0
 10
83.49674660406085
 20
88.1592854588942
 30
0.0
 10
83.46992280789445
 20
87.97893190989846
 30
0.0
 10
83.44424855491329
 20
87.79847991057201
 30
0.0
  0
LINE
  5
E0
330
1F
100
AcDbEntity
  8
0
  6
Continuous
 62
     7
370
    25
100
AcDbLine
 10
86.8620888141
 20
88.3395479769
 30
0.0
 11
83.5246333126
 21
88.3395479769
 31
0.0
  0
SPLINE
  5
E1
330
1F
100
AcDbEntity
  8
0
  6
Continuous
 62
     7
370
    25
100
AcDbSpline
210
0.0
220
0.0
230
1.0
 70
     8
 71
     3
 72
    16
 73
    12
 74
     0
 42
0.000000001
 43
0.00000001
 40
0.0
 40
0.0
 40
0.0
 40
0.0
 40
0.2499999999999999
 40
0.2499999999999999
 40
0.4999999999999999
 40
0.4999999999999999
 40
0.6249999999999999
 40
0.6249999999999999
 40
0.75
 40
0.75
 40
1.0
 40
1.0
 40
1.0
 40
1.0
 10
86.86208881410728
 20
88.33954797687859
 30
0.0
 10
87.14783061138995
 20
87.48232258503057
 30
0.0
 10
87.38333361154515
 20
86.61884735899564
 30
0.0
 10
87.70958172871161
 20
84.87388865795037
 30
0.0
 10
87.79925069368252
 20
83.99227130688811
 30
0.0
 10
87.80023560008475
 20
82.65323523407193
 30
0.0
 10
87.77831502327496
 20
82.20478947324914
 30
0.0
 10
87.6928363055406
 20
81.31771649315037
 30
0.0
 10
87.6293649170741
 20
80.87715402821496
 30
0.0
 10
87.38427267987574
 20
79.56331024360308
 30
0.0
 10
87.14818681231854
 20
78.69784197151289
 30
0.0
 10
86.86208881410712
 20
77.83954797687859
 30
0.0
  0
LINE
  5
E2
330
1F
100
AcDbEntity
  8
0
  6
Continuous
 62
     7
370
    25
100
AcDbLine
 10
86.8620888141
 20
77.8395479769
 30
0.0
 11
83.5246333126
 21
77.8395479769
 31
0.0
  0
SPLINE
  5
E3
330
1F
100
AcDbEntity
  8
0
  6
Continuous
 62
     7
370
    25
100
AcDbSpline
210
0.0
220
0.0
230
1.0
 70
     8
 71
     3
 72
     8
 73
     4
 74
     0
 42
0.000000001
 43
0.00000001
 40
0.0
 40
0.0
 40
0.0
 40
0.0
 40
1.0
 40
1.0
 40
1.0
 40
1.0
 10
83.44424855491329
 20
78.38061604318517
 30
0.0
 10
83.46993217868146
 20
78.20009818109526
 30
0.0
 10
83.496756512956
 20
78.01974644275778
 30
0.0
 10
83.52463331264262
 20
77.83954797687862
 30
0.0
  0
SPLINE
  5
E4
330
1F
100
AcDbEntity
  8
0
  6
Continuous
 62
     7
370
    25
100
AcDbSpline
210
0.0
220
0.0
230
1.0
 70
     8
 71
     3
 72
     8
 73
     4
 74
     0
 42
0.000000001
 43
0.00000001
 40
0.0
 40
0.0
 40
0.0
 40
0.0
 40
1.0
 40
1.0
 40
1.0
 40
1.0
 10
83.36386379718394
 20
77.83954797687862
 30
0.0
 10
83.39175050576573
 20
78.01981049486297
 30
0.0
 10
83.41857430193211
 20
78.2001640438587
 30
0.0
 10
83.44424855491329
 20
78.38061604318517
 30
0.0
  0
LINE
  5
E5
330
1F
100
AcDbEntity
  8
0
  6
Continuous
 62
     7
370
    25
100
AcDbLine
 10
72.5090037695
 20
88.3395479769
 30
0.0
 11
59.0264082957
 21
88.3395479769
 31
0.0
  0
SPLINE
  5
E6
330
1F
100
AcDbEntity
  8
0
  6
Continuous
 62
     7
370
    25
100
AcDbSpline
210
0.0
220
0.0
230
1.0
 70
     8
 71
     3
 72
    10
 73
     6
 74
     0
 42
0.000000001
 43
0.00000001
 40
0.0
 40
0.0
 40
0.0
 40
0.0
 40
0.4999999999999998
 40
0.4999999999999998
 40
1.0
 40
1.0
 40
1.0
 40
1.0
 10
72.50900376947592
 20
88.33954797687855
 30
0.0
 10
72.64436674055777
 20
87.46454797687855
 30
0.0
 10
72.75428041061089
 20
86.58954797687856
 30
0.0
 10
72.90445214385234
 20
84.83954797687856
 30
0.0
 10
72.94424855491327
 20
83.96454797687858
 30
0.0
 10
72.94424855491327
 20
83.08954797687859
 30
0.0
  0
SPLINE
  5
E7
330
1F
100
AcDbEntity
  8
0
  6
Continuous
 62
     7
370
    25
100
AcDbSpline
210
0.0
220
0.0
230
1.0
 70
     8
 71
     3
 72
    10
 73
     6
 74
     0
 42
0.000000001
 43
0.00000001
 40
0.0
 40
0.0
 40
0.0
 40
0.0
 40
0.5
 40
0.5
 40
1.0
 40
1.0
 40
1.0
 40
1.0
 10
72.94424855491327
 20
83.08954797687859
 30
0.0
 10
72.94424855491327
 20
82.21454797687859
 30
0.0
 10
72.90445214385234
 20
81.33954797687859
 30
0.0
 10
72.75428041061089
 20
79.5895479768786
 30
0.0
 10
72.64436674055777
 20
78.71454797687862
 30
0.0
 10
72.50900376947592
 20
77.83954797687862
 30
0.0
  0
LINE
  5
E8
330
1F
100
AcDbEntity
  8
0
  6
Continuous
 62
     7
370
    25
100
AcDbLine
 10
72.5090037695
 20
77.8395479769
 30
0.0
 11
59.0264082957
 21
77.8395479769
 31
0.0
  0
SPLINE
  5
E9
330
1F
100
AcDbEntity
  8
0
  6
Continuous
 62
     7
370
    25
100
AcDbSpline
210
0.0
220
0.0
230
1.0
 70
     8
 71
     3
 72
    16
 73
    12
 74
     0
 42
0.000000001
 43
0.00000001
 40
0.0
 40
0.0
 40
0.0
 40
0.0
 40
0.2500000000000001
 40
0.2500000000000001
 40
0.5000000000000001
 40
0.5000000000000001
 40
0.625
 40
0.625
 40
0.7499999999999999
 40
0.7499999999999999
 40
1.0
 40
1.0
 40
1.0
 40
1.0
 10
59.02640829571929
 20
77.83954797687858
 30
0.0
 10
58.74066649843662
 20
78.6967733687266
 30
0.0
 10
58.50516349828141
 20
79.56024859476153
 30
0.0
 10
58.17891538111495
 20
81.3052072958068
 30
0.0
 10
58.08924641614405
 20
82.18682464686906
 30
0.0
 10
58.08826150974181
 20
83.52586071968524
 30
0.0
 10
58.1101820865516
 20
83.97430648050803
 30
0.0
 10
58.19566080428597
 20
84.8613794606068
 30
0.0
 10
58.25913219275247
 20
85.3019419255422
 30
0.0
 10
58.50422442995083
 20
86.61578571015409
 30
0.0
 10
58.74031029750802
 20
87.48125398224428
 30
0.0
 10
59.02640829571945
 20
88.33954797687856
 30
0.0
  0
SPLINE
  5
EA
330
1F
100
AcDbEntity
  8
0
  6
Continuous
 62
     7
370
    25
100
AcDbSpline
210
0.0
220
0.0
230
1.0
 70
     8
 71
     3
 72
    16
 73
    12
 74
     0
 42
0.000000001
 43
0.00000001
 40
0.0
 40
0.0
 40
0.0
 40
0.0
 40
0.2499999999999999
 40
0.2499999999999999
 40
0.4999999999999998
 40
0.4999999999999998
 40
0.6249999999999999
 40
0.6249999999999999
 40
0.75
 40
0.75
 40
1.0
 40
1.0
 40
1.0
 40
1.0
 10
59.02640829571929
 20
67.33954797687855
 30
0.0
 10
58.74066649843662
 20
68.19677336872658
 30
0.0
 10
58.50516349828141
 20
69.06024859476152
 30
0.0
 10
58.17891538111493
 20
70.80520729580681
 30
0.0
 10
58.08924641614402
 20
71.68682464686907
 30
0.0
 10
58.08826150974179
 20
73.02586071968527
 30
0.0
 10
58.11018208655157
 20
73.47430648050806
 30
0.0
 10
58.19566080428596
 20
74.36137946060684
 30
0.0
 10
58.25913219275245
 20
74.80194192554224
 30
0.0
 10
58.50422442995081
 20
76.11578571015413
 30
0.0
 10
58.74031029750802
 20
76.98125398224434
 30
0.0
 10
59.02640829571945
 20
77.83954797687865
 30
0.0
  0
SPLINE
  5
EB
330
1F
100
AcDbEntity
  8
0
  6
Continuous
 62
     7
370
    25
100
AcDbSpline
210
0.0
220
0.0
230
1.0
 70
    24
 71
     3
 72
    13
 73
     9
 74
     0
 42
0.000000001
 43
0.00000001
 40
0.0
 40
0.0
 40
0.0
 40
0.0
 40
0.1154208239022631
 40
0.2446271929764675
 40
0.4321554148593971
 40
0.6202940574028287
 40
0.8099565521970139
 40
1.0
 40
1.0
 40
1.0
 40
1.0
 10
58.09024492520278
 20
67.3395479768786
 30
0.0
 10
58.09227295630884
 20
67.3395479768786
 30
0.0
 10
58.09657124096817
 20
67.3395479768786
 30
0.0
 10
58.15293859631699
 20
67.3395479768786
 30
0.0
 10
58.26784707648348
 20
67.3395479768786
 30
0.0
 10
58.4635117131049
 20
67.33954797687859
 30
0.0
 10
58.71417975156411
 20
67.33954797687859
 30
0.0
 10
58.92226252560805
 20
67.33954797687859
 30
0.0
 10
59.02640829571962
 20
67.33954797687859
 30
0.0
  0
SPLINE
  5
EC
330
1F
100
AcDbEntity
  8
0
  6
Continuous
 62
     7
370
    25
100
AcDbSpline
210
0.0
220
0.0
230
1.0
 70
    24
 71
     3
 72
    13
 73
     9
 74
     0
 42
0.000000001
 43
0.00000001
 40
0.0
 40
0.0
 40
0.0
 40
0.0
 40
0.1877990041458024
 40
0.3759303201050564
 40
0.5653573807655983
 40
0.7553711586467345
 40
0.8804341352100891
 40
1.0
 40
1.0
 40
1.0
 40
1.0
 10
59.02640829571962
 20
88.33954797687855
 30
0.0
 10
58.92344822045169
 20
88.33954797687855
 30
0.0
 10
58.71734588125363
 20
88.33954797687856
 30
0.0
 10
58.46690903769368
 20
88.33954797687858
 30
0.0
 10
58.26948020091358
 20
88.33954797687858
 30
0.0
 10
58.15408766120747
 20
88.33954797687859
 30
0.0
 10
58.09723513570088
 20
88.3395479768786
 30
0.0
 10
58.09188555061855
 20
88.3395479768786
 30
0.0
 10
58.08927086396468
 20
88.33954797687862
 30
0.0
  0
LINE
  5
ED
330
1F
100
AcDbEntity
  8
0
  6
Continuous
 62
     7
370
    25
100
AcDbLine
 10
57.9442485549
 20
67.5895479769
 30
0.0
 11
57.9442485549
 21
88.0895479769
 31
0.0
  0
SPLINE
  5
EE
330
1F
100
AcDbEntity
  8
0
  6
Continuous
 62
     7
370
    25
100
AcDbSpline
210
0.0
220
0.0
230
1.0
 70
    24
 71
     3
 72
    13
 73
     9
 74
     0
 42
0.000000001
 43
0.00000001
 40
0.0
 40
0.0
 40
0.0
 40
0.0
 40
0.1106280152581691
 40
0.2399902502897351
 40
0.4286490151239122
 40
0.6179315956229807
 40
0.8087713130979255
 40
0.9999999999999999
 40
0.9999999999999999
 40
0.9999999999999999
 40
0.9999999999999999
 10
87.79774960545954
 20
88.33954797687862
 30
0.0
 10
87.79613942322634
 20
88.3395479768786
 30
0.0
 10
87.79264638363547
 20
88.3395479768786
 30
0.0
 10
87.73788238496887
 20
88.33954797687859
 30
0.0
 10
87.62383467905232
 20
88.33954797687858
 30
0.0
 10
87.42789097058886
 20
88.33954797687858
 30
0.0
 10
87.1761876881241
 20
88.33954797687856
 30
0.0
 10
86.96685947516457
 20
88.33954797687855
 30
0.0
 10
86.86208881410695
 20
88.33954797687855
 30
0.0
  0
SPLINE
  5
EF
330
1F
100
AcDbEntity
  8
0
  6
Continuous
 62
     7
370
    25
100
AcDbSpline
210
0.0
220
0.0
230
1.0
 70
    24
 71
     3
 72
    13
 73
     9
 74
     0
 42
0.000000001
 43
0.00000001
 40
0.0
 40
0.0
 40
0.0
 40
0.0
 40
0.1889361790854538
 40
0.3782112973649575
 40
0.568809712213476
 40
0.76000800122701
 40
0.8852225991742136
 40
1.0
 40
1.0
 40
1.0
 40
1.0
 10
86.86208881410695
 20
67.33954797687859
 30
0.0
 10
86.9656489459112
 20
67.33954797687859
 30
0.0
 10
87.17295498964812
 20
67.33954797687859
 30
0.0
 10
87.424430912567
 20
67.33954797687859
 30
0.0
 10
87.62218099870742
 20
67.3395479768786
 30
0.0
 10
87.73674877811777
 20
67.3395479768786
 30
0.0
 10
87.79198148489135
 20
67.3395479768786
 30
0.0
 10
87.79650095689888
 20
67.3395479768786
 30
0.0
 10
87.79866241750081
 20
67.3395479768786
 30
0.0
  0
SPLINE
  5
F0
330
1F
100
AcDbEntity
  8
0
  6
Continuous
 62
     7
370
    25
100
AcDbSpline
210
0.0
220
0.0
230
1.0
 70
     8
 71
     3
 72
    16
 73
    12
 74
     0
 42
0.000000001
 43
0.00000001
 40
0.0
 40
0.0
 40
0.0
 40
0.0
 40
0.2499999999999998
 40
0.2499999999999998
 40
0.4999999999999997
 40
0.4999999999999997
 40
0.6249999999999997
 40
0.6249999999999997
 40
0.7499999999999997
 40
0.7499999999999997
 40
1.0
 40
1.0
 40
1.0
 40
1.0
 10
86.86208881410728
 20
77.83954797687866
 30
0.0
 10
87.14783061138995
 20
76.98232258503063
 30
0.0
 10
87.38333361154517
 20
76.11884735899568
 30
0.0
 10
87.70958172871164
 20
74.3738886579504
 30
0.0
 10
87.79925069368255
 20
73.49227130688814
 30
0.0
 10
87.80023560008478
 20
72.15323523407194
 30
0.0
 10
87.77831502327498
 20
71.70478947324914
 30
0.0
 10
87.69283630554062
 20
70.81771649315037
 30
0.0
 10
87.62936491707413
 20
70.37715402821497
 30
0.0
 10
87.38427267987575
 20
69.06331024360307
 30
0.0
 10
87.14818681231854
 20
68.19784197151287
 30
0.0
 10
86.86208881410712
 20
67.33954797687856
 30
0.0
  0
LINE
  5
F1
330
1F
100
AcDbEntity
  8
0
  6
Continuous
 62
     7
370
    25
100
AcDbLine
 10
87.9442485549
 20
88.0895479769
 30
0.0
 11
87.9442485549
 21
67.5895479769
 31
0.0
  0
SPLINE
  5
F2
330
1F
100
AcDbEntity
  8
0
  6
Continuous
 62
     7
370
    25
100
AcDbSpline
210
0.0
220
0.0
230
1.0
 70
     8
 71
     3
 72
    10
 73
     6
 74
     0
 42
0.000000001
 43
0.00000001
 40
0.0
 40
0.0
 40
0.0
 40
0.0
 40
0.5
 40
0.5
 40
1.0
 40
1.0
 40
1.0
 40
1.0
 10
73.37949334035063
 20
77.83954797687862
 30
0.0
 10
73.2441303692688
 20
76.96454797687862
 30
0.0
 10
73.13421669921567
 20
76.0895479768786
 30
0.0
 10
72.98404496597422
 20
74.3395479768786
 30
0.0
 10
72.94424855491329
 20
73.46454797687859
 30
0.0
 10
72.94424855491329
 20
72.58954797687859
 30
0.0
  0
LINE
  5
F3
330
1F
100
AcDbEntity
  8
0
  6
Continuous
 62
     7
370
    25
100
AcDbLine
 10
72.9442485549
 20
83.0895479769
 30
0.0
 11
72.9442485549
 21
72.5895479769
 31
0.0
  0
SPLINE
  5
F4
330
1F
100
AcDbEntity
  8
0
  6
Continuous
 62
     7
370
    25
100
AcDbSpline
210
0.0
220
0.0
230
1.0
 70
     8
 71
     3
 72
    10
 73
     6
 74
     0
 42
0.000000001
 43
0.00000001
 40
0.0
 40
0.0
 40
0.0
 40
0.0
 40
0.5
 40
0.5
 40
1.0
 40
1.0
 40
1.0
 40
1.0
 10
72.50900376947592
 20
77.83954797687862
 30
0.0
 10
72.64436674055777
 20
76.96454797687862
 30
0.0
 10
72.7542804106109
 20
76.0895479768786
 30
0.0
 10
72.90445214385235
 20
74.3395479768786
 30
0.0
 10
72.94424855491329
 20
73.46454797687859
 30
0.0
 10
72.94424855491329
 20
72.58954797687859
 30
0.0
  0
SPLINE
  5
F5
330
1F
100
AcDbEntity
  8
0
  6
Continuous
 62
     7
370
    25
100
AcDbSpline
210
0.0
220
0.0
230
1.0
 70
     8
 71
     3
 72
     8
 73
     4
 74
     0
 42
0.000000001
 43
0.00000001
 40
0.0
 40
0.0
 40
0.0
 40
0.0
 40
1.0
 40
1.0
 40
1.0
 40
1.0
 10
83.52463331264262
 20
77.83954797687862
 30
0.0
 10
83.49674660406085
 20
77.65928545889426
 30
0.0
 10
83.46992280789445
 20
77.47893190989852
 30
0.0
 10
83.44424855491329
 20
77.29847991057208
 30
0.0
  0
LINE
  5
F6
330
1F
100
AcDbEntity
  8
0
  6
Continuous
 62
     7
370
    25
100
AcDbLine
 10
83.4442485549
 20
77.2984799106
 30
0.0
 11
83.4442485549
 21
78.3806160432
 31
0.0
  0
SPLINE
  5
F7
330
1F
100
AcDbEntity
  8
0
  6
Continuous
 62
     7
370
    25
100
AcDbSpline
210
0.0
220
0.0
230
1.0
 70
     8
 71
     3
 72
     8
 73
     4
 74
     0
 42
0.000000001
 43
0.00000001
 40
0.0
 40
0.0
 40
0.0
 40
0.0
 40
1.0
 40
1.0
 40
1.0
 40
1.0
 10
83.44424855491329
 20
77.29847991057208
 30
0.0
 10
83.41856493114511
 20
77.47899777266198
 30
0.0
 10
83.39174059687058
 20
77.65934951099946
 30
0.0
 10
83.36386379718394
 20
77.83954797687862
 30
0.0
  0
SPLINE
  5
F8
330
1F
100
AcDbEntity
  8
0
  6
Continuous
 62
     7
370
    25
100
AcDbSpline
210
0.0
220
0.0
230
1.0
 70
     8
 71
     3
 72
    10
 73
     6
 74
     0
 42
0.000000001
 43
0.00000001
 40
0.0
 40
0.0
 40
0.0
 40
0.0
 40
0.4999999999999998
 40
0.4999999999999998
 40
1.0
 40
1.0
 40
1.0
 40
1.0
 10
72.94424855491329
 20
72.58954797687859
 30
0.0
 10
72.94424855491329
 20
71.71454797687859
 30
0.0
 10
72.90445214385235
 20
70.83954797687859
 30
0.0
 10
72.7542804106109
 20
69.08954797687859
 30
0.0
 10
72.64436674055777
 20
68.21454797687859
 30
0.0
 10
72.50900376947592
 20
67.33954797687859
 30
0.0
  0
LINE
  5
F9
330
1F
100
AcDbEntity
  8
0
  6
Continuous
 62
     7
370
    25
100
AcDbLine
 10
72.5090037695
 20
67.3395479769
 30
0.0
 11
59.0264082957
 21
67.3395479769
 31
0.0
  0
LINE
  5
FA
330
1F
100
AcDbEntity
  8
0
  6
Continuous
 62
     7
370
    25
100
AcDbLine
 10
83.3638637972
 20
67.3395479769
 30
0.0
 11
73.3794933404
 21
67.3395479769
 31
0.0
  0
SPLINE
  5
FB
330
1F
100
AcDbEntity
  8
0
  6
Continuous
 62
     7
370
    25
100
AcDbSpline
210
0.0
220
0.0
230
1.0
 70
     8
 71
     3
 72
    10
 73
     6
 74
     0
 42
0.000000001
 43
0.00000001
 40
0.0
 40
0.0
 40
0.0
 40
0.0
 40
0.4999999999999998
 40
0.4999999999999998
 40
1.0
 40
1.0
 40
1.0
 40
1.0
 10
72.94424855491329
 20
72.58954797687859
 30
0.0
 10
72.94424855491329
 20
71.71454797687859
 30
0.0
 10
72.98404496597422
 20
70.83954797687859
 30
0.0
 10
73.13421669921567
 20
69.08954797687859
 30
0.0
 10
73.2441303692688
 20
68.21454797687859
 30
0.0
 10
73.37949334035063
 20
67.33954797687859
 30
0.0
  0
LINE
  5
FC
330
1F
100
AcDbEntity
  8
0
  6
Continuous
 62
     7
370
    25
100
AcDbLine
 10
86.8620888141
 20
67.3395479769
 30
0.0
 11
83.5246333126
 21
67.3395479769
 31
0.0
  0
SPLINE
  5
FD
330
1F
100
AcDbEntity
  8
0
  6
Continuous
 62
     7
370
    25
100
AcDbSpline
210
0.0
220
0.0
230
1.0
 70
     8
 71
     3
 72
     8
 73
     4
 74
     0
 42
0.000000001
 43
0.00000001
 40
0.0
 40
0.0
 40
0.0
 40
0.0
 40
1.0
 40
1.0
 40
1.0
 40
1.0
 10
83.44424855491329
 20
67.88061604318513
 30
0.0
 10
83.46993217868146
 20
67.70009818109523
 30
0.0
 10
83.496756512956
 20
67.51974644275774
 30
0.0
 10
83.52463331264262
 20
67.33954797687859
 30
0.0
  0
SPLINE
  5
FE
330
1F
100
AcDbEntity
  8
0
  6
Continuous
 62
     7
370
    25
100
AcDbSpline
210
0.0
220
0.0
230
1.0
 70
     8
 71
     3
 72
     8
 73
     4
 74
     0
 42
0.000000001
 43
0.00000001
 40
0.0
 40
0.0
 40
0.0
 40
0.0
 40
1.0
 40
1.0
 40
1.0
 40
1.0
 10
83.36386379718394
 20
67.33954797687859
 30
0.0
 10
83.39175050576573
 20
67.51981049486294
 30
0.0
 10
83.41857430193211
 20
67.70016404385869
 30
0.0
 10
83.44424855491329
 20
67.88061604318513
 30
0.0
  0
SPLINE
  5
FF
330
1F
100
AcDbEntity
  8
0
  6
Continuous
 62
     7
370
    25
100
AcDbSpline
210
0.0
220
0.0
230
1.0
 70
    24
 71
     3
 72
    10
 73
     6
 74
     0
 42
0.000000001
 43
0.00000001
 40
0.0
 40
0.0
 40
0.0
 40
0.0
 40
0.5
 40
0.5
 40
1.0
 40
1.0
 40
1.0
 40
1.0
 10
72.94424855491329
 20
88.3395479768786
 30
0.0
 10
72.94424855491329
 20
88.3395479768786
 30
0.0
 10
72.90429505027879
 20
88.33954797687859
 30
0.0
 10
72.75399986777772
 20
88.33954797687856
 30
0.0
 10
72.64412604819685
 20
88.33954797687856
 30
0.0
 10
72.5090037694758
 20
88.33954797687855
 30
0.0
  0
LINE
  5
100
330
1F
100
AcDbEntity
  8
0
  6
Continuous
 62
     7
370
    25
100
AcDbLine
 10
72.9442485549
 20
88.3395479769
 30
0.0
 11
72.9442485549
 21
83.0895479769
 31
0.0
  0
SPLINE
  5
101
330
1F
100
AcDbEntity
  8
0
  6
Continuous
 62
     7
370
    25
100
AcDbSpline
210
0.0
220
0.0
230
1.0
 70
    24
 71
     3
 72
    10
 73
     6
 74
     0
 42
0.000000001
 43
0.00000001
 40
0.0
 40
0.0
 40
0.0
 40
0.0
 40
0.5
 40
0.5
 40
1.0
 40
1.0
 40
1.0
 40
1.0
 10
72.94424855491329
 20
88.3395479768786
 30
0.0
 10
72.94424855491329
 20
88.3395479768786
 30
0.0
 10
72.98420205954778
 20
88.33954797687859
 30
0.0
 10
73.13449724204885
 20
88.33954797687856
 30
0.0
 10
73.24437106162972
 20
88.33954797687856
 30
0.0
 10
73.37949334035078
 20
88.33954797687855
 30
0.0
  0
SPLINE
  5
102
330
1F
100
AcDbEntity
  8
0
  6
Continuous
 62
     7
370
    25
100
AcDbSpline
210
0.0
220
0.0
230
1.0
 70
    24
 71
     3
 72
    10
 73
     6
 74
     0
 42
0.000000001
 43
0.00000001
 40
0.0
 40
0.0
 40
0.0
 40
0.0
 40
0.5
 40
0.5
 40
1.0
 40
1.0
 40
1.0
 40
1.0
 10
72.94424855491329
 20
67.3395479768786
 30
0.0
 10
72.94424855491329
 20
67.3395479768786
 30
0.0
 10
72.98420205954778
 20
67.3395479768786
 30
0.0
 10
73.13449724204885
 20
67.33954797687859
 30
0.0
 10
73.24437106162972
 20
67.33954797687859
 30
0.0
 10
73.37949334035078
 20
67.33954797687859
 30
0.0
  0
LINE
  5
103
330
1F
100
AcDbEntity
  8
0
  6
Continuous
 62
     7
370
    25
100
AcDbLine
 10
72.9442485549
 20
72.5895479769
 30
0.0
 11
72.9442485549
 21
67.3395479769
 31
0.0
  0
SPLINE
  5
104
330
1F
100
AcDbEntity
  8
0
  6
Continuous
 62
     7
370
    25
100
AcDbSpline
210
0.0
220
0.0
230
1.0
 70
    24
 71
     3
 72
    10
 73
     6
 74
     0
 42
0.000000001
 43
0.00000001
 40
0.0
 40
0.0
 40
0.0
 40
0.0
 40
0.5
 40
0.5
 40
1.0
 40
1.0
 40
1.0
 40
1.0
 10
72.94424855491329
 20
67.3395479768786
 30
0.0
 10
72.94424855491329
 20
67.3395479768786
 30
0.0
 10
72.90429505027879
 20
67.3395479768786
 30
0.0
 10
72.75399986777772
 20
67.33954797687859
 30
0.0
 10
72.64412604819685
 20
67.33954797687859
 30
0.0
 10
72.5090037694758
 20
67.33954797687859
 30
0.0
  0
LINE
  5
105
330
1F
100
AcDbEntity
  8
0
  6
Continuous
 62
     7
370
    25
100
AcDbLine
 10
83.4442485549
 20
87.7984799106
 30
0.0
 11
83.4442485549
 21
88.3395479769
 31
0.0
  0
SPLINE
  5
106
330
1F
100
AcDbEntity
  8
0
  6
Continuous
 62
     7
370
    25
100
AcDbSpline
210
0.0
220
0.0
230
1.0
 70
    24
 71
     3
 72
     8
 73
     4
 74
     0
 42
0.000000001
 43
0.00000001
 40
0.0
 40
0.0
 40
0.0
 40
0.0
 40
1.0
 40
1.0
 40
1.0
 40
1.0
 10
83.44424855491329
 20
88.33954797687855
 30
0.0
 10
83.46993169646173
 20
88.33954797687855
 30
0.0
 10
83.49675600339357
 20
88.33954797687855
 30
0.0
 10
83.52463331264262
 20
88.33954797687855
 30
0.0
  0
SPLINE
  5
107
330
1F
100
AcDbEntity
  8
0
  6
Continuous
 62
     7
370
    25
100
AcDbSpline
210
0.0
220
0.0
230
1.0
 70
    24
 71
     3
 72
     8
 73
     4
 74
     0
 42
0.000000001
 43
0.00000001
 40
0.0
 40
0.0
 40
0.0
 40
0.0
 40
1.0
 40
1.0
 40
1.0
 40
1.0
 10
83.36386379718394
 20
88.33954797687855
 30
0.0
 10
83.39175195954918
 20
88.33954797687855
 30
0.0
 10
83.41857567563196
 20
88.33954797687855
 30
0.0
 10
83.44424855491329
 20
88.33954797687855
 30
0.0
  0
SPLINE
  5
108
330
1F
100
AcDbEntity
  8
0
  6
Continuous
 62
     7
370
    25
100
AcDbSpline
210
0.0
220
0.0
230
1.0
 70
    24
 71
     3
 72
     8
 73
     4
 74
     0
 42
0.000000001
 43
0.00000001
 40
0.0
 40
0.0
 40
0.0
 40
0.0
 40
1.0
 40
1.0
 40
1.0
 40
1.0
 10
83.52463331264262
 20
67.33954797687859
 30
0.0
 10
83.49674515027739
 20
67.33954797687859
 30
0.0
 10
83.4699214341946
 20
67.33954797687859
 30
0.0
 10
83.44424855491329
 20
67.33954797687859
 30
0.0
  0
LINE
  5
109
330
1F
100
AcDbEntity
  8
0
  6
Continuous
 62
     7
370
    25
100
AcDbLine
 10
83.4442485549
 20
67.3395479769
 30
0.0
 11
83.4442485549
 21
67.8806160432
 31
0.0
  0
SPLINE
  5
10A
330
1F
100
AcDbEntity
  8
0
  6
Continuous
 62
     7
370
    25
100
AcDbSpline
210
0.0
220
0.0
230
1.0
 70
    24
 71
     3
 72
     8
 73
     4
 74
     0
 42
0.000000001
 43
0.00000001
 40
0.0
 40
0.0
 40
0.0
 40
0.0
 40
1.0
 40
1.0
 40
1.0
 40
1.0
 10
83.44424855491329
 20
67.33954797687859
 30
0.0
 10
83.41856541336485
 20
67.33954797687859
 30
0.0
 10
83.391741106433
 20
67.33954797687859
 30
0.0
 10
83.36386379718394
 20
67.33954797687859
 30
0.0
  0
LINE
  5
10B
330
1F
100
AcDbEntity
  8
0
  6
CENTERX2
 62
     7
370
    18
100
AcDbLine
 10
60.0264082957
 20
77.8395479769
 30
0.0
 11
56.9442485549
 21
77.8395479769
 31
0.0
  0
LINE
  5
10C
330
1F
100
AcDbEntity
  8
0
  6
CENTERX2
 62
     7
370
    18
100
AcDbLine
 10
85.8620888141
 20
77.8395479769
 30
0.0
 11
88.9442485549
 21
77.8395479769
 31
0.0
  0
ENDSEC
  0
SECTION
  2
OBJECTS
  0
DICTIONARY
  5
C
330
0
100
AcDbDictionary
281
     1
  3
ACAD_GROUP
350
D
  3
ACAD_LAYOUT
350
1A
  3
ACAD_MLINESTYLE
350
17
  3
ACAD_PLOTSETTINGS
350
19
  3
ACAD_PLOTSTYLENAME
350
E
  3
ACAD_SCALELIST
350
47
  0
DICTIONARY
  5
D
102
{ACAD_REACTORS
330
C
102
}
330
C
100
AcDbDictionary
281
     1
  0
DICTIONARY
  5
1A
102
{ACAD_REACTORS
330
C
102
}
330
C
100
AcDbDictionary
281
     1
  3
Layout1
350
1E
  3
Layout2
350
26
  3
Model
350
22
  0
DICTIONARY
  5
17
102
{ACAD_REACTORS
330
C
102
}
330
C
100
AcDbDictionary
281
     1
  3
Standard
350
18
  0
DICTIONARY
  5
19
102
{ACAD_REACTORS
330
C
102
}
330
C
100
AcDbDictionary
281
     1
  0
ACDBDICTIONARYWDFLT
  5
E
102
{ACAD_REACTORS
330
C
102
}
330
C
100
AcDbDictionary
281
     1
  3
Normal
350
F
100
AcDbDictionaryWithDefault
340
F
  0
DICTIONARY
  5
47
102
{ACAD_REACTORS
330
C
102
}
330
C
100
AcDbDictionary
281
     1
  3
A0
350
48
  3
A1
350
49
  3
A2
350
4A
  3
A3
350
4B
  3
A4
350
4C
  3
A5
350
4D
  3
A6
350
4E
  3
A7
350
4F
  3
A8
350
50
  3
A9
350
51
  3
B0
350
52
  3
B1
350
53
  3
B2
350
54
  3
B3
350
55
  3
B4
350
56
  3
B5
350
57
  3
B6
350
58
  3
B7
350
59
  3
B8
350
5A
  3
B9
350
5B
  3
C0
350
5C
  3
C1
350
5D
  3
C2
350
5E
  3
C3
350
5F
  3
C4
350
60
  3
C5
350
61
  3
C6
350
62
  3
C7
350
63
  3
C8
350
64
  3
C9
350
65
  3
D0
350
66
  3
D1
350
67
  3
D2
350
68
  0
LAYOUT
  5
1E
102
{ACAD_REACTORS
330
1A
102
}
330
1A
100
AcDbPlotSettings
  1

  2
none_device
  4

  6

 40
0.0
 41
0.0
 42
0.0
 43
0.0
 44
0.0
 45
0.0
 46
0.0
 47
0.0
 48
0.0
 49
0.0
140
0.0
141
0.0
142
1.0
143
1.0
 70
   688
 72
     1
 73
     0
 74
     5
  7

 75
    16
147
1.0
148
0.0
149
0.0
100
AcDbLayout
  1
Layout1
 70
     1
 71
     1
 10
0.0
 20
0.0
 11
420.0
 21
297.0
 12
0.0
 22
0.0
 32
0.0
 14
1.0000000000E+20
 24
1.0000000000E+20
 34
1.0000000000E+20
 15
-1.0000000000E+20
 25
-1.0000000000E+20
 35
-1.0000000000E+20
146
0.0
 13
0.0
 23
0.0
 33
0.0
 16
1.0
 26
0.0
 36
0.0
 17
0.0
 27
1.0
 37
0.0
 76
     0
330
1B
  0
LAYOUT
  5
26
102
{ACAD_REACTORS
330
1A
102
}
330
1A
100
AcDbPlotSettings
  1

  2
none_device
  4

  6

 40
0.0
 41
0.0
 42
0.0
 43
0.0
 44
0.0
 45
0.0
 46
0.0
 47
0.0
 48
0.0
 49
0.0
140
0.0
141
0.0
142
1.0
143
1.0
 70
   688
 72
     1
 73
     0
 74
     5
  7

 75
    16
147
1.0
148
0.0
149
0.0
100
AcDbLayout
  1
Layout2
 70
     1
 71
     2
 10
0.0
 20
0.0
 11
0.0
 21
0.0
 12
0.0
 22
0.0
 32
0.0
 14
0.0
 24
0.0
 34
0.0
 15
0.0
 25
0.0
 35
0.0
146
0.0
 13
0.0
 23
0.0
 33
0.0
 16
1.0
 26
0.0
 36
0.0
 17
0.0
 27
1.0
 37
0.0
 76
     0
330
23
  0
LAYOUT
  5
22
102
{ACAD_REACTORS
330
1A
102
}
330
1A
100
AcDbPlotSettings
  1

  2
none_device
  4
Letter_(8.50_x_11.00_Inches)
  6

 40
6.35
 41
6.35
 42
6.35000508
 43
6.35000508
 44
215.9
 45
279.4
 46
0.0
 47
0.0
 48
0.0
 49
0.0
140
0.0
141
0.0
142
1.0
143
1.0
 70
  1712
 72
     1
 73
     0
 74
     0
  7

 75
     0
147
1.0
148
0.0
149
0.0
100
AcDbLayout
  1
Model
 70
     1
 71
     0
 10
0.0
 20
0.0
 11
215.9
 21
139.7
 12
0.0
 22
0.0
 32
0.0
 14
0.0
 24
0.0
 34
0.0
 15
215.9
 25
139.7
 35
0.0
146
0.0
 13
0.0
 23
0.0
 33
0.0
 16
1.0
 26
0.0
 36
0.0
 17
0.0
 27
1.0
 37
0.0
 76
     0
330
1F
331
29
  0
MLINESTYLE
  5
18
102
{ACAD_REACTORS
330
17
102
}
330
17
100
AcDbMlineStyle
  2
Standard
 70
     0
  3

 62
   256
 51
90.0
 52
90.0
 71
     2
 49
0.5
 62
   256
  6
BYLAYER
 49
-0.5
 62
   256
  6
BYLAYER
  0
ACDBPLACEHOLDER
  5
F
102
{ACAD_REACTORS
330
E
102
}
330
E
  0
SCALE
  5
48
102
{ACAD_REACTORS
330
47
102
}
330
47
100
AcDbScale
 70
     0
300
1:1
140
1.0
141
1.0
290
     1
  0
SCALE
  5
49
102
{ACAD_REACTORS
330
47
102
}
330
47
100
AcDbScale
 70
     0
300
1:2
140
1.0
141
2.0
290
     0
  0
SCALE
  5
4A
102
{ACAD_REACTORS
330
47
102
}
330
47
100
AcDbScale
 70
     0
300
1:4
140
1.0
141
4.0
290
     0
  0
SCALE
  5
4B
102
{ACAD_REACTORS
330
47
102
}
330
47
100
AcDbScale
 70
     0
300
1:5
140
1.0
141
5.0
290
     0
  0
SCALE
  5
4C
102
{ACAD_REACTORS
330
47
102
}
330
47
100
AcDbScale
 70
     0
300
1:8
140
1.0
141
8.0
290
     0
  0
SCALE
  5
4D
102
{ACAD_REACTORS
330
47
102
}
330
47
100
AcDbScale
 70
     0
300
1:10
140
1.0
141
10.0
290
     0
  0
SCALE
  5
4E
102
{ACAD_REACTORS
330
47
102
}
330
47
100
AcDbScale
 70
     0
300
1:16
140
1.0
141
16.0
290
     0
  0
SCALE
  5
4F
102
{ACAD_REACTORS
330
47
102
}
330
47
100
AcDbScale
 70
     0
300
1:20
140
1.0
141
20.0
290
     0
  0
SCALE
  5
50
102
{ACAD_REACTORS
330
47
102
}
330
47
100
AcDbScale
 70
     0
300
1:30
140
1.0
141
30.0
290
     0
  0
SCALE
  5
51
102
{ACAD_REACTORS
330
47
102
}
330
47
100
AcDbScale
 70
     0
300
1:40
140
1.0
141
40.0
290
     0
  0
SCALE
  5
52
102
{ACAD_REACTORS
330
47
102
}
330
47
100
AcDbScale
 70
     0
300
1:50
140
1.0
141
50.0
290
     0
  0
SCALE
  5
53
102
{ACAD_REACTORS
330
47
102
}
330
47
100
AcDbScale
 70
     0
300
1:100
140
1.0
141
100.0
290
     0
  0
SCALE
  5
54
102
{ACAD_REACTORS
330
47
102
}
330
47
100
AcDbScale
 70
     0
300
2:1
140
2.0
141
1.0
290
     0
  0
SCALE
  5
55
102
{ACAD_REACTORS
330
47
102
}
330
47
100
AcDbScale
 70
     0
300
4:1
140
4.0
141
1.0
290
     0
  0
SCALE
  5
56
102
{ACAD_REACTORS
330
47
102
}
330
47
100
AcDbScale
 70
     0
300
8:1
140
8.0
141
1.0
290
     0
  0
SCALE
  5
57
102
{ACAD_REACTORS
330
47
102
}
330
47
100
AcDbScale
 70
     0
300
10:1
140
10.0
141
1.0
290
     0
  0
SCALE
  5
58
102
{ACAD_REACTORS
330
47
102
}
330
47
100
AcDbScale
 70
     0
300
100:1
140
100.0
141
1.0
290
     0
  0
SCALE
  5
59
102
{ACAD_REACTORS
330
47
102
}
330
47
100
AcDbScale
 70
     0
300
1/128" = 1'-0"
140
0.0078125
141
12.0
290
     0
  0
SCALE
  5
5A
102
{ACAD_REACTORS
330
47
102
}
330
47
100
AcDbScale
 70
     0
300
1/64" = 1'-0"
140
0.015625
141
12.0
290
     0
  0
SCALE
  5
5B
102
{ACAD_REACTORS
330
47
102
}
330
47
100
AcDbScale
 70
     0
300
1/32" = 1'-0"
140
0.03125
141
12.0
290
     0
  0
SCALE
  5
5C
102
{ACAD_REACTORS
330
47
102
}
330
47
100
AcDbScale
 70
     0
300
1/16" = 1'-0"
140
0.0625
141
12.0
290
     0
  0
SCALE
  5
5D
102
{ACAD_REACTORS
330
47
102
}
330
47
100
AcDbScale
 70
     0
300
3/32" = 1'-0"
140
0.09375
141
12.0
290
     0
  0
SCALE
  5
5E
102
{ACAD_REACTORS
330
47
102
}
330
47
100
AcDbScale
 70
     0
300
1/8" = 1'-0"
140
0.125
141
12.0
290
     0
  0
SCALE
  5
5F
102
{ACAD_REACTORS
330
47
102
}
330
47
100
AcDbScale
 70
     0
300
3/16" = 1'-0"
140
0.1875
141
12.0
290
     0
  0
SCALE
  5
60
102
{ACAD_REACTORS
330
47
102
}
330
47
100
AcDbScale
 70
     0
300
1/4" = 1'-0"
140
0.25
141
12.0
290
     0
  0
SCALE
  5
61
102
{ACAD_REACTORS
330
47
102
}
330
47
100
AcDbScale
 70
     0
300
3/8" = 1'-0"
140
0.375
141
12.0
290
     0
  0
SCALE
  5
62
102
{ACAD_REACTORS
330
47
102
}
330
47
100
AcDbScale
 70
     0
300
1/2" = 1'-0"
140
0.5
141
12.0
290
     0
  0
SCALE
  5
63
102
{ACAD_REACTORS
330
47
102
}
330
47
100
AcDbScale
 70
     0
300
3/4" = 1'-0"
140
0.75
141
12.0
290
     0
  0
SCALE
  5
64
102
{ACAD_REACTORS
330
47
102
}
330
47
100
AcDbScale
 70
     0
300
1" = 1'-0"
140
1.0
141
12.0
290
     0
  0
SCALE
  5
65
102
{ACAD_REACTORS
330
47
102
}
330
47
100
AcDbScale
 70
     0
300
1-1/2" = 1'-0"
140
1.5
141
12.0
290
     0
  0
SCALE
  5
66
102
{ACAD_REACTORS
330
47
102
}
330
47
100
AcDbScale
 70
     0
300
3" = 1'-0"
140
3.0
141
12.0
290
     0
  0
SCALE
  5
67
102
{ACAD_REACTORS
330
47
102
}
330
47
100
AcDbScale
 70
     0
300
6" = 1'-0"
140
6.0
141
12.0
290
     0
  0
SCALE
  5
68
102
{ACAD_REACTORS
330
47
102
}
330
47
100
AcDbScale
 70
     0
300
1'-0" = 1'-0"
140
12.0
141
12.0
290
     0
  0
ENDSEC
  0
EOF
