  0
SECTION
  2
HEADER
  9
$ACADVER
  1
AC1015
  9
$ACADMAINTVER
 70
     6
  9
$DWGCODEPAGE
  3
DOS932
  9
$INSBASE
 10
0.0
 20
0.0
 30
0.0
  9
$EXTMIN
 10
0.0
 20
0.0
 30
0.0
  9
$EXTMAX
 10
279.4
 20
215.9
 30
0.0
  9
$LIMMIN
 10
0.0
 20
0.0
  9
$LIMMAX
 10
279.4
 20
215.9
  9
$ORTHOMODE
 70
     0
  9
$REGENMODE
 70
     1
  9
$FILLMODE
 70
     1
  9
$QTEXTMODE
 70
     0
  9
$MIRRTEXT
 70
     1
  9
$LTSCALE
 40
1.0
  9
$ATTMODE
 70
     1
  9
$TEXTSIZE
 40
3.5
  9
$TRACEWID
 40
1.0
  9
$TEXTSTYLE
  7
Standard
  9
$CLAYER
  8
0
  9
$CELTYPE
  6
ByLayer
  9
$CECOLOR
 62
   256
  9
$CELTSCALE
 40
1.0
  9
$DISPSILH
 70
     0
  9
$DIMSCALE
 40
1.0
  9
$DIMASZ
 40
3.302
  9
$DIMEXO
 40
1.0
  9
$DIMDLI
 40
3.75
  9
$DIMRND
 40
0.0
  9
$DIMDLE
 40
0.0
  9
$DIMEXE
 40
1.0
  9
$DIMTP
 40
0.0
  9
$DIMTM
 40
0.0
  9
$DIMTXT
 40
3.5
  9
$DIMCEN
 40
2.5
  9
$DIMTSZ
 40
0.0
  9
$DIMTOL
 70
     0
  9
$DIMLIM
 70
     0
  9
$DIMTIH
 70
     1
  9
$DIMTOH
 70
     1
  9
$DIMSE1
 70
     0
  9
$DIMSE2
 70
     0
  9
$DIMTAD
 70
     1
  9
$DIMZIN
 70
     1
  9
$DIMBLK
  1

  9
$DIMASO
 70
     1
  9
$DIMSHO
 70
     1
  9
$DIMPOST
  1

  9
$DIMAPOST
  1

  9
$DIMALT
 70
     0
  9
$DIMALTD
 70
     3
  9
$DIMALTF
 40
0.0393700787
  9
$DIMLFAC
 40
0.5
  9
$DIMTOFL
 70
     1
  9
$DIMTVP
 40
0.0
  9
$DIMTIX
 70
     0
  9
$DIMSOXD
 70
     0
  9
$DIMSAH
 70
     0
  9
$DIMBLK1
  1

  9
$DIMBLK2
  1

  9
$DIMSTYLE
  2
ISO-25
  9
$DIMCLRD
 70
     0
  9
$DIMCLRE
 70
     0
  9
$DIMCLRT
 70
     0
  9
$DIMTFAC
 40
1.0
  9
$DIMGAP
 40
1.524
  9
$DIMJUST
 70
     0
  9
$DIMSD1
 70
     0
  9
$DIMSD2
 70
     0
  9
$DIMTOLJ
 70
     0
  9
$DIMTZIN
 70
     1
  9
$DIMALTZ
 70
     0
  9
$DIMALTTZ
 70
     0
  9
$DIMUPT
 70
     0
  9
$DIMDEC
 70
     2
  9
$DIMTDEC
 70
     2
  9
$DIMALTU
 70
     2
  9
$DIMALTTD
 70
     3
  9
$DIMTXSTY
  7
Standard
  9
$DIMAUNIT
 70
     0
  9
$DIMADEC
 70
     2
  9
$DIMALTRND
 40
0.0
  9
$DIMAZIN
 70
     0
  9
$DIMDSEP
 70
    44
  9
$DIMATFIT
 70
     3
  9
$DIMFRAC
 70
     0
  9
$DIMLDRBLK
  1

  9
$DIMLUNIT
 70
     2
  9
$DIMLWD
 70
    -2
  9
$DIMLWE
 70
    -2
  9
$DIMTMOVE
 70
     0
  9
$LUNITS
 70
     2
  9
$LUPREC
 70
     2
  9
$SKETCHINC
 40
1.0
  9
$FILLETRAD
 40
10.0
  9
$AUNITS
 70
     0
  9
$AUPREC
 70
     2
  9
$MENU
  1
.
  9
$ELEVATION
 40
0.0
  9
$PELEVATION
 40
0.0
  9
$THICKNESS
 40
0.0
  9
$LIMCHECK
 70
     0
  9
$CHAMFERA
 40
0.0
  9
$CHAMFERB
 40
0.0
  9
$CHAMFERC
 40
0.0
  9
$CHAMFERD
 40
0.0
  9
$SKPOLY
 70
     0
  9
$TDCREATE
 40
2458998.457229734
  9
$TDUCREATE
 40
2458998.082229734
  9
$TDUPDATE
 40
2458998.457230162
  9
$TDUUPDATE
 40
2458998.082230162
  9
$TDINDWG
 40
0.0000000116
  9
$TDUSRTIMER
 40
0.0000000116
  9
$USRTIMER
 70
     1
  9
$ANGBASE
 50
0.0
  9
$ANGDIR
 70
     0
  9
$PDMODE
 70
     0
  9
$PDSIZE
 40
-1.0
  9
$PLINEWID
 40
0.0
  9
$SPLFRAME
 70
     0
  9
$SPLINETYPE
 70
     6
  9
$SPLINESEGS
 70
     8
  9
$HANDSEED
  5
102
  9
$SURFTAB1
 70
     6
  9
$SURFTAB2
 70
     6
  9
$SURFTYPE
 70
     6
  9
$SURFU
 70
     6
  9
$SURFV
 70
     6
  9
$UCSBASE
  2

  9
$UCSNAME
  2

  9
$UCSORG
 10
0.0
 20
0.0
 30
0.0
  9
$UCSXDIR
 10
1.0
 20
0.0
 30
0.0
  9
$UCSYDIR
 10
0.0
 20
1.0
 30
0.0
  9
$UCSORTHOREF
  2

  9
$UCSORTHOVIEW
 70
     0
  9
$UCSORGTOP
 10
0.0
 20
0.0
 30
0.0
  9
$UCSORGBOTTOM
 10
0.0
 20
0.0
 30
0.0
  9
$UCSORGLEFT
 10
0.0
 20
0.0
 30
0.0
  9
$UCSORGRIGHT
 10
0.0
 20
0.0
 30
0.0
  9
$UCSORGFRONT
 10
0.0
 20
0.0
 30
0.0
  9
$UCSORGBACK
 10
0.0
 20
0.0
 30
0.0
  9
$PUCSBASE
  2

  9
$PUCSNAME
  2

  9
$PUCSORG
 10
0.0
 20
0.0
 30
0.0
  9
$PUCSXDIR
 10
1.0
 20
0.0
 30
0.0
  9
$PUCSYDIR
 10
0.0
 20
1.0
 30
0.0
  9
$PUCSORTHOREF
  2

  9
$PUCSORTHOVIEW
 70
     0
  9
$PUCSORGTOP
 10
0.0
 20
0.0
 30
0.0
  9
$PUCSORGBOTTOM
 10
0.0
 20
0.0
 30
0.0
  9
$PUCSORGLEFT
 10
0.0
 20
0.0
 30
0.0
  9
$PUCSORGRIGHT
 10
0.0
 20
0.0
 30
0.0
  9
$PUCSORGFRONT
 10
0.0
 20
0.0
 30
0.0
  9
$PUCSORGBACK
 10
0.0
 20
0.0
 30
0.0
  9
$USERI1
 70
     0
  9
$USERI2
 70
     0
  9
$USERI3
 70
     0
  9
$USERI4
 70
     0
  9
$USERI5
 70
     0
  9
$USERR1
 40
0.0
  9
$USERR2
 40
0.0
  9
$USERR3
 40
0.0
  9
$USERR4
 40
0.0
  9
$USERR5
 40
0.0
  9
$WORLDVIEW
 70
     1
  9
$SHADEDGE
 70
     3
  9
$SHADEDIF
 70
    70
  9
$TILEMODE
 70
     1
  9
$MAXACTVP
 70
    64
  9
$PINSBASE
 10
0.0
 20
0.0
 30
0.0
  9
$PLIMCHECK
 70
     0
  9
$PEXTMIN
 10
1.0000000000E+20
 20
1.0000000000E+20
 30
1.0000000000E+20
  9
$PEXTMAX
 10
-1.0000000000E+20
 20
-1.0000000000E+20
 30
-1.0000000000E+20
  9
$PLIMMIN
 10
0.0
 20
0.0
  9
$PLIMMAX
 10
420.0
 20
297.0
  9
$UNITMODE
 70
     0
  9
$VISRETAIN
 70
     1
  9
$PLINEGEN
 70
     0
  9
$PSLTSCALE
 70
     1
  9
$TREEDEPTH
 70
  3020
  9
$CMLSTYLE
  2
Standard
  9
$CMLJUST
 70
     0
  9
$CMLSCALE
 40
20.0
  9
$PROXYGRAPHICS
 70
     1
  9
$MEASUREMENT
 70
     1
  9
$CELWEIGHT
370
    -1
  9
$ENDCAPS
280
     0
  9
$JOINSTYLE
280
     0
  9
$LWDISPLAY
290
     1
  9
$INSUNITS
 70
     4
  9
$HYPERLINKBASE
  1

  9
$STYLESHEET
  1

  9
$XEDIT
290
     1
  9
$CEPSNTYPE
380
     0
  9
$PSTYLEMODE
290
     1
  9
$FINGERPRINTGUID
  2
{A7DDC80A-D1DD-495D-B0AF-2203F4634C20}
  9
$VERSIONGUID
  2
{FAEB1C32-E019-11D5-929B-00C0DF256EC4}
  9
$EXTNAMES
290
     1
  9
$PSVPSCALE
 40
0.0
  9
$OLESTARTUP
290
     0
  0
ENDSEC
  0
SECTION
  2
CLASSES
  0
CLASS
  1
ACDBDICTIONARYWDFLT
  2
AcDbDictionaryWithDefault
  3
ObjectDBX Classes
 90
        0
280
     0
281
     0
  0
CLASS
  1
VISUALSTYLE
  2
AcDbVisualStyle
  3
ObjectDBX Classes
 90
     4095
280
     0
281
     0
  0
CLASS
  1
MATERIAL
  2
AcDbMaterial
  3
ObjectDBX Classes
 90
     1153
280
     0
281
     0
  0
CLASS
  1
SCALE
  2
AcDbScale
  3
ObjectDBX Classes
 90
     1153
280
     0
281
     0
  0
CLASS
  1
TABLESTYLE
  2
AcDbTableStyle
  3
ObjectDBX Classes
 90
     4095
280
     0
281
     0
  0
CLASS
  1
MLEADERSTYLE
  2
AcDbMLeaderStyle
  3
ACDB_MLEADERSTYLE_CLASS
 90
     4095
280
     0
281
     0
  0
CLASS
  1
SUN
  2
AcDbSun
  3
SCENEOE
 90
     1153
280
     0
281
     0
  0
CLASS
  1
ACDBPLACEHOLDER
  2
AcDbPlaceHolder
  3
ObjectDBX Classes
 90
        0
280
     0
281
     0
  0
CLASS
  1
LAYOUT
  2
AcDbLayout
  3
ObjectDBX Classes
 90
        0
280
     0
281
     0
  0
ENDSEC
  0
SECTION
  2
TABLES
  0
TABLE
  2
VPORT
  5
8
330
0
100
AcDbSymbolTable
 70
     1
  0
VPORT
  5
29
330
8
100
AcDbSymbolTableRecord
100
AcDbViewportTableRecord
  2
*Active
 70
     0
 10
0.0
 20
0.0
 11
1.0
 21
1.0
 12
139.7
 22
107.95
 13
0.0
 23
0.0
 14
10.0
 24
10.0
 15
10.0
 25
10.0
 16
0.0
 26
0.0
 36
1.0
 17
0.0
 27
0.0
 37
0.0
 40
215.9
 41
1.2941176471
 42
50.0
 43
0.0
 44
0.0
 50
0.0
 51
0.0
 71
     0
 72
  2000
 73
     1
 74
     3
 75
     0
 76
     0
 77
     0
 78
     0
281
     0
 65
     1
110
0.0
120
0.0
130
0.0
111
1.0
121
0.0
131
0.0
112
0.0
122
1.0
132
0.0
 79
     0
146
0.0
  0
ENDTAB
  0
TABLE
  2
LTYPE
  5
5
330
0
100
AcDbSymbolTable
 70
     6
  0
LTYPE
  5
14
330
5
100
AcDbSymbolTableRecord
100
AcDbLinetypeTableRecord
  2
ByBlock
 70
     0
  3

 72
    65
 73
     0
 40
0.0
  0
LTYPE
  5
15
330
5
100
AcDbSymbolTableRecord
100
AcDbLinetypeTableRecord
  2
ByLayer
 70
     0
  3

 72
    65
 73
     0
 40
0.0
  0
LTYPE
  5
16
330
5
100
AcDbSymbolTableRecord
100
AcDbLinetypeTableRecord
  2
Continuous
 70
     0
  3
Solid line
 72
    65
 73
     0
 40
0.0
  0
LTYPE
  5
6E
330
5
100
AcDbSymbolTableRecord
100
AcDbLinetypeTableRecord
  2
HIDDEN
 70
     0
  3
Hidden __ __ __ __ __ __ __ __ __ __ __ __ __ __
 72
    65
 73
     2
 40
1.905
 49
1.27
 74
     0
 49
-0.635
 74
     0
  0
LTYPE
  5
6F
330
5
100
AcDbSymbolTableRecord
100
AcDbLinetypeTableRecord
  2
PHANTOM
 70
     0
  3
Phantom ______  __  __  ______  __  __  ______
 72
    65
 73
     6
 40
12.7
 49
6.35
 74
     0
 49
-1.27
 74
     0
 49
1.27
 74
     0
 49
-1.27
 74
     0
 49
1.27
 74
     0
 49
-1.27
 74
     0
  0
LTYPE
  5
70
330
5
100
AcDbSymbolTableRecord
100
AcDbLinetypeTableRecord
  2
CENTER
 70
     0
  3
Center ____ _ ____ _ ____ _ ____ _ ____ _ ____
 72
    65
 73
     4
 40
10.16
 49
6.35
 74
     0
 49
-1.27
 74
     0
 49
1.27
 74
     0
 49
-1.27
 74
     0
  0
LTYPE
  5
71
330
5
100
AcDbSymbolTableRecord
100
AcDbLinetypeTableRecord
  2
CENTERX2
 70
     0
  3
Center (2x) ________  __  ________  __  _____
 72
    65
 73
     4
 40
20.32
 49
12.7
 74
     0
 49
-2.54
 74
     0
 49
2.54
 74
     0
 49
-2.54
 74
     0
  0
LTYPE
  5
72
330
5
100
AcDbSymbolTableRecord
100
AcDbLinetypeTableRecord
  2
DOT2
 70
     0
  3
Dot (.5x) ........................................
 72
    65
 73
     2
 40
0.635
 49
0.0
 74
     0
 49
-0.635
 74
     0
  0
ENDTAB
  0
TABLE
  2
LAYER
  5
2
330
0
100
AcDbSymbolTable
 70
     2
  0
LAYER
  5
10
330
2
100
AcDbSymbolTableRecord
100
AcDbLayerTableRecord
  2
0
 70
     0
 62
     7
  6
Continuous
370
    -3
390
F
  0
LAYER
  5
73
330
2
100
AcDbSymbolTableRecord
100
AcDbLayerTableRecord
  2
FORMAT
 70
     0
 62
     7
  6
Continuous
370
    -3
390
F
  0
ENDTAB
  0
TABLE
  2
STYLE
  5
3
330
0
100
AcDbSymbolTable
 70
     2
  0
STYLE
  5
11
330
3
100
AcDbSymbolTableRecord
100
AcDbTextStyleTableRecord
  2
Standard
 70
     0
 40
0.0
 41
1.0
 50
0.0
 71
     0
 42
3.5
  3
txt
  4
bigfont
  0
STYLE
  5
74
330
3
100
AcDbSymbolTableRecord
100
AcDbTextStyleTableRecord
  2
SLDTEXTSTYLE0
 70
     0
 40
0.0
 41
0.75
 50
0.0
 71
     0
 42
3.5
  3
TXT
  4
bigfont
  0
ENDTAB
  0
TABLE
  2
VIEW
  5
6
330
0
100
AcDbSymbolTable
 70
     0
  0
ENDTAB
  0
TABLE
  2
UCS
  5
7
330
0
100
AcDbSymbolTable
 70
     0
  0
ENDTAB
  0
TABLE
  2
APPID
  5
9
330
0
100
AcDbSymbolTable
 70
     1
  0
APPID
  5
12
330
9
100
AcDbSymbolTableRecord
100
AcDbRegAppTableRecord
  2
ACAD
 70
     0
  0
ENDTAB
  0
TABLE
  2
DIMSTYLE
  5
A
330
0
100
AcDbSymbolTable
 70
     1
100
AcDbDimStyleTable
  0
DIMSTYLE
105
27
330
A
100
AcDbSymbolTableRecord
100
AcDbDimStyleTableRecord
  2
ISO-25
 70
     0
 41
2.5
 42
0.625
 43
3.75
 44
1.25
 73
     0
 74
     0
 77
     1
 78
     8
140
2.5
141
2.5
143
0.0393700787
147
0.625
171
     3
172
     1
178
     0
271
     2
272
     2
274
     3
278
    44
283
     0
284
     8
340
11
  0
ENDTAB
  0
TABLE
  2
BLOCK_RECORD
  5
1
330
0
100
AcDbSymbolTable
 70
     2
  0
BLOCK_RECORD
  5
1F
330
1
100
AcDbSymbolTableRecord
100
AcDbBlockTableRecord
  2
*Model_Space
340
22
  0
BLOCK_RECORD
  5
1B
330
1
100
AcDbSymbolTableRecord
100
AcDbBlockTableRecord
  2
*Paper_Space
340
1E
  0
BLOCK_RECORD
  5
23
330
1
100
AcDbSymbolTableRecord
100
AcDbBlockTableRecord
  2
*Paper_Space0
340
26
  0
BLOCK_RECORD
  5
F5
330
1
100
AcDbSymbolTableRecord
100
AcDbBlockTableRecord
  2
SW_CENTERMARKSYMBOL_0
340
0
102
{BLKREFS
331
100
102
}
  0
ENDTAB
  0
ENDSEC
  0
SECTION
  2
BLOCKS
  0
BLOCK
  5
20
330
1F
100
AcDbEntity
  8
0
100
AcDbBlockBegin
  2
*Model_Space
 70
     0
 10
0.0
 20
0.0
 30
0.0
  3
*Model_Space
  1

  0
ENDBLK
  5
21
330
1F
100
AcDbEntity
  8
0
100
AcDbBlockEnd
  0
BLOCK
  5
1C
330
1B
100
AcDbEntity
 67
     1
  8
0
100
AcDbBlockBegin
  2
*Paper_Space
 70
     0
 10
0.0
 20
0.0
 30
0.0
  3
*Paper_Space
  1

  0
ENDBLK
  5
1D
330
1B
100
AcDbEntity
 67
     1
  8
0
100
AcDbBlockEnd
  0
BLOCK
  5
24
330
23
100
AcDbEntity
  8
0
100
AcDbBlockBegin
  2
*Paper_Space0
 70
     0
 10
0.0
 20
0.0
 30
0.0
  3
*Paper_Space0
  1

  0
ENDBLK
  5
25
330
23
100
AcDbEntity
  8
0
100
AcDbBlockEnd
  0
BLOCK
  5
F6
330
F5
100
AcDbEntity
  8
0
100
AcDbBlockBegin
  2
SW_CENTERMARKSYMBOL_0
 70
     0
 10
0.0
 20
0.0
 30
0.0
  3
SW_CENTERMARKSYMBOL_0
  1

  0
LINE
  5
F8
330
F5
100
AcDbEntity
  8
FORMAT
 62
     0
100
AcDbLine
 10
0.0
 20
0.0
 30
0.0
 11
0.0
 21
5.0
 31
0.0
  0
LINE
  5
F9
330
F5
100
AcDbEntity
  8
FORMAT
 62
     0
100
AcDbLine
 10
0.0
 20
0.0
 30
0.0
 11
-5.0
 21
0.0
 31
0.0
  0
LINE
  5
FA
330
F5
100
AcDbEntity
  8
FORMAT
 62
     0
100
AcDbLine
 10
0.0
 20
0.0
 30
0.0
 11
0.0
 21
-5.0
 31
0.0
  0
LINE
  5
FB
330
F5
100
AcDbEntity
  8
FORMAT
 62
     0
100
AcDbLine
 10
0.0
 20
0.0
 30
0.0
 11
5.0
 21
0.0
 31
0.0
  0
LINE
  5
FC
330
F5
100
AcDbEntity
  8
FORMAT
 62
     0
100
AcDbLine
 10
0.0
 20
10.0
 30
0.0
 11
0.0
 21
13.0
 31
0.0
  0
LINE
  5
FD
330
F5
100
AcDbEntity
  8
FORMAT
 62
     0
100
AcDbLine
 10
-10.0
 20
0.0
 30
0.0
 11
-13.0
 21
0.0
 31
0.0
  0
LINE
  5
FE
330
F5
100
AcDbEntity
  8
FORMAT
 62
     0
100
AcDbLine
 10
0.0
 20
-10.0
 30
0.0
 11
0.0
 21
-13.0
 31
0.0
  0
LINE
  5
FF
330
F5
100
AcDbEntity
  8
FORMAT
 62
     0
100
AcDbLine
 10
10.0
 20
0.0
 30
0.0
 11
13.0
 21
0.0
 31
0.0
  0
ENDBLK
  5
F7
330
F5
100
AcDbEntity
  8
0
100
AcDbBlockEnd
  0
ENDSEC
  0
SECTION
  2
ENTITIES
  0
MTEXT
  5
75
330
1F
100
AcDbEntity
  8
FORMAT
100
AcDbMText
 10
118.3274914005
 20
106.9041469523
 30
0.0
 40
5.2916666667
 41
0.0
 71
     1
 72
     1
  1
5R-NE1048
  7
SLDTEXTSTYLE0
 73
     1
 44
1.0
  0
LINE
  5
76
330
1F
100
AcDbEntity
  8
0
  6
Continuous
 62
     7
370
    25
100
AcDbLine
 10
70.9249800045
 20
98.0444353052
 30
0.0
 11
67.5102309582
 21
92.1299164619
 31
0.0
  0
LINE
  5
77
330
1F
100
AcDbEntity
  8
0
  6
Continuous
 62
     7
370
    25
100
AcDbLine
 10
67.5102309582
 20
23.1299164619
 30
0.0
 11
70.9249800045
 21
17.2153976186
 31
0.0
  0
LINE
  5
78
330
1F
100
AcDbEntity
  8
0
  6
Continuous
 62
     7
370
    25
100
AcDbLine
 10
86.0954819119
 20
17.2153976186
 30
0.0
 11
89.5102309582
 21
23.1299164619
 31
0.0
  0
LINE
  5
79
330
1F
100
AcDbEntity
  8
0
  6
Continuous
 62
     7
370
    25
100
AcDbLine
 10
89.5102309582
 20
92.1299164619
 30
0.0
 11
86.0954819119
 21
98.0444353052
 31
0.0
  0
LINE
  5
7A
330
1F
100
AcDbEntity
  8
0
  6
Continuous
 62
     7
370
    25
100
AcDbLine
 10
89.5102309582
 20
23.7177914619
 30
0.0
 11
124.9187216639
 21
24.8243067965
 31
0.0
  0
LINE
  5
7B
330
1F
100
AcDbEntity
  8
0
  6
Continuous
 62
     7
370
    25
100
AcDbLine
 10
124.9187216639
 20
90.4355261274
 30
0.0
 11
89.5102309582
 21
91.5420414619
 31
0.0
  0
LINE
  5
7C
330
1F
100
AcDbEntity
  8
0
  6
Continuous
 62
     7
370
    25
100
AcDbLine
 10
124.9187216639
 20
24.8243067965
 30
0.0
 11
131.5102309582
 21
28.6299164619
 31
0.0
  0
LINE
  5
7D
330
1F
100
AcDbEntity
  8
0
  6
Continuous
 62
     7
370
    25
100
AcDbLine
 10
131.5102309582
 20
86.6299164619
 30
0.0
 11
124.9187216639
 21
90.4355261274
 31
0.0
  0
LINE
  5
7E
330
1F
100
AcDbEntity
  8
0
  6
Continuous
 62
     7
370
    25
100
AcDbLine
 10
67.5102309582
 20
79.0124164619
 30
0.0
 11
42.9030135041
 21
78.2434409165
 31
0.0
  0
LINE
  5
7F
330
1F
100
AcDbEntity
  8
0
  6
Continuous
 62
     7
370
    25
100
AcDbLine
 10
42.9030135041
 20
37.0163920074
 30
0.0
 11
67.5102309582
 21
36.2474164619
 31
0.0
  0
LINE
  5
80
330
1F
100
AcDbEntity
  8
0
  6
Continuous
 62
     7
370
    25
100
AcDbLine
 10
42.9030135041
 20
78.2434409165
 30
0.0
 11
37.5102309582
 21
75.1299164619
 31
0.0
  0
LINE
  5
81
330
1F
100
AcDbEntity
  8
0
  6
Continuous
 62
     7
370
    25
100
AcDbLine
 10
37.5102309582
 20
40.1299164619
 30
0.0
 11
42.9030135041
 21
37.0163920074
 31
0.0
  0
LINE
  5
82
330
1F
100
AcDbEntity
  8
0
  6
Continuous
 62
     7
370
    25
100
AcDbLine
 10
79.0307980088
 20
98.0444353052
 30
0.0
 11
78.5102309582
 21
97.0444353052
 31
0.0
  0
LINE
  5
83
330
1F
100
AcDbEntity
  8
0
  6
Continuous
 62
     7
370
    25
100
AcDbLine
 10
78.5102309582
 20
97.0444353052
 30
0.0
 11
77.9896639077
 21
98.0444353052
 31
0.0
  0
LINE
  5
84
330
1F
100
AcDbEntity
  8
0
  6
Continuous
 62
     7
370
    25
100
AcDbLine
 10
77.9896639077
 20
17.2153976186
 30
0.0
 11
78.5102309582
 21
18.2153976186
 31
0.0
  0
LINE
  5
85
330
1F
100
AcDbEntity
  8
0
  6
Continuous
 62
     7
370
    25
100
AcDbLine
 10
78.5102309582
 20
18.2153976186
 30
0.0
 11
79.0307980088
 21
17.2153976186
 31
0.0
  0
SPLINE
  5
86
330
1F
100
AcDbEntity
  8
0
  6
Continuous
 62
     7
370
    25
100
AcDbSpline
210
0.0
220
0.0
230
1.0
 70
     8
 71
     3
 72
    18
 73
    14
 74
     0
 42
0.000000001
 43
0.00000001
 40
0.0
 40
0.0
 40
0.0
 40
0.0
 40
0.2500000000000002
 40
0.2500000000000002
 40
0.5000000000000004
 40
0.5000000000000004
 40
0.5625000000000004
 40
0.5625000000000004
 40
0.6250000000000006
 40
0.6250000000000006
 40
0.7500000000000004
 40
0.7500000000000004
 40
1.0
 40
1.0
 40
1.0
 40
1.0
 10
70.9249800045218
 20
17.21539761864253
 30
0.0
 10
69.97250710473503
 20
18.86512907390566
 30
0.0
 10
69.18749715663948
 20
20.52688803385479
 30
0.0
 10
68.10000369699156
 20
23.88506191149181
 30
0.0
 10
67.80110735146249
 20
25.58173446620163
 30
0.0
 10
67.79837115567129
 20
27.72921276416255
 30
0.0
 10
67.81622050181736
 20
28.16088532649864
 30
0.0
 10
67.88813877460959
 20
29.02031469273442
 30
0.0
 10
67.94212453016152
 20
29.44853638918251
 30
0.0
 10
68.15582118634065
 20
30.7289163589382
 30
0.0
 10
68.36739244010393
 20
31.57677949430265
 30
0.0
 10
69.18436658373183
 20
34.10527387237613
 30
0.0
 10
69.97131967981316
 20
35.77086890472115
 30
0.0
 10
70.924980004522
 20
37.42265704027946
 30
0.0
  0
LINE
  5
87
330
1F
100
AcDbEntity
  8
0
  6
Continuous
 62
     7
370
    25
100
AcDbLine
 10
70.9249800045
 20
37.4226570403
 30
0.0
 11
77.9896639077
 21
37.4226570403
 31
0.0
  0
SPLINE
  5
88
330
1F
100
AcDbEntity
  8
0
  6
Continuous
 62
     7
370
    25
100
AcDbSpline
210
0.0
220
0.0
230
1.0
 70
     8
 71
     3
 72
     8
 73
     4
 74
     0
 42
0.000000001
 43
0.00000001
 40
0.0
 40
0.0
 40
0.0
 40
0.0
 40
1.0
 40
1.0
 40
1.0
 40
1.0
 10
78.510230958231
 20
36.38137106117283
 30
0.0
 10
78.34351395350946
 20
36.72959524592969
 30
0.0
 10
78.16978085019083
 20
37.07665561295004
 30
0.0
 10
77.98966390767927
 20
37.42265704027945
 30
0.0
  0
SPLINE
  5
89
330
1F
100
AcDbEntity
  8
0
  6
Continuous
 62
     7
370
    25
100
AcDbSpline
210
0.0
220
0.0
230
1.0
 70
     8
 71
     3
 72
     8
 73
     4
 74
     0
 42
0.000000001
 43
0.00000001
 40
0.0
 40
0.0
 40
0.0
 40
0.0
 40
1.0
 40
1.0
 40
1.0
 40
1.0
 10
78.51023095823092
 20
36.38137106117283
 30
0.0
 10
78.6769479629525
 20
36.72959524592971
 30
0.0
 10
78.85068106627114
 20
37.07665561295005
 30
0.0
 10
79.03079800878271
 20
37.42265704027946
 30
0.0
  0
LINE
  5
8A
330
1F
100
AcDbEntity
  8
0
  6
Continuous
 62
     7
370
    25
100
AcDbLine
 10
79.0307980088
 20
37.4226570403
 30
0.0
 11
86.0954819119
 21
37.4226570403
 31
0.0
  0
SPLINE
  5
8B
330
1F
100
AcDbEntity
  8
0
  6
Continuous
 62
     7
370
    25
100
AcDbSpline
210
0.0
220
0.0
230
1.0
 70
     8
 71
     3
 72
    18
 73
    14
 74
     0
 42
0.000000001
 43
0.00000001
 40
0.0
 40
0.0
 40
0.0
 40
0.0
 40
0.2500000000000007
 40
0.2500000000000007
 40
0.5000000000000014
 40
0.5000000000000014
 40
0.5625000000000016
 40
0.5625000000000016
 40
0.6250000000000013
 40
0.6250000000000013
 40
0.7500000000000009
 40
0.7500000000000009
 40
1.0
 40
1.0
 40
1.0
 40
1.0
 10
86.09548191194014
 20
37.42265704027948
 30
0.0
 10
87.04795481172691
 20
35.77292558501632
 30
0.0
 10
87.83296475982246
 20
34.11116662506722
 30
0.0
 10
88.92045821947035
 20
30.75299274743019
 30
0.0
 10
89.21935456499943
 20
29.05632019272038
 30
0.0
 10
89.22209076079065
 20
26.90884189475945
 30
0.0
 10
89.20424141464457
 20
26.47716933242336
 30
0.0
 10
89.13232314185234
 20
25.61773996618759
 30
0.0
 10
89.07833738630039
 20
25.18951826973948
 30
0.0
 10
88.86464073012128
 20
23.9091382999838
 30
0.0
 10
88.65306947635801
 20
23.06127516461933
 30
0.0
 10
87.8360953327301
 20
20.53278078654587
 30
0.0
 10
87.04914223664875
 20
18.86718575420084
 30
0.0
 10
86.09548191193993
 20
17.21539761864254
 30
0.0
  0
LINE
  5
8C
330
1F
100
AcDbEntity
  8
0
  6
Continuous
 62
     7
370
    25
100
AcDbLine
 10
79.0307980088
 20
17.2153976186
 30
0.0
 11
86.0954819119
 21
17.2153976186
 31
0.0
  0
SPLINE
  5
8D
330
1F
100
AcDbEntity
  8
0
  6
Continuous
 62
     7
370
    25
100
AcDbSpline
210
0.0
220
0.0
230
1.0
 70
     8
 71
     3
 72
     8
 73
     4
 74
     0
 42
0.000000001
 43
0.00000001
 40
0.0
 40
0.0
 40
0.0
 40
0.0
 40
1.0
 40
1.0
 40
1.0
 40
1.0
 10
79.0307980087827
 20
17.21539761864255
 30
0.0
 10
78.85067875846401
 20
17.56140347922819
 30
0.0
 10
78.67694575862687
 20
17.90846401719877
 30
0.0
 10
78.51023095823098
 20
18.25668359774918
 30
0.0
  0
SPLINE
  5
8E
330
1F
100
AcDbEntity
  8
0
  6
Continuous
 62
     7
370
    25
100
AcDbSpline
210
0.0
220
0.0
230
1.0
 70
     8
 71
     3
 72
     8
 73
     4
 74
     0
 42
0.000000001
 43
0.00000001
 40
0.0
 40
0.0
 40
0.0
 40
0.0
 40
1.0
 40
1.0
 40
1.0
 40
1.0
 10
77.98966390767927
 20
17.21539761864253
 30
0.0
 10
78.16978315799795
 20
17.56140347922818
 30
0.0
 10
78.3435161578351
 20
17.90846401719876
 30
0.0
 10
78.51023095823098
 20
18.25668359774918
 30
0.0
  0
LINE
  5
8F
330
1F
100
AcDbEntity
  8
0
  6
Continuous
 62
     7
370
    25
100
AcDbLine
 10
70.9249800045
 20
17.2153976186
 30
0.0
 11
77.9896639077
 21
17.2153976186
 31
0.0
  0
SPLINE
  5
90
330
1F
100
AcDbEntity
  8
0
  6
Continuous
 62
     7
370
    25
100
AcDbSpline
210
0.0
220
0.0
230
1.0
 70
     8
 71
     3
 72
     8
 73
     4
 74
     0
 42
0.000000001
 43
0.00000001
 40
0.0
 40
0.0
 40
0.0
 40
0.0
 40
1.0
 40
1.0
 40
1.0
 40
1.0
 10
77.98966390767924
 20
37.42265704027942
 30
0.0
 10
78.16981789965372
 20
38.11480223765048
 30
0.0
 10
78.34354932782047
 20
38.80892840263461
 30
0.0
 10
78.51023095823098
 20
39.50522899849272
 30
0.0
  0
LINE
  5
91
330
1F
100
AcDbEntity
  8
0
  6
Continuous
 62
     7
370
    25
100
AcDbLine
 10
78.5102309582
 20
36.3813710612
 30
0.0
 11
78.5102309582
 21
39.5052289985
 31
0.0
  0
SPLINE
  5
92
330
1F
100
AcDbEntity
  8
0
  6
Continuous
 62
     7
370
    25
100
AcDbSpline
210
0.0
220
0.0
230
1.0
 70
     8
 71
     3
 72
    18
 73
    14
 74
     0
 42
0.000000001
 43
0.00000001
 40
0.0
 40
0.0
 40
0.0
 40
0.0
 40
0.125
 40
0.125
 40
0.2500000000000001
 40
0.2500000000000001
 40
0.5000000000000002
 40
0.5000000000000002
 40
0.6250000000000002
 40
0.6250000000000002
 40
0.7500000000000001
 40
0.7500000000000001
 40
1.0
 40
1.0
 40
1.0
 40
1.0
 10
70.92498000452218
 20
37.42265704027945
 30
0.0
 10
70.45030799992473
 20
39.06696909806619
 30
0.0
 10
70.0143653561645
 20
40.72718336615927
 30
0.0
 10
69.24151862485253
 20
44.08302333988164
 30
0.0
 10
68.90791402709783
 20
45.76510853716523
 30
0.0
 10
68.09203986783203
 20
50.82594819679446
 30
0.0
 10
67.79854082970891
 20
54.21958882522652
 30
0.0
 10
67.79908924495967
 20
59.34481036939387
 30
0.0
 10
67.87187679189658
 20
61.05894305403685
 30
0.0
 10
68.16090124430066
 20
64.49852062894553
 30
0.0
 10
68.37519020988526
 20
66.20231793963701
 30
0.0
 10
69.1967889371108
 20
71.26159284724866
 30
0.0
 10
69.9819989765312
 20
74.57059378144544
 30
0.0
 10
70.92498000452218
 20
77.8371758835533
 30
0.0
  0
LINE
  5
93
330
1F
100
AcDbEntity
  8
0
  6
Continuous
 62
     7
370
    25
100
AcDbLine
 10
70.9249800045
 20
77.8371758836
 30
0.0
 11
77.9896639077
 21
77.8371758836
 31
0.0
  0
SPLINE
  5
94
330
1F
100
AcDbEntity
  8
0
  6
Continuous
 62
     7
370
    25
100
AcDbSpline
210
0.0
220
0.0
230
1.0
 70
     8
 71
     3
 72
     8
 73
     4
 74
     0
 42
0.000000001
 43
0.00000001
 40
0.0
 40
0.0
 40
0.0
 40
0.0
 40
1.0
 40
1.0
 40
1.0
 40
1.0
 10
78.51023095823096
 20
75.75460392534005
 30
0.0
 10
78.34351157132812
 20
76.45106224624585
 30
0.0
 10
78.16977835631377
 20
77.14518261028088
 30
0.0
 10
77.98966390767924
 20
77.83717588355333
 30
0.0
  0
SPLINE
  5
95
330
1F
100
AcDbEntity
  8
0
  6
Continuous
 62
     7
370
    25
100
AcDbSpline
210
0.0
220
0.0
230
1.0
 70
     8
 71
     3
 72
     8
 73
     4
 74
     0
 42
0.000000001
 43
0.00000001
 40
0.0
 40
0.0
 40
0.0
 40
0.0
 40
1.0
 40
1.0
 40
1.0
 40
1.0
 10
78.51023095823096
 20
75.75460392534004
 30
0.0
 10
78.67695034513383
 20
76.45106224624585
 30
0.0
 10
78.8506835601482
 20
77.14518261028088
 30
0.0
 10
79.03079800878274
 20
77.83717588355333
 30
0.0
  0
LINE
  5
96
330
1F
100
AcDbEntity
  8
0
  6
Continuous
 62
     7
370
    25
100
AcDbLine
 10
79.0307980088
 20
77.8371758836
 30
0.0
 11
86.0954819119
 21
77.8371758836
 31
0.0
  0
SPLINE
  5
97
330
1F
100
AcDbEntity
  8
0
  6
Continuous
 62
     7
370
    25
100
AcDbSpline
210
0.0
220
0.0
230
1.0
 70
     8
 71
     3
 72
    18
 73
    14
 74
     0
 42
0.000000001
 43
0.00000001
 40
0.0
 40
0.0
 40
0.0
 40
0.0
 40
0.125
 40
0.125
 40
0.25
 40
0.25
 40
0.5
 40
0.5
 40
0.625
 40
0.625
 40
0.75
 40
0.75
 40
1.0
 40
1.0
 40
1.0
 40
1.0
 10
86.09548191193973
 20
37.42265704027946
 30
0.0
 10
86.5704467826963
 20
39.06798361620094
 30
0.0
 10
87.00714764537926
 20
40.73147788144094
 30
0.0
 10
87.77923367835123
 20
44.08455420592187
 30
0.0
 10
88.11261936232255
 20
45.76558219850058
 30
0.0
 10
88.92818312502519
 20
50.82440553314216
 30
0.0
 10
89.22196659572714
 20
54.21826435176752
 30
0.0
 10
89.22134977988031
 20
59.34667936810013
 30
0.0
 10
89.14827121665633
 20
61.06439958377553
 30
0.0
 10
88.85898809636636
 20
64.50360854347265
 30
0.0
 10
88.64489330866091
 20
66.20491257224924
 30
0.0
 10
87.82357753896355
 20
71.261651105793
 30
0.0
 10
87.03856539846525
 20
74.57023885467052
 30
0.0
 10
86.09548191193973
 20
77.8371758835533
 30
0.0
  0
SPLINE
  5
98
330
1F
100
AcDbEntity
  8
0
  6
Continuous
 62
     7
370
    25
100
AcDbSpline
210
0.0
220
0.0
230
1.0
 70
     8
 71
     3
 72
     8
 73
     4
 74
     0
 42
0.000000001
 43
0.00000001
 40
0.0
 40
0.0
 40
0.0
 40
0.0
 40
1.0
 40
1.0
 40
1.0
 40
1.0
 10
79.03079800878274
 20
37.42265704027946
 30
0.0
 10
78.85064401680822
 20
38.1148022376505
 30
0.0
 10
78.67691258864149
 20
38.80892840263462
 30
0.0
 10
78.51023095823096
 20
39.50522899849272
 30
0.0
  0
LINE
  5
99
330
1F
100
AcDbEntity
  8
0
  6
Continuous
 62
     7
370
    25
100
AcDbLine
 10
78.5102309582
 20
75.7546039253
 30
0.0
 11
78.5102309582
 21
78.8784618627
 31
0.0
  0
SPLINE
  5
9A
330
1F
100
AcDbEntity
  8
0
  6
Continuous
 62
     7
370
    25
100
AcDbSpline
210
0.0
220
0.0
230
1.0
 70
     8
 71
     3
 72
     8
 73
     4
 74
     0
 42
0.000000001
 43
0.00000001
 40
0.0
 40
0.0
 40
0.0
 40
0.0
 40
1.0
 40
1.0
 40
1.0
 40
1.0
 10
79.0307980087827
 20
77.8371758835533
 30
0.0
 10
78.850678758464
 20
78.18318174413893
 30
0.0
 10
78.67694575862686
 20
78.5302422821095
 30
0.0
 10
78.51023095823096
 20
78.87846186265993
 30
0.0
  0
SPLINE
  5
9B
330
1F
100
AcDbEntity
  8
0
  6
Continuous
 62
     7
370
    25
100
AcDbSpline
210
0.0
220
0.0
230
1.0
 70
     8
 71
     3
 72
    18
 73
    14
 74
     0
 42
0.000000001
 43
0.00000001
 40
0.0
 40
0.0
 40
0.0
 40
0.0
 40
0.2500000000000003
 40
0.2500000000000003
 40
0.5000000000000007
 40
0.5000000000000007
 40
0.5625000000000008
 40
0.5625000000000008
 40
0.6250000000000006
 40
0.6250000000000006
 40
0.7500000000000004
 40
0.7500000000000004
 40
1.0
 40
1.0
 40
1.0
 40
1.0
 10
70.9249800045218
 20
77.83717588355327
 30
0.0
 10
69.97250710473503
 20
79.48690733881641
 30
0.0
 10
69.18749715663948
 20
81.14866629876552
 30
0.0
 10
68.10000369699156
 20
84.50684017640256
 30
0.0
 10
67.80110735146249
 20
86.20351273111237
 30
0.0
 10
67.79837115567129
 20
88.3509910290733
 30
0.0
 10
67.81622050181736
 20
88.78266359140937
 30
0.0
 10
67.88813877460959
 20
89.64209295764515
 30
0.0
 10
67.94212453016154
 20
90.07031465409327
 30
0.0
 10
68.15582118634066
 20
91.35069462384895
 30
0.0
 10
68.36739244010393
 20
92.1985577592134
 30
0.0
 10
69.18436658373183
 20
94.72705213728686
 30
0.0
 10
69.97131967981318
 20
96.39264716963189
 30
0.0
 10
70.924980004522
 20
98.0444353051902
 30
0.0
  0
LINE
  5
9C
330
1F
100
AcDbEntity
  8
0
  6
Continuous
 62
     7
370
    25
100
AcDbLine
 10
67.5102309582
 20
57.6299164619
 30
0.0
 11
67.5102309582
 21
92.1299164619
 31
0.0
  0
LINE
  5
9D
330
1F
100
AcDbEntity
  8
0
  6
Continuous
 62
     7
370
    25
100
AcDbLine
 10
67.5102309582
 20
23.1299164619
 30
0.0
 11
67.5102309582
 21
57.6299164619
 31
0.0
  0
SPLINE
  5
9E
330
1F
100
AcDbEntity
  8
0
  6
Continuous
 62
     7
370
    25
100
AcDbSpline
210
0.0
220
0.0
230
1.0
 70
     8
 71
     3
 72
     8
 73
     4
 74
     0
 42
0.000000001
 43
0.00000001
 40
0.0
 40
0.0
 40
0.0
 40
0.0
 40
1.0
 40
1.0
 40
1.0
 40
1.0
 10
77.98966390767929
 20
77.8371758835533
 30
0.0
 10
78.16978315799797
 20
78.18318174413893
 30
0.0
 10
78.3435161578351
 20
78.5302422821095
 30
0.0
 10
78.51023095823098
 20
78.87846186265993
 30
0.0
  0
SPLINE
  5
9F
330
1F
100
AcDbEntity
  8
0
  6
Continuous
 62
     7
370
    25
100
AcDbSpline
210
0.0
220
0.0
230
1.0
 70
     8
 71
     3
 72
    18
 73
    14
 74
     0
 42
0.000000001
 43
0.00000001
 40
0.0
 40
0.0
 40
0.0
 40
0.0
 40
0.2500000000000002
 40
0.2500000000000002
 40
0.5000000000000003
 40
0.5000000000000003
 40
0.5625000000000003
 40
0.5625000000000003
 40
0.6250000000000004
 40
0.6250000000000004
 40
0.7500000000000002
 40
0.7500000000000002
 40
1.0
 40
1.0
 40
1.0
 40
1.0
 10
86.09548191194013
 20
98.04443530519022
 30
0.0
 10
87.0479548117269
 20
96.39470384992707
 30
0.0
 10
87.83296475982245
 20
94.73294488997794
 30
0.0
 10
88.92045821947035
 20
91.37477101234093
 30
0.0
 10
89.21935456499943
 20
89.67809845763111
 30
0.0
 10
89.22209076079065
 20
87.53062015967019
 30
0.0
 10
89.20424141464457
 20
87.09894759733409
 30
0.0
 10
89.13232314185234
 20
86.23951823109832
 30
0.0
 10
89.07833738630039
 20
85.81129653465022
 30
0.0
 10
88.86464073012127
 20
84.53091656489453
 30
0.0
 10
88.65306947635801
 20
83.68305342953009
 30
0.0
 10
87.8360953327301
 20
81.1545590514566
 30
0.0
 10
87.04914223664875
 20
79.48896401911158
 30
0.0
 10
86.09548191193994
 20
77.83717588355327
 30
0.0
  0
LINE
  5
A0
330
1F
100
AcDbEntity
  8
0
  6
Continuous
 62
     7
370
    25
100
AcDbLine
 10
89.5102309582
 20
92.1299164619
 30
0.0
 11
89.5102309582
 21
23.1299164619
 31
0.0
  0
LINE
  5
A1
330
1F
100
AcDbEntity
  8
0
  6
Continuous
 62
     7
370
    25
100
AcDbLine
 10
70.9249800045
 20
98.0444353052
 30
0.0
 11
77.9896639077
 21
98.0444353052
 31
0.0
  0
SPLINE
  5
A2
330
1F
100
AcDbEntity
  8
0
  6
Continuous
 62
     7
370
    25
100
AcDbSpline
210
0.0
220
0.0
230
1.0
 70
     8
 71
     3
 72
     8
 73
     4
 74
     0
 42
0.000000001
 43
0.00000001
 40
0.0
 40
0.0
 40
0.0
 40
0.0
 40
1.0
 40
1.0
 40
1.0
 40
1.0
 10
78.510230958231
 20
97.00314932608356
 30
0.0
 10
78.34351395350946
 20
97.35137351084045
 30
0.0
 10
78.16978085019083
 20
97.69843387786078
 30
0.0
 10
77.98966390767927
 20
98.04443530519019
 30
0.0
  0
SPLINE
  5
A3
330
1F
100
AcDbEntity
  8
0
  6
Continuous
 62
     7
370
    25
100
AcDbSpline
210
0.0
220
0.0
230
1.0
 70
     8
 71
     3
 72
     8
 73
     4
 74
     0
 42
0.000000001
 43
0.00000001
 40
0.0
 40
0.0
 40
0.0
 40
0.0
 40
1.0
 40
1.0
 40
1.0
 40
1.0
 10
78.51023095823092
 20
97.00314932608356
 30
0.0
 10
78.6769479629525
 20
97.35137351084045
 30
0.0
 10
78.85068106627114
 20
97.69843387786078
 30
0.0
 10
79.03079800878271
 20
98.04443530519019
 30
0.0
  0
LINE
  5
A4
330
1F
100
AcDbEntity
  8
0
  6
Continuous
 62
     7
370
    25
100
AcDbLine
 10
79.0307980088
 20
98.0444353052
 30
0.0
 11
86.0954819119
 21
98.0444353052
 31
0.0
  0
LINE
  5
A5
330
1F
100
AcDbEntity
  8
0
  6
Continuous
 62
     7
370
    25
100
AcDbLine
 10
124.9187216639
 20
90.4355261274
 30
0.0
 11
124.9187216639
 21
24.8243067965
 31
0.0
  0
LINE
  5
A6
330
1F
100
AcDbEntity
  8
0
  6
Continuous
 62
     7
370
    25
100
AcDbLine
 10
131.5102309582
 20
86.6299164619
 30
0.0
 11
131.5102309582
 21
28.6299164619
 31
0.0
  0
LINE
  5
A7
330
1F
100
AcDbEntity
  8
0
  6
Continuous
 62
     7
370
    25
100
AcDbLine
 10
42.9030135041
 20
37.0163920074
 30
0.0
 11
42.9030135041
 21
78.2434409165
 31
0.0
  0
LINE
  5
A8
330
1F
100
AcDbEntity
  8
0
  6
Continuous
 62
     7
370
    25
100
AcDbLine
 10
37.5102309582
 20
57.6299164619
 30
0.0
 11
37.5102309582
 21
75.1299164619
 31
0.0
  0
LINE
  5
A9
330
1F
100
AcDbEntity
  8
0
  6
Continuous
 62
     7
370
    25
100
AcDbLine
 10
37.5102309582
 20
40.1299164619
 30
0.0
 11
37.5102309582
 21
57.6299164619
 31
0.0
  0
LINE
  5
AA
330
1F
100
AcDbEntity
  8
0
  6
Continuous
 62
     7
370
    25
100
AcDbLine
 10
78.5102309582
 20
97.0031493261
 30
0.0
 11
78.5102309582
 21
97.0444353052
 31
0.0
  0
LINE
  5
AB
330
1F
100
AcDbEntity
  8
0
  6
Continuous
 62
     7
370
    25
100
AcDbLine
 10
78.5102309582
 20
18.2153976186
 30
0.0
 11
78.5102309582
 21
18.2566835977
 31
0.0
  0
LINE
  5
AC
330
1F
100
AcDbEntity
  8
0
  6
Continuous
 62
     7
370
    18
100
AcDbLine
 10
39.2726830201
 20
76.1474686343
 30
0.0
 11
65.5102309582
 21
76.9673920074
 31
0.0
  0
LINE
  5
AD
330
1F
100
AcDbEntity
  8
0
  6
Continuous
 62
     7
370
    18
100
AcDbLine
 10
39.2726830201
 20
39.1123642895
 30
0.0
 11
65.5102309582
 21
38.2924409165
 31
0.0
  0
LINE
  5
AE
330
1F
100
AcDbEntity
  8
0
  6
Continuous
 62
     7
370
    18
100
AcDbLine
 10
65.5102309582
 20
36.3099164619
 30
0.0
 11
65.5102309582
 21
78.9499164619
 31
0.0
  0
LINE
  5
AF
330
1F
100
AcDbEntity
  8
0
  6
Continuous
 62
     7
370
    18
100
AcDbLine
 10
129.690024321
 20
27.57901967
 30
0.0
 11
90.5102309582
 21
26.3546511274
 31
0.0
  0
LINE
  5
B0
330
1F
100
AcDbEntity
  8
0
  6
Continuous
 62
     7
370
    18
100
AcDbLine
 10
129.690024321
 20
87.6808132539
 30
0.0
 11
90.5102309582
 21
88.9051817965
 31
0.0
  0
LINE
  5
B1
330
1F
100
AcDbEntity
  8
0
  6
Continuous
 62
     7
370
    18
100
AcDbLine
 10
90.5102309582
 20
91.5107914619
 30
0.0
 11
90.5102309582
 21
23.7490414619
 31
0.0
  0
LINE
  5
B2
330
1F
100
AcDbEntity
  8
0
  6
Continuous
 62
     7
370
    25
100
AcDbLine
 10
67.7989060928
 20
181.3664078624
 30
0.0
 11
67.5102309582
 21
180.8664078624
 31
0.0
  0
LINE
  5
B3
330
1F
100
AcDbEntity
  8
0
  6
Continuous
 62
     7
370
    25
100
AcDbLine
 10
67.5102309582
 20
111.8664078624
 30
0.0
 11
67.7989060928
 21
111.3664078624
 31
0.0
  0
LINE
  5
B4
330
1F
100
AcDbEntity
  8
0
  6
Continuous
 62
     7
370
    25
100
AcDbLine
 10
89.2215558236
 20
111.3664078624
 30
0.0
 11
89.5102309582
 21
111.8664078624
 31
0.0
  0
LINE
  5
B5
330
1F
100
AcDbEntity
  8
0
  6
Continuous
 62
     7
370
    25
100
AcDbLine
 10
89.5102309582
 20
180.8664078624
 30
0.0
 11
89.2215558236
 21
181.3664078624
 31
0.0
  0
LINE
  5
B6
330
1F
100
AcDbEntity
  8
0
  6
Continuous
 62
     7
370
    25
100
AcDbLine
 10
89.5102309582
 20
112.4542828624
 30
0.0
 11
124.9187216639
 21
113.560798197
 31
0.0
  0
LINE
  5
B7
330
1F
100
AcDbEntity
  8
0
  6
Continuous
 62
     7
370
    25
100
AcDbLine
 10
124.9187216639
 20
179.1720175279
 30
0.0
 11
89.5102309582
 21
180.2785328624
 31
0.0
  0
LINE
  5
B8
330
1F
100
AcDbEntity
  8
0
  6
Continuous
 62
     7
370
    25
100
AcDbLine
 10
124.9187216639
 20
113.560798197
 30
0.0
 11
131.5102309582
 21
117.3664078624
 31
0.0
  0
LINE
  5
B9
330
1F
100
AcDbEntity
  8
0
  6
Continuous
 62
     7
370
    25
100
AcDbLine
 10
131.5102309582
 20
175.3664078624
 30
0.0
 11
124.9187216639
 21
179.1720175279
 31
0.0
  0
LINE
  5
BA
330
1F
100
AcDbEntity
  8
0
  6
Continuous
 62
     7
370
    25
100
AcDbLine
 10
67.5102309582
 20
167.7489078624
 30
0.0
 11
42.9030135041
 21
166.979932317
 31
0.0
  0
LINE
  5
BB
330
1F
100
AcDbEntity
  8
0
  6
Continuous
 62
     7
370
    25
100
AcDbLine
 10
42.9030135041
 20
125.7528834078
 30
0.0
 11
67.5102309582
 21
124.9839078624
 31
0.0
  0
LINE
  5
BC
330
1F
100
AcDbEntity
  8
0
  6
Continuous
 62
     7
370
    25
100
AcDbLine
 10
42.9030135041
 20
166.979932317
 30
0.0
 11
37.5102309582
 21
163.8664078624
 31
0.0
  0
LINE
  5
BD
330
1F
100
AcDbEntity
  8
0
  6
Continuous
 62
     7
370
    25
100
AcDbLine
 10
37.5102309582
 20
128.8664078624
 30
0.0
 11
42.9030135041
 21
125.7528834078
 31
0.0
  0
SPLINE
  5
BE
330
1F
100
AcDbEntity
  8
0
  6
Continuous
 62
     7
370
    25
100
AcDbSpline
210
0.0
220
0.0
230
1.0
 70
     8
 71
     3
 72
    18
 73
    14
 74
     0
 42
0.000000001
 43
0.00000001
 40
0.0
 40
0.0
 40
0.0
 40
0.0
 40
0.2499999999999997
 40
0.2499999999999997
 40
0.4999999999999993
 40
0.4999999999999993
 40
0.5624999999999993
 40
0.5624999999999993
 40
0.6249999999999993
 40
0.6249999999999993
 40
0.7499999999999997
 40
0.7499999999999997
 40
1.0
 40
1.0
 40
1.0
 40
1.0
 10
70.9249800045218
 20
146.3664078624077
 30
0.0
 10
69.97250710473503
 20
149.223826561768
 30
0.0
 10
69.18749715663948
 20
152.1020775103327
 30
0.0
 10
68.10000369699156
 20
157.9186052870506
 30
0.0
 10
67.80110735146249
 20
160.8573283556157
 30
0.0
 10
67.7983711556713
 20
164.5768698758356
 30
0.0
 10
67.81622050181737
 20
165.3245486860351
 30
0.0
 10
67.88813877460959
 20
166.8131240138722
 30
0.0
 10
67.94212453016154
 20
167.5548257490237
 30
0.0
 10
68.15582118634067
 20
169.772508909634
 30
0.0
 10
68.36739244010393
 20
171.2410509379499
 30
0.0
 10
69.18436658373184
 20
175.6205316674254
 30
0.0
 10
69.97131967981318
 20
178.5054268882814
 30
0.0
 10
70.924980004522
 20
181.3664078624078
 30
0.0
  0
LINE
  5
BF
330
1F
100
AcDbEntity
  8
0
  6
Continuous
 62
     7
370
    25
100
AcDbLine
 10
70.9249800045
 20
181.3664078624
 30
0.0
 11
77.9896639077
 21
181.3664078624
 31
0.0
  0
SPLINE
  5
C0
330
1F
100
AcDbEntity
  8
0
  6
Continuous
 62
     7
370
    25
100
AcDbSpline
210
0.0
220
0.0
230
1.0
 70
     8
 71
     3
 72
     8
 73
     4
 74
     0
 42
0.000000001
 43
0.00000001
 40
0.0
 40
0.0
 40
0.0
 40
0.0
 40
1.0
 40
1.0
 40
1.0
 40
1.0
 10
78.51023095823102
 20
179.562847641386
 30
0.0
 10
78.34351395350947
 20
180.1659896218092
 30
0.0
 10
78.16978085019083
 20
180.7671158107819
 30
0.0
 10
77.98966390767926
 20
181.3664078624078
 30
0.0
  0
SPLINE
  5
C1
330
1F
100
AcDbEntity
  8
0
  6
Continuous
 62
     7
370
    25
100
AcDbSpline
210
0.0
220
0.0
230
1.0
 70
     8
 71
     3
 72
     8
 73
     4
 74
     0
 42
0.000000001
 43
0.00000001
 40
0.0
 40
0.0
 40
0.0
 40
0.0
 40
1.0
 40
1.0
 40
1.0
 40
1.0
 10
78.51023095823092
 20
179.562847641386
 30
0.0
 10
78.6769479629525
 20
180.1659896218092
 30
0.0
 10
78.85068106627115
 20
180.7671158107819
 30
0.0
 10
79.03079800878271
 20
181.3664078624078
 30
0.0
  0
LINE
  5
C2
330
1F
100
AcDbEntity
  8
0
  6
Continuous
 62
     7
370
    25
100
AcDbLine
 10
79.0307980088
 20
181.3664078624
 30
0.0
 11
86.0954819119
 21
181.3664078624
 31
0.0
  0
SPLINE
  5
C3
330
1F
100
AcDbEntity
  8
0
  6
Continuous
 62
     7
370
    25
100
AcDbSpline
210
0.0
220
0.0
230
1.0
 70
     8
 71
     3
 72
    18
 73
    14
 74
     0
 42
0.000000001
 43
0.00000001
 40
0.0
 40
0.0
 40
0.0
 40
0.0
 40
0.2499999999999998
 40
0.2499999999999998
 40
0.4999999999999997
 40
0.4999999999999997
 40
0.5624999999999998
 40
0.5624999999999998
 40
0.6249999999999997
 40
0.6249999999999997
 40
0.7499999999999998
 40
0.7499999999999998
 40
1.0
 40
1.0
 40
1.0
 40
1.0
 10
86.09548191194013
 20
181.3664078624078
 30
0.0
 10
87.0479548117269
 20
178.5089891630475
 30
0.0
 10
87.83296475982246
 20
175.6307382144828
 30
0.0
 10
88.92045821947035
 20
169.8142104377649
 30
0.0
 10
89.21935456499943
 20
166.8754873691998
 30
0.0
 10
89.22209076079064
 20
163.15594584898
 30
0.0
 10
89.20424141464456
 20
162.4082670387805
 30
0.0
 10
89.13232314185234
 20
160.9196917109433
 30
0.0
 10
89.07833738630039
 20
160.1779899757919
 30
0.0
 10
88.86464073012127
 20
157.9603068151815
 30
0.0
 10
88.653069476358
 20
156.4917647868657
 30
0.0
 10
87.8360953327301
 20
152.1122840573901
 30
0.0
 10
87.04914223664875
 20
149.2273888365342
 30
0.0
 10
86.09548191193993
 20
146.3664078624078
 30
0.0
  0
LINE
  5
C4
330
1F
100
AcDbEntity
  8
0
  6
Continuous
 62
     7
370
    25
100
AcDbLine
 10
79.0307980088
 20
146.3664078624
 30
0.0
 11
86.0954819119
 21
146.3664078624
 31
0.0
  0
SPLINE
  5
C5
330
1F
100
AcDbEntity
  8
0
  6
Continuous
 62
     7
370
    25
100
AcDbSpline
210
0.0
220
0.0
230
1.0
 70
     8
 71
     3
 72
     8
 73
     4
 74
     0
 42
0.000000001
 43
0.00000001
 40
0.0
 40
0.0
 40
0.0
 40
0.0
 40
1.0
 40
1.0
 40
1.0
 40
1.0
 10
79.03079800878271
 20
146.3664078624078
 30
0.0
 10
78.85067875846401
 20
146.9657075926587
 30
0.0
 10
78.67694575862686
 20
147.566834077726
 30
0.0
 10
78.51023095823096
 20
148.1699680834296
 30
0.0
  0
SPLINE
  5
C6
330
1F
100
AcDbEntity
  8
0
  6
Continuous
 62
     7
370
    25
100
AcDbSpline
210
0.0
220
0.0
230
1.0
 70
     8
 71
     3
 72
     8
 73
     4
 74
     0
 42
0.000000001
 43
0.00000001
 40
0.0
 40
0.0
 40
0.0
 40
0.0
 40
1.0
 40
1.0
 40
1.0
 40
1.0
 10
77.98966390767927
 20
146.3664078624078
 30
0.0
 10
78.16978315799795
 20
146.9657075926587
 30
0.0
 10
78.3435161578351
 20
147.5668340777259
 30
0.0
 10
78.51023095823096
 20
148.1699680834296
 30
0.0
  0
LINE
  5
C7
330
1F
100
AcDbEntity
  8
0
  6
Continuous
 62
     7
370
    25
100
AcDbLine
 10
70.9249800045
 20
146.3664078624
 30
0.0
 11
77.9896639077
 21
146.3664078624
 31
0.0
  0
SPLINE
  5
C8
330
1F
100
AcDbEntity
  8
0
  6
Continuous
 62
     7
370
    25
100
AcDbSpline
210
0.0
220
0.0
230
1.0
 70
    24
 71
     3
 72
    14
 73
    10
 74
     0
 42
0.000000001
 43
0.00000001
 40
0.0
 40
0.0
 40
0.0
 40
0.0
 40
0.0009508188342395
 40
0.1296995211751321
 40
0.2584500061820446
 40
0.4426055412818545
 40
0.6273327120448123
 40
0.8134874765783483
 40
0.9999999999999999
 40
0.9999999999999999
 40
0.9999999999999999
 40
0.9999999999999999
 10
67.79932491617343
 20
111.3664078624078
 30
0.0
 10
67.79918544067142
 20
111.3664078624078
 30
0.0
 10
67.78015983329462
 20
111.3664078624083
 30
0.0
 10
67.84703877780804
 20
111.3664078624076
 30
0.0
 10
68.03189459625067
 20
111.3664078624079
 30
0.0
 10
68.43019411399267
 20
111.3664078624078
 30
0.0
 10
69.07726935496015
 20
111.3664078624078
 30
0.0
 10
69.9029485909575
 20
111.3664078624078
 30
0.0
 10
70.58408490408787
 20
111.3664078624078
 30
0.0
 10
70.92498000452218
 20
111.3664078624078
 30
0.0
  0
SPLINE
  5
C9
330
1F
100
AcDbEntity
  8
0
  6
Continuous
 62
     7
370
    25
100
AcDbSpline
210
0.0
220
0.0
230
1.0
 70
    24
 71
     3
 72
    14
 73
    10
 74
     0
 42
0.000000001
 43
0.00000001
 40
0.0
 40
0.0
 40
0.0
 40
0.0
 40
0.1844070064341531
 40
0.3691270901295994
 40
0.5550631754724067
 40
0.7415479659967165
 40
0.8661684411792185
 40
0.9907873034927556
 40
1.0
 40
1.0
 40
1.0
 40
1.0
 10
70.9249800045222
 20
181.3664078624078
 30
0.0
 10
70.58779147796548
 20
181.3664078624078
 30
0.0
 10
69.9128419625445
 20
181.3664078624078
 30
0.0
 10
69.0880476672139
 20
181.3664078624078
 30
0.0
 10
68.43521632267093
 20
181.3664078624078
 30
0.0
 10
68.0366103387125
 20
181.3664078624078
 30
0.0
 10
67.85063779930111
 20
181.3664078624078
 30
0.0
 10
67.7836055860681
 20
181.3664078624078
 30
0.0
 10
67.80140291884311
 20
181.3664078624078
 30
0.0
 10
67.80262805159161
 20
181.3664078624078
 30
0.0
  0
SPLINE
  5
CA
330
1F
100
AcDbEntity
  8
0
  6
Continuous
 62
     7
370
    25
100
AcDbSpline
210
0.0
220
0.0
230
1.0
 70
     8
 71
     3
 72
    18
 73
    14
 74
     0
 42
0.000000001
 43
0.00000001
 40
0.0
 40
0.0
 40
0.0
 40
0.0
 40
0.2500000000000003
 40
0.2500000000000003
 40
0.5000000000000007
 40
0.5000000000000007
 40
0.5625000000000008
 40
0.5625000000000008
 40
0.6250000000000006
 40
0.6250000000000006
 40
0.7500000000000004
 40
0.7500000000000004
 40
1.0
 40
1.0
 40
1.0
 40
1.0
 10
70.9249800045218
 20
111.3664078624077
 30
0.0
 10
69.97250710473503
 20
114.223826561768
 30
0.0
 10
69.18749715663948
 20
117.1020775103327
 30
0.0
 10
68.10000369699156
 20
122.9186052870507
 30
0.0
 10
67.80110735146249
 20
125.8573283556157
 30
0.0
 10
67.79837115567129
 20
129.5768698758356
 30
0.0
 10
67.81622050181736
 20
130.3245486860351
 30
0.0
 10
67.88813877460959
 20
131.8131240138723
 30
0.0
 10
67.94212453016154
 20
132.5548257490237
 30
0.0
 10
68.15582118634066
 20
134.772508909634
 30
0.0
 10
68.36739244010393
 20
136.2410509379499
 30
0.0
 10
69.18436658373183
 20
140.6205316674254
 30
0.0
 10
69.97131967981318
 20
143.5054268882814
 30
0.0
 10
70.924980004522
 20
146.3664078624078
 30
0.0
  0
LINE
  5
CB
330
1F
100
AcDbEntity
  8
0
  6
Continuous
 62
     7
370
    25
100
AcDbLine
 10
67.5102309582
 20
111.8664078624
 30
0.0
 11
67.5102309582
 21
180.8664078624
 31
0.0
  0
SPLINE
  5
CC
330
1F
100
AcDbEntity
  8
0
  6
Continuous
 62
     7
370
    25
100
AcDbSpline
210
0.0
220
0.0
230
1.0
 70
    24
 71
     3
 72
    13
 73
     9
 74
     0
 42
0.000000001
 43
0.00000001
 40
0.0
 40
0.0
 40
0.0
 40
0.0
 40
0.1108056933681339
 40
0.2401621594198561
 40
0.4287790195264265
 40
0.6180191946798252
 40
0.8088152624568546
 40
1.0
 40
1.0
 40
1.0
 40
1.0
 10
89.21441039531395
 20
181.3664078624078
 30
0.0
 10
89.20899325382315
 20
181.3664078624078
 30
0.0
 10
89.19725204848648
 20
181.3664078624078
 30
0.0
 10
89.01450867663912
 20
181.3664078624078
 30
0.0
 10
88.63424194667697
 20
181.3664078624078
 30
0.0
 10
87.98113005789494
 20
181.3664078624078
 30
0.0
 10
87.14224676988475
 20
181.3664078624078
 30
0.0
 10
86.44464013878611
 20
181.3664078624078
 30
0.0
 10
86.09548191193971
 20
181.3664078624078
 30
0.0
  0
SPLINE
  5
CD
330
1F
100
AcDbEntity
  8
0
  6
Continuous
 62
     7
370
    25
100
AcDbSpline
210
0.0
220
0.0
230
1.0
 70
    24
 71
     3
 72
    13
 73
     9
 74
     0
 42
0.000000001
 43
0.00000001
 40
0.0
 40
0.0
 40
0.0
 40
0.0
 40
0.1888940327000638
 40
0.3781267570596741
 40
0.5686817482043705
 40
0.759836121538929
 40
0.8850451083683656
 40
1.0
 40
1.0
 40
1.0
 40
1.0
 10
86.09548191193973
 20
111.3664078624078
 30
0.0
 10
86.44060813579296
 20
111.3664078624078
 30
0.0
 10
87.13147940333103
 20
111.3664078624078
 30
0.0
 10
87.96960433173385
 20
111.3664078624078
 30
0.0
 10
88.62873221649386
 20
111.3664078624078
 30
0.0
 10
89.01072804366447
 20
111.3664078624078
 30
0.0
 10
89.19503583873356
 20
111.3664078624078
 30
0.0
 10
89.21020156715807
 20
111.3664078624078
 30
0.0
 10
89.21746067156094
 20
111.3664078624078
 30
0.0
  0
SPLINE
  5
CE
330
1F
100
AcDbEntity
  8
0
  6
Continuous
 62
     7
370
    25
100
AcDbSpline
210
0.0
220
0.0
230
1.0
 70
     8
 71
     3
 72
    18
 73
    14
 74
     0
 42
0.000000001
 43
0.00000001
 40
0.0
 40
0.0
 40
0.0
 40
0.0
 40
0.2500000000000002
 40
0.2500000000000002
 40
0.5000000000000003
 40
0.5000000000000003
 40
0.5625000000000003
 40
0.5625000000000003
 40
0.6250000000000004
 40
0.6250000000000004
 40
0.7500000000000002
 40
0.7500000000000002
 40
1.0
 40
1.0
 40
1.0
 40
1.0
 10
86.09548191194013
 20
146.3664078624078
 30
0.0
 10
87.0479548117269
 20
143.5089891630475
 30
0.0
 10
87.83296475982245
 20
140.6307382144828
 30
0.0
 10
88.92045821947035
 20
134.8142104377649
 30
0.0
 10
89.21935456499943
 20
131.8754873691998
 30
0.0
 10
89.22209076079065
 20
128.15594584898
 30
0.0
 10
89.20424141464457
 20
127.4082670387804
 30
0.0
 10
89.13232314185234
 20
125.9196917109433
 30
0.0
 10
89.07833738630039
 20
125.1779899757919
 30
0.0
 10
88.86464073012127
 20
122.9603068151815
 30
0.0
 10
88.65306947635801
 20
121.4917647868656
 30
0.0
 10
87.8360953327301
 20
117.1122840573901
 30
0.0
 10
87.04914223664875
 20
114.2273888365342
 30
0.0
 10
86.09548191193994
 20
111.3664078624078
 30
0.0
  0
LINE
  5
CF
330
1F
100
AcDbEntity
  8
0
  6
Continuous
 62
     7
370
    25
100
AcDbLine
 10
89.5102309582
 20
180.8664078624
 30
0.0
 11
89.5102309582
 21
111.8664078624
 31
0.0
  0
SPLINE
  5
D0
330
1F
100
AcDbEntity
  8
0
  6
Continuous
 62
     7
370
    25
100
AcDbSpline
210
0.0
220
0.0
230
1.0
 70
     8
 71
     3
 72
     8
 73
     4
 74
     0
 42
0.000000001
 43
0.00000001
 40
0.0
 40
0.0
 40
0.0
 40
0.0
 40
1.0
 40
1.0
 40
1.0
 40
1.0
 10
78.510230958231
 20
144.562847641386
 30
0.0
 10
78.34351395350946
 20
145.1659896218092
 30
0.0
 10
78.16978085019083
 20
145.7671158107819
 30
0.0
 10
77.98966390767927
 20
146.3664078624078
 30
0.0
  0
LINE
  5
D1
330
1F
100
AcDbEntity
  8
0
  6
Continuous
 62
     7
370
    25
100
AcDbLine
 10
78.5102309582
 20
144.5628476414
 30
0.0
 11
78.5102309582
 21
148.1699680834
 31
0.0
  0
SPLINE
  5
D2
330
1F
100
AcDbEntity
  8
0
  6
Continuous
 62
     7
370
    25
100
AcDbSpline
210
0.0
220
0.0
230
1.0
 70
     8
 71
     3
 72
     8
 73
     4
 74
     0
 42
0.000000001
 43
0.00000001
 40
0.0
 40
0.0
 40
0.0
 40
0.0
 40
1.0
 40
1.0
 40
1.0
 40
1.0
 10
78.51023095823092
 20
144.562847641386
 30
0.0
 10
78.6769479629525
 20
145.1659896218092
 30
0.0
 10
78.85068106627114
 20
145.7671158107819
 30
0.0
 10
79.03079800878271
 20
146.3664078624078
 30
0.0
  0
LINE
  5
D3
330
1F
100
AcDbEntity
  8
0
  6
Continuous
 62
     7
370
    25
100
AcDbLine
 10
79.0307980088
 20
111.3664078624
 30
0.0
 11
86.0954819119
 21
111.3664078624
 31
0.0
  0
SPLINE
  5
D4
330
1F
100
AcDbEntity
  8
0
  6
Continuous
 62
     7
370
    25
100
AcDbSpline
210
0.0
220
0.0
230
1.0
 70
     8
 71
     3
 72
     8
 73
     4
 74
     0
 42
0.000000001
 43
0.00000001
 40
0.0
 40
0.0
 40
0.0
 40
0.0
 40
1.0
 40
1.0
 40
1.0
 40
1.0
 10
79.0307980087827
 20
111.3664078624078
 30
0.0
 10
78.850678758464
 20
111.9657075926587
 30
0.0
 10
78.67694575862686
 20
112.5668340777259
 30
0.0
 10
78.51023095823096
 20
113.1699680834296
 30
0.0
  0
SPLINE
  5
D5
330
1F
100
AcDbEntity
  8
0
  6
Continuous
 62
     7
370
    25
100
AcDbSpline
210
0.0
220
0.0
230
1.0
 70
     8
 71
     3
 72
     8
 73
     4
 74
     0
 42
0.000000001
 43
0.00000001
 40
0.0
 40
0.0
 40
0.0
 40
0.0
 40
1.0
 40
1.0
 40
1.0
 40
1.0
 10
77.98966390767929
 20
111.3664078624078
 30
0.0
 10
78.16978315799797
 20
111.9657075926587
 30
0.0
 10
78.3435161578351
 20
112.5668340777259
 30
0.0
 10
78.51023095823098
 20
113.1699680834296
 30
0.0
  0
LINE
  5
D6
330
1F
100
AcDbEntity
  8
0
  6
Continuous
 62
     7
370
    25
100
AcDbLine
 10
70.9249800045
 20
111.3664078624
 30
0.0
 11
77.9896639077
 21
111.3664078624
 31
0.0
  0
LINE
  5
D7
330
1F
100
AcDbEntity
  8
0
  6
Continuous
 62
     7
370
    25
100
AcDbLine
 10
124.9187216639
 20
179.1720175279
 30
0.0
 11
124.9187216639
 21
113.560798197
 31
0.0
  0
LINE
  5
D8
330
1F
100
AcDbEntity
  8
0
  6
Continuous
 62
     7
370
    25
100
AcDbLine
 10
131.5102309582
 20
175.3664078624
 30
0.0
 11
131.5102309582
 21
117.3664078624
 31
0.0
  0
LINE
  5
D9
330
1F
100
AcDbEntity
  8
0
  6
Continuous
 62
     7
370
    25
100
AcDbLine
 10
42.9030135041
 20
146.3664078624
 30
0.0
 11
42.9030135041
 21
166.979932317
 31
0.0
  0
LINE
  5
DA
330
1F
100
AcDbEntity
  8
0
  6
Continuous
 62
     7
370
    25
100
AcDbLine
 10
42.9030135041
 20
125.7528834078
 30
0.0
 11
42.9030135041
 21
146.3664078624
 31
0.0
  0
SPLINE
  5
DB
330
1F
100
AcDbEntity
  8
0
  6
Continuous
 62
     7
370
    25
100
AcDbSpline
210
0.0
220
0.0
230
1.0
 70
    24
 71
     3
 72
     8
 73
     4
 74
     0
 42
0.000000001
 43
0.00000001
 40
0.0
 40
0.0
 40
0.0
 40
0.0
 40
1.0
 40
1.0
 40
1.0
 40
1.0
 10
77.98966390767924
 20
181.3664078624078
 30
0.0
 10
78.16981789965372
 20
181.3664078624078
 30
0.0
 10
78.34354932782047
 20
181.3664078624078
 30
0.0
 10
78.51023095823098
 20
181.3664078624078
 30
0.0
  0
LINE
  5
DC
330
1F
100
AcDbEntity
  8
0
  6
Continuous
 62
     7
370
    25
100
AcDbLine
 10
78.5102309582
 20
179.5628476414
 30
0.0
 11
78.5102309582
 21
181.3664078624
 31
0.0
  0
SPLINE
  5
DD
330
1F
100
AcDbEntity
  8
0
  6
Continuous
 62
     7
370
    25
100
AcDbSpline
210
0.0
220
0.0
230
1.0
 70
    24
 71
     3
 72
     8
 73
     4
 74
     0
 42
0.000000001
 43
0.00000001
 40
0.0
 40
0.0
 40
0.0
 40
0.0
 40
1.0
 40
1.0
 40
1.0
 40
1.0
 10
79.03079800878274
 20
181.3664078624078
 30
0.0
 10
78.85064401680823
 20
181.3664078624078
 30
0.0
 10
78.6769125886415
 20
181.3664078624078
 30
0.0
 10
78.51023095823098
 20
181.3664078624078
 30
0.0
  0
LINE
  5
DE
330
1F
100
AcDbEntity
  8
0
  6
Continuous
 62
     7
370
    25
100
AcDbLine
 10
78.5102309582
 20
111.3664078624
 30
0.0
 11
78.5102309582
 21
113.1699680834
 31
0.0
  0
SPLINE
  5
DF
330
1F
100
AcDbEntity
  8
0
  6
Continuous
 62
     7
370
    25
100
AcDbSpline
210
0.0
220
0.0
230
1.0
 70
    24
 71
     3
 72
     8
 73
     4
 74
     0
 42
0.000000001
 43
0.00000001
 40
0.0
 40
0.0
 40
0.0
 40
0.0
 40
1.0
 40
1.0
 40
1.0
 40
1.0
 10
78.51023095823096
 20
111.3664078624078
 30
0.0
 10
78.34351157132812
 20
111.3664078624078
 30
0.0
 10
78.16977835631377
 20
111.3664078624078
 30
0.0
 10
77.98966390767924
 20
111.3664078624078
 30
0.0
  0
SPLINE
  5
E0
330
1F
100
AcDbEntity
  8
0
  6
Continuous
 62
     7
370
    25
100
AcDbSpline
210
0.0
220
0.0
230
1.0
 70
    24
 71
     3
 72
     8
 73
     4
 74
     0
 42
0.000000001
 43
0.00000001
 40
0.0
 40
0.0
 40
0.0
 40
0.0
 40
1.0
 40
1.0
 40
1.0
 40
1.0
 10
78.51023095823096
 20
111.3664078624078
 30
0.0
 10
78.67695034513383
 20
111.3664078624078
 30
0.0
 10
78.8506835601482
 20
111.3664078624078
 30
0.0
 10
79.03079800878274
 20
111.3664078624078
 30
0.0
  0
LINE
  5
E1
330
1F
100
AcDbEntity
  8
0
  6
Continuous
 62
     7
370
    25
100
AcDbLine
 10
37.5102309582
 20
128.8664078624
 30
0.0
 11
37.5102309582
 21
163.8664078624
 31
0.0
  0
LINE
  5
E2
330
1F
100
AcDbEntity
  8
0
  6
Continuous
 62
     7
370
    18
100
AcDbLine
 10
39.2726830201
 20
164.8839600348
 30
0.0
 11
65.5102309582
 21
165.7038834078
 31
0.0
  0
LINE
  5
E3
330
1F
100
AcDbEntity
  8
0
  6
Continuous
 62
     7
370
    18
100
AcDbLine
 10
39.2726830201
 20
127.84885569
 30
0.0
 11
65.5102309582
 21
127.028932317
 31
0.0
  0
LINE
  5
E4
330
1F
100
AcDbEntity
  8
0
  6
Continuous
 62
     7
370
    18
100
AcDbLine
 10
65.5102309582
 20
125.0464078624
 30
0.0
 11
65.5102309582
 21
167.6864078624
 31
0.0
  0
LINE
  5
E5
330
1F
100
AcDbEntity
  8
0
  6
Continuous
 62
     7
370
    18
100
AcDbLine
 10
129.690024321
 20
116.3155110704
 30
0.0
 11
90.5102309582
 21
115.0911425279
 31
0.0
  0
LINE
  5
E6
330
1F
100
AcDbEntity
  8
0
  6
Continuous
 62
     7
370
    18
100
AcDbLine
 10
129.690024321
 20
176.4173046544
 30
0.0
 11
90.5102309582
 21
177.641673197
 31
0.0
  0
LINE
  5
E7
330
1F
100
AcDbEntity
  8
0
  6
Continuous
 62
     7
370
    18
100
AcDbLine
 10
90.5102309582
 20
180.2472828624
 30
0.0
 11
90.5102309582
 21
112.4855328624
 31
0.0
  0
CIRCLE
  5
E8
330
1F
100
AcDbEntity
  8
0
  6
Continuous
 62
     7
370
    25
100
AcDbCircle
 10
188.9379312039
 20
57.6299164619
 30
0.0
 40
32.80560966544783
  0
CIRCLE
  5
E9
330
1F
100
AcDbEntity
  8
0
  6
Continuous
 62
     7
370
    25
100
AcDbCircle
 10
188.9379312039
 20
57.6299164619
 30
0.0
 40
29.0
  0
CIRCLE
  5
EA
330
1F
100
AcDbEntity
  8
0
  6
Continuous
 62
     7
370
    25
100
AcDbCircle
 10
188.9379312039
 20
57.6299164619
 30
0.0
 40
24.99999999999995
  0
CIRCLE
  5
EB
330
1F
100
AcDbEntity
  8
0
  6
Continuous
 62
     7
370
    25
100
AcDbCircle
 10
188.9379312039
 20
57.6299164619
 30
0.0
 40
24.0
  0
CIRCLE
  5
EC
330
1F
100
AcDbEntity
  8
0
  6
Continuous
 62
     7
370
    25
100
AcDbCircle
 10
188.9379312039
 20
57.6299164619
 30
0.0
 40
33.912125
  0
SPLINE
  5
ED
330
1F
100
AcDbEntity
  8
0
  6
Continuous
 62
     7
370
    25
100
AcDbSpline
210
0.0
220
0.0
230
1.0
 70
    24
 71
     3
 72
    18
 73
    14
 74
     0
 42
0.000000001
 43
0.00000001
 40
0.0
 40
0.0
 40
0.0
 40
0.0
 40
0.2499999999999998
 40
0.2499999999999998
 40
0.4999999999999997
 40
0.4999999999999997
 40
0.5624999999999998
 40
0.5624999999999998
 40
0.6249999999999997
 40
0.6249999999999997
 40
0.7499999999999998
 40
0.7499999999999998
 40
1.0
 40
1.0
 40
1.0
 40
1.0
 10
223.9379312039311
 20
77.83717588355327
 30
0.0
 10
221.0805125045708
 20
79.48690733881641
 30
0.0
 10
218.2022615560061
 20
81.14866629876553
 30
0.0
 10
212.3857337792882
 20
84.50684017640256
 30
0.0
 10
209.4470107107231
 20
86.20351273111237
 30
0.0
 10
205.7274691905032
 20
88.3509910290733
 30
0.0
 10
204.9797903803037
 20
88.78266359140937
 30
0.0
 10
203.4912150524666
 20
89.64209295764515
 30
0.0
 10
202.7495133173151
 20
90.07031465409327
 30
0.0
 10
200.5318301567048
 20
91.35069462384895
 30
0.0
 10
199.0632881283889
 20
92.1985577592134
 30
0.0
 10
194.6838073989134
 20
94.72705213728686
 30
0.0
 10
191.7989121780575
 20
96.39264716963189
 30
0.0
 10
188.937931203931
 20
98.0444353051902
 30
0.0
  0
SPLINE
  5
EE
330
1F
100
AcDbEntity
  8
0
  6
Continuous
 62
     7
370
    25
100
AcDbSpline
210
0.0
220
0.0
230
1.0
 70
    24
 71
     3
 72
    18
 73
    14
 74
     0
 42
0.000000001
 43
0.00000001
 40
0.0
 40
0.0
 40
0.0
 40
0.0
 40
0.125
 40
0.125
 40
0.2500000000000001
 40
0.2500000000000001
 40
0.5000000000000001
 40
0.5000000000000001
 40
0.6250000000000001
 40
0.6250000000000001
 40
0.7500000000000002
 40
0.7500000000000002
 40
1.0
 40
1.0
 40
1.0
 40
1.0
 10
223.937931203931
 20
37.42265704027946
 30
0.0
 10
223.937931203931
 20
39.06798361620025
 30
0.0
 10
223.937931203931
 20
40.73147788143704
 30
0.0
 10
223.937931203931
 20
44.08455420592112
 30
0.0
 10
223.937931203931
 20
45.76558219850216
 30
0.0
 10
223.937931203931
 20
50.82440553315335
 30
0.0
 10
223.937931203931
 20
54.21826435178868
 30
0.0
 10
223.937931203931
 20
59.34667936814282
 30
0.0
 10
223.937931203931
 20
61.06439958384517
 30
0.0
 10
223.937931203931
 20
64.50360854351773
 30
0.0
 10
223.937931203931
 20
66.20491257228446
 30
0.0
 10
223.937931203931
 20
71.26165110580452
 30
0.0
 10
223.937931203931
 20
74.57023885467395
 30
0.0
 10
223.937931203931
 20
77.8371758835533
 30
0.0
  0
SPLINE
  5
EF
330
1F
100
AcDbEntity
  8
0
  6
Continuous
 62
     7
370
    25
100
AcDbSpline
210
0.0
220
0.0
230
1.0
 70
    24
 71
     3
 72
    18
 73
    14
 74
     0
 42
0.000000001
 43
0.00000001
 40
0.0
 40
0.0
 40
0.0
 40
0.0
 40
0.2499999999999999
 40
0.2499999999999999
 40
0.4999999999999998
 40
0.4999999999999998
 40
0.5624999999999998
 40
0.5624999999999998
 40
0.6249999999999998
 40
0.6249999999999998
 40
0.7499999999999999
 40
0.7499999999999999
 40
1.0
 40
1.0
 40
1.0
 40
1.0
 10
188.937931203931
 20
17.21539761864253
 30
0.0
 10
191.7953499032913
 20
18.86512907390567
 30
0.0
 10
194.673600851856
 20
20.52688803385479
 30
0.0
 10
200.4901286285739
 20
23.88506191149182
 30
0.0
 10
203.428851697139
 20
25.58173446620165
 30
0.0
 10
207.1483932173588
 20
27.72921276416255
 30
0.0
 10
207.8960720275584
 20
28.16088532649865
 30
0.0
 10
209.3846473553955
 20
29.02031469273443
 30
0.0
 10
210.1263490905469
 20
29.44853638918253
 30
0.0
 10
212.3440322511573
 20
30.72891635893822
 30
0.0
 10
213.8125742794732
 20
31.57677949430267
 30
0.0
 10
218.1920550089487
 20
34.10527387237614
 30
0.0
 10
221.0769502298046
 20
35.77086890472115
 30
0.0
 10
223.9379312039311
 20
37.42265704027947
 30
0.0
  0
SPLINE
  5
F0
330
1F
100
AcDbEntity
  8
0
  6
Continuous
 62
     7
370
    25
100
AcDbSpline
210
0.0
220
0.0
230
1.0
 70
    24
 71
     3
 72
    18
 73
    14
 74
     0
 42
0.000000001
 43
0.00000001
 40
0.0
 40
0.0
 40
0.0
 40
0.0
 40
0.2500000000000007
 40
0.2500000000000007
 40
0.5000000000000014
 40
0.5000000000000014
 40
0.5625000000000016
 40
0.5625000000000016
 40
0.6250000000000013
 40
0.6250000000000013
 40
0.7500000000000009
 40
0.7500000000000009
 40
1.0
 40
1.0
 40
1.0
 40
1.0
 10
153.937931203931
 20
37.42265704027948
 30
0.0
 10
156.7953499032913
 20
35.77292558501632
 30
0.0
 10
159.673600851856
 20
34.11116662506722
 30
0.0
 10
165.4901286285739
 20
30.75299274743019
 30
0.0
 10
168.428851697139
 20
29.05632019272038
 30
0.0
 10
172.1483932173588
 20
26.90884189475945
 30
0.0
 10
172.8960720275584
 20
26.47716933242336
 30
0.0
 10
174.3846473553955
 20
25.61773996618759
 30
0.0
 10
175.1263490905469
 20
25.18951826973948
 30
0.0
 10
177.3440322511573
 20
23.9091382999838
 30
0.0
 10
178.8125742794732
 20
23.06127516461933
 30
0.0
 10
183.1920550089487
 20
20.53278078654587
 30
0.0
 10
186.0769502298046
 20
18.86718575420084
 30
0.0
 10
188.9379312039311
 20
17.21539761864254
 30
0.0
  0
SPLINE
  5
F1
330
1F
100
AcDbEntity
  8
0
  6
Continuous
 62
     7
370
    25
100
AcDbSpline
210
0.0
220
0.0
230
1.0
 70
    24
 71
     3
 72
    18
 73
    14
 74
     0
 42
0.000000001
 43
0.00000001
 40
0.0
 40
0.0
 40
0.0
 40
0.0
 40
0.125
 40
0.125
 40
0.25
 40
0.25
 40
0.5
 40
0.5
 40
0.625
 40
0.625
 40
0.75
 40
0.75
 40
1.0
 40
1.0
 40
1.0
 40
1.0
 10
153.937931203931
 20
37.42265704027946
 30
0.0
 10
153.937931203931
 20
39.06798361620094
 30
0.0
 10
153.937931203931
 20
40.73147788144094
 30
0.0
 10
153.937931203931
 20
44.08455420592187
 30
0.0
 10
153.937931203931
 20
45.76558219850058
 30
0.0
 10
153.937931203931
 20
50.82440553314216
 30
0.0
 10
153.937931203931
 20
54.21826435176752
 30
0.0
 10
153.937931203931
 20
59.34667936810013
 30
0.0
 10
153.937931203931
 20
61.06439958377553
 30
0.0
 10
153.937931203931
 20
64.50360854347265
 30
0.0
 10
153.937931203931
 20
66.20491257224924
 30
0.0
 10
153.937931203931
 20
71.261651105793
 30
0.0
 10
153.937931203931
 20
74.57023885467052
 30
0.0
 10
153.937931203931
 20
77.8371758835533
 30
0.0
  0
SPLINE
  5
F2
330
1F
100
AcDbEntity
  8
0
  6
Continuous
 62
     7
370
    25
100
AcDbSpline
210
0.0
220
0.0
230
1.0
 70
    24
 71
     3
 72
    18
 73
    14
 74
     0
 42
0.000000001
 43
0.00000001
 40
0.0
 40
0.0
 40
0.0
 40
0.0
 40
0.2500000000000002
 40
0.2500000000000002
 40
0.5000000000000003
 40
0.5000000000000003
 40
0.5625000000000003
 40
0.5625000000000003
 40
0.6250000000000004
 40
0.6250000000000004
 40
0.7500000000000002
 40
0.7500000000000002
 40
1.0
 40
1.0
 40
1.0
 40
1.0
 10
188.9379312039311
 20
98.04443530519022
 30
0.0
 10
186.0805125045707
 20
96.39470384992707
 30
0.0
 10
183.2022615560061
 20
94.73294488997794
 30
0.0
 10
177.3857337792882
 20
91.37477101234093
 30
0.0
 10
174.447010710723
 20
89.67809845763111
 30
0.0
 10
170.7274691905032
 20
87.53062015967019
 30
0.0
 10
169.9797903803037
 20
87.09894759733409
 30
0.0
 10
168.4912150524666
 20
86.23951823109832
 30
0.0
 10
167.7495133173151
 20
85.81129653465022
 30
0.0
 10
165.5318301567048
 20
84.53091656489453
 30
0.0
 10
164.0632881283889
 20
83.68305342953009
 30
0.0
 10
159.6838073989134
 20
81.1545590514566
 30
0.0
 10
156.7989121780574
 20
79.48896401911158
 30
0.0
 10
153.937931203931
 20
77.83717588355327
 30
0.0
  0
CIRCLE
  5
F3
330
1F
100
AcDbEntity
  8
0
  6
Continuous
 62
     7
370
    25
100
AcDbCircle
 10
188.9379312039
 20
57.6299164619
 30
0.0
 40
34.49999999999997
  0
CIRCLE
  5
F4
330
1F
100
AcDbEntity
  8
0
  6
Continuous
 62
     7
370
    25
100
AcDbCircle
 10
188.9379312039
 20
57.6299164619
 30
0.0
 40
12.99999999999997
  0
INSERT
  5
100
330
1F
100
AcDbEntity
  8
FORMAT
100
AcDbBlockReference
  2
SW_CENTERMARKSYMBOL_0
 10
188.9379312039
 20
57.6299164619
 30
0.0
  0
ARC
  5
101
330
1F
100
AcDbEntity
  8
0
  6
Continuous
 62
     7
370
    18
100
AcDbCircle
 10
188.9379312039
 20
57.6299164619
 30
0.0
 40
30.2
100
AcDbArc
 50
75.0
 51
345.0
  0
ENDSEC
  0
SECTION
  2
OBJECTS
  0
DICTIONARY
  5
C
330
0
100
AcDbDictionary
281
     1
  3
ACAD_GROUP
350
D
  3
ACAD_LAYOUT
350
1A
  3
ACAD_MLINESTYLE
350
17
  3
ACAD_PLOTSETTINGS
350
19
  3
ACAD_PLOTSTYLENAME
350
E
  3
ACAD_SCALELIST
350
47
  0
DICTIONARY
  5
D
102
{ACAD_REACTORS
330
C
102
}
330
C
100
AcDbDictionary
281
     1
  0
DICTIONARY
  5
1A
102
{ACAD_REACTORS
330
C
102
}
330
C
100
AcDbDictionary
281
     1
  3
Layout1
350
1E
  3
Layout2
350
26
  3
Model
350
22
  0
DICTIONARY
  5
17
102
{ACAD_REACTORS
330
C
102
}
330
C
100
AcDbDictionary
281
     1
  3
Standard
350
18
  0
DICTIONARY
  5
19
102
{ACAD_REACTORS
330
C
102
}
330
C
100
AcDbDictionary
281
     1
  0
ACDBDICTIONARYWDFLT
  5
E
102
{ACAD_REACTORS
330
C
102
}
330
C
100
AcDbDictionary
281
     1
  3
Normal
350
F
100
AcDbDictionaryWithDefault
340
F
  0
DICTIONARY
  5
47
102
{ACAD_REACTORS
330
C
102
}
330
C
100
AcDbDictionary
281
     1
  3
A0
350
48
  3
A1
350
49
  3
A2
350
4A
  3
A3
350
4B
  3
A4
350
4C
  3
A5
350
4D
  3
A6
350
4E
  3
A7
350
4F
  3
A8
350
50
  3
A9
350
51
  3
B0
350
52
  3
B1
350
53
  3
B2
350
54
  3
B3
350
55
  3
B4
350
56
  3
B5
350
57
  3
B6
350
58
  3
B7
350
59
  3
B8
350
5A
  3
B9
350
5B
  3
C0
350
5C
  3
C1
350
5D
  3
C2
350
5E
  3
C3
350
5F
  3
C4
350
60
  3
C5
350
61
  3
C6
350
62
  3
C7
350
63
  3
C8
350
64
  3
C9
350
65
  3
D0
350
66
  3
D1
350
67
  3
D2
350
68
  0
LAYOUT
  5
1E
102
{ACAD_REACTORS
330
1A
102
}
330
1A
100
AcDbPlotSettings
  1

  2
none_device
  4

  6

 40
0.0
 41
0.0
 42
0.0
 43
0.0
 44
0.0
 45
0.0
 46
0.0
 47
0.0
 48
0.0
 49
0.0
140
0.0
141
0.0
142
1.0
143
1.0
 70
   688
 72
     1
 73
     0
 74
     5
  7

 75
    16
147
1.0
148
0.0
149
0.0
100
AcDbLayout
  1
Layout1
 70
     1
 71
     1
 10
0.0
 20
0.0
 11
420.0
 21
297.0
 12
0.0
 22
0.0
 32
0.0
 14
1.0000000000E+20
 24
1.0000000000E+20
 34
1.0000000000E+20
 15
-1.0000000000E+20
 25
-1.0000000000E+20
 35
-1.0000000000E+20
146
0.0
 13
0.0
 23
0.0
 33
0.0
 16
1.0
 26
0.0
 36
0.0
 17
0.0
 27
1.0
 37
0.0
 76
     0
330
1B
  0
LAYOUT
  5
26
102
{ACAD_REACTORS
330
1A
102
}
330
1A
100
AcDbPlotSettings
  1

  2
none_device
  4

  6

 40
0.0
 41
0.0
 42
0.0
 43
0.0
 44
0.0
 45
0.0
 46
0.0
 47
0.0
 48
0.0
 49
0.0
140
0.0
141
0.0
142
1.0
143
1.0
 70
   688
 72
     1
 73
     0
 74
     5
  7

 75
    16
147
1.0
148
0.0
149
0.0
100
AcDbLayout
  1
Layout2
 70
     1
 71
     2
 10
0.0
 20
0.0
 11
0.0
 21
0.0
 12
0.0
 22
0.0
 32
0.0
 14
0.0
 24
0.0
 34
0.0
 15
0.0
 25
0.0
 35
0.0
146
0.0
 13
0.0
 23
0.0
 33
0.0
 16
1.0
 26
0.0
 36
0.0
 17
0.0
 27
1.0
 37
0.0
 76
     0
330
23
  0
LAYOUT
  5
22
102
{ACAD_REACTORS
330
1A
102
}
330
1A
100
AcDbPlotSettings
  1

  2
none_device
  4
Letter_(8.50_x_11.00_Inches)
  6

 40
6.35
 41
6.35
 42
6.35000508
 43
6.35000508
 44
215.9
 45
279.4
 46
0.0
 47
0.0
 48
0.0
 49
0.0
140
0.0
141
0.0
142
1.0
143
1.0
 70
  1712
 72
     1
 73
     0
 74
     0
  7

 75
     0
147
1.0
148
0.0
149
0.0
100
AcDbLayout
  1
Model
 70
     1
 71
     0
 10
0.0
 20
0.0
 11
279.4
 21
215.9
 12
0.0
 22
0.0
 32
0.0
 14
0.0
 24
0.0
 34
0.0
 15
279.4
 25
215.9
 35
0.0
146
0.0
 13
0.0
 23
0.0
 33
0.0
 16
1.0
 26
0.0
 36
0.0
 17
0.0
 27
1.0
 37
0.0
 76
     0
330
1F
331
29
  0
MLINESTYLE
  5
18
102
{ACAD_REACTORS
330
17
102
}
330
17
100
AcDbMlineStyle
  2
Standard
 70
     0
  3

 62
   256
 51
90.0
 52
90.0
 71
     2
 49
0.5
 62
   256
  6
BYLAYER
 49
-0.5
 62
   256
  6
BYLAYER
  0
ACDBPLACEHOLDER
  5
F
102
{ACAD_REACTORS
330
E
102
}
330
E
  0
SCALE
  5
48
102
{ACAD_REACTORS
330
47
102
}
330
47
100
AcDbScale
 70
     0
300
1:1
140
1.0
141
1.0
290
     1
  0
SCALE
  5
49
102
{ACAD_REACTORS
330
47
102
}
330
47
100
AcDbScale
 70
     0
300
1:2
140
1.0
141
2.0
290
     0
  0
SCALE
  5
4A
102
{ACAD_REACTORS
330
47
102
}
330
47
100
AcDbScale
 70
     0
300
1:4
140
1.0
141
4.0
290
     0
  0
SCALE
  5
4B
102
{ACAD_REACTORS
330
47
102
}
330
47
100
AcDbScale
 70
     0
300
1:5
140
1.0
141
5.0
290
     0
  0
SCALE
  5
4C
102
{ACAD_REACTORS
330
47
102
}
330
47
100
AcDbScale
 70
     0
300
1:8
140
1.0
141
8.0
290
     0
  0
SCALE
  5
4D
102
{ACAD_REACTORS
330
47
102
}
330
47
100
AcDbScale
 70
     0
300
1:10
140
1.0
141
10.0
290
     0
  0
SCALE
  5
4E
102
{ACAD_REACTORS
330
47
102
}
330
47
100
AcDbScale
 70
     0
300
1:16
140
1.0
141
16.0
290
     0
  0
SCALE
  5
4F
102
{ACAD_REACTORS
330
47
102
}
330
47
100
AcDbScale
 70
     0
300
1:20
140
1.0
141
20.0
290
     0
  0
SCALE
  5
50
102
{ACAD_REACTORS
330
47
102
}
330
47
100
AcDbScale
 70
     0
300
1:30
140
1.0
141
30.0
290
     0
  0
SCALE
  5
51
102
{ACAD_REACTORS
330
47
102
}
330
47
100
AcDbScale
 70
     0
300
1:40
140
1.0
141
40.0
290
     0
  0
SCALE
  5
52
102
{ACAD_REACTORS
330
47
102
}
330
47
100
AcDbScale
 70
     0
300
1:50
140
1.0
141
50.0
290
     0
  0
SCALE
  5
53
102
{ACAD_REACTORS
330
47
102
}
330
47
100
AcDbScale
 70
     0
300
1:100
140
1.0
141
100.0
290
     0
  0
SCALE
  5
54
102
{ACAD_REACTORS
330
47
102
}
330
47
100
AcDbScale
 70
     0
300
2:1
140
2.0
141
1.0
290
     0
  0
SCALE
  5
55
102
{ACAD_REACTORS
330
47
102
}
330
47
100
AcDbScale
 70
     0
300
4:1
140
4.0
141
1.0
290
     0
  0
SCALE
  5
56
102
{ACAD_REACTORS
330
47
102
}
330
47
100
AcDbScale
 70
     0
300
8:1
140
8.0
141
1.0
290
     0
  0
SCALE
  5
57
102
{ACAD_REACTORS
330
47
102
}
330
47
100
AcDbScale
 70
     0
300
10:1
140
10.0
141
1.0
290
     0
  0
SCALE
  5
58
102
{ACAD_REACTORS
330
47
102
}
330
47
100
AcDbScale
 70
     0
300
100:1
140
100.0
141
1.0
290
     0
  0
SCALE
  5
59
102
{ACAD_REACTORS
330
47
102
}
330
47
100
AcDbScale
 70
     0
300
1/128" = 1'-0"
140
0.0078125
141
12.0
290
     0
  0
SCALE
  5
5A
102
{ACAD_REACTORS
330
47
102
}
330
47
100
AcDbScale
 70
     0
300
1/64" = 1'-0"
140
0.015625
141
12.0
290
     0
  0
SCALE
  5
5B
102
{ACAD_REACTORS
330
47
102
}
330
47
100
AcDbScale
 70
     0
300
1/32" = 1'-0"
140
0.03125
141
12.0
290
     0
  0
SCALE
  5
5C
102
{ACAD_REACTORS
330
47
102
}
330
47
100
AcDbScale
 70
     0
300
1/16" = 1'-0"
140
0.0625
141
12.0
290
     0
  0
SCALE
  5
5D
102
{ACAD_REACTORS
330
47
102
}
330
47
100
AcDbScale
 70
     0
300
3/32" = 1'-0"
140
0.09375
141
12.0
290
     0
  0
SCALE
  5
5E
102
{ACAD_REACTORS
330
47
102
}
330
47
100
AcDbScale
 70
     0
300
1/8" = 1'-0"
140
0.125
141
12.0
290
     0
  0
SCALE
  5
5F
102
{ACAD_REACTORS
330
47
102
}
330
47
100
AcDbScale
 70
     0
300
3/16" = 1'-0"
140
0.1875
141
12.0
290
     0
  0
SCALE
  5
60
102
{ACAD_REACTORS
330
47
102
}
330
47
100
AcDbScale
 70
     0
300
1/4" = 1'-0"
140
0.25
141
12.0
290
     0
  0
SCALE
  5
61
102
{ACAD_REACTORS
330
47
102
}
330
47
100
AcDbScale
 70
     0
300
3/8" = 1'-0"
140
0.375
141
12.0
290
     0
  0
SCALE
  5
62
102
{ACAD_REACTORS
330
47
102
}
330
47
100
AcDbScale
 70
     0
300
1/2" = 1'-0"
140
0.5
141
12.0
290
     0
  0
SCALE
  5
63
102
{ACAD_REACTORS
330
47
102
}
330
47
100
AcDbScale
 70
     0
300
3/4" = 1'-0"
140
0.75
141
12.0
290
     0
  0
SCALE
  5
64
102
{ACAD_REACTORS
330
47
102
}
330
47
100
AcDbScale
 70
     0
300
1" = 1'-0"
140
1.0
141
12.0
290
     0
  0
SCALE
  5
65
102
{ACAD_REACTORS
330
47
102
}
330
47
100
AcDbScale
 70
     0
300
1-1/2" = 1'-0"
140
1.5
141
12.0
290
     0
  0
SCALE
  5
66
102
{ACAD_REACTORS
330
47
102
}
330
47
100
AcDbScale
 70
     0
300
3" = 1'-0"
140
3.0
141
12.0
290
     0
  0
SCALE
  5
67
102
{ACAD_REACTORS
330
47
102
}
330
47
100
AcDbScale
 70
     0
300
6" = 1'-0"
140
6.0
141
12.0
290
     0
  0
SCALE
  5
68
102
{ACAD_REACTORS
330
47
102
}
330
47
100
AcDbScale
 70
     0
300
1'-0" = 1'-0"
140
12.0
141
12.0
290
     0
  0
ENDSEC
  0
EOF
