  0
SECTION
  2
HEADER
  9
$ACADVER
  1
AC1015
  9
$ACADMAINTVER
 70
     6
  9
$DWGCODEPAGE
  3
DOS932
  9
$INSBASE
 10
0.0
 20
0.0
 30
0.0
  9
$EXTMIN
 10
0.0
 20
0.0
 30
0.0
  9
$EXTMAX
 10
431.8
 20
279.4
 30
0.0
  9
$LIMMIN
 10
0.0
 20
0.0
  9
$LIMMAX
 10
431.8
 20
279.4
  9
$ORTHOMODE
 70
     0
  9
$REGENMODE
 70
     1
  9
$FILLMODE
 70
     1
  9
$QTEXTMODE
 70
     0
  9
$MIRRTEXT
 70
     1
  9
$LTSCALE
 40
1.0
  9
$ATTMODE
 70
     1
  9
$TEXTSIZE
 40
3.5
  9
$TRACEWID
 40
1.0
  9
$TEXTSTYLE
  7
Standard
  9
$CLAYER
  8
0
  9
$CELTYPE
  6
ByLayer
  9
$CECOLOR
 62
   256
  9
$CELTSCALE
 40
1.0
  9
$DISPSILH
 70
     0
  9
$DIMSCALE
 40
1.0
  9
$DIMASZ
 40
3.302
  9
$DIMEXO
 40
1.0
  9
$DIMDLI
 40
3.75
  9
$DIMRND
 40
0.0
  9
$DIMDLE
 40
0.0
  9
$DIMEXE
 40
1.0
  9
$DIMTP
 40
0.0
  9
$DIMTM
 40
0.0
  9
$DIMTXT
 40
3.5
  9
$DIMCEN
 40
2.5
  9
$DIMTSZ
 40
0.0
  9
$DIMTOL
 70
     0
  9
$DIMLIM
 70
     0
  9
$DIMTIH
 70
     1
  9
$DIMTOH
 70
     1
  9
$DIMSE1
 70
     0
  9
$DIMSE2
 70
     0
  9
$DIMTAD
 70
     1
  9
$DIMZIN
 70
     1
  9
$DIMBLK
  1

  9
$DIMASO
 70
     1
  9
$DIMSHO
 70
     1
  9
$DIMPOST
  1

  9
$DIMAPOST
  1

  9
$DIMALT
 70
     0
  9
$DIMALTD
 70
     3
  9
$DIMALTF
 40
0.0393700787
  9
$DIMLFAC
 40
1.0
  9
$DIMTOFL
 70
     1
  9
$DIMTVP
 40
0.0
  9
$DIMTIX
 70
     0
  9
$DIMSOXD
 70
     0
  9
$DIMSAH
 70
     0
  9
$DIMBLK1
  1

  9
$DIMBLK2
  1

  9
$DIMSTYLE
  2
ISO-25
  9
$DIMCLRD
 70
     0
  9
$DIMCLRE
 70
     0
  9
$DIMCLRT
 70
     0
  9
$DIMTFAC
 40
1.0
  9
$DIMGAP
 40
1.524
  9
$DIMJUST
 70
     0
  9
$DIMSD1
 70
     0
  9
$DIMSD2
 70
     0
  9
$DIMTOLJ
 70
     0
  9
$DIMTZIN
 70
     1
  9
$DIMALTZ
 70
     0
  9
$DIMALTTZ
 70
     0
  9
$DIMUPT
 70
     0
  9
$DIMDEC
 70
     2
  9
$DIMTDEC
 70
     2
  9
$DIMALTU
 70
     2
  9
$DIMALTTD
 70
     3
  9
$DIMTXSTY
  7
Standard
  9
$DIMAUNIT
 70
     0
  9
$DIMADEC
 70
     2
  9
$DIMALTRND
 40
0.0
  9
$DIMAZIN
 70
     0
  9
$DIMDSEP
 70
    44
  9
$DIMATFIT
 70
     3
  9
$DIMFRAC
 70
     0
  9
$DIMLDRBLK
  1

  9
$DIMLUNIT
 70
     2
  9
$DIMLWD
 70
    -2
  9
$DIMLWE
 70
    -2
  9
$DIMTMOVE
 70
     0
  9
$LUNITS
 70
     2
  9
$LUPREC
 70
     2
  9
$SKETCHINC
 40
1.0
  9
$FILLETRAD
 40
10.0
  9
$AUNITS
 70
     0
  9
$AUPREC
 70
     2
  9
$MENU
  1
.
  9
$ELEVATION
 40
0.0
  9
$PELEVATION
 40
0.0
  9
$THICKNESS
 40
0.0
  9
$LIMCHECK
 70
     0
  9
$CHAMFERA
 40
0.0
  9
$CHAMFERB
 40
0.0
  9
$CHAMFERC
 40
0.0
  9
$CHAMFERD
 40
0.0
  9
$SKPOLY
 70
     0
  9
$TDCREATE
 40
2459249.392797442
  9
$TDUCREATE
 40
2459249.017797442
  9
$TDUPDATE
 40
2459249.392797986
  9
$TDUUPDATE
 40
2459249.017797986
  9
$TDINDWG
 40
0.0000000116
  9
$TDUSRTIMER
 40
0.0000000116
  9
$USRTIMER
 70
     1
  9
$ANGBASE
 50
0.0
  9
$ANGDIR
 70
     0
  9
$PDMODE
 70
     0
  9
$PDSIZE
 40
-1.0
  9
$PLINEWID
 40
0.0
  9
$SPLFRAME
 70
     0
  9
$SPLINETYPE
 70
     6
  9
$SPLINESEGS
 70
     8
  9
$HANDSEED
  5
1BF
  9
$SURFTAB1
 70
     6
  9
$SURFTAB2
 70
     6
  9
$SURFTYPE
 70
     6
  9
$SURFU
 70
     6
  9
$SURFV
 70
     6
  9
$UCSBASE
  2

  9
$UCSNAME
  2

  9
$UCSORG
 10
0.0
 20
0.0
 30
0.0
  9
$UCSXDIR
 10
1.0
 20
0.0
 30
0.0
  9
$UCSYDIR
 10
0.0
 20
1.0
 30
0.0
  9
$UCSORTHOREF
  2

  9
$UCSORTHOVIEW
 70
     0
  9
$UCSORGTOP
 10
0.0
 20
0.0
 30
0.0
  9
$UCSORGBOTTOM
 10
0.0
 20
0.0
 30
0.0
  9
$UCSORGLEFT
 10
0.0
 20
0.0
 30
0.0
  9
$UCSORGRIGHT
 10
0.0
 20
0.0
 30
0.0
  9
$UCSORGFRONT
 10
0.0
 20
0.0
 30
0.0
  9
$UCSORGBACK
 10
0.0
 20
0.0
 30
0.0
  9
$PUCSBASE
  2

  9
$PUCSNAME
  2

  9
$PUCSORG
 10
0.0
 20
0.0
 30
0.0
  9
$PUCSXDIR
 10
1.0
 20
0.0
 30
0.0
  9
$PUCSYDIR
 10
0.0
 20
1.0
 30
0.0
  9
$PUCSORTHOREF
  2

  9
$PUCSORTHOVIEW
 70
     0
  9
$PUCSORGTOP
 10
0.0
 20
0.0
 30
0.0
  9
$PUCSORGBOTTOM
 10
0.0
 20
0.0
 30
0.0
  9
$PUCSORGLEFT
 10
0.0
 20
0.0
 30
0.0
  9
$PUCSORGRIGHT
 10
0.0
 20
0.0
 30
0.0
  9
$PUCSORGFRONT
 10
0.0
 20
0.0
 30
0.0
  9
$PUCSORGBACK
 10
0.0
 20
0.0
 30
0.0
  9
$USERI1
 70
     0
  9
$USERI2
 70
     0
  9
$USERI3
 70
     0
  9
$USERI4
 70
     0
  9
$USERI5
 70
     0
  9
$USERR1
 40
0.0
  9
$USERR2
 40
0.0
  9
$USERR3
 40
0.0
  9
$USERR4
 40
0.0
  9
$USERR5
 40
0.0
  9
$WORLDVIEW
 70
     1
  9
$SHADEDGE
 70
     3
  9
$SHADEDIF
 70
    70
  9
$TILEMODE
 70
     1
  9
$MAXACTVP
 70
    64
  9
$PINSBASE
 10
0.0
 20
0.0
 30
0.0
  9
$PLIMCHECK
 70
     0
  9
$PEXTMIN
 10
1.0000000000E+20
 20
1.0000000000E+20
 30
1.0000000000E+20
  9
$PEXTMAX
 10
-1.0000000000E+20
 20
-1.0000000000E+20
 30
-1.0000000000E+20
  9
$PLIMMIN
 10
0.0
 20
0.0
  9
$PLIMMAX
 10
420.0
 20
297.0
  9
$UNITMODE
 70
     0
  9
$VISRETAIN
 70
     1
  9
$PLINEGEN
 70
     0
  9
$PSLTSCALE
 70
     1
  9
$TREEDEPTH
 70
  3020
  9
$CMLSTYLE
  2
Standard
  9
$CMLJUST
 70
     0
  9
$CMLSCALE
 40
20.0
  9
$PROXYGRAPHICS
 70
     1
  9
$MEASUREMENT
 70
     1
  9
$CELWEIGHT
370
    -1
  9
$ENDCAPS
280
     0
  9
$JOINSTYLE
280
     0
  9
$LWDISPLAY
290
     1
  9
$INSUNITS
 70
     4
  9
$HYPERLINKBASE
  1

  9
$STYLESHEET
  1

  9
$XEDIT
290
     1
  9
$CEPSNTYPE
380
     0
  9
$PSTYLEMODE
290
     1
  9
$FINGERPRINTGUID
  2
{1CD9CFC9-A3F3-42F5-B33C-990DABEB5FC9}
  9
$VERSIONGUID
  2
{FAEB1C32-E019-11D5-929B-00C0DF256EC4}
  9
$EXTNAMES
290
     1
  9
$PSVPSCALE
 40
0.0
  9
$OLESTARTUP
290
     0
  0
ENDSEC
  0
SECTION
  2
CLASSES
  0
CLASS
  1
ACDBDICTIONARYWDFLT
  2
AcDbDictionaryWithDefault
  3
ObjectDBX Classes
 90
        0
280
     0
281
     0
  0
CLASS
  1
VISUALSTYLE
  2
AcDbVisualStyle
  3
ObjectDBX Classes
 90
     4095
280
     0
281
     0
  0
CLASS
  1
MATERIAL
  2
AcDbMaterial
  3
ObjectDBX Classes
 90
     1153
280
     0
281
     0
  0
CLASS
  1
SCALE
  2
AcDbScale
  3
ObjectDBX Classes
 90
     1153
280
     0
281
     0
  0
CLASS
  1
TABLESTYLE
  2
AcDbTableStyle
  3
ObjectDBX Classes
 90
     4095
280
     0
281
     0
  0
CLASS
  1
MLEADERSTYLE
  2
AcDbMLeaderStyle
  3
ACDB_MLEADERSTYLE_CLASS
 90
     4095
280
     0
281
     0
  0
CLASS
  1
SUN
  2
AcDbSun
  3
SCENEOE
 90
     1153
280
     0
281
     0
  0
CLASS
  1
ACDBPLACEHOLDER
  2
AcDbPlaceHolder
  3
ObjectDBX Classes
 90
        0
280
     0
281
     0
  0
CLASS
  1
LAYOUT
  2
AcDbLayout
  3
ObjectDBX Classes
 90
        0
280
     0
281
     0
  0
ENDSEC
  0
SECTION
  2
TABLES
  0
TABLE
  2
VPORT
  5
8
330
0
100
AcDbSymbolTable
 70
     1
  0
VPORT
  5
29
330
8
100
AcDbSymbolTableRecord
100
AcDbViewportTableRecord
  2
*Active
 70
     0
 10
0.0
 20
0.0
 11
1.0
 21
1.0
 12
215.9
 22
139.7
 13
0.0
 23
0.0
 14
10.0
 24
10.0
 15
10.0
 25
10.0
 16
0.0
 26
0.0
 36
1.0
 17
0.0
 27
0.0
 37
0.0
 40
279.4
 41
1.5454545455
 42
50.0
 43
0.0
 44
0.0
 50
0.0
 51
0.0
 71
     0
 72
  2000
 73
     1
 74
     3
 75
     0
 76
     0
 77
     0
 78
     0
281
     0
 65
     1
110
0.0
120
0.0
130
0.0
111
1.0
121
0.0
131
0.0
112
0.0
122
1.0
132
0.0
 79
     0
146
0.0
  0
ENDTAB
  0
TABLE
  2
LTYPE
  5
5
330
0
100
AcDbSymbolTable
 70
     6
  0
LTYPE
  5
14
330
5
100
AcDbSymbolTableRecord
100
AcDbLinetypeTableRecord
  2
ByBlock
 70
     0
  3

 72
    65
 73
     0
 40
0.0
  0
LTYPE
  5
15
330
5
100
AcDbSymbolTableRecord
100
AcDbLinetypeTableRecord
  2
ByLayer
 70
     0
  3

 72
    65
 73
     0
 40
0.0
  0
LTYPE
  5
16
330
5
100
AcDbSymbolTableRecord
100
AcDbLinetypeTableRecord
  2
Continuous
 70
     0
  3
Solid line
 72
    65
 73
     0
 40
0.0
  0
LTYPE
  5
6E
330
5
100
AcDbSymbolTableRecord
100
AcDbLinetypeTableRecord
  2
HIDDEN
 70
     0
  3
Hidden __ __ __ __ __ __ __ __ __ __ __ __ __ __
 72
    65
 73
     2
 40
1.905
 49
1.27
 74
     0
 49
-0.635
 74
     0
  0
LTYPE
  5
6F
330
5
100
AcDbSymbolTableRecord
100
AcDbLinetypeTableRecord
  2
PHANTOM
 70
     0
  3
Phantom ______  __  __  ______  __  __  ______
 72
    65
 73
     6
 40
12.7
 49
6.35
 74
     0
 49
-1.27
 74
     0
 49
1.27
 74
     0
 49
-1.27
 74
     0
 49
1.27
 74
     0
 49
-1.27
 74
     0
  0
LTYPE
  5
70
330
5
100
AcDbSymbolTableRecord
100
AcDbLinetypeTableRecord
  2
CENTER
 70
     0
  3
Center ____ _ ____ _ ____ _ ____ _ ____ _ ____
 72
    65
 73
     4
 40
10.16
 49
6.35
 74
     0
 49
-1.27
 74
     0
 49
1.27
 74
     0
 49
-1.27
 74
     0
  0
LTYPE
  5
71
330
5
100
AcDbSymbolTableRecord
100
AcDbLinetypeTableRecord
  2
CENTERX2
 70
     0
  3
Center (2x) ________  __  ________  __  _____
 72
    65
 73
     4
 40
20.32
 49
12.7
 74
     0
 49
-2.54
 74
     0
 49
2.54
 74
     0
 49
-2.54
 74
     0
  0
LTYPE
  5
72
330
5
100
AcDbSymbolTableRecord
100
AcDbLinetypeTableRecord
  2
DOT2
 70
     0
  3
Dot (.5x) ........................................
 72
    65
 73
     2
 40
0.635
 49
0.0
 74
     0
 49
-0.635
 74
     0
  0
ENDTAB
  0
TABLE
  2
LAYER
  5
2
330
0
100
AcDbSymbolTable
 70
     1
  0
LAYER
  5
10
330
2
100
AcDbSymbolTableRecord
100
AcDbLayerTableRecord
  2
0
 70
     0
 62
     7
  6
Continuous
370
    -3
390
F
  0
ENDTAB
  0
TABLE
  2
STYLE
  5
3
330
0
100
AcDbSymbolTable
 70
     2
  0
STYLE
  5
11
330
3
100
AcDbSymbolTableRecord
100
AcDbTextStyleTableRecord
  2
Standard
 70
     0
 40
0.0
 41
1.0
 50
0.0
 71
     0
 42
3.5
  3
txt
  4
bigfont
  0
STYLE
  5
73
330
3
100
AcDbSymbolTableRecord
100
AcDbTextStyleTableRecord
  2
SLDTEXTSTYLE0
 70
     0
 40
0.0
 41
0.7
 50
0.0
 71
     0
 42
3.5
  3
TXT
  4
bigfont
  0
ENDTAB
  0
TABLE
  2
VIEW
  5
6
330
0
100
AcDbSymbolTable
 70
     0
  0
ENDTAB
  0
TABLE
  2
UCS
  5
7
330
0
100
AcDbSymbolTable
 70
     0
  0
ENDTAB
  0
TABLE
  2
APPID
  5
9
330
0
100
AcDbSymbolTable
 70
     1
  0
APPID
  5
12
330
9
100
AcDbSymbolTableRecord
100
AcDbRegAppTableRecord
  2
ACAD
 70
     0
  0
ENDTAB
  0
TABLE
  2
DIMSTYLE
  5
A
330
0
100
AcDbSymbolTable
 70
     1
100
AcDbDimStyleTable
  0
DIMSTYLE
105
27
330
A
100
AcDbSymbolTableRecord
100
AcDbDimStyleTableRecord
  2
ISO-25
 70
     0
 41
2.5
 42
0.625
 43
3.75
 44
1.25
 73
     0
 74
     0
 77
     1
 78
     8
140
2.5
141
2.5
143
0.0393700787
147
0.625
171
     3
172
     1
178
     0
271
     2
272
     2
274
     3
278
    44
283
     0
284
     8
340
11
  0
ENDTAB
  0
TABLE
  2
BLOCK_RECORD
  5
1
330
0
100
AcDbSymbolTable
 70
     3
  0
BLOCK_RECORD
  5
1F
330
1
100
AcDbSymbolTableRecord
100
AcDbBlockTableRecord
  2
*Model_Space
340
22
  0
BLOCK_RECORD
  5
1B
330
1
100
AcDbSymbolTableRecord
100
AcDbBlockTableRecord
  2
*Paper_Space
340
1E
  0
BLOCK_RECORD
  5
23
330
1
100
AcDbSymbolTableRecord
100
AcDbBlockTableRecord
  2
*Paper_Space0
340
26
  0
BLOCK_RECORD
  5
157
330
1
100
AcDbSymbolTableRecord
100
AcDbBlockTableRecord
  2
SW_CENTERMARKSYMBOL_0
340
0
102
{BLKREFS
331
162
102
}
  0
BLOCK_RECORD
  5
1AF
330
1
100
AcDbSymbolTableRecord
100
AcDbBlockTableRecord
  2
SW_CENTERMARKSYMBOL_1
340
0
102
{BLKREFS
331
1BA
102
}
  0
ENDTAB
  0
ENDSEC
  0
SECTION
  2
BLOCKS
  0
BLOCK
  5
20
330
1F
100
AcDbEntity
  8
0
100
AcDbBlockBegin
  2
*Model_Space
 70
     0
 10
0.0
 20
0.0
 30
0.0
  3
*Model_Space
  1

  0
ENDBLK
  5
21
330
1F
100
AcDbEntity
  8
0
100
AcDbBlockEnd
  0
BLOCK
  5
1C
330
1B
100
AcDbEntity
 67
     1
  8
0
100
AcDbBlockBegin
  2
*Paper_Space
 70
     0
 10
0.0
 20
0.0
 30
0.0
  3
*Paper_Space
  1

  0
ENDBLK
  5
1D
330
1B
100
AcDbEntity
 67
     1
  8
0
100
AcDbBlockEnd
  0
BLOCK
  5
24
330
23
100
AcDbEntity
  8
0
100
AcDbBlockBegin
  2
*Paper_Space0
 70
     0
 10
0.0
 20
0.0
 30
0.0
  3
*Paper_Space0
  1

  0
ENDBLK
  5
25
330
23
100
AcDbEntity
  8
0
100
AcDbBlockEnd
  0
BLOCK
  5
158
330
157
100
AcDbEntity
  8
0
100
AcDbBlockBegin
  2
SW_CENTERMARKSYMBOL_0
 70
     0
 10
0.0
 20
0.0
 30
0.0
  3
SW_CENTERMARKSYMBOL_0
  1

  0
LINE
  5
15A
330
157
100
AcDbEntity
  8
0
  6
Continuous
 62
     0
370
    18
100
AcDbLine
 10
0.0
 20
0.0
 30
0.0
 11
0.0
 21
2.5
 31
0.0
  0
LINE
  5
15B
330
157
100
AcDbEntity
  8
0
  6
Continuous
 62
     0
370
    18
100
AcDbLine
 10
0.0
 20
0.0
 30
0.0
 11
-2.5
 21
0.0
 31
0.0
  0
LINE
  5
15C
330
157
100
AcDbEntity
  8
0
  6
Continuous
 62
     0
370
    18
100
AcDbLine
 10
0.0
 20
0.0
 30
0.0
 11
0.0
 21
-2.5
 31
0.0
  0
LINE
  5
15D
330
157
100
AcDbEntity
  8
0
  6
Continuous
 62
     0
370
    18
100
AcDbLine
 10
0.0
 20
0.0
 30
0.0
 11
2.5
 21
0.0
 31
0.0
  0
LINE
  5
15E
330
157
100
AcDbEntity
  8
0
  6
Continuous
 62
     0
370
    18
100
AcDbLine
 10
0.0
 20
5.0
 30
0.0
 11
0.0
 21
36.8459515454
 31
0.0
  0
LINE
  5
15F
330
157
100
AcDbEntity
  8
0
  6
Continuous
 62
     0
370
    18
100
AcDbLine
 10
-5.0
 20
0.0
 30
0.0
 11
-15.4485875538
 21
0.0
 31
0.0
  0
LINE
  5
160
330
157
100
AcDbEntity
  8
0
  6
Continuous
 62
     0
370
    18
100
AcDbLine
 10
0.0
 20
-5.0
 30
0.0
 11
0.0
 21
-15.8480852831
 31
0.0
  0
LINE
  5
161
330
157
100
AcDbEntity
  8
0
  6
Continuous
 62
     0
370
    18
100
AcDbLine
 10
5.0
 20
0.0
 30
0.0
 11
15.4226663458
 21
0.0
 31
0.0
  0
ENDBLK
  5
159
330
157
100
AcDbEntity
  8
0
100
AcDbBlockEnd
  0
BLOCK
  5
1B0
330
1AF
100
AcDbEntity
  8
0
100
AcDbBlockBegin
  2
SW_CENTERMARKSYMBOL_1
 70
     0
 10
0.0
 20
0.0
 30
0.0
  3
SW_CENTERMARKSYMBOL_1
  1

  0
LINE
  5
1B2
330
1AF
100
AcDbEntity
  8
0
  6
Continuous
 62
     0
370
    18
100
AcDbLine
 10
0.0
 20
0.0
 30
0.0
 11
0.0
 21
2.5
 31
0.0
  0
LINE
  5
1B3
330
1AF
100
AcDbEntity
  8
0
  6
Continuous
 62
     0
370
    18
100
AcDbLine
 10
0.0
 20
0.0
 30
0.0
 11
-2.5
 21
0.0
 31
0.0
  0
LINE
  5
1B4
330
1AF
100
AcDbEntity
  8
0
  6
Continuous
 62
     0
370
    18
100
AcDbLine
 10
0.0
 20
0.0
 30
0.0
 11
0.0
 21
-2.5
 31
0.0
  0
LINE
  5
1B5
330
1AF
100
AcDbEntity
  8
0
  6
Continuous
 62
     0
370
    18
100
AcDbLine
 10
0.0
 20
0.0
 30
0.0
 11
2.5
 21
0.0
 31
0.0
  0
LINE
  5
1B6
330
1AF
100
AcDbEntity
  8
0
  6
Continuous
 62
     0
370
    18
100
AcDbLine
 10
0.0
 20
5.0
 30
0.0
 11
0.0
 21
15.2003400914
 31
0.0
  0
LINE
  5
1B7
330
1AF
100
AcDbEntity
  8
0
  6
Continuous
 62
     0
370
    18
100
AcDbLine
 10
-5.0
 20
0.0
 30
0.0
 11
-15.5288871631
 21
0.0
 31
0.0
  0
LINE
  5
1B8
330
1AF
100
AcDbEntity
  8
0
  6
Continuous
 62
     0
370
    18
100
AcDbLine
 10
0.0
 20
-5.0
 30
0.0
 11
0.0
 21
-15.404782309
 31
0.0
  0
LINE
  5
1B9
330
1AF
100
AcDbEntity
  8
0
  6
Continuous
 62
     0
370
    18
100
AcDbLine
 10
5.0
 20
0.0
 30
0.0
 11
36.366755168
 21
0.0
 31
0.0
  0
ENDBLK
  5
1B1
330
1AF
100
AcDbEntity
  8
0
100
AcDbBlockEnd
  0
ENDSEC
  0
SECTION
  2
ENTITIES
  0
MTEXT
  5
74
330
1F
100
AcDbEntity
  8
0
  6
Continuous
 62
     7
370
     0
100
AcDbMText
 10
205.8719492799
 20
126.4386918683
 30
0.0
 40
4.2333333333
 41
0.0
 71
     1
 72
     1
  1
5R-LM1066
  7
SLDTEXTSTYLE0
 73
     1
 44
1.0
  0
ARC
  5
75
330
1F
100
AcDbEntity
  8
0
  6
Continuous
 62
     7
370
    25
100
AcDbCircle
 10
158.3150147659
 20
100.9211287523
 30
0.0
 40
1.000000000000022
100
AcDbArc
 50
245.1780063469
 51
255.5224878141
  0
ARC
  5
76
330
1F
100
AcDbEntity
  8
0
  6
Continuous
 62
     7
370
    25
100
AcDbCircle
 10
184.3150147659
 20
100.9211287523
 30
0.0
 40
1.000000000000004
100
AcDbArc
 50
284.4775121859
 51
294.8219936531
  0
LINE
  5
77
330
1F
100
AcDbEntity
  8
0
  6
Continuous
 62
     7
370
    25
100
AcDbLine
 10
184.7348152784
 20
100.0135123522
 30
0.0
 11
184.3191140265
 21
113.3159524133
 31
0.0
  0
LINE
  5
78
330
1F
100
AcDbEntity
  8
0
  6
Continuous
 62
     7
370
    25
100
AcDbLine
 10
158.3109155053
 20
113.3159524133
 30
0.0
 11
157.8952142534
 21
100.0135123522
 31
0.0
  0
LINE
  5
79
330
1F
100
AcDbEntity
  8
0
  6
Continuous
 62
     7
370
    25
100
AcDbLine
 10
189.4073983658
 20
68.5013282398
 30
0.0
 11
202.7098384269
 21
68.9170294917
 31
0.0
  0
LINE
  5
7A
330
1F
100
AcDbEntity
  8
0
  6
Continuous
 62
     7
370
    25
100
AcDbLine
 10
202.7098384269
 20
94.9252280129
 30
0.0
 11
189.4073983658
 21
95.3409292648
 31
0.0
  0
ARC
  5
7B
330
1F
100
AcDbEntity
  8
0
  6
Continuous
 62
     7
370
    25
100
AcDbCircle
 10
190.3150147659
 20
68.9211287523
 30
0.0
 40
1.000000000000008
100
AcDbArc
 50
194.4775121859
 51
204.8219936534
  0
ARC
  5
7C
330
1F
100
AcDbEntity
  8
0
  6
Continuous
 62
     7
370
    25
100
AcDbCircle
 10
190.3150147659
 20
94.9211287523
 30
0.0
 40
1.000000000000008
100
AcDbArc
 50
155.1780063466
 51
165.5224878141
  0
ARC
  5
7D
330
1F
100
AcDbEntity
  8
0
  6
Continuous
 62
     7
370
    25
100
AcDbCircle
 10
186.4420314197
 20
67.9211287523
 30
0.0
 40
3.000000000000012
100
AcDbArc
 50
14.4775121859
 51
90.0
  0
ARC
  5
7E
330
1F
100
AcDbEntity
  8
0
  6
Continuous
 62
     7
370
    25
100
AcDbCircle
 10
186.4420314197
 20
95.9211287523
 30
0.0
 40
3.000000000000012
100
AcDbArc
 50
270.0
 51
345.5224878141
  0
ARC
  5
7F
330
1F
100
AcDbEntity
  8
0
  6
Continuous
 62
     7
370
    25
100
AcDbCircle
 10
157.3150147659
 20
97.0481454061
 30
0.0
 40
3.0
100
AcDbArc
 50
0.0
 51
75.5224878141
  0
ARC
  5
80
330
1F
100
AcDbEntity
  8
0
  6
Continuous
 62
     7
370
    25
100
AcDbCircle
 10
185.3150147659
 20
97.0481454061
 30
0.0
 40
3.0
100
AcDbArc
 50
104.4775121859
 51
180.0
  0
LINE
  5
81
330
1F
100
AcDbEntity
  8
0
  6
Continuous
 62
     7
370
    25
100
AcDbLine
 10
184.3191140265
 20
113.3159524133
 30
0.0
 11
182.8150147659
 21
115.9211287523
 31
0.0
  0
LINE
  5
82
330
1F
100
AcDbEntity
  8
0
  6
Continuous
 62
     7
370
    25
100
AcDbLine
 10
159.8150147659
 20
115.9211287523
 30
0.0
 11
158.3109155053
 21
113.3159524133
 31
0.0
  0
LINE
  5
83
330
1F
100
AcDbEntity
  8
0
  6
Continuous
 62
     7
370
    25
100
AcDbLine
 10
202.7098384269
 20
68.9170294917
 30
0.0
 11
205.3150147659
 21
70.4211287523
 31
0.0
  0
LINE
  5
84
330
1F
100
AcDbEntity
  8
0
  6
Continuous
 62
     7
370
    25
100
AcDbLine
 10
205.3150147659
 20
93.4211287523
 30
0.0
 11
202.7098384269
 21
94.9252280129
 31
0.0
  0
LINE
  5
85
330
1F
100
AcDbEntity
  8
0
  6
Continuous
 62
     7
370
    25
100
AcDbLine
 10
186.4420314197
 20
92.9211287523
 30
0.0
 11
183.3150147659
 21
92.9211287523
 31
0.0
  0
LINE
  5
86
330
1F
100
AcDbEntity
  8
0
  6
Continuous
 62
     7
370
    25
100
AcDbLine
 10
164.3102528565
 20
70.9211287523
 30
0.0
 11
186.4420314197
 21
70.9211287523
 31
0.0
  0
LINE
  5
87
330
1F
100
AcDbEntity
  8
0
  6
Continuous
 62
     7
370
    25
100
AcDbLine
 10
182.3150147659
 20
93.9211287523
 30
0.0
 11
182.3150147659
 21
97.0481454061
 31
0.0
  0
LINE
  5
88
330
1F
100
AcDbEntity
  8
0
  6
Continuous
 62
     7
370
    25
100
AcDbLine
 10
160.3150147659
 20
97.0481454061
 30
0.0
 11
160.3150147659
 21
74.916366843
 31
0.0
  0
SPLINE
  5
89
330
1F
100
AcDbEntity
  8
0
  6
Continuous
 62
     7
370
    25
100
AcDbSpline
210
0.0
220
0.0
230
1.0
 70
     8
 71
     3
 72
    21
 73
    17
 74
     0
 42
0.000000001
 43
0.00000001
 40
0.0
 40
0.0
 40
0.0
 40
0.0
 40
0.082675685630924
 40
0.1577159325188836
 40
0.225107159227423
 40
0.2848508973562325
 40
0.3526128230463965
 40
0.4067896959711119
 40
0.4520101709879598
 40
0.5086862178782585
 40
0.5792250734246939
 40
0.6636252331326754
 40
0.7360319020681837
 40
0.8162246501067455
 40
0.904219872834077
 40
1.0
 40
1.0
 40
1.0
 40
1.0
 10
160.3150147688124
 20
74.9209767372259
 30
0.0
 10
160.3215489752442
 20
74.74781285644332
 30
0.0
 10
160.3340139273375
 20
74.41747748966893
 30
0.0
 10
160.4260817112737
 20
73.95366832115738
 30
0.0
 10
160.55060149275
 20
73.54864784016986
 30
0.0
 10
160.7101072471721
 20
73.17249759836153
 30
0.0
 10
160.8931652109207
 20
72.83836243740346
 30
0.0
 10
161.0898964842858
 20
72.54855043529726
 30
0.0
 10
161.2939050798205
 20
72.2930956284446
 30
0.0
 10
161.5413091776537
 20
72.02965863844095
 30
0.0
 10
161.8762096260759
 20
71.73842140174455
 30
0.0
 10
162.2715462991536
 20
71.47109719016251
 30
0.0
 10
162.714174218358
 20
71.24466532346709
 30
0.0
 10
163.1882855199515
 20
71.07201270429891
 30
0.0
 10
163.7292010435475
 20
70.94676620840393
 30
0.0
 10
164.1142057885896
 20
70.92991255210521
 30
0.0
 10
164.3148627508048
 20
70.92112875523343
 30
0.0
  0
SPLINE
  5
8A
330
1F
100
AcDbEntity
  8
0
  6
Continuous
 62
     7
370
    25
100
AcDbSpline
210
0.0
220
0.0
230
1.0
 70
     8
 71
     3
 72
    11
 73
     7
 74
     0
 42
0.000000001
 43
0.00000001
 40
0.0
 40
0.0
 40
0.0
 40
0.0
 40
0.250045322115713
 40
0.5
 40
0.7499546778842864
 40
1.0
 40
1.0
 40
1.0
 40
1.0
 10
183.3150147658505
 20
92.92112875227453
 30
0.0
 10
183.1839673677448
 20
92.93619421569073
 30
0.0
 10
182.921920077684
 20
92.96631968112382
 30
0.0
 10
182.5915698041348
 20
93.19768379055593
 30
0.0
 10
182.3602056947027
 20
93.52803406410507
 30
0.0
 10
182.3300802292697
 20
93.7900813541659
 30
0.0
 10
182.3150147658534
 20
93.92112875227153
 30
0.0
  0
LINE
  5
8B
330
1F
100
AcDbEntity
  8
0
  6
Continuous
 62
     7
370
    25
100
AcDbLine
 10
184.7348152784
 20
100.0135123522
 30
0.0
 11
157.8952142534
 21
100.0135123522
 31
0.0
  0
LINE
  5
8C
330
1F
100
AcDbEntity
  8
0
  6
Continuous
 62
     7
370
    25
100
AcDbLine
 10
158.3109155053
 20
113.3159524133
 30
0.0
 11
184.3191140265
 21
113.3159524133
 31
0.0
  0
LINE
  5
8D
330
1F
100
AcDbEntity
  8
0
  6
Continuous
 62
     7
370
    25
100
AcDbLine
 10
202.7098384269
 20
81.9211287523
 30
0.0
 11
202.7098384269
 21
94.9252280129
 31
0.0
  0
LINE
  5
8E
330
1F
100
AcDbEntity
  8
0
  6
Continuous
 62
     7
370
    25
100
AcDbLine
 10
202.7098384269
 20
68.9170294917
 30
0.0
 11
202.7098384269
 21
81.9211287523
 31
0.0
  0
LINE
  5
8F
330
1F
100
AcDbEntity
  8
0
  6
Continuous
 62
     7
370
    25
100
AcDbLine
 10
189.4073983658
 20
68.5013282398
 30
0.0
 11
189.4073983658
 21
95.3409292648
 31
0.0
  0
LINE
  5
90
330
1F
100
AcDbEntity
  8
0
  6
Continuous
 62
     7
370
    25
100
AcDbLine
 10
182.8150147659
 20
115.9211287523
 30
0.0
 11
159.8150147659
 21
115.9211287523
 31
0.0
  0
LINE
  5
91
330
1F
100
AcDbEntity
  8
0
  6
Continuous
 62
     7
370
    25
100
AcDbLine
 10
205.3150147659
 20
93.4211287523
 30
0.0
 11
205.3150147659
 21
70.4211287523
 31
0.0
  0
ARC
  5
92
330
1F
100
AcDbEntity
  8
0
  6
Continuous
 62
     7
370
    25
100
AcDbCircle
 10
182.8260525409
 20
77.6023847524
 30
0.0
 40
1.193155402138431
100
AcDbArc
 50
97.6349315662
 51
119.347988814
  0
SPLINE
  5
93
330
1F
100
AcDbEntity
  8
0
  6
Continuous
 62
     7
370
    25
100
AcDbSpline
210
0.0
220
0.0
230
1.0
 70
     8
 71
     3
 72
    12
 73
     8
 74
     0
 42
0.000000001
 43
0.00000001
 40
0.0
 40
0.0
 40
0.0
 40
0.0
 40
0.2500000000000001
 40
0.2500000000000001
 40
0.5000000000000001
 40
0.5000000000000001
 40
1.0
 40
1.0
 40
1.0
 40
1.0
 10
182.2412719338644
 20
78.64240949015652
 30
0.0
 10
182.2185594321564
 20
78.913713928529
 30
0.0
 10
182.2110469123269
 20
79.18582612708933
 30
0.0
 10
182.2094908376264
 20
79.73153581156113
 30
0.0
 10
182.2159176794673
 20
80.0049317657236
 30
0.0
 10
182.2461426797682
 20
80.82515364279287
 30
0.0
 10
182.2808382008851
 20
81.37348904010862
 30
0.0
 10
182.3150147658865
 20
81.92112875230754
 30
0.0
  0
SPLINE
  5
94
330
1F
100
AcDbEntity
  8
0
  6
Continuous
 62
     7
370
    25
100
AcDbSpline
210
0.0
220
0.0
230
1.0
 70
     8
 71
     3
 72
    12
 73
     8
 74
     0
 42
0.000000001
 43
0.00000001
 40
0.0
 40
0.0
 40
0.0
 40
0.0
 40
0.2500000000000001
 40
0.2500000000000001
 40
0.5000000000000001
 40
0.5000000000000001
 40
1.0
 40
1.0
 40
1.0
 40
1.0
 10
182.6675291018424
 20
78.7849625015544
 30
0.0
 10
182.6194871312125
 20
79.03693060274045
 30
0.0
 10
182.5827934885689
 20
79.29252912139806
 30
0.0
 10
182.5168028071441
 20
79.80905548625888
 30
0.0
 10
182.4880293189672
 20
80.07047564557932
 30
0.0
 10
182.4075536119564
 20
80.85815939991775
 30
0.0
 10
182.3614239087132
 20
81.39017097255302
 30
0.0
 10
182.3150147658865
 20
81.92112875230754
 30
0.0
  0
SPLINE
  5
95
330
1F
100
AcDbEntity
  8
0
  6
Continuous
 62
     7
370
    25
100
AcDbSpline
210
0.0
220
0.0
230
1.0
 70
     8
 71
     3
 72
    12
 73
     8
 74
     0
 42
0.000000001
 43
0.00000001
 40
0.0
 40
0.0
 40
0.0
 40
0.0
 40
0.2500000000000001
 40
0.2500000000000001
 40
0.5000000000000001
 40
0.5000000000000001
 40
1.0
 40
1.0
 40
1.0
 40
1.0
 10
181.8150147658865
 20
78.64240949015652
 30
0.0
 10
181.8150147658865
 20
78.91993149606634
 30
0.0
 10
181.8347377112944
 20
79.1960678229991
 30
0.0
 10
181.8953741760557
 20
79.74685168641167
 30
0.0
 10
181.936630721744
 20
80.02106008293707
 30
0.0
 10
182.0784040314161
 20
80.83921636058585
 30
0.0
 10
182.1969710765764
 20
81.38017927569085
 30
0.0
 10
182.3150147658865
 20
81.92112875230754
 30
0.0
  0
LINE
  5
96
330
1F
100
AcDbEntity
  8
0
  6
Continuous
 62
     7
370
    25
100
AcDbLine
 10
181.8150147659
 20
78.6424094902
 30
0.0
 11
182.2412719339
 21
78.6424094902
 31
0.0
  0
LINE
  5
97
330
1F
100
AcDbEntity
  8
0
  6
Continuous
 62
     7
370
    25
100
AcDbLine
 10
181.8150147659
 20
85.1998480145
 30
0.0
 11
182.2412719339
 21
85.1998480145
 31
0.0
  0
SPLINE
  5
98
330
1F
100
AcDbEntity
  8
0
  6
Continuous
 62
     7
370
    25
100
AcDbSpline
210
0.0
220
0.0
230
1.0
 70
     8
 71
     3
 72
    12
 73
     8
 74
     0
 42
0.000000001
 43
0.00000001
 40
0.0
 40
0.0
 40
0.0
 40
0.0
 40
0.25
 40
0.25
 40
0.5
 40
0.5
 40
1.0
 40
1.0
 40
1.0
 40
1.0
 10
182.2412719338644
 20
85.19984801445851
 30
0.0
 10
182.2185594321553
 20
84.92854357607345
 30
0.0
 10
182.2110469123261
 20
84.65643137750044
 30
0.0
 10
182.2094908376269
 20
84.11072169300319
 30
0.0
 10
182.215917679469
 20
83.83732573882804
 30
0.0
 10
182.2461426797734
 20
83.01710386172061
 30
0.0
 10
182.2808382008976
 20
82.46876846453411
 30
0.0
 10
182.3150147658865
 20
81.92112875230754
 30
0.0
  0
SPLINE
  5
99
330
1F
100
AcDbEntity
  8
0
  6
Continuous
 62
     7
370
    25
100
AcDbSpline
210
0.0
220
0.0
230
1.0
 70
     8
 71
     3
 72
    12
 73
     8
 74
     0
 42
0.000000001
 43
0.00000001
 40
0.0
 40
0.0
 40
0.0
 40
0.0
 40
0.2499999999999999
 40
0.2499999999999999
 40
0.4999999999999999
 40
0.4999999999999999
 40
1.0
 40
1.0
 40
1.0
 40
1.0
 10
181.8150147658865
 20
85.19984801445852
 30
0.0
 10
181.8150147658865
 20
84.92232600854872
 30
0.0
 10
181.8347377112944
 20
84.64618968161595
 30
0.0
 10
181.8953741760556
 20
84.09540581820339
 30
0.0
 10
181.936630721744
 20
83.821197421678
 30
0.0
 10
182.0784040314161
 20
83.00304114402921
 30
0.0
 10
182.1969710765764
 20
82.46207822892421
 30
0.0
 10
182.3150147658865
 20
81.92112875230754
 30
0.0
  0
ARC
  5
9A
330
1F
100
AcDbEntity
  8
0
  6
Continuous
 62
     7
370
    25
100
AcDbCircle
 10
182.8260525409
 20
86.2398727523
 30
0.0
 40
1.193155402138552
100
AcDbArc
 50
240.652011186
 51
262.3650684338
  0
SPLINE
  5
9B
330
1F
100
AcDbEntity
  8
0
  6
Continuous
 62
     7
370
    25
100
AcDbSpline
210
0.0
220
0.0
230
1.0
 70
     8
 71
     3
 72
    12
 73
     8
 74
     0
 42
0.000000001
 43
0.00000001
 40
0.0
 40
0.0
 40
0.0
 40
0.0
 40
0.25
 40
0.25
 40
0.5
 40
0.5
 40
1.0
 40
1.0
 40
1.0
 40
1.0
 10
182.6675291018424
 20
85.05729500306057
 30
0.0
 10
182.6195038841996
 20
84.80541476709566
 30
0.0
 10
182.5828196139248
 20
84.549906576612
 30
0.0
 10
182.5168457209954
 20
84.0335641854321
 30
0.0
 10
182.4880940884271
 20
83.77239513385985
 30
0.0
 10
182.4075391876371
 20
82.98399823498642
 30
0.0
 10
182.3614077110173
 20
82.451901380011
 30
0.0
 10
182.3150147658865
 20
81.92112875230754
 30
0.0
  0
ARC
  5
9C
330
1F
100
AcDbEntity
  8
0
  6
Continuous
 62
     7
370
    25
100
AcDbCircle
 10
175.6337587658
 20
93.4321665274
 30
0.0
 40
1.19315540213928
100
AcDbArc
 50
187.6349315662
 51
209.347988814
  0
SPLINE
  5
9D
330
1F
100
AcDbEntity
  8
0
  6
Continuous
 62
     7
370
    25
100
AcDbSpline
210
0.0
220
0.0
230
1.0
 70
     8
 71
     3
 72
    12
 73
     8
 74
     0
 42
0.000000001
 43
0.00000001
 40
0.0
 40
0.0
 40
0.0
 40
0.0
 40
0.2500000000000001
 40
0.2500000000000001
 40
0.5000000000000001
 40
0.5000000000000001
 40
1.0
 40
1.0
 40
1.0
 40
1.0
 10
174.5937340280375
 20
92.84738592028548
 30
0.0
 10
174.322429589665
 20
92.82467341857742
 30
0.0
 10
174.0503173911047
 20
92.81716089874791
 30
0.0
 10
173.5046077066329
 20
92.81560482404744
 30
0.0
 10
173.2312117524704
 20
92.82203166588842
 30
0.0
 10
172.4109898754011
 20
92.85225666618923
 30
0.0
 10
171.8626544780854
 20
92.88695218730633
 30
0.0
 10
171.3150147658864
 20
92.92112875230752
 30
0.0
  0
SPLINE
  5
9E
330
1F
100
AcDbEntity
  8
0
  6
Continuous
 62
     7
370
    25
100
AcDbSpline
210
0.0
220
0.0
230
1.0
 70
     8
 71
     3
 72
    12
 73
     8
 74
     0
 42
0.000000001
 43
0.00000001
 40
0.0
 40
0.0
 40
0.0
 40
0.0
 40
0.25
 40
0.25
 40
0.5
 40
0.5
 40
1.0
 40
1.0
 40
1.0
 40
1.0
 10
174.4511810166396
 20
93.27364308826343
 30
0.0
 10
174.1992129154535
 20
93.22560111763353
 30
0.0
 10
173.9436143967959
 20
93.1889074749899
 30
0.0
 10
173.4270880319351
 20
93.12291679356518
 30
0.0
 10
173.1656678726147
 20
93.09414330538824
 30
0.0
 10
172.3779841182763
 20
93.01366759837754
 30
0.0
 10
171.845972545641
 20
92.96753789513426
 30
0.0
 10
171.3150147658864
 20
92.92112875230752
 30
0.0
  0
ARC
  5
9F
330
1F
100
AcDbEntity
  8
0
  6
Continuous
 62
     7
370
    25
100
AcDbCircle
 10
166.9962707659
 20
93.4321665274
 30
0.0
 40
1.193155402138615
100
AcDbArc
 50
330.652011186
 51
352.3650684338
  0
SPLINE
  5
A0
330
1F
100
AcDbEntity
  8
0
  6
Continuous
 62
     7
370
    25
100
AcDbSpline
210
0.0
220
0.0
230
1.0
 70
     8
 71
     3
 72
    12
 73
     8
 74
     0
 42
0.000000001
 43
0.00000001
 40
0.0
 40
0.0
 40
0.0
 40
0.0
 40
0.2499999999999999
 40
0.2499999999999999
 40
0.4999999999999999
 40
0.4999999999999999
 40
1.0
 40
1.0
 40
1.0
 40
1.0
 10
168.1788485151334
 20
93.27364308826341
 30
0.0
 10
168.4307287510983
 20
93.22561787062072
 30
0.0
 10
168.686236941582
 20
93.18893360034582
 30
0.0
 10
169.2025793327619
 20
93.12295970741644
 30
0.0
 10
169.4637483843341
 20
93.09420807484815
 30
0.0
 10
170.2521452832076
 20
93.01365317405819
 30
0.0
 10
170.784242138183
 20
92.96752169743839
 30
0.0
 10
171.3150147658864
 20
92.92112875230752
 30
0.0
  0
SPLINE
  5
A1
330
1F
100
AcDbEntity
  8
0
  6
Continuous
 62
     7
370
    25
100
AcDbSpline
210
0.0
220
0.0
230
1.0
 70
     8
 71
     3
 72
    12
 73
     8
 74
     0
 42
0.000000001
 43
0.00000001
 40
0.0
 40
0.0
 40
0.0
 40
0.0
 40
0.2499999999999999
 40
0.2499999999999999
 40
0.4999999999999999
 40
0.4999999999999999
 40
1.0
 40
1.0
 40
1.0
 40
1.0
 10
168.0362955037355
 20
92.84738592028548
 30
0.0
 10
168.3075999421206
 20
92.82467341857637
 30
0.0
 10
168.5797121406936
 20
92.81716089874718
 30
0.0
 10
169.1254218251908
 20
92.815604824048
 30
0.0
 10
169.3988177793659
 20
92.82203166589005
 30
0.0
 10
170.2190396564734
 20
92.8522566661944
 30
0.0
 10
170.7673750536599
 20
92.88695218731861
 30
0.0
 10
171.3150147658864
 20
92.92112875230752
 30
0.0
  0
SPLINE
  5
A2
330
1F
100
AcDbEntity
  8
0
  6
Continuous
 62
     7
370
    25
100
AcDbSpline
210
0.0
220
0.0
230
1.0
 70
     8
 71
     3
 72
    12
 73
     8
 74
     0
 42
0.000000001
 43
0.00000001
 40
0.0
 40
0.0
 40
0.0
 40
0.0
 40
0.2500000000000001
 40
0.2500000000000001
 40
0.5000000000000001
 40
0.5000000000000001
 40
1.0
 40
1.0
 40
1.0
 40
1.0
 10
174.5937340280375
 20
92.42112875230752
 30
0.0
 10
174.3162120221277
 20
92.42112875230752
 30
0.0
 10
174.0400756951949
 20
92.44085169771546
 30
0.0
 10
173.4892918317823
 20
92.50148816247672
 30
0.0
 10
173.2150834352569
 20
92.54274470816506
 30
0.0
 10
172.3969271576081
 20
92.68451801783714
 30
0.0
 10
171.8559642425031
 20
92.80308506299748
 30
0.0
 10
171.3150147658864
 20
92.92112875230752
 30
0.0
  0
LINE
  5
A3
330
1F
100
AcDbEntity
  8
0
  6
Continuous
 62
     7
370
    25
100
AcDbLine
 10
174.593734028
 20
92.4211287523
 30
0.0
 11
174.593734028
 21
92.8473859203
 31
0.0
  0
LINE
  5
A4
330
1F
100
AcDbEntity
  8
0
  6
Continuous
 62
     7
370
    25
100
AcDbLine
 10
168.0362955037
 20
92.4211287523
 30
0.0
 11
168.0362955037
 21
92.8473859203
 31
0.0
  0
SPLINE
  5
A5
330
1F
100
AcDbEntity
  8
0
  6
Continuous
 62
     7
370
    25
100
AcDbSpline
210
0.0
220
0.0
230
1.0
 70
     8
 71
     3
 72
    12
 73
     8
 74
     0
 42
0.000000001
 43
0.00000001
 40
0.0
 40
0.0
 40
0.0
 40
0.0
 40
0.2500000000000001
 40
0.2500000000000001
 40
0.5000000000000002
 40
0.5000000000000002
 40
1.0
 40
1.0
 40
1.0
 40
1.0
 10
168.0362955037355
 20
92.42112875230752
 30
0.0
 10
168.3138175096453
 20
92.42112875230752
 30
0.0
 10
168.589953836578
 20
92.44085169771546
 30
0.0
 10
169.1407376999906
 20
92.5014881624767
 30
0.0
 10
169.414946096516
 20
92.54274470816506
 30
0.0
 10
170.2331023741648
 20
92.68451801783714
 30
0.0
 10
170.7740652892698
 20
92.80308506299748
 30
0.0
 10
171.3150147658864
 20
92.92112875230752
 30
0.0
  0
ARC
  5
A6
330
1F
100
AcDbEntity
  8
0
  6
Continuous
 62
     7
370
    25
100
AcDbCircle
 10
161.8150147659
 20
92.4211287523
 30
0.0
 40
0.5
100
AcDbArc
 50
90.0
 51
180.0
  0
LINE
  5
A7
330
1F
100
AcDbEntity
  8
0
  6
Continuous
 62
     7
370
    25
100
AcDbLine
 10
161.8150147659
 20
92.9211287523
 30
0.0
 11
161.8150147659
 21
92.4211287523
 31
0.0
  0
LINE
  5
A8
330
1F
100
AcDbEntity
  8
0
  6
Continuous
 62
     7
370
    25
100
AcDbLine
 10
161.8150147659
 20
92.4211287523
 30
0.0
 11
161.3150147659
 21
92.4211287523
 31
0.0
  0
ARC
  5
A9
330
1F
100
AcDbEntity
  8
0
  6
Continuous
 62
     7
370
    25
100
AcDbCircle
 10
182.3150147659
 20
92.9211287523
 30
0.0
 40
1.500000000000011
100
AcDbArc
 50
199.4712206345
 51
250.5287793655
  0
SPLINE
  5
AA
330
1F
100
AcDbEntity
  8
0
  6
Continuous
 62
     7
370
    25
100
AcDbSpline
210
0.0
220
0.0
230
1.0
 70
     8
 71
     3
 72
    12
 73
     8
 74
     0
 42
0.000000001
 43
0.00000001
 40
0.0
 40
0.0
 40
0.0
 40
0.0
 40
0.2499999999999999
 40
0.2499999999999999
 40
0.4999999999999999
 40
0.4999999999999999
 40
1.0
 40
1.0
 40
1.0
 40
1.0
 10
181.3150147658865
 20
92.92112875230752
 30
0.0
 10
181.3150147658865
 20
92.92112875230752
 30
0.0
 10
181.2969493379955
 20
92.9033014566112
 30
0.0
 10
181.2402880964603
 20
92.8440113573568
 30
0.0
 10
181.2027657369382
 20
92.80341384599369
 30
0.0
 10
181.0802389728452
 20
92.66212930230472
 30
0.0
 10
180.9872641643489
 20
92.54329081311855
 30
0.0
 10
180.9008012035134
 20
92.42112875230752
 30
0.0
  0
ARC
  5
AB
330
1F
100
AcDbEntity
  8
0
  6
Continuous
 62
     7
370
    25
100
AcDbCircle
 10
182.3150147659
 20
92.9211287523
 30
0.0
 40
1.0
100
AcDbArc
 50
180.0
 51
270.0
  0
SPLINE
  5
AC
330
1F
100
AcDbEntity
  8
0
  6
Continuous
 62
     7
370
    25
100
AcDbSpline
210
0.0
220
0.0
230
1.0
 70
     8
 71
     3
 72
    12
 73
     8
 74
     0
 42
0.000000001
 43
0.00000001
 40
0.0
 40
0.0
 40
0.0
 40
0.0
 40
0.2499999999999993
 40
0.2499999999999993
 40
0.4999999999999987
 40
0.4999999999999987
 40
1.0
 40
1.0
 40
1.0
 40
1.0
 10
182.3150147658865
 20
91.92112875230752
 30
0.0
 10
182.3150147658865
 20
91.92112875230752
 30
0.0
 10
182.2971874701901
 20
91.90306332441654
 30
0.0
 10
182.2378973709357
 20
91.84640208288137
 30
0.0
 10
182.1972998595726
 20
91.80887972335921
 30
0.0
 10
182.0560153158837
 20
91.68635295926623
 30
0.0
 10
181.9371768266976
 20
91.59337815076974
 30
0.0
 10
181.8150147658865
 20
91.50691518993443
 30
0.0
  0
ARC
  5
AD
330
1F
100
AcDbEntity
  8
0
  6
Continuous
 62
     7
370
    25
100
AcDbCircle
 10
181.8150147659
 20
72.4211287523
 30
0.0
 40
0.5
100
AcDbArc
 50
270.0
 51
0.0
  0
LINE
  5
AE
330
1F
100
AcDbEntity
  8
0
  6
Continuous
 62
     7
370
    25
100
AcDbLine
 10
181.8150147659
 20
71.9211287523
 30
0.0
 11
181.8150147659
 21
72.4211287523
 31
0.0
  0
LINE
  5
AF
330
1F
100
AcDbEntity
  8
0
  6
Continuous
 62
     7
370
    25
100
AcDbLine
 10
181.8150147659
 20
72.4211287523
 30
0.0
 11
182.3150147659
 21
72.4211287523
 31
0.0
  0
LINE
  5
B0
330
1F
100
AcDbEntity
  8
0
  6
Continuous
 62
     7
370
    25
100
AcDbLine
 10
181.8150147659
 20
85.1998480145
 30
0.0
 11
181.8150147659
 21
91.5069151899
 31
0.0
  0
LINE
  5
B1
330
1F
100
AcDbEntity
  8
0
  6
Continuous
 62
     7
370
    25
100
AcDbLine
 10
182.3150147659
 20
91.9211287523
 30
0.0
 11
182.3150147659
 21
86.6115445121
 31
0.0
  0
SPLINE
  5
B2
330
1F
100
AcDbEntity
  8
0
  6
Continuous
 62
     7
370
    25
100
AcDbSpline
210
0.0
220
0.0
230
1.0
 70
     8
 71
     3
 72
     8
 73
     4
 74
     0
 42
0.000000001
 43
0.00000001
 40
0.0
 40
0.0
 40
0.0
 40
0.0
 40
1.0
 40
1.0
 40
1.0
 40
1.0
 10
182.2412719338644
 20
85.1998480144585
 30
0.0
 10
182.2843531187028
 20
85.67228897041231
 30
0.0
 10
182.3150147658865
 20
86.14341414877173
 30
0.0
 10
182.3150147658865
 20
86.61154451213096
 30
0.0
  0
LINE
  5
B3
330
1F
100
AcDbEntity
  8
0
  6
Continuous
 62
     7
370
    25
100
AcDbLine
 10
180.9008012035
 20
92.4211287523
 30
0.0
 11
174.593734028
 21
92.4211287523
 31
0.0
  0
SPLINE
  5
B4
330
1F
100
AcDbEntity
  8
0
  6
Continuous
 62
     7
370
    25
100
AcDbSpline
210
0.0
220
0.0
230
1.0
 70
     8
 71
     3
 72
     8
 73
     4
 74
     0
 42
0.000000001
 43
0.00000001
 40
0.0
 40
0.0
 40
0.0
 40
0.0
 40
1.0
 40
1.0
 40
1.0
 40
1.0
 10
176.0054305257099
 20
92.92112875230752
 30
0.0
 10
175.5372061019364
 20
92.92112875230752
 30
0.0
 10
175.0662256175667
 20
92.89047172232395
 30
0.0
 10
174.5937340280375
 20
92.84738592028548
 30
0.0
  0
LINE
  5
B5
330
1F
100
AcDbEntity
  8
0
  6
Continuous
 62
     7
370
    25
100
AcDbLine
 10
176.0054305257
 20
92.9211287523
 30
0.0
 11
181.3150147659
 21
92.9211287523
 31
0.0
  0
SPLINE
  5
B6
330
1F
100
AcDbEntity
  8
0
  6
Continuous
 62
     7
370
    25
100
AcDbSpline
210
0.0
220
0.0
230
1.0
 70
     8
 71
     3
 72
     8
 73
     4
 74
     0
 42
0.000000001
 43
0.00000001
 40
0.0
 40
0.0
 40
0.0
 40
0.0
 40
1.0
 40
1.0
 40
1.0
 40
1.0
 10
182.6675291018424
 20
78.7849625015544
 30
0.0
 10
182.7547202814009
 20
78.32766660662172
 30
0.0
 10
182.8150147658865
 20
77.87842641038782
 30
0.0
 10
182.8150147658865
 20
77.43464411247643
 30
0.0
  0
SPLINE
  5
B7
330
1F
100
AcDbEntity
  8
0
  6
Continuous
 62
     7
370
    25
100
AcDbSpline
210
0.0
220
0.0
230
1.0
 70
     8
 71
     3
 72
     8
 73
     4
 74
     0
 42
0.000000001
 43
0.00000001
 40
0.0
 40
0.0
 40
0.0
 40
0.0
 40
1.0
 40
1.0
 40
1.0
 40
1.0
 10
182.8150147658865
 20
86.40761339213863
 30
0.0
 10
182.8150147658865
 20
85.96383109422722
 30
0.0
 10
182.7547202814009
 20
85.51459089799329
 30
0.0
 10
182.6675291018424
 20
85.05729500306056
 30
0.0
  0
LINE
  5
B8
330
1F
100
AcDbEntity
  8
0
  6
Continuous
 62
     7
370
    25
100
AcDbLine
 10
182.8150147659
 20
92.4428671502
 30
0.0
 11
182.8150147659
 21
86.4076133921
 31
0.0
  0
SPLINE
  5
B9
330
1F
100
AcDbEntity
  8
0
  6
Continuous
 62
     7
370
    25
100
AcDbSpline
210
0.0
220
0.0
230
1.0
 70
     8
 71
     3
 72
    14
 73
    10
 74
     0
 42
0.000000001
 43
0.00000001
 40
0.0
 40
0.0
 40
0.0
 40
0.0
 40
0.1250000000000012
 40
0.1250000000000012
 40
0.2500000000000024
 40
0.2500000000000024
 40
0.500000000000002
 40
0.500000000000002
 40
1.0
 40
1.0
 40
1.0
 40
1.0
 10
182.2733492148301
 20
91.96627044505074
 30
0.0
 10
182.3400332915161
 20
91.96093663852007
 30
0.0
 10
182.4092063373938
 20
91.97007255184451
 30
0.0
 10
182.5171069255154
 20
92.00208933029963
 30
0.0
 10
182.559137639431
 20
92.02355514691052
 30
0.0
 10
182.6637671346412
 20
92.09085078149384
 30
0.0
 10
182.7053018042472
 20
92.13883618045483
 30
0.0
 10
182.7987807304338
 20
92.27890253350465
 30
0.0
 10
182.8150146415728
 20
92.36523706335461
 30
0.0
 10
182.8150147658859
 20
92.44286715017705
 30
0.0
  0
SPLINE
  5
BA
330
1F
100
AcDbEntity
  8
0
  6
Continuous
 62
     7
370
    25
100
AcDbSpline
210
0.0
220
0.0
230
1.0
 70
     8
 71
     3
 72
     8
 73
     4
 74
     0
 42
0.000000001
 43
0.00000001
 40
0.0
 40
0.0
 40
0.0
 40
0.0
 40
1.0
 40
1.0
 40
1.0
 40
1.0
 10
165.3150147658864
 20
71.87765049143796
 30
0.0
 10
165.1866166605562
 20
71.87765049143796
 30
0.0
 10
165.0594986329305
 20
71.88289506488138
 30
0.0
 10
164.9335735367808
 20
71.89314186118159
 30
0.0
  0
LINE
  5
BB
330
1F
100
AcDbEntity
  8
0
  6
Continuous
 62
     7
370
    25
100
AcDbLine
 10
181.8150147659
 20
71.8776504914
 30
0.0
 11
165.3150147659
 21
71.8776504914
 31
0.0
  0
SPLINE
  5
BC
330
1F
100
AcDbEntity
  8
0
  6
Continuous
 62
     7
370
    25
100
AcDbSpline
210
0.0
220
0.0
230
1.0
 70
     8
 71
     3
 72
    16
 73
    12
 74
     0
 42
0.000000001
 43
0.00000001
 40
0.0
 40
0.0
 40
0.0
 40
0.0
 40
0.1249999999999998
 40
0.1249999999999998
 40
0.2499999999999995
 40
0.2499999999999995
 40
0.4999999999999997
 40
0.4999999999999997
 40
0.7499999999999998
 40
0.7499999999999998
 40
1.0
 40
1.0
 40
1.0
 40
1.0
 10
181.8150147658865
 20
71.87765049143796
 30
0.0
 10
181.9151831124261
 20
71.87765049143798
 30
0.0
 10
182.0115316549851
 20
71.89271159181841
 30
0.0
 10
182.1764724321744
 20
71.93854716897648
 30
0.0
 10
182.2469334838885
 20
71.96883578777565
 30
0.0
 10
182.4311141959162
 20
72.06874727444475
 30
0.0
 10
182.5224262722658
 20
72.1489971177225
 30
0.0
 10
182.668023219864
 20
72.32270479634778
 30
0.0
 10
182.7219521768144
 20
72.41758518115743
 30
0.0
 10
182.7951718097596
 20
72.61708653517618
 30
0.0
 10
182.8150147658865
 20
72.72247725587722
 30
0.0
 10
182.8150147658865
 20
72.8341722305684
 30
0.0
  0
LINE
  5
BD
330
1F
100
AcDbEntity
  8
0
  6
Continuous
 62
     7
370
    25
100
AcDbLine
 10
182.8150147659
 20
77.4346441125
 30
0.0
 11
182.8150147659
 21
72.8341722306
 31
0.0
  0
SPLINE
  5
BE
330
1F
100
AcDbEntity
  8
0
  6
Continuous
 62
     7
370
    25
100
AcDbSpline
210
0.0
220
0.0
230
1.0
 70
     8
 71
     3
 72
     8
 73
     4
 74
     0
 42
0.000000001
 43
0.00000001
 40
0.0
 40
0.0
 40
0.0
 40
0.0
 40
1.0
 40
1.0
 40
1.0
 40
1.0
 10
168.0362955037355
 20
92.84738592028548
 30
0.0
 10
167.5638545477817
 20
92.89046710512388
 30
0.0
 10
167.0927293694223
 20
92.92112875230752
 30
0.0
 10
166.624599006063
 20
92.92112875230752
 30
0.0
  0
LINE
  5
BF
330
1F
100
AcDbEntity
  8
0
  6
Continuous
 62
     7
370
    25
100
AcDbLine
 10
168.0362955037
 20
92.4211287523
 30
0.0
 11
161.8150147659
 21
92.4211287523
 31
0.0
  0
LINE
  5
C0
330
1F
100
AcDbEntity
  8
0
  6
Continuous
 62
     7
370
    25
100
AcDbLine
 10
161.8150147659
 20
92.9211287523
 30
0.0
 11
166.6245990061
 21
92.9211287523
 31
0.0
  0
LINE
  5
C1
330
1F
100
AcDbEntity
  8
0
  6
Continuous
 62
     7
370
    25
100
AcDbLine
 10
165.3150147659
 20
72.4211287523
 30
0.0
 11
165.3150147659
 21
71.9211287523
 31
0.0
  0
LINE
  5
C2
330
1F
100
AcDbEntity
  8
0
  6
Continuous
 62
     7
370
    25
100
AcDbLine
 10
165.3150147659
 20
72.4211287523
 30
0.0
 11
181.8150147659
 21
72.4211287523
 31
0.0
  0
LINE
  5
C3
330
1F
100
AcDbEntity
  8
0
  6
Continuous
 62
     7
370
    25
100
AcDbLine
 10
181.8150147659
 20
71.9211287523
 30
0.0
 11
165.3150147659
 21
71.9211287523
 31
0.0
  0
ELLIPSE
  5
C4
330
1F
100
AcDbEntity
  8
0
  6
Continuous
 62
     7
370
    25
100
AcDbEllipse
 10
178.3153842154
 20
78.2743998012
 30
0.0
 11
0.6783923571545358
 21
9.237055564881302E-13
 31
0.0
210
0.0
220
0.0
230
1.0
 40
0.9531667975
 41
0.4357918987543113
 42
2.705800754832893
  0
LINE
  5
C5
330
1F
100
AcDbEntity
  8
0
  6
Continuous
 62
     7
370
    25
100
AcDbLine
 10
176.3898822377
 20
74.8832151406
 30
0.0
 11
177.7003970919
 21
78.547356931
 31
0.0
  0
ELLIPSE
  5
C6
330
1F
100
AcDbEntity
  8
0
  6
Continuous
 62
     7
370
    25
100
AcDbEllipse
 10
175.7216751195
 20
75.1003445175
 30
0.0
 11
-0.7059692822418526
 21
1.136868377216160E-13
 31
0.0
210
0.0
220
0.0
230
1.0
 40
0.9531667975
 41
1.047197551197161
 42
2.813039483038504
  0
LINE
  5
C7
330
1F
100
AcDbEntity
  8
0
  6
Continuous
 62
     7
370
    25
100
AcDbLine
 10
175.3150147659
 20
74.5471287523
 30
0.0
 11
175.3686904784
 21
74.5175904115
 31
0.0
  0
LINE
  5
C8
330
1F
100
AcDbEntity
  8
0
  6
Continuous
 62
     7
370
    25
100
AcDbLine
 10
176.1436269198
 20
72.967517566
 30
0.0
 11
175.3150147659
 21
74.5471287523
 31
0.0
  0
ELLIPSE
  5
C9
330
1F
100
AcDbEntity
  8
0
  6
Continuous
 62
     7
370
    25
100
AcDbEllipse
 10
176.2225566851
 20
73.0051341817
 30
0.0
 11
0.08824616028027776
 21
0.0
 31
0.0
210
0.0
220
0.0
230
1.0
 40
0.9531667975
 41
3.605240262590781
 42
5.462183310215155
  0
ELLIPSE
  5
CA
330
1F
100
AcDbEntity
  8
0
  6
Continuous
 62
     7
370
    25
100
AcDbEllipse
 10
178.3153842154
 20
70.8629657748
 30
0.0
 11
2.982720217472917
 21
-5.115907697472721E-13
 31
0.0
210
0.0
220
0.0
230
1.0
 40
0.9531667975
 41
0.8210019969646115
 42
2.320590656625483
  0
ELLIPSE
  5
CB
330
1F
100
AcDbEntity
  8
0
  6
Continuous
 62
     7
370
    25
100
AcDbEllipse
 10
180.4082117457
 20
73.0051341817
 30
0.0
 11
0.08824616028022091
 21
2.842170943040400E-14
 31
0.0
210
0.0
220
0.0
230
1.0
 40
0.9531667975
 41
3.962594650553687
 42
5.819537698178624
  0
LINE
  5
CC
330
1F
100
AcDbEntity
  8
0
  6
Continuous
 62
     7
370
    25
100
AcDbLine
 10
181.3157536649
 20
74.5471287523
 30
0.0
 11
180.487141511
 21
72.967517566
 31
0.0
  0
LINE
  5
CD
330
1F
100
AcDbEntity
  8
0
  6
Continuous
 62
     7
370
    25
100
AcDbLine
 10
181.2724115588
 20
74.522360458
 30
0.0
 11
181.3157536649
 21
74.5471287523
 31
0.0
  0
ELLIPSE
  5
CE
330
1F
100
AcDbEntity
  8
0
  6
Continuous
 62
     7
370
    25
100
AcDbEllipse
 10
180.9093987805
 20
75.0994904392
 30
0.0
 11
-0.7059692822421083
 21
-1.705302565824240E-13
 31
0.0
210
0.0
220
0.0
230
1.0
 40
0.9531667975
 41
0.3285531705512048
 42
2.110876526947624
  0
LINE
  5
CF
330
1F
100
AcDbEntity
  8
0
  6
Continuous
 62
     7
370
    25
100
AcDbLine
 10
178.9303713389
 20
78.547356931
 30
0.0
 11
180.2411916623
 21
74.8823610623
 31
0.0
  0
LINE
  5
D0
330
1F
100
AcDbEntity
  8
0
  6
Continuous
 62
     7
370
    25
100
AcDbLine
 10
181.8150147659
 20
72.4211287523
 30
0.0
 11
181.8150147659
 21
78.6424094902
 31
0.0
  0
ARC
  5
D1
330
1F
100
AcDbEntity
  8
0
  6
Continuous
 62
     7
370
    25
100
AcDbCircle
 10
165.3150147659
 20
75.9211287523
 30
0.0
 40
3.499999999999986
100
AcDbArc
 50
180.0
 51
270.0
  0
LINE
  5
D2
330
1F
100
AcDbEntity
  8
0
  6
Continuous
 62
     7
370
    25
100
AcDbLine
 10
161.8150147659
 20
92.4211287523
 30
0.0
 11
161.8150147659
 21
75.9211287523
 31
0.0
  0
LINE
  5
D3
330
1F
100
AcDbEntity
  8
0
  6
Continuous
 62
     7
370
    25
100
AcDbLine
 10
161.8150147659
 20
75.9211287523
 30
0.0
 11
161.3150147659
 21
75.9211287523
 31
0.0
  0
LINE
  5
D4
330
1F
100
AcDbEntity
  8
0
  6
Continuous
 62
     7
370
    25
100
AcDbLine
 10
161.3150147659
 20
75.9211287523
 30
0.0
 11
161.3150147659
 21
92.4211287523
 31
0.0
  0
SPLINE
  5
D5
330
1F
100
AcDbEntity
  8
0
  6
Continuous
 62
     7
370
    25
100
AcDbSpline
210
0.0
220
0.0
230
1.0
 70
     8
 71
     3
 72
    14
 73
    10
 74
     0
 42
0.000000001
 43
0.00000001
 40
0.0
 40
0.0
 40
0.0
 40
0.0
 40
0.4999999999999986
 40
0.4999999999999986
 40
0.7499999999999978
 40
0.7499999999999978
 40
0.8749999999999989
 40
0.8749999999999989
 40
1.0
 40
1.0
 40
1.0
 40
1.0
 10
181.8367531616046
 20
93.42112875230694
 30
0.0
 10
181.7591230735214
 20
93.42112862762882
 30
0.0
 10
181.6727885423547
 20
93.40489471554497
 30
0.0
 10
181.5327221882738
 20
93.31141578590109
 30
0.0
 10
181.4847367879763
 20
93.26988111443274
 30
0.0
 10
181.417441152335
 20
93.1652516109719
 30
0.0
 10
181.3959753359683
 20
93.1232208941008
 30
0.0
 10
181.3639585602184
 20
93.0153202974504
 30
0.0
 10
181.354822650661
 20
92.94614724680878
 30
0.0
 10
181.3601564610668
 20
92.87946317078196
 30
0.0
  0
LINE
  5
D6
330
1F
100
AcDbEntity
  8
0
  6
Continuous
 62
     7
370
    25
100
AcDbLine
 10
175.8014994057
 20
93.4211287523
 30
0.0
 11
181.8367531616
 21
93.4211287523
 31
0.0
  0
SPLINE
  5
D7
330
1F
100
AcDbEntity
  8
0
  6
Continuous
 62
     7
370
    25
100
AcDbSpline
210
0.0
220
0.0
230
1.0
 70
     8
 71
     3
 72
     8
 73
     4
 74
     0
 42
0.000000001
 43
0.00000001
 40
0.0
 40
0.0
 40
0.0
 40
0.0
 40
1.0
 40
1.0
 40
1.0
 40
1.0
 10
174.4511810166396
 20
93.27364308826343
 30
0.0
 10
174.9084769115723
 20
93.36083426782193
 30
0.0
 10
175.3577171078062
 20
93.42112875230752
 30
0.0
 10
175.8014994057176
 20
93.42112875230752
 30
0.0
  0
SPLINE
  5
D8
330
1F
100
AcDbEntity
  8
0
  6
Continuous
 62
     7
370
    25
100
AcDbSpline
210
0.0
220
0.0
230
1.0
 70
     8
 71
     3
 72
     8
 73
     4
 74
     0
 42
0.000000001
 43
0.00000001
 40
0.0
 40
0.0
 40
0.0
 40
0.0
 40
1.0
 40
1.0
 40
1.0
 40
1.0
 10
166.8285301260554
 20
93.42112875230752
 30
0.0
 10
167.2723124239668
 20
93.42112875230752
 30
0.0
 10
167.7215526202007
 20
93.36083426782193
 30
0.0
 10
168.1788485151334
 20
93.27364308826341
 30
0.0
  0
LINE
  5
D9
330
1F
100
AcDbEntity
  8
0
  6
Continuous
 62
     7
370
    25
100
AcDbLine
 10
162.2280582441
 20
93.4211287523
 30
0.0
 11
166.8285301261
 21
93.4211287523
 31
0.0
  0
SPLINE
  5
DA
330
1F
100
AcDbEntity
  8
0
  6
Continuous
 62
     7
370
    25
100
AcDbSpline
210
0.0
220
0.0
230
1.0
 70
     8
 71
     3
 72
    18
 73
    14
 74
     0
 42
0.000000001
 43
0.00000001
 40
0.0
 40
0.0
 40
0.0
 40
0.0
 40
0.25
 40
0.25
 40
0.5
 40
0.5
 40
0.625
 40
0.625
 40
0.75
 40
0.75
 40
0.875
 40
0.875
 40
1.0
 40
1.0
 40
1.0
 40
1.0
 10
162.2280582441473
 20
93.42112875230752
 30
0.0
 10
162.1162664715717
 20
93.42112875230754
 30
0.0
 10
162.0108904765995
 20
93.40125578278173
 30
0.0
 10
161.8115515987106
 20
93.32809556438892
 30
0.0
 10
161.7167205532645
 20
93.27421883055374
 30
0.0
 10
161.5864486253795
 20
93.16506917456569
 30
0.0
 10
161.5451204137365
 20
93.12406043124295
 30
0.0
 10
161.466950269173
 20
93.03001011722687
 30
0.0
 10
161.4297471077479
 20
92.97653957512976
 30
0.0
 10
161.36272908449
 20
92.85312543186456
 30
0.0
 10
161.3325500181085
 20
92.782936367141
 30
0.0
 10
161.2866026667729
 20
92.61773415599527
 30
0.0
 10
161.2715365050169
 20
92.52177457453953
 30
0.0
 10
161.2715365050169
 20
92.42112875230752
 30
0.0
  0
LINE
  5
DB
330
1F
100
AcDbEntity
  8
0
  6
Continuous
 62
     7
370
    25
100
AcDbLine
 10
161.271536505
 20
75.9211287523
 30
0.0
 11
161.271536505
 21
92.4211287523
 31
0.0
  0
SPLINE
  5
DC
330
1F
100
AcDbEntity
  8
0
  6
Continuous
 62
     7
370
    25
100
AcDbSpline
210
0.0
220
0.0
230
1.0
 70
     8
 71
     3
 72
     8
 73
     4
 74
     0
 42
0.000000001
 43
0.00000001
 40
0.0
 40
0.0
 40
0.0
 40
0.0
 40
1.0
 40
1.0
 40
1.0
 40
1.0
 10
161.2870278755526
 20
75.53968751346798
 30
0.0
 10
161.2767810787325
 20
75.6656126127705
 30
0.0
 10
161.2715365050169
 20
75.79273064363713
 30
0.0
 10
161.2715365050169
 20
75.92112875230752
 30
0.0
  0
ARC
  5
DD
330
1F
100
AcDbEntity
  8
0
  6
Continuous
 62
     7
370
    25
100
AcDbCircle
 10
165.3150147659
 20
75.9211287523
 30
0.0
 40
3.999999999999986
100
AcDbArc
 50
180.0
 51
270.0
  0
SPLINE
  5
DE
330
1F
100
AcDbEntity
  8
0
  6
Continuous
 62
     7
370
    25
100
AcDbSpline
210
0.0
220
0.0
230
1.0
 70
     8
 71
     3
 72
     8
 73
     4
 74
     0
 42
0.000000001
 43
0.00000001
 40
0.0
 40
0.0
 40
0.0
 40
0.0
 40
1.0
 40
1.0
 40
1.0
 40
1.0
 10
182.3150147658865
 20
77.2307129924841
 30
0.0
 10
182.3150147658865
 20
77.69893741625766
 30
0.0
 10
182.2843577359029
 20
78.16991790062725
 30
0.0
 10
182.2412719338644
 20
78.64240949015652
 30
0.0
  0
LINE
  5
DF
330
1F
100
AcDbEntity
  8
0
  6
Continuous
 62
     7
370
    25
100
AcDbLine
 10
182.3150147659
 20
77.2307129925
 30
0.0
 11
182.3150147659
 21
72.4211287523
 31
0.0
  0
ELLIPSE
  5
E0
330
1F
100
AcDbEntity
  8
0
  6
Continuous
 62
     7
370
    25
100
AcDbEllipse
 10
177.999375149
 20
74.9676953023
 30
0.0
 11
-0.08824616028027776
 21
0.0
 31
0.0
210
0.0
220
0.0
230
1.0
 40
0.9531667975
 41
5.940161364897907
 42
7.853981633974483
  0
ELLIPSE
  5
E1
330
1F
100
AcDbEntity
  8
0
  6
Continuous
 62
     7
370
    25
100
AcDbEllipse
 10
178.3153842175
 20
75.8110814823
 30
0.0
 11
0.08824616028027776
 21
0.0
 31
0.0
210
0.0
220
0.0
230
1.0
 40
0.9531667975
 41
0.3430239394904975
 42
2.79856871223857
  0
LINE
  5
E2
330
1F
100
AcDbEntity
  8
0
  6
Continuous
 62
     7
370
    25
100
AcDbLine
 10
178.71449839
 20
74.9959856697
 30
0.0
 11
178.3984893252
 21
75.8393718499
 31
0.0
  0
ELLIPSE
  5
E3
330
1F
100
AcDbEntity
  8
0
  6
Continuous
 62
     7
370
    25
100
AcDbEllipse
 10
178.6313932823
 20
74.9676953023
 30
0.0
 11
0.08824616028027776
 21
2.842170943040401E-14
 31
0.0
210
0.0
220
0.0
230
1.0
 40
0.9531667975
 41
4.712388980384396
 42
6.626209245739173
  0
LINE
  5
E4
330
1F
100
AcDbEntity
  8
0
  6
Continuous
 62
     7
370
    25
100
AcDbLine
 10
177.999375149
 20
74.8835819923
 30
0.0
 11
178.6313932823
 21
74.8835819923
 31
0.0
  0
LINE
  5
E5
330
1F
100
AcDbEntity
  8
0
  6
Continuous
 62
     7
370
    25
100
AcDbLine
 10
178.2322791099
 20
75.83937185
 30
0.0
 11
177.9162700414
 21
74.99598567
 31
0.0
  0
LWPOLYLINE
  5
E6
330
1F
100
AcDbEntity
  8
0
  6
Continuous
 62
     7
370
    25
100
AcDbPolyline
 90
        9
 70
   128
 43
0.0
 10
176.0054305257
 20
92.9211287523
 10
175.9656455378
 20
92.9307361121
 10
175.9273894647
 20
92.9591889861
 10
175.8921324659
 20
93.0053939462
 10
175.8612294479
 20
93.0675753617
 10
175.8358679964
 20
93.1433436358
 10
175.8170227379
 20
93.2297870361
 10
175.805417885
 20
93.3235835913
 10
175.8014994057
 20
93.4211287523
  0
LWPOLYLINE
  5
E7
330
1F
100
AcDbEntity
  8
0
  6
Continuous
 62
     7
370
    25
100
AcDbPolyline
 90
        9
 70
   128
 43
0.0
 10
182.3150147659
 20
86.6115445121
 10
182.3246221257
 20
86.5717595243
 10
182.3530749996
 20
86.5335034512
 10
182.3992799597
 20
86.4982464523
 10
182.4614613753
 20
86.4673434343
 10
182.5372296494
 20
86.4419819829
 10
182.6236730497
 20
86.4231367243
 10
182.7174696049
 20
86.4115318714
 10
182.8150147659
 20
86.4076133921
  0
LWPOLYLINE
  5
E8
330
1F
100
AcDbEntity
  8
0
  6
Continuous
 62
     7
370
    25
100
AcDbPolyline
 90
        9
 70
   128
 43
0.0
 10
166.6245990061
 20
92.9211287523
 10
166.6643839939
 20
92.9307361121
 10
166.702640067
 20
92.9591889861
 10
166.7378970659
 20
93.0053939462
 10
166.7688000839
 20
93.0675753617
 10
166.7941615353
 20
93.1433436358
 10
166.8130067939
 20
93.2297870361
 10
166.8246116468
 20
93.3235835913
 10
166.8285301261
 20
93.4211287523
  0
LWPOLYLINE
  5
E9
330
1F
100
AcDbEntity
  8
0
  6
Continuous
 62
     7
370
    25
100
AcDbPolyline
 90
        9
 70
   128
 43
0.0
 10
182.8150147659
 20
77.4346441125
 10
182.7174696049
 20
77.4307256332
 10
182.6236730497
 20
77.4191207803
 10
182.5372296494
 20
77.4002755218
 10
182.4614613753
 20
77.3749140703
 10
182.3992799597
 20
77.3440110523
 10
182.3530749996
 20
77.3087540534
 10
182.3246221257
 20
77.2704979804
 10
182.3150147659
 20
77.2307129925
  0
ARC
  5
EA
330
1F
100
AcDbEntity
  8
0
  6
Continuous
 62
     7
370
    25
100
AcDbCircle
 10
161.766959846
 20
93.3814312098
 30
0.0
 40
0.4628040921140072
100
AcDbArc
 50
275.9600073901
 51
4.9206566719
  0
SPLINE
  5
EB
330
1F
100
AcDbEntity
  8
0
  6
Continuous
 62
     7
370
    25
100
AcDbSpline
210
0.0
220
0.0
230
1.0
 70
     8
 71
     3
 72
    10
 73
     6
 74
     0
 42
0.000000001
 43
0.00000001
 40
0.0
 40
0.0
 40
0.0
 40
0.0
 40
0.5
 40
0.5
 40
1.0
 40
1.0
 40
1.0
 40
1.0
 10
182.3150147658865
 20
91.92112875230752
 30
0.0
 10
182.3150147658865
 20
91.92112875230752
 30
0.0
 10
182.3378272185026
 20
91.92041552564447
 30
0.0
 10
182.4258878623386
 20
91.92631493731709
 30
0.0
 10
182.492682924523
 20
91.93318569256594
 30
0.0
 10
182.5768064791824
 20
91.95600435677626
 30
0.0
  0
SPLINE
  5
EC
330
1F
100
AcDbEntity
  8
0
  6
Continuous
 62
     7
370
    25
100
AcDbSpline
210
0.0
220
0.0
230
1.0
 70
     8
 71
     3
 72
    12
 73
     8
 74
     0
 42
0.000000001
 43
0.00000001
 40
0.0
 40
0.0
 40
0.0
 40
0.0
 40
0.2499999999999999
 40
0.2499999999999999
 40
0.4999999999999998
 40
0.4999999999999998
 40
1.0
 40
1.0
 40
1.0
 40
1.0
 10
182.5768064791824
 20
91.95600435677625
 30
0.0
 10
182.6379126301121
 20
91.97257950918032
 30
0.0
 10
182.6810089986853
 20
92.01302854694083
 30
0.0
 10
182.7431624822638
 20
92.09947624580764
 30
0.0
 10
182.763090042801
 20
92.1461163108129
 30
0.0
 10
182.8069267365878
 20
92.28183372196581
 30
0.0
 10
182.8137492393428
 20
92.3676460036333
 30
0.0
 10
182.815014765886
 20
92.44286751580832
 30
0.0
  0
SPLINE
  5
ED
330
1F
100
AcDbEntity
  8
0
  6
Continuous
 62
     7
370
    25
100
AcDbSpline
210
0.0
220
0.0
230
1.0
 70
     8
 71
     3
 72
    10
 73
     6
 74
     0
 42
0.000000001
 43
0.00000001
 40
0.0
 40
0.0
 40
0.0
 40
0.0
 40
0.5
 40
0.5
 40
1.0
 40
1.0
 40
1.0
 40
1.0
 10
181.3498903703552
 20
93.1829204656034
 30
0.0
 10
181.3270713127893
 20
93.09879546079486
 30
0.0
 10
181.3203252657324
 20
93.03325278521648
 30
0.0
 10
181.3142982850405
 20
92.94448523825352
 30
0.0
 10
181.3150147658864
 20
92.92112875230754
 30
0.0
 10
181.3150147658864
 20
92.92112875230752
 30
0.0
  0
SPLINE
  5
EE
330
1F
100
AcDbEntity
  8
0
  6
Continuous
 62
     7
370
    25
100
AcDbSpline
210
0.0
220
0.0
230
1.0
 70
     8
 71
     3
 72
    12
 73
     8
 74
     0
 42
0.000000001
 43
0.00000001
 40
0.0
 40
0.0
 40
0.0
 40
0.0
 40
0.5
 40
0.5
 40
0.75
 40
0.75
 40
1.0
 40
1.0
 40
1.0
 40
1.0
 10
181.8367535223535
 20
93.42112875292962
 30
0.0
 10
181.7610164197982
 20
93.41985455022369
 30
0.0
 10
181.6754656231445
 20
93.412956148629
 30
0.0
 10
181.540152624901
 20
93.36925382400536
 30
0.0
 10
181.4937382374471
 20
93.34946843880888
 30
0.0
 10
181.4072285202522
 20
93.28742643817394
 30
0.0
 10
181.3664879098556
 20
93.24410914906451
 30
0.0
 10
181.3498903703552
 20
93.1829204656034
 30
0.0
  0
ARC
  5
EF
330
1F
100
AcDbEntity
  8
0
  6
Continuous
 62
     7
370
    25
100
AcDbCircle
 10
182.7753172234
 20
72.3730738324
 30
0.0
 40
0.4628040921140271
100
AcDbArc
 50
85.0793433281
 51
174.0399926099
  0
LINE
  5
F0
330
1F
100
AcDbEntity
  8
0
  6
Continuous
 62
     7
370
    25
100
AcDbLine
 10
181.8150147659
 20
71.8776504914
 30
0.0
 11
181.8150147659
 21
71.9211287523
 31
0.0
  0
LINE
  5
F1
330
1F
100
AcDbEntity
  8
0
  6
Continuous
 62
     7
370
    25
100
AcDbLine
 10
161.3150147659
 20
92.4211287523
 30
0.0
 11
161.271536505
 21
92.4211287523
 31
0.0
  0
SPLINE
  5
F2
330
1F
100
AcDbEntity
  8
0
  6
Continuous
 62
     7
370
    25
100
AcDbSpline
210
0.0
220
0.0
230
1.0
 70
     8
 71
     3
 72
    18
 73
    14
 74
     0
 42
0.000000001
 43
0.00000001
 40
0.0
 40
0.0
 40
0.0
 40
0.0
 40
0.2500000000000008
 40
0.2500000000000008
 40
0.3750000000000006
 40
0.3750000000000006
 40
0.5000000000000003
 40
0.5000000000000003
 40
0.7499999999999999
 40
0.7499999999999999
 40
0.8749999999999999
 40
0.8749999999999999
 40
1.0
 40
1.0
 40
1.0
 40
1.0
 10
164.9334643624611
 20
71.89319638784555
 30
0.0
 10
164.4670492819562
 20
71.92998124959838
 30
0.0
 10
164.0196795138581
 20
72.04525549334387
 30
0.0
 10
163.3781670321819
 20
72.33834330230276
 30
0.0
 10
163.1720391724701
 20
72.45581197710074
 30
0.0
 10
162.787747645898
 20
72.72237999369077
 30
0.0
 10
162.607543184603
 20
72.87235414876415
 30
0.0
 10
162.1042468370722
 20
73.37454693450167
 30
0.0
 10
161.834721546401
 20
73.76212169308994
 30
0.0
 10
161.5391431510269
 20
74.40584691804735
 30
0.0
 10
161.4612183259514
 20
74.62565860530098
 30
0.0
 10
161.3444075575007
 20
75.07531482668186
 30
0.0
 10
161.3054785701471
 20
75.30632341446372
 30
0.0
 10
161.2870824014245
 20
75.53957834888212
 30
0.0
  0
SPLINE
  5
F3
330
1F
100
AcDbEntity
  8
0
  6
Continuous
 62
     7
370
    25
100
AcDbSpline
210
0.0
220
0.0
230
1.0
 70
     8
 71
     3
 72
     8
 73
     4
 74
     0
 42
0.000000001
 43
0.00000001
 40
0.0
 40
0.0
 40
0.0
 40
0.0
 40
1.0
 40
1.0
 40
1.0
 40
1.0
 10
161.2870278755526
 20
75.53968751346798
 30
0.0
 10
161.3159697602505
 20
75.55426300929308
 30
0.0
 10
161.3305371011403
 20
75.56883016060505
 30
0.0
 10
161.3294107869903
 20
75.58206987333905
 30
0.0
  0
SPLINE
  5
F4
330
1F
100
AcDbEntity
  8
0
  6
Continuous
 62
     7
370
    25
100
AcDbSpline
210
0.0
220
0.0
230
1.0
 70
     8
 71
     3
 72
     8
 73
     4
 74
     0
 42
0.000000001
 43
0.00000001
 40
0.0
 40
0.0
 40
0.0
 40
0.0
 40
1.0
 40
1.0
 40
1.0
 40
1.0
 10
164.9334643624611
 20
71.89319638784555
 30
0.0
 10
164.948001920113
 20
71.92211304249797
 30
0.0
 10
164.962526387779
 20
71.93666801389861
 30
0.0
 10
164.9757237512617
 20
71.93554452820753
 30
0.0
  0
LINE
  5
F5
330
1F
100
AcDbEntity
  8
0
  6
Continuous
 62
     7
370
    25
100
AcDbLine
 10
165.3150147659
 20
71.8776504914
 30
0.0
 11
165.3150147659
 21
71.9211287523
 31
0.0
  0
LINE
  5
F6
330
1F
100
AcDbEntity
  8
0
  6
Continuous
 62
     7
370
    25
100
AcDbLine
 10
161.271536505
 20
75.9211287523
 30
0.0
 11
161.3150147659
 21
75.9211287523
 31
0.0
  0
SPLINE
  5
F7
330
1F
100
AcDbEntity
  8
0
  6
Continuous
 62
     7
370
    25
100
AcDbSpline
210
0.0
220
0.0
230
1.0
 70
     8
 71
     3
 72
    10
 73
     6
 74
     0
 42
0.000000001
 43
0.00000001
 40
0.0
 40
0.0
 40
0.0
 40
0.0
 40
0.5
 40
0.5
 40
1.0
 40
1.0
 40
1.0
 40
1.0
 10
181.3601206825097
 20
92.87942611589656
 30
0.0
 10
181.3884707310655
 20
92.65386816813356
 30
0.0
 10
181.4971542319607
 20
92.43499873854014
 30
0.0
 10
181.8294394551401
 20
92.10291048961564
 30
0.0
 10
182.0477541822412
 20
91.9945847181877
 30
0.0
 10
182.2733121294755
 20
91.9662346689308
 30
0.0
  0
SPLINE
  5
F8
330
1F
100
AcDbEntity
  8
0
  6
Continuous
 62
     7
370
    25
100
AcDbSpline
210
0.0
220
0.0
230
1.0
 70
     8
 71
     3
 72
     8
 73
     4
 74
     0
 42
0.000000001
 43
0.00000001
 40
0.0
 40
0.0
 40
0.0
 40
0.0
 40
1.0
 40
1.0
 40
1.0
 40
1.0
 10
181.3150147658865
 20
92.92112875230752
 30
0.0
 10
181.3150147658865
 20
92.89324264379367
 30
0.0
 10
181.3161791674798
 20
92.86546602356742
 30
0.0
 10
181.3184928507132
 20
92.8377976501948
 30
0.0
  0
LINE
  5
F9
330
1F
100
AcDbEntity
  8
0
  6
Continuous
 62
     8
370
    25
100
AcDbLine
 10
158.0650147659
 20
99.9528829158
 30
0.0
 11
184.5650147659
 21
99.9528829158
 31
0.0
  0
LINE
  5
FA
330
1F
100
AcDbEntity
  8
0
  6
Continuous
 62
     8
370
    25
100
AcDbLine
 10
189.3467689293
 20
95.1711287523
 30
0.0
 11
189.3467689293
 21
68.6711287523
 31
0.0
  0
LINE
  5
FB
330
1F
100
AcDbEntity
  8
0
  6
Continuous
 62
     8
370
    25
100
AcDbLine
 10
186.4420314197
 20
81.9211287523
 30
0.0
 11
186.4420314197
 21
92.9211287523
 31
0.0
  0
LINE
  5
FC
330
1F
100
AcDbEntity
  8
0
  6
Continuous
 62
     8
370
    25
100
AcDbLine
 10
186.4420314197
 20
70.9211287523
 30
0.0
 11
186.4420314197
 21
81.9211287523
 31
0.0
  0
LINE
  5
FD
330
1F
100
AcDbEntity
  8
0
  6
Continuous
 62
     8
370
    25
100
AcDbLine
 10
182.3150147659
 20
97.0481454061
 30
0.0
 11
160.3150147659
 21
97.0481454061
 31
0.0
  0
SPLINE
  5
FE
330
1F
100
AcDbEntity
  8
0
  6
Continuous
 62
     8
370
    25
100
AcDbSpline
210
0.0
220
0.0
230
1.0
 70
    24
 71
     3
 72
    10
 73
     6
 74
     0
 42
0.000000001
 43
0.00000001
 40
0.0
 40
0.0
 40
0.0
 40
0.0
 40
0.2169967701183235
 40
0.2169967701183235
 40
0.4197141586735273
 40
0.4197141586735273
 40
0.4197141586735273
 40
0.4197141586735273
 10
182.2732283278519
 20
91.96615785077587
 30
0.0
 10
182.6267595651725
 20
92.29022815165303
 30
0.0
 10
182.8945385298156
 20
92.5356922025759
 30
0.0
 10
183.2325457843993
 20
92.84553218594431
 30
0.0
 10
183.315014765886
 20
92.92112875230715
 30
0.0
 10
183.3150147658865
 20
92.92112875230752
 30
0.0
  0
SPLINE
  5
FF
330
1F
100
AcDbEntity
  8
0
  6
Continuous
 62
     8
370
    25
100
AcDbSpline
210
0.0
220
0.0
230
1.0
 70
     8
 71
     3
 72
    10
 73
     6
 74
     0
 42
0.000000001
 43
0.00000001
 40
-0.4235250761411895
 40
-0.4235250761411895
 40
-0.4235250761411895
 40
-0.4235250761411895
 40
-0.2113930417852252
 40
-0.2113930417852252
 40
0.0
 40
0.0
 40
0.0
 40
0.0
 10
164.3148627508048
 20
70.92112875523344
 30
0.0
 10
164.3148627508048
 20
70.92112875523344
 30
0.0
 10
164.3675614278942
 20
71.0039391517043
 30
0.0
 10
164.575636453326
 20
71.330907192444
 30
0.0
 10
164.7308909218908
 20
71.57487335004771
 30
0.0
 10
164.9335226737611
 20
71.8932880179729
 30
0.0
  0
SPLINE
  5
100
330
1F
100
AcDbEntity
  8
0
  6
Continuous
 62
     8
370
    25
100
AcDbSpline
210
0.0
220
0.0
230
1.0
 70
    24
 71
     3
 72
    10
 73
     6
 74
     0
 42
0.000000001
 43
0.00000001
 40
0.0
 40
0.0
 40
0.0
 40
0.0
 40
0.2027173885552038
 40
0.2027173885552038
 40
0.4197141589608902
 40
0.4197141589608902
 40
0.4197141589608902
 40
0.4197141589608902
 10
182.3150147658865
 20
93.92112875230752
 30
0.0
 10
182.3150147658861
 20
93.92112875230711
 30
0.0
 10
182.2394181995232
 20
93.83865977082037
 30
0.0
 10
181.9295782159427
 20
93.50065251600525
 30
0.0
 10
181.6841141645818
 20
93.2328735508843
 30
0.0
 10
181.3600438630673
 20
92.87934231286849
 30
0.0
  0
SPLINE
  5
101
330
1F
100
AcDbEntity
  8
0
  6
Continuous
 62
     8
370
    25
100
AcDbSpline
210
0.0
220
0.0
230
1.0
 70
     8
 71
     3
 72
    10
 73
     6
 74
     0
 42
0.000000001
 43
0.00000001
 40
-0.4235250761148888
 40
-0.4235250761148888
 40
-0.4235250761148888
 40
-0.4235250761148888
 40
-0.2121320343559643
 40
-0.2121320343559643
 40
0.0
 40
0.0
 40
0.0
 40
0.0
 10
161.287174031433
 20
75.53963666010651
 30
0.0
 10
160.9687593635659
 20
75.33700490827319
 30
0.0
 10
160.7247932060026
 20
75.18175043973413
 30
0.0
 10
160.3978251652832
 20
74.97367541431527
 30
0.0
 10
160.3150147688124
 20
74.9209767372259
 30
0.0
 10
160.3150147688124
 20
74.9209767372259
 30
0.0
  0
LINE
  5
102
330
1F
100
AcDbEntity
  8
0
  6
Continuous
 62
     7
370
    18
100
AcDbLine
 10
204.292308806
 20
69.8306691911
 30
0.0
 11
189.4150147659
 21
69.3657537523
 31
0.0
  0
LINE
  5
103
330
1F
100
AcDbEntity
  8
0
  6
Continuous
 62
     7
370
    18
100
AcDbLine
 10
204.292308806
 20
94.0115883136
 30
0.0
 11
189.4150147659
 21
94.4765037523
 31
0.0
  0
LINE
  5
104
330
1F
100
AcDbEntity
  8
0
  6
Continuous
 62
     7
370
    18
100
AcDbLine
 10
189.4150147659
 20
95.3406912523
 30
0.0
 11
189.4150147659
 21
68.5015662523
 31
0.0
  0
LINE
  5
105
330
1F
100
AcDbEntity
  8
0
  6
Continuous
 62
     7
370
    18
100
AcDbLine
 10
183.4054743271
 20
114.8984227924
 30
0.0
 11
183.8703897659
 21
100.0211287523
 31
0.0
  0
LINE
  5
106
330
1F
100
AcDbEntity
  8
0
  6
Continuous
 62
     7
370
    18
100
AcDbLine
 10
159.2245552046
 20
114.8984227924
 30
0.0
 11
158.7596397659
 21
100.0211287523
 31
0.0
  0
LINE
  5
107
330
1F
100
AcDbEntity
  8
0
  6
Continuous
 62
     7
370
    18
100
AcDbLine
 10
157.8954522659
 20
100.0211287523
 30
0.0
 11
184.7345772659
 21
100.0211287523
 31
0.0
  0
LINE
  5
108
330
1F
100
AcDbEntity
  8
0
  6
CENTERX2
 62
     7
370
    18
100
AcDbLine
 10
171.3150147659
 20
67.4037009648
 30
0.0
 11
171.3150147659
 21
117.9211287523
 31
0.0
  0
LINE
  5
109
330
1F
100
AcDbEntity
  8
0
  6
CENTERX2
 62
     7
370
    18
100
AcDbLine
 10
202.7098384269
 20
81.9211287523
 30
0.0
 11
156.9837193489
 21
81.9211287523
 31
0.0
  0
LINE
  5
10A
330
1F
100
AcDbEntity
  8
0
  6
CENTERX2
 62
     7
370
    18
100
AcDbLine
 10
202.7098384269
 20
81.9211287523
 30
0.0
 11
207.3150147659
 21
81.9211287523
 31
0.0
  0
LINE
  5
10B
330
1F
100
AcDbEntity
  8
0
  6
Continuous
 62
     7
370
    25
100
AcDbLine
 10
250.4518029889
 20
100.0135123522
 30
0.0
 11
250.036101737
 21
113.3159524133
 31
0.0
  0
LINE
  5
10C
330
1F
100
AcDbEntity
  8
0
  6
Continuous
 62
     7
370
    25
100
AcDbLine
 10
224.0279032158
 20
113.3159524133
 30
0.0
 11
223.6122019639
 21
100.0135123522
 31
0.0
  0
ARC
  5
10D
330
1F
100
AcDbEntity
  8
0
  6
Continuous
 62
     7
370
    25
100
AcDbCircle
 10
224.0320024764
 20
100.9211287523
 30
0.0
 40
1.00000000000001
100
AcDbArc
 50
245.1780063469
 51
255.5224878141
  0
ARC
  5
10E
330
1F
100
AcDbEntity
  8
0
  6
Continuous
 62
     7
370
    25
100
AcDbCircle
 10
250.0320024764
 20
100.9211287523
 30
0.0
 40
1.000000000000022
100
AcDbArc
 50
284.4775121859
 51
294.8219936531
  0
ARC
  5
10F
330
1F
100
AcDbEntity
  8
0
  6
Continuous
 62
     7
370
    25
100
AcDbCircle
 10
223.0320024764
 20
97.0481454061
 30
0.0
 40
3.0
100
AcDbArc
 50
0.0
 51
75.5224878141
  0
ARC
  5
110
330
1F
100
AcDbEntity
  8
0
  6
Continuous
 62
     7
370
    25
100
AcDbCircle
 10
251.0320024764
 20
97.0481454061
 30
0.0
 40
2.999999999999992
100
AcDbArc
 50
104.4775121859
 51
180.0
  0
LINE
  5
111
330
1F
100
AcDbEntity
  8
0
  6
Continuous
 62
     7
370
    25
100
AcDbLine
 10
250.036101737
 20
113.3159524133
 30
0.0
 11
248.5320024764
 21
115.9211287523
 31
0.0
  0
LINE
  5
112
330
1F
100
AcDbEntity
  8
0
  6
Continuous
 62
     7
370
    25
100
AcDbLine
 10
225.5320024764
 20
115.9211287523
 30
0.0
 11
224.0279032158
 21
113.3159524133
 31
0.0
  0
LINE
  5
113
330
1F
100
AcDbEntity
  8
0
  6
Continuous
 62
     7
370
    25
100
AcDbLine
 10
248.0320024764
 20
92.9211287523
 30
0.0
 11
248.0320024764
 21
97.0481454061
 31
0.0
  0
LINE
  5
114
330
1F
100
AcDbEntity
  8
0
  6
Continuous
 62
     7
370
    25
100
AcDbLine
 10
226.0320024764
 20
97.0481454061
 30
0.0
 11
226.0320024764
 21
92.9211287523
 31
0.0
  0
CIRCLE
  5
115
330
1F
100
AcDbEntity
  8
0
  6
Continuous
 62
     7
370
    25
100
AcDbCircle
 10
237.0320024764
 20
81.9211287523
 30
0.0
 40
10.375
  0
CIRCLE
  5
116
330
1F
100
AcDbEntity
  8
0
  6
Continuous
 62
     7
370
    25
100
AcDbCircle
 10
237.0320024764
 20
81.9211287523
 30
0.0
 40
10.25000000000003
  0
CIRCLE
  5
117
330
1F
100
AcDbEntity
  8
0
  6
Continuous
 62
     7
370
    25
100
AcDbCircle
 10
237.0320024764
 20
81.9211287523
 30
0.0
 40
10.125
  0
CIRCLE
  5
118
330
1F
100
AcDbEntity
  8
0
  6
Continuous
 62
     7
370
    25
100
AcDbCircle
 10
237.0320024764
 20
81.9211287523
 30
0.0
 40
9.0
  0
CIRCLE
  5
119
330
1F
100
AcDbEntity
  8
0
  6
Continuous
 62
     7
370
    25
100
AcDbCircle
 10
237.0320024764
 20
81.9211287523
 30
0.0
 40
11.50000000000003
  0
CIRCLE
  5
11A
330
1F
100
AcDbEntity
  8
0
  6
Continuous
 62
     7
370
    25
100
AcDbCircle
 10
237.0320024764
 20
81.9211287523
 30
0.0
 40
8.5
  0
CIRCLE
  5
11B
330
1F
100
AcDbEntity
  8
0
  6
Continuous
 62
     7
370
    25
100
AcDbCircle
 10
237.0320024764
 20
81.9211287523
 30
0.0
 40
13.00409926059291
  0
CIRCLE
  5
11C
330
1F
100
AcDbEntity
  8
0
  6
Continuous
 62
     7
370
    25
100
AcDbCircle
 10
237.0320024764
 20
81.9211287523
 30
0.0
 40
13.41980051250195
  0
LINE
  5
11D
330
1F
100
AcDbEntity
  8
0
  6
Continuous
 62
     7
370
    25
100
AcDbLine
 10
237.0320024764
 20
100.0135123522
 30
0.0
 11
223.6122019639
 21
100.0135123522
 31
0.0
  0
LINE
  5
11E
330
1F
100
AcDbEntity
  8
0
  6
Continuous
 62
     7
370
    25
100
AcDbLine
 10
250.4518029889
 20
100.0135123522
 30
0.0
 11
237.0320024764
 21
100.0135123522
 31
0.0
  0
LINE
  5
11F
330
1F
100
AcDbEntity
  8
0
  6
Continuous
 62
     7
370
    25
100
AcDbLine
 10
224.0279032158
 20
113.3159524133
 30
0.0
 11
250.036101737
 21
113.3159524133
 31
0.0
  0
LINE
  5
120
330
1F
100
AcDbEntity
  8
0
  6
Continuous
 62
     7
370
    25
100
AcDbLine
 10
248.5320024764
 20
115.9211287523
 30
0.0
 11
225.5320024764
 21
115.9211287523
 31
0.0
  0
LINE
  5
121
330
1F
100
AcDbEntity
  8
0
  6
Continuous
 62
     7
370
    25
100
AcDbLine
 10
228.082642399
 20
91.9211287523
 30
0.0
 11
226.5320024764
 21
91.9211287523
 31
0.0
  0
LINE
  5
122
330
1F
100
AcDbEntity
  8
0
  6
Continuous
 62
     7
370
    25
100
AcDbLine
 10
226.5320024764
 20
92.9211287523
 30
0.0
 11
226.5320024764
 21
91.9211287523
 31
0.0
  0
LINE
  5
123
330
1F
100
AcDbEntity
  8
0
  6
Continuous
 62
     7
370
    25
100
AcDbLine
 10
229.3449324367
 20
92.9211287523
 30
0.0
 11
226.5320024764
 21
92.9211287523
 31
0.0
  0
SPLINE
  5
124
330
1F
100
AcDbEntity
  8
0
  6
Continuous
 62
     7
370
    25
100
AcDbSpline
210
0.0
220
0.0
230
1.0
 70
     8
 71
     3
 72
    12
 73
     8
 74
     0
 42
0.000000001
 43
0.00000001
 40
0.0
 40
0.0
 40
0.0
 40
0.0
 40
0.25
 40
0.25
 40
0.5
 40
0.5
 40
1.0
 40
1.0
 40
1.0
 40
1.0
 10
247.5754583258117
 20
93.27364308826341
 30
0.0
 10
247.6503804670395
 20
93.22561787105165
 30
0.0
 10
247.716543921909
 20
93.18893360101788
 30
0.0
 10
247.8304984492651
 20
93.12295970852038
 30
0.0
 10
247.8783542548391
 20
93.09420807588911
 30
0.0
 10
247.9934095483707
 20
93.01365317715124
 30
0.0
 10
248.0320024764406
 20
92.96752169702009
 30
0.0
 10
248.0320024764406
 20
92.92112875230752
 30
0.0
  0
SPLINE
  5
125
330
1F
100
AcDbEntity
  8
0
  6
Continuous
 62
     7
370
    25
100
AcDbSpline
210
0.0
220
0.0
230
1.0
 70
     8
 71
     3
 72
     8
 73
     4
 74
     0
 42
0.000000001
 43
0.00000001
 40
0.0
 40
0.0
 40
0.0
 40
0.0
 40
1.0
 40
1.0
 40
1.0
 40
1.0
 10
247.0754807373101
 20
93.42112875230752
 30
0.0
 10
247.2737210691248
 20
93.42112875230752
 30
0.0
 10
247.4394349979024
 20
93.36083426782191
 30
0.0
 10
247.5754583258117
 20
93.27364308826341
 30
0.0
  0
SPLINE
  5
126
330
1F
100
AcDbEntity
  8
0
  6
Continuous
 62
     7
370
    25
100
AcDbSpline
210
0.0
220
0.0
230
1.0
 70
     8
 71
     3
 72
     8
 73
     4
 74
     0
 42
0.000000001
 43
0.00000001
 40
0.0
 40
0.0
 40
0.0
 40
0.0
 40
1.0
 40
1.0
 40
1.0
 40
1.0
 10
226.4885466270695
 20
93.27364308826343
 30
0.0
 10
226.6245699549787
 20
93.36083426782193
 30
0.0
 10
226.7902838837563
 20
93.42112875230752
 30
0.0
 10
226.988524215571
 20
93.42112875230752
 30
0.0
  0
SPLINE
  5
127
330
1F
100
AcDbEntity
  8
0
  6
Continuous
 62
     7
370
    25
100
AcDbSpline
210
0.0
220
0.0
230
1.0
 70
     8
 71
     3
 72
    12
 73
     8
 74
     0
 42
0.000000001
 43
0.00000001
 40
0.0
 40
0.0
 40
0.0
 40
0.0
 40
0.25
 40
0.25
 40
0.5
 40
0.5
 40
1.0
 40
1.0
 40
1.0
 40
1.0
 10
226.4885466270695
 20
93.27364308826343
 30
0.0
 10
226.4135983495317
 20
93.22560111763353
 30
0.0
 10
226.3474148944289
 20
93.1889074749899
 30
0.0
 10
226.2334333890042
 20
93.12291679356518
 30
0.0
 10
226.1855519520274
 20
93.09414330538824
 30
0.0
 10
226.0706284861134
 20
93.01366759837754
 30
0.0
 10
226.0320024764405
 20
92.96753789513426
 30
0.0
 10
226.0320024764405
 20
92.92112875230752
 30
0.0
  0
LINE
  5
128
330
1F
100
AcDbEntity
  8
0
  6
Continuous
 62
     7
370
    25
100
AcDbLine
 10
247.5320024764
 20
91.5069151899
 30
0.0
 11
247.5320024764
 21
91.9783197107
 31
0.0
  0
SPLINE
  5
129
330
1F
100
AcDbEntity
  8
0
  6
Continuous
 62
     7
370
    25
100
AcDbSpline
210
0.0
220
0.0
230
1.0
 70
     8
 71
     3
 72
    12
 73
     8
 74
     0
 42
0.000000001
 43
0.00000001
 40
0.0
 40
0.0
 40
0.0
 40
0.0
 40
0.2499999999999999
 40
0.2499999999999999
 40
0.4999999999999999
 40
0.4999999999999999
 40
1.0
 40
1.0
 40
1.0
 40
1.0
 10
226.5320024764405
 20
92.92112875230752
 30
0.0
 10
226.4558166313023
 20
92.92112875230752
 30
0.0
 10
226.3824422864852
 20
92.9033014566112
 30
0.0
 10
226.256268783284
 20
92.8440113573568
 30
0.0
 10
226.2035418603883
 20
92.80341384599369
 30
0.0
 10
226.0758974320601
 20
92.66212930230472
 30
0.0
 10
226.0320024764405
 20
92.54329081311855
 30
0.0
 10
226.0320024764405
 20
92.42112875230752
 30
0.0
  0
SPLINE
  5
12A
330
1F
100
AcDbEntity
  8
0
  6
Continuous
 62
     7
370
    25
100
AcDbSpline
210
0.0
220
0.0
230
1.0
 70
     8
 71
     3
 72
    12
 73
     8
 74
     0
 42
0.000000001
 43
0.00000001
 40
0.0
 40
0.0
 40
0.0
 40
0.0
 40
0.2499999999999993
 40
0.2499999999999993
 40
0.4999999999999987
 40
0.4999999999999987
 40
1.0
 40
1.0
 40
1.0
 40
1.0
 10
226.5320024764405
 20
91.92112875230752
 30
0.0
 10
226.4558166313023
 20
91.92112875230752
 30
0.0
 10
226.3824422864852
 20
91.90306332441654
 30
0.0
 10
226.256268783284
 20
91.84640208288137
 30
0.0
 10
226.2035418603883
 20
91.80887972335921
 30
0.0
 10
226.0758974320601
 20
91.68635295926623
 30
0.0
 10
226.0320024764405
 20
91.59337815076974
 30
0.0
 10
226.0320024764405
 20
91.50691518993443
 30
0.0
  0
LINE
  5
12B
330
1F
100
AcDbEntity
  8
0
  6
Continuous
 62
     7
370
    25
100
AcDbLine
 10
226.0320024764
 20
91.5069151899
 30
0.0
 11
226.0320024764
 21
92.4211287523
 31
0.0
  0
ARC
  5
12C
330
1F
100
AcDbEntity
  8
0
  6
Continuous
 62
     7
370
    25
100
AcDbCircle
 10
247.5458913653
 20
91.4921837987
 30
0.0
 40
0.4863342741722325
100
AcDbArc
 50
1.7357930889
 51
91.6364935946
  0
LINE
  5
12D
330
1F
100
AcDbEntity
  8
0
  6
Continuous
 62
     7
370
    25
100
AcDbLine
 10
248.0320024764
 20
91.5069151899
 30
0.0
 11
247.5320024764
 21
91.5069151899
 31
0.0
  0
LINE
  5
12E
330
1F
100
AcDbEntity
  8
0
  6
Continuous
 62
     7
370
    25
100
AcDbLine
 10
226.0320024764
 20
89.608198792
 30
0.0
 11
226.0320024764
 21
91.5069151899
 31
0.0
  0
LINE
  5
12F
330
1F
100
AcDbEntity
  8
0
  6
Continuous
 62
     7
370
    25
100
AcDbLine
 10
248.0320024764
 20
91.5069151899
 30
0.0
 11
248.0320024764
 21
89.608198792
 31
0.0
  0
LINE
  5
130
330
1F
100
AcDbEntity
  8
0
  6
Continuous
 62
     7
370
    25
100
AcDbLine
 10
247.5320024764
 20
72.4211287523
 30
0.0
 11
248.0320024764
 21
72.4211287523
 31
0.0
  0
LINE
  5
131
330
1F
100
AcDbEntity
  8
0
  6
Continuous
 62
     7
370
    25
100
AcDbLine
 10
248.0320024764
 20
74.2340587126
 30
0.0
 11
248.0320024764
 21
72.4211287523
 31
0.0
  0
LINE
  5
132
330
1F
100
AcDbEntity
  8
0
  6
Continuous
 62
     7
370
    25
100
AcDbLine
 10
226.0320024764
 20
72.4211287523
 30
0.0
 11
226.5320024764
 21
72.4211287523
 31
0.0
  0
LINE
  5
133
330
1F
100
AcDbEntity
  8
0
  6
Continuous
 62
     7
370
    25
100
AcDbLine
 10
226.0320024764
 20
72.4211287523
 30
0.0
 11
226.0320024764
 21
74.2340587126
 31
0.0
  0
ARC
  5
134
330
1F
100
AcDbEntity
  8
0
  6
Continuous
 62
     7
370
    25
100
AcDbCircle
 10
247.5320024764
 20
72.4211287523
 30
0.0
 40
0.5
100
AcDbArc
 50
270.0
 51
0.0
  0
LINE
  5
135
330
1F
100
AcDbEntity
  8
0
  6
Continuous
 62
     7
370
    25
100
AcDbLine
 10
247.5320024764
 20
72.4211287523
 30
0.0
 11
247.5320024764
 21
71.9211287523
 31
0.0
  0
LINE
  5
136
330
1F
100
AcDbEntity
  8
0
  6
Continuous
 62
     7
370
    25
100
AcDbLine
 10
226.5320024764
 20
72.4211287523
 30
0.0
 11
226.5320024764
 21
71.9211287523
 31
0.0
  0
ARC
  5
137
330
1F
100
AcDbEntity
  8
0
  6
Continuous
 62
     7
370
    25
100
AcDbCircle
 10
226.5320024764
 20
72.4211287523
 30
0.0
 40
0.5
100
AcDbArc
 50
180.0
 51
270.0
  0
LINE
  5
138
330
1F
100
AcDbEntity
  8
0
  6
Continuous
 62
     7
370
    25
100
AcDbLine
 10
247.5320024764
 20
71.9211287523
 30
0.0
 11
245.9813625539
 21
71.9211287523
 31
0.0
  0
LINE
  5
139
330
1F
100
AcDbEntity
  8
0
  6
Continuous
 62
     7
370
    25
100
AcDbLine
 10
228.082642399
 20
71.9211287523
 30
0.0
 11
226.5320024764
 21
71.9211287523
 31
0.0
  0
LINE
  5
13A
330
1F
100
AcDbEntity
  8
0
  6
Continuous
 62
     7
370
    25
100
AcDbLine
 10
247.5320024764
 20
92.9211287523
 30
0.0
 11
244.7190725161
 21
92.9211287523
 31
0.0
  0
LINE
  5
13B
330
1F
100
AcDbEntity
  8
0
  6
Continuous
 62
     7
370
    25
100
AcDbLine
 10
247.5320024764
 20
91.9783197107
 30
0.0
 11
247.5320024764
 21
92.9211287523
 31
0.0
  0
SPLINE
  5
13C
330
1F
100
AcDbEntity
  8
0
  6
Continuous
 62
     7
370
    25
100
AcDbSpline
210
0.0
220
0.0
230
1.0
 70
     8
 71
     3
 72
    12
 73
     8
 74
     0
 42
0.000000001
 43
0.00000001
 40
0.0
 40
0.0
 40
0.0
 40
0.0
 40
0.2499999999999999
 40
0.2499999999999999
 40
0.4999999999999999
 40
0.4999999999999999
 40
1.0
 40
1.0
 40
1.0
 40
1.0
 10
247.5320024764406
 20
92.92112875230752
 30
0.0
 10
247.6081883215788
 20
92.92112875230752
 30
0.0
 10
247.6815626663959
 20
92.9033014566112
 30
0.0
 10
247.8077361695971
 20
92.8440113573568
 30
0.0
 10
247.8604630924928
 20
92.80341384599369
 30
0.0
 10
247.988107520821
 20
92.66212930230472
 30
0.0
 10
248.0320024764406
 20
92.54329081311855
 30
0.0
 10
248.0320024764406
 20
92.42112875230752
 30
0.0
  0
LINE
  5
13D
330
1F
100
AcDbEntity
  8
0
  6
Continuous
 62
     7
370
    25
100
AcDbLine
 10
248.0320024764
 20
92.4211287523
 30
0.0
 11
248.0320024764
 21
91.5069151899
 31
0.0
  0
ARC
  5
13E
330
1F
100
AcDbEntity
  8
0
  6
Continuous
 62
     7
370
    25
100
AcDbCircle
 10
226.5092281493
 20
93.4003348015
 30
0.0
 40
0.4797469202790137
100
AcDbArc
 50
272.7209417438
 51
2.4841826612
  0
ARC
  5
13F
330
1F
100
AcDbEntity
  8
0
  6
Continuous
 62
     7
370
    25
100
AcDbCircle
 10
247.5547768036
 20
93.4003348015
 30
0.0
 40
0.4797469202790402
100
AcDbArc
 50
177.5158173388
 51
267.2790582562
  0
SPLINE
  5
140
330
1F
100
AcDbEntity
  8
0
  6
Continuous
 62
     7
370
    25
100
AcDbSpline
210
0.0
220
0.0
230
1.0
 70
     8
 71
     3
 72
     8
 73
     4
 74
     0
 42
0.000000001
 43
0.00000001
 40
0.0
 40
0.0
 40
0.0
 40
0.0
 40
1.0
 40
1.0
 40
1.0
 40
1.0
 10
245.4729739845076
 20
82.9211287523075
 30
0.0
 10
245.4670113367939
 20
82.25946457636422
 30
0.0
 10
245.4669204891305
 20
81.59287412828624
 30
0.0
 10
245.4729739845076
 20
80.92112875230757
 30
0.0
  0
LINE
  5
141
330
1F
100
AcDbEntity
  8
0
  6
Continuous
 62
     7
370
    25
100
AcDbLine
 10
245.4729739845
 20
80.9211287523
 30
0.0
 11
228.5910309684
 21
80.9211287523
 31
0.0
  0
ARC
  5
142
330
1F
100
AcDbEntity
  8
0
  6
Continuous
 62
     7
370
    25
100
AcDbCircle
 10
248.0426559255
 20
93.2436461407
 30
0.0
 40
0.4681596031693941
100
AcDbArc
 50
176.3263026515
 51
237.8245286087
  0
ARC
  5
143
330
1F
100
AcDbEntity
  8
0
  6
Continuous
 62
     7
370
    25
100
AcDbCircle
 10
226.0213490274
 20
93.2436461407
 30
0.0
 40
0.4681596031696114
100
AcDbArc
 50
302.1754713914
 51
3.6736973485
  0
SPLINE
  5
144
330
1F
100
AcDbEntity
  8
0
  6
Continuous
 62
     7
370
    25
100
AcDbSpline
210
0.0
220
0.0
230
1.0
 70
     8
 71
     3
 72
    12
 73
     8
 74
     0
 42
0.000000001
 43
0.00000001
 40
0.0
 40
0.0
 40
0.0
 40
0.0
 40
0.2499999999999999
 40
0.2499999999999999
 40
0.4999999999999998
 40
0.4999999999999998
 40
1.0
 40
1.0
 40
1.0
 40
1.0
 10
247.7933543977027
 20
92.84738592028548
 30
0.0
 10
247.8303978087824
 20
92.82467341857742
 30
0.0
 10
247.8646107100692
 20
92.81716089874791
 30
0.0
 10
247.9241428649282
 20
92.81560482404744
 30
0.0
 10
247.9495435959501
 20
92.82203166588843
 30
0.0
 10
248.010902227679
 20
92.85225666618926
 30
0.0
 10
248.0320024764406
 20
92.88695218730619
 30
0.0
 10
248.0320024764406
 20
92.92112875230752
 30
0.0
  0
SPLINE
  5
145
330
1F
100
AcDbEntity
  8
0
  6
Continuous
 62
     7
370
    25
100
AcDbSpline
210
0.0
220
0.0
230
1.0
 70
    24
 71
     3
 72
    12
 73
     8
 74
     0
 42
0.000000001
 43
0.00000001
 40
0.0
 40
0.0
 40
0.0
 40
0.0
 40
0.2500000000000001
 40
0.2500000000000001
 40
0.5000000000000001
 40
0.5000000000000001
 40
1.0
 40
1.0
 40
1.0
 40
1.0
 10
248.0320024764406
 20
92.42112875230752
 30
0.0
 10
248.0320024764406
 20
92.42112875230752
 30
0.0
 10
248.0320024764406
 20
92.44085169771546
 30
0.0
 10
248.0320024764406
 20
92.50148816247672
 30
0.0
 10
248.0320024764406
 20
92.54274470816506
 30
0.0
 10
248.0320024764406
 20
92.68451801783714
 30
0.0
 10
248.0320024764406
 20
92.80308506299748
 30
0.0
 10
248.0320024764406
 20
92.92112875230752
 30
0.0
  0
SPLINE
  5
146
330
1F
100
AcDbEntity
  8
0
  6
Continuous
 62
     7
370
    25
100
AcDbSpline
210
0.0
220
0.0
230
1.0
 70
     8
 71
     3
 72
    12
 73
     8
 74
     0
 42
0.000000001
 43
0.00000001
 40
0.0
 40
0.0
 40
0.0
 40
0.0
 40
0.2500000000000001
 40
0.2500000000000001
 40
0.5000000000000001
 40
0.5000000000000001
 40
1.0
 40
1.0
 40
1.0
 40
1.0
 10
226.2706505551784
 20
92.84738592028548
 30
0.0
 10
226.2336071440987
 20
92.82467341857742
 30
0.0
 10
226.1993942428119
 20
92.81716089874791
 30
0.0
 10
226.1398620879529
 20
92.81560482404744
 30
0.0
 10
226.114461356931
 20
92.82203166588842
 30
0.0
 10
226.0531027252021
 20
92.85225666618923
 30
0.0
 10
226.0320024764405
 20
92.88695218730633
 30
0.0
 10
226.0320024764405
 20
92.92112875230752
 30
0.0
  0
SPLINE
  5
147
330
1F
100
AcDbEntity
  8
0
  6
Continuous
 62
     7
370
    25
100
AcDbSpline
210
0.0
220
0.0
230
1.0
 70
    24
 71
     3
 72
    12
 73
     8
 74
     0
 42
0.000000001
 43
0.00000001
 40
0.0
 40
0.0
 40
0.0
 40
0.0
 40
0.2500000000000001
 40
0.2500000000000001
 40
0.5000000000000001
 40
0.5000000000000001
 40
1.0
 40
1.0
 40
1.0
 40
1.0
 10
226.0320024764405
 20
92.42112875230752
 30
0.0
 10
226.0320024764405
 20
92.42112875230752
 30
0.0
 10
226.0320024764405
 20
92.44085169771546
 30
0.0
 10
226.0320024764405
 20
92.50148816247672
 30
0.0
 10
226.0320024764405
 20
92.54274470816506
 30
0.0
 10
226.0320024764405
 20
92.68451801783714
 30
0.0
 10
226.0320024764405
 20
92.80308506299748
 30
0.0
 10
226.0320024764405
 20
92.92112875230752
 30
0.0
  0
SPLINE
  5
148
330
1F
100
AcDbEntity
  8
0
  6
Continuous
 62
     7
370
    25
100
AcDbSpline
210
0.0
220
0.0
230
1.0
 70
     8
 71
     3
 72
    28
 73
    24
 74
     0
 42
0.000000001
 43
0.00000001
 40
0.0
 40
0.0
 40
0.0
 40
0.0
 40
0.1250000000000001
 40
0.1250000000000001
 40
0.2500000000000001
 40
0.2500000000000001
 40
0.3750000000000002
 40
0.3750000000000002
 40
0.4375000000000001
 40
0.4375000000000001
 40
0.5000000000000001
 40
0.5000000000000001
 40
0.5625000000000001
 40
0.5625000000000001
 40
0.6250000000000001
 40
0.6250000000000001
 40
0.6875000000000002
 40
0.6875000000000002
 40
0.7500000000000002
 40
0.7500000000000002
 40
0.8750000000000001
 40
0.8750000000000001
 40
1.0
 40
1.0
 40
1.0
 40
1.0
 10
245.4729739845076
 20
80.92112875230754
 30
0.0
 10
244.849485572609
 20
80.57366292553553
 30
0.0
 10
244.2155305761253
 20
80.23713214649021
 30
0.0
 10
242.9125751127316
 20
79.60068462315009
 30
0.0
 10
242.2439738821892
 20
79.30035077347586
 30
0.0
 10
240.844018893151
 20
78.76524427822082
 30
0.0
 10
240.1222585855157
 20
78.53422816751817
 30
0.0
 10
238.9887811495809
 20
78.2852471939163
 30
0.0
 10
238.5988467259578
 20
78.2183794696235
 30
0.0
 10
237.8141304919193
 20
78.12875794655874
 30
0.0
 10
237.4207160441973
 20
78.10588478883979
 30
0.0
 10
236.6316626610036
 20
78.10633606172276
 30
0.0
 10
236.2334803268872
 20
78.12999221923995
 30
0.0
 10
235.4466138917218
 20
78.2211644591985
 30
0.0
 10
235.0627793978153
 20
78.28763450166035
 30
0.0
 10
234.310302123825
 20
78.45362716571383
 30
0.0
 10
233.9416509983815
 20
78.55313163032403
 30
0.0
 10
233.2161161782353
 20
78.77774293332867
 30
0.0
 10
232.8584729418414
 20
78.9032077500066
 30
0.0
 10
231.8127250941095
 20
79.3035892381523
 30
0.0
 10
231.1460731041675
 20
79.60319558977189
 30
0.0
 10
229.8462835710239
 20
80.23830850136152
 30
0.0
 10
229.213522590274
 20
80.57421842978259
 30
0.0
 10
228.5910309683735
 20
80.92112875230752
 30
0.0
  0
LINE
  5
149
330
1F
100
AcDbEntity
  8
0
  6
Continuous
 62
     8
370
    25
100
AcDbLine
 10
237.0320024764
 20
99.9528829158
 30
0.0
 11
250.2820024764
 21
99.9528829158
 31
0.0
  0
LINE
  5
14A
330
1F
100
AcDbEntity
  8
0
  6
Continuous
 62
     8
370
    25
100
AcDbLine
 10
223.7820024764
 20
99.9528829158
 30
0.0
 11
237.0320024764
 21
99.9528829158
 31
0.0
  0
LINE
  5
14B
330
1F
100
AcDbEntity
  8
0
  6
Continuous
 62
     8
370
    25
100
AcDbLine
 10
237.0320024764
 20
97.0481454061
 30
0.0
 11
226.0320024764
 21
97.0481454061
 31
0.0
  0
LINE
  5
14C
330
1F
100
AcDbEntity
  8
0
  6
Continuous
 62
     8
370
    25
100
AcDbLine
 10
248.0320024764
 20
97.0481454061
 30
0.0
 11
237.0320024764
 21
97.0481454061
 31
0.0
  0
LINE
  5
14D
330
1F
100
AcDbEntity
  8
0
  6
Continuous
 62
     8
370
    25
100
AcDbLine
 10
243.9487246622
 20
93.4211287523
 30
0.0
 11
247.0754807373
 21
93.4211287523
 31
0.0
  0
LINE
  5
14E
330
1F
100
AcDbEntity
  8
0
  6
Continuous
 62
     8
370
    25
100
AcDbLine
 10
226.9885242156
 20
93.4211287523
 30
0.0
 11
230.1152802907
 21
93.4211287523
 31
0.0
  0
LINE
  5
14F
330
1F
100
AcDbEntity
  8
0
  6
Continuous
 62
     8
370
    25
100
AcDbLine
 10
247.5320024764
 20
91.5069151899
 30
0.0
 11
246.4236873182
 21
91.5069151899
 31
0.0
  0
LINE
  5
150
330
1F
100
AcDbEntity
  8
0
  6
Continuous
 62
     8
370
    25
100
AcDbLine
 10
245.917043603
 20
91.9783197107
 30
0.0
 11
247.5320024764
 21
91.9783197107
 31
0.0
  0
LINE
  5
151
330
1F
100
AcDbEntity
  8
0
  6
Continuous
 62
     8
370
    25
100
AcDbLine
 10
226.5320024764
 20
91.9211287523
 30
0.0
 11
226.5320024764
 21
90.2782242882
 31
0.0
  0
LINE
  5
152
330
1F
100
AcDbEntity
  8
0
  6
Continuous
 62
     8
370
    25
100
AcDbLine
 10
247.5320024764
 20
90.2782242882
 30
0.0
 11
247.5320024764
 21
91.5069151899
 31
0.0
  0
LINE
  5
153
330
1F
100
AcDbEntity
  8
0
  6
Continuous
 62
     8
370
    25
100
AcDbLine
 10
247.5320024764
 20
72.4211287523
 30
0.0
 11
247.5320024764
 21
73.5640332165
 31
0.0
  0
LINE
  5
154
330
1F
100
AcDbEntity
  8
0
  6
Continuous
 62
     8
370
    25
100
AcDbLine
 10
246.5104541325
 20
72.4211287523
 30
0.0
 11
247.5320024764
 21
72.4211287523
 31
0.0
  0
LINE
  5
155
330
1F
100
AcDbEntity
  8
0
  6
Continuous
 62
     8
370
    25
100
AcDbLine
 10
226.5320024764
 20
73.5640332165
 30
0.0
 11
226.5320024764
 21
72.4211287523
 31
0.0
  0
LINE
  5
156
330
1F
100
AcDbEntity
  8
0
  6
Continuous
 62
     8
370
    25
100
AcDbLine
 10
226.5320024764
 20
72.4211287523
 30
0.0
 11
227.5535508204
 21
72.4211287523
 31
0.0
  0
INSERT
  5
162
330
1F
100
AcDbEntity
  8
0
  6
Continuous
 62
     7
370
    18
100
AcDbBlockReference
  2
SW_CENTERMARKSYMBOL_0
 10
237.0320024764
 20
81.9211287523
 30
0.0
  0
ARC
  5
163
330
1F
100
AcDbEntity
  8
0
  6
Continuous
 62
     7
370
    18
100
AcDbCircle
 10
237.0320024764
 20
81.9211287523
 30
0.0
 40
12.05849999999999
100
AcDbArc
 50
75.0
 51
345.0
  0
LINE
  5
164
330
1F
100
AcDbEntity
  8
0
  6
Continuous
 62
     7
370
    18
100
AcDbLine
 10
249.1224620377
 20
114.8984227924
 30
0.0
 11
249.5873774764
 21
100.0211287523
 31
0.0
  0
LINE
  5
165
330
1F
100
AcDbEntity
  8
0
  6
Continuous
 62
     7
370
    18
100
AcDbLine
 10
224.9415429152
 20
114.8984227924
 30
0.0
 11
224.4766274764
 21
100.0211287523
 31
0.0
  0
LINE
  5
166
330
1F
100
AcDbEntity
  8
0
  6
Continuous
 62
     7
370
    18
100
AcDbLine
 10
223.6124399764
 20
100.0211287523
 30
0.0
 11
250.4515649764
 21
100.0211287523
 31
0.0
  0
LINE
  5
167
330
1F
100
AcDbEntity
  8
0
  6
Continuous
 62
     7
370
    25
100
AcDbLine
 10
189.4073983658
 20
131.8337777181
 30
0.0
 11
202.7098384269
 21
132.24947897
 31
0.0
  0
LINE
  5
168
330
1F
100
AcDbEntity
  8
0
  6
Continuous
 62
     7
370
    25
100
AcDbLine
 10
202.7098384269
 20
158.2576774912
 30
0.0
 11
189.4073983658
 21
158.6733787431
 31
0.0
  0
ARC
  5
169
330
1F
100
AcDbEntity
  8
0
  6
Continuous
 62
     7
370
    25
100
AcDbCircle
 10
190.3150147659
 20
132.2535782306
 30
0.0
 40
1.000000000000008
100
AcDbArc
 50
194.4775121859
 51
204.8219936534
  0
ARC
  5
16A
330
1F
100
AcDbEntity
  8
0
  6
Continuous
 62
     7
370
    25
100
AcDbCircle
 10
190.3150147659
 20
158.2535782306
 30
0.0
 40
1.000000000000004
100
AcDbArc
 50
155.1780063466
 51
165.5224878141
  0
ARC
  5
16B
330
1F
100
AcDbEntity
  8
0
  6
Continuous
 62
     7
370
    25
100
AcDbCircle
 10
186.4420314197
 20
131.2535782306
 30
0.0
 40
3.000000000000012
100
AcDbArc
 50
14.4775121859
 51
90.0
  0
ARC
  5
16C
330
1F
100
AcDbEntity
  8
0
  6
Continuous
 62
     7
370
    25
100
AcDbCircle
 10
186.4420314197
 20
159.2535782306
 30
0.0
 40
3.000000000000028
100
AcDbArc
 50
270.0
 51
345.5224878141
  0
LINE
  5
16D
330
1F
100
AcDbEntity
  8
0
  6
Continuous
 62
     7
370
    25
100
AcDbLine
 10
202.7098384269
 20
132.24947897
 30
0.0
 11
205.3150147659
 21
133.7535782306
 31
0.0
  0
LINE
  5
16E
330
1F
100
AcDbEntity
  8
0
  6
Continuous
 62
     7
370
    25
100
AcDbLine
 10
205.3150147659
 20
156.7535782306
 30
0.0
 11
202.7098384269
 21
158.2576774912
 31
0.0
  0
LINE
  5
16F
330
1F
100
AcDbEntity
  8
0
  6
Continuous
 62
     7
370
    25
100
AcDbLine
 10
186.4420314197
 20
156.2535782306
 30
0.0
 11
182.3150147659
 21
156.2535782306
 31
0.0
  0
LINE
  5
170
330
1F
100
AcDbEntity
  8
0
  6
Continuous
 62
     7
370
    25
100
AcDbLine
 10
182.3150147659
 20
134.2535782306
 30
0.0
 11
186.4420314197
 21
134.2535782306
 31
0.0
  0
CIRCLE
  5
171
330
1F
100
AcDbEntity
  8
0
  6
Continuous
 62
     7
370
    25
100
AcDbCircle
 10
171.3150147659
 20
145.2535782306
 30
0.0
 40
10.375
  0
CIRCLE
  5
172
330
1F
100
AcDbEntity
  8
0
  6
Continuous
 62
     7
370
    25
100
AcDbCircle
 10
171.3150147659
 20
145.2535782306
 30
0.0
 40
11.5
  0
CIRCLE
  5
173
330
1F
100
AcDbEntity
  8
0
  6
Continuous
 62
     7
370
    25
100
AcDbCircle
 10
171.3150147659
 20
145.2535782306
 30
0.0
 40
13.00409926059291
  0
CIRCLE
  5
174
330
1F
100
AcDbEntity
  8
0
  6
Continuous
 62
     7
370
    25
100
AcDbCircle
 10
171.3150147659
 20
145.2535782306
 30
0.0
 40
10.25
  0
CIRCLE
  5
175
330
1F
100
AcDbEntity
  8
0
  6
Continuous
 62
     7
370
    25
100
AcDbCircle
 10
171.3150147659
 20
145.2535782306
 30
0.0
 40
10.125
  0
CIRCLE
  5
176
330
1F
100
AcDbEntity
  8
0
  6
Continuous
 62
     7
370
    25
100
AcDbCircle
 10
171.3150147659
 20
145.2535782306
 30
0.0
 40
9.000000000000028
  0
CIRCLE
  5
177
330
1F
100
AcDbEntity
  8
0
  6
Continuous
 62
     7
370
    25
100
AcDbCircle
 10
171.3150147659
 20
145.2535782306
 30
0.0
 40
8.5
  0
CIRCLE
  5
178
330
1F
100
AcDbEntity
  8
0
  6
Continuous
 62
     7
370
    25
100
AcDbCircle
 10
171.3150147659
 20
145.2535782306
 30
0.0
 40
13.41980051250243
  0
LINE
  5
179
330
1F
100
AcDbEntity
  8
0
  6
Continuous
 62
     7
370
    25
100
AcDbLine
 10
202.7098384269
 20
132.24947897
 30
0.0
 11
202.7098384269
 21
158.2576774912
 31
0.0
  0
LINE
  5
17A
330
1F
100
AcDbEntity
  8
0
  6
Continuous
 62
     7
370
    25
100
AcDbLine
 10
189.4073983658
 20
131.8337777181
 30
0.0
 11
189.4073983658
 21
158.6733787431
 31
0.0
  0
LINE
  5
17B
330
1F
100
AcDbEntity
  8
0
  6
Continuous
 62
     7
370
    25
100
AcDbLine
 10
205.3150147659
 20
156.7535782306
 30
0.0
 11
205.3150147659
 21
133.7535782306
 31
0.0
  0
LINE
  5
17C
330
1F
100
AcDbEntity
  8
0
  6
Continuous
 62
     7
370
    25
100
AcDbLine
 10
181.3150147659
 20
155.7535782306
 30
0.0
 11
181.3150147659
 21
154.202938308
 31
0.0
  0
LINE
  5
17D
330
1F
100
AcDbEntity
  8
0
  6
Continuous
 62
     7
370
    25
100
AcDbLine
 10
181.9816814326
 20
155.7535782306
 30
0.0
 11
181.3150147659
 21
155.7535782306
 31
0.0
  0
LINE
  5
17E
330
1F
100
AcDbEntity
  8
0
  6
Continuous
 62
     7
370
    25
100
AcDbLine
 10
182.3150147659
 20
137.5665081909
 30
0.0
 11
182.3150147659
 21
134.7535782306
 31
0.0
  0
LINE
  5
17F
330
1F
100
AcDbEntity
  8
0
  6
Continuous
 62
     7
370
    25
100
AcDbLine
 10
181.3150147659
 20
134.7535782306
 30
0.0
 11
182.3150147659
 21
134.7535782306
 31
0.0
  0
LINE
  5
180
330
1F
100
AcDbEntity
  8
0
  6
Continuous
 62
     7
370
    25
100
AcDbLine
 10
181.3150147659
 20
136.3042181532
 30
0.0
 11
181.3150147659
 21
134.7535782306
 31
0.0
  0
SPLINE
  5
181
330
1F
100
AcDbEntity
  8
0
  6
Continuous
 62
     7
370
    25
100
AcDbSpline
210
0.0
220
0.0
230
1.0
 70
     8
 71
     3
 72
    12
 73
     8
 74
     0
 42
0.000000001
 43
0.00000001
 40
0.0
 40
0.0
 40
0.0
 40
0.0
 40
0.25
 40
0.25
 40
0.5
 40
0.5
 40
1.0
 40
1.0
 40
1.0
 40
1.0
 10
182.6675291018423
 20
134.7101223812516
 30
0.0
 10
182.6195038841996
 20
134.6352002393514
 30
0.0
 10
182.5828196139247
 20
134.5690367839674
 30
0.0
 10
182.5168457209953
 20
134.4550822559173
 30
0.0
 10
182.4880940884271
 20
134.4072264504566
 30
0.0
 10
182.4075391876371
 20
134.2921711548362
 30
0.0
 10
182.3614077110173
 20
134.2535782306227
 30
0.0
 10
182.3150147658864
 20
134.2535782306227
 30
0.0
  0
SPLINE
  5
182
330
1F
100
AcDbEntity
  8
0
  6
Continuous
 62
     7
370
    25
100
AcDbSpline
210
0.0
220
0.0
230
1.0
 70
     8
 71
     3
 72
     8
 73
     4
 74
     0
 42
0.000000001
 43
0.00000001
 40
0.0
 40
0.0
 40
0.0
 40
0.0
 40
1.0
 40
1.0
 40
1.0
 40
1.0
 10
182.8150147658864
 20
135.2100999697531
 30
0.0
 10
182.8150147658864
 20
135.0118596379384
 30
0.0
 10
182.7547202814008
 20
134.8461457091609
 30
0.0
 10
182.6675291018423
 20
134.7101223812516
 30
0.0
  0
SPLINE
  5
183
330
1F
100
AcDbEntity
  8
0
  6
Continuous
 62
     7
370
    25
100
AcDbSpline
210
0.0
220
0.0
230
1.0
 70
     8
 71
     3
 72
     8
 73
     4
 74
     0
 42
0.000000001
 43
0.00000001
 40
0.0
 40
0.0
 40
0.0
 40
0.0
 40
1.0
 40
1.0
 40
1.0
 40
1.0
 10
182.6675291018423
 20
155.7970340799937
 30
0.0
 10
182.7547202814009
 20
155.6610107520845
 30
0.0
 10
182.8150147658864
 20
155.4952968233069
 30
0.0
 10
182.8150147658864
 20
155.2970564914922
 30
0.0
  0
SPLINE
  5
184
330
1F
100
AcDbEntity
  8
0
  6
Continuous
 62
     7
370
    25
100
AcDbSpline
210
0.0
220
0.0
230
1.0
 70
     8
 71
     3
 72
    12
 73
     8
 74
     0
 42
0.000000001
 43
0.00000001
 40
0.0
 40
0.0
 40
0.0
 40
0.0
 40
0.2499999999999999
 40
0.2499999999999999
 40
0.4999999999999999
 40
0.4999999999999999
 40
1.0
 40
1.0
 40
1.0
 40
1.0
 10
182.6675291018423
 20
155.7970340799937
 30
0.0
 10
182.6194871312061
 20
155.8719823575414
 30
0.0
 10
182.5827934885589
 20
155.9381658126517
 30
0.0
 10
182.5168028071278
 20
156.0521473180867
 30
0.0
 10
182.4880293189483
 20
156.1000287550661
 30
0.0
 10
182.4075536119303
 20
156.2149522209803
 30
0.0
 10
182.3614239087345
 20
156.2535782306227
 30
0.0
 10
182.3150147658864
 20
156.2535782306227
 30
0.0
  0
LINE
  5
185
330
1F
100
AcDbEntity
  8
0
  6
Continuous
 62
     7
370
    25
100
AcDbLine
 10
161.8150147659
 20
155.7535782306
 30
0.0
 11
161.3150147659
 21
155.7535782306
 31
0.0
  0
ARC
  5
186
330
1F
100
AcDbEntity
  8
0
  6
Continuous
 62
     7
370
    25
100
AcDbCircle
 10
161.8150147659
 20
155.7535782306
 30
0.0
 40
0.5
100
AcDbArc
 50
90.0
 51
180.0
  0
LINE
  5
187
330
1F
100
AcDbEntity
  8
0
  6
Continuous
 62
     7
370
    25
100
AcDbLine
 10
161.8150147659
 20
156.2535782306
 30
0.0
 11
161.8150147659
 21
155.7535782306
 31
0.0
  0
LINE
  5
188
330
1F
100
AcDbEntity
  8
0
  6
Continuous
 62
     7
370
    25
100
AcDbLine
 10
161.8150147659
 20
156.2535782306
 30
0.0
 11
163.6279447262
 21
156.2535782306
 31
0.0
  0
SPLINE
  5
189
330
1F
100
AcDbEntity
  8
0
  6
Continuous
 62
     7
370
    25
100
AcDbSpline
210
0.0
220
0.0
230
1.0
 70
     8
 71
     3
 72
    12
 73
     8
 74
     0
 42
0.000000001
 43
0.00000001
 40
0.0
 40
0.0
 40
0.0
 40
0.0
 40
0.2499999999999999
 40
0.2499999999999999
 40
0.4999999999999999
 40
0.4999999999999999
 40
1.0
 40
1.0
 40
1.0
 40
1.0
 10
181.3150147658864
 20
155.7535782306227
 30
0.0
 10
181.3150147658864
 20
155.8297640757609
 30
0.0
 10
181.2969493379954
 20
155.903138420578
 30
0.0
 10
181.2402880964603
 20
156.0293119237792
 30
0.0
 10
181.2027657369381
 20
156.0820388466749
 30
0.0
 10
181.0802389728451
 20
156.2096832750032
 30
0.0
 10
180.9872641643488
 20
156.2535782306227
 30
0.0
 10
180.9008012035133
 20
156.2535782306227
 30
0.0
  0
LINE
  5
18A
330
1F
100
AcDbEntity
  8
0
  6
Continuous
 62
     7
370
    25
100
AcDbLine
 10
179.0020848056
 20
156.2535782306
 30
0.0
 11
180.9008012035
 21
156.2535782306
 31
0.0
  0
LINE
  5
18B
330
1F
100
AcDbEntity
  8
0
  6
Continuous
 62
     7
370
    25
100
AcDbLine
 10
161.3150147659
 20
154.202938308
 30
0.0
 11
161.3150147659
 21
155.7535782306
 31
0.0
  0
LWPOLYLINE
  5
18C
330
1F
100
AcDbEntity
  8
0
  6
Continuous
 62
     7
370
    25
100
AcDbPolyline
 90
        9
 70
   128
 43
0.0
 10
181.8150147659
 20
156.2535782306
 10
181.8475298196
 20
156.2439708708
 10
181.8787953379
 20
156.2155179969
 10
181.9076098047
 20
156.1693130368
 10
181.9328658961
 20
156.1071316212
 10
181.9535930346
 20
156.0313633471
 10
181.968994688
 20
155.9449199468
 10
181.9784789793
 20
155.8511233916
 10
181.9816814326
 20
155.7535782306
  0
LINE
  5
18D
330
1F
100
AcDbEntity
  8
0
  6
Continuous
 62
     7
370
    25
100
AcDbLine
 10
180.9008012035
 20
156.2535782306
 30
0.0
 11
181.8150147659
 21
156.2535782306
 31
0.0
  0
LINE
  5
18E
330
1F
100
AcDbEntity
  8
0
  6
Continuous
 62
     7
370
    25
100
AcDbLine
 10
161.3150147659
 20
134.7535782306
 30
0.0
 11
161.3150147659
 21
136.3042181532
 31
0.0
  0
LINE
  5
18F
330
1F
100
AcDbEntity
  8
0
  6
Continuous
 62
     7
370
    25
100
AcDbLine
 10
161.3150147659
 20
134.7535782306
 30
0.0
 11
161.8150147659
 21
134.7535782306
 31
0.0
  0
LINE
  5
190
330
1F
100
AcDbEntity
  8
0
  6
Continuous
 62
     7
370
    25
100
AcDbLine
 10
161.8150147659
 20
134.7535782306
 30
0.0
 11
161.8150147659
 21
134.2535782306
 31
0.0
  0
LINE
  5
191
330
1F
100
AcDbEntity
  8
0
  6
Continuous
 62
     7
370
    25
100
AcDbLine
 10
163.6279447262
 20
134.2535782306
 30
0.0
 11
161.8150147659
 21
134.2535782306
 31
0.0
  0
ARC
  5
192
330
1F
100
AcDbEntity
  8
0
  6
Continuous
 62
     7
370
    25
100
AcDbCircle
 10
161.8150147659
 20
134.7535782306
 30
0.0
 40
0.5
100
AcDbArc
 50
180.0
 51
270.0
  0
SPLINE
  5
193
330
1F
100
AcDbEntity
  8
0
  6
Continuous
 62
     7
370
    25
100
AcDbSpline
210
0.0
220
0.0
230
1.0
 70
     8
 71
     3
 72
    12
 73
     8
 74
     0
 42
0.000000001
 43
0.00000001
 40
0.0
 40
0.0
 40
0.0
 40
0.0
 40
0.2499999999999999
 40
0.2499999999999999
 40
0.4999999999999999
 40
0.4999999999999999
 40
1.0
 40
1.0
 40
1.0
 40
1.0
 10
181.3150147658864
 20
134.7535782306227
 30
0.0
 10
181.3150147658864
 20
134.6773923854844
 30
0.0
 10
181.2969493379954
 20
134.6040180406673
 30
0.0
 10
181.2402880964603
 20
134.4778445374661
 30
0.0
 10
181.2027657369381
 20
134.4251176145704
 30
0.0
 10
181.0802389728451
 20
134.2974731862422
 30
0.0
 10
180.9872641643488
 20
134.2535782306227
 30
0.0
 10
180.9008012035133
 20
134.2535782306227
 30
0.0
  0
LINE
  5
194
330
1F
100
AcDbEntity
  8
0
  6
Continuous
 62
     7
370
    25
100
AcDbLine
 10
180.9008012035
 20
134.2535782306
 30
0.0
 11
179.0020848056
 21
134.2535782306
 31
0.0
  0
SPLINE
  5
195
330
1F
100
AcDbEntity
  8
0
  6
Continuous
 62
     7
370
    25
100
AcDbSpline
210
0.0
220
0.0
230
1.0
 70
     8
 71
     3
 72
    12
 73
     8
 74
     0
 42
0.000000001
 43
0.00000001
 40
0.0
 40
0.0
 40
0.0
 40
0.0
 40
0.2499999999999993
 40
0.2499999999999993
 40
0.4999999999999987
 40
0.4999999999999987
 40
1.0
 40
1.0
 40
1.0
 40
1.0
 10
182.3150147658864
 20
134.7535782306227
 30
0.0
 10
182.3150147658864
 20
134.6773923854844
 30
0.0
 10
182.2971874701901
 20
134.6040180406673
 30
0.0
 10
182.2378973709357
 20
134.4778445374661
 30
0.0
 10
182.1972998595726
 20
134.4251176145704
 30
0.0
 10
182.0560153158836
 20
134.2974731862422
 30
0.0
 10
181.9371768266976
 20
134.2535782306227
 30
0.0
 10
181.8150147658864
 20
134.2535782306227
 30
0.0
  0
LINE
  5
196
330
1F
100
AcDbEntity
  8
0
  6
Continuous
 62
     7
370
    25
100
AcDbLine
 10
181.8150147659
 20
134.2535782306
 30
0.0
 11
180.9008012035
 21
134.2535782306
 31
0.0
  0
ARC
  5
197
330
1F
100
AcDbEntity
  8
0
  6
Continuous
 62
     7
370
    25
100
AcDbCircle
 10
182.794220815
 20
134.7308039035
 30
0.0
 40
0.4797469202789581
100
AcDbArc
 50
87.5158173388
 51
177.2790582562
  0
LINE
  5
198
330
1F
100
AcDbEntity
  8
0
  6
Continuous
 62
     7
370
    25
100
AcDbLine
 10
182.3150147659
 20
155.7535782306
 30
0.0
 11
181.9816814326
 21
155.7535782306
 31
0.0
  0
LINE
  5
199
330
1F
100
AcDbEntity
  8
0
  6
Continuous
 62
     7
370
    25
100
AcDbLine
 10
182.3150147659
 20
155.7535782306
 30
0.0
 11
182.3150147659
 21
152.9406482703
 31
0.0
  0
ARC
  5
19A
330
1F
100
AcDbEntity
  8
0
  6
Continuous
 62
     7
370
    25
100
AcDbCircle
 10
181.8150147659
 20
155.7535782306
 30
0.0
 40
0.5
100
AcDbArc
 50
0.0
 51
90.0
  0
ARC
  5
19B
330
1F
100
AcDbEntity
  8
0
  6
Continuous
 62
     7
370
    25
100
AcDbCircle
 10
182.794220815
 20
155.7763525577
 30
0.0
 40
0.4797469202790396
100
AcDbArc
 50
182.7209417438
 51
272.4841826612
  0
LINE
  5
19C
330
1F
100
AcDbEntity
  8
0
  6
Continuous
 62
     7
370
    25
100
AcDbLine
 10
170.3150147659
 20
136.8126067226
 30
0.0
 11
170.3150147659
 21
153.6945497387
 31
0.0
  0
ARC
  5
19D
330
1F
100
AcDbEntity
  8
0
  6
Continuous
 62
     7
370
    25
100
AcDbCircle
 10
182.6375321543
 20
156.2642316797
 30
0.0
 40
0.4681596031696573
100
AcDbArc
 50
212.1754713914
 51
273.6736973485
  0
ARC
  5
19E
330
1F
100
AcDbEntity
  8
0
  6
Continuous
 62
     7
370
    25
100
AcDbCircle
 10
182.6375321543
 20
134.2429247815
 30
0.0
 40
0.4681596031694908
100
AcDbArc
 50
86.3263026515
 51
147.8245286087
  0
SPLINE
  5
19F
330
1F
100
AcDbEntity
  8
0
  6
Continuous
 62
     7
370
    25
100
AcDbSpline
210
0.0
220
0.0
230
1.0
 70
     8
 71
     3
 72
    12
 73
     8
 74
     0
 42
0.000000001
 43
0.00000001
 40
0.0
 40
0.0
 40
0.0
 40
0.0
 40
0.25
 40
0.25
 40
0.5
 40
0.5
 40
1.0
 40
1.0
 40
1.0
 40
1.0
 10
182.2412719338644
 20
156.0149301518848
 30
0.0
 10
182.2185594321553
 20
156.0519735629662
 30
0.0
 10
182.2110469123261
 20
156.0861864642544
 30
0.0
 10
182.2094908376269
 20
156.1457186191155
 30
0.0
 10
182.215917679469
 20
156.1711193501378
 30
0.0
 10
182.2461426797733
 20
156.2324779818668
 30
0.0
 10
182.280838200898
 20
156.2535782306227
 30
0.0
 10
182.3150147658864
 20
156.2535782306227
 30
0.0
  0
SPLINE
  5
1A0
330
1F
100
AcDbEntity
  8
0
  6
Continuous
 62
     7
370
    25
100
AcDbSpline
210
0.0
220
0.0
230
1.0
 70
    24
 71
     3
 72
    12
 73
     8
 74
     0
 42
0.000000001
 43
0.00000001
 40
0.0
 40
0.0
 40
0.0
 40
0.0
 40
0.25
 40
0.25
 40
0.5
 40
0.5
 40
1.0
 40
1.0
 40
1.0
 40
1.0
 10
181.8150147658864
 20
156.2535782306227
 30
0.0
 10
181.8150147658864
 20
156.2535782306227
 30
0.0
 10
181.8347377112944
 20
156.2535782306227
 30
0.0
 10
181.8953741760556
 20
156.2535782306227
 30
0.0
 10
181.936630721744
 20
156.2535782306227
 30
0.0
 10
182.0784040314161
 20
156.2535782306227
 30
0.0
 10
182.1969710765764
 20
156.2535782306227
 30
0.0
 10
182.3150147658864
 20
156.2535782306227
 30
0.0
  0
SPLINE
  5
1A1
330
1F
100
AcDbEntity
  8
0
  6
Continuous
 62
     7
370
    25
100
AcDbSpline
210
0.0
220
0.0
230
1.0
 70
     8
 71
     3
 72
    12
 73
     8
 74
     0
 42
0.000000001
 43
0.00000001
 40
0.0
 40
0.0
 40
0.0
 40
0.0
 40
0.25
 40
0.25
 40
0.5
 40
0.5
 40
1.0
 40
1.0
 40
1.0
 40
1.0
 10
182.2412719338644
 20
134.4922263093605
 30
0.0
 10
182.2185594321553
 20
134.4551828982792
 30
0.0
 10
182.2110469123261
 20
134.4209699969909
 30
0.0
 10
182.2094908376269
 20
134.3614378421299
 30
0.0
 10
182.215917679469
 20
134.3360371111075
 30
0.0
 10
182.2461426797733
 20
134.2746784793785
 30
0.0
 10
182.2808382008975
 20
134.2535782306227
 30
0.0
 10
182.3150147658864
 20
134.2535782306227
 30
0.0
  0
SPLINE
  5
1A2
330
1F
100
AcDbEntity
  8
0
  6
Continuous
 62
     7
370
    25
100
AcDbSpline
210
0.0
220
0.0
230
1.0
 70
    24
 71
     3
 72
    12
 73
     8
 74
     0
 42
0.000000001
 43
0.00000001
 40
0.0
 40
0.0
 40
0.0
 40
0.0
 40
0.2499999999999999
 40
0.2499999999999999
 40
0.4999999999999999
 40
0.4999999999999999
 40
1.0
 40
1.0
 40
1.0
 40
1.0
 10
181.8150147658864
 20
134.2535782306227
 30
0.0
 10
181.8150147658864
 20
134.2535782306227
 30
0.0
 10
181.8347377112944
 20
134.2535782306227
 30
0.0
 10
181.8953741760556
 20
134.2535782306227
 30
0.0
 10
181.936630721744
 20
134.2535782306227
 30
0.0
 10
182.0784040314161
 20
134.2535782306227
 30
0.0
 10
182.1969710765764
 20
134.2535782306227
 30
0.0
 10
182.3150147658864
 20
134.2535782306227
 30
0.0
  0
SPLINE
  5
1A3
330
1F
100
AcDbEntity
  8
0
  6
Continuous
 62
     7
370
    25
100
AcDbSpline
210
0.0
220
0.0
230
1.0
 70
     8
 71
     3
 72
    28
 73
    24
 74
     0
 42
0.000000001
 43
0.00000001
 40
0.0
 40
0.0
 40
0.0
 40
0.0
 40
0.1250000000000001
 40
0.1250000000000001
 40
0.2500000000000001
 40
0.2500000000000001
 40
0.3750000000000002
 40
0.3750000000000002
 40
0.4375000000000001
 40
0.4375000000000001
 40
0.5000000000000001
 40
0.5000000000000001
 40
0.5625000000000001
 40
0.5625000000000001
 40
0.6250000000000001
 40
0.6250000000000001
 40
0.6875000000000002
 40
0.6875000000000002
 40
0.7500000000000002
 40
0.7500000000000002
 40
0.8750000000000001
 40
0.8750000000000001
 40
1.0
 40
1.0
 40
1.0
 40
1.0
 10
170.3150147658864
 20
153.6945497386897
 30
0.0
 10
169.9675489391144
 20
153.0710613267911
 30
0.0
 10
169.6310181600691
 20
152.4371063303074
 30
0.0
 10
168.994570636729
 20
151.1341508669137
 30
0.0
 10
168.6942367870548
 20
150.4655496363713
 30
0.0
 10
168.1591302917997
 20
149.0655946473331
 30
0.0
 10
167.9281141810971
 20
148.3438343396978
 30
0.0
 10
167.6791332074952
 20
147.210356903763
 30
0.0
 10
167.6122654832024
 20
146.8204224801399
 30
0.0
 10
167.5226439601376
 20
146.0357062461014
 30
0.0
 10
167.4997708024187
 20
145.6422917983794
 30
0.0
 10
167.5002220753017
 20
144.8532384151857
 30
0.0
 10
167.5238782328189
 20
144.4550560810694
 30
0.0
 10
167.6150504727774
 20
143.6681896459039
 30
0.0
 10
167.6815205152393
 20
143.2843551519974
 30
0.0
 10
167.8475131792927
 20
142.5318778780072
 30
0.0
 10
167.9470176439029
 20
142.1632267525636
 30
0.0
 10
168.1716289469076
 20
141.4376919324174
 30
0.0
 10
168.2970937635855
 20
141.0800486960235
 30
0.0
 10
168.6974752517312
 20
140.0343008482917
 30
0.0
 10
168.9970816033508
 20
139.3676488583496
 30
0.0
 10
169.6321945149404
 20
138.067859325206
 30
0.0
 10
169.9681044433615
 20
137.4350983444561
 30
0.0
 10
170.3150147658864
 20
136.8126067225556
 30
0.0
  0
LINE
  5
1A4
330
1F
100
AcDbEntity
  8
0
  6
Continuous
 62
     8
370
    25
100
AcDbLine
 10
189.3467689293
 20
158.5035782306
 30
0.0
 11
189.3467689293
 21
132.0035782306
 31
0.0
  0
LINE
  5
1A5
330
1F
100
AcDbEntity
  8
0
  6
Continuous
 62
     8
370
    25
100
AcDbLine
 10
186.4420314197
 20
134.2535782306
 30
0.0
 11
186.4420314197
 21
156.2535782306
 31
0.0
  0
LINE
  5
1A6
330
1F
100
AcDbEntity
  8
0
  6
Continuous
 62
     8
370
    25
100
AcDbLine
 10
181.9816814326
 20
153.3968741246
 30
0.0
 11
181.9816814326
 21
155.7535782306
 31
0.0
  0
LINE
  5
1A7
330
1F
100
AcDbEntity
  8
0
  6
Continuous
 62
     8
370
    25
100
AcDbLine
 10
182.8150147659
 20
138.3368560448
 30
0.0
 11
182.8150147659
 21
135.2100999698
 31
0.0
  0
LINE
  5
1A8
330
1F
100
AcDbEntity
  8
0
  6
Continuous
 62
     8
370
    25
100
AcDbLine
 10
182.8150147659
 20
155.2970564915
 30
0.0
 11
182.8150147659
 21
152.1703004164
 31
0.0
  0
LINE
  5
1A9
330
1F
100
AcDbEntity
  8
0
  6
Continuous
 62
     8
370
    25
100
AcDbLine
 10
162.95791923
 20
155.7535782306
 30
0.0
 11
161.8150147659
 21
155.7535782306
 31
0.0
  0
LINE
  5
1AA
330
1F
100
AcDbEntity
  8
0
  6
Continuous
 62
     8
370
    25
100
AcDbLine
 10
161.8150147659
 20
155.7535782306
 30
0.0
 11
161.8150147659
 21
154.7320298866
 31
0.0
  0
LINE
  5
1AB
330
1F
100
AcDbEntity
  8
0
  6
Continuous
 62
     8
370
    25
100
AcDbLine
 10
181.3150147659
 20
155.7535782306
 30
0.0
 11
179.6721103017
 21
155.7535782306
 31
0.0
  0
LINE
  5
1AC
330
1F
100
AcDbEntity
  8
0
  6
Continuous
 62
     8
370
    25
100
AcDbLine
 10
161.8150147659
 20
135.7751265746
 30
0.0
 11
161.8150147659
 21
134.7535782306
 31
0.0
  0
LINE
  5
1AD
330
1F
100
AcDbEntity
  8
0
  6
Continuous
 62
     8
370
    25
100
AcDbLine
 10
179.6721103017
 20
134.7535782306
 30
0.0
 11
181.3150147659
 21
134.7535782306
 31
0.0
  0
LINE
  5
1AE
330
1F
100
AcDbEntity
  8
0
  6
Continuous
 62
     8
370
    25
100
AcDbLine
 10
161.8150147659
 20
134.7535782306
 30
0.0
 11
162.95791923
 21
134.7535782306
 31
0.0
  0
INSERT
  5
1BA
330
1F
100
AcDbEntity
  8
0
  6
Continuous
 62
     7
370
    18
100
AcDbBlockReference
  2
SW_CENTERMARKSYMBOL_1
 10
171.3150147659
 20
145.2535782306
 30
0.0
  0
LINE
  5
1BB
330
1F
100
AcDbEntity
  8
0
  6
Continuous
 62
     7
370
    18
100
AcDbLine
 10
204.292308806
 20
133.1631186694
 30
0.0
 11
189.4150147659
 21
132.6982032306
 31
0.0
  0
LINE
  5
1BC
330
1F
100
AcDbEntity
  8
0
  6
Continuous
 62
     7
370
    18
100
AcDbLine
 10
204.292308806
 20
157.3440377919
 30
0.0
 11
189.4150147659
 21
157.8089532306
 31
0.0
  0
LINE
  5
1BD
330
1F
100
AcDbEntity
  8
0
  6
Continuous
 62
     7
370
    18
100
AcDbLine
 10
189.4150147659
 20
158.6731407306
 30
0.0
 11
189.4150147659
 21
131.8340157306
 31
0.0
  0
ARC
  5
1BE
330
1F
100
AcDbEntity
  8
0
  6
Continuous
 62
     7
370
    18
100
AcDbCircle
 10
171.3150147659
 20
145.2535782306
 30
0.0
 40
12.05850000000001
100
AcDbArc
 50
75.0
 51
345.0
  0
ENDSEC
  0
SECTION
  2
OBJECTS
  0
DICTIONARY
  5
C
330
0
100
AcDbDictionary
281
     1
  3
ACAD_GROUP
350
D
  3
ACAD_LAYOUT
350
1A
  3
ACAD_MLINESTYLE
350
17
  3
ACAD_PLOTSETTINGS
350
19
  3
ACAD_PLOTSTYLENAME
350
E
  3
ACAD_SCALELIST
350
47
  0
DICTIONARY
  5
D
102
{ACAD_REACTORS
330
C
102
}
330
C
100
AcDbDictionary
281
     1
  0
DICTIONARY
  5
1A
102
{ACAD_REACTORS
330
C
102
}
330
C
100
AcDbDictionary
281
     1
  3
Layout1
350
1E
  3
Layout2
350
26
  3
Model
350
22
  0
DICTIONARY
  5
17
102
{ACAD_REACTORS
330
C
102
}
330
C
100
AcDbDictionary
281
     1
  3
Standard
350
18
  0
DICTIONARY
  5
19
102
{ACAD_REACTORS
330
C
102
}
330
C
100
AcDbDictionary
281
     1
  0
ACDBDICTIONARYWDFLT
  5
E
102
{ACAD_REACTORS
330
C
102
}
330
C
100
AcDbDictionary
281
     1
  3
Normal
350
F
100
AcDbDictionaryWithDefault
340
F
  0
DICTIONARY
  5
47
102
{ACAD_REACTORS
330
C
102
}
330
C
100
AcDbDictionary
281
     1
  3
A0
350
48
  3
A1
350
49
  3
A2
350
4A
  3
A3
350
4B
  3
A4
350
4C
  3
A5
350
4D
  3
A6
350
4E
  3
A7
350
4F
  3
A8
350
50
  3
A9
350
51
  3
B0
350
52
  3
B1
350
53
  3
B2
350
54
  3
B3
350
55
  3
B4
350
56
  3
B5
350
57
  3
B6
350
58
  3
B7
350
59
  3
B8
350
5A
  3
B9
350
5B
  3
C0
350
5C
  3
C1
350
5D
  3
C2
350
5E
  3
C3
350
5F
  3
C4
350
60
  3
C5
350
61
  3
C6
350
62
  3
C7
350
63
  3
C8
350
64
  3
C9
350
65
  3
D0
350
66
  3
D1
350
67
  3
D2
350
68
  0
LAYOUT
  5
1E
102
{ACAD_REACTORS
330
1A
102
}
330
1A
100
AcDbPlotSettings
  1

  2
none_device
  4

  6

 40
0.0
 41
0.0
 42
0.0
 43
0.0
 44
0.0
 45
0.0
 46
0.0
 47
0.0
 48
0.0
 49
0.0
140
0.0
141
0.0
142
1.0
143
1.0
 70
   688
 72
     1
 73
     0
 74
     5
  7

 75
    16
147
1.0
148
0.0
149
0.0
100
AcDbLayout
  1
Layout1
 70
     1
 71
     1
 10
0.0
 20
0.0
 11
420.0
 21
297.0
 12
0.0
 22
0.0
 32
0.0
 14
1.0000000000E+20
 24
1.0000000000E+20
 34
1.0000000000E+20
 15
-1.0000000000E+20
 25
-1.0000000000E+20
 35
-1.0000000000E+20
146
0.0
 13
0.0
 23
0.0
 33
0.0
 16
1.0
 26
0.0
 36
0.0
 17
0.0
 27
1.0
 37
0.0
 76
     0
330
1B
  0
LAYOUT
  5
26
102
{ACAD_REACTORS
330
1A
102
}
330
1A
100
AcDbPlotSettings
  1

  2
none_device
  4

  6

 40
0.0
 41
0.0
 42
0.0
 43
0.0
 44
0.0
 45
0.0
 46
0.0
 47
0.0
 48
0.0
 49
0.0
140
0.0
141
0.0
142
1.0
143
1.0
 70
   688
 72
     1
 73
     0
 74
     5
  7

 75
    16
147
1.0
148
0.0
149
0.0
100
AcDbLayout
  1
Layout2
 70
     1
 71
     2
 10
0.0
 20
0.0
 11
0.0
 21
0.0
 12
0.0
 22
0.0
 32
0.0
 14
0.0
 24
0.0
 34
0.0
 15
0.0
 25
0.0
 35
0.0
146
0.0
 13
0.0
 23
0.0
 33
0.0
 16
1.0
 26
0.0
 36
0.0
 17
0.0
 27
1.0
 37
0.0
 76
     0
330
23
  0
LAYOUT
  5
22
102
{ACAD_REACTORS
330
1A
102
}
330
1A
100
AcDbPlotSettings
  1

  2
none_device
  4
Letter_(8.50_x_11.00_Inches)
  6

 40
6.35
 41
6.35
 42
6.35000508
 43
6.35000508
 44
215.9
 45
279.4
 46
0.0
 47
0.0
 48
0.0
 49
0.0
140
0.0
141
0.0
142
1.0
143
1.0
 70
  1712
 72
     1
 73
     0
 74
     0
  7

 75
     0
147
1.0
148
0.0
149
0.0
100
AcDbLayout
  1
Model
 70
     1
 71
     0
 10
0.0
 20
0.0
 11
431.8
 21
279.4
 12
0.0
 22
0.0
 32
0.0
 14
0.0
 24
0.0
 34
0.0
 15
431.8
 25
279.4
 35
0.0
146
0.0
 13
0.0
 23
0.0
 33
0.0
 16
1.0
 26
0.0
 36
0.0
 17
0.0
 27
1.0
 37
0.0
 76
     0
330
1F
331
29
  0
MLINESTYLE
  5
18
102
{ACAD_REACTORS
330
17
102
}
330
17
100
AcDbMlineStyle
  2
Standard
 70
     0
  3

 62
   256
 51
90.0
 52
90.0
 71
     2
 49
0.5
 62
   256
  6
BYLAYER
 49
-0.5
 62
   256
  6
BYLAYER
  0
ACDBPLACEHOLDER
  5
F
102
{ACAD_REACTORS
330
E
102
}
330
E
  0
SCALE
  5
48
102
{ACAD_REACTORS
330
47
102
}
330
47
100
AcDbScale
 70
     0
300
1:1
140
1.0
141
1.0
290
     1
  0
SCALE
  5
49
102
{ACAD_REACTORS
330
47
102
}
330
47
100
AcDbScale
 70
     0
300
1:2
140
1.0
141
2.0
290
     0
  0
SCALE
  5
4A
102
{ACAD_REACTORS
330
47
102
}
330
47
100
AcDbScale
 70
     0
300
1:4
140
1.0
141
4.0
290
     0
  0
SCALE
  5
4B
102
{ACAD_REACTORS
330
47
102
}
330
47
100
AcDbScale
 70
     0
300
1:5
140
1.0
141
5.0
290
     0
  0
SCALE
  5
4C
102
{ACAD_REACTORS
330
47
102
}
330
47
100
AcDbScale
 70
     0
300
1:8
140
1.0
141
8.0
290
     0
  0
SCALE
  5
4D
102
{ACAD_REACTORS
330
47
102
}
330
47
100
AcDbScale
 70
     0
300
1:10
140
1.0
141
10.0
290
     0
  0
SCALE
  5
4E
102
{ACAD_REACTORS
330
47
102
}
330
47
100
AcDbScale
 70
     0
300
1:16
140
1.0
141
16.0
290
     0
  0
SCALE
  5
4F
102
{ACAD_REACTORS
330
47
102
}
330
47
100
AcDbScale
 70
     0
300
1:20
140
1.0
141
20.0
290
     0
  0
SCALE
  5
50
102
{ACAD_REACTORS
330
47
102
}
330
47
100
AcDbScale
 70
     0
300
1:30
140
1.0
141
30.0
290
     0
  0
SCALE
  5
51
102
{ACAD_REACTORS
330
47
102
}
330
47
100
AcDbScale
 70
     0
300
1:40
140
1.0
141
40.0
290
     0
  0
SCALE
  5
52
102
{ACAD_REACTORS
330
47
102
}
330
47
100
AcDbScale
 70
     0
300
1:50
140
1.0
141
50.0
290
     0
  0
SCALE
  5
53
102
{ACAD_REACTORS
330
47
102
}
330
47
100
AcDbScale
 70
     0
300
1:100
140
1.0
141
100.0
290
     0
  0
SCALE
  5
54
102
{ACAD_REACTORS
330
47
102
}
330
47
100
AcDbScale
 70
     0
300
2:1
140
2.0
141
1.0
290
     0
  0
SCALE
  5
55
102
{ACAD_REACTORS
330
47
102
}
330
47
100
AcDbScale
 70
     0
300
4:1
140
4.0
141
1.0
290
     0
  0
SCALE
  5
56
102
{ACAD_REACTORS
330
47
102
}
330
47
100
AcDbScale
 70
     0
300
8:1
140
8.0
141
1.0
290
     0
  0
SCALE
  5
57
102
{ACAD_REACTORS
330
47
102
}
330
47
100
AcDbScale
 70
     0
300
10:1
140
10.0
141
1.0
290
     0
  0
SCALE
  5
58
102
{ACAD_REACTORS
330
47
102
}
330
47
100
AcDbScale
 70
     0
300
100:1
140
100.0
141
1.0
290
     0
  0
SCALE
  5
59
102
{ACAD_REACTORS
330
47
102
}
330
47
100
AcDbScale
 70
     0
300
1/128" = 1'-0"
140
0.0078125
141
12.0
290
     0
  0
SCALE
  5
5A
102
{ACAD_REACTORS
330
47
102
}
330
47
100
AcDbScale
 70
     0
300
1/64" = 1'-0"
140
0.015625
141
12.0
290
     0
  0
SCALE
  5
5B
102
{ACAD_REACTORS
330
47
102
}
330
47
100
AcDbScale
 70
     0
300
1/32" = 1'-0"
140
0.03125
141
12.0
290
     0
  0
SCALE
  5
5C
102
{ACAD_REACTORS
330
47
102
}
330
47
100
AcDbScale
 70
     0
300
1/16" = 1'-0"
140
0.0625
141
12.0
290
     0
  0
SCALE
  5
5D
102
{ACAD_REACTORS
330
47
102
}
330
47
100
AcDbScale
 70
     0
300
3/32" = 1'-0"
140
0.09375
141
12.0
290
     0
  0
SCALE
  5
5E
102
{ACAD_REACTORS
330
47
102
}
330
47
100
AcDbScale
 70
     0
300
1/8" = 1'-0"
140
0.125
141
12.0
290
     0
  0
SCALE
  5
5F
102
{ACAD_REACTORS
330
47
102
}
330
47
100
AcDbScale
 70
     0
300
3/16" = 1'-0"
140
0.1875
141
12.0
290
     0
  0
SCALE
  5
60
102
{ACAD_REACTORS
330
47
102
}
330
47
100
AcDbScale
 70
     0
300
1/4" = 1'-0"
140
0.25
141
12.0
290
     0
  0
SCALE
  5
61
102
{ACAD_REACTORS
330
47
102
}
330
47
100
AcDbScale
 70
     0
300
3/8" = 1'-0"
140
0.375
141
12.0
290
     0
  0
SCALE
  5
62
102
{ACAD_REACTORS
330
47
102
}
330
47
100
AcDbScale
 70
     0
300
1/2" = 1'-0"
140
0.5
141
12.0
290
     0
  0
SCALE
  5
63
102
{ACAD_REACTORS
330
47
102
}
330
47
100
AcDbScale
 70
     0
300
3/4" = 1'-0"
140
0.75
141
12.0
290
     0
  0
SCALE
  5
64
102
{ACAD_REACTORS
330
47
102
}
330
47
100
AcDbScale
 70
     0
300
1" = 1'-0"
140
1.0
141
12.0
290
     0
  0
SCALE
  5
65
102
{ACAD_REACTORS
330
47
102
}
330
47
100
AcDbScale
 70
     0
300
1-1/2" = 1'-0"
140
1.5
141
12.0
290
     0
  0
SCALE
  5
66
102
{ACAD_REACTORS
330
47
102
}
330
47
100
AcDbScale
 70
     0
300
3" = 1'-0"
140
3.0
141
12.0
290
     0
  0
SCALE
  5
67
102
{ACAD_REACTORS
330
47
102
}
330
47
100
AcDbScale
 70
     0
300
6" = 1'-0"
140
6.0
141
12.0
290
     0
  0
SCALE
  5
68
102
{ACAD_REACTORS
330
47
102
}
330
47
100
AcDbScale
 70
     0
300
1'-0" = 1'-0"
140
12.0
141
12.0
290
     0
  0
ENDSEC
  0
EOF
