  0
SECTION
  2
HEADER
  9
$ACADVER
  1
AC1015
  9
$ACADMAINTVER
 70
     6
  9
$DWGCODEPAGE
  3
DOS932
  9
$INSBASE
 10
0.0
 20
0.0
 30
0.0
  9
$EXTMIN
 10
0.0
 20
0.0
 30
0.0
  9
$EXTMAX
 10
431.8
 20
279.4
 30
0.0
  9
$LIMMIN
 10
0.0
 20
0.0
  9
$LIMMAX
 10
431.8
 20
279.4
  9
$ORTHOMODE
 70
     0
  9
$REGENMODE
 70
     1
  9
$FILLMODE
 70
     1
  9
$QTEXTMODE
 70
     0
  9
$MIRRTEXT
 70
     1
  9
$LTSCALE
 40
1.0
  9
$ATTMODE
 70
     1
  9
$TEXTSIZE
 40
3.5
  9
$TRACEWID
 40
1.0
  9
$TEXTSTYLE
  7
Standard
  9
$CLAYER
  8
0
  9
$CELTYPE
  6
ByLayer
  9
$CECOLOR
 62
   256
  9
$CELTSCALE
 40
1.0
  9
$DISPSILH
 70
     0
  9
$DIMSCALE
 40
1.0
  9
$DIMASZ
 40
3.302
  9
$DIMEXO
 40
1.0
  9
$DIMDLI
 40
3.75
  9
$DIMRND
 40
0.0
  9
$DIMDLE
 40
0.0
  9
$DIMEXE
 40
1.0
  9
$DIMTP
 40
0.0
  9
$DIMTM
 40
0.0
  9
$DIMTXT
 40
3.5
  9
$DIMCEN
 40
2.5
  9
$DIMTSZ
 40
0.0
  9
$DIMTOL
 70
     0
  9
$DIMLIM
 70
     0
  9
$DIMTIH
 70
     1
  9
$DIMTOH
 70
     1
  9
$DIMSE1
 70
     0
  9
$DIMSE2
 70
     0
  9
$DIMTAD
 70
     1
  9
$DIMZIN
 70
     1
  9
$DIMBLK
  1

  9
$DIMASO
 70
     1
  9
$DIMSHO
 70
     1
  9
$DIMPOST
  1

  9
$DIMAPOST
  1

  9
$DIMALT
 70
     0
  9
$DIMALTD
 70
     3
  9
$DIMALTF
 40
0.0393700787
  9
$DIMLFAC
 40
1.0
  9
$DIMTOFL
 70
     1
  9
$DIMTVP
 40
0.0
  9
$DIMTIX
 70
     0
  9
$DIMSOXD
 70
     0
  9
$DIMSAH
 70
     0
  9
$DIMBLK1
  1

  9
$DIMBLK2
  1

  9
$DIMSTYLE
  2
ISO-25
  9
$DIMCLRD
 70
     0
  9
$DIMCLRE
 70
     0
  9
$DIMCLRT
 70
     0
  9
$DIMTFAC
 40
1.0
  9
$DIMGAP
 40
1.524
  9
$DIMJUST
 70
     0
  9
$DIMSD1
 70
     0
  9
$DIMSD2
 70
     0
  9
$DIMTOLJ
 70
     0
  9
$DIMTZIN
 70
     1
  9
$DIMALTZ
 70
     0
  9
$DIMALTTZ
 70
     0
  9
$DIMUPT
 70
     0
  9
$DIMDEC
 70
     2
  9
$DIMTDEC
 70
     2
  9
$DIMALTU
 70
     2
  9
$DIMALTTD
 70
     3
  9
$DIMTXSTY
  7
Standard
  9
$DIMAUNIT
 70
     0
  9
$DIMADEC
 70
     2
  9
$DIMALTRND
 40
0.0
  9
$DIMAZIN
 70
     0
  9
$DIMDSEP
 70
    44
  9
$DIMATFIT
 70
     3
  9
$DIMFRAC
 70
     0
  9
$DIMLDRBLK
  1

  9
$DIMLUNIT
 70
     2
  9
$DIMLWD
 70
    -2
  9
$DIMLWE
 70
    -2
  9
$DIMTMOVE
 70
     0
  9
$LUNITS
 70
     2
  9
$LUPREC
 70
     2
  9
$SKETCHINC
 40
1.0
  9
$FILLETRAD
 40
10.0
  9
$AUNITS
 70
     0
  9
$AUPREC
 70
     2
  9
$MENU
  1
.
  9
$ELEVATION
 40
0.0
  9
$PELEVATION
 40
0.0
  9
$THICKNESS
 40
0.0
  9
$LIMCHECK
 70
     0
  9
$CHAMFERA
 40
0.0
  9
$CHAMFERB
 40
0.0
  9
$CHAMFERC
 40
0.0
  9
$CHAMFERD
 40
0.0
  9
$SKPOLY
 70
     0
  9
$TDCREATE
 40
2459249.388407998
  9
$TDUCREATE
 40
2459249.013407998
  9
$TDUPDATE
 40
2459249.388408715
  9
$TDUUPDATE
 40
2459249.013408715
  9
$TDINDWG
 40
0.0000000116
  9
$TDUSRTIMER
 40
0.0000000116
  9
$USRTIMER
 70
     1
  9
$ANGBASE
 50
0.0
  9
$ANGDIR
 70
     0
  9
$PDMODE
 70
     0
  9
$PDSIZE
 40
-1.0
  9
$PLINEWID
 40
0.0
  9
$SPLFRAME
 70
     0
  9
$SPLINETYPE
 70
     6
  9
$SPLINESEGS
 70
     8
  9
$HANDSEED
  5
238
  9
$SURFTAB1
 70
     6
  9
$SURFTAB2
 70
     6
  9
$SURFTYPE
 70
     6
  9
$SURFU
 70
     6
  9
$SURFV
 70
     6
  9
$UCSBASE
  2

  9
$UCSNAME
  2

  9
$UCSORG
 10
0.0
 20
0.0
 30
0.0
  9
$UCSXDIR
 10
1.0
 20
0.0
 30
0.0
  9
$UCSYDIR
 10
0.0
 20
1.0
 30
0.0
  9
$UCSORTHOREF
  2

  9
$UCSORTHOVIEW
 70
     0
  9
$UCSORGTOP
 10
0.0
 20
0.0
 30
0.0
  9
$UCSORGBOTTOM
 10
0.0
 20
0.0
 30
0.0
  9
$UCSORGLEFT
 10
0.0
 20
0.0
 30
0.0
  9
$UCSORGRIGHT
 10
0.0
 20
0.0
 30
0.0
  9
$UCSORGFRONT
 10
0.0
 20
0.0
 30
0.0
  9
$UCSORGBACK
 10
0.0
 20
0.0
 30
0.0
  9
$PUCSBASE
  2

  9
$PUCSNAME
  2

  9
$PUCSORG
 10
0.0
 20
0.0
 30
0.0
  9
$PUCSXDIR
 10
1.0
 20
0.0
 30
0.0
  9
$PUCSYDIR
 10
0.0
 20
1.0
 30
0.0
  9
$PUCSORTHOREF
  2

  9
$PUCSORTHOVIEW
 70
     0
  9
$PUCSORGTOP
 10
0.0
 20
0.0
 30
0.0
  9
$PUCSORGBOTTOM
 10
0.0
 20
0.0
 30
0.0
  9
$PUCSORGLEFT
 10
0.0
 20
0.0
 30
0.0
  9
$PUCSORGRIGHT
 10
0.0
 20
0.0
 30
0.0
  9
$PUCSORGFRONT
 10
0.0
 20
0.0
 30
0.0
  9
$PUCSORGBACK
 10
0.0
 20
0.0
 30
0.0
  9
$USERI1
 70
     0
  9
$USERI2
 70
     0
  9
$USERI3
 70
     0
  9
$USERI4
 70
     0
  9
$USERI5
 70
     0
  9
$USERR1
 40
0.0
  9
$USERR2
 40
0.0
  9
$USERR3
 40
0.0
  9
$USERR4
 40
0.0
  9
$USERR5
 40
0.0
  9
$WORLDVIEW
 70
     1
  9
$SHADEDGE
 70
     3
  9
$SHADEDIF
 70
    70
  9
$TILEMODE
 70
     1
  9
$MAXACTVP
 70
    64
  9
$PINSBASE
 10
0.0
 20
0.0
 30
0.0
  9
$PLIMCHECK
 70
     0
  9
$PEXTMIN
 10
1.0000000000E+20
 20
1.0000000000E+20
 30
1.0000000000E+20
  9
$PEXTMAX
 10
-1.0000000000E+20
 20
-1.0000000000E+20
 30
-1.0000000000E+20
  9
$PLIMMIN
 10
0.0
 20
0.0
  9
$PLIMMAX
 10
420.0
 20
297.0
  9
$UNITMODE
 70
     0
  9
$VISRETAIN
 70
     1
  9
$PLINEGEN
 70
     0
  9
$PSLTSCALE
 70
     1
  9
$TREEDEPTH
 70
  3020
  9
$CMLSTYLE
  2
Standard
  9
$CMLJUST
 70
     0
  9
$CMLSCALE
 40
20.0
  9
$PROXYGRAPHICS
 70
     1
  9
$MEASUREMENT
 70
     1
  9
$CELWEIGHT
370
    -1
  9
$ENDCAPS
280
     0
  9
$JOINSTYLE
280
     0
  9
$LWDISPLAY
290
     1
  9
$INSUNITS
 70
     4
  9
$HYPERLINKBASE
  1

  9
$STYLESHEET
  1

  9
$XEDIT
290
     1
  9
$CEPSNTYPE
380
     0
  9
$PSTYLEMODE
290
     1
  9
$FINGERPRINTGUID
  2
{B1AEA34B-F75A-4F32-AE3F-414C7D888EED}
  9
$VERSIONGUID
  2
{FAEB1C32-E019-11D5-929B-00C0DF256EC4}
  9
$EXTNAMES
290
     1
  9
$PSVPSCALE
 40
0.0
  9
$OLESTARTUP
290
     0
  0
ENDSEC
  0
SECTION
  2
CLASSES
  0
CLASS
  1
ACDBDICTIONARYWDFLT
  2
AcDbDictionaryWithDefault
  3
ObjectDBX Classes
 90
        0
280
     0
281
     0
  0
CLASS
  1
VISUALSTYLE
  2
AcDbVisualStyle
  3
ObjectDBX Classes
 90
     4095
280
     0
281
     0
  0
CLASS
  1
MATERIAL
  2
AcDbMaterial
  3
ObjectDBX Classes
 90
     1153
280
     0
281
     0
  0
CLASS
  1
SCALE
  2
AcDbScale
  3
ObjectDBX Classes
 90
     1153
280
     0
281
     0
  0
CLASS
  1
TABLESTYLE
  2
AcDbTableStyle
  3
ObjectDBX Classes
 90
     4095
280
     0
281
     0
  0
CLASS
  1
MLEADERSTYLE
  2
AcDbMLeaderStyle
  3
ACDB_MLEADERSTYLE_CLASS
 90
     4095
280
     0
281
     0
  0
CLASS
  1
SUN
  2
AcDbSun
  3
SCENEOE
 90
     1153
280
     0
281
     0
  0
CLASS
  1
ACDBPLACEHOLDER
  2
AcDbPlaceHolder
  3
ObjectDBX Classes
 90
        0
280
     0
281
     0
  0
CLASS
  1
LAYOUT
  2
AcDbLayout
  3
ObjectDBX Classes
 90
        0
280
     0
281
     0
  0
ENDSEC
  0
SECTION
  2
TABLES
  0
TABLE
  2
VPORT
  5
8
330
0
100
AcDbSymbolTable
 70
     1
  0
VPORT
  5
29
330
8
100
AcDbSymbolTableRecord
100
AcDbViewportTableRecord
  2
*Active
 70
     0
 10
0.0
 20
0.0
 11
1.0
 21
1.0
 12
215.9
 22
139.7
 13
0.0
 23
0.0
 14
10.0
 24
10.0
 15
10.0
 25
10.0
 16
0.0
 26
0.0
 36
1.0
 17
0.0
 27
0.0
 37
0.0
 40
279.4
 41
1.5454545455
 42
50.0
 43
0.0
 44
0.0
 50
0.0
 51
0.0
 71
     0
 72
  2000
 73
     1
 74
     3
 75
     0
 76
     0
 77
     0
 78
     0
281
     0
 65
     1
110
0.0
120
0.0
130
0.0
111
1.0
121
0.0
131
0.0
112
0.0
122
1.0
132
0.0
 79
     0
146
0.0
  0
ENDTAB
  0
TABLE
  2
LTYPE
  5
5
330
0
100
AcDbSymbolTable
 70
     6
  0
LTYPE
  5
14
330
5
100
AcDbSymbolTableRecord
100
AcDbLinetypeTableRecord
  2
ByBlock
 70
     0
  3

 72
    65
 73
     0
 40
0.0
  0
LTYPE
  5
15
330
5
100
AcDbSymbolTableRecord
100
AcDbLinetypeTableRecord
  2
ByLayer
 70
     0
  3

 72
    65
 73
     0
 40
0.0
  0
LTYPE
  5
16
330
5
100
AcDbSymbolTableRecord
100
AcDbLinetypeTableRecord
  2
Continuous
 70
     0
  3
Solid line
 72
    65
 73
     0
 40
0.0
  0
LTYPE
  5
6E
330
5
100
AcDbSymbolTableRecord
100
AcDbLinetypeTableRecord
  2
HIDDEN
 70
     0
  3
Hidden __ __ __ __ __ __ __ __ __ __ __ __ __ __
 72
    65
 73
     2
 40
1.905
 49
1.27
 74
     0
 49
-0.635
 74
     0
  0
LTYPE
  5
6F
330
5
100
AcDbSymbolTableRecord
100
AcDbLinetypeTableRecord
  2
PHANTOM
 70
     0
  3
Phantom ______  __  __  ______  __  __  ______
 72
    65
 73
     6
 40
12.7
 49
6.35
 74
     0
 49
-1.27
 74
     0
 49
1.27
 74
     0
 49
-1.27
 74
     0
 49
1.27
 74
     0
 49
-1.27
 74
     0
  0
LTYPE
  5
70
330
5
100
AcDbSymbolTableRecord
100
AcDbLinetypeTableRecord
  2
CENTER
 70
     0
  3
Center ____ _ ____ _ ____ _ ____ _ ____ _ ____
 72
    65
 73
     4
 40
10.16
 49
6.35
 74
     0
 49
-1.27
 74
     0
 49
1.27
 74
     0
 49
-1.27
 74
     0
  0
LTYPE
  5
71
330
5
100
AcDbSymbolTableRecord
100
AcDbLinetypeTableRecord
  2
CENTERX2
 70
     0
  3
Center (2x) ________  __  ________  __  _____
 72
    65
 73
     4
 40
20.32
 49
12.7
 74
     0
 49
-2.54
 74
     0
 49
2.54
 74
     0
 49
-2.54
 74
     0
  0
LTYPE
  5
72
330
5
100
AcDbSymbolTableRecord
100
AcDbLinetypeTableRecord
  2
DOT2
 70
     0
  3
Dot (.5x) ........................................
 72
    65
 73
     2
 40
0.635
 49
0.0
 74
     0
 49
-0.635
 74
     0
  0
ENDTAB
  0
TABLE
  2
LAYER
  5
2
330
0
100
AcDbSymbolTable
 70
     1
  0
LAYER
  5
10
330
2
100
AcDbSymbolTableRecord
100
AcDbLayerTableRecord
  2
0
 70
     0
 62
     7
  6
Continuous
370
    -3
390
F
  0
ENDTAB
  0
TABLE
  2
STYLE
  5
3
330
0
100
AcDbSymbolTable
 70
     2
  0
STYLE
  5
11
330
3
100
AcDbSymbolTableRecord
100
AcDbTextStyleTableRecord
  2
Standard
 70
     0
 40
0.0
 41
1.0
 50
0.0
 71
     0
 42
3.5
  3
txt
  4
bigfont
  0
STYLE
  5
73
330
3
100
AcDbSymbolTableRecord
100
AcDbTextStyleTableRecord
  2
SLDTEXTSTYLE0
 70
     0
 40
0.0
 41
0.7
 50
0.0
 71
     0
 42
3.5
  3
TXT
  4
bigfont
  0
ENDTAB
  0
TABLE
  2
VIEW
  5
6
330
0
100
AcDbSymbolTable
 70
     0
  0
ENDTAB
  0
TABLE
  2
UCS
  5
7
330
0
100
AcDbSymbolTable
 70
     0
  0
ENDTAB
  0
TABLE
  2
APPID
  5
9
330
0
100
AcDbSymbolTable
 70
     1
  0
APPID
  5
12
330
9
100
AcDbSymbolTableRecord
100
AcDbRegAppTableRecord
  2
ACAD
 70
     0
  0
ENDTAB
  0
TABLE
  2
DIMSTYLE
  5
A
330
0
100
AcDbSymbolTable
 70
     1
100
AcDbDimStyleTable
  0
DIMSTYLE
105
27
330
A
100
AcDbSymbolTableRecord
100
AcDbDimStyleTableRecord
  2
ISO-25
 70
     0
 41
2.5
 42
0.625
 43
3.75
 44
1.25
 73
     0
 74
     0
 77
     1
 78
     8
140
2.5
141
2.5
143
0.0393700787
147
0.625
171
     3
172
     1
178
     0
271
     2
272
     2
274
     3
278
    44
283
     0
284
     8
340
11
  0
ENDTAB
  0
TABLE
  2
BLOCK_RECORD
  5
1
330
0
100
AcDbSymbolTable
 70
     3
  0
BLOCK_RECORD
  5
1F
330
1
100
AcDbSymbolTableRecord
100
AcDbBlockTableRecord
  2
*Model_Space
340
22
  0
BLOCK_RECORD
  5
1B
330
1
100
AcDbSymbolTableRecord
100
AcDbBlockTableRecord
  2
*Paper_Space
340
1E
  0
BLOCK_RECORD
  5
23
330
1
100
AcDbSymbolTableRecord
100
AcDbBlockTableRecord
  2
*Paper_Space0
340
26
  0
BLOCK_RECORD
  5
1A2
330
1
100
AcDbSymbolTableRecord
100
AcDbBlockTableRecord
  2
SW_CENTERMARKSYMBOL_0
340
0
102
{BLKREFS
331
1AD
102
}
  0
BLOCK_RECORD
  5
229
330
1
100
AcDbSymbolTableRecord
100
AcDbBlockTableRecord
  2
SW_CENTERMARKSYMBOL_1
340
0
102
{BLKREFS
331
234
102
}
  0
ENDTAB
  0
ENDSEC
  0
SECTION
  2
BLOCKS
  0
BLOCK
  5
20
330
1F
100
AcDbEntity
  8
0
100
AcDbBlockBegin
  2
*Model_Space
 70
     0
 10
0.0
 20
0.0
 30
0.0
  3
*Model_Space
  1

  0
ENDBLK
  5
21
330
1F
100
AcDbEntity
  8
0
100
AcDbBlockEnd
  0
BLOCK
  5
1C
330
1B
100
AcDbEntity
 67
     1
  8
0
100
AcDbBlockBegin
  2
*Paper_Space
 70
     0
 10
0.0
 20
0.0
 30
0.0
  3
*Paper_Space
  1

  0
ENDBLK
  5
1D
330
1B
100
AcDbEntity
 67
     1
  8
0
100
AcDbBlockEnd
  0
BLOCK
  5
24
330
23
100
AcDbEntity
  8
0
100
AcDbBlockBegin
  2
*Paper_Space0
 70
     0
 10
0.0
 20
0.0
 30
0.0
  3
*Paper_Space0
  1

  0
ENDBLK
  5
25
330
23
100
AcDbEntity
  8
0
100
AcDbBlockEnd
  0
BLOCK
  5
1A3
330
1A2
100
AcDbEntity
  8
0
100
AcDbBlockBegin
  2
SW_CENTERMARKSYMBOL_0
 70
     0
 10
0.0
 20
0.0
 30
0.0
  3
SW_CENTERMARKSYMBOL_0
  1

  0
LINE
  5
1A5
330
1A2
100
AcDbEntity
  8
0
  6
Continuous
 62
     0
370
    18
100
AcDbLine
 10
0.0
 20
0.0
 30
0.0
 11
0.0
 21
2.5
 31
0.0
  0
LINE
  5
1A6
330
1A2
100
AcDbEntity
  8
0
  6
Continuous
 62
     0
370
    18
100
AcDbLine
 10
0.0
 20
0.0
 30
0.0
 11
-2.5
 21
0.0
 31
0.0
  0
LINE
  5
1A7
330
1A2
100
AcDbEntity
  8
0
  6
Continuous
 62
     0
370
    18
100
AcDbLine
 10
0.0
 20
0.0
 30
0.0
 11
0.0
 21
-2.5
 31
0.0
  0
LINE
  5
1A8
330
1A2
100
AcDbEntity
  8
0
  6
Continuous
 62
     0
370
    18
100
AcDbLine
 10
0.0
 20
0.0
 30
0.0
 11
2.5
 21
0.0
 31
0.0
  0
LINE
  5
1A9
330
1A2
100
AcDbEntity
  8
0
  6
Continuous
 62
     0
370
    18
100
AcDbLine
 10
0.0
 20
5.0
 30
0.0
 11
0.0
 21
23.4837819688
 31
0.0
  0
LINE
  5
1AA
330
1A2
100
AcDbEntity
  8
0
  6
Continuous
 62
     0
370
    18
100
AcDbLine
 10
-5.0
 20
0.0
 30
0.0
 11
-7.9989932115
 21
0.0
 31
0.0
  0
LINE
  5
1AB
330
1A2
100
AcDbEntity
  8
0
  6
Continuous
 62
     0
370
    18
100
AcDbLine
 10
0.0
 20
-5.0
 30
0.0
 11
0.0
 21
-8.0249855196
 31
0.0
  0
LINE
  5
1AC
330
1A2
100
AcDbEntity
  8
0
  6
Continuous
 62
     0
370
    18
100
AcDbLine
 10
5.0
 20
0.0
 30
0.0
 11
7.7553905327
 21
0.0
 31
0.0
  0
ENDBLK
  5
1A4
330
1A2
100
AcDbEntity
  8
0
100
AcDbBlockEnd
  0
BLOCK
  5
22A
330
229
100
AcDbEntity
  8
0
100
AcDbBlockBegin
  2
SW_CENTERMARKSYMBOL_1
 70
     0
 10
0.0
 20
0.0
 30
0.0
  3
SW_CENTERMARKSYMBOL_1
  1

  0
LINE
  5
22C
330
229
100
AcDbEntity
  8
0
  6
Continuous
 62
     0
370
    18
100
AcDbLine
 10
0.0
 20
0.0
 30
0.0
 11
0.0
 21
2.5
 31
0.0
  0
LINE
  5
22D
330
229
100
AcDbEntity
  8
0
  6
Continuous
 62
     0
370
    18
100
AcDbLine
 10
0.0
 20
0.0
 30
0.0
 11
-2.5
 21
0.0
 31
0.0
  0
LINE
  5
22E
330
229
100
AcDbEntity
  8
0
  6
Continuous
 62
     0
370
    18
100
AcDbLine
 10
0.0
 20
0.0
 30
0.0
 11
0.0
 21
-2.5
 31
0.0
  0
LINE
  5
22F
330
229
100
AcDbEntity
  8
0
  6
Continuous
 62
     0
370
    18
100
AcDbLine
 10
0.0
 20
0.0
 30
0.0
 11
2.5
 21
0.0
 31
0.0
  0
LINE
  5
230
330
229
100
AcDbEntity
  8
0
  6
Continuous
 62
     0
370
    18
100
AcDbLine
 10
0.0
 20
5.0
 30
0.0
 11
0.0
 21
7.922787188
 31
0.0
  0
LINE
  5
231
330
229
100
AcDbEntity
  8
0
  6
Continuous
 62
     0
370
    18
100
AcDbLine
 10
-5.0
 20
0.0
 30
0.0
 11
-7.9272890402
 21
0.0
 31
0.0
  0
LINE
  5
232
330
229
100
AcDbEntity
  8
0
  6
Continuous
 62
     0
370
    18
100
AcDbLine
 10
0.0
 20
-5.0
 30
0.0
 11
0.0
 21
-7.7173163851
 31
0.0
  0
LINE
  5
233
330
229
100
AcDbEntity
  8
0
  6
Continuous
 62
     0
370
    18
100
AcDbLine
 10
5.0
 20
0.0
 30
0.0
 11
23.5348376527
 21
0.0
 31
0.0
  0
ENDBLK
  5
22B
330
229
100
AcDbEntity
  8
0
100
AcDbBlockEnd
  0
ENDSEC
  0
SECTION
  2
ENTITIES
  0
MTEXT
  5
74
330
1F
100
AcDbEntity
  8
0
  6
Continuous
 62
     7
370
     0
100
AcDbMText
 10
187.3296239373
 20
126.0125234722
 30
0.0
 40
3.7041666667
 41
0.0
 71
     1
 72
     1
  1
5R-LM1022
  7
SLDTEXTSTYLE0
 73
     1
 44
1.0
  0
LINE
  5
75
330
1F
100
AcDbEntity
  8
0
  6
Continuous
 62
     7
370
    25
100
AcDbLine
 10
170.4660931341
 20
104.3948621013
 30
0.0
 11
170.1607404015
 21
114.1661476799
 31
0.0
  0
LINE
  5
76
330
1F
100
AcDbEntity
  8
0
  6
Continuous
 62
     7
370
    25
100
AcDbLine
 10
157.0961799211
 20
114.1661476799
 30
0.0
 11
156.7908271886
 21
104.3948621013
 31
0.0
  0
ARC
  5
77
330
1F
100
AcDbEntity
  8
0
  6
Continuous
 62
     7
370
    25
100
AcDbCircle
 10
174.1284601613
 20
101.1371230342
 30
0.0
 40
0.5
100
AcDbArc
 50
169.905845481
 51
180.0
  0
ARC
  5
78
330
1F
100
AcDbEntity
  8
0
  6
Continuous
 62
     7
370
    25
100
AcDbCircle
 10
174.1284601613
 20
87.6371230342
 30
0.0
 40
0.5
100
AcDbArc
 50
180.0
 51
190.094154519
  0
LINE
  5
79
330
1F
100
AcDbEntity
  8
0
  6
Continuous
 62
     7
370
    25
100
AcDbLine
 10
173.6361992284
 20
87.5494900614
 30
0.0
 11
183.407484807
 21
87.854842794
 31
0.0
  0
LINE
  5
7A
330
1F
100
AcDbEntity
  8
0
  6
Continuous
 62
     7
370
    25
100
AcDbLine
 10
183.407484807
 20
100.9194032744
 30
0.0
 11
173.6361992284
 21
101.2247560069
 31
0.0
  0
ARC
  5
7B
330
1F
100
AcDbEntity
  8
0
  6
Continuous
 62
     7
370
    25
100
AcDbCircle
 10
156.8784601613
 20
104.8871230342
 30
0.0
 40
0.5000000000000155
100
AcDbArc
 50
259.905845481
 51
270.0
  0
ARC
  5
7C
330
1F
100
AcDbEntity
  8
0
  6
Continuous
 62
     7
370
    25
100
AcDbCircle
 10
170.3784601613
 20
104.8871230342
 30
0.0
 40
0.5000000000000105
100
AcDbArc
 50
270.0
 51
280.094154519
  0
LINE
  5
7D
330
1F
100
AcDbEntity
  8
0
  6
Continuous
 62
     7
370
    25
100
AcDbLine
 10
170.1607404015
 20
114.1661476799
 30
0.0
 11
168.8784600905
 21
116.387122915
 31
0.0
  0
LINE
  5
7E
330
1F
100
AcDbEntity
  8
0
  6
Continuous
 62
     7
370
    25
100
AcDbLine
 10
158.3784602321
 20
116.387122915
 30
0.0
 11
157.0961799211
 21
114.1661476799
 31
0.0
  0
LINE
  5
7F
330
1F
100
AcDbEntity
  8
0
  6
Continuous
 62
     7
370
    25
100
AcDbLine
 10
183.407484807
 20
87.854842794
 30
0.0
 11
185.6284600421
 21
89.137123105
 31
0.0
  0
LINE
  5
80
330
1F
100
AcDbEntity
  8
0
  6
Continuous
 62
     7
370
    25
100
AcDbLine
 10
185.6284600421
 20
99.6371229634
 30
0.0
 11
183.407484807
 21
100.9194032744
 31
0.0
  0
ARC
  5
81
330
1F
100
AcDbEntity
  8
0
  6
Continuous
 62
     7
370
    25
100
AcDbCircle
 10
173.1284601613
 20
100.8871230342
 30
0.0
 40
0.5
100
AcDbArc
 50
270.0
 51
0.0
  0
ARC
  5
82
330
1F
100
AcDbEntity
  8
0
  6
Continuous
 62
     7
370
    25
100
AcDbCircle
 10
173.1284601613
 20
87.8871230342
 30
0.0
 40
0.5
100
AcDbArc
 50
0.0
 51
90.0
  0
ARC
  5
83
330
1F
100
AcDbEntity
  8
0
  6
Continuous
 62
     7
370
    25
100
AcDbCircle
 10
157.1284601613
 20
103.8871230342
 30
0.0
 40
0.5
100
AcDbArc
 50
0.0
 51
90.0
  0
ARC
  5
84
330
1F
100
AcDbEntity
  8
0
  6
Continuous
 62
     7
370
    25
100
AcDbCircle
 10
170.1284601613
 20
103.8871230342
 30
0.0
 40
0.5
100
AcDbArc
 50
90.0
 51
180.0
  0
LINE
  5
85
330
1F
100
AcDbEntity
  8
0
  6
Continuous
 62
     7
370
    25
100
AcDbLine
 10
159.6284599713
 20
88.387122982
 30
0.0
 11
173.1284598558
 21
88.387122982
 31
0.0
  0
LINE
  5
86
330
1F
100
AcDbEntity
  8
0
  6
Continuous
 62
     7
370
    25
100
AcDbLine
 10
173.1284598558
 20
100.3871230863
 30
0.0
 11
169.6284602135
 21
100.3871230863
 31
0.0
  0
LINE
  5
87
330
1F
100
AcDbEntity
  8
0
  6
Continuous
 62
     7
370
    25
100
AcDbLine
 10
169.6284602135
 20
100.3871230863
 30
0.0
 11
169.6284602135
 21
103.8871227287
 31
0.0
  0
LINE
  5
88
330
1F
100
AcDbEntity
  8
0
  6
Continuous
 62
     7
370
    25
100
AcDbLine
 10
157.6284601092
 20
103.8871227287
 30
0.0
 11
157.6284601092
 21
90.3871228442
 31
0.0
  0
ARC
  5
89
330
1F
100
AcDbEntity
  8
0
  6
Continuous
 62
     7
370
    25
100
AcDbCircle
 10
159.6284601613
 20
90.3871230342
 30
0.0
 40
2.000000000000007
100
AcDbArc
 50
179.7814994075
 51
270.2152220621
  0
LINE
  5
8A
330
1F
100
AcDbEntity
  8
0
  6
Continuous
 62
     7
370
    25
100
AcDbLine
 10
157.0961799211
 20
114.1661476799
 30
0.0
 11
170.1607404015
 21
114.1661476799
 31
0.0
  0
LINE
  5
8B
330
1F
100
AcDbEntity
  8
0
  6
Continuous
 62
     7
370
    25
100
AcDbLine
 10
156.7908271886
 20
104.3948621013
 30
0.0
 11
170.4660931341
 21
104.3948621013
 31
0.0
  0
LINE
  5
8C
330
1F
100
AcDbEntity
  8
0
  6
Continuous
 62
     7
370
    25
100
AcDbLine
 10
173.6284599378
 20
87.6371228591
 30
0.0
 11
173.6284599378
 21
101.1371232093
 31
0.0
  0
LINE
  5
8D
330
1F
100
AcDbEntity
  8
0
  6
Continuous
 62
     7
370
    25
100
AcDbLine
 10
173.6361992284
 20
101.2247560069
 30
0.0
 11
173.6361992284
 21
87.5494900614
 31
0.0
  0
LINE
  5
8E
330
1F
100
AcDbEntity
  8
0
  6
Continuous
 62
     7
370
    25
100
AcDbLine
 10
183.407484807
 20
87.854842794
 30
0.0
 11
183.407484807
 21
100.9194032744
 31
0.0
  0
LINE
  5
8F
330
1F
100
AcDbEntity
  8
0
  6
Continuous
 62
     7
370
    25
100
AcDbLine
 10
170.3784603364
 20
104.3871228107
 30
0.0
 11
156.8784599862
 21
104.3871228107
 31
0.0
  0
LINE
  5
90
330
1F
100
AcDbEntity
  8
0
  6
Continuous
 62
     7
370
    25
100
AcDbLine
 10
158.3784602321
 20
116.387122915
 30
0.0
 11
168.8784600905
 21
116.387122915
 31
0.0
  0
LINE
  5
91
330
1F
100
AcDbEntity
  8
0
  6
Continuous
 62
     7
370
    25
100
AcDbLine
 10
185.6284600421
 20
89.137123105
 30
0.0
 11
185.6284600421
 21
99.6371229634
 31
0.0
  0
SPLINE
  5
92
330
1F
100
AcDbEntity
  8
0
  6
Continuous
 62
     7
370
    25
100
AcDbSpline
210
0.0
220
0.0
230
1.0
 70
     8
 71
     3
 72
     8
 73
     4
 74
     0
 42
0.000000001
 43
0.00000001
 40
0.0
 40
0.0
 40
0.0
 40
0.0
 40
1.0
 40
1.0
 40
1.0
 40
1.0
 10
160.6284601613043
 20
89.34712303418286
 30
0.0
 10
160.5119935740821
 20
89.34712303418286
 30
0.0
 10
160.3976820036201
 20
89.35574385731306
 30
0.0
 10
160.2853060396745
 20
89.37239185173812
 30
0.0
  0
LINE
  5
93
330
1F
100
AcDbEntity
  8
0
  6
Continuous
 62
     7
370
    25
100
AcDbLine
 10
169.8784602544
 20
89.3471228414
 30
0.0
 11
160.6284601352
 21
89.3471228414
 31
0.0
  0
SPLINE
  5
94
330
1F
100
AcDbEntity
  8
0
  6
Continuous
 62
     7
370
    25
100
AcDbSpline
210
0.0
220
0.0
230
1.0
 70
     8
 71
     3
 72
    14
 73
    10
 74
     0
 42
0.000000001
 43
0.00000001
 40
0.0
 40
0.0
 40
0.0
 40
0.0
 40
0.25
 40
0.25
 40
0.5
 40
0.5
 40
0.75
 40
0.75
 40
1.0
 40
1.0
 40
1.0
 40
1.0
 10
169.8784601613043
 20
89.34712303418286
 30
0.0
 10
169.9657781903107
 20
89.34712303418286
 30
0.0
 10
170.0474062981323
 20
89.37007583296929
 30
0.0
 10
170.1751074162658
 20
89.434571432131
 30
0.0
 10
170.2244982090913
 20
89.47580391893726
 30
0.0
 10
170.3018568766494
 20
89.56526575890635
 30
0.0
 10
170.3304256862212
 20
89.61474059626651
 30
0.0
 10
170.3684930551883
 20
89.71731285419871
 30
0.0
 10
170.3784601613043
 20
89.77092261547998
 30
0.0
 10
170.3784601613043
 20
89.82712303418286
 30
0.0
  0
LINE
  5
95
330
1F
100
AcDbEntity
  8
0
  6
Continuous
 62
     7
370
    25
100
AcDbLine
 10
170.3784603364
 20
92.0356129285
 30
0.0
 11
170.3784603364
 21
89.8271232367
 31
0.0
  0
SPLINE
  5
96
330
1F
100
AcDbEntity
  8
0
  6
Continuous
 62
     7
370
    25
100
AcDbSpline
210
0.0
220
0.0
230
1.0
 70
    24
 71
     3
 72
    14
 73
    10
 74
     0
 42
0.000000001
 43
0.00000001
 40
0.0
 40
0.0
 40
0.0
 40
0.0
 40
0.25
 40
0.25
 40
0.5
 40
0.5
 40
0.75
 40
0.75
 40
1.0
 40
1.0
 40
1.0
 40
1.0
 10
170.3784601613043
 20
94.38712303418285
 30
0.0
 10
170.3784601613043
 20
94.18858571959383
 30
0.0
 10
170.3784601613043
 20
93.99004698876047
 30
0.0
 10
170.3784601613043
 20
93.59387815248694
 30
0.0
 10
170.3784601613043
 20
93.39624520716563
 30
0.0
 10
170.3784601613043
 20
93.00287877827546
 30
0.0
 10
170.3784601613043
 20
92.80714243761915
 30
0.0
 10
170.3784601613043
 20
92.41873052472735
 30
0.0
 10
170.3784601613043
 20
92.22605208364851
 30
0.0
 10
170.3784601613043
 20
92.035612881111
 30
0.0
  0
SPLINE
  5
97
330
1F
100
AcDbEntity
  8
0
  6
Continuous
 62
     7
370
    25
100
AcDbSpline
210
0.0
220
0.0
230
1.0
 70
    24
 71
     3
 72
    14
 73
    10
 74
     0
 42
0.000000001
 43
0.00000001
 40
0.0
 40
0.0
 40
0.0
 40
0.0
 40
0.25
 40
0.25
 40
0.5
 40
0.5
 40
0.75
 40
0.75
 40
1.0
 40
1.0
 40
1.0
 40
1.0
 10
170.3784601613043
 20
94.38712303418285
 30
0.0
 10
170.3784601613043
 20
94.58566034877188
 30
0.0
 10
170.3784601613043
 20
94.78419907960524
 30
0.0
 10
170.3784601613043
 20
95.18036791587878
 30
0.0
 10
170.3784601613043
 20
95.37800086120009
 30
0.0
 10
170.3784601613043
 20
95.77136729009027
 30
0.0
 10
170.3784601613043
 20
95.96710363074656
 30
0.0
 10
170.3784601613043
 20
96.35551554363836
 30
0.0
 10
170.3784601613043
 20
96.5481939847172
 30
0.0
 10
170.3784601613043
 20
96.73863318725472
 30
0.0
  0
LINE
  5
98
330
1F
100
AcDbEntity
  8
0
  6
Continuous
 62
     7
370
    25
100
AcDbLine
 10
170.3784603364
 20
98.9471228317
 30
0.0
 11
170.3784603364
 21
96.7386331398
 31
0.0
  0
SPLINE
  5
99
330
1F
100
AcDbEntity
  8
0
  6
Continuous
 62
     7
370
    25
100
AcDbSpline
210
0.0
220
0.0
230
1.0
 70
     8
 71
     3
 72
    14
 73
    10
 74
     0
 42
0.000000001
 43
0.00000001
 40
0.0
 40
0.0
 40
0.0
 40
0.0
 40
0.25
 40
0.25
 40
0.5
 40
0.5
 40
0.75
 40
0.75
 40
1.0
 40
1.0
 40
1.0
 40
1.0
 10
170.3784601613043
 20
98.94712303418287
 30
0.0
 10
170.3784601613043
 20
99.0032762745137
 30
0.0
 10
170.3685068547518
 20
99.05702986683224
 30
0.0
 10
170.3301352389358
 20
99.16015327524173
 30
0.0
 10
170.3015963069626
 20
99.20933125124937
 30
0.0
 10
170.2244087596825
 20
99.29849576357513
 30
0.0
 10
170.1749800744946
 20
99.339744427847
 30
0.0
 10
170.0474715873176
 20
99.40413178084901
 30
0.0
 10
169.9658553772634
 20
99.42712303418286
 30
0.0
 10
169.8784601613043
 20
99.42712303418286
 30
0.0
  0
LINE
  5
9A
330
1F
100
AcDbEntity
  8
0
  6
Continuous
 62
     7
370
    25
100
AcDbLine
 10
169.6284602135
 20
99.427123227
 30
0.0
 11
169.8784602544
 21
99.427123227
 31
0.0
  0
SPLINE
  5
9B
330
1F
100
AcDbEntity
  8
0
  6
Continuous
 62
     7
370
    25
100
AcDbSpline
210
0.0
220
0.0
230
1.0
 70
     8
 71
     3
 72
    12
 73
     8
 74
     0
 42
0.000000001
 43
0.00000001
 40
0.0
 40
0.0
 40
0.0
 40
0.0
 40
0.5000000000000009
 40
0.5000000000000009
 40
0.7500000000000004
 40
0.7500000000000004
 40
1.0
 40
1.0
 40
1.0
 40
1.0
 10
168.998193924166
 20
99.75685679704452
 30
0.0
 10
169.0452420787144
 20
99.68683260267218
 30
0.0
 10
169.110280309924
 20
99.61338929790949
 30
0.0
 10
169.263753662976
 20
99.51522119764327
 30
0.0
 10
169.3239133827011
 20
99.48529406629056
 30
0.0
 10
169.4652009042662
 20
99.4407726410273
 30
0.0
 10
169.5456412130899
 20
99.42712303418286
 30
0.0
 10
169.6284601613043
 20
99.42712303418286
 30
0.0
  0
LINE
  5
9C
330
1F
100
AcDbEntity
  8
0
  6
Continuous
 62
     7
370
    25
100
AcDbLine
 10
168.9981937147
 20
99.7568565876
 30
0.0
 11
169.6284602135
 21
100.3871230863
 31
0.0
  0
SPLINE
  5
9D
330
1F
100
AcDbEntity
  8
0
  6
Continuous
 62
     7
370
    25
100
AcDbSpline
210
0.0
220
0.0
230
1.0
 70
    24
 71
     3
 72
    14
 73
    10
 74
     0
 42
0.000000001
 43
0.00000001
 40
0.0
 40
0.0
 40
0.0
 40
0.0
 40
0.25
 40
0.25
 40
0.5
 40
0.5
 40
0.75
 40
0.75
 40
1.0
 40
1.0
 40
1.0
 40
1.0
 10
163.6284601613043
 20
101.1371230341829
 30
0.0
 10
163.8269974758934
 20
101.1371230341829
 30
0.0
 10
164.0255362067267
 20
101.1371230341829
 30
0.0
 10
164.4217050430002
 20
101.1371230341829
 30
0.0
 10
164.6193379883216
 20
101.1371230341829
 30
0.0
 10
165.0127044172118
 20
101.1371230341829
 30
0.0
 10
165.208440757868
 20
101.1371230341829
 30
0.0
 10
165.5968526707598
 20
101.1371230341829
 30
0.0
 10
165.7895311118387
 20
101.1371230341829
 30
0.0
 10
165.9799703143762
 20
101.1371230341829
 30
0.0
  0
SPLINE
  5
9E
330
1F
100
AcDbEntity
  8
0
  6
Continuous
 62
     7
370
    25
100
AcDbSpline
210
0.0
220
0.0
230
1.0
 70
    24
 71
     3
 72
    14
 73
    10
 74
     0
 42
0.000000001
 43
0.00000001
 40
0.0
 40
0.0
 40
0.0
 40
0.0
 40
0.25
 40
0.25
 40
0.5
 40
0.5
 40
0.75
 40
0.75
 40
1.0
 40
1.0
 40
1.0
 40
1.0
 10
163.6284601613043
 20
101.1371230341829
 30
0.0
 10
163.4299228467153
 20
101.1371230341829
 30
0.0
 10
163.231384115882
 20
101.1371230341829
 30
0.0
 10
162.8352152796084
 20
101.1371230341829
 30
0.0
 10
162.6375823342871
 20
101.1371230341829
 30
0.0
 10
162.2442159053969
 20
101.1371230341829
 30
0.0
 10
162.0484795647406
 20
101.1371230341829
 30
0.0
 10
161.6600676518488
 20
101.1371230341829
 30
0.0
 10
161.46738921077
 20
101.1371230341829
 30
0.0
 10
161.2769500082325
 20
101.1371230341829
 30
0.0
  0
LINE
  5
9F
330
1F
100
AcDbEntity
  8
0
  6
Continuous
 62
     7
370
    25
100
AcDbLine
 10
159.0684603638
 20
101.1371232093
 30
0.0
 11
161.2769500556
 21
101.1371232093
 31
0.0
  0
SPLINE
  5
A0
330
1F
100
AcDbEntity
  8
0
  6
Continuous
 62
     7
370
    25
100
AcDbSpline
210
0.0
220
0.0
230
1.0
 70
     8
 71
     3
 72
    14
 73
    10
 74
     0
 42
0.000000001
 43
0.00000001
 40
0.0
 40
0.0
 40
0.0
 40
0.0
 40
0.25
 40
0.25
 40
0.5
 40
0.5
 40
0.75
 40
0.75
 40
1.0
 40
1.0
 40
1.0
 40
1.0
 10
159.0684601613043
 20
101.1371230341829
 30
0.0
 10
159.0123069209735
 20
101.1371230341829
 30
0.0
 10
158.958553328655
 20
101.1271697276303
 30
0.0
 10
158.8554299202455
 20
101.0887981118143
 30
0.0
 10
158.8062519442378
 20
101.0602591798412
 30
0.0
 10
158.7170874319121
 20
100.9830716325611
 30
0.0
 10
158.6758387676402
 20
100.9336429473731
 30
0.0
 10
158.6114514146382
 20
100.8061344601961
 30
0.0
 10
158.5884601613043
 20
100.724518250142
 30
0.0
 10
158.5884601613043
 20
100.6371230341829
 30
0.0
  0
LINE
  5
A1
330
1F
100
AcDbEntity
  8
0
  6
Continuous
 62
     7
370
    25
100
AcDbLine
 10
158.5884599685
 20
91.3871230081
 30
0.0
 11
158.5884599685
 21
100.6371231273
 31
0.0
  0
SPLINE
  5
A2
330
1F
100
AcDbEntity
  8
0
  6
Continuous
 62
     7
370
    25
100
AcDbSpline
210
0.0
220
0.0
230
1.0
 70
     8
 71
     3
 72
     8
 73
     4
 74
     0
 42
0.000000001
 43
0.00000001
 40
0.0
 40
0.0
 40
0.0
 40
0.0
 40
1.0
 40
1.0
 40
1.0
 40
1.0
 10
158.6137289788596
 20
91.04396891255304
 30
0.0
 10
158.5970809844345
 20
91.15634487649861
 30
0.0
 10
158.5884601613043
 20
91.27065644696067
 30
0.0
 10
158.5884601613043
 20
91.38712303418286
 30
0.0
  0
SPLINE
  5
A3
330
1F
100
AcDbEntity
  8
0
  6
Continuous
 62
     7
370
    25
100
AcDbSpline
210
0.0
220
0.0
230
1.0
 70
     8
 71
     3
 72
    12
 73
     8
 74
     0
 42
0.000000001
 43
0.00000001
 40
0.0
 40
0.0
 40
0.0
 40
0.0
 40
0.2499999999999999
 40
0.2499999999999999
 40
0.4999999999999998
 40
0.4999999999999998
 40
1.0
 40
1.0
 40
1.0
 40
1.0
 10
168.6684601613043
 20
100.3871230341829
 30
0.0
 10
168.6684601613043
 20
100.3043040859684
 30
0.0
 10
168.6821097681488
 20
100.2238637771447
 30
0.0
 10
168.726631193412
 20
100.0825762555796
 30
0.0
 10
168.7565583247647
 20
100.0224165358545
 30
0.0
 10
168.8547264250309
 20
99.86894318280257
 30
0.0
 10
168.9281697297936
 20
99.8039049515926
 30
0.0
 10
168.9981939241659
 20
99.7568567970442
 30
0.0
  0
LINE
  5
A4
330
1F
100
AcDbEntity
  8
0
  6
Continuous
 62
     7
370
    25
100
AcDbLine
 10
168.6684603541
 20
100.6371231273
 30
0.0
 11
168.6684603541
 21
100.3871230863
 31
0.0
  0
SPLINE
  5
A5
330
1F
100
AcDbEntity
  8
0
  6
Continuous
 62
     7
370
    25
100
AcDbSpline
210
0.0
220
0.0
230
1.0
 70
     8
 71
     3
 72
    14
 73
    10
 74
     0
 42
0.000000001
 43
0.00000001
 40
0.0
 40
0.0
 40
0.0
 40
0.0
 40
0.25
 40
0.25
 40
0.5
 40
0.5
 40
0.75
 40
0.75
 40
1.0
 40
1.0
 40
1.0
 40
1.0
 10
168.6684601613043
 20
100.6371230341829
 30
0.0
 10
168.6684601613043
 20
100.7244410631892
 30
0.0
 10
168.6455073625179
 20
100.8060691710108
 30
0.0
 10
168.5810117633562
 20
100.9337702891443
 30
0.0
 10
168.5397792765499
 20
100.9831610819699
 30
0.0
 10
168.4503174365808
 20
101.0605197495279
 30
0.0
 10
168.4008425992207
 20
101.0890885590998
 30
0.0
 10
168.2982703412885
 20
101.1271559280669
 30
0.0
 10
168.2446605800072
 20
101.1371230341829
 30
0.0
 10
168.1884601613043
 20
101.1371230341829
 30
0.0
  0
LINE
  5
A6
330
1F
100
AcDbEntity
  8
0
  6
Continuous
 62
     7
370
    25
100
AcDbLine
 10
165.979970267
 20
101.1371232093
 30
0.0
 11
168.1884599588
 21
101.1371232093
 31
0.0
  0
LINE
  5
A7
330
1F
100
AcDbEntity
  8
0
  6
Continuous
 62
     7
370
    25
100
AcDbLine
 10
158.878460314
 20
100.8871231683
 30
0.0
 11
161.178970497
 21
100.8871231683
 31
0.0
  0
SPLINE
  5
A8
330
1F
100
AcDbEntity
  8
0
  6
Continuous
 62
     7
370
    25
100
AcDbSpline
210
0.0
220
0.0
230
1.0
 70
     8
 71
     3
 72
    12
 73
     8
 74
     0
 42
0.000000001
 43
0.00000001
 40
0.0
 40
0.0
 40
0.0
 40
0.0
 40
0.25
 40
0.25
 40
0.5
 40
0.5
 40
1.0
 40
1.0
 40
1.0
 40
1.0
 10
161.1932265083335
 20
100.8138997294787
 30
0.0
 10
161.1950219555335
 20
100.8281138749076
 30
0.0
 10
161.1970492153403
 20
100.839797404166
 30
0.0
 10
161.2001008457506
 20
100.8588570783339
 30
0.0
 10
161.2011252163541
 20
100.8662332232433
 30
0.0
 10
161.2004942227345
 20
100.8830313534357
 30
0.0
 10
161.1951347530814
 20
100.8871230341829
 30
0.0
 10
161.1789704185211
 20
100.8871230341829
 30
0.0
  0
SPLINE
  5
A9
330
1F
100
AcDbEntity
  8
0
  6
Continuous
 62
     7
370
    25
100
AcDbSpline
210
0.0
220
0.0
230
1.0
 70
     8
 71
     3
 72
    10
 73
     6
 74
     0
 42
0.000000001
 43
0.00000001
 40
0.0
 40
0.0
 40
0.0
 40
0.0
 40
0.5
 40
0.5
 40
1.0
 40
1.0
 40
1.0
 40
1.0
 10
161.1932265083335
 20
100.8138997294787
 30
0.0
 10
161.1896356139334
 20
100.785471438621
 30
0.0
 10
161.1860715914803
 20
100.7525375101842
 30
0.0
 10
161.1807389937742
 20
100.6896235533523
 30
0.0
 10
161.1789704185211
 20
100.6596435249571
 30
0.0
 10
161.1789704185211
 20
100.6371230341829
 30
0.0
  0
LINE
  5
AA
330
1F
100
AcDbEntity
  8
0
  6
Continuous
 62
     7
370
    25
100
AcDbLine
 10
161.178970497
 20
100.6371231273
 30
0.0
 11
158.878460314
 21
100.6371231273
 31
0.0
  0
LINE
  5
AB
330
1F
100
AcDbEntity
  8
0
  6
Continuous
 62
     7
370
    25
100
AcDbLine
 10
158.878460314
 20
100.6371231273
 30
0.0
 11
158.878460314
 21
100.8871231683
 31
0.0
  0
LINE
  5
AC
330
1F
100
AcDbEntity
  8
0
  6
Continuous
 62
     7
370
    25
100
AcDbLine
 10
170.1284602954
 20
99.1371228814
 30
0.0
 11
170.1284602954
 21
96.8366126985
 31
0.0
  0
SPLINE
  5
AD
330
1F
100
AcDbEntity
  8
0
  6
Continuous
 62
     7
370
    25
100
AcDbSpline
210
0.0
220
0.0
230
1.0
 70
     8
 71
     3
 72
    12
 73
     8
 74
     0
 42
0.000000001
 43
0.00000001
 40
0.0
 40
0.0
 40
0.0
 40
0.0
 40
0.25
 40
0.25
 40
0.5
 40
0.5
 40
1.0
 40
1.0
 40
1.0
 40
1.0
 10
170.0552368566002
 20
96.8223566871537
 30
0.0
 10
170.069451002029
 20
96.82056123995365
 30
0.0
 10
170.0811345312875
 20
96.81853398014688
 30
0.0
 10
170.1001942054554
 20
96.81548234973658
 30
0.0
 10
170.1075703503647
 20
96.81445797913308
 30
0.0
 10
170.1243684805572
 20
96.81508897275265
 30
0.0
 10
170.1284601613043
 20
96.82044844240578
 30
0.0
 10
170.1284601613043
 20
96.83661277696604
 30
0.0
  0
SPLINE
  5
AE
330
1F
100
AcDbEntity
  8
0
  6
Continuous
 62
     7
370
    25
100
AcDbSpline
210
0.0
220
0.0
230
1.0
 70
     8
 71
     3
 72
    10
 73
     6
 74
     0
 42
0.000000001
 43
0.00000001
 40
0.0
 40
0.0
 40
0.0
 40
0.0
 40
0.5
 40
0.5
 40
1.0
 40
1.0
 40
1.0
 40
1.0
 10
170.0552368566002
 20
96.8223566871537
 30
0.0
 10
170.0268085657424
 20
96.8259475815538
 30
0.0
 10
169.9938746373057
 20
96.82951160400688
 30
0.0
 10
169.9309606804737
 20
96.834844201713
 30
0.0
 10
169.9009806520787
 20
96.83661277696604
 30
0.0
 10
169.8784601613043
 20
96.83661277696604
 30
0.0
  0
LINE
  5
AF
330
1F
100
AcDbEntity
  8
0
  6
Continuous
 62
     7
370
    25
100
AcDbLine
 10
169.8784602544
 20
96.8366126985
 30
0.0
 11
169.8784602544
 21
99.1371228814
 31
0.0
  0
LINE
  5
B0
330
1F
100
AcDbEntity
  8
0
  6
Continuous
 62
     7
370
    25
100
AcDbLine
 10
170.1284602954
 20
99.1371228814
 30
0.0
 11
169.8784602544
 21
99.1371228814
 31
0.0
  0
LINE
  5
B1
330
1F
100
AcDbEntity
  8
0
  6
Continuous
 62
     7
370
    25
100
AcDbLine
 10
168.3784600086
 20
100.6371231273
 30
0.0
 11
166.0779498256
 21
100.6371231273
 31
0.0
  0
SPLINE
  5
B2
330
1F
100
AcDbEntity
  8
0
  6
Continuous
 62
     7
370
    25
100
AcDbSpline
210
0.0
220
0.0
230
1.0
 70
     8
 71
     3
 72
    10
 73
     6
 74
     0
 42
0.000000001
 43
0.00000001
 40
0.0
 40
0.0
 40
0.0
 40
0.0
 40
0.5
 40
0.5
 40
1.0
 40
1.0
 40
1.0
 40
1.0
 10
166.0636938142752
 20
100.8138997294787
 30
0.0
 10
166.0672847086753
 20
100.785471438621
 30
0.0
 10
166.0708487311283
 20
100.7525375101842
 30
0.0
 10
166.0761813288345
 20
100.6896235533523
 30
0.0
 10
166.0779499040875
 20
100.6596435249571
 30
0.0
 10
166.0779499040875
 20
100.6371230341829
 30
0.0
  0
SPLINE
  5
B3
330
1F
100
AcDbEntity
  8
0
  6
Continuous
 62
     7
370
    25
100
AcDbSpline
210
0.0
220
0.0
230
1.0
 70
     8
 71
     3
 72
    12
 73
     8
 74
     0
 42
0.000000001
 43
0.00000001
 40
0.0
 40
0.0
 40
0.0
 40
0.0
 40
0.25
 40
0.25
 40
0.5
 40
0.5
 40
1.0
 40
1.0
 40
1.0
 40
1.0
 10
166.0636938142752
 20
100.8138997294787
 30
0.0
 10
166.0618983670751
 20
100.8281138749076
 30
0.0
 10
166.0598711072683
 20
100.839797404166
 30
0.0
 10
166.056819476858
 20
100.8588570783339
 30
0.0
 10
166.0557951062546
 20
100.8662332232433
 30
0.0
 10
166.0564260998741
 20
100.8830313534357
 30
0.0
 10
166.0617855695272
 20
100.8871230341829
 30
0.0
 10
166.0779499040875
 20
100.8871230341829
 30
0.0
  0
LINE
  5
B4
330
1F
100
AcDbEntity
  8
0
  6
Continuous
 62
     7
370
    25
100
AcDbLine
 10
166.0779498256
 20
100.8871231683
 30
0.0
 11
168.3784600086
 21
100.8871231683
 31
0.0
  0
LINE
  5
B5
330
1F
100
AcDbEntity
  8
0
  6
Continuous
 62
     7
370
    25
100
AcDbLine
 10
168.3784600086
 20
100.6371231273
 30
0.0
 11
168.3784600086
 21
100.8871231683
 31
0.0
  0
SPLINE
  5
B6
330
1F
100
AcDbEntity
  8
0
  6
Continuous
 62
     7
370
    25
100
AcDbSpline
210
0.0
220
0.0
230
1.0
 70
     8
 71
     3
 72
    12
 73
     8
 74
     0
 42
0.000000001
 43
0.00000001
 40
0.0
 40
0.0
 40
0.0
 40
0.0
 40
0.25
 40
0.25
 40
0.5
 40
0.5
 40
1.0
 40
1.0
 40
1.0
 40
1.0
 10
170.0552368566002
 20
91.95188938121201
 30
0.0
 10
170.069451002029
 20
91.95368482841205
 30
0.0
 10
170.0811345312875
 20
91.95571208821885
 30
0.0
 10
170.1001942054554
 20
91.95876371862913
 30
0.0
 10
170.1075703503647
 20
91.95978808923263
 30
0.0
 10
170.1243684805572
 20
91.95915709561307
 30
0.0
 10
170.1284601613043
 20
91.95379762595994
 30
0.0
 10
170.1284601613043
 20
91.93763329139968
 30
0.0
  0
LINE
  5
B7
330
1F
100
AcDbEntity
  8
0
  6
Continuous
 62
     7
370
    25
100
AcDbLine
 10
170.1284602954
 20
91.9376333699
 30
0.0
 11
170.1284602954
 21
89.6371231869
 31
0.0
  0
LINE
  5
B8
330
1F
100
AcDbEntity
  8
0
  6
Continuous
 62
     7
370
    25
100
AcDbLine
 10
170.1284602954
 20
89.6371231869
 30
0.0
 11
169.8784602544
 21
89.6371231869
 31
0.0
  0
LINE
  5
B9
330
1F
100
AcDbEntity
  8
0
  6
Continuous
 62
     7
370
    25
100
AcDbLine
 10
169.8784602544
 20
89.6371231869
 30
0.0
 11
169.8784602544
 21
91.9376333699
 31
0.0
  0
SPLINE
  5
BA
330
1F
100
AcDbEntity
  8
0
  6
Continuous
 62
     7
370
    25
100
AcDbSpline
210
0.0
220
0.0
230
1.0
 70
     8
 71
     3
 72
    10
 73
     6
 74
     0
 42
0.000000001
 43
0.00000001
 40
0.0
 40
0.0
 40
0.0
 40
0.0
 40
0.5
 40
0.5
 40
1.0
 40
1.0
 40
1.0
 40
1.0
 10
170.0552368566002
 20
91.95188938121201
 30
0.0
 10
170.0268085657424
 20
91.94829848681192
 30
0.0
 10
169.9938746373057
 20
91.94473446435883
 30
0.0
 10
169.9309606804737
 20
91.93940186665272
 30
0.0
 10
169.9009806520787
 20
91.93763329139968
 30
0.0
 10
169.8784601613043
 20
91.93763329139968
 30
0.0
  0
LINE
  5
BB
330
1F
100
AcDbEntity
  8
0
  6
Continuous
 62
     7
370
    25
100
AcDbLine
 10
168.3784600086
 20
100.3871230863
 30
0.0
 11
168.3784600086
 21
100.6371231273
 31
0.0
  0
ARC
  5
BC
330
1F
100
AcDbEntity
  8
0
  6
Continuous
 62
     7
370
    25
100
AcDbCircle
 10
169.6284601613
 20
100.3871230342
 30
0.0
 40
1.25
100
AcDbArc
 50
180.0
 51
270.0
  0
LINE
  5
BD
330
1F
100
AcDbEntity
  8
0
  6
Continuous
 62
     7
370
    25
100
AcDbLine
 10
169.8784602544
 20
99.1371228814
 30
0.0
 11
169.6284602135
 21
99.1371228814
 31
0.0
  0
LINE
  5
BE
330
1F
100
AcDbEntity
  8
0
  6
Continuous
 62
     7
370
    25
100
AcDbLine
 10
169.8784602544
 20
96.8366126985
 30
0.0
 11
169.8784602544
 21
94.3871230342
 31
0.0
  0
LINE
  5
BF
330
1F
100
AcDbEntity
  8
0
  6
Continuous
 62
     7
370
    25
100
AcDbLine
 10
169.8784602544
 20
94.3871230342
 30
0.0
 11
169.8784602544
 21
91.9376333699
 31
0.0
  0
LINE
  5
C0
330
1F
100
AcDbEntity
  8
0
  6
Continuous
 62
     7
370
    25
100
AcDbLine
 10
160.6284601352
 20
89.6371231869
 30
0.0
 11
169.8784602544
 21
89.6371231869
 31
0.0
  0
ARC
  5
C1
330
1F
100
AcDbEntity
  8
0
  6
Continuous
 62
     7
370
    25
100
AcDbCircle
 10
160.6284601613
 20
91.3871230342
 30
0.0
 40
1.75
100
AcDbArc
 50
180.0
 51
270.0
  0
LINE
  5
C2
330
1F
100
AcDbEntity
  8
0
  6
Continuous
 62
     7
370
    25
100
AcDbLine
 10
158.878460314
 20
100.6371231273
 30
0.0
 11
158.878460314
 21
91.3871230081
 31
0.0
  0
LINE
  5
C3
330
1F
100
AcDbEntity
  8
0
  6
Continuous
 62
     7
370
    25
100
AcDbLine
 10
161.178970497
 20
100.6371231273
 30
0.0
 11
163.6284601613
 21
100.6371231273
 31
0.0
  0
LINE
  5
C4
330
1F
100
AcDbEntity
  8
0
  6
Continuous
 62
     7
370
    25
100
AcDbLine
 10
163.6284601613
 20
100.6371231273
 30
0.0
 11
166.0779498256
 21
100.6371231273
 31
0.0
  0
SPLINE
  5
C5
330
1F
100
AcDbEntity
  8
0
  6
Continuous
 62
     7
370
    25
100
AcDbSpline
210
0.0
220
0.0
230
1.0
 70
     8
 71
     3
 72
    14
 73
    10
 74
     0
 42
0.000000001
 43
0.00000001
 40
0.0
 40
0.0
 40
0.0
 40
0.0
 40
0.25
 40
0.25
 40
0.5
 40
0.5
 40
0.75
 40
0.75
 40
1.0
 40
1.0
 40
1.0
 40
1.0
 10
166.3353231586667
 20
94.66777033812645
 30
0.0
 10
166.3921491481776
 20
94.79114721577373
 30
0.0
 10
166.4847482658604
 20
94.89443543191355
 30
0.0
 10
166.7145223808669
 20
95.03753525517959
 30
0.0
 10
166.8480471518259
 20
95.07522031771857
 30
0.0
 10
167.1195073813611
 20
95.07498119281831
 30
0.0
 10
167.2528820251996
 20
95.03681673428164
 30
0.0
 10
167.48030959211
 20
94.89519587112697
 30
0.0
 10
167.5741108968748
 20
94.79115751343578
 30
0.0
 10
167.6309416293718
 20
94.66777033812697
 30
0.0
  0
LINE
  5
C6
330
1F
100
AcDbEntity
  8
0
  6
Continuous
 62
     7
370
    25
100
AcDbLine
 10
165.4435288132
 20
92.1743525181
 30
0.0
 11
166.3353231474
 21
94.66777034
 31
0.0
  0
SPLINE
  5
C7
330
1F
100
AcDbEntity
  8
0
  6
Continuous
 62
     7
370
    25
100
AcDbSpline
210
0.0
220
0.0
230
1.0
 70
     8
 71
     3
 72
    10
 73
     6
 74
     0
 42
0.000000001
 43
0.00000001
 40
0.0
 40
0.0
 40
0.0
 40
0.0
 40
0.5
 40
0.5
 40
1.0
 40
1.0
 40
1.0
 40
1.0
 10
165.1077705018352
 20
92.06153600523653
 30
0.0
 10
165.166854381621
 20
92.0290214899373
 30
0.0
 10
165.2380657514663
 20
92.0229166330914
 30
0.0
 10
165.3650864102282
 20
92.0631170441171
 30
0.0
 10
165.420775657774
 20
92.11073582110403
 30
0.0
 10
165.4435287834471
 20
92.17435255797105
 30
0.0
  0
LINE
  5
C8
330
1F
100
AcDbEntity
  8
0
  6
Continuous
 62
     7
370
    25
100
AcDbLine
 10
164.3435693899
 20
92.4820843142
 30
0.0
 11
165.1077704941
 21
92.0615360596
 31
0.0
  0
LINE
  5
C9
330
1F
100
AcDbEntity
  8
0
  6
Continuous
 62
     7
370
    25
100
AcDbLine
 10
165.2907398733
 20
90.6764614851
 30
0.0
 11
164.3435693899
 21
92.4820843142
 31
0.0
  0
SPLINE
  5
CA
330
1F
100
AcDbEntity
  8
0
  6
Continuous
 62
     7
370
    25
100
AcDbSpline
210
0.0
220
0.0
230
1.0
 70
     8
 71
     3
 72
    10
 73
     6
 74
     0
 42
0.000000001
 43
0.00000001
 40
0.0
 40
0.0
 40
0.0
 40
0.0
 40
0.5000000000000006
 40
0.5000000000000006
 40
1.0
 40
1.0
 40
1.0
 40
1.0
 10
165.772280879058
 20
90.5894075983848
 30
0.0
 10
165.7014546317311
 20
90.52654217092659
 30
0.0
 10
165.6025806843762
 20
90.49951383759931
 30
0.0
 10
165.4184592616646
 20
90.53246456589734
 30
0.0
 10
165.3347349476384
 20
90.59259218590003
 30
0.0
 10
165.2907398844294
 20
90.67646145291278
 30
0.0
  0
SPLINE
  5
CB
330
1F
100
AcDbEntity
  8
0
  6
Continuous
 62
     7
370
    25
100
AcDbSpline
210
0.0
220
0.0
230
1.0
 70
     8
 71
     3
 72
    14
 73
    10
 74
     0
 42
0.000000001
 43
0.00000001
 40
0.0
 40
0.0
 40
0.0
 40
0.0
 40
0.2500000000000001
 40
0.2500000000000001
 40
0.3750000000000003
 40
0.3750000000000003
 40
0.5000000000000004
 40
0.5000000000000004
 40
1.0
 40
1.0
 40
1.0
 40
1.0
 10
168.1939839089812
 20
90.58940759838445
 30
0.0
 10
168.0276836872752
 20
90.73701579334727
 30
0.0
 10
167.8375129524853
 20
90.84973349210104
 30
0.0
 10
167.5264360906979
 20
90.96538007666446
 30
0.0
 10
167.4205375911715
 20
90.99415003787377
 30
0.0
 10
167.2044987538353
 20
91.03288827271552
 30
0.0
 10
167.0932514172003
 20
91.04279504635835
 30
0.0
 10
166.5422810285683
 20
91.0427729273599
 30
0.0
 10
166.1048440000733
 20
90.88459086092446
 30
0.0
 10
165.772280879058
 20
90.5894075983848
 30
0.0
  0
SPLINE
  5
CC
330
1F
100
AcDbEntity
  8
0
  6
Continuous
 62
     7
370
    25
100
AcDbSpline
210
0.0
220
0.0
230
1.0
 70
     8
 71
     3
 72
    10
 73
     6
 74
     0
 42
0.000000001
 43
0.00000001
 40
0.0
 40
0.0
 40
0.0
 40
0.0
 40
0.5
 40
0.5
 40
1.0
 40
1.0
 40
1.0
 40
1.0
 10
168.6755249036095
 20
90.67646145291279
 30
0.0
 10
168.6315328935588
 20
90.59259800623823
 30
0.0
 10
168.5482788750549
 20
90.53268691341904
 30
0.0
 10
168.3640989921113
 20
90.49945111281185
 30
0.0
 10
168.2648018401398
 20
90.52654955236336
 30
0.0
 10
168.1939839089812
 20
90.5894075983845
 30
0.0
  0
LINE
  5
CD
330
1F
100
AcDbEntity
  8
0
  6
Continuous
 62
     7
370
    25
100
AcDbLine
 10
169.6342549025
 20
92.5041208033
 30
0.0
 11
168.6755249015
 21
90.6764614851
 31
0.0
  0
LINE
  5
CE
330
1F
100
AcDbEntity
  8
0
  6
Continuous
 62
     7
370
    25
100
AcDbLine
 10
168.8619854598
 20
92.0627996315
 30
0.0
 11
169.6342549025
 21
92.5041208033
 31
0.0
  0
SPLINE
  5
CF
330
1F
100
AcDbEntity
  8
0
  6
Continuous
 62
     7
370
    25
100
AcDbSpline
210
0.0
220
0.0
230
1.0
 70
     8
 71
     3
 72
    10
 73
     6
 74
     0
 42
0.000000001
 43
0.00000001
 40
0.0
 40
0.0
 40
0.0
 40
0.0
 40
0.5
 40
0.5
 40
1.0
 40
1.0
 40
1.0
 40
1.0
 10
168.5229429090329
 20
92.17377406226741
 30
0.0
 10
168.5458590304468
 20
92.1097015964913
 30
0.0
 10
168.6019866812607
 20
92.06186002527187
 30
0.0
 10
168.7310683240294
 20
92.02199623339462
 30
0.0
 10
168.8030194887338
 20
92.02910271292194
 30
0.0
 10
168.8619856499441
 20
92.06279953492289
 30
0.0
  0
LINE
  5
D0
330
1F
100
AcDbEntity
  8
0
  6
Continuous
 62
     7
370
    25
100
AcDbLine
 10
167.6309418603
 20
94.66777034
 30
0.0
 11
168.5229430645
 21
92.1737741668
 31
0.0
  0
SPLINE
  5
D1
330
1F
100
AcDbEntity
  8
0
  6
Continuous
 62
     7
370
    25
100
AcDbSpline
210
0.0
220
0.0
230
1.0
 70
     8
 71
     3
 72
    12
 73
     8
 74
     0
 42
0.000000001
 43
0.00000001
 40
0.0
 40
0.0
 40
0.0
 40
0.0
 40
0.25
 40
0.25
 40
0.5
 40
0.5
 40
1.0
 40
1.0
 40
1.0
 40
1.0
 10
170.130467761594
 20
94.38712303418285
 30
0.0
 10
170.1202043023049
 20
94.18491561176256
 30
0.0
 10
170.1126255225081
 20
93.98302878765811
 30
0.0
 10
170.098212067059
 20
93.57765160050991
 30
0.0
 10
170.0913773914068
 20
93.37416123746613
 30
0.0
 10
170.0650516384063
 20
92.75791773656927
 30
0.0
 10
170.0553846870453
 20
92.3579262107055
 30
0.0
 10
170.0552368566002
 20
91.95188938121201
 30
0.0
  0
SPLINE
  5
D2
330
1F
100
AcDbEntity
  8
0
  6
Continuous
 62
     7
370
    25
100
AcDbSpline
210
0.0
220
0.0
230
1.0
 70
    24
 71
     3
 72
    10
 73
     6
 74
     0
 42
0.000000001
 43
0.00000001
 40
0.0
 40
0.0
 40
0.0
 40
0.0
 40
0.5
 40
0.5
 40
1.0
 40
1.0
 40
1.0
 40
1.0
 10
170.130467761594
 20
94.38712303418285
 30
0.0
 10
170.0894139244375
 20
94.38712303418285
 30
0.0
 10
170.0453395721244
 20
94.38712303418285
 30
0.0
 10
169.9539883026125
 20
94.38712303418285
 30
0.0
 10
169.9212385211155
 20
94.38712303418285
 30
0.0
 10
169.8784601613043
 20
94.38712303418285
 30
0.0
  0
SPLINE
  5
D3
330
1F
100
AcDbEntity
  8
0
  6
Continuous
 62
     7
370
    25
100
AcDbSpline
210
0.0
220
0.0
230
1.0
 70
     8
 71
     3
 72
    12
 73
     8
 74
     0
 42
0.000000001
 43
0.00000001
 40
0.0
 40
0.0
 40
0.0
 40
0.0
 40
0.25
 40
0.25
 40
0.5
 40
0.5
 40
1.0
 40
1.0
 40
1.0
 40
1.0
 10
163.6284601613043
 20
100.8891306344726
 30
0.0
 10
163.8306675837246
 20
100.8788671751834
 30
0.0
 10
164.0325544078291
 20
100.8712883953866
 30
0.0
 10
164.4379315949773
 20
100.8568749399376
 30
0.0
 10
164.6414219580211
 20
100.8500402642853
 30
0.0
 10
165.2576654589179
 20
100.8237145112848
 30
0.0
 10
165.6576569847817
 20
100.8140475599238
 30
0.0
 10
166.0636938142752
 20
100.8138997294787
 30
0.0
  0
SPLINE
  5
D4
330
1F
100
AcDbEntity
  8
0
  6
Continuous
 62
     7
370
    25
100
AcDbSpline
210
0.0
220
0.0
230
1.0
 70
    24
 71
     3
 72
    10
 73
     6
 74
     0
 42
0.000000001
 43
0.00000001
 40
0.0
 40
0.0
 40
0.0
 40
0.0
 40
0.5
 40
0.5
 40
1.0
 40
1.0
 40
1.0
 40
1.0
 10
163.6284601613043
 20
100.8891306344726
 30
0.0
 10
163.6284601613043
 20
100.848076797316
 30
0.0
 10
163.6284601613043
 20
100.804002445003
 30
0.0
 10
163.6284601613043
 20
100.712651175491
 30
0.0
 10
163.6284601613043
 20
100.679901393994
 30
0.0
 10
163.6284601613043
 20
100.6371230341829
 30
0.0
  0
SPLINE
  5
D5
330
1F
100
AcDbEntity
  8
0
  6
Continuous
 62
     7
370
    25
100
AcDbSpline
210
0.0
220
0.0
230
1.0
 70
     8
 71
     3
 72
    12
 73
     8
 74
     0
 42
0.000000001
 43
0.00000001
 40
0.0
 40
0.0
 40
0.0
 40
0.0
 40
0.25
 40
0.25
 40
0.5
 40
0.5
 40
1.0
 40
1.0
 40
1.0
 40
1.0
 10
163.6284601613043
 20
100.8891306344726
 30
0.0
 10
163.426252738884
 20
100.8788671751834
 30
0.0
 10
163.2243659147796
 20
100.8712883953866
 30
0.0
 10
162.8189887276314
 20
100.8568749399376
 30
0.0
 10
162.6154983645876
 20
100.8500402642853
 30
0.0
 10
161.9992548636907
 20
100.8237145112848
 30
0.0
 10
161.599263337827
 20
100.8140475599238
 30
0.0
 10
161.1932265083335
 20
100.8138997294787
 30
0.0
  0
SPLINE
  5
D6
330
1F
100
AcDbEntity
  8
0
  6
Continuous
 62
     7
370
    25
100
AcDbSpline
210
0.0
220
0.0
230
1.0
 70
     8
 71
     3
 72
    12
 73
     8
 74
     0
 42
0.000000001
 43
0.00000001
 40
0.0
 40
0.0
 40
0.0
 40
0.0
 40
0.25
 40
0.25
 40
0.5
 40
0.5
 40
1.0
 40
1.0
 40
1.0
 40
1.0
 10
170.130467761594
 20
94.38712303418285
 30
0.0
 10
170.1202043023049
 20
94.58933045660315
 30
0.0
 10
170.1126255225081
 20
94.7912172807076
 30
0.0
 10
170.0982120670591
 20
95.19659446785582
 30
0.0
 10
170.0913773914068
 20
95.4000848308996
 30
0.0
 10
170.0650516384063
 20
96.01632833179644
 30
0.0
 10
170.0553846870453
 20
96.41631985766021
 30
0.0
 10
170.0552368566002
 20
96.8223566871537
 30
0.0
  0
LWPOLYLINE
  5
D7
330
1F
100
AcDbEntity
  8
0
  6
Continuous
 62
     7
370
    25
100
AcDbPolyline
 90
        9
 70
   128
 43
0.0
 10
168.5229430645
 20
92.1737741668
 10
168.4770190827
 20
92.1573491291
 10
168.4328604228
 20
92.1415552952
 10
168.3921634889
 20
92.1269994218
 10
168.3564919717
 20
92.1142414667
 10
168.3272177092
 20
92.1037710727
 10
168.3054643422
 20
92.0959908039
 10
168.2920691296
 20
92.0911998477
 10
168.2875461615
 20
92.0895821404
  0
LINE
  5
D8
330
1F
100
AcDbEntity
  8
0
  6
Continuous
 62
     7
370
    25
100
AcDbLine
 10
168.2875461615
 20
92.0895821404
 30
0.0
 11
167.3996837548
 21
94.5720059903
 31
0.0
  0
SPLINE
  5
D9
330
1F
100
AcDbEntity
  8
0
  6
Continuous
 62
     7
370
    25
100
AcDbSpline
210
0.0
220
0.0
230
1.0
 70
     8
 71
     3
 72
    10
 73
     6
 74
     0
 42
0.000000001
 43
0.00000001
 40
0.0
 40
0.0
 40
0.0
 40
0.0
 40
0.5
 40
0.5
 40
1.0
 40
1.0
 40
1.0
 40
1.0
 10
167.3996836723169
 20
94.57200599678262
 30
0.0
 10
167.3996836723169
 20
94.57200599678262
 30
0.0
 10
167.4246997196676
 20
94.58258866054355
 30
0.0
 10
167.5099259869667
 20
94.61809495976524
 30
0.0
 10
167.5706278067703
 20
94.64313809429618
 30
0.0
 10
167.6309416293719
 20
94.66777033812699
 30
0.0
  0
SPLINE
  5
DA
330
1F
100
AcDbEntity
  8
0
  6
Continuous
 62
     7
370
    25
100
AcDbSpline
210
0.0
220
0.0
230
1.0
 70
     8
 71
     3
 72
    14
 73
    10
 74
     0
 42
0.000000001
 43
0.00000001
 40
0.0
 40
0.0
 40
0.0
 40
0.0
 40
0.25
 40
0.25
 40
0.5
 40
0.5
 40
0.75
 40
0.75
 40
1.0
 40
1.0
 40
1.0
 40
1.0
 10
167.3996836723169
 20
94.57200599678264
 30
0.0
 10
167.3617819905682
 20
94.64958922955631
 30
0.0
 10
167.3006728785764
 20
94.71417869486918
 30
0.0
 10
167.1547391960236
 20
94.80163339947299
 30
0.0
 10
167.069860575871
 20
94.82501311683433
 30
0.0
 10
166.8973844075893
 20
94.825188463506
 30
0.0
 10
166.812727053183
 20
94.80230821098395
 30
0.0
 10
166.6647475114814
 20
94.71371775418599
 30
0.0
 10
166.604476333109
 20
94.64957599726559
 30
0.0
 10
166.5665811157219
 20
94.57200599678286
 30
0.0
  0
SPLINE
  5
DB
330
1F
100
AcDbEntity
  8
0
  6
Continuous
 62
     7
370
    25
100
AcDbSpline
210
0.0
220
0.0
230
1.0
 70
     8
 71
     3
 72
    10
 73
     6
 74
     0
 42
0.000000001
 43
0.00000001
 40
0.0
 40
0.0
 40
0.0
 40
0.0
 40
0.5
 40
0.5
 40
1.0
 40
1.0
 40
1.0
 40
1.0
 10
166.5665811157218
 20
94.57200599678254
 30
0.0
 10
166.5665811157218
 20
94.57200599678254
 30
0.0
 10
166.5415650683709
 20
94.58258866054307
 30
0.0
 10
166.4563388010718
 20
94.61809495976473
 30
0.0
 10
166.3956369812681
 20
94.64313809429555
 30
0.0
 10
166.3353231586667
 20
94.66777033812643
 30
0.0
  0
LINE
  5
DC
330
1F
100
AcDbEntity
  8
0
  6
Continuous
 62
     7
370
    25
100
AcDbLine
 10
166.56658102
 20
94.5720059903
 30
0.0
 11
165.6789258326
 21
92.0901607246
 31
0.0
  0
LWPOLYLINE
  5
DD
330
1F
100
AcDbEntity
  8
0
  6
Continuous
 62
     7
370
    25
100
AcDbPolyline
 90
        9
 70
   128
 43
0.0
 10
165.4435288132
 20
92.1743525181
 10
165.4894524458
 20
92.1579274804
 10
165.5336113385
 20
92.1421336465
 10
165.5743082724
 20
92.127578006
 10
165.6099795568
 20
92.114819818
 10
165.6392542849
 20
92.104349424
 10
165.6610071863
 20
92.096569388
 10
165.6744026317
 20
92.0917784319
 10
165.6789258326
 20
92.0901607246
  0
SPLINE
  5
DE
330
1F
100
AcDbEntity
  8
0
  6
Continuous
 62
     7
370
    25
100
AcDbSpline
210
0.0
220
0.0
230
1.0
 70
    24
 71
     3
 72
    10
 73
     6
 74
     0
 42
0.000000001
 43
0.00000001
 40
0.0
 40
0.0
 40
0.0
 40
0.0
 40
0.5
 40
0.5
 40
1.0
 40
1.0
 40
1.0
 40
1.0
 10
163.6284601613043
 20
100.8891306344726
 30
0.0
 10
163.6284601613043
 20
100.9301844716291
 30
0.0
 10
163.6284601613043
 20
100.9736613020101
 30
0.0
 10
163.6284601613043
 20
101.0627200017344
 30
0.0
 10
163.6284601613043
 20
101.0948233712581
 30
0.0
 10
163.6284601613043
 20
101.1371230341829
 30
0.0
  0
SPLINE
  5
DF
330
1F
100
AcDbEntity
  8
0
  6
Continuous
 62
     7
370
    25
100
AcDbSpline
210
0.0
220
0.0
230
1.0
 70
     8
 71
     3
 72
    10
 73
     6
 74
     0
 42
0.000000001
 43
0.00000001
 40
0.0
 40
0.0
 40
0.0
 40
0.0
 40
0.5
 40
0.5
 40
1.0
 40
1.0
 40
1.0
 40
1.0
 10
165.9959192404204
 20
100.9603384384423
 30
0.0
 10
165.9880500080401
 20
100.9887656985096
 30
0.0
 10
165.9837831606552
 20
101.0229923366764
 30
0.0
 10
165.9798543243413
 20
101.086014382214
 30
0.0
 10
165.9799703143762
 20
101.114600101506
 30
0.0
 10
165.9799703143762
 20
101.1371230341829
 30
0.0
  0
SPLINE
  5
E0
330
1F
100
AcDbEntity
  8
0
  6
Continuous
 62
     7
370
    25
100
AcDbSpline
210
0.0
220
0.0
230
1.0
 70
     8
 71
     3
 72
    14
 73
    10
 74
     0
 42
0.000000001
 43
0.00000001
 40
0.0
 40
0.0
 40
0.0
 40
0.0
 40
0.25
 40
0.25
 40
0.5
 40
0.5
 40
0.75
 40
0.75
 40
1.0
 40
1.0
 40
1.0
 40
1.0
 10
163.6284601613043
 20
100.8891306344726
 30
0.0
 10
163.8306675837246
 20
100.8993940937617
 30
0.0
 10
164.0312574162549
 20
100.9140589841924
 30
0.0
 10
164.4292313962088
 20
100.9457943623759
 30
0.0
 10
164.6266155436325
 20
100.9628648501287
 30
0.0
 10
165.0182076480465
 20
100.993014157995
 30
0.0
 10
165.2150858234453
 20
100.9988456281449
 30
0.0
 10
165.6074428838858
 20
100.9927395049233
 30
0.0
 10
165.8029217689275
 20
100.9808019115519
 30
0.0
 10
165.9959192404204
 20
100.9603384384423
 30
0.0
  0
SPLINE
  5
E1
330
1F
100
AcDbEntity
  8
0
  6
Continuous
 62
     7
370
    25
100
AcDbSpline
210
0.0
220
0.0
230
1.0
 70
     8
 71
     3
 72
    12
 73
     8
 74
     0
 42
0.000000001
 43
0.00000001
 40
0.0
 40
0.0
 40
0.0
 40
0.0
 40
0.25
 40
0.25
 40
0.5
 40
0.5
 40
1.0
 40
1.0
 40
1.0
 40
1.0
 10
170.130467761594
 20
94.38712303418285
 30
0.0
 10
170.1407312208832
 20
94.58933045660315
 30
0.0
 10
170.1553961113139
 20
94.78992028913343
 30
0.0
 10
170.1871314894974
 20
95.18789426908737
 30
0.0
 10
170.2042019772502
 20
95.385278416511
 30
0.0
 10
170.2494259390496
 20
95.97266657313202
 30
0.0
 10
170.2426025117829
 20
96.36858717031323
 30
0.0
 10
170.2016755655638
 20
96.75458211329895
 30
0.0
  0
SPLINE
  5
E2
330
1F
100
AcDbEntity
  8
0
  6
Continuous
 62
     7
370
    25
100
AcDbSpline
210
0.0
220
0.0
230
1.0
 70
     8
 71
     3
 72
    10
 73
     6
 74
     0
 42
0.000000001
 43
0.00000001
 40
0.0
 40
0.0
 40
0.0
 40
0.0
 40
0.5
 40
0.5
 40
1.0
 40
1.0
 40
1.0
 40
1.0
 10
170.2016755655638
 20
96.75458211329895
 30
0.0
 10
170.230102825631
 20
96.7467128809187
 30
0.0
 10
170.2643294637979
 20
96.74244603353377
 30
0.0
 10
170.3273515093354
 20
96.73851719721979
 30
0.0
 10
170.3559372286274
 20
96.73863318725472
 30
0.0
 10
170.3784601613043
 20
96.73863318725472
 30
0.0
  0
SPLINE
  5
E3
330
1F
100
AcDbEntity
  8
0
  6
Continuous
 62
     7
370
    25
100
AcDbSpline
210
0.0
220
0.0
230
1.0
 70
    24
 71
     3
 72
    10
 73
     6
 74
     0
 42
0.000000001
 43
0.00000001
 40
0.0
 40
0.0
 40
0.0
 40
0.0
 40
0.5
 40
0.5
 40
1.0
 40
1.0
 40
1.0
 40
1.0
 10
170.130467761594
 20
94.38712303418285
 30
0.0
 10
170.1715215987506
 20
94.38712303418285
 30
0.0
 10
170.2149984291316
 20
94.38712303418285
 30
0.0
 10
170.3040571288559
 20
94.38712303418285
 30
0.0
 10
170.3361604983796
 20
94.38712303418285
 30
0.0
 10
170.3784601613043
 20
94.38712303418285
 30
0.0
  0
SPLINE
  5
E4
330
1F
100
AcDbEntity
  8
0
  6
Continuous
 62
     7
370
    25
100
AcDbSpline
210
0.0
220
0.0
230
1.0
 70
     8
 71
     3
 72
    14
 73
    10
 74
     0
 42
0.000000001
 43
0.00000001
 40
0.0
 40
0.0
 40
0.0
 40
0.0
 40
0.25
 40
0.25
 40
0.5
 40
0.5
 40
0.75
 40
0.75
 40
1.0
 40
1.0
 40
1.0
 40
1.0
 10
163.6284601613043
 20
100.8891306344726
 30
0.0
 10
163.426252738884
 20
100.8993940937617
 30
0.0
 10
163.2256629063538
 20
100.9140589841924
 30
0.0
 10
162.8276889263998
 20
100.9457943623759
 30
0.0
 10
162.6303047789762
 20
100.9628648501287
 30
0.0
 10
162.2387126745622
 20
100.993014157995
 30
0.0
 10
162.0418344991634
 20
100.9988456281449
 30
0.0
 10
161.6494774387228
 20
100.9927395049233
 30
0.0
 10
161.4539985536811
 20
100.9808019115519
 30
0.0
 10
161.2610010821882
 20
100.9603384384423
 30
0.0
  0
SPLINE
  5
E5
330
1F
100
AcDbEntity
  8
0
  6
Continuous
 62
     7
370
    25
100
AcDbSpline
210
0.0
220
0.0
230
1.0
 70
     8
 71
     3
 72
     8
 73
     4
 74
     0
 42
0.000000001
 43
0.00000001
 40
0.0
 40
0.0
 40
0.0
 40
0.0
 40
1.0
 40
1.0
 40
1.0
 40
1.0
 10
161.2610010821882
 20
100.9603384384423
 30
0.0
 10
161.2747911035313
 20
101.0066190340468
 30
0.0
 10
161.2811472948686
 20
101.0716694628449
 30
0.0
 10
161.2769500082325
 20
101.1371230341829
 30
0.0
  0
SPLINE
  5
E6
330
1F
100
AcDbEntity
  8
0
  6
Continuous
 62
     7
370
    25
100
AcDbSpline
210
0.0
220
0.0
230
1.0
 70
     8
 71
     3
 72
     8
 73
     4
 74
     0
 42
0.000000001
 43
0.00000001
 40
0.0
 40
0.0
 40
0.0
 40
0.0
 40
1.0
 40
1.0
 40
1.0
 40
1.0
 10
170.3784601613043
 20
92.035612881111
 30
0.0
 10
170.3130065899663
 20
92.0398101677471
 30
0.0
 10
170.2479561611682
 20
92.03345397640986
 30
0.0
 10
170.2016755655638
 20
92.01966395506678
 30
0.0
  0
SPLINE
  5
E7
330
1F
100
AcDbEntity
  8
0
  6
Continuous
 62
     7
370
    25
100
AcDbSpline
210
0.0
220
0.0
230
1.0
 70
     8
 71
     3
 72
    12
 73
     8
 74
     0
 42
0.000000001
 43
0.00000001
 40
0.0
 40
0.0
 40
0.0
 40
0.0
 40
0.25
 40
0.25
 40
0.5
 40
0.5
 40
1.0
 40
1.0
 40
1.0
 40
1.0
 10
170.130467761594
 20
94.38712303418285
 30
0.0
 10
170.1407312208832
 20
94.18491561176256
 30
0.0
 10
170.1553961113139
 20
93.98432577923228
 30
0.0
 10
170.1871314894974
 20
93.58635179927836
 30
0.0
 10
170.2042019772502
 20
93.38896765185473
 30
0.0
 10
170.2494259390496
 20
92.80157949523371
 30
0.0
 10
170.2426025117829
 20
92.4056588980525
 30
0.0
 10
170.2016755655638
 20
92.01966395506678
 30
0.0
  0
SPLINE
  5
E8
330
1F
100
AcDbEntity
  8
0
  6
Continuous
 62
     7
370
    25
100
AcDbSpline
210
0.0
220
0.0
230
1.0
 70
     8
 71
     3
 72
    14
 73
    10
 74
     0
 42
0.000000001
 43
0.00000001
 40
0.0
 40
0.0
 40
0.0
 40
0.0
 40
0.0526822267945598
 40
0.1287456339724992
 40
0.2353187193853958
 40
0.3749156516620482
 40
0.5485969096886099
 40
0.7568720674016369
 40
0.9999999999999999
 40
0.9999999999999999
 40
0.9999999999999999
 40
0.9999999999999999
 10
161.1789704185211
 20
100.8871230341829
 30
0.0
 10
161.1824511031648
 20
100.8871338351906
 30
0.0
 10
161.1909572536897
 20
100.8871602308592
 30
0.0
 10
161.2015069125988
 20
100.8879871373256
 30
0.0
 10
161.2131504698524
 20
100.8906906377196
 30
0.0
 10
161.2254260636757
 20
100.8969910784766
 30
0.0
 10
161.2381734286509
 20
100.9091652574517
 30
0.0
 10
161.2509182226466
 20
100.9292695467318
 30
0.0
 10
161.2574714705306
 20
100.9494624441951
 30
0.0
 10
161.2610010821882
 20
100.9603384384423
 30
0.0
  0
SPLINE
  5
E9
330
1F
100
AcDbEntity
  8
0
  6
Continuous
 62
     7
370
    25
100
AcDbSpline
210
0.0
220
0.0
230
1.0
 70
     8
 71
     3
 72
    14
 73
    10
 74
     0
 42
0.000000001
 43
0.00000001
 40
0.0
 40
0.0
 40
0.0
 40
0.0
 40
0.243127932598341
 40
0.4514030903113563
 40
0.6250843483379128
 40
0.7646812806145595
 40
0.8712543660274661
 40
0.9473177732054238
 40
1.0
 40
1.0
 40
1.0
 40
1.0
 10
170.2016755655638
 20
92.01966395506678
 30
0.0
 10
170.1907995713165
 20
92.01613434340916
 30
0.0
 10
170.1706066738533
 20
92.00958109552512
 30
0.0
 10
170.1505023845732
 20
91.99683630152943
 30
0.0
 10
170.138328205598
 20
91.9840889365543
 30
0.0
 10
170.1320277648411
 20
91.97181334273097
 30
0.0
 10
170.129324264447
 20
91.96016978547735
 30
0.0
 10
170.1284973579806
 20
91.94962012656828
 30
0.0
 10
170.1284709623121
 20
91.94111397604333
 30
0.0
 10
170.1284601613043
 20
91.93763329139968
 30
0.0
  0
SPLINE
  5
EA
330
1F
100
AcDbEntity
  8
0
  6
Continuous
 62
     7
370
    25
100
AcDbSpline
210
0.0
220
0.0
230
1.0
 70
     8
 71
     3
 72
    12
 73
     8
 74
     0
 42
0.000000001
 43
0.00000001
 40
0.0
 40
0.0
 40
0.0
 40
0.0
 40
0.25
 40
0.25
 40
0.5
 40
0.5
 40
1.0
 40
1.0
 40
1.0
 40
1.0
 10
170.2016755655638
 20
96.75458211329895
 30
0.0
 10
170.1874619355301
 20
96.75851672948906
 30
0.0
 10
170.1747604117776
 20
96.76341426331062
 30
0.0
 10
170.1536929824351
 20
96.77480089707551
 30
0.0
 10
170.1453270768453
 20
96.78128999701885
 30
0.0
 10
170.1286998957206
 20
96.80264324231989
 30
0.0
 10
170.1284601613043
 20
96.81904419830862
 30
0.0
 10
170.1284601613043
 20
96.83661277696604
 30
0.0
  0
SPLINE
  5
EB
330
1F
100
AcDbEntity
  8
0
  6
Continuous
 62
     7
370
    25
100
AcDbSpline
210
0.0
220
0.0
230
1.0
 70
     8
 71
     3
 72
    12
 73
     8
 74
     0
 42
0.000000001
 43
0.00000001
 40
0.0
 40
0.0
 40
0.0
 40
0.0
 40
0.25
 40
0.25
 40
0.5
 40
0.5
 40
1.0
 40
1.0
 40
1.0
 40
1.0
 10
165.9959192404204
 20
100.9603384384423
 30
0.0
 10
165.9998538566105
 20
100.9461248084086
 30
0.0
 10
166.0047513904321
 20
100.9334232846561
 30
0.0
 10
166.016138024197
 20
100.9123558553136
 30
0.0
 10
166.0226271241403
 20
100.9039899497238
 30
0.0
 10
166.0439803694414
 20
100.8873627685991
 30
0.0
 10
166.0603813254301
 20
100.8871230341829
 30
0.0
 10
166.0779499040875
 20
100.8871230341829
 30
0.0
  0
ARC
  5
EC
330
1F
100
AcDbEntity
  8
0
  6
Continuous
 62
     7
370
    25
100
AcDbCircle
 10
158.8784601613
 20
100.6371230342
 30
0.0
 40
0.25
100
AcDbArc
 50
90.0
 51
180.0
  0
LINE
  5
ED
330
1F
100
AcDbEntity
  8
0
  6
Continuous
 62
     7
370
    25
100
AcDbLine
 10
158.6284602731
 20
100.6371231273
 30
0.0
 11
158.878460314
 21
100.6371231273
 31
0.0
  0
ARC
  5
EE
330
1F
100
AcDbEntity
  8
0
  6
Continuous
 62
     7
370
    25
100
AcDbCircle
 10
169.8784601613
 20
89.6371230342
 30
0.0
 40
0.25
100
AcDbArc
 50
270.0
 51
0.0
  0
LINE
  5
EF
330
1F
100
AcDbEntity
  8
0
  6
Continuous
 62
     7
370
    25
100
AcDbLine
 10
169.8784602544
 20
89.6371231869
 30
0.0
 11
169.8784602544
 21
89.3871231459
 31
0.0
  0
SPLINE
  5
F0
330
1F
100
AcDbEntity
  8
0
  6
Continuous
 62
     7
370
    25
100
AcDbSpline
210
0.0
220
0.0
230
1.0
 70
     8
 71
     3
 72
    14
 73
    10
 74
     0
 42
0.000000001
 43
0.00000001
 40
0.0
 40
0.0
 40
0.0
 40
0.0
 40
0.5000000000000003
 40
0.5000000000000003
 40
0.6250000000000006
 40
0.6250000000000006
 40
0.7500000000000008
 40
0.7500000000000008
 40
1.0
 40
1.0
 40
1.0
 40
1.0
 10
165.6063245079383
 20
90.77637947564124
 30
0.0
 10
165.9845368536431
 20
91.11208102245476
 30
0.0
 10
166.4817386089007
 20
91.29277180291805
 30
0.0
 10
167.1083813781865
 20
91.29279532748507
 30
0.0
 10
167.2349038166559
 20
91.28149052695193
 30
0.0
 10
167.4805833453075
 20
91.23730286909168
 30
0.0
 10
167.6010038259114
 20
91.20448955164737
 30
0.0
 10
167.9547261061202
 20
91.07264468881328
 30
0.0
 10
168.1708155662949
 20
90.94424670601121
 30
0.0
 10
168.3599402801005
 20
90.77637947564115
 30
0.0
  0
LWPOLYLINE
  5
F1
330
1F
100
AcDbEntity
  8
0
  6
Continuous
 62
     7
370
    25
100
AcDbPolyline
 90
        9
 70
   128
 43
0.0
 10
168.3599401935
 20
90.7763795916
 10
168.356751345
 20
90.772786782
 10
168.3473077341
 20
90.76214712
 10
168.3319716453
 20
90.7448689908
 10
168.3113326057
 20
90.7216166601
 10
168.2861841022
 20
90.6932834991
 10
168.2574928477
 20
90.6609586895
 10
168.2263605966
 20
90.6258839172
 10
168.1939840986
 20
90.5894075044
  0
LWPOLYLINE
  5
F2
330
1F
100
AcDbEntity
  8
0
  6
Continuous
 62
     7
370
    25
100
AcDbPolyline
 90
        9
 70
   128
 43
0.0
 10
165.6063245813
 20
90.7763795916
 10
165.609513197
 20
90.772786782
 10
165.6189572736
 20
90.76214712
 10
165.6342931296
 20
90.7448689908
 10
165.6549319363
 20
90.7216166601
 10
165.6800804398
 20
90.6932834991
 10
165.70877216
 20
90.6609586895
 10
165.7399044111
 20
90.6258839172
 10
165.772280909
 20
90.5894075044
  0
LWPOLYLINE
  5
F3
330
1F
100
AcDbEntity
  8
0
  6
Continuous
 62
     7
370
    25
100
AcDbPolyline
 90
        9
 70
   128
 43
0.0
 10
165.1077704941
 20
92.0615360596
 10
165.0842558797
 20
92.0188062813
 10
165.0616448809
 20
91.9777186577
 10
165.0408065383
 20
91.9398520131
 10
165.0225415564
 20
91.906661772
 10
165.0075518032
 20
91.8794231478
 10
164.996413418
 20
91.85918318
 10
164.9895544601
 20
91.84671929
 10
164.9872384937
 20
91.8425108761
  0
LINE
  5
F4
330
1F
100
AcDbEntity
  8
0
  6
Continuous
 62
     7
370
    25
100
AcDbLine
 10
164.9872384937
 20
91.8425108761
 30
0.0
 11
164.9508821051
 21
91.8625180133
 31
0.0
  0
LWPOLYLINE
  5
F5
330
1F
100
AcDbEntity
  8
0
  6
Continuous
 62
     7
370
    25
100
AcDbPolyline
 90
        9
 70
   128
 43
0.0
 10
164.3435693899
 20
92.4820843142
 10
164.4620502688
 20
92.3612130795
 10
164.5759779116
 20
92.2449865833
 10
164.6809743456
 20
92.1378716816
 10
164.7730043828
 20
92.04398482
 10
164.8485315004
 20
91.9669339422
 10
164.9046532315
 20
91.9096797228
 10
164.939212866
 20
91.8744228769
 10
164.9508821051
 20
91.8625180133
  0
ARC
  5
F6
330
1F
100
AcDbEntity
  8
0
  6
Continuous
 62
     7
370
    25
100
AcDbCircle
 10
168.3784601613
 20
100.6371230342
 30
0.0
 40
0.25
100
AcDbArc
 50
0.0
 51
90.0
  0
LINE
  5
F7
330
1F
100
AcDbEntity
  8
0
  6
Continuous
 62
     7
370
    25
100
AcDbLine
 10
168.3784600086
 20
100.6371231273
 30
0.0
 11
168.6284600495
 21
100.6371231273
 31
0.0
  0
ARC
  5
F8
330
1F
100
AcDbEntity
  8
0
  6
Continuous
 62
     7
370
    25
100
AcDbCircle
 10
160.6284601613
 20
91.3871230342
 30
0.0
 40
2.0
100
AcDbArc
 50
180.0
 51
270.0
  0
LINE
  5
F9
330
1F
100
AcDbEntity
  8
0
  6
Continuous
 62
     7
370
    25
100
AcDbLine
 10
158.6284602731
 20
91.3871230081
 30
0.0
 11
158.878460314
 21
91.3871230081
 31
0.0
  0
LINE
  5
FA
330
1F
100
AcDbEntity
  8
0
  6
Continuous
 62
     7
370
    25
100
AcDbLine
 10
160.6284601352
 20
89.6371231869
 30
0.0
 11
160.6284601352
 21
89.3871231459
 31
0.0
  0
LINE
  5
FB
330
1F
100
AcDbEntity
  8
0
  6
Continuous
 62
     7
370
    25
100
AcDbLine
 10
169.8784602544
 20
99.3871229224
 30
0.0
 11
169.8784602544
 21
99.1371228814
 31
0.0
  0
ARC
  5
FC
330
1F
100
AcDbEntity
  8
0
  6
Continuous
 62
     7
370
    25
100
AcDbCircle
 10
169.8784601613
 20
99.1371230342
 30
0.0
 40
0.25
100
AcDbArc
 50
0.0
 51
90.0
  0
LINE
  5
FD
330
1F
100
AcDbEntity
  8
0
  6
Continuous
 62
     7
370
    25
100
AcDbLine
 10
168.4541360214
 20
90.792594849
 30
0.0
 11
169.0153826698
 21
91.8625180133
 31
0.0
  0
LWPOLYLINE
  5
FE
330
1F
100
AcDbEntity
  8
0
  6
Continuous
 62
     7
370
    25
100
AcDbPolyline
 90
        9
 70
   128
 43
0.0
 10
169.0153826698
 20
91.8625180133
 10
169.0272742621
 20
91.8748463959
 10
169.0624912939
 20
91.9113572676
 10
169.1196814849
 20
91.970647591
 10
169.1966459825
 20
92.0504391183
 10
169.2904278374
 20
92.1476654698
 10
169.3974228314
 20
92.2585901793
 10
169.5135191753
 20
92.3789503508
 10
169.6342549025
 20
92.5041208033
  0
LWPOLYLINE
  5
FF
330
1F
100
AcDbEntity
  8
0
  6
Continuous
 62
     7
370
    25
100
AcDbPolyline
 90
        9
 70
   128
 43
0.0
 10
168.4541360214
 20
90.792594849
 10
168.4583898372
 20
90.7903634001
 10
168.4709883033
 20
90.7837547351
 10
168.4914466663
 20
90.7730228722
 10
168.5189793556
 20
90.7585801546
 10
168.5525279231
 20
90.7409816504
 10
168.5908029526
 20
90.7209037327
 10
168.6323338858
 20
90.6991180022
 10
168.6755249015
 20
90.6764614851
  0
LINE
  5
100
330
1F
100
AcDbEntity
  8
0
  6
Continuous
 62
     7
370
    25
100
AcDbLine
 10
169.6284602135
 20
99.3871229224
 30
0.0
 11
169.8784602544
 21
99.3871229224
 31
0.0
  0
LINE
  5
101
330
1F
100
AcDbEntity
  8
0
  6
Continuous
 62
     7
370
    25
100
AcDbLine
 10
169.6284602135
 20
99.3871229224
 30
0.0
 11
169.6284602135
 21
99.1371228814
 31
0.0
  0
LINE
  5
102
330
1F
100
AcDbEntity
  8
0
  6
Continuous
 62
     7
370
    25
100
AcDbLine
 10
168.6284600495
 20
100.6371231273
 30
0.0
 11
168.6284600495
 21
100.3871230863
 31
0.0
  0
LINE
  5
103
330
1F
100
AcDbEntity
  8
0
  6
Continuous
 62
     7
370
    25
100
AcDbLine
 10
168.3784600086
 20
100.3871230863
 30
0.0
 11
168.6284600495
 21
100.3871230863
 31
0.0
  0
LINE
  5
104
330
1F
100
AcDbEntity
  8
0
  6
Continuous
 62
     7
370
    25
100
AcDbLine
 10
167.19717581
 20
92.0904091549
 30
0.0
 11
166.7690889648
 21
92.0904091549
 31
0.0
  0
ELLIPSE
  5
105
330
1F
100
AcDbEntity
  8
0
  6
Continuous
 62
     7
370
    25
100
AcDbEllipse
 10
166.7690889197
 20
92.1473818536
 30
0.0
 11
-0.05977206589648176
 21
0.0
 31
0.0
210
0.0
220
0.0
230
1.0
 40
0.9531667975
 41
5.940161364898092
 42
7.853981633974483
  0
ELLIPSE
  5
106
330
1F
100
AcDbEntity
  8
0
  6
Continuous
 62
     7
370
    25
100
AcDbEllipse
 10
167.1971758687
 20
92.1473818536
 30
0.0
 11
0.05977206589645334
 21
0.0
 31
0.0
210
0.0
220
0.0
230
1.0
 40
0.9531667975
 41
4.712388980384703
 42
6.626209245739813
  0
LINE
  5
107
330
1F
100
AcDbEntity
  8
0
  6
Continuous
 62
     7
370
    25
100
AcDbLine
 10
167.0394223387
 20
92.7377974371
 30
0.0
 11
167.2534656449
 21
92.166543844
 31
0.0
  0
ELLIPSE
  5
108
330
1F
100
AcDbEntity
  8
0
  6
Continuous
 62
     7
370
    25
100
AcDbEllipse
 10
166.9831323954
 20
92.7186354262
 30
0.0
 11
0.05977206589648176
 21
0.0
 31
0.0
210
0.0
220
0.0
230
1.0
 40
0.9531667975
 41
0.3430239404214925
 42
2.7985687131694
  0
LINE
  5
109
330
1F
100
AcDbEntity
  8
0
  6
Continuous
 62
     7
370
    25
100
AcDbLine
 10
166.7127991299
 20
92.166543844
 30
0.0
 11
166.9268424361
 21
92.7377974371
 31
0.0
  0
LINE
  5
10A
330
1F
100
AcDbEntity
  8
0
  6
Continuous
 62
     7
370
    25
100
AcDbLine
 10
158.6284602731
 20
91.3871230081
 30
0.0
 11
158.6284602731
 21
100.6371231273
 31
0.0
  0
LINE
  5
10B
330
1F
100
AcDbEntity
  8
0
  6
Continuous
 62
     7
370
    25
100
AcDbLine
 10
169.8784602544
 20
89.3871231459
 30
0.0
 11
160.6284601352
 21
89.3871231459
 31
0.0
  0
LWPOLYLINE
  5
10C
330
1F
100
AcDbEntity
  8
0
  6
Continuous
 62
     7
370
    25
100
AcDbPolyline
 90
        9
 70
   128
 43
0.0
 10
168.9860255196
 20
91.8457416341
 10
168.9836422651
 20
91.8499123294
 10
168.9765837713
 20
91.8622642279
 10
168.9651210531
 20
91.8823225879
 10
168.9496950916
 20
91.909316507
 10
168.9308986737
 20
91.9422087249
 10
168.9094535745
 20
91.9797352039
 10
168.88618448
 20
92.0204535582
 10
168.8619854598
 20
92.0627996315
  0
SPLINE
  5
10D
330
1F
100
AcDbEntity
  8
0
  6
Continuous
 62
     7
370
    25
100
AcDbSpline
210
0.0
220
0.0
230
1.0
 70
     8
 71
     3
 72
    10
 73
     6
 74
     0
 42
0.000000001
 43
0.00000001
 40
0.0
 40
0.0
 40
0.0
 40
0.0
 40
0.5
 40
0.5
 40
1.0
 40
1.0
 40
1.0
 40
1.0
 10
168.9860255812534
 20
91.84574171902862
 30
0.0
 10
168.8633435962807
 20
91.77563383129278
 30
0.0
 10
168.7123549674982
 20
91.76223783331395
 30
0.0
 10
168.4469357918504
 20
91.85238286890757
 30
0.0
 10
168.3351739714886
 20
91.9564163385216
 30
0.0
 10
168.2875459713629
 20
92.08958212835705
 30
0.0
  0
SPLINE
  5
10E
330
1F
100
AcDbEntity
  8
0
  6
Continuous
 62
     7
370
    25
100
AcDbSpline
210
0.0
220
0.0
230
1.0
 70
     8
 71
     3
 72
    23
 73
    19
 74
     0
 42
0.000000001
 43
0.00000001
 40
0.0
 40
0.0
 40
0.0
 40
0.0
 40
0.0000076769896581
 40
0.0000076769896581
 40
0.0000076769896581
 40
0.0000285420058146
 40
0.0000285420058146
 40
0.0000285420058146
 40
0.0000497754494318
 40
0.0000497754494318
 40
0.0000497754494318
 40
0.00007072706396
 40
0.00007072706396
 40
0.00007072706396
 40
0.0000909558732107
 40
0.0000909558732107
 40
0.0000909558732107
 40
0.0001104364738497
 40
0.0001104364738497
 40
0.0001104364738497
 40
0.0001104364738497
 10
168.3599402801006
 20
90.77637947564119
 30
0.0
 10
168.361854121658
 20
90.77468074851483
 30
0.0
 10
168.3638833105124
 20
90.77310407220635
 30
0.0
 10
168.3660005737913
 20
90.77166683194656
 30
0.0
 10
168.371683343581
 20
90.76780925522945
 30
0.0
 10
168.378123698597
 20
90.76490403428404
 30
0.0
 10
168.384765910634
 20
90.7631559525161
 30
0.0
 10
168.391525168615
 20
90.76137706687142
 30
0.0
 10
168.3986844250451
 20
90.76074396648661
 30
0.0
 10
168.4056517788089
 20
90.76129892965727
 30
0.0
 10
168.4125282194533
 20
90.76184665142254
 30
0.0
 10
168.4194076442122
 20
90.76356696516278
 30
0.0
 10
168.4257218836868
 20
90.76634470073789
 30
0.0
 10
168.4318201846422
 20
90.7690274414828
 30
0.0
 10
168.4375552706498
 20
90.77277128164194
 30
0.0
 10
168.442432213978
 20
90.77731020180217
 30
0.0
 10
168.4471295641087
 20
90.78168197645132
 30
0.0
 10
168.4511551051202
 20
90.78691221587037
 30
0.0
 10
168.4541360022261
 20
90.79259480016607
 30
0.0
  0
LINE
  5
10F
330
1F
100
AcDbEntity
  8
0
  6
Continuous
 62
     7
370
    25
100
AcDbLine
 10
169.0153826698
 20
91.8625180133
 30
0.0
 11
168.9860255196
 21
91.8457416341
 31
0.0
  0
ARC
  5
110
330
1F
100
AcDbEntity
  8
0
  6
Continuous
 62
     7
370
    25
100
AcDbCircle
 10
169.6284601613
 20
100.3871230342
 30
0.0
 40
1.0
100
AcDbArc
 50
180.0
 51
270.0
  0
SPLINE
  5
111
330
1F
100
AcDbEntity
  8
0
  6
Continuous
 62
     7
370
    25
100
AcDbSpline
210
0.0
220
0.0
230
1.0
 70
     8
 71
     3
 72
    23
 73
    19
 74
     0
 42
0.000000001
 43
0.00000001
 40
0.0
 40
0.0
 40
0.0
 40
0.0
 40
0.0000069464595966
 40
0.0000069464595966
 40
0.0000069464595966
 40
0.0000269173558753
 40
0.0000269173558753
 40
0.0000269173558753
 40
0.0000477420212559
 40
0.0000477420212559
 40
0.0000477420212559
 40
0.0000689844307043
 40
0.0000689844307043
 40
0.0000689844307043
 40
0.0000900350769267
 40
0.0000900350769267
 40
0.0000900350769267
 40
0.0001105259114901
 40
0.0001105259114901
 40
0.0001105259114901
 40
0.0001105259114901
 10
165.5121287858116
 20
90.79259480016849
 30
0.0
 10
165.5132044066176
 20
90.79054430809038
 30
0.0
 10
165.5144098115776
 20
90.78855702451517
 30
0.0
 10
165.5157294490639
 20
90.7866543856147
 30
0.0
 10
165.5194747375462
 20
90.78125446962719
 30
0.0
 10
165.5242330461043
 20
90.77645053683219
 30
0.0
 10
165.5295663839094
 20
90.77261103343399
 30
0.0
 10
165.5351259540537
 20
90.76860866395333
 30
0.0
 10
165.5414678734989
 20
90.765536247343
 30
0.0
 10
165.5480423511736
 20
90.76361166298436
 30
0.0
 10
165.5547483192055
 20
90.76164858670326
 30
0.0
 10
165.5618859117383
 20
90.76082175768177
 30
0.0
 10
165.5688637779403
 20
90.76118653020991
 30
0.0
 10
165.5757797418112
 20
90.76154806675311
 30
0.0
 10
165.5827307581444
 20
90.76309031193577
 30
0.0
 10
165.5891416118471
 20
90.76570989582177
 30
0.0
 10
165.5953826913045
 20
90.76826010706282
 30
0.0
 10
165.6012822455711
 20
90.77190395998133
 30
0.0
 10
165.6063245079364
 20
90.77637947563949
 30
0.0
  0
LWPOLYLINE
  5
112
330
1F
100
AcDbEntity
  8
0
  6
Continuous
 62
     7
370
    25
100
AcDbPolyline
 90
        9
 70
   128
 43
0.0
 10
165.5121287535
 20
90.792594849
 10
165.5078748212
 20
90.7903634001
 10
165.4952765879
 20
90.7837547351
 10
165.4748179921
 20
90.7730228722
 10
165.4472855357
 20
90.7585801546
 10
165.4137369682
 20
90.7409816504
 10
165.3754617059
 20
90.7209037327
 10
165.3339307726
 20
90.6991180022
 10
165.2907398733
 20
90.6764614851
  0
SPLINE
  5
113
330
1F
100
AcDbEntity
  8
0
  6
Continuous
 62
     7
370
    25
100
AcDbSpline
210
0.0
220
0.0
230
1.0
 70
     8
 71
     3
 72
    10
 73
     6
 74
     0
 42
0.000000001
 43
0.00000001
 40
0.0
 40
0.0
 40
0.0
 40
0.0
 40
0.5
 40
0.5
 40
1.0
 40
1.0
 40
1.0
 40
1.0
 10
165.6789257211171
 20
92.09016062406059
 30
0.0
 10
165.6316909757959
 20
91.95809435733115
 30
0.0
 10
165.5210194554145
 20
91.85464234133856
 30
0.0
 10
165.2600599110473
 20
91.76369069780193
 30
0.0
 10
165.1099945060043
 20
91.774956815548
 30
0.0
 10
164.9872385028157
 20
91.84251080757112
 30
0.0
  0
LINE
  5
114
330
1F
100
AcDbEntity
  8
0
  6
Continuous
 62
     7
370
    25
100
AcDbLine
 10
164.9508821051
 20
91.8625180133
 30
0.0
 11
165.5121287535
 21
90.792594849
 31
0.0
  0
ARC
  5
115
330
1F
100
AcDbEntity
  8
0
  6
Continuous
 62
     7
370
    25
100
AcDbCircle
 10
170.3520605141
 20
89.6023861216
 30
0.0
 40
0.2262823933023909
100
AcDbArc
 50
83.3001813581
 51
171.1694920169
  0
ARC
  5
116
330
1F
100
AcDbEntity
  8
0
  6
Continuous
 62
     7
370
    25
100
AcDbCircle
 10
168.4131970739
 20
101.110723387
 30
0.0
 40
0.2262823933024138
100
AcDbArc
 50
173.3001813581
 51
261.1694920169
  0
ARC
  5
117
330
1F
100
AcDbEntity
  8
0
  6
Continuous
 62
     7
370
    25
100
AcDbCircle
 10
170.3520605141
 20
99.1718599468
 30
0.0
 40
0.226282393302405
100
AcDbArc
 50
188.8305079831
 51
276.6998186419
  0
ARC
  5
118
330
1F
100
AcDbEntity
  8
0
  6
Continuous
 62
     7
370
    25
100
AcDbCircle
 10
158.8437232487
 20
101.110723387
 30
0.0
 40
0.2262823933024138
100
AcDbArc
 50
278.8305079831
 51
6.6998186419
  0
LINE
  5
119
330
1F
100
AcDbEntity
  8
0
  6
Continuous
 62
     7
370
    25
100
AcDbLine
 10
168.6284600495
 20
100.6371231273
 30
0.0
 11
168.6684603541
 21
100.6371231273
 31
0.0
  0
LINE
  5
11A
330
1F
100
AcDbEntity
  8
0
  6
Continuous
 62
     7
370
    25
100
AcDbLine
 10
169.8784602544
 20
89.3471228414
 30
0.0
 11
169.8784602544
 21
89.3871231459
 31
0.0
  0
LINE
  5
11B
330
1F
100
AcDbEntity
  8
0
  6
Continuous
 62
     7
370
    25
100
AcDbLine
 10
158.6284602731
 20
100.6371231273
 30
0.0
 11
158.5884599685
 21
100.6371231273
 31
0.0
  0
LINE
  5
11C
330
1F
100
AcDbEntity
  8
0
  6
Continuous
 62
     7
370
    25
100
AcDbLine
 10
169.8784602544
 20
99.427123227
 30
0.0
 11
169.8784602544
 21
99.3871229224
 31
0.0
  0
LWPOLYLINE
  5
11D
330
1F
100
AcDbEntity
  8
0
  6
Continuous
 62
     7
370
    25
100
AcDbPolyline
 90
        9
 70
   128
 43
0.0
 10
160.2853059507
 20
89.3723919511
 10
160.2903646621
 20
89.3816884131
 10
160.2953947353
 20
89.3897629798
 10
160.3003684635
 20
89.3965700165
 10
160.3052576742
 20
89.4020718046
 10
160.310035359
 20
89.4062371448
 10
160.3146745096
 20
89.4090427541
 10
160.3191490489
 20
89.4104732655
 10
160.3234342969
 20
89.4105202973
  0
SPLINE
  5
11E
330
1F
100
AcDbEntity
  8
0
  6
Continuous
 62
     7
370
    25
100
AcDbSpline
210
0.0
220
0.0
230
1.0
 70
     8
 71
     3
 72
    14
 73
    10
 74
     0
 42
0.000000001
 43
0.00000001
 40
0.0
 40
0.0
 40
0.0
 40
0.0
 40
0.2500000000000003
 40
0.2500000000000003
 40
0.5000000000000002
 40
0.5000000000000002
 40
0.7500000000000001
 40
0.7500000000000001
 40
1.0
 40
1.0
 40
1.0
 40
1.0
 10
160.2853060396745
 20
89.37239185173812
 30
0.0
 10
160.0772941500093
 20
89.40214575046367
 30
0.0
 10
159.8773350929318
 20
89.46350149000747
 30
0.0
 10
159.494781213533
 20
89.6532557311892
 30
0.0
 10
159.3224802467026
 20
89.77667238075989
 30
0.0
 10
159.0188086239392
 20
90.08014750502937
 30
0.0
 10
158.8949801930689
 20
90.25286484598129
 30
0.0
 10
158.7051847641659
 20
90.63509924898105
 30
0.0
 10
158.6434845592247
 20
90.8359452664112
 30
0.0
 10
158.6137289788596
 20
91.04396891255304
 30
0.0
  0
LWPOLYLINE
  5
11F
330
1F
100
AcDbEntity
  8
0
  6
Continuous
 62
     7
370
    25
100
AcDbPolyline
 90
        9
 70
   128
 43
0.0
 10
158.6518574244
 20
91.0820971698
 10
158.6518103927
 20
91.0778119218
 10
158.6503798812
 20
91.0733373825
 10
158.6475742719
 20
91.0686982319
 10
158.6434089317
 20
91.0639205471
 10
158.6379071436
 20
91.0590313364
 10
158.6311001069
 20
91.0540576082
 10
158.6230255402
 20
91.049027535
 10
158.6137290782
 20
91.0439688236
  0
LINE
  5
120
330
1F
100
AcDbEntity
  8
0
  6
Continuous
 62
     7
370
    25
100
AcDbLine
 10
160.6284601352
 20
89.3471228414
 30
0.0
 11
160.6284601352
 21
89.3871231459
 31
0.0
  0
LINE
  5
121
330
1F
100
AcDbEntity
  8
0
  6
Continuous
 62
     7
370
    25
100
AcDbLine
 10
158.6284602731
 20
91.3871230081
 30
0.0
 11
158.5884599685
 21
91.3871230081
 31
0.0
  0
SPLINE
  5
122
330
1F
100
AcDbEntity
  8
0
  6
Continuous
 62
     7
370
    25
100
AcDbSpline
210
0.0
220
0.0
230
1.0
 70
    24
 71
     3
 72
    10
 73
     6
 74
     0
 42
0.000000001
 43
0.00000001
 40
0.0
 40
0.0
 40
0.0
 40
0.0
 40
0.5
 40
0.5
 40
1.0
 40
1.0
 40
1.0
 40
1.0
 10
168.998193924166
 20
99.75685679704452
 30
0.0
 10
168.9728819031477
 20
99.73154477602618
 30
0.0
 10
168.9545359048271
 20
99.71319877770564
 30
0.0
 10
168.92843766861
 20
99.6871005414885
 30
0.0
 10
168.9213533801185
 20
99.68001625299706
 30
0.0
 10
168.9213533801178
 20
99.68001625299631
 30
0.0
  0
LINE
  5
123
330
1F
100
AcDbEntity
  8
0
  6
Continuous
 62
     7
370
    25
100
AcDbLine
 10
168.6284600495
 20
100.3871230863
 30
0.0
 11
168.6684603541
 21
100.3871230863
 31
0.0
  0
LINE
  5
124
330
1F
100
AcDbEntity
  8
0
  6
Continuous
 62
     7
370
    25
100
AcDbLine
 10
169.6284602135
 20
99.427123227
 30
0.0
 11
169.6284602135
 21
99.3871229224
 31
0.0
  0
LINE
  5
125
330
1F
100
AcDbEntity
  8
0
  6
Continuous
 62
     8
370
    25
100
AcDbLine
 10
173.1284598558
 20
88.387122982
 30
0.0
 11
173.1284598558
 21
100.3871230863
 31
0.0
  0
LINE
  5
126
330
1F
100
AcDbEntity
  8
0
  6
Continuous
 62
     8
370
    25
100
AcDbLine
 10
169.6284602135
 20
103.8871227287
 30
0.0
 11
157.6284601092
 21
103.8871227287
 31
0.0
  0
LWPOLYLINE
  5
127
330
1F
100
AcDbEntity
  8
0
  6
Continuous
 62
     8
370
    25
100
AcDbPolyline
 90
       10
 70
   128
 43
0.0
 10
160.2853059507
 20
89.3723919511
 10
160.1505407802
 20
89.1702437297
 10
160.0302756037
 20
88.9898460813
 10
159.925012404
 20
88.8319515147
 10
159.8351898342
 20
88.6972175435
 10
159.7611822858
 20
88.5862062209
 10
159.7032982594
 20
88.4993804142
 10
159.6617794334
 20
88.4371019423
 10
159.636798568
 20
88.3996306442
 10
159.6284599713
 20
88.387122982
  0
LWPOLYLINE
  5
128
330
1F
100
AcDbEntity
  8
0
  6
Continuous
 62
     8
370
    25
100
AcDbPolyline
 90
       10
 70
   128
 43
0.0
 10
157.6284601092
 20
90.3871228442
 10
157.6409677713
 20
90.3954614409
 10
157.6784390695
 20
90.4204423063
 10
157.7407175413
 20
90.4619611323
 10
157.827543348
 20
90.5198451586
 10
157.9385546706
 20
90.593852707
 10
158.0732886418
 20
90.6836752769
 10
158.2311832084
 20
90.7889384766
 10
158.4115808568
 20
90.9092036531
 10
158.6137290782
 20
91.0439688236
  0
LINE
  5
129
330
1F
100
AcDbEntity
  8
0
  6
Continuous
 62
     7
370
    18
100
AcDbLine
 10
169.3042034209
 20
115.6497140776
 30
0.0
 11
169.6658553824
 21
104.0768513097
 31
0.0
  0
LINE
  5
12A
330
1F
100
AcDbEntity
  8
0
  6
Continuous
 62
     7
370
    18
100
AcDbLine
 10
157.9527169017
 20
115.6497140776
 30
0.0
 11
157.5910649402
 21
104.0768513097
 31
0.0
  0
LINE
  5
12B
330
1F
100
AcDbEntity
  8
0
  6
Continuous
 62
     7
370
    18
100
AcDbLine
 10
184.8910512047
 20
88.7113797746
 30
0.0
 11
173.6284601613
 21
88.3594238045
 31
0.0
  0
LINE
  5
12C
330
1F
100
AcDbEntity
  8
0
  6
Continuous
 62
     7
370
    18
100
AcDbLine
 10
184.8910512047
 20
100.0628662938
 30
0.0
 11
173.6284601613
 21
100.4148222639
 31
0.0
  0
LINE
  5
12D
330
1F
100
AcDbEntity
  8
0
  6
Continuous
 62
     7
370
    18
100
AcDbLine
 10
184.8903273374
 20
88.7109618496
 30
0.0
 11
173.6284601613
 21
88.3590285003
 31
0.0
  0
LINE
  5
12E
330
1F
100
AcDbEntity
  8
0
  6
Continuous
 62
     7
370
    18
100
AcDbLine
 10
184.8903273374
 20
100.0632842188
 30
0.0
 11
173.6284601613
 21
100.415217568
 31
0.0
  0
LINE
  5
12F
330
1F
100
AcDbEntity
  8
0
  6
CENTERX2
 62
     7
370
    18
100
AcDbLine
 10
156.7719968105
 20
94.3871230342
 30
0.0
 11
187.6284601613
 21
94.3871230342
 31
0.0
  0
LINE
  5
130
330
1F
100
AcDbEntity
  8
0
  6
CENTERX2
 62
     7
370
    18
100
AcDbLine
 10
163.6284601613
 20
87.2599614537
 30
0.0
 11
163.6284601613
 21
118.3871230342
 31
0.0
  0
ARC
  5
131
330
1F
100
AcDbEntity
  8
0
  6
Continuous
 62
     7
370
    25
100
AcDbCircle
 10
200.2695377382
 20
104.8871230342
 30
0.0
 40
0.5000000000000105
100
AcDbArc
 50
259.905845481
 51
270.0
  0
ARC
  5
132
330
1F
100
AcDbEntity
  8
0
  6
Continuous
 62
     7
370
    25
100
AcDbCircle
 10
213.7695377382
 20
104.8871230342
 30
0.0
 40
0.5000000000000105
100
AcDbArc
 50
270.0
 51
280.094154519
  0
LINE
  5
133
330
1F
100
AcDbEntity
  8
0
  6
Continuous
 62
     7
370
    25
100
AcDbLine
 10
213.857170711
 20
104.3948621013
 30
0.0
 11
213.5518179784
 21
114.1661476799
 31
0.0
  0
LINE
  5
134
330
1F
100
AcDbEntity
  8
0
  6
Continuous
 62
     7
370
    25
100
AcDbLine
 10
200.487257498
 20
114.1661476799
 30
0.0
 11
200.1819047655
 21
104.3948621013
 31
0.0
  0
LINE
  5
135
330
1F
100
AcDbEntity
  8
0
  6
Continuous
 62
     7
370
    25
100
AcDbLine
 10
213.5518179784
 20
114.1661476799
 30
0.0
 11
212.2695376674
 21
116.387122915
 31
0.0
  0
LINE
  5
136
330
1F
100
AcDbEntity
  8
0
  6
Continuous
 62
     7
370
    25
100
AcDbLine
 10
201.769537809
 20
116.387122915
 30
0.0
 11
200.487257498
 21
114.1661476799
 31
0.0
  0
ARC
  5
137
330
1F
100
AcDbEntity
  8
0
  6
Continuous
 62
     7
370
    25
100
AcDbCircle
 10
200.5195377382
 20
103.8871230342
 30
0.0
 40
0.5
100
AcDbArc
 50
0.0
 51
90.0
  0
ARC
  5
138
330
1F
100
AcDbEntity
  8
0
  6
Continuous
 62
     7
370
    25
100
AcDbCircle
 10
213.5195377382
 20
103.8871230342
 30
0.0
 40
0.5
100
AcDbArc
 50
90.0
 51
180.0
  0
LINE
  5
139
330
1F
100
AcDbEntity
  8
0
  6
Continuous
 62
     7
370
    25
100
AcDbLine
 10
213.0195377904
 20
101.1371232093
 30
0.0
 11
213.0195377904
 21
103.8871227287
 31
0.0
  0
LINE
  5
13A
330
1F
100
AcDbEntity
  8
0
  6
Continuous
 62
     7
370
    25
100
AcDbLine
 10
201.0195376861
 20
103.8871227287
 30
0.0
 11
201.0195376861
 21
101.1371232093
 31
0.0
  0
ARC
  5
13B
330
1F
100
AcDbEntity
  8
0
  6
Continuous
 62
     7
370
    25
100
AcDbCircle
 10
207.0195377382
 20
94.3871230342
 30
0.0
 40
4.625000000000003
100
AcDbArc
 50
271.0
 51
270.0
  0
LINE
  5
13C
330
1F
100
AcDbEntity
  8
0
  6
Continuous
 62
     7
370
    25
100
AcDbLine
 10
207.0195377382
 20
89.7621229746
 30
0.0
 11
207.0195377382
 21
89.8871232279
 31
0.0
  0
ARC
  5
13D
330
1F
100
AcDbEntity
  8
0
  6
Continuous
 62
     7
370
    25
100
AcDbCircle
 10
207.0195377382
 20
94.3871230342
 30
0.0
 40
4.500000000000001
100
AcDbArc
 50
270.0
 51
271.0
  0
LINE
  5
13E
330
1F
100
AcDbEntity
  8
0
  6
Continuous
 62
     7
370
    25
100
AcDbLine
 10
207.1002551165
 20
89.7628275201
 30
0.0
 11
207.0980735661
 21
89.8878082157
 31
0.0
  0
CIRCLE
  5
13F
330
1F
100
AcDbEntity
  8
0
  6
Continuous
 62
     7
370
    25
100
AcDbCircle
 10
207.0195377382
 20
94.3871230342
 30
0.0
 40
5.25
  0
CIRCLE
  5
140
330
1F
100
AcDbEntity
  8
0
  6
Continuous
 62
     7
370
    25
100
AcDbCircle
 10
207.0195377382
 20
94.3871230342
 30
0.0
 40
6.532280466154134
  0
CIRCLE
  5
141
330
1F
100
AcDbEntity
  8
0
  6
Continuous
 62
     7
370
    25
100
AcDbCircle
 10
207.0195377382
 20
94.3871230342
 30
0.0
 40
4.0
  0
ARC
  5
142
330
1F
100
AcDbEntity
  8
0
  6
Continuous
 62
     7
370
    25
100
AcDbCircle
 10
207.0195377382
 20
94.3871230342
 30
0.0
 40
4.42075317547306
100
AcDbArc
 50
271.0
 51
270.0
  0
LINE
  5
143
330
1F
100
AcDbEntity
  8
0
  6
Continuous
 62
     7
370
    25
100
AcDbLine
 10
207.096690523
 20
89.9670432777
 30
0.0
 11
207.0980735661
 21
89.8878082157
 31
0.0
  0
LINE
  5
144
330
1F
100
AcDbEntity
  8
0
  6
Continuous
 62
     7
370
    25
100
AcDbLine
 10
207.0195377382
 20
89.8871232279
 30
0.0
 11
207.0195377382
 21
89.9663699314
 31
0.0
  0
ARC
  5
145
330
1F
100
AcDbEntity
  8
0
  6
Continuous
 62
     7
370
    25
100
AcDbCircle
 10
207.0195377382
 20
94.3871230342
 30
0.0
 40
4.500000000000001
100
AcDbArc
 50
271.0
 51
270.0
  0
CIRCLE
  5
146
330
1F
100
AcDbEntity
  8
0
  6
Continuous
 62
     7
370
    25
100
AcDbCircle
 10
207.0195377382
 20
94.3871230342
 30
0.0
 40
6.837633141660561
  0
LINE
  5
147
330
1F
100
AcDbEntity
  8
0
  6
Continuous
 62
     7
370
    25
100
AcDbLine
 10
207.0195377382
 20
104.3871228107
 30
0.0
 11
200.2695375631
 21
104.3871228107
 31
0.0
  0
LINE
  5
148
330
1F
100
AcDbEntity
  8
0
  6
Continuous
 62
     7
370
    25
100
AcDbLine
 10
213.7695379133
 20
104.3871228107
 30
0.0
 11
207.0195377382
 21
104.3871228107
 31
0.0
  0
LINE
  5
149
330
1F
100
AcDbEntity
  8
0
  6
Continuous
 62
     7
370
    25
100
AcDbLine
 10
207.0195377382
 20
104.3948621013
 30
0.0
 11
213.857170711
 21
104.3948621013
 31
0.0
  0
LINE
  5
14A
330
1F
100
AcDbEntity
  8
0
  6
Continuous
 62
     7
370
    25
100
AcDbLine
 10
200.1819047655
 20
104.3948621013
 30
0.0
 11
207.0195377382
 21
104.3948621013
 31
0.0
  0
LINE
  5
14B
330
1F
100
AcDbEntity
  8
0
  6
Continuous
 62
     7
370
    25
100
AcDbLine
 10
200.487257498
 20
114.1661476799
 30
0.0
 11
213.5518179784
 21
114.1661476799
 31
0.0
  0
LINE
  5
14C
330
1F
100
AcDbEntity
  8
0
  6
Continuous
 62
     7
370
    25
100
AcDbLine
 10
213.0195377904
 20
91.1079118017
 30
0.0
 11
213.0195377904
 21
89.6371231869
 31
0.0
  0
LINE
  5
14D
330
1F
100
AcDbEntity
  8
0
  6
Continuous
 62
     7
370
    25
100
AcDbLine
 10
212.7695377494
 20
89.6371231869
 30
0.0
 11
213.0195377904
 21
89.6371231869
 31
0.0
  0
LINE
  5
14E
330
1F
100
AcDbEntity
  8
0
  6
Continuous
 62
     7
370
    25
100
AcDbLine
 10
201.0195376861
 20
97.6663342666
 30
0.0
 11
201.0195376861
 21
99.1371228814
 31
0.0
  0
LINE
  5
14F
330
1F
100
AcDbEntity
  8
0
  6
Continuous
 62
     7
370
    25
100
AcDbLine
 10
201.269537727
 20
99.1371228814
 30
0.0
 11
201.0195376861
 21
99.1371228814
 31
0.0
  0
LINE
  5
150
330
1F
100
AcDbEntity
  8
0
  6
Continuous
 62
     7
370
    25
100
AcDbLine
 10
213.0195377904
 20
99.1371228814
 30
0.0
 11
213.0195377904
 21
97.6663342666
 31
0.0
  0
LINE
  5
151
330
1F
100
AcDbEntity
  8
0
  6
Continuous
 62
     7
370
    25
100
AcDbLine
 10
213.0195377904
 20
99.1371228814
 30
0.0
 11
212.7695377494
 21
99.1371228814
 31
0.0
  0
LINE
  5
152
330
1F
100
AcDbEntity
  8
0
  6
Continuous
 62
     7
370
    25
100
AcDbLine
 10
201.269537727
 20
89.6371231869
 30
0.0
 11
201.0195376861
 21
89.6371231869
 31
0.0
  0
LINE
  5
153
330
1F
100
AcDbEntity
  8
0
  6
Continuous
 62
     7
370
    25
100
AcDbLine
 10
201.0195376861
 20
89.6371231869
 30
0.0
 11
201.0195376861
 21
91.1079118017
 31
0.0
  0
LINE
  5
154
330
1F
100
AcDbEntity
  8
0
  6
Continuous
 62
     7
370
    25
100
AcDbLine
 10
207.0195377382
 20
116.387122915
 30
0.0
 11
212.2695376674
 21
116.387122915
 31
0.0
  0
LINE
  5
155
330
1F
100
AcDbEntity
  8
0
  6
Continuous
 62
     7
370
    25
100
AcDbLine
 10
201.769537809
 20
116.387122915
 30
0.0
 11
207.0195377382
 21
116.387122915
 31
0.0
  0
LINE
  5
156
330
1F
100
AcDbEntity
  8
0
  6
Continuous
 62
     7
370
    25
100
AcDbLine
 10
202.3555022242
 20
89.3871231459
 30
0.0
 11
201.269537727
 21
89.3871231459
 31
0.0
  0
LINE
  5
157
330
1F
100
AcDbEntity
  8
0
  6
Continuous
 62
     7
370
    25
100
AcDbLine
 10
201.269537727
 20
89.6371231869
 30
0.0
 11
201.269537727
 21
89.3871231459
 31
0.0
  0
ARC
  5
158
330
1F
100
AcDbEntity
  8
0
  6
Continuous
 62
     7
370
    25
100
AcDbCircle
 10
201.2695377382
 20
99.1371230342
 30
0.0
 40
0.25
100
AcDbArc
 50
90.0
 51
180.0
  0
LINE
  5
159
330
1F
100
AcDbEntity
  8
0
  6
Continuous
 62
     7
370
    25
100
AcDbLine
 10
201.269537727
 20
99.1371228814
 30
0.0
 11
201.269537727
 21
99.3871229224
 31
0.0
  0
ARC
  5
15A
330
1F
100
AcDbEntity
  8
0
  6
Continuous
 62
     7
370
    25
100
AcDbCircle
 10
212.7695377382
 20
89.6371230342
 30
0.0
 40
0.25
100
AcDbArc
 50
270.0
 51
0.0
  0
LINE
  5
15B
330
1F
100
AcDbEntity
  8
0
  6
Continuous
 62
     7
370
    25
100
AcDbLine
 10
212.7695377494
 20
89.3871231459
 30
0.0
 11
212.7695377494
 21
89.6371231869
 31
0.0
  0
LINE
  5
15C
330
1F
100
AcDbEntity
  8
0
  6
Continuous
 62
     7
370
    25
100
AcDbLine
 10
201.269537727
 20
99.3871229224
 30
0.0
 11
202.3555022242
 21
99.3871229224
 31
0.0
  0
LINE
  5
15D
330
1F
100
AcDbEntity
  8
0
  6
Continuous
 62
     7
370
    25
100
AcDbLine
 10
212.7695377494
 20
89.3871231459
 30
0.0
 11
211.6835732522
 21
89.3871231459
 31
0.0
  0
ARC
  5
15E
330
1F
100
AcDbEntity
  8
0
  6
Continuous
 62
     7
370
    25
100
AcDbCircle
 10
201.2695377382
 20
89.6371230342
 30
0.0
 40
0.25
100
AcDbArc
 50
180.0
 51
270.0
  0
LINE
  5
15F
330
1F
100
AcDbEntity
  8
0
  6
Continuous
 62
     7
370
    25
100
AcDbLine
 10
211.6835732522
 20
99.3871229224
 30
0.0
 11
212.7695377494
 21
99.3871229224
 31
0.0
  0
LINE
  5
160
330
1F
100
AcDbEntity
  8
0
  6
Continuous
 62
     7
370
    25
100
AcDbLine
 10
212.7695377494
 20
99.3871229224
 30
0.0
 11
212.7695377494
 21
99.1371228814
 31
0.0
  0
ARC
  5
161
330
1F
100
AcDbEntity
  8
0
  6
Continuous
 62
     7
370
    25
100
AcDbCircle
 10
212.7695377382
 20
99.1371230342
 30
0.0
 40
0.25
100
AcDbArc
 50
0.0
 51
90.0
  0
LINE
  5
162
330
1F
100
AcDbEntity
  8
0
  6
Continuous
 62
     7
370
    25
100
AcDbLine
 10
201.0195376861
 20
100.3871230863
 30
0.0
 11
201.269537727
 21
100.3871230863
 31
0.0
  0
LINE
  5
163
330
1F
100
AcDbEntity
  8
0
  6
Continuous
 62
     7
370
    25
100
AcDbLine
 10
201.269537727
 20
100.3871230863
 30
0.0
 11
201.269537727
 21
99.3871229224
 31
0.0
  0
LINE
  5
164
330
1F
100
AcDbEntity
  8
0
  6
Continuous
 62
     7
370
    25
100
AcDbLine
 10
201.0195376861
 20
99.1371228814
 30
0.0
 11
201.0195376861
 21
100.3871230863
 31
0.0
  0
LINE
  5
165
330
1F
100
AcDbEntity
  8
0
  6
Continuous
 62
     7
370
    25
100
AcDbLine
 10
201.269537727
 20
100.3871230863
 30
0.0
 11
203.6283726847
 21
100.3871230863
 31
0.0
  0
LINE
  5
166
330
1F
100
AcDbEntity
  8
0
  6
Continuous
 62
     7
370
    25
100
AcDbLine
 10
212.7695377494
 20
99.3871229224
 30
0.0
 11
212.7695377494
 21
100.3871230863
 31
0.0
  0
LINE
  5
167
330
1F
100
AcDbEntity
  8
0
  6
Continuous
 62
     7
370
    25
100
AcDbLine
 10
213.0195377904
 20
100.3871230863
 30
0.0
 11
212.7695377494
 21
100.3871230863
 31
0.0
  0
LINE
  5
168
330
1F
100
AcDbEntity
  8
0
  6
Continuous
 62
     7
370
    25
100
AcDbLine
 10
213.0195377904
 20
100.3871230863
 30
0.0
 11
213.0195377904
 21
99.1371228814
 31
0.0
  0
LINE
  5
169
330
1F
100
AcDbEntity
  8
0
  6
Continuous
 62
     7
370
    25
100
AcDbLine
 10
210.4107027917
 20
100.3871230863
 30
0.0
 11
212.7695377494
 21
100.3871230863
 31
0.0
  0
SPLINE
  5
16A
330
1F
100
AcDbEntity
  8
0
  6
Continuous
 62
     7
370
    25
100
AcDbSpline
210
0.0
220
0.0
230
1.0
 70
    24
 71
     3
 72
    14
 73
    10
 74
     0
 42
0.000000001
 43
0.00000001
 40
0.0
 40
0.0
 40
0.0
 40
0.0
 40
0.25
 40
0.25
 40
0.5
 40
0.5
 40
0.75
 40
0.75
 40
1.0
 40
1.0
 40
1.0
 40
1.0
 10
201.0195377382116
 20
101.1371230341829
 30
0.0
 10
201.0195377382116
 20
101.1371230341829
 30
0.0
 10
201.0293826519492
 20
101.1371230341829
 30
0.0
 10
201.0688747582583
 20
101.1371230341829
 30
0.0
 10
201.0985223974335
 20
101.1371230341829
 30
0.0
 10
201.1779515346372
 20
101.1371230341829
 30
0.0
 10
201.2277339587065
 20
101.1371230341829
 30
0.0
 10
201.3479629450411
 20
101.1371230341829
 30
0.0
 10
201.4184109776482
 20
101.1371230341829
 30
0.0
 10
201.4995377382116
 20
101.1371230341829
 30
0.0
  0
SPLINE
  5
16B
330
1F
100
AcDbEntity
  8
0
  6
Continuous
 62
     7
370
    25
100
AcDbSpline
210
0.0
220
0.0
230
1.0
 70
    24
 71
     3
 72
    14
 73
    10
 74
     0
 42
0.000000001
 43
0.00000001
 40
0.0
 40
0.0
 40
0.0
 40
0.0
 40
0.25
 40
0.25
 40
0.5
 40
0.5
 40
0.75
 40
0.75
 40
1.0
 40
1.0
 40
1.0
 40
1.0
 10
213.0195377382116
 20
101.1371230341829
 30
0.0
 10
213.0195377382116
 20
101.1371230341829
 30
0.0
 10
213.009692824474
 20
101.1371230341829
 30
0.0
 10
212.9702007181649
 20
101.1371230341829
 30
0.0
 10
212.9405530789897
 20
101.1371230341829
 30
0.0
 10
212.861123941786
 20
101.1371230341829
 30
0.0
 10
212.8113415177168
 20
101.1371230341829
 30
0.0
 10
212.6911125313821
 20
101.1371230341829
 30
0.0
 10
212.620664498775
 20
101.1371230341829
 30
0.0
 10
212.5395377382116
 20
101.1371230341829
 30
0.0
  0
LINE
  5
16C
330
1F
100
AcDbEntity
  8
0
  6
Continuous
 62
     7
370
    25
100
AcDbLine
 10
210.2750561244
 20
101.1371232093
 30
0.0
 11
212.5395378607
 21
101.1371232093
 31
0.0
  0
SPLINE
  5
16D
330
1F
100
AcDbEntity
  8
0
  6
Continuous
 62
     7
370
    25
100
AcDbSpline
210
0.0
220
0.0
230
1.0
 70
     8
 71
     3
 72
    14
 73
    10
 74
     0
 42
0.000000001
 43
0.00000001
 40
0.0
 40
0.0
 40
0.0
 40
0.0
 40
0.25
 40
0.25
 40
0.5
 40
0.5
 40
0.75
 40
0.75
 40
1.0
 40
1.0
 40
1.0
 40
1.0
 10
203.7640193463115
 20
100.6371230341829
 30
0.0
 10
203.7640193463115
 20
100.7244410631892
 30
0.0
 10
203.7282470434382
 20
100.8060691710108
 30
0.0
 10
203.6319737630637
 20
100.9337702891443
 30
0.0
 10
203.572104932445
 20
100.9831610819699
 30
0.0
 10
203.4480477383774
 20
101.0605197495279
 30
0.0
 10
203.3820562130276
 20
101.0890885590998
 30
0.0
 10
203.2512783439152
 20
101.1271559280669
 30
0.0
 10
203.1857183406385
 20
101.1371230341829
 30
0.0
 10
203.1199993039863
 20
101.1371230341829
 30
0.0
  0
LINE
  5
16E
330
1F
100
AcDbEntity
  8
0
  6
Continuous
 62
     7
370
    25
100
AcDbLine
 10
201.4995376157
 20
101.1371232093
 30
0.0
 11
203.1199993143
 21
101.1371232093
 31
0.0
  0
SPLINE
  5
16F
330
1F
100
AcDbEntity
  8
0
  6
Continuous
 62
     7
370
    25
100
AcDbSpline
210
0.0
220
0.0
230
1.0
 70
     8
 71
     3
 72
    14
 73
    10
 74
     0
 42
0.000000001
 43
0.00000001
 40
0.0
 40
0.0
 40
0.0
 40
0.0
 40
0.4999999999999986
 40
0.4999999999999986
 40
0.7499999999999989
 40
0.7499999999999989
 40
0.8749999999999994
 40
0.8749999999999994
 40
1.0
 40
1.0
 40
1.0
 40
1.0
 10
202.9575185358936
 20
100.8871230341829
 30
0.0
 10
203.0801915865215
 20
100.8871230341829
 30
0.0
 10
203.2036576155464
 20
100.872219367349
 30
0.0
 10
203.385654473029
 20
100.8244606137674
 30
0.0
 10
203.4460481187401
 20
100.8043905933141
 30
0.0
 10
203.5310588678736
 20
100.7607714894479
 30
0.0
 10
203.5588592169069
 20
100.7438320748516
 30
0.0
 10
203.6065731211669
 20
100.7003777782638
 30
0.0
 10
203.628372746649
 20
100.6711447219382
 30
0.0
 10
203.628372746649
 20
100.6371230341829
 30
0.0
  0
LWPOLYLINE
  5
170
330
1F
100
AcDbEntity
  8
0
  6
Continuous
 62
     7
370
    25
100
AcDbPolyline
 90
        9
 70
   128
 43
0.0
 10
202.9575184497
 20
100.8871231683
 10
202.9892169448
 20
100.8919269301
 10
203.01969727
 20
100.9061533481
 10
203.0477878215
 20
100.9292557359
 10
203.0724096621
 20
100.9603465431
 10
203.092616568
 20
100.9982304171
 10
203.1076313506
 20
101.0414521665
 10
203.1168772882
 20
101.0883503117
 10
203.1199993143
 20
101.1371232093
  0
LINE
  5
171
330
1F
100
AcDbEntity
  8
0
  6
Continuous
 62
     7
370
    25
100
AcDbLine
 10
203.6283726847
 20
100.6371231273
 30
0.0
 11
203.7640193521
 21
100.6371231273
 31
0.0
  0
SPLINE
  5
172
330
1F
100
AcDbEntity
  8
0
  6
Continuous
 62
     7
370
    25
100
AcDbSpline
210
0.0
220
0.0
230
1.0
 70
     8
 71
     3
 72
    10
 73
     6
 74
     0
 42
0.000000001
 43
0.00000001
 40
0.0
 40
0.0
 40
0.0
 40
0.0
 40
0.5
 40
0.5
 40
1.0
 40
1.0
 40
1.0
 40
1.0
 10
210.7695377382116
 20
100.8871230341829
 30
0.0
 10
210.705187679506
 20
100.8871230341829
 30
0.0
 10
210.6423018543015
 20
100.8955749601754
 30
0.0
 10
210.5197245668139
 20
100.9309174826212
 30
0.0
 10
210.460194381044
 20
100.9571722982536
 30
0.0
 10
210.4107027297743
 20
100.9991471849694
 30
0.0
  0
SPLINE
  5
173
330
1F
100
AcDbEntity
  8
0
  6
Continuous
 62
     7
370
    25
100
AcDbSpline
210
0.0
220
0.0
230
1.0
 70
     8
 71
     3
 72
     8
 73
     4
 74
     0
 42
0.000000001
 43
0.00000001
 40
0.0
 40
0.0
 40
0.0
 40
0.0
 40
1.0
 40
1.0
 40
1.0
 40
1.0
 10
210.4107027297742
 20
100.9991471849693
 30
0.0
 10
210.359791428699
 20
101.0423261058653
 30
0.0
 10
210.3138767372332
 20
101.0899550795935
 30
0.0
 10
210.2750561301118
 20
101.1371230341829
 30
0.0
  0
SPLINE
  5
174
330
1F
100
AcDbEntity
  8
0
  6
Continuous
 62
     7
370
    25
100
AcDbSpline
210
0.0
220
0.0
230
1.0
 70
     8
 71
     3
 72
    10
 73
     6
 74
     0
 42
0.000000001
 43
0.00000001
 40
0.0
 40
0.0
 40
0.0
 40
0.0
 40
0.5
 40
0.5
 40
1.0
 40
1.0
 40
1.0
 40
1.0
 10
212.6123254853172
 20
100.9603384384423
 30
0.0
 10
212.5847845384952
 20
100.9887656985096
 30
0.0
 10
212.5651714046055
 20
101.0229923366764
 30
0.0
 10
212.5428625313172
 20
101.086014382214
 30
0.0
 10
212.5395377382116
 20
101.114600101506
 30
0.0
 10
212.5395377382116
 20
101.1371230341829
 30
0.0
  0
SPLINE
  5
175
330
1F
100
AcDbEntity
  8
0
  6
Continuous
 62
     7
370
    25
100
AcDbSpline
210
0.0
220
0.0
230
1.0
 70
     8
 71
     3
 72
    12
 73
     8
 74
     0
 42
0.000000001
 43
0.00000001
 40
0.0
 40
0.0
 40
0.0
 40
0.0
 40
0.25
 40
0.25
 40
0.5
 40
0.5
 40
1.0
 40
1.0
 40
1.0
 40
1.0
 10
212.6123254853172
 20
100.9603384384423
 30
0.0
 10
212.6260959587282
 20
100.9461248084086
 30
0.0
 10
212.6421599785795
 20
100.9334232846561
 30
0.0
 10
212.6755512827748
 20
100.9123558553136
 30
0.0
 10
212.6928785671189
 20
100.9039899497238
 30
0.0
 10
212.7417695743092
 20
100.8873627685991
 30
0.0
 10
212.7695377382116
 20
100.8871230341829
 30
0.0
 10
212.7695377382116
 20
100.8871230341829
 30
0.0
  0
LINE
  5
176
330
1F
100
AcDbEntity
  8
0
  6
Continuous
 62
     7
370
    25
100
AcDbLine
 10
210.4107027917
 20
100.9991473042
 30
0.0
 11
210.4107027917
 21
100.3871230863
 31
0.0
  0
LINE
  5
177
330
1F
100
AcDbEntity
  8
0
  6
Continuous
 62
     7
370
    25
100
AcDbLine
 10
203.6283726847
 20
100.3871230863
 30
0.0
 11
203.6283726847
 21
100.6371231273
 31
0.0
  0
LINE
  5
178
330
1F
100
AcDbEntity
  8
0
  6
Continuous
 62
     7
370
    25
100
AcDbLine
 10
201.0195376861
 20
100.6371231273
 30
0.0
 11
201.269537727
 21
100.6371231273
 31
0.0
  0
LINE
  5
179
330
1F
100
AcDbEntity
  8
0
  6
Continuous
 62
     7
370
    25
100
AcDbLine
 10
201.269537727
 20
100.6371231273
 30
0.0
 11
201.269537727
 21
100.3871230863
 31
0.0
  0
LINE
  5
17A
330
1F
100
AcDbEntity
  8
0
  6
Continuous
 62
     7
370
    25
100
AcDbLine
 10
201.0195376861
 20
100.3871230863
 30
0.0
 11
201.0195376861
 21
100.6371231273
 31
0.0
  0
LINE
  5
17B
330
1F
100
AcDbEntity
  8
0
  6
Continuous
 62
     7
370
    25
100
AcDbLine
 10
212.7695377494
 20
100.3871230863
 30
0.0
 11
212.7695377494
 21
100.8871231683
 31
0.0
  0
LINE
  5
17C
330
1F
100
AcDbEntity
  8
0
  6
Continuous
 62
     7
370
    25
100
AcDbLine
 10
210.7695376544
 20
100.8871231683
 30
0.0
 11
212.7695377494
 21
100.8871231683
 31
0.0
  0
LINE
  5
17D
330
1F
100
AcDbEntity
  8
0
  6
Continuous
 62
     7
370
    25
100
AcDbLine
 10
201.269537727
 20
100.8871231683
 30
0.0
 11
202.9575184497
 21
100.8871231683
 31
0.0
  0
LINE
  5
17E
330
1F
100
AcDbEntity
  8
0
  6
Continuous
 62
     7
370
    25
100
AcDbLine
 10
203.6283726847
 20
100.6371231273
 30
0.0
 11
201.269537727
 21
100.6371231273
 31
0.0
  0
LINE
  5
17F
330
1F
100
AcDbEntity
  8
0
  6
Continuous
 62
     7
370
    25
100
AcDbLine
 10
201.269537727
 20
100.6371231273
 30
0.0
 11
201.269537727
 21
100.8871231683
 31
0.0
  0
ARC
  5
180
330
1F
100
AcDbEntity
  8
0
  6
Continuous
 62
     7
370
    25
100
AcDbCircle
 10
212.7695377382
 20
100.6371230342
 30
0.0
 40
0.25
100
AcDbArc
 50
0.0
 51
90.0
  0
LINE
  5
181
330
1F
100
AcDbEntity
  8
0
  6
Continuous
 62
     7
370
    25
100
AcDbLine
 10
213.0195377904
 20
100.6371231273
 30
0.0
 11
213.0195377904
 21
100.3871230863
 31
0.0
  0
ARC
  5
182
330
1F
100
AcDbEntity
  8
0
  6
Continuous
 62
     7
370
    25
100
AcDbCircle
 10
201.2695377382
 20
100.6371230342
 30
0.0
 40
0.25
100
AcDbArc
 50
90.0
 51
180.0
  0
SPLINE
  5
183
330
1F
100
AcDbEntity
  8
0
  6
Continuous
 62
     7
370
    25
100
AcDbSpline
210
0.0
220
0.0
230
1.0
 70
     8
 71
     3
 72
    12
 73
     8
 74
     0
 42
0.000000001
 43
0.00000001
 40
0.0
 40
0.0
 40
0.0
 40
0.0
 40
0.25
 40
0.25
 40
0.5
 40
0.5
 40
1.0
 40
1.0
 40
1.0
 40
1.0
 10
201.426749991106
 20
100.9603384384423
 30
0.0
 10
201.412979517695
 20
100.9461248084086
 30
0.0
 10
201.3969154978437
 20
100.9334232846561
 30
0.0
 10
201.3635241936484
 20
100.9123558553136
 30
0.0
 10
201.3461969093043
 20
100.9039899497238
 30
0.0
 10
201.297305902114
 20
100.8873627685991
 30
0.0
 10
201.2695377382116
 20
100.8871230341829
 30
0.0
 10
201.2695377382116
 20
100.8871230341829
 30
0.0
  0
SPLINE
  5
184
330
1F
100
AcDbEntity
  8
0
  6
Continuous
 62
     7
370
    25
100
AcDbSpline
210
0.0
220
0.0
230
1.0
 70
     8
 71
     3
 72
    10
 73
     6
 74
     0
 42
0.000000001
 43
0.00000001
 40
0.0
 40
0.0
 40
0.0
 40
0.0
 40
0.5
 40
0.5
 40
1.0
 40
1.0
 40
1.0
 40
1.0
 10
201.426749991106
 20
100.9603384384423
 30
0.0
 10
201.454290937928
 20
100.9887656985096
 30
0.0
 10
201.4739040718177
 20
101.0229923366764
 30
0.0
 10
201.496212945106
 20
101.086014382214
 30
0.0
 10
201.4995377382116
 20
101.114600101506
 30
0.0
 10
201.4995377382116
 20
101.1371230341829
 30
0.0
  0
LINE
  5
185
330
1F
100
AcDbEntity
  8
0
  6
Continuous
 62
     7
370
    25
100
AcDbLine
 10
210.9881649303
 20
93.8871230104
 30
0.0
 11
203.0509105461
 21
93.8871230104
 31
0.0
  0
SPLINE
  5
186
330
1F
100
AcDbEntity
  8
0
  6
Continuous
 62
     7
370
    25
100
AcDbSpline
210
0.0
220
0.0
230
1.0
 70
     8
 71
     3
 72
    12
 73
     8
 74
     0
 42
0.000000001
 43
0.00000001
 40
0.0
 40
0.0
 40
0.0
 40
0.0
 40
0.25
 40
0.25
 40
0.5
 40
0.5
 40
1.0
 40
1.0
 40
1.0
 40
1.0
 10
213.0182445208831
 20
100.8891306344726
 30
0.0
 10
213.0182343635259
 20
100.8788671751834
 30
0.0
 10
213.0096779374145
 20
100.8712883953866
 30
0.0
 10
212.9883045811796
 20
100.8568749399376
 30
0.0
 10
212.9754876510561
 20
100.8500402642853
 30
0.0
 10
212.9498941549125
 20
100.8237145112848
 30
0.0
 10
212.9461666030639
 20
100.8140475599238
 30
0.0
 10
212.946314433509
 20
100.8138997294787
 30
0.0
  0
LINE
  5
187
330
1F
100
AcDbEntity
  8
0
  6
Continuous
 62
     7
370
    25
100
AcDbLine
 10
213.0198390732
 20
100.6952274114
 30
0.0
 11
213.0201664331
 21
100.7583315008
 31
0.0
  0
SPLINE
  5
188
330
1F
100
AcDbEntity
  8
0
  6
Continuous
 62
     7
370
    25
100
AcDbSpline
210
0.0
220
0.0
230
1.0
 70
     8
 71
     3
 72
    12
 73
     8
 74
     0
 42
0.000000001
 43
0.00000001
 40
0.0
 40
0.0
 40
0.0
 40
0.0
 40
0.25
 40
0.25
 40
0.5
 40
0.5
 40
1.0
 40
1.0
 40
1.0
 40
1.0
 10
213.0182445208831
 20
100.8891306344726
 30
0.0
 10
213.0182546782402
 20
100.8993940937617
 30
0.0
 10
213.0097202658472
 20
100.9140589841924
 30
0.0
 10
212.973674777742
 20
100.9457943623759
 30
0.0
 10
212.9461637020298
 20
100.9628648501287
 30
0.0
 10
212.8323341941861
 20
101.0080888119281
 30
0.0
 10
212.7312726431428
 20
101.0012653846614
 30
0.0
 10
212.6123254853172
 20
100.9603384384423
 30
0.0
  0
SPLINE
  5
189
330
1F
100
AcDbEntity
  8
0
  6
Continuous
 62
     7
370
    25
100
AcDbSpline
210
0.0
220
0.0
230
1.0
 70
     8
 71
     3
 72
    12
 73
     8
 74
     0
 42
0.000000001
 43
0.00000001
 40
0.0
 40
0.0
 40
0.0
 40
0.0
 40
0.25
 40
0.25
 40
0.5
 40
0.5
 40
1.0
 40
1.0
 40
1.0
 40
1.0
 10
201.0208309555402
 20
100.8891306344726
 30
0.0
 10
201.0208411128973
 20
100.8788671751834
 30
0.0
 10
201.0293975390088
 20
100.8712883953866
 30
0.0
 10
201.0507708952437
 20
100.8568749399376
 30
0.0
 10
201.0635878253671
 20
100.8500402642853
 30
0.0
 10
201.0891813215107
 20
100.8237145112848
 30
0.0
 10
201.0929088733593
 20
100.8140475599238
 30
0.0
 10
201.0927610429142
 20
100.8138997294787
 30
0.0
  0
LINE
  5
18A
330
1F
100
AcDbEntity
  8
0
  6
Continuous
 62
     7
370
    25
100
AcDbLine
 10
201.0192364032
 20
100.6952274114
 30
0.0
 11
201.0189090433
 21
100.7583315008
 31
0.0
  0
SPLINE
  5
18B
330
1F
100
AcDbEntity
  8
0
  6
Continuous
 62
     7
370
    25
100
AcDbSpline
210
0.0
220
0.0
230
1.0
 70
     8
 71
     3
 72
    14
 73
    10
 74
     0
 42
0.000000001
 43
0.00000001
 40
0.0
 40
0.0
 40
0.0
 40
0.0
 40
0.25
 40
0.25
 40
0.5
 40
0.5
 40
0.75
 40
0.75
 40
1.0
 40
1.0
 40
1.0
 40
1.0
 10
201.0208309555402
 20
100.8891306344726
 30
0.0
 10
201.020820798183
 20
100.8993940937617
 30
0.0
 10
201.029355210576
 20
100.9140589841924
 30
0.0
 10
201.0654006986812
 20
100.9457943623759
 30
0.0
 10
201.0929117743935
 20
100.9628648501287
 30
0.0
 10
201.1687981129559
 20
100.993014157995
 30
0.0
 10
201.2130350853573
 20
100.9988456281449
 30
0.0
 10
201.312274234976
 20
100.9927395049233
 30
0.0
 10
201.3672764121932
 20
100.9808019115519
 30
0.0
 10
201.426749991106
 20
100.9603384384423
 30
0.0
  0
SPLINE
  5
18C
330
1F
100
AcDbEntity
  8
0
  6
Continuous
 62
     7
370
    25
100
AcDbSpline
210
0.0
220
0.0
230
1.0
 70
     8
 71
     3
 72
    10
 73
     6
 74
     0
 42
0.000000001
 43
0.00000001
 40
0.0
 40
0.0
 40
0.0
 40
0.0
 40
0.5
 40
0.5
 40
1.0
 40
1.0
 40
1.0
 40
1.0
 10
213.0182445208831
 20
100.8891306344726
 30
0.0
 10
213.0182851503117
 20
100.9301844716291
 30
0.0
 10
213.0187303551599
 20
100.9736613020101
 30
0.0
 10
213.0152047542086
 20
101.0627200017344
 30
0.0
 10
213.0195377382116
 20
101.0948233712581
 30
0.0
 10
213.0195377382116
 20
101.1371230341829
 30
0.0
  0
SPLINE
  5
18D
330
1F
100
AcDbEntity
  8
0
  6
Continuous
 62
     7
370
    25
100
AcDbSpline
210
0.0
220
0.0
230
1.0
 70
     8
 71
     3
 72
     9
 73
     5
 74
     0
 42
0.000000001
 43
0.00000001
 40
0.0
 40
0.0
 40
0.0
 40
0.0
 40
0.1237681934257705
 40
1.0
 40
1.0
 40
1.0
 40
1.0
 10
201.0213244284169
 20
101.0181788809932
 30
0.0
 10
201.0214114508316
 20
101.0128553161453
 30
0.0
 10
201.0221145588941
 20
100.9698429338803
 30
0.0
 10
201.0214303516244
 20
100.9268246354512
 30
0.0
 10
201.0208308274524
 20
100.8891306341029
 30
0.0
  0
SPLINE
  5
18E
330
1F
100
AcDbEntity
  8
0
  6
Continuous
 62
     7
370
    25
100
AcDbSpline
210
0.0
220
0.0
230
1.0
 70
     8
 71
     3
 72
    26
 73
    22
 74
     0
 42
0.000000001
 43
0.00000001
 40
0.0
 40
0.0
 40
0.0
 40
0.0
 40
0.1249999999999999
 40
0.1249999999999999
 40
0.2499999999999998
 40
0.2499999999999998
 40
0.3749999999999998
 40
0.3749999999999998
 40
0.4374999999999997
 40
0.4374999999999997
 40
0.4999999999999997
 40
0.4999999999999997
 40
0.5624999999999997
 40
0.5624999999999997
 40
0.6249999999999996
 40
0.6249999999999996
 40
0.7499999999999997
 40
0.7499999999999997
 40
0.8749999999999999
 40
0.8749999999999999
 40
1.0
 40
1.0
 40
1.0
 40
1.0
 10
203.0509107716147
 20
93.88712303418285
 30
0.0
 10
203.3441700611761
 20
93.72451055018601
 30
0.0
 10
203.6423789486514
 20
93.56710434452575
 30
0.0
 10
204.2553050426253
 20
93.26965635455853
 30
0.0
 10
204.5698400175222
 20
93.12942288832976
 30
0.0
 10
205.2283102653695
 20
92.87988091937646
 30
0.0
 10
205.5677395892641
 20
92.77234501027722
 30
0.0
 10
206.1002466208457
 20
92.65663726206067
 30
0.0
 10
206.2833015331306
 20
92.62559961227713
 30
0.0
 10
206.6519735842421
 20
92.58396975487268
 30
0.0
 10
206.8367137459305
 20
92.57335793694907
 30
0.0
 10
207.2070418220281
 20
92.57353727457458
 30
0.0
 10
207.3934982367527
 20
92.58443676086125
 30
0.0
 10
207.7634520715112
 20
92.6267317740123
 30
0.0
 10
207.943877207767
 20
92.65759586513036
 30
0.0
 10
208.4743357207963
 20
92.77327872194607
 30
0.0
 10
208.8155975793479
 20
92.88154727342018
 30
0.0
 10
209.4719946296599
 20
93.13063543672779
 30
0.0
 10
209.7858020283444
 20
93.2706018962098
 30
0.0
 10
210.3975368634753
 20
93.567552717005
 30
0.0
 10
210.6952900403805
 20
93.72472382509518
 30
0.0
 10
210.9881647048085
 20
93.88712303418288
 30
0.0
  0
LINE
  5
18F
330
1F
100
AcDbEntity
  8
0
  6
Continuous
 62
     8
370
    25
100
AcDbLine
 10
212.7695377494
 20
99.1371228814
 30
0.0
 11
211.9379449214
 21
99.1371228814
 31
0.0
  0
LINE
  5
190
330
1F
100
AcDbEntity
  8
0
  6
Continuous
 62
     8
370
    25
100
AcDbLine
 10
212.7695377494
 20
98.0872212898
 30
0.0
 11
212.7695377494
 21
99.1371228814
 31
0.0
  0
LINE
  5
191
330
1F
100
AcDbEntity
  8
0
  6
Continuous
 62
     8
370
    25
100
AcDbLine
 10
211.9379449214
 20
89.6371231869
 30
0.0
 11
212.7695377494
 21
89.6371231869
 31
0.0
  0
LINE
  5
192
330
1F
100
AcDbEntity
  8
0
  6
Continuous
 62
     8
370
    25
100
AcDbLine
 10
212.7695377494
 20
89.6371231869
 30
0.0
 11
212.7695377494
 21
90.6870247785
 31
0.0
  0
LINE
  5
193
330
1F
100
AcDbEntity
  8
0
  6
Continuous
 62
     8
370
    25
100
AcDbLine
 10
201.269537727
 20
99.1371228814
 30
0.0
 11
201.269537727
 21
98.0872212898
 31
0.0
  0
LINE
  5
194
330
1F
100
AcDbEntity
  8
0
  6
Continuous
 62
     8
370
    25
100
AcDbLine
 10
202.1011305551
 20
99.1371228814
 30
0.0
 11
201.269537727
 21
99.1371228814
 31
0.0
  0
LINE
  5
195
330
1F
100
AcDbEntity
  8
0
  6
Continuous
 62
     8
370
    25
100
AcDbLine
 10
201.269537727
 20
90.6870247785
 30
0.0
 11
201.269537727
 21
89.6371231869
 31
0.0
  0
LINE
  5
196
330
1F
100
AcDbEntity
  8
0
  6
Continuous
 62
     8
370
    25
100
AcDbLine
 10
201.269537727
 20
89.6371231869
 30
0.0
 11
202.1011305551
 21
89.6371231869
 31
0.0
  0
LINE
  5
197
330
1F
100
AcDbEntity
  8
0
  6
Continuous
 62
     8
370
    25
100
AcDbLine
 10
207.0195377382
 20
103.8871227287
 30
0.0
 11
201.0195376861
 21
103.8871227287
 31
0.0
  0
LINE
  5
198
330
1F
100
AcDbEntity
  8
0
  6
Continuous
 62
     8
370
    25
100
AcDbLine
 10
213.0195377904
 20
103.8871227287
 30
0.0
 11
207.0195377382
 21
103.8871227287
 31
0.0
  0
LINE
  5
199
330
1F
100
AcDbEntity
  8
0
  6
Continuous
 62
     8
370
    25
100
AcDbLine
 10
203.6354120864
 20
100.3236641631
 30
0.0
 11
203.6283726847
 21
100.3871230863
 31
0.0
  0
LINE
  5
19A
330
1F
100
AcDbEntity
  8
0
  6
Continuous
 62
     8
370
    25
100
AcDbLine
 10
210.4107027917
 20
100.3871230863
 30
0.0
 11
210.4040580379
 21
100.3272204183
 31
0.0
  0
LINE
  5
19B
330
1F
100
AcDbEntity
  8
0
  6
Continuous
 62
     8
370
    25
100
AcDbLine
 10
210.2750561244
 20
100.4000116594
 30
0.0
 11
210.2750561244
 21
101.1371232093
 31
0.0
  0
LINE
  5
19C
330
1F
100
AcDbEntity
  8
0
  6
Continuous
 62
     8
370
    25
100
AcDbLine
 10
203.7640193521
 20
100.6371231273
 30
0.0
 11
203.7640193521
 21
100.4000116594
 31
0.0
  0
LINE
  5
19D
330
1F
100
AcDbEntity
  8
0
  6
Continuous
 62
     8
370
    25
100
AcDbLine
 10
203.6283726847
 20
100.3871230863
 30
0.0
 11
203.7403265058
 21
100.3871230863
 31
0.0
  0
LINE
  5
19E
330
1F
100
AcDbEntity
  8
0
  6
Continuous
 62
     8
370
    25
100
AcDbLine
 10
210.4107027917
 20
100.3871230863
 30
0.0
 11
210.2987489707
 21
100.3871230863
 31
0.0
  0
SPLINE
  5
19F
330
1F
100
AcDbEntity
  8
0
  6
Continuous
 62
     8
370
    25
100
AcDbSpline
210
0.0
220
0.0
230
1.0
 70
     8
 71
     3
 72
     9
 73
     5
 74
     0
 42
0.000000001
 43
0.00000001
 40
0.0
 40
0.0
 40
0.0
 40
0.0
 40
0.1251159292884992
 40
1.0
 40
1.0
 40
1.0
 40
1.0
 10
213.0201664331035
 20
100.7583315007723
 30
0.0
 10
213.0202026005146
 20
100.7637872362701
 30
0.0
 10
213.0204916717084
 20
100.8073926790685
 30
0.0
 10
213.0192931854806
 20
100.8509889505987
 30
0.0
 10
213.0182446489708
 20
100.8891306341029
 30
0.0
  0
SPLINE
  5
1A0
330
1F
100
AcDbEntity
  8
0
  6
Continuous
 62
     8
370
    25
100
AcDbSpline
210
0.0
220
0.0
230
1.0
 70
     8
 71
     3
 72
     9
 73
     5
 74
     0
 42
0.000000001
 43
0.00000001
 40
0.0
 40
0.0
 40
0.0
 40
0.0
 40
0.1251159292884992
 40
1.0
 40
1.0
 40
1.0
 40
1.0
 10
201.0189090433197
 20
100.7583315007723
 30
0.0
 10
201.0188728759086
 20
100.7637872362701
 30
0.0
 10
201.0185838047148
 20
100.8073926790685
 30
0.0
 10
201.0197822909426
 20
100.8509889505987
 30
0.0
 10
201.0208308274524
 20
100.8891306341029
 30
0.0
  0
LINE
  5
1A1
330
1F
100
AcDbEntity
  8
0
  6
Continuous
 62
     8
370
    25
100
AcDbLine
 10
201.0195376861
 20
101.1371232093
 30
0.0
 11
201.0213244284
 21
101.018178881
 31
0.0
  0
INSERT
  5
1AD
330
1F
100
AcDbEntity
  8
0
  6
Continuous
 62
     7
370
    18
100
AcDbBlockReference
  2
SW_CENTERMARKSYMBOL_0
 10
207.0195377382
 20
94.3871230342
 30
0.0
  0
ARC
  5
1AE
330
1F
100
AcDbEntity
  8
0
  6
Continuous
 62
     7
370
    18
100
AcDbCircle
 10
207.0195377382
 20
94.3871230342
 30
0.0
 40
5.722500000000014
100
AcDbArc
 50
75.0
 51
345.0
  0
LINE
  5
1AF
330
1F
100
AcDbEntity
  8
0
  6
Continuous
 62
     7
370
    18
100
AcDbLine
 10
212.6952809978
 20
115.6497140776
 30
0.0
 11
213.0569329593
 21
104.0768513097
 31
0.0
  0
LINE
  5
1B0
330
1F
100
AcDbEntity
  8
0
  6
Continuous
 62
     7
370
    18
100
AcDbLine
 10
201.3437944786
 20
115.6497140776
 30
0.0
 11
200.9821425171
 21
104.0768513097
 31
0.0
  0
ARC
  5
1B1
330
1F
100
AcDbEntity
  8
0
  6
Continuous
 62
     7
370
    18
100
AcDbCircle
 10
207.0195377382
 20
94.3871230342
 30
0.0
 40
5.722500000000014
100
AcDbArc
 50
75.0
 51
345.0
  0
LINE
  5
1B2
330
1F
100
AcDbEntity
  8
0
  6
Continuous
 62
     7
370
    25
100
AcDbLine
 10
173.6361992284
 20
128.9381170643
 30
0.0
 11
183.407484807
 21
129.2434697969
 31
0.0
  0
LINE
  5
1B3
330
1F
100
AcDbEntity
  8
0
  6
Continuous
 62
     7
370
    25
100
AcDbLine
 10
183.407484807
 20
142.3080302773
 30
0.0
 11
173.6361992284
 21
142.6133830098
 31
0.0
  0
ARC
  5
1B4
330
1F
100
AcDbEntity
  8
0
  6
Continuous
 62
     7
370
    25
100
AcDbCircle
 10
174.1284601613
 20
142.5257500371
 30
0.0
 40
0.5
100
AcDbArc
 50
169.905845481
 51
180.0
  0
ARC
  5
1B5
330
1F
100
AcDbEntity
  8
0
  6
Continuous
 62
     7
370
    25
100
AcDbCircle
 10
174.1284601613
 20
129.0257500371
 30
0.0
 40
0.5
100
AcDbArc
 50
180.0
 51
190.094154519
  0
LINE
  5
1B6
330
1F
100
AcDbEntity
  8
0
  6
Continuous
 62
     7
370
    25
100
AcDbLine
 10
183.407484807
 20
129.2434697969
 30
0.0
 11
185.6284600421
 21
130.5257501078
 31
0.0
  0
LINE
  5
1B7
330
1F
100
AcDbEntity
  8
0
  6
Continuous
 62
     7
370
    25
100
AcDbLine
 10
185.6284600421
 20
141.0257499663
 30
0.0
 11
183.407484807
 21
142.3080302773
 31
0.0
  0
ARC
  5
1B8
330
1F
100
AcDbEntity
  8
0
  6
Continuous
 62
     7
370
    25
100
AcDbCircle
 10
173.1284601613
 20
142.2757500371
 30
0.0
 40
0.5
100
AcDbArc
 50
270.0
 51
0.0
  0
ARC
  5
1B9
330
1F
100
AcDbEntity
  8
0
  6
Continuous
 62
     7
370
    25
100
AcDbCircle
 10
173.1284601613
 20
129.2757500371
 30
0.0
 40
0.5
100
AcDbArc
 50
0.0
 51
90.0
  0
LINE
  5
1BA
330
1F
100
AcDbEntity
  8
0
  6
Continuous
 62
     7
370
    25
100
AcDbLine
 10
170.3784603364
 20
129.7757499849
 30
0.0
 11
173.1284598558
 21
129.7757499849
 31
0.0
  0
LINE
  5
1BB
330
1F
100
AcDbEntity
  8
0
  6
Continuous
 62
     7
370
    25
100
AcDbLine
 10
170.6284603774
 20
141.7757500892
 30
0.0
 11
170.3784603364
 21
141.7757500892
 31
0.0
  0
LINE
  5
1BC
330
1F
100
AcDbEntity
  8
0
  6
Continuous
 62
     7
370
    25
100
AcDbLine
 10
173.1284598558
 20
141.7757500892
 30
0.0
 11
171.6284605413
 21
141.7757500892
 31
0.0
  0
SPLINE
  5
1BD
330
1F
100
AcDbEntity
  8
0
  6
Continuous
 62
     7
370
    25
100
AcDbSpline
210
0.0
220
0.0
230
1.0
 70
     8
 71
     3
 72
    11
 73
     7
 74
     0
 42
0.000000001
 43
0.00000001
 40
0.0
 40
0.0
 40
0.0
 40
0.0
 40
0.2499994850058011
 40
0.4999993140564977
 40
0.7499992075317189
 40
1.0
 40
1.0
 40
1.0
 40
1.0
 10
170.8784599526881
 20
142.0757500452585
 30
0.0
 10
170.8457007767166
 20
142.0719921245358
 30
0.0
 10
170.7801823796911
 20
142.0644762779187
 30
0.0
 10
170.6975464842811
 20
142.0066639197605
 30
0.0
 10
170.6397340466856
 20
141.9240278980888
 30
0.0
 10
170.632218271647
 20
141.8585093414836
 30
0.0
 10
170.6284603773712
 20
141.8257500042803
 30
0.0
  0
SPLINE
  5
1BE
330
1F
100
AcDbEntity
  8
0
  6
Continuous
 62
     7
370
    25
100
AcDbSpline
210
0.0
220
0.0
230
1.0
 70
     8
 71
     3
 72
    11
 73
     7
 74
     0
 42
0.000000001
 43
0.00000001
 40
0.0
 40
0.0
 40
0.0
 40
0.0
 40
0.250000565247096
 40
0.4999992914302249
 40
0.749999671289409
 40
1.0
 40
1.0
 40
1.0
 40
1.0
 10
171.6284605412839
 20
141.8257500042803
 30
0.0
 10
171.6247024202409
 20
141.8585093050507
 30
0.0
 10
171.6171862058004
 20
141.9240276656063
 30
0.0
 10
171.5593744757288
 20
142.0066642453214
 30
0.0
 10
171.4767379538177
 20
142.0644762532451
 30
0.0
 10
171.4112193388014
 20
142.0719921148437
 30
0.0
 10
171.3784600346445
 20
142.0757500452585
 30
0.0
  0
LINE
  5
1BF
330
1F
100
AcDbEntity
  8
0
  6
Continuous
 62
     7
370
    25
100
AcDbLine
 10
170.6284603774
 20
141.8260498901
 30
0.0
 11
170.6284603774
 21
141.7757500892
 31
0.0
  0
LINE
  5
1C0
330
1F
100
AcDbEntity
  8
0
  6
Continuous
 62
     7
370
    25
100
AcDbLine
 10
171.6284605413
 20
141.7757500892
 30
0.0
 11
171.6284605413
 21
141.8260498901
 31
0.0
  0
LINE
  5
1C1
330
1F
100
AcDbEntity
  8
0
  6
Continuous
 62
     7
370
    25
100
AcDbLine
 10
171.3784563094
 20
142.0757500453
 30
0.0
 11
170.8784599527
 21
142.0757500453
 31
0.0
  0
CIRCLE
  5
1C2
330
1F
100
AcDbEntity
  8
0
  6
Continuous
 62
     7
370
    25
100
AcDbCircle
 10
163.6284601613
 20
135.7757500371
 30
0.0
 40
6.532280466154106
  0
CIRCLE
  5
1C3
330
1F
100
AcDbEntity
  8
0
  6
Continuous
 62
     7
370
    25
100
AcDbCircle
 10
163.6284601613
 20
135.7757500371
 30
0.0
 40
5.25
  0
ARC
  5
1C4
330
1F
100
AcDbEntity
  8
0
  6
Continuous
 62
     7
370
    25
100
AcDbCircle
 10
163.6284601613
 20
135.7757500371
 30
0.0
 40
4.500000000000001
100
AcDbArc
 50
180.0
 51
179.0
  0
ARC
  5
1C5
330
1F
100
AcDbEntity
  8
0
  6
Continuous
 62
     7
370
    25
100
AcDbCircle
 10
163.6284601613
 20
135.7757500371
 30
0.0
 40
4.625000000000003
100
AcDbArc
 50
180.0
 51
179.0
  0
LINE
  5
1C6
330
1F
100
AcDbEntity
  8
0
  6
Continuous
 62
     7
370
    25
100
AcDbLine
 10
159.0041646472
 20
135.8564674154
 30
0.0
 11
159.1291453428
 21
135.854285865
 31
0.0
  0
ARC
  5
1C7
330
1F
100
AcDbEntity
  8
0
  6
Continuous
 62
     7
370
    25
100
AcDbCircle
 10
163.6284601613
 20
135.7757500371
 30
0.0
 40
4.500000000000001
100
AcDbArc
 50
179.0
 51
180.0
  0
LINE
  5
1C8
330
1F
100
AcDbEntity
  8
0
  6
Continuous
 62
     7
370
    25
100
AcDbLine
 10
159.0034601017
 20
135.7757500371
 30
0.0
 11
159.128460355
 21
135.7757500371
 31
0.0
  0
CIRCLE
  5
1C9
330
1F
100
AcDbEntity
  8
0
  6
Continuous
 62
     7
370
    25
100
AcDbCircle
 10
163.6284601613
 20
135.7757500371
 30
0.0
 40
4.0
  0
ARC
  5
1CA
330
1F
100
AcDbEntity
  8
0
  6
Continuous
 62
     7
370
    25
100
AcDbCircle
 10
163.6284601613
 20
135.7757500371
 30
0.0
 40
4.420753175473045
100
AcDbArc
 50
180.0
 51
179.0
  0
LINE
  5
1CB
330
1F
100
AcDbEntity
  8
0
  6
Continuous
 62
     7
370
    25
100
AcDbLine
 10
159.2077070586
 20
135.7757500371
 30
0.0
 11
159.128460355
 21
135.7757500371
 31
0.0
  0
LINE
  5
1CC
330
1F
100
AcDbEntity
  8
0
  6
Continuous
 62
     7
370
    25
100
AcDbLine
 10
159.1291453428
 20
135.854285865
 30
0.0
 11
159.2083804048
 21
135.8529028219
 31
0.0
  0
CIRCLE
  5
1CD
330
1F
100
AcDbEntity
  8
0
  6
Continuous
 62
     7
370
    25
100
AcDbCircle
 10
163.6284601613
 20
135.7757500371
 30
0.0
 40
6.837633141660547
  0
LINE
  5
1CE
330
1F
100
AcDbEntity
  8
0
  6
Continuous
 62
     7
370
    25
100
AcDbLine
 10
173.6361992284
 20
142.6133830098
 30
0.0
 11
173.6361992284
 21
128.9381170643
 31
0.0
  0
LINE
  5
1CF
330
1F
100
AcDbEntity
  8
0
  6
Continuous
 62
     7
370
    25
100
AcDbLine
 10
183.407484807
 20
135.7757500371
 30
0.0
 11
183.407484807
 21
142.3080302773
 31
0.0
  0
LINE
  5
1D0
330
1F
100
AcDbEntity
  8
0
  6
Continuous
 62
     7
370
    25
100
AcDbLine
 10
183.407484807
 20
129.2434697969
 30
0.0
 11
183.407484807
 21
135.7757500371
 31
0.0
  0
LINE
  5
1D1
330
1F
100
AcDbEntity
  8
0
  6
Continuous
 62
     7
370
    25
100
AcDbLine
 10
173.6284599378
 20
129.025749862
 30
0.0
 11
173.6284599378
 21
142.5257502122
 31
0.0
  0
LINE
  5
1D2
330
1F
100
AcDbEntity
  8
0
  6
Continuous
 62
     7
370
    25
100
AcDbLine
 10
166.9076713937
 20
141.7757500892
 30
0.0
 11
168.3784600086
 21
141.7757500892
 31
0.0
  0
ARC
  5
1D3
330
1F
100
AcDbEntity
  8
0
  6
Continuous
 62
     7
370
    25
100
AcDbCircle
 10
168.3784601613
 20
141.5257500371
 30
0.0
 40
0.25
100
AcDbArc
 50
0.0
 51
90.0
  0
LINE
  5
1D4
330
1F
100
AcDbEntity
  8
0
  6
Continuous
 62
     7
370
    25
100
AcDbLine
 10
158.878460314
 20
141.5257500482
 30
0.0
 11
158.878460314
 21
141.7757500892
 31
0.0
  0
LINE
  5
1D5
330
1F
100
AcDbEntity
  8
0
  6
Continuous
 62
     7
370
    25
100
AcDbLine
 10
158.878460314
 20
141.7757500892
 30
0.0
 11
160.3492489289
 21
141.7757500892
 31
0.0
  0
LINE
  5
1D6
330
1F
100
AcDbEntity
  8
0
  6
Continuous
 62
     7
370
    25
100
AcDbLine
 10
168.6284600495
 20
140.4397855511
 30
0.0
 11
168.6284600495
 21
141.5257500482
 31
0.0
  0
LINE
  5
1D7
330
1F
100
AcDbEntity
  8
0
  6
Continuous
 62
     7
370
    25
100
AcDbLine
 10
168.3784600086
 20
129.7757499849
 30
0.0
 11
166.9076713937
 21
129.7757499849
 31
0.0
  0
LINE
  5
1D8
330
1F
100
AcDbEntity
  8
0
  6
Continuous
 62
     7
370
    25
100
AcDbLine
 10
168.3784600086
 20
129.7757499849
 30
0.0
 11
168.3784600086
 21
130.0257500259
 31
0.0
  0
LINE
  5
1D9
330
1F
100
AcDbEntity
  8
0
  6
Continuous
 62
     7
370
    25
100
AcDbLine
 10
160.3492489289
 20
129.7757499849
 30
0.0
 11
158.878460314
 21
129.7757499849
 31
0.0
  0
LINE
  5
1DA
330
1F
100
AcDbEntity
  8
0
  6
Continuous
 62
     7
370
    25
100
AcDbLine
 10
158.878460314
 20
129.7757499849
 30
0.0
 11
158.878460314
 21
130.0257500259
 31
0.0
  0
LINE
  5
1DB
330
1F
100
AcDbEntity
  8
0
  6
Continuous
 62
     7
370
    25
100
AcDbLine
 10
185.6284600421
 20
135.7757500371
 30
0.0
 11
185.6284600421
 21
141.0257499663
 31
0.0
  0
LINE
  5
1DC
330
1F
100
AcDbEntity
  8
0
  6
Continuous
 62
     7
370
    25
100
AcDbLine
 10
185.6284600421
 20
130.5257501078
 30
0.0
 11
185.6284600421
 21
135.7757500371
 31
0.0
  0
ARC
  5
1DD
330
1F
100
AcDbEntity
  8
0
  6
Continuous
 62
     7
370
    25
100
AcDbCircle
 10
158.8784601613
 20
141.5257500371
 30
0.0
 40
0.25
100
AcDbArc
 50
90.0
 51
180.0
  0
LINE
  5
1DE
330
1F
100
AcDbEntity
  8
0
  6
Continuous
 62
     7
370
    25
100
AcDbLine
 10
158.6284602731
 20
141.5257500482
 30
0.0
 11
158.878460314
 21
141.5257500482
 31
0.0
  0
LINE
  5
1DF
330
1F
100
AcDbEntity
  8
0
  6
Continuous
 62
     7
370
    25
100
AcDbLine
 10
158.6284602731
 20
140.4397855511
 30
0.0
 11
158.6284602731
 21
141.5257500482
 31
0.0
  0
LINE
  5
1E0
330
1F
100
AcDbEntity
  8
0
  6
Continuous
 62
     7
370
    25
100
AcDbLine
 10
168.6284600495
 20
131.1117145231
 30
0.0
 11
168.6284600495
 21
130.0257500259
 31
0.0
  0
LINE
  5
1E1
330
1F
100
AcDbEntity
  8
0
  6
Continuous
 62
     7
370
    25
100
AcDbLine
 10
168.6284600495
 20
130.0257500259
 30
0.0
 11
168.3784600086
 21
130.0257500259
 31
0.0
  0
LINE
  5
1E2
330
1F
100
AcDbEntity
  8
0
  6
Continuous
 62
     7
370
    25
100
AcDbLine
 10
158.6284602731
 20
130.0257500259
 30
0.0
 11
158.6284602731
 21
131.1117145231
 31
0.0
  0
LINE
  5
1E3
330
1F
100
AcDbEntity
  8
0
  6
Continuous
 62
     7
370
    25
100
AcDbLine
 10
158.6284602731
 20
130.0257500259
 30
0.0
 11
158.878460314
 21
130.0257500259
 31
0.0
  0
ARC
  5
1E4
330
1F
100
AcDbEntity
  8
0
  6
Continuous
 62
     7
370
    25
100
AcDbCircle
 10
158.8784601613
 20
130.0257500371
 30
0.0
 40
0.25
100
AcDbArc
 50
180.0
 51
270.0
  0
ARC
  5
1E5
330
1F
100
AcDbEntity
  8
0
  6
Continuous
 62
     7
370
    25
100
AcDbCircle
 10
168.3784601613
 20
130.0257500371
 30
0.0
 40
0.25
100
AcDbArc
 50
270.0
 51
0.0
  0
LINE
  5
1E6
330
1F
100
AcDbEntity
  8
0
  6
Continuous
 62
     7
370
    25
100
AcDbLine
 10
169.6284602135
 20
141.7757500892
 30
0.0
 11
169.6284602135
 21
141.5257500482
 31
0.0
  0
LINE
  5
1E7
330
1F
100
AcDbEntity
  8
0
  6
Continuous
 62
     7
370
    25
100
AcDbLine
 10
169.6284602135
 20
141.5257500482
 30
0.0
 11
168.6284600495
 21
141.5257500482
 31
0.0
  0
LINE
  5
1E8
330
1F
100
AcDbEntity
  8
0
  6
Continuous
 62
     7
370
    25
100
AcDbLine
 10
168.3784600086
 20
141.7757500892
 30
0.0
 11
169.6284602135
 21
141.7757500892
 31
0.0
  0
LINE
  5
1E9
330
1F
100
AcDbEntity
  8
0
  6
Continuous
 62
     7
370
    25
100
AcDbLine
 10
169.6284602135
 20
139.1669150905
 30
0.0
 11
169.6284602135
 21
141.5257500482
 31
0.0
  0
SPLINE
  5
1EA
330
1F
100
AcDbEntity
  8
0
  6
Continuous
 62
     7
370
    25
100
AcDbSpline
210
0.0
220
0.0
230
1.0
 70
     8
 71
     3
 72
    22
 73
    18
 74
     0
 42
0.000000001
 43
0.00000001
 40
0.0
 40
0.0
 40
0.0
 40
0.0
 40
0.0625000000121793
 40
0.0625000000121793
 40
0.1250000000121793
 40
0.1250000000121793
 40
0.1875000000121793
 40
0.1875000000121793
 40
0.2500000000121793
 40
0.2500000000121793
 40
0.3125000000121793
 40
0.3125000000121793
 40
0.3750000000121793
 40
0.3750000000121793
 40
0.4375000000121793
 40
0.4375000000121793
 40
0.5000000000121793
 40
0.5000000000121793
 40
0.5000000000121793
 40
0.5000000000121793
 10
171.6284601612875
 20
141.7757500370629
 30
0.0
 10
171.6284535388137
 20
141.7757500372022
 30
0.0
 10
171.615766787387
 20
141.774651435129
 30
0.0
 10
171.5650330665938
 20
141.7707472140016
 30
0.0
 10
171.5288787589772
 20
141.7680957928121
 30
0.0
 10
171.4351483376289
 20
141.7625769750364
 30
0.0
 10
171.3810306356884
 20
141.7599265795583
 30
0.0
 10
171.2585731182423
 20
141.7560263338231
 30
0.0
 10
171.1945872897132
 20
141.7549232534925
 30
0.0
 10
171.0623330455151
 20
141.7549342610743
 30
0.0
 10
170.9981977021775
 20
141.7560299949197
 30
0.0
 10
170.8760392123922
 20
141.7599229177127
 30
0.0
 10
170.8217626274588
 20
141.7625764223668
 30
0.0
 10
170.7280509390671
 20
141.7680963444349
 30
0.0
 10
170.6918750131113
 20
141.7707470520728
 30
0.0
 10
170.6411657877401
 20
141.7746515963138
 30
0.0
 10
170.6284601667845
 20
141.7757500370629
 30
0.0
 10
170.6284601613043
 20
141.7757500370629
 30
0.0
  0
SPLINE
  5
1EB
330
1F
100
AcDbEntity
  8
0
  6
Continuous
 62
     7
370
    25
100
AcDbSpline
210
0.0
220
0.0
230
1.0
 70
    24
 71
     3
 72
    14
 73
    10
 74
     0
 42
0.000000001
 43
0.00000001
 40
0.0
 40
0.0
 40
0.0
 40
0.0
 40
0.25
 40
0.25
 40
0.5
 40
0.5
 40
0.75
 40
0.75
 40
1.0
 40
1.0
 40
1.0
 40
1.0
 10
170.3784601613043
 20
141.7757500370629
 30
0.0
 10
170.3784601613043
 20
141.7757500370629
 30
0.0
 10
170.3784601613043
 20
141.7659051233253
 30
0.0
 10
170.3784601613043
 20
141.7264130170162
 30
0.0
 10
170.3784601613043
 20
141.696765377841
 30
0.0
 10
170.3784601613043
 20
141.6173362406373
 30
0.0
 10
170.3784601613043
 20
141.567553816568
 30
0.0
 10
170.3784601613043
 20
141.4473248302334
 30
0.0
 10
170.3784601613043
 20
141.3768767976263
 30
0.0
 10
170.3784601613043
 20
141.2957500370629
 30
0.0
  0
SPLINE
  5
1EC
330
1F
100
AcDbEntity
  8
0
  6
Continuous
 62
     7
370
    25
100
AcDbSpline
210
0.0
220
0.0
230
1.0
 70
    24
 71
     3
 72
    14
 73
    10
 74
     0
 42
0.000000001
 43
0.00000001
 40
0.0
 40
0.0
 40
0.0
 40
0.0
 40
0.25
 40
0.25
 40
0.5
 40
0.5
 40
0.75
 40
0.75
 40
1.0
 40
1.0
 40
1.0
 40
1.0
 10
170.3784601613043
 20
129.7757500370629
 30
0.0
 10
170.3784601613043
 20
129.7757500370629
 30
0.0
 10
170.3784601613043
 20
129.7855949508005
 30
0.0
 10
170.3784601613043
 20
129.8250870571096
 30
0.0
 10
170.3784601613043
 20
129.8547346962848
 30
0.0
 10
170.3784601613043
 20
129.9341638334885
 30
0.0
 10
170.3784601613043
 20
129.9839462575577
 30
0.0
 10
170.3784601613043
 20
130.1041752438924
 30
0.0
 10
170.3784601613043
 20
130.1746232764995
 30
0.0
 10
170.3784601613043
 20
130.2557500370629
 30
0.0
  0
LINE
  5
1ED
330
1F
100
AcDbEntity
  8
0
  6
Continuous
 62
     7
370
    25
100
AcDbLine
 10
170.3784603364
 20
131.8762116132
 30
0.0
 11
170.3784603364
 21
130.2557499146
 31
0.0
  0
SPLINE
  5
1EE
330
1F
100
AcDbEntity
  8
0
  6
Continuous
 62
     7
370
    25
100
AcDbSpline
210
0.0
220
0.0
230
1.0
 70
     8
 71
     3
 72
    14
 73
    10
 74
     0
 42
0.000000001
 43
0.00000001
 40
0.0
 40
0.0
 40
0.0
 40
0.0
 40
0.25
 40
0.25
 40
0.5
 40
0.5
 40
0.75
 40
0.75
 40
1.0
 40
1.0
 40
1.0
 40
1.0
 10
170.3784601613043
 20
131.8762116028376
 30
0.0
 10
170.3784601613043
 20
131.9418754705562
 30
0.0
 10
170.3685068547518
 20
132.0076003108642
 30
0.0
 10
170.3301352389358
 20
132.1391081104204
 30
0.0
 10
170.3015963069626
 20
132.20473919526
 30
0.0
 10
170.2244087596825
 20
132.3283991071459
 30
0.0
 10
170.1749800744946
 20
132.3882897531007
 30
0.0
 10
170.0474715873176
 20
132.4844024285177
 30
0.0
 10
169.9658553772634
 20
132.5202316451627
 30
0.0
 10
169.8784601613043
 20
132.5202316451627
 30
0.0
  0
SPLINE
  5
1EF
330
1F
100
AcDbEntity
  8
0
  6
Continuous
 62
     7
370
    25
100
AcDbSpline
210
0.0
220
0.0
230
1.0
 70
     8
 71
     3
 72
    14
 73
    10
 74
     0
 42
0.000000001
 43
0.00000001
 40
0.0
 40
0.0
 40
0.0
 40
0.0
 40
0.25
 40
0.25
 40
0.5
 40
0.5
 40
0.75
 40
0.75
 40
1.0
 40
1.0
 40
1.0
 40
1.0
 10
169.8784601613043
 20
139.031268428963
 30
0.0
 10
169.9657781903107
 20
139.031268428963
 30
0.0
 10
170.0474062981323
 20
139.0670407318362
 30
0.0
 10
170.1751074162658
 20
139.1633140122108
 30
0.0
 10
170.2244982090913
 20
139.2231828428295
 30
0.0
 10
170.3018568766494
 20
139.3472400368971
 30
0.0
 10
170.3304256862212
 20
139.4132315622469
 30
0.0
 10
170.3684930551883
 20
139.5440094313593
 30
0.0
 10
170.3784601613043
 20
139.609569434636
 30
0.0
 10
170.3784601613043
 20
139.6752884712881
 30
0.0
  0
LINE
  5
1F0
330
1F
100
AcDbEntity
  8
0
  6
Continuous
 62
     7
370
    25
100
AcDbLine
 10
170.3784603364
 20
141.2957501596
 30
0.0
 11
170.3784603364
 21
139.6752884609
 31
0.0
  0
LINE
  5
1F1
330
1F
100
AcDbEntity
  8
0
  6
Continuous
 62
     7
370
    25
100
AcDbLine
 10
168.6284600495
 20
130.0257500259
 30
0.0
 11
169.6284602135
 21
130.0257500259
 31
0.0
  0
LINE
  5
1F2
330
1F
100
AcDbEntity
  8
0
  6
Continuous
 62
     7
370
    25
100
AcDbLine
 10
169.6284602135
 20
130.0257500259
 30
0.0
 11
169.6284602135
 21
132.3845849836
 31
0.0
  0
LINE
  5
1F3
330
1F
100
AcDbEntity
  8
0
  6
Continuous
 62
     7
370
    25
100
AcDbLine
 10
169.6284602135
 20
130.0257500259
 30
0.0
 11
169.6284602135
 21
129.7757499849
 31
0.0
  0
LINE
  5
1F4
330
1F
100
AcDbEntity
  8
0
  6
Continuous
 62
     7
370
    25
100
AcDbLine
 10
169.6284602135
 20
129.7757499849
 30
0.0
 11
168.3784600086
 21
129.7757499849
 31
0.0
  0
SPLINE
  5
1F5
330
1F
100
AcDbEntity
  8
0
  6
Continuous
 62
     7
370
    25
100
AcDbSpline
210
0.0
220
0.0
230
1.0
 70
     8
 71
     3
 72
    14
 73
    10
 74
     0
 42
0.000000001
 43
0.00000001
 40
0.0
 40
0.0
 40
0.0
 40
0.0
 40
0.4999999999999984
 40
0.4999999999999984
 40
0.7499999999999981
 40
0.7499999999999981
 40
0.874999999999999
 40
0.874999999999999
 40
1.0
 40
1.0
 40
1.0
 40
1.0
 10
170.1284601613043
 20
139.8377692393809
 30
0.0
 10
170.1284601613043
 20
139.715096188753
 30
0.0
 10
170.1135564944705
 20
139.5916301597281
 30
0.0
 10
170.0657977408889
 20
139.4096333022455
 30
0.0
 10
170.0457277204355
 20
139.3492396565344
 30
0.0
 10
170.0021086165694
 20
139.2642289074008
 30
0.0
 10
169.9851692019731
 20
139.2364285583676
 30
0.0
 10
169.9417149053852
 20
139.1887146541076
 30
0.0
 10
169.9124818490596
 20
139.1669150286255
 30
0.0
 10
169.8784601613043
 20
139.1669150286255
 30
0.0
  0
LWPOLYLINE
  5
1F6
330
1F
100
AcDbEntity
  8
0
  6
Continuous
 62
     7
370
    25
100
AcDbPolyline
 90
        9
 70
   128
 43
0.0
 10
170.1284602954
 20
139.8377693256
 10
170.1332640573
 20
139.8060708305
 10
170.1474904752
 20
139.7755905052
 10
170.170592863
 20
139.7474999537
 10
170.2016836702
 20
139.7228781132
 10
170.2395675442
 20
139.7026712073
 10
170.2827892936
 20
139.6876564247
 10
170.3296874388
 20
139.678410487
 10
170.3784603364
 20
139.6752884609
  0
LINE
  5
1F7
330
1F
100
AcDbEntity
  8
0
  6
Continuous
 62
     7
370
    25
100
AcDbLine
 10
169.8784602544
 20
139.1669150905
 30
0.0
 11
169.8784602544
 21
139.0312684232
 31
0.0
  0
LWPOLYLINE
  5
1F8
330
1F
100
AcDbEntity
  8
0
  6
Continuous
 62
     7
370
    25
100
AcDbPolyline
 90
        9
 70
   128
 43
0.0
 10
170.3784603364
 20
131.8762116132
 10
170.3296874388
 20
131.8730895871
 10
170.2827892936
 20
131.8638436494
 10
170.2395675442
 20
131.8488288669
 10
170.2016836702
 20
131.828621961
 10
170.170592863
 20
131.8040001204
 10
170.1474904752
 20
131.7759095689
 10
170.1332640573
 20
131.7454292437
 10
170.1284602954
 20
131.7137307485
  0
SPLINE
  5
1F9
330
1F
100
AcDbEntity
  8
0
  6
Continuous
 62
     7
370
    25
100
AcDbSpline
210
0.0
220
0.0
230
1.0
 70
     8
 71
     3
 72
    14
 73
    10
 74
     0
 42
0.000000001
 43
0.00000001
 40
0.0
 40
0.0
 40
0.0
 40
0.0
 40
0.1250000000000003
 40
0.1250000000000003
 40
0.2500000000000006
 40
0.2500000000000006
 40
0.5000000000000008
 40
0.5000000000000008
 40
1.0
 40
1.0
 40
1.0
 40
1.0
 10
169.8784601613043
 20
132.3845850455002
 30
0.0
 10
169.9125637116011
 20
132.3845850455002
 30
0.0
 10
169.9416641538601
 20
132.3628341805409
 30
0.0
 10
169.9851745764132
 20
132.3150725731937
 30
0.0
 10
170.0021111619993
 20
132.2872622838439
 30
0.0
 10
170.045679388195
 20
132.2023624521108
 30
0.0
 10
170.06578385888
 20
132.1418908139975
 30
0.0
 10
170.1134737835036
 20
131.9602427229462
 30
0.0
 10
170.1284601613043
 20
131.8363681446578
 30
0.0
 10
170.1284601613043
 20
131.7137308347449
 30
0.0
  0
LINE
  5
1FA
330
1F
100
AcDbEntity
  8
0
  6
Continuous
 62
     7
370
    25
100
AcDbLine
 10
169.8784602544
 20
132.5202316509
 30
0.0
 11
169.8784602544
 21
132.3845849836
 31
0.0
  0
LINE
  5
1FB
330
1F
100
AcDbEntity
  8
0
  6
Continuous
 62
     7
370
    25
100
AcDbLine
 10
169.6284602135
 20
139.1669150905
 30
0.0
 11
169.8784602544
 21
139.1669150905
 31
0.0
  0
LINE
  5
1FC
330
1F
100
AcDbEntity
  8
0
  6
Continuous
 62
     7
370
    25
100
AcDbLine
 10
169.8784602544
 20
132.3845849836
 30
0.0
 11
169.6284602135
 21
132.3845849836
 31
0.0
  0
LINE
  5
1FD
330
1F
100
AcDbEntity
  8
0
  6
Continuous
 62
     7
370
    25
100
AcDbLine
 10
169.8784602544
 20
141.7757500892
 30
0.0
 11
169.8784602544
 21
141.5257500482
 31
0.0
  0
LINE
  5
1FE
330
1F
100
AcDbEntity
  8
0
  6
Continuous
 62
     7
370
    25
100
AcDbLine
 10
169.8784602544
 20
141.5257500482
 30
0.0
 11
169.6284602135
 21
141.5257500482
 31
0.0
  0
LINE
  5
1FF
330
1F
100
AcDbEntity
  8
0
  6
Continuous
 62
     7
370
    25
100
AcDbLine
 10
169.6284602135
 20
141.7757500892
 30
0.0
 11
169.8784602544
 21
141.7757500892
 31
0.0
  0
ARC
  5
200
330
1F
100
AcDbEntity
  8
0
  6
Continuous
 62
     7
370
    25
100
AcDbCircle
 10
169.8784601613
 20
141.5257500371
 30
0.0
 40
0.25
100
AcDbArc
 50
0.0
 51
90.0
  0
LINE
  5
201
330
1F
100
AcDbEntity
  8
0
  6
Continuous
 62
     7
370
    25
100
AcDbLine
 10
169.8784602544
 20
141.5257500482
 30
0.0
 11
170.1284602954
 21
141.5257500482
 31
0.0
  0
LINE
  5
202
330
1F
100
AcDbEntity
  8
0
  6
Continuous
 62
     7
370
    25
100
AcDbLine
 10
169.8784602544
 20
139.1669150905
 30
0.0
 11
169.8784602544
 21
141.5257500482
 31
0.0
  0
LINE
  5
203
330
1F
100
AcDbEntity
  8
0
  6
Continuous
 62
     7
370
    25
100
AcDbLine
 10
170.1284602954
 20
141.5257500482
 30
0.0
 11
170.1284602954
 21
139.8377693256
 31
0.0
  0
LINE
  5
204
330
1F
100
AcDbEntity
  8
0
  6
Continuous
 62
     7
370
    25
100
AcDbLine
 10
169.6284602135
 20
130.0257500259
 30
0.0
 11
169.8784602544
 21
130.0257500259
 31
0.0
  0
LINE
  5
205
330
1F
100
AcDbEntity
  8
0
  6
Continuous
 62
     7
370
    25
100
AcDbLine
 10
169.8784602544
 20
130.0257500259
 30
0.0
 11
169.8784602544
 21
132.3845849836
 31
0.0
  0
LINE
  5
206
330
1F
100
AcDbEntity
  8
0
  6
Continuous
 62
     7
370
    25
100
AcDbLine
 10
170.1284602954
 20
131.7137307485
 30
0.0
 11
170.1284602954
 21
130.0257500259
 31
0.0
  0
LINE
  5
207
330
1F
100
AcDbEntity
  8
0
  6
Continuous
 62
     7
370
    25
100
AcDbLine
 10
170.1284602954
 20
130.0257500259
 30
0.0
 11
169.8784602544
 21
130.0257500259
 31
0.0
  0
ARC
  5
208
330
1F
100
AcDbEntity
  8
0
  6
Continuous
 62
     7
370
    25
100
AcDbCircle
 10
169.8784601613
 20
130.0257500371
 30
0.0
 40
0.25
100
AcDbArc
 50
270.0
 51
0.0
  0
LINE
  5
209
330
1F
100
AcDbEntity
  8
0
  6
Continuous
 62
     7
370
    25
100
AcDbLine
 10
169.8784602544
 20
130.0257500259
 30
0.0
 11
169.8784602544
 21
129.7757499849
 31
0.0
  0
LINE
  5
20A
330
1F
100
AcDbEntity
  8
0
  6
Continuous
 62
     7
370
    25
100
AcDbLine
 10
169.8784602544
 20
129.7757499849
 30
0.0
 11
169.6284602135
 21
129.7757499849
 31
0.0
  0
SPLINE
  5
20B
330
1F
100
AcDbEntity
  8
0
  6
Continuous
 62
     7
370
    25
100
AcDbSpline
210
0.0
220
0.0
230
1.0
 70
     8
 71
     3
 72
    12
 73
     8
 74
     0
 42
0.000000001
 43
0.00000001
 40
0.0
 40
0.0
 40
0.0
 40
0.0
 40
0.25
 40
0.25
 40
0.5
 40
0.5
 40
1.0
 40
1.0
 40
1.0
 40
1.0
 10
170.2016755655638
 20
141.3685377841685
 30
0.0
 10
170.1874619355301
 20
141.3823082575795
 30
0.0
 10
170.1747604117776
 20
141.3983722774308
 30
0.0
 10
170.1536929824351
 20
141.4317635816261
 30
0.0
 10
170.1453270768453
 20
141.4490908659702
 30
0.0
 10
170.1286998957206
 20
141.4979818731605
 30
0.0
 10
170.1284601613043
 20
141.5257500370629
 30
0.0
 10
170.1284601613043
 20
141.5257500370629
 30
0.0
  0
SPLINE
  5
20C
330
1F
100
AcDbEntity
  8
0
  6
Continuous
 62
     7
370
    25
100
AcDbSpline
210
0.0
220
0.0
230
1.0
 70
     8
 71
     3
 72
    10
 73
     6
 74
     0
 42
0.000000001
 43
0.00000001
 40
0.0
 40
0.0
 40
0.0
 40
0.0
 40
0.5
 40
0.5
 40
1.0
 40
1.0
 40
1.0
 40
1.0
 10
170.2016755655638
 20
141.3685377841685
 30
0.0
 10
170.230102825631
 20
141.3409968373465
 30
0.0
 10
170.2643294637979
 20
141.3213837034568
 30
0.0
 10
170.3273515093354
 20
141.2990748301685
 30
0.0
 10
170.3559372286274
 20
141.2957500370629
 30
0.0
 10
170.3784601613043
 20
141.2957500370629
 30
0.0
  0
SPLINE
  5
20D
330
1F
100
AcDbEntity
  8
0
  6
Continuous
 62
     7
370
    25
100
AcDbSpline
210
0.0
220
0.0
230
1.0
 70
     8
 71
     3
 72
    10
 73
     6
 74
     0
 42
0.000000001
 43
0.00000001
 40
0.0
 40
0.0
 40
0.0
 40
0.0
 40
0.5
 40
0.5
 40
1.0
 40
1.0
 40
1.0
 40
1.0
 10
170.2016755655638
 20
130.1829622899573
 30
0.0
 10
170.230102825631
 20
130.2105032367793
 30
0.0
 10
170.2643294637979
 20
130.230116370669
 30
0.0
 10
170.3273515093354
 20
130.2524252439573
 30
0.0
 10
170.3559372286274
 20
130.2557500370629
 30
0.0
 10
170.3784601613043
 20
130.2557500370629
 30
0.0
  0
SPLINE
  5
20E
330
1F
100
AcDbEntity
  8
0
  6
Continuous
 62
     7
370
    25
100
AcDbSpline
210
0.0
220
0.0
230
1.0
 70
     8
 71
     3
 72
    12
 73
     8
 74
     0
 42
0.000000001
 43
0.00000001
 40
0.0
 40
0.0
 40
0.0
 40
0.0
 40
0.25
 40
0.25
 40
0.5
 40
0.5
 40
1.0
 40
1.0
 40
1.0
 40
1.0
 10
170.2016755655638
 20
130.1829622899573
 30
0.0
 10
170.1874619355301
 20
130.1691918165463
 30
0.0
 10
170.1747604117776
 20
130.153127796695
 30
0.0
 10
170.1536929824351
 20
130.1197364924997
 30
0.0
 10
170.1453270768453
 20
130.1024092081556
 30
0.0
 10
170.1286998957206
 20
130.0535182009652
 30
0.0
 10
170.1284601613043
 20
130.0257500370629
 30
0.0
 10
170.1284601613043
 20
130.0257500370629
 30
0.0
  0
LINE
  5
20F
330
1F
100
AcDbEntity
  8
0
  6
Continuous
 62
     7
370
    25
100
AcDbLine
 10
163.1284601376
 20
131.807122845
 30
0.0
 11
163.1284601376
 21
139.7443772291
 31
0.0
  0
SPLINE
  5
210
330
1F
100
AcDbEntity
  8
0
  6
Continuous
 62
     7
370
    25
100
AcDbSpline
210
0.0
220
0.0
230
1.0
 70
     8
 71
     3
 72
    14
 73
    10
 74
     0
 42
0.000000001
 43
0.00000001
 40
0.0
 40
0.0
 40
0.0
 40
0.0
 40
0.25
 40
0.25
 40
0.5
 40
0.5
 40
0.75
 40
0.75
 40
1.0
 40
1.0
 40
1.0
 40
1.0
 10
170.130467761594
 20
141.7744568197343
 30
0.0
 10
170.1407312208832
 20
141.7744669770915
 30
0.0
 10
170.1553961113139
 20
141.7659325646985
 30
0.0
 10
170.1871314894974
 20
141.7298870765933
 30
0.0
 10
170.2042019772502
 20
141.702376000881
 30
0.0
 10
170.2343512851165
 20
141.6264896623186
 30
0.0
 10
170.2401827552663
 20
141.5822526899171
 30
0.0
 10
170.2340766320448
 20
141.4830135402985
 30
0.0
 10
170.2221390386733
 20
141.4280113630813
 30
0.0
 10
170.2016755655638
 20
141.3685377841685
 30
0.0
  0
SPLINE
  5
211
330
1F
100
AcDbEntity
  8
0
  6
Continuous
 62
     7
370
    25
100
AcDbSpline
210
0.0
220
0.0
230
1.0
 70
     8
 71
     3
 72
    12
 73
     8
 74
     0
 42
0.000000001
 43
0.00000001
 40
0.0
 40
0.0
 40
0.0
 40
0.0
 40
0.25
 40
0.25
 40
0.5
 40
0.5
 40
1.0
 40
1.0
 40
1.0
 40
1.0
 10
170.130467761594
 20
141.7744568197343
 30
0.0
 10
170.1202043023049
 20
141.7744466623772
 30
0.0
 10
170.1126255225081
 20
141.7658902362657
 30
0.0
 10
170.098212067059
 20
141.7445168800308
 30
0.0
 10
170.0913773914068
 20
141.7316999499074
 30
0.0
 10
170.0650516384063
 20
141.7061064537638
 30
0.0
 10
170.0553846870453
 20
141.7023789019152
 30
0.0
 10
170.0552368566002
 20
141.7025267323603
 30
0.0
  0
SPLINE
  5
212
330
1F
100
AcDbEntity
  8
0
  6
Continuous
 62
     7
370
    25
100
AcDbSpline
210
0.0
220
0.0
230
1.0
 70
     8
 71
     3
 72
    10
 73
     6
 74
     0
 42
0.000000001
 43
0.00000001
 40
0.0
 40
0.0
 40
0.0
 40
0.0
 40
0.5
 40
0.5
 40
1.0
 40
1.0
 40
1.0
 40
1.0
 10
170.130467761594
 20
141.7744568197343
 30
0.0
 10
170.0894139244375
 20
141.7744161903057
 30
0.0
 10
170.0453395721244
 20
141.7747747490625
 30
0.0
 10
169.9539883026125
 20
141.7797733036453
 30
0.0
 10
169.9212385211155
 20
141.7757500370629
 30
0.0
 10
169.8784601613043
 20
141.7757500370629
 30
0.0
  0
SPLINE
  5
213
330
1F
100
AcDbEntity
  8
0
  6
Continuous
 62
     7
370
    25
100
AcDbSpline
210
0.0
220
0.0
230
1.0
 70
     8
 71
     3
 72
    12
 73
     8
 74
     0
 42
0.000000001
 43
0.00000001
 40
0.0
 40
0.0
 40
0.0
 40
0.0
 40
0.25
 40
0.25
 40
0.5
 40
0.5
 40
1.0
 40
1.0
 40
1.0
 40
1.0
 10
170.130467761594
 20
129.7770432543914
 30
0.0
 10
170.1202043023049
 20
129.7770534117486
 30
0.0
 10
170.1126255225081
 20
129.78560983786
 30
0.0
 10
170.0982120670591
 20
129.806983194095
 30
0.0
 10
170.0913773914068
 20
129.8198001242184
 30
0.0
 10
170.0650516384063
 20
129.845393620362
 30
0.0
 10
170.0553846870453
 20
129.8491211722106
 30
0.0
 10
170.0552368566002
 20
129.8489733417655
 30
0.0
  0
SPLINE
  5
214
330
1F
100
AcDbEntity
  8
0
  6
Continuous
 62
     7
370
    25
100
AcDbSpline
210
0.0
220
0.0
230
1.0
 70
     8
 71
     3
 72
    12
 73
     8
 74
     0
 42
0.000000001
 43
0.00000001
 40
0.0
 40
0.0
 40
0.0
 40
0.0
 40
0.25
 40
0.25
 40
0.5
 40
0.5
 40
1.0
 40
1.0
 40
1.0
 40
1.0
 10
170.130467761594
 20
129.7770432543914
 30
0.0
 10
170.1407312208832
 20
129.7770330970343
 30
0.0
 10
170.1553961113139
 20
129.7855675094273
 30
0.0
 10
170.1871314894974
 20
129.8216129975325
 30
0.0
 10
170.2042019772502
 20
129.8491240732447
 30
0.0
 10
170.2494259390496
 20
129.9629535810884
 30
0.0
 10
170.2426025117829
 20
130.0640151321317
 30
0.0
 10
170.2016755655638
 20
130.1829622899573
 30
0.0
  0
SPLINE
  5
215
330
1F
100
AcDbEntity
  8
0
  6
Continuous
 62
     7
370
    25
100
AcDbSpline
210
0.0
220
0.0
230
1.0
 70
     8
 71
     3
 72
    10
 73
     6
 74
     0
 42
0.000000001
 43
0.00000001
 40
0.0
 40
0.0
 40
0.0
 40
0.0
 40
0.5
 40
0.5
 40
1.0
 40
1.0
 40
1.0
 40
1.0
 10
170.130467761594
 20
129.7770432543914
 30
0.0
 10
170.0894139244375
 20
129.77708388382
 30
0.0
 10
170.0453395721244
 20
129.7767253250632
 30
0.0
 10
169.9539883026125
 20
129.7717267704804
 30
0.0
 10
169.9212385211155
 20
129.7757500370629
 30
0.0
 10
169.8784601613043
 20
129.7757500370629
 30
0.0
  0
SPLINE
  5
216
330
1F
100
AcDbEntity
  8
0
  6
Continuous
 62
     7
370
    25
100
AcDbSpline
210
0.0
220
0.0
230
1.0
 70
     8
 71
     3
 72
    10
 73
     6
 74
     0
 42
0.000000001
 43
0.00000001
 40
0.0
 40
0.0
 40
0.0
 40
0.0
 40
0.5
 40
0.5
 40
1.0
 40
1.0
 40
1.0
 40
1.0
 10
170.130467761594
 20
141.7744568197343
 30
0.0
 10
170.1715215987506
 20
141.774497449163
 30
0.0
 10
170.2149984291316
 20
141.7749426540112
 30
0.0
 10
170.3040571288559
 20
141.7714170530599
 30
0.0
 10
170.3361604983796
 20
141.7757500370629
 30
0.0
 10
170.3784601613043
 20
141.7757500370629
 30
0.0
  0
SPLINE
  5
217
330
1F
100
AcDbEntity
  8
0
  6
Continuous
 62
     7
370
    25
100
AcDbSpline
210
0.0
220
0.0
230
1.0
 70
     8
 71
     3
 72
    10
 73
     6
 74
     0
 42
0.000000001
 43
0.00000001
 40
0.0
 40
0.0
 40
0.0
 40
0.0
 40
0.5
 40
0.5
 40
1.0
 40
1.0
 40
1.0
 40
1.0
 10
170.130467761594
 20
129.7770432543914
 30
0.0
 10
170.1715215987506
 20
129.7770026249628
 30
0.0
 10
170.2149984291316
 20
129.7765574201146
 30
0.0
 10
170.3040571288559
 20
129.7800830210658
 30
0.0
 10
170.3361604983796
 20
129.7757500370629
 30
0.0
 10
170.3784601613043
 20
129.7757500370629
 30
0.0
  0
SPLINE
  5
218
330
1F
100
AcDbEntity
  8
0
  6
Continuous
 62
     7
370
    25
100
AcDbSpline
210
0.0
220
0.0
230
1.0
 70
     8
 71
     3
 72
    26
 73
    22
 74
     0
 42
0.000000001
 43
0.00000001
 40
0.0
 40
0.0
 40
0.0
 40
0.0
 40
0.1249999999999999
 40
0.1249999999999999
 40
0.2499999999999998
 40
0.2499999999999998
 40
0.3749999999999998
 40
0.3749999999999998
 40
0.4374999999999997
 40
0.4374999999999997
 40
0.4999999999999997
 40
0.4999999999999997
 40
0.5624999999999997
 40
0.5624999999999997
 40
0.6249999999999996
 40
0.6249999999999996
 40
0.7499999999999997
 40
0.7499999999999997
 40
0.8749999999999999
 40
0.8749999999999999
 40
1.0
 40
1.0
 40
1.0
 40
1.0
 10
163.1284601613043
 20
131.807123070466
 30
0.0
 10
162.9658476773075
 20
132.1003823600274
 30
0.0
 10
162.8084414716472
 20
132.3985912475027
 30
0.0
 10
162.51099348168
 20
133.0115173414765
 30
0.0
 10
162.3707600154512
 20
133.3260523163734
 30
0.0
 10
162.1212180464979
 20
133.9845225642208
 30
0.0
 10
162.0136821373987
 20
134.3239518881154
 30
0.0
 10
161.8979743891821
 20
134.856458919697
 30
0.0
 10
161.8669367393986
 20
135.0395138319819
 30
0.0
 10
161.8253068819942
 20
135.4081858830934
 30
0.0
 10
161.8146950640705
 20
135.5929260447817
 30
0.0
 10
161.814874401696
 20
135.9632541208794
 30
0.0
 10
161.8257738879827
 20
136.149710535604
 30
0.0
 10
161.8680689011338
 20
136.5196643703624
 30
0.0
 10
161.8989329922518
 20
136.7000895066183
 30
0.0
 10
162.0146158490676
 20
137.2305480196476
 30
0.0
 10
162.1228844005416
 20
137.5718098781992
 30
0.0
 10
162.3719725638493
 20
138.2282069285112
 30
0.0
 10
162.5119390233313
 20
138.5420143271957
 30
0.0
 10
162.8088898441265
 20
139.1537491623266
 30
0.0
 10
162.9660609522167
 20
139.4515023392317
 30
0.0
 10
163.1284601613044
 20
139.7443770036598
 30
0.0
  0
LINE
  5
219
330
1F
100
AcDbEntity
  8
0
  6
Continuous
 62
     8
370
    25
100
AcDbLine
 10
168.6284600495
 20
141.5257500482
 30
0.0
 11
167.328558417
 21
141.5257500482
 31
0.0
  0
LINE
  5
21A
330
1F
100
AcDbEntity
  8
0
  6
Continuous
 62
     8
370
    25
100
AcDbLine
 10
159.9283619057
 20
141.5257500482
 30
0.0
 11
158.878460314
 21
141.5257500482
 31
0.0
  0
LINE
  5
21B
330
1F
100
AcDbEntity
  8
0
  6
Continuous
 62
     8
370
    25
100
AcDbLine
 10
158.878460314
 20
141.5257500482
 30
0.0
 11
158.878460314
 21
140.6941572202
 31
0.0
  0
LINE
  5
21C
330
1F
100
AcDbEntity
  8
0
  6
Continuous
 62
     8
370
    25
100
AcDbLine
 10
168.3784600086
 20
130.0257500259
 30
0.0
 11
168.3784600086
 21
130.8573428539
 31
0.0
  0
LINE
  5
21D
330
1F
100
AcDbEntity
  8
0
  6
Continuous
 62
     8
370
    25
100
AcDbLine
 10
167.328558417
 20
130.0257500259
 30
0.0
 11
168.3784600086
 21
130.0257500259
 31
0.0
  0
LINE
  5
21E
330
1F
100
AcDbEntity
  8
0
  6
Continuous
 62
     8
370
    25
100
AcDbLine
 10
158.878460314
 20
130.0257500259
 30
0.0
 11
159.9283619057
 21
130.0257500259
 31
0.0
  0
LINE
  5
21F
330
1F
100
AcDbEntity
  8
0
  6
Continuous
 62
     8
370
    25
100
AcDbLine
 10
158.878460314
 20
130.8573428539
 30
0.0
 11
158.878460314
 21
130.0257500259
 31
0.0
  0
LINE
  5
220
330
1F
100
AcDbEntity
  8
0
  6
Continuous
 62
     8
370
    25
100
AcDbLine
 10
173.1284598558
 20
129.7757499849
 30
0.0
 11
173.1284598558
 21
141.7757500892
 31
0.0
  0
LINE
  5
221
330
1F
100
AcDbEntity
  8
0
  6
Continuous
 62
     8
370
    25
100
AcDbLine
 10
169.5667195804
 20
139.1600663772
 30
0.0
 11
169.6284602135
 21
139.1669150905
 31
0.0
  0
LINE
  5
222
330
1F
100
AcDbEntity
  8
0
  6
Continuous
 62
     8
370
    25
100
AcDbLine
 10
169.6413487866
 20
132.5202316509
 30
0.0
 11
169.8784602544
 21
132.5202316509
 31
0.0
  0
LINE
  5
223
330
1F
100
AcDbEntity
  8
0
  6
Continuous
 62
     8
370
    25
100
AcDbLine
 10
169.8784602544
 20
139.0312684232
 30
0.0
 11
169.6413487866
 21
139.0312684232
 31
0.0
  0
LINE
  5
224
330
1F
100
AcDbEntity
  8
0
  6
Continuous
 62
     8
370
    25
100
AcDbLine
 10
169.6284602135
 20
132.3845849836
 30
0.0
 11
169.568712145
 21
132.3912127407
 31
0.0
  0
LINE
  5
225
330
1F
100
AcDbEntity
  8
0
  6
Continuous
 62
     8
370
    25
100
AcDbLine
 10
169.6284602135
 20
139.1669150905
 30
0.0
 11
169.6284602135
 21
139.0549612695
 31
0.0
  0
LINE
  5
226
330
1F
100
AcDbEntity
  8
0
  6
Continuous
 62
     8
370
    25
100
AcDbLine
 10
169.6284602135
 20
132.4965388046
 30
0.0
 11
169.6284602135
 21
132.3845849836
 31
0.0
  0
SPLINE
  5
227
330
1F
100
AcDbEntity
  8
0
  6
Continuous
 62
     8
370
    25
100
AcDbSpline
210
0.0
220
0.0
230
1.0
 70
     8
 71
     3
 72
    14
 73
    10
 74
     0
 42
0.000000001
 43
0.00000001
 40
0.0
 40
0.0
 40
0.0
 40
0.0
 40
0.25
 40
0.25
 40
0.5
 40
0.5
 40
0.75
 40
0.75
 40
1.0
 40
1.0
 40
1.0
 40
1.0
 10
170.8784601613043
 20
142.0757500370629
 30
0.0
 10
170.8784601670318
 20
142.0757500372753
 30
0.0
 10
170.9032585438515
 20
142.0745106134979
 30
0.0
 10
170.995325818428
 20
142.0715834197289
 30
0.0
 10
171.0615175571973
 20
142.070198389861
 30
0.0
 10
171.1957290258996
 20
142.0701905124311
 30
0.0
 10
171.2622405067414
 20
142.0716033568274
 30
0.0
 10
171.3533989116139
 20
142.0745027242495
 30
0.0
 10
171.3784507995436
 20
142.0757501762546
 30
0.0
 10
171.3784601610128
 20
142.0757500370496
 30
0.0
  0
LWPOLYLINE
  5
228
330
1F
100
AcDbEntity
  8
0
  6
Continuous
 62
     8
370
    25
100
AcDbPolyline
 90
       13
 70
   128
 43
0.0
 10
171.628456816
 20
141.8257495386
 10
171.6284605413
 20
141.8257500043
 10
171.5995103791
 20
141.8228098189
 10
171.515543267
 20
141.8152758849
 10
171.3871460146
 20
141.8066034091
 10
171.229535967
 20
141.800668556
 10
171.0609703063
 20
141.8000794945
 10
170.9021532646
 20
141.8049624188
 10
170.7685564383
 20
141.8131622484
 10
170.6748737692
 20
141.821132507
 10
170.6310224458
 20
141.8254794551
 10
170.6284603774
 20
141.8257500043
 10
170.6284603774
 20
141.8257500043
  0
INSERT
  5
234
330
1F
100
AcDbEntity
  8
0
  6
Continuous
 62
     7
370
    18
100
AcDbBlockReference
  2
SW_CENTERMARKSYMBOL_1
 10
163.6284601613
 20
135.7757500371
 30
0.0
  0
ARC
  5
235
330
1F
100
AcDbEntity
  8
0
  6
Continuous
 62
     7
370
    18
100
AcDbCircle
 10
163.6284601613
 20
135.7757500371
 30
0.0
 40
5.722500000000014
100
AcDbArc
 50
75.0
 51
345.0
  0
LINE
  5
236
330
1F
100
AcDbEntity
  8
0
  6
Continuous
 62
     7
370
    18
100
AcDbLine
 10
184.8903273374
 20
130.0995888525
 30
0.0
 11
173.3190817609
 21
129.7379874282
 31
0.0
  0
LINE
  5
237
330
1F
100
AcDbEntity
  8
0
  6
Continuous
 62
     7
370
    18
100
AcDbLine
 10
184.8903273374
 20
141.4519112217
 30
0.0
 11
173.3190817609
 21
141.8135126459
 31
0.0
  0
ENDSEC
  0
SECTION
  2
OBJECTS
  0
DICTIONARY
  5
C
330
0
100
AcDbDictionary
281
     1
  3
ACAD_GROUP
350
D
  3
ACAD_LAYOUT
350
1A
  3
ACAD_MLINESTYLE
350
17
  3
ACAD_PLOTSETTINGS
350
19
  3
ACAD_PLOTSTYLENAME
350
E
  3
ACAD_SCALELIST
350
47
  0
DICTIONARY
  5
D
102
{ACAD_REACTORS
330
C
102
}
330
C
100
AcDbDictionary
281
     1
  0
DICTIONARY
  5
1A
102
{ACAD_REACTORS
330
C
102
}
330
C
100
AcDbDictionary
281
     1
  3
Layout1
350
1E
  3
Layout2
350
26
  3
Model
350
22
  0
DICTIONARY
  5
17
102
{ACAD_REACTORS
330
C
102
}
330
C
100
AcDbDictionary
281
     1
  3
Standard
350
18
  0
DICTIONARY
  5
19
102
{ACAD_REACTORS
330
C
102
}
330
C
100
AcDbDictionary
281
     1
  0
ACDBDICTIONARYWDFLT
  5
E
102
{ACAD_REACTORS
330
C
102
}
330
C
100
AcDbDictionary
281
     1
  3
Normal
350
F
100
AcDbDictionaryWithDefault
340
F
  0
DICTIONARY
  5
47
102
{ACAD_REACTORS
330
C
102
}
330
C
100
AcDbDictionary
281
     1
  3
A0
350
48
  3
A1
350
49
  3
A2
350
4A
  3
A3
350
4B
  3
A4
350
4C
  3
A5
350
4D
  3
A6
350
4E
  3
A7
350
4F
  3
A8
350
50
  3
A9
350
51
  3
B0
350
52
  3
B1
350
53
  3
B2
350
54
  3
B3
350
55
  3
B4
350
56
  3
B5
350
57
  3
B6
350
58
  3
B7
350
59
  3
B8
350
5A
  3
B9
350
5B
  3
C0
350
5C
  3
C1
350
5D
  3
C2
350
5E
  3
C3
350
5F
  3
C4
350
60
  3
C5
350
61
  3
C6
350
62
  3
C7
350
63
  3
C8
350
64
  3
C9
350
65
  3
D0
350
66
  3
D1
350
67
  3
D2
350
68
  0
LAYOUT
  5
1E
102
{ACAD_REACTORS
330
1A
102
}
330
1A
100
AcDbPlotSettings
  1

  2
none_device
  4

  6

 40
0.0
 41
0.0
 42
0.0
 43
0.0
 44
0.0
 45
0.0
 46
0.0
 47
0.0
 48
0.0
 49
0.0
140
0.0
141
0.0
142
1.0
143
1.0
 70
   688
 72
     1
 73
     0
 74
     5
  7

 75
    16
147
1.0
148
0.0
149
0.0
100
AcDbLayout
  1
Layout1
 70
     1
 71
     1
 10
0.0
 20
0.0
 11
420.0
 21
297.0
 12
0.0
 22
0.0
 32
0.0
 14
1.0000000000E+20
 24
1.0000000000E+20
 34
1.0000000000E+20
 15
-1.0000000000E+20
 25
-1.0000000000E+20
 35
-1.0000000000E+20
146
0.0
 13
0.0
 23
0.0
 33
0.0
 16
1.0
 26
0.0
 36
0.0
 17
0.0
 27
1.0
 37
0.0
 76
     0
330
1B
  0
LAYOUT
  5
26
102
{ACAD_REACTORS
330
1A
102
}
330
1A
100
AcDbPlotSettings
  1

  2
none_device
  4

  6

 40
0.0
 41
0.0
 42
0.0
 43
0.0
 44
0.0
 45
0.0
 46
0.0
 47
0.0
 48
0.0
 49
0.0
140
0.0
141
0.0
142
1.0
143
1.0
 70
   688
 72
     1
 73
     0
 74
     5
  7

 75
    16
147
1.0
148
0.0
149
0.0
100
AcDbLayout
  1
Layout2
 70
     1
 71
     2
 10
0.0
 20
0.0
 11
0.0
 21
0.0
 12
0.0
 22
0.0
 32
0.0
 14
0.0
 24
0.0
 34
0.0
 15
0.0
 25
0.0
 35
0.0
146
0.0
 13
0.0
 23
0.0
 33
0.0
 16
1.0
 26
0.0
 36
0.0
 17
0.0
 27
1.0
 37
0.0
 76
     0
330
23
  0
LAYOUT
  5
22
102
{ACAD_REACTORS
330
1A
102
}
330
1A
100
AcDbPlotSettings
  1

  2
none_device
  4
Letter_(8.50_x_11.00_Inches)
  6

 40
6.35
 41
6.35
 42
6.35000508
 43
6.35000508
 44
215.9
 45
279.4
 46
0.0
 47
0.0
 48
0.0
 49
0.0
140
0.0
141
0.0
142
1.0
143
1.0
 70
  1712
 72
     1
 73
     0
 74
     0
  7

 75
     0
147
1.0
148
0.0
149
0.0
100
AcDbLayout
  1
Model
 70
     1
 71
     0
 10
0.0
 20
0.0
 11
431.8
 21
279.4
 12
0.0
 22
0.0
 32
0.0
 14
0.0
 24
0.0
 34
0.0
 15
431.8
 25
279.4
 35
0.0
146
0.0
 13
0.0
 23
0.0
 33
0.0
 16
1.0
 26
0.0
 36
0.0
 17
0.0
 27
1.0
 37
0.0
 76
     0
330
1F
331
29
  0
MLINESTYLE
  5
18
102
{ACAD_REACTORS
330
17
102
}
330
17
100
AcDbMlineStyle
  2
Standard
 70
     0
  3

 62
   256
 51
90.0
 52
90.0
 71
     2
 49
0.5
 62
   256
  6
BYLAYER
 49
-0.5
 62
   256
  6
BYLAYER
  0
ACDBPLACEHOLDER
  5
F
102
{ACAD_REACTORS
330
E
102
}
330
E
  0
SCALE
  5
48
102
{ACAD_REACTORS
330
47
102
}
330
47
100
AcDbScale
 70
     0
300
1:1
140
1.0
141
1.0
290
     1
  0
SCALE
  5
49
102
{ACAD_REACTORS
330
47
102
}
330
47
100
AcDbScale
 70
     0
300
1:2
140
1.0
141
2.0
290
     0
  0
SCALE
  5
4A
102
{ACAD_REACTORS
330
47
102
}
330
47
100
AcDbScale
 70
     0
300
1:4
140
1.0
141
4.0
290
     0
  0
SCALE
  5
4B
102
{ACAD_REACTORS
330
47
102
}
330
47
100
AcDbScale
 70
     0
300
1:5
140
1.0
141
5.0
290
     0
  0
SCALE
  5
4C
102
{ACAD_REACTORS
330
47
102
}
330
47
100
AcDbScale
 70
     0
300
1:8
140
1.0
141
8.0
290
     0
  0
SCALE
  5
4D
102
{ACAD_REACTORS
330
47
102
}
330
47
100
AcDbScale
 70
     0
300
1:10
140
1.0
141
10.0
290
     0
  0
SCALE
  5
4E
102
{ACAD_REACTORS
330
47
102
}
330
47
100
AcDbScale
 70
     0
300
1:16
140
1.0
141
16.0
290
     0
  0
SCALE
  5
4F
102
{ACAD_REACTORS
330
47
102
}
330
47
100
AcDbScale
 70
     0
300
1:20
140
1.0
141
20.0
290
     0
  0
SCALE
  5
50
102
{ACAD_REACTORS
330
47
102
}
330
47
100
AcDbScale
 70
     0
300
1:30
140
1.0
141
30.0
290
     0
  0
SCALE
  5
51
102
{ACAD_REACTORS
330
47
102
}
330
47
100
AcDbScale
 70
     0
300
1:40
140
1.0
141
40.0
290
     0
  0
SCALE
  5
52
102
{ACAD_REACTORS
330
47
102
}
330
47
100
AcDbScale
 70
     0
300
1:50
140
1.0
141
50.0
290
     0
  0
SCALE
  5
53
102
{ACAD_REACTORS
330
47
102
}
330
47
100
AcDbScale
 70
     0
300
1:100
140
1.0
141
100.0
290
     0
  0
SCALE
  5
54
102
{ACAD_REACTORS
330
47
102
}
330
47
100
AcDbScale
 70
     0
300
2:1
140
2.0
141
1.0
290
     0
  0
SCALE
  5
55
102
{ACAD_REACTORS
330
47
102
}
330
47
100
AcDbScale
 70
     0
300
4:1
140
4.0
141
1.0
290
     0
  0
SCALE
  5
56
102
{ACAD_REACTORS
330
47
102
}
330
47
100
AcDbScale
 70
     0
300
8:1
140
8.0
141
1.0
290
     0
  0
SCALE
  5
57
102
{ACAD_REACTORS
330
47
102
}
330
47
100
AcDbScale
 70
     0
300
10:1
140
10.0
141
1.0
290
     0
  0
SCALE
  5
58
102
{ACAD_REACTORS
330
47
102
}
330
47
100
AcDbScale
 70
     0
300
100:1
140
100.0
141
1.0
290
     0
  0
SCALE
  5
59
102
{ACAD_REACTORS
330
47
102
}
330
47
100
AcDbScale
 70
     0
300
1/128" = 1'-0"
140
0.0078125
141
12.0
290
     0
  0
SCALE
  5
5A
102
{ACAD_REACTORS
330
47
102
}
330
47
100
AcDbScale
 70
     0
300
1/64" = 1'-0"
140
0.015625
141
12.0
290
     0
  0
SCALE
  5
5B
102
{ACAD_REACTORS
330
47
102
}
330
47
100
AcDbScale
 70
     0
300
1/32" = 1'-0"
140
0.03125
141
12.0
290
     0
  0
SCALE
  5
5C
102
{ACAD_REACTORS
330
47
102
}
330
47
100
AcDbScale
 70
     0
300
1/16" = 1'-0"
140
0.0625
141
12.0
290
     0
  0
SCALE
  5
5D
102
{ACAD_REACTORS
330
47
102
}
330
47
100
AcDbScale
 70
     0
300
3/32" = 1'-0"
140
0.09375
141
12.0
290
     0
  0
SCALE
  5
5E
102
{ACAD_REACTORS
330
47
102
}
330
47
100
AcDbScale
 70
     0
300
1/8" = 1'-0"
140
0.125
141
12.0
290
     0
  0
SCALE
  5
5F
102
{ACAD_REACTORS
330
47
102
}
330
47
100
AcDbScale
 70
     0
300
3/16" = 1'-0"
140
0.1875
141
12.0
290
     0
  0
SCALE
  5
60
102
{ACAD_REACTORS
330
47
102
}
330
47
100
AcDbScale
 70
     0
300
1/4" = 1'-0"
140
0.25
141
12.0
290
     0
  0
SCALE
  5
61
102
{ACAD_REACTORS
330
47
102
}
330
47
100
AcDbScale
 70
     0
300
3/8" = 1'-0"
140
0.375
141
12.0
290
     0
  0
SCALE
  5
62
102
{ACAD_REACTORS
330
47
102
}
330
47
100
AcDbScale
 70
     0
300
1/2" = 1'-0"
140
0.5
141
12.0
290
     0
  0
SCALE
  5
63
102
{ACAD_REACTORS
330
47
102
}
330
47
100
AcDbScale
 70
     0
300
3/4" = 1'-0"
140
0.75
141
12.0
290
     0
  0
SCALE
  5
64
102
{ACAD_REACTORS
330
47
102
}
330
47
100
AcDbScale
 70
     0
300
1" = 1'-0"
140
1.0
141
12.0
290
     0
  0
SCALE
  5
65
102
{ACAD_REACTORS
330
47
102
}
330
47
100
AcDbScale
 70
     0
300
1-1/2" = 1'-0"
140
1.5
141
12.0
290
     0
  0
SCALE
  5
66
102
{ACAD_REACTORS
330
47
102
}
330
47
100
AcDbScale
 70
     0
300
3" = 1'-0"
140
3.0
141
12.0
290
     0
  0
SCALE
  5
67
102
{ACAD_REACTORS
330
47
102
}
330
47
100
AcDbScale
 70
     0
300
6" = 1'-0"
140
6.0
141
12.0
290
     0
  0
SCALE
  5
68
102
{ACAD_REACTORS
330
47
102
}
330
47
100
AcDbScale
 70
     0
300
1'-0" = 1'-0"
140
12.0
141
12.0
290
     0
  0
ENDSEC
  0
EOF
