  0
SECTION
  2
HEADER
  9
$ACADVER
  1
AC1015
  9
$ACADMAINTVER
 70
     6
  9
$DWGCODEPAGE
  3
DOS932
  9
$INSBASE
 10
0.0
 20
0.0
 30
0.0
  9
$EXTMIN
 10
0.0
 20
0.0
 30
0.0
  9
$EXTMAX
 10
431.8
 20
279.4
 30
0.0
  9
$LIMMIN
 10
0.0
 20
0.0
  9
$LIMMAX
 10
431.8
 20
279.4
  9
$ORTHOMODE
 70
     0
  9
$REGENMODE
 70
     1
  9
$FILLMODE
 70
     1
  9
$QTEXTMODE
 70
     0
  9
$MIRRTEXT
 70
     1
  9
$LTSCALE
 40
1.0
  9
$ATTMODE
 70
     1
  9
$TEXTSIZE
 40
3.5
  9
$TRACEWID
 40
1.0
  9
$TEXTSTYLE
  7
Standard
  9
$CLAYER
  8
0
  9
$CELTYPE
  6
ByLayer
  9
$CECOLOR
 62
   256
  9
$CELTSCALE
 40
1.0
  9
$DISPSILH
 70
     0
  9
$DIMSCALE
 40
1.0
  9
$DIMASZ
 40
3.302
  9
$DIMEXO
 40
1.0
  9
$DIMDLI
 40
3.75
  9
$DIMRND
 40
0.0
  9
$DIMDLE
 40
0.0
  9
$DIMEXE
 40
1.0
  9
$DIMTP
 40
0.0
  9
$DIMTM
 40
0.0
  9
$DIMTXT
 40
3.5
  9
$DIMCEN
 40
2.5
  9
$DIMTSZ
 40
0.0
  9
$DIMTOL
 70
     0
  9
$DIMLIM
 70
     0
  9
$DIMTIH
 70
     1
  9
$DIMTOH
 70
     1
  9
$DIMSE1
 70
     0
  9
$DIMSE2
 70
     0
  9
$DIMTAD
 70
     1
  9
$DIMZIN
 70
     1
  9
$DIMBLK
  1

  9
$DIMASO
 70
     1
  9
$DIMSHO
 70
     1
  9
$DIMPOST
  1

  9
$DIMAPOST
  1

  9
$DIMALT
 70
     0
  9
$DIMALTD
 70
     3
  9
$DIMALTF
 40
0.0393700787
  9
$DIMLFAC
 40
1.0
  9
$DIMTOFL
 70
     1
  9
$DIMTVP
 40
0.0
  9
$DIMTIX
 70
     0
  9
$DIMSOXD
 70
     0
  9
$DIMSAH
 70
     0
  9
$DIMBLK1
  1

  9
$DIMBLK2
  1

  9
$DIMSTYLE
  2
ISO-25
  9
$DIMCLRD
 70
     0
  9
$DIMCLRE
 70
     0
  9
$DIMCLRT
 70
     0
  9
$DIMTFAC
 40
1.0
  9
$DIMGAP
 40
1.524
  9
$DIMJUST
 70
     0
  9
$DIMSD1
 70
     0
  9
$DIMSD2
 70
     0
  9
$DIMTOLJ
 70
     0
  9
$DIMTZIN
 70
     1
  9
$DIMALTZ
 70
     0
  9
$DIMALTTZ
 70
     0
  9
$DIMUPT
 70
     0
  9
$DIMDEC
 70
     2
  9
$DIMTDEC
 70
     2
  9
$DIMALTU
 70
     2
  9
$DIMALTTD
 70
     3
  9
$DIMTXSTY
  7
Standard
  9
$DIMAUNIT
 70
     0
  9
$DIMADEC
 70
     2
  9
$DIMALTRND
 40
0.0
  9
$DIMAZIN
 70
     0
  9
$DIMDSEP
 70
    44
  9
$DIMATFIT
 70
     3
  9
$DIMFRAC
 70
     0
  9
$DIMLDRBLK
  1

  9
$DIMLUNIT
 70
     2
  9
$DIMLWD
 70
    -2
  9
$DIMLWE
 70
    -2
  9
$DIMTMOVE
 70
     0
  9
$LUNITS
 70
     2
  9
$LUPREC
 70
     2
  9
$SKETCHINC
 40
1.0
  9
$FILLETRAD
 40
10.0
  9
$AUNITS
 70
     0
  9
$AUPREC
 70
     2
  9
$MENU
  1
.
  9
$ELEVATION
 40
0.0
  9
$PELEVATION
 40
0.0
  9
$THICKNESS
 40
0.0
  9
$LIMCHECK
 70
     0
  9
$CHAMFERA
 40
0.0
  9
$CHAMFERB
 40
0.0
  9
$CHAMFERC
 40
0.0
  9
$CHAMFERD
 40
0.0
  9
$SKPOLY
 70
     0
  9
$TDCREATE
 40
2459230.774078981
  9
$TDUCREATE
 40
2459230.399078981
  9
$TDUPDATE
 40
2459230.774079583
  9
$TDUUPDATE
 40
2459230.399079583
  9
$TDINDWG
 40
0.0000000116
  9
$TDUSRTIMER
 40
0.0000000116
  9
$USRTIMER
 70
     1
  9
$ANGBASE
 50
0.0
  9
$ANGDIR
 70
     0
  9
$PDMODE
 70
     0
  9
$PDSIZE
 40
-1.0
  9
$PLINEWID
 40
0.0
  9
$SPLFRAME
 70
     0
  9
$SPLINETYPE
 70
     6
  9
$SPLINESEGS
 70
     8
  9
$HANDSEED
  5
1CE
  9
$SURFTAB1
 70
     6
  9
$SURFTAB2
 70
     6
  9
$SURFTYPE
 70
     6
  9
$SURFU
 70
     6
  9
$SURFV
 70
     6
  9
$UCSBASE
  2

  9
$UCSNAME
  2

  9
$UCSORG
 10
0.0
 20
0.0
 30
0.0
  9
$UCSXDIR
 10
1.0
 20
0.0
 30
0.0
  9
$UCSYDIR
 10
0.0
 20
1.0
 30
0.0
  9
$UCSORTHOREF
  2

  9
$UCSORTHOVIEW
 70
     0
  9
$UCSORGTOP
 10
0.0
 20
0.0
 30
0.0
  9
$UCSORGBOTTOM
 10
0.0
 20
0.0
 30
0.0
  9
$UCSORGLEFT
 10
0.0
 20
0.0
 30
0.0
  9
$UCSORGRIGHT
 10
0.0
 20
0.0
 30
0.0
  9
$UCSORGFRONT
 10
0.0
 20
0.0
 30
0.0
  9
$UCSORGBACK
 10
0.0
 20
0.0
 30
0.0
  9
$PUCSBASE
  2

  9
$PUCSNAME
  2

  9
$PUCSORG
 10
0.0
 20
0.0
 30
0.0
  9
$PUCSXDIR
 10
1.0
 20
0.0
 30
0.0
  9
$PUCSYDIR
 10
0.0
 20
1.0
 30
0.0
  9
$PUCSORTHOREF
  2

  9
$PUCSORTHOVIEW
 70
     0
  9
$PUCSORGTOP
 10
0.0
 20
0.0
 30
0.0
  9
$PUCSORGBOTTOM
 10
0.0
 20
0.0
 30
0.0
  9
$PUCSORGLEFT
 10
0.0
 20
0.0
 30
0.0
  9
$PUCSORGRIGHT
 10
0.0
 20
0.0
 30
0.0
  9
$PUCSORGFRONT
 10
0.0
 20
0.0
 30
0.0
  9
$PUCSORGBACK
 10
0.0
 20
0.0
 30
0.0
  9
$USERI1
 70
     0
  9
$USERI2
 70
     0
  9
$USERI3
 70
     0
  9
$USERI4
 70
     0
  9
$USERI5
 70
     0
  9
$USERR1
 40
0.0
  9
$USERR2
 40
0.0
  9
$USERR3
 40
0.0
  9
$USERR4
 40
0.0
  9
$USERR5
 40
0.0
  9
$WORLDVIEW
 70
     1
  9
$SHADEDGE
 70
     3
  9
$SHADEDIF
 70
    70
  9
$TILEMODE
 70
     1
  9
$MAXACTVP
 70
    64
  9
$PINSBASE
 10
0.0
 20
0.0
 30
0.0
  9
$PLIMCHECK
 70
     0
  9
$PEXTMIN
 10
1.0000000000E+20
 20
1.0000000000E+20
 30
1.0000000000E+20
  9
$PEXTMAX
 10
-1.0000000000E+20
 20
-1.0000000000E+20
 30
-1.0000000000E+20
  9
$PLIMMIN
 10
0.0
 20
0.0
  9
$PLIMMAX
 10
420.0
 20
297.0
  9
$UNITMODE
 70
     0
  9
$VISRETAIN
 70
     1
  9
$PLINEGEN
 70
     0
  9
$PSLTSCALE
 70
     1
  9
$TREEDEPTH
 70
  3020
  9
$CMLSTYLE
  2
Standard
  9
$CMLJUST
 70
     0
  9
$CMLSCALE
 40
20.0
  9
$PROXYGRAPHICS
 70
     1
  9
$MEASUREMENT
 70
     1
  9
$CELWEIGHT
370
    -1
  9
$ENDCAPS
280
     0
  9
$JOINSTYLE
280
     0
  9
$LWDISPLAY
290
     1
  9
$INSUNITS
 70
     4
  9
$HYPERLINKBASE
  1

  9
$STYLESHEET
  1

  9
$XEDIT
290
     1
  9
$CEPSNTYPE
380
     0
  9
$PSTYLEMODE
290
     1
  9
$FINGERPRINTGUID
  2
{148FADEB-B0F0-4C94-97CD-115183C708E1}
  9
$VERSIONGUID
  2
{FAEB1C32-E019-11D5-929B-00C0DF256EC4}
  9
$EXTNAMES
290
     1
  9
$PSVPSCALE
 40
0.0
  9
$OLESTARTUP
290
     0
  0
ENDSEC
  0
SECTION
  2
CLASSES
  0
CLASS
  1
ACDBDICTIONARYWDFLT
  2
AcDbDictionaryWithDefault
  3
ObjectDBX Classes
 90
        0
280
     0
281
     0
  0
CLASS
  1
VISUALSTYLE
  2
AcDbVisualStyle
  3
ObjectDBX Classes
 90
     4095
280
     0
281
     0
  0
CLASS
  1
MATERIAL
  2
AcDbMaterial
  3
ObjectDBX Classes
 90
     1153
280
     0
281
     0
  0
CLASS
  1
SCALE
  2
AcDbScale
  3
ObjectDBX Classes
 90
     1153
280
     0
281
     0
  0
CLASS
  1
TABLESTYLE
  2
AcDbTableStyle
  3
ObjectDBX Classes
 90
     4095
280
     0
281
     0
  0
CLASS
  1
MLEADERSTYLE
  2
AcDbMLeaderStyle
  3
ACDB_MLEADERSTYLE_CLASS
 90
     4095
280
     0
281
     0
  0
CLASS
  1
SUN
  2
AcDbSun
  3
SCENEOE
 90
     1153
280
     0
281
     0
  0
CLASS
  1
ACDBPLACEHOLDER
  2
AcDbPlaceHolder
  3
ObjectDBX Classes
 90
        0
280
     0
281
     0
  0
CLASS
  1
LAYOUT
  2
AcDbLayout
  3
ObjectDBX Classes
 90
        0
280
     0
281
     0
  0
ENDSEC
  0
SECTION
  2
TABLES
  0
TABLE
  2
VPORT
  5
8
330
0
100
AcDbSymbolTable
 70
     1
  0
VPORT
  5
29
330
8
100
AcDbSymbolTableRecord
100
AcDbViewportTableRecord
  2
*Active
 70
     0
 10
0.0
 20
0.0
 11
1.0
 21
1.0
 12
215.9
 22
139.7
 13
0.0
 23
0.0
 14
10.0
 24
10.0
 15
10.0
 25
10.0
 16
0.0
 26
0.0
 36
1.0
 17
0.0
 27
0.0
 37
0.0
 40
279.4
 41
1.5454545455
 42
50.0
 43
0.0
 44
0.0
 50
0.0
 51
0.0
 71
     0
 72
  2000
 73
     1
 74
     3
 75
     0
 76
     0
 77
     0
 78
     0
281
     0
 65
     1
110
0.0
120
0.0
130
0.0
111
1.0
121
0.0
131
0.0
112
0.0
122
1.0
132
0.0
 79
     0
146
0.0
  0
ENDTAB
  0
TABLE
  2
LTYPE
  5
5
330
0
100
AcDbSymbolTable
 70
     6
  0
LTYPE
  5
14
330
5
100
AcDbSymbolTableRecord
100
AcDbLinetypeTableRecord
  2
ByBlock
 70
     0
  3

 72
    65
 73
     0
 40
0.0
  0
LTYPE
  5
15
330
5
100
AcDbSymbolTableRecord
100
AcDbLinetypeTableRecord
  2
ByLayer
 70
     0
  3

 72
    65
 73
     0
 40
0.0
  0
LTYPE
  5
16
330
5
100
AcDbSymbolTableRecord
100
AcDbLinetypeTableRecord
  2
Continuous
 70
     0
  3
Solid line
 72
    65
 73
     0
 40
0.0
  0
LTYPE
  5
6E
330
5
100
AcDbSymbolTableRecord
100
AcDbLinetypeTableRecord
  2
HIDDEN
 70
     0
  3
Hidden __ __ __ __ __ __ __ __ __ __ __ __ __ __
 72
    65
 73
     2
 40
1.905
 49
1.27
 74
     0
 49
-0.635
 74
     0
  0
LTYPE
  5
6F
330
5
100
AcDbSymbolTableRecord
100
AcDbLinetypeTableRecord
  2
PHANTOM
 70
     0
  3
Phantom ______  __  __  ______  __  __  ______
 72
    65
 73
     6
 40
12.7
 49
6.35
 74
     0
 49
-1.27
 74
     0
 49
1.27
 74
     0
 49
-1.27
 74
     0
 49
1.27
 74
     0
 49
-1.27
 74
     0
  0
LTYPE
  5
70
330
5
100
AcDbSymbolTableRecord
100
AcDbLinetypeTableRecord
  2
CENTER
 70
     0
  3
Center ____ _ ____ _ ____ _ ____ _ ____ _ ____
 72
    65
 73
     4
 40
10.16
 49
6.35
 74
     0
 49
-1.27
 74
     0
 49
1.27
 74
     0
 49
-1.27
 74
     0
  0
LTYPE
  5
71
330
5
100
AcDbSymbolTableRecord
100
AcDbLinetypeTableRecord
  2
CENTERX2
 70
     0
  3
Center (2x) ________  __  ________  __  _____
 72
    65
 73
     4
 40
20.32
 49
12.7
 74
     0
 49
-2.54
 74
     0
 49
2.54
 74
     0
 49
-2.54
 74
     0
  0
LTYPE
  5
72
330
5
100
AcDbSymbolTableRecord
100
AcDbLinetypeTableRecord
  2
DOT2
 70
     0
  3
Dot (.5x) ........................................
 72
    65
 73
     2
 40
0.635
 49
0.0
 74
     0
 49
-0.635
 74
     0
  0
ENDTAB
  0
TABLE
  2
LAYER
  5
2
330
0
100
AcDbSymbolTable
 70
     1
  0
LAYER
  5
10
330
2
100
AcDbSymbolTableRecord
100
AcDbLayerTableRecord
  2
0
 70
     0
 62
     7
  6
Continuous
370
    -3
390
F
  0
ENDTAB
  0
TABLE
  2
STYLE
  5
3
330
0
100
AcDbSymbolTable
 70
     2
  0
STYLE
  5
11
330
3
100
AcDbSymbolTableRecord
100
AcDbTextStyleTableRecord
  2
Standard
 70
     0
 40
0.0
 41
1.0
 50
0.0
 71
     0
 42
3.5
  3
txt
  4
bigfont
  0
STYLE
  5
73
330
3
100
AcDbSymbolTableRecord
100
AcDbTextStyleTableRecord
  2
SLDTEXTSTYLE0
 70
     0
 40
0.0
 41
0.7
 50
0.0
 71
     0
 42
3.5
  3
TXT
  4
bigfont
  0
ENDTAB
  0
TABLE
  2
VIEW
  5
6
330
0
100
AcDbSymbolTable
 70
     0
  0
ENDTAB
  0
TABLE
  2
UCS
  5
7
330
0
100
AcDbSymbolTable
 70
     0
  0
ENDTAB
  0
TABLE
  2
APPID
  5
9
330
0
100
AcDbSymbolTable
 70
     1
  0
APPID
  5
12
330
9
100
AcDbSymbolTableRecord
100
AcDbRegAppTableRecord
  2
ACAD
 70
     0
  0
ENDTAB
  0
TABLE
  2
DIMSTYLE
  5
A
330
0
100
AcDbSymbolTable
 70
     1
100
AcDbDimStyleTable
  0
DIMSTYLE
105
27
330
A
100
AcDbSymbolTableRecord
100
AcDbDimStyleTableRecord
  2
ISO-25
 70
     0
 41
2.5
 42
0.625
 43
3.75
 44
1.25
 73
     0
 74
     0
 77
     1
 78
     8
140
2.5
141
2.5
143
0.0393700787
147
0.625
171
     3
172
     1
178
     0
271
     2
272
     2
274
     3
278
    44
283
     0
284
     8
340
11
  0
ENDTAB
  0
TABLE
  2
BLOCK_RECORD
  5
1
330
0
100
AcDbSymbolTable
 70
     3
  0
BLOCK_RECORD
  5
1F
330
1
100
AcDbSymbolTableRecord
100
AcDbBlockTableRecord
  2
*Model_Space
340
22
  0
BLOCK_RECORD
  5
1B
330
1
100
AcDbSymbolTableRecord
100
AcDbBlockTableRecord
  2
*Paper_Space
340
1E
  0
BLOCK_RECORD
  5
23
330
1
100
AcDbSymbolTableRecord
100
AcDbBlockTableRecord
  2
*Paper_Space0
340
26
  0
BLOCK_RECORD
  5
167
330
1
100
AcDbSymbolTableRecord
100
AcDbBlockTableRecord
  2
SW_CENTERMARKSYMBOL_0
340
0
102
{BLKREFS
331
172
102
}
  0
BLOCK_RECORD
  5
1BE
330
1
100
AcDbSymbolTableRecord
100
AcDbBlockTableRecord
  2
SW_CENTERMARKSYMBOL_1
340
0
102
{BLKREFS
331
1C9
102
}
  0
ENDTAB
  0
ENDSEC
  0
SECTION
  2
BLOCKS
  0
BLOCK
  5
20
330
1F
100
AcDbEntity
  8
0
100
AcDbBlockBegin
  2
*Model_Space
 70
     0
 10
0.0
 20
0.0
 30
0.0
  3
*Model_Space
  1

  0
ENDBLK
  5
21
330
1F
100
AcDbEntity
  8
0
100
AcDbBlockEnd
  0
BLOCK
  5
1C
330
1B
100
AcDbEntity
 67
     1
  8
0
100
AcDbBlockBegin
  2
*Paper_Space
 70
     0
 10
0.0
 20
0.0
 30
0.0
  3
*Paper_Space
  1

  0
ENDBLK
  5
1D
330
1B
100
AcDbEntity
 67
     1
  8
0
100
AcDbBlockEnd
  0
BLOCK
  5
24
330
23
100
AcDbEntity
  8
0
100
AcDbBlockBegin
  2
*Paper_Space0
 70
     0
 10
0.0
 20
0.0
 30
0.0
  3
*Paper_Space0
  1

  0
ENDBLK
  5
25
330
23
100
AcDbEntity
  8
0
100
AcDbBlockEnd
  0
BLOCK
  5
168
330
167
100
AcDbEntity
  8
0
100
AcDbBlockBegin
  2
SW_CENTERMARKSYMBOL_0
 70
     0
 10
0.0
 20
0.0
 30
0.0
  3
SW_CENTERMARKSYMBOL_0
  1

  0
LINE
  5
16A
330
167
100
AcDbEntity
  8
0
  6
Continuous
 62
     0
370
    18
100
AcDbLine
 10
0.0
 20
0.0
 30
0.0
 11
0.0
 21
2.5
 31
0.0
  0
LINE
  5
16B
330
167
100
AcDbEntity
  8
0
  6
Continuous
 62
     0
370
    18
100
AcDbLine
 10
0.0
 20
0.0
 30
0.0
 11
-2.5
 21
0.0
 31
0.0
  0
LINE
  5
16C
330
167
100
AcDbEntity
  8
0
  6
Continuous
 62
     0
370
    18
100
AcDbLine
 10
0.0
 20
0.0
 30
0.0
 11
0.0
 21
-2.5
 31
0.0
  0
LINE
  5
16D
330
167
100
AcDbEntity
  8
0
  6
Continuous
 62
     0
370
    18
100
AcDbLine
 10
0.0
 20
0.0
 30
0.0
 11
2.5
 21
0.0
 31
0.0
  0
LINE
  5
16E
330
167
100
AcDbEntity
  8
0
  6
Continuous
 62
     0
370
    18
100
AcDbLine
 10
0.0
 20
5.0
 30
0.0
 11
0.0
 21
37.1832510794
 31
0.0
  0
LINE
  5
16F
330
167
100
AcDbEntity
  8
0
  6
Continuous
 62
     0
370
    18
100
AcDbLine
 10
-5.0
 20
0.0
 30
0.0
 11
-14.4836116033
 21
0.0
 31
0.0
  0
LINE
  5
170
330
167
100
AcDbEntity
  8
0
  6
Continuous
 62
     0
370
    18
100
AcDbLine
 10
0.0
 20
-5.0
 30
0.0
 11
0.0
 21
-14.4083586756
 31
0.0
  0
LINE
  5
171
330
167
100
AcDbEntity
  8
0
  6
Continuous
 62
     0
370
    18
100
AcDbLine
 10
5.0
 20
0.0
 30
0.0
 11
14.9763701033
 21
0.0
 31
0.0
  0
ENDBLK
  5
169
330
167
100
AcDbEntity
  8
0
100
AcDbBlockEnd
  0
BLOCK
  5
1BF
330
1BE
100
AcDbEntity
  8
0
100
AcDbBlockBegin
  2
SW_CENTERMARKSYMBOL_1
 70
     0
 10
0.0
 20
0.0
 30
0.0
  3
SW_CENTERMARKSYMBOL_1
  1

  0
LINE
  5
1C1
330
1BE
100
AcDbEntity
  8
0
  6
Continuous
 62
     0
370
    18
100
AcDbLine
 10
0.0
 20
0.0
 30
0.0
 11
0.0
 21
2.5
 31
0.0
  0
LINE
  5
1C2
330
1BE
100
AcDbEntity
  8
0
  6
Continuous
 62
     0
370
    18
100
AcDbLine
 10
0.0
 20
0.0
 30
0.0
 11
-2.5
 21
0.0
 31
0.0
  0
LINE
  5
1C3
330
1BE
100
AcDbEntity
  8
0
  6
Continuous
 62
     0
370
    18
100
AcDbLine
 10
0.0
 20
0.0
 30
0.0
 11
0.0
 21
-2.5
 31
0.0
  0
LINE
  5
1C4
330
1BE
100
AcDbEntity
  8
0
  6
Continuous
 62
     0
370
    18
100
AcDbLine
 10
0.0
 20
0.0
 30
0.0
 11
2.5
 21
0.0
 31
0.0
  0
LINE
  5
1C5
330
1BE
100
AcDbEntity
  8
0
  6
Continuous
 62
     0
370
    18
100
AcDbLine
 10
0.0
 20
5.0
 30
0.0
 11
0.0
 21
16.5
 31
0.0
  0
LINE
  5
1C6
330
1BE
100
AcDbEntity
  8
0
  6
Continuous
 62
     0
370
    18
100
AcDbLine
 10
-5.0
 20
0.0
 30
0.0
 11
-16.5
 21
0.0
 31
0.0
  0
LINE
  5
1C7
330
1BE
100
AcDbEntity
  8
0
  6
Continuous
 62
     0
370
    18
100
AcDbLine
 10
0.0
 20
-5.0
 30
0.0
 11
0.0
 21
-16.5
 31
0.0
  0
LINE
  5
1C8
330
1BE
100
AcDbEntity
  8
0
  6
Continuous
 62
     0
370
    18
100
AcDbLine
 10
5.0
 20
0.0
 30
0.0
 11
34.4163281856
 21
0.0
 31
0.0
  0
ENDBLK
  5
1C0
330
1BE
100
AcDbEntity
  8
0
100
AcDbBlockEnd
  0
ENDSEC
  0
SECTION
  2
ENTITIES
  0
MTEXT
  5
74
330
1F
100
AcDbEntity
  8
0
  6
Continuous
 62
     7
370
     0
100
AcDbMText
 10
162.0502465544
 20
140.3335693554
 30
0.0
 40
5.2916666667
 41
0.0
 71
     1
 72
     1
  1
5R-LK1044
  7
SLDTEXTSTYLE0
 73
     1
 44
1.0
  0
LINE
  5
75
330
1F
100
AcDbEntity
  8
0
  6
Continuous
 62
     7
370
    25
100
AcDbLine
 10
144.0859088563
 20
109.5208289269
 30
0.0
 11
144.0859088563
 21
123.5208289269
 31
0.0
  0
LINE
  5
76
330
1F
100
AcDbEntity
  8
0
  6
Continuous
 62
     7
370
    25
100
AcDbLine
 10
116.0859088563
 20
123.5208289269
 30
0.0
 11
116.0859088563
 21
109.5208289269
 31
0.0
  0
LINE
  5
77
330
1F
100
AcDbEntity
  8
0
  6
Continuous
 62
     7
370
    25
100
AcDbLine
 10
144.0859088563
 20
123.5208289269
 30
0.0
 11
143.0859088563
 21
124.5208289269
 31
0.0
  0
LINE
  5
78
330
1F
100
AcDbEntity
  8
0
  6
Continuous
 62
     7
370
    25
100
AcDbLine
 10
117.0859088563
 20
124.5208289269
 30
0.0
 11
116.0859088563
 21
123.5208289269
 31
0.0
  0
ARC
  5
79
330
1F
100
AcDbEntity
  8
0
  6
Continuous
 62
     7
370
    25
100
AcDbCircle
 10
117.0859088563
 20
109.5208289269
 30
0.0
 40
1.0
100
AcDbArc
 50
180.0
 51
255.5224878141
  0
ARC
  5
7A
330
1F
100
AcDbEntity
  8
0
  6
Continuous
 62
     7
370
    25
100
AcDbCircle
 10
143.0859088563
 20
109.5208289269
 30
0.0
 40
1.000000000000004
100
AcDbArc
 50
284.4775121859
 51
0.0
  0
ARC
  5
7B
330
1F
100
AcDbEntity
  8
0
  6
Continuous
 62
     7
370
    25
100
AcDbCircle
 10
116.0859088563
 20
105.6478455807
 30
0.0
 40
3.000000000000012
100
AcDbArc
 50
0.0
 51
75.5224878141
  0
ARC
  5
7C
330
1F
100
AcDbEntity
  8
0
  6
Continuous
 62
     7
370
    25
100
AcDbCircle
 10
144.0859088563
 20
105.6478455807
 30
0.0
 40
3.0
100
AcDbArc
 50
104.4775121859
 51
180.0
  0
LINE
  5
7D
330
1F
100
AcDbEntity
  8
0
  6
Continuous
 62
     7
370
    25
100
AcDbLine
 10
147.1048740374
 20
78.8490322622
 30
0.0
 11
148.1176630198
 21
79.8618212445
 31
0.0
  0
LINE
  5
7E
330
1F
100
AcDbEntity
  8
0
  6
Continuous
 62
     7
370
    25
100
AcDbLine
 10
148.1176630198
 20
101.1798366093
 30
0.0
 11
147.1048740374
 21
102.1926255917
 31
0.0
  0
ARC
  5
7F
330
1F
100
AcDbEntity
  8
0
  6
Continuous
 62
     7
370
    25
100
AcDbCircle
 10
145.2129255101
 20
76.5208289269
 30
0.0
 40
3.000000000000021
100
AcDbArc
 50
50.901941589
 51
90.0
  0
ARC
  5
80
330
1F
100
AcDbEntity
  8
0
  6
Continuous
 62
     7
370
    25
100
AcDbCircle
 10
145.2129255101
 20
104.5208289269
 30
0.0
 40
3.000000000000021
100
AcDbArc
 50
270.0
 51
309.098058411
  0
LINE
  5
81
330
1F
100
AcDbEntity
  8
0
  6
Continuous
 62
     7
370
    25
100
AcDbLine
 10
145.2129255101
 20
101.5208289269
 30
0.0
 11
142.0859088563
 21
101.5208289269
 31
0.0
  0
LINE
  5
82
330
1F
100
AcDbEntity
  8
0
  6
Continuous
 62
     7
370
    25
100
AcDbLine
 10
123.081146947
 20
79.5208289269
 30
0.0
 11
145.2129255101
 21
79.5208289269
 31
0.0
  0
LINE
  5
83
330
1F
100
AcDbEntity
  8
0
  6
Continuous
 62
     7
370
    25
100
AcDbLine
 10
141.0859088563
 20
102.5208289269
 30
0.0
 11
141.0859088563
 21
105.6478455807
 31
0.0
  0
LINE
  5
84
330
1F
100
AcDbEntity
  8
0
  6
Continuous
 62
     7
370
    25
100
AcDbLine
 10
119.0859088563
 20
105.6478455807
 30
0.0
 11
119.0859088563
 21
83.5160670176
 31
0.0
  0
LINE
  5
85
330
1F
100
AcDbEntity
  8
0
  6
Continuous
 62
     7
370
    25
100
AcDbLine
 10
148.1176630198
 20
79.8618212445
 30
0.0
 11
159.3895175834
 21
80.2140666997
 31
0.0
  0
LINE
  5
86
330
1F
100
AcDbEntity
  8
0
  6
Continuous
 62
     7
370
    25
100
AcDbLine
 10
159.3895175834
 20
100.8275911542
 30
0.0
 11
148.1176630198
 21
101.1798366093
 31
0.0
  0
LINE
  5
87
330
1F
100
AcDbEntity
  8
0
  6
Continuous
 62
     7
370
    25
100
AcDbLine
 10
159.3895175834
 20
80.2140666997
 30
0.0
 11
162.0859088563
 21
81.7708289269
 31
0.0
  0
LINE
  5
88
330
1F
100
AcDbEntity
  8
0
  6
Continuous
 62
     7
370
    25
100
AcDbLine
 10
162.0859088563
 20
99.2708289269
 30
0.0
 11
159.3895175834
 21
100.8275911542
 31
0.0
  0
SPLINE
  5
89
330
1F
100
AcDbEntity
  8
0
  6
Continuous
 62
     7
370
    25
100
AcDbSpline
210
0.0
220
0.0
230
1.0
 70
     8
 71
     3
 72
    21
 73
    17
 74
     0
 42
0.000000001
 43
0.00000001
 40
0.0
 40
0.0
 40
0.0
 40
0.0
 40
0.082675685630924
 40
0.1577159325188836
 40
0.225107159227423
 40
0.2848508973562325
 40
0.3526128230463965
 40
0.4067896959711119
 40
0.4520101709879598
 40
0.5086862178782585
 40
0.5792250734246939
 40
0.6636252331326754
 40
0.7360319020681837
 40
0.8162246501067455
 40
0.904219872834077
 40
1.0
 40
1.0
 40
1.0
 40
1.0
 10
119.085908859243
 20
83.52067691185592
 30
0.0
 10
119.0924430656749
 20
83.34751303107332
 30
0.0
 10
119.1049080177682
 20
83.01717766429893
 30
0.0
 10
119.1969758017044
 20
82.55336849578738
 30
0.0
 10
119.3214955831806
 20
82.14834801479986
 30
0.0
 10
119.4810013376027
 20
81.77219777299153
 30
0.0
 10
119.6640593013514
 20
81.43806261203346
 30
0.0
 10
119.8607905747164
 20
81.14825060992726
 30
0.0
 10
120.0647991702511
 20
80.8927958030746
 30
0.0
 10
120.3122032680843
 20
80.62935881307095
 30
0.0
 10
120.6471037165066
 20
80.33812157637456
 30
0.0
 10
121.0424403895843
 20
80.0707973647925
 30
0.0
 10
121.4850683087886
 20
79.84436549809709
 30
0.0
 10
121.9591796103821
 20
79.6717128789289
 30
0.0
 10
122.5000951339781
 20
79.54646638303392
 30
0.0
 10
122.8850998790203
 20
79.52961272673521
 30
0.0
 10
123.0857568412355
 20
79.52082892986344
 30
0.0
  0
SPLINE
  5
8A
330
1F
100
AcDbEntity
  8
0
  6
Continuous
 62
     7
370
    25
100
AcDbSpline
210
0.0
220
0.0
230
1.0
 70
     8
 71
     3
 72
    11
 73
     7
 74
     0
 42
0.000000001
 43
0.00000001
 40
0.0
 40
0.0
 40
0.0
 40
0.0
 40
0.250045322115713
 40
0.5
 40
0.7499546778842864
 40
1.0
 40
1.0
 40
1.0
 40
1.0
 10
142.0859088562811
 20
101.5208289269045
 30
0.0
 10
141.9548614581755
 20
101.5358943903207
 30
0.0
 10
141.6928141681147
 20
101.5660198557538
 30
0.0
 10
141.3624638945655
 20
101.7973839651859
 30
0.0
 10
141.1310997851334
 20
102.1277342387351
 30
0.0
 10
141.1009743197003
 20
102.3897815287959
 30
0.0
 10
141.0859088562841
 20
102.5208289269015
 30
0.0
  0
LINE
  5
8B
330
1F
100
AcDbEntity
  8
0
  6
Continuous
 62
     7
370
    25
100
AcDbLine
 10
144.0859088563
 20
123.5208289269
 30
0.0
 11
116.0859088563
 21
123.5208289269
 31
0.0
  0
LINE
  5
8C
330
1F
100
AcDbEntity
  8
0
  6
Continuous
 62
     7
370
    25
100
AcDbLine
 10
117.0859088563
 20
124.5208289269
 30
0.0
 11
143.0859088563
 21
124.5208289269
 31
0.0
  0
LINE
  5
8D
330
1F
100
AcDbEntity
  8
0
  6
Continuous
 62
     7
370
    25
100
AcDbLine
 10
147.1048740374
 20
90.5208289269
 30
0.0
 11
147.1048740374
 21
78.8490322622
 31
0.0
  0
LINE
  5
8E
330
1F
100
AcDbEntity
  8
0
  6
Continuous
 62
     7
370
    25
100
AcDbLine
 10
147.1048740374
 20
102.1926255917
 30
0.0
 11
147.1048740374
 21
90.5208289269
 31
0.0
  0
LINE
  5
8F
330
1F
100
AcDbEntity
  8
0
  6
Continuous
 62
     7
370
    25
100
AcDbLine
 10
148.1176630198
 20
101.1798366093
 30
0.0
 11
148.1176630198
 21
79.8618212445
 31
0.0
  0
ARC
  5
90
330
1F
100
AcDbEntity
  8
0
  6
Continuous
 62
     7
370
    25
100
AcDbCircle
 10
141.5969466314
 20
86.202084927
 30
0.0
 40
1.193155402138798
100
AcDbArc
 50
97.6349315662
 51
119.347988814
  0
SPLINE
  5
91
330
1F
100
AcDbEntity
  8
0
  6
Continuous
 62
     7
370
    25
100
AcDbSpline
210
0.0
220
0.0
230
1.0
 70
     8
 71
     3
 72
    12
 73
     8
 74
     0
 42
0.000000001
 43
0.00000001
 40
0.0
 40
0.0
 40
0.0
 40
0.0
 40
0.2500000000000001
 40
0.2500000000000001
 40
0.5000000000000001
 40
0.5000000000000001
 40
1.0
 40
1.0
 40
1.0
 40
1.0
 10
141.0121660242951
 20
87.24210966478653
 30
0.0
 10
140.989453522587
 20
87.513414103159
 30
0.0
 10
140.9819410027575
 20
87.78552630171933
 30
0.0
 10
140.980384928057
 20
88.33123598619113
 30
0.0
 10
140.986811769898
 20
88.60463194035358
 30
0.0
 10
141.0170367701988
 20
89.42485381742286
 30
0.0
 10
141.0517322913158
 20
89.97318921473861
 30
0.0
 10
141.0859088563171
 20
90.52082892693753
 30
0.0
  0
SPLINE
  5
92
330
1F
100
AcDbEntity
  8
0
  6
Continuous
 62
     7
370
    25
100
AcDbSpline
210
0.0
220
0.0
230
1.0
 70
     8
 71
     3
 72
    12
 73
     8
 74
     0
 42
0.000000001
 43
0.00000001
 40
0.0
 40
0.0
 40
0.0
 40
0.0
 40
0.2500000000000001
 40
0.2500000000000001
 40
0.5000000000000001
 40
0.5000000000000001
 40
1.0
 40
1.0
 40
1.0
 40
1.0
 10
141.438423192273
 20
87.3846626761844
 30
0.0
 10
141.3903812216431
 20
87.63663077737047
 30
0.0
 10
141.3536875789995
 20
87.89222929602805
 30
0.0
 10
141.2876968975748
 20
88.40875566088889
 30
0.0
 10
141.2589234093978
 20
88.67017582020932
 30
0.0
 10
141.1784477023871
 20
89.45785957454774
 30
0.0
 10
141.1323179991439
 20
89.98987114718302
 30
0.0
 10
141.0859088563171
 20
90.52082892693753
 30
0.0
  0
SPLINE
  5
93
330
1F
100
AcDbEntity
  8
0
  6
Continuous
 62
     7
370
    25
100
AcDbSpline
210
0.0
220
0.0
230
1.0
 70
     8
 71
     3
 72
    12
 73
     8
 74
     0
 42
0.000000001
 43
0.00000001
 40
0.0
 40
0.0
 40
0.0
 40
0.0
 40
0.2500000000000001
 40
0.2500000000000001
 40
0.5000000000000001
 40
0.5000000000000001
 40
1.0
 40
1.0
 40
1.0
 40
1.0
 10
140.5859088563171
 20
87.24210966478653
 30
0.0
 10
140.5859088563171
 20
87.51963167069633
 30
0.0
 10
140.6056318017251
 20
87.7957679976291
 30
0.0
 10
140.6662682664863
 20
88.34655186104168
 30
0.0
 10
140.7075248121747
 20
88.62076025756706
 30
0.0
 10
140.8492981218467
 20
89.43891653521585
 30
0.0
 10
140.9678651670071
 20
89.97987945032087
 30
0.0
 10
141.0859088563171
 20
90.52082892693753
 30
0.0
  0
LINE
  5
94
330
1F
100
AcDbEntity
  8
0
  6
Continuous
 62
     7
370
    25
100
AcDbLine
 10
140.5859088563
 20
87.2421096648
 30
0.0
 11
141.0121660243
 21
87.2421096648
 31
0.0
  0
LINE
  5
95
330
1F
100
AcDbEntity
  8
0
  6
Continuous
 62
     7
370
    25
100
AcDbLine
 10
140.5859088563
 20
93.7995481891
 30
0.0
 11
141.0121660243
 21
93.7995481891
 31
0.0
  0
SPLINE
  5
96
330
1F
100
AcDbEntity
  8
0
  6
Continuous
 62
     7
370
    25
100
AcDbSpline
210
0.0
220
0.0
230
1.0
 70
     8
 71
     3
 72
    12
 73
     8
 74
     0
 42
0.000000001
 43
0.00000001
 40
0.0
 40
0.0
 40
0.0
 40
0.0
 40
0.25
 40
0.25
 40
0.5
 40
0.5
 40
1.0
 40
1.0
 40
1.0
 40
1.0
 10
141.0121660242951
 20
93.79954818908851
 30
0.0
 10
140.989453522586
 20
93.52824375070345
 30
0.0
 10
140.9819410027567
 20
93.25613155213044
 30
0.0
 10
140.9803849280576
 20
92.71042186763319
 30
0.0
 10
140.9868117698996
 20
92.43702591345806
 30
0.0
 10
141.017036770204
 20
91.61680403635062
 30
0.0
 10
141.0517322913282
 20
91.0684686391641
 30
0.0
 10
141.0859088563171
 20
90.52082892693753
 30
0.0
  0
SPLINE
  5
97
330
1F
100
AcDbEntity
  8
0
  6
Continuous
 62
     7
370
    25
100
AcDbSpline
210
0.0
220
0.0
230
1.0
 70
     8
 71
     3
 72
    12
 73
     8
 74
     0
 42
0.000000001
 43
0.00000001
 40
0.0
 40
0.0
 40
0.0
 40
0.0
 40
0.2499999999999999
 40
0.2499999999999999
 40
0.4999999999999999
 40
0.4999999999999999
 40
1.0
 40
1.0
 40
1.0
 40
1.0
 10
140.5859088563171
 20
93.79954818908854
 30
0.0
 10
140.5859088563171
 20
93.52202618317871
 30
0.0
 10
140.6056318017251
 20
93.24588985624597
 30
0.0
 10
140.6662682664863
 20
92.69510599283339
 30
0.0
 10
140.7075248121747
 20
92.42089759630801
 30
0.0
 10
140.8492981218467
 20
91.60274131865921
 30
0.0
 10
140.9678651670071
 20
91.0617784035542
 30
0.0
 10
141.0859088563171
 20
90.52082892693753
 30
0.0
  0
ARC
  5
98
330
1F
100
AcDbEntity
  8
0
  6
Continuous
 62
     7
370
    25
100
AcDbCircle
 10
141.5969466314
 20
94.8395729269
 30
0.0
 40
1.193155402138369
100
AcDbArc
 50
240.652011186
 51
262.3650684338
  0
SPLINE
  5
99
330
1F
100
AcDbEntity
  8
0
  6
Continuous
 62
     7
370
    25
100
AcDbSpline
210
0.0
220
0.0
230
1.0
 70
     8
 71
     3
 72
    12
 73
     8
 74
     0
 42
0.000000001
 43
0.00000001
 40
0.0
 40
0.0
 40
0.0
 40
0.0
 40
0.25
 40
0.25
 40
0.5
 40
0.5
 40
1.0
 40
1.0
 40
1.0
 40
1.0
 10
141.438423192273
 20
93.65699517769056
 30
0.0
 10
141.3903979746303
 20
93.40511494172566
 30
0.0
 10
141.3537137043554
 20
93.14960675124199
 30
0.0
 10
141.287739811426
 20
92.6332643600621
 30
0.0
 10
141.2589881788577
 20
92.37209530848983
 30
0.0
 10
141.1784332780678
 20
91.58369840961643
 30
0.0
 10
141.132301801448
 20
91.051601554641
 30
0.0
 10
141.0859088563171
 20
90.52082892693753
 30
0.0
  0
SPLINE
  5
9A
330
1F
100
AcDbEntity
  8
0
  6
Continuous
 62
     7
370
    25
100
AcDbSpline
210
0.0
220
0.0
230
1.0
 70
     8
 71
     3
 72
    12
 73
     8
 74
     0
 42
0.000000001
 43
0.00000001
 40
0.0
 40
0.0
 40
0.0
 40
0.0
 40
0.2500000000000001
 40
0.2500000000000001
 40
0.5000000000000001
 40
0.5000000000000001
 40
1.0
 40
1.0
 40
1.0
 40
1.0
 10
133.3646281184681
 20
101.0208289269375
 30
0.0
 10
133.0871061125583
 20
101.0208289269375
 30
0.0
 10
132.8109697856255
 20
101.0405518723454
 30
0.0
 10
132.260185922213
 20
101.1011883371067
 30
0.0
 10
131.9859775256876
 20
101.1424448827951
 30
0.0
 10
131.1678212480388
 20
101.2842181924672
 30
0.0
 10
130.6268583329338
 20
101.4027852376275
 30
0.0
 10
130.0859088563171
 20
101.5208289269375
 30
0.0
  0
SPLINE
  5
9B
330
1F
100
AcDbEntity
  8
0
  6
Continuous
 62
     7
370
    25
100
AcDbSpline
210
0.0
220
0.0
230
1.0
 70
     8
 71
     3
 72
    12
 73
     8
 74
     0
 42
0.000000001
 43
0.00000001
 40
0.0
 40
0.0
 40
0.0
 40
0.0
 40
0.2500000000000001
 40
0.2500000000000001
 40
0.5000000000000001
 40
0.5000000000000001
 40
1.0
 40
1.0
 40
1.0
 40
1.0
 10
133.3646281184681
 20
101.4470860949155
 30
0.0
 10
133.0933236800956
 20
101.4243735932074
 30
0.0
 10
132.8212114815353
 20
101.4168610733779
 30
0.0
 10
132.2755017970635
 20
101.4153049986774
 30
0.0
 10
132.0021058429011
 20
101.4217318405184
 30
0.0
 10
131.1818839658318
 20
101.4519568408192
 30
0.0
 10
130.633548568516
 20
101.4866523619363
 30
0.0
 10
130.0859088563171
 20
101.5208289269375
 30
0.0
  0
LINE
  5
9C
330
1F
100
AcDbEntity
  8
0
  6
Continuous
 62
     7
370
    25
100
AcDbLine
 10
133.3646281185
 20
101.0208289269
 30
0.0
 11
133.3646281185
 21
101.4470860949
 31
0.0
  0
LINE
  5
9D
330
1F
100
AcDbEntity
  8
0
  6
Continuous
 62
     7
370
    25
100
AcDbLine
 10
126.8071895942
 20
101.0208289269
 30
0.0
 11
126.8071895942
 21
101.4470860949
 31
0.0
  0
SPLINE
  5
9E
330
1F
100
AcDbEntity
  8
0
  6
Continuous
 62
     7
370
    25
100
AcDbSpline
210
0.0
220
0.0
230
1.0
 70
     8
 71
     3
 72
    12
 73
     8
 74
     0
 42
0.000000001
 43
0.00000001
 40
0.0
 40
0.0
 40
0.0
 40
0.0
 40
0.2499999999999999
 40
0.2499999999999999
 40
0.4999999999999999
 40
0.4999999999999999
 40
1.0
 40
1.0
 40
1.0
 40
1.0
 10
126.8071895941661
 20
101.4470860949155
 30
0.0
 10
127.0784940325512
 20
101.4243735932064
 30
0.0
 10
127.3506062311242
 20
101.4168610733772
 30
0.0
 10
127.8963159156214
 20
101.415304998678
 30
0.0
 10
128.1697118697966
 20
101.42173184052
 30
0.0
 10
128.989933746904
 20
101.4519568408244
 30
0.0
 10
129.5382691440905
 20
101.4866523619486
 30
0.0
 10
130.0859088563171
 20
101.5208289269375
 30
0.0
  0
SPLINE
  5
9F
330
1F
100
AcDbEntity
  8
0
  6
Continuous
 62
     7
370
    25
100
AcDbSpline
210
0.0
220
0.0
230
1.0
 70
     8
 71
     3
 72
    12
 73
     8
 74
     0
 42
0.000000001
 43
0.00000001
 40
0.0
 40
0.0
 40
0.0
 40
0.0
 40
0.2500000000000001
 40
0.2500000000000001
 40
0.5000000000000002
 40
0.5000000000000002
 40
1.0
 40
1.0
 40
1.0
 40
1.0
 10
126.8071895941661
 20
101.0208289269375
 30
0.0
 10
127.0847116000759
 20
101.0208289269375
 30
0.0
 10
127.3608479270087
 20
101.0405518723455
 30
0.0
 10
127.9116317904213
 20
101.1011883371067
 30
0.0
 10
128.1858401869466
 20
101.1424448827951
 30
0.0
 10
129.0039964645954
 20
101.2842181924672
 30
0.0
 10
129.5449593797005
 20
101.4027852376275
 30
0.0
 10
130.0859088563171
 20
101.5208289269375
 30
0.0
  0
ARC
  5
A0
330
1F
100
AcDbEntity
  8
0
  6
Continuous
 62
     7
370
    25
100
AcDbCircle
 10
134.4046528563
 20
102.031866702
 30
0.0
 40
1.193155402138937
100
AcDbArc
 50
187.6349315662
 51
209.347988814
  0
SPLINE
  5
A1
330
1F
100
AcDbEntity
  8
0
  6
Continuous
 62
     7
370
    25
100
AcDbSpline
210
0.0
220
0.0
230
1.0
 70
     8
 71
     3
 72
    12
 73
     8
 74
     0
 42
0.000000001
 43
0.00000001
 40
0.0
 40
0.0
 40
0.0
 40
0.0
 40
0.25
 40
0.25
 40
0.5
 40
0.5
 40
1.0
 40
1.0
 40
1.0
 40
1.0
 10
133.2220751070702
 20
101.8733432628934
 30
0.0
 10
132.9701070058842
 20
101.8253012922635
 30
0.0
 10
132.7145084872266
 20
101.7886076496199
 30
0.0
 10
132.1979821223657
 20
101.7226169681952
 30
0.0
 10
131.9365619630453
 20
101.6938434800183
 30
0.0
 10
131.1488782087069
 20
101.6133677730075
 30
0.0
 10
130.6168666360716
 20
101.5672380697643
 30
0.0
 10
130.0859088563171
 20
101.5208289269375
 30
0.0
  0
ARC
  5
A2
330
1F
100
AcDbEntity
  8
0
  6
Continuous
 62
     7
370
    25
100
AcDbCircle
 10
125.7671648564
 20
102.031866702
 30
0.0
 40
1.193155402138898
100
AcDbArc
 50
330.652011186
 51
352.3650684338
  0
SPLINE
  5
A3
330
1F
100
AcDbEntity
  8
0
  6
Continuous
 62
     7
370
    25
100
AcDbSpline
210
0.0
220
0.0
230
1.0
 70
     8
 71
     3
 72
    12
 73
     8
 74
     0
 42
0.000000001
 43
0.00000001
 40
0.0
 40
0.0
 40
0.0
 40
0.0
 40
0.2499999999999999
 40
0.2499999999999999
 40
0.4999999999999999
 40
0.4999999999999999
 40
1.0
 40
1.0
 40
1.0
 40
1.0
 10
126.9497426055641
 20
101.8733432628934
 30
0.0
 10
127.201622841529
 20
101.8253180452507
 30
0.0
 10
127.4571310320126
 20
101.7886337749758
 30
0.0
 10
127.9734734231925
 20
101.7226598820464
 30
0.0
 10
128.2346424747648
 20
101.6939082494782
 30
0.0
 10
129.0230393736382
 20
101.6133533486882
 30
0.0
 10
129.5551362286136
 20
101.5672218720684
 30
0.0
 10
130.0859088563171
 20
101.5208289269375
 30
0.0
  0
LINE
  5
A4
330
1F
100
AcDbEntity
  8
0
  6
Continuous
 62
     7
370
    25
100
AcDbLine
 10
140.5859088563
 20
93.7995481891
 30
0.0
 11
140.5859088563
 21
100.1066153646
 31
0.0
  0
SPLINE
  5
A5
330
1F
100
AcDbEntity
  8
0
  6
Continuous
 62
     7
370
    25
100
AcDbSpline
210
0.0
220
0.0
230
1.0
 70
     8
 71
     3
 72
    12
 73
     8
 74
     0
 42
0.000000001
 43
0.00000001
 40
0.0
 40
0.0
 40
0.0
 40
0.0
 40
0.2499999999999993
 40
0.2499999999999993
 40
0.4999999999999987
 40
0.4999999999999987
 40
1.0
 40
1.0
 40
1.0
 40
1.0
 10
141.0859088563171
 20
100.5208289269375
 30
0.0
 10
141.0859088563171
 20
100.5208289269375
 30
0.0
 10
141.0680815606208
 20
100.5027634990466
 30
0.0
 10
141.0087914613664
 20
100.4461022575114
 30
0.0
 10
140.9681939500033
 20
100.4085798979892
 30
0.0
 10
140.8269094063143
 20
100.2860531338962
 30
0.0
 10
140.7080709171283
 20
100.1930783253997
 30
0.0
 10
140.5859088563171
 20
100.1066153645644
 30
0.0
  0
LINE
  5
A6
330
1F
100
AcDbEntity
  8
0
  6
Continuous
 62
     7
370
    25
100
AcDbLine
 10
141.0859088563
 20
100.5208289269
 30
0.0
 11
141.0859088563
 21
95.2112446868
 31
0.0
  0
SPLINE
  5
A7
330
1F
100
AcDbEntity
  8
0
  6
Continuous
 62
     7
370
    25
100
AcDbSpline
210
0.0
220
0.0
230
1.0
 70
     8
 71
     3
 72
     8
 73
     4
 74
     0
 42
0.000000001
 43
0.00000001
 40
0.0
 40
0.0
 40
0.0
 40
0.0
 40
1.0
 40
1.0
 40
1.0
 40
1.0
 10
141.0121660242951
 20
93.79954818908851
 30
0.0
 10
141.0552472091335
 20
94.2719891450423
 30
0.0
 10
141.0859088563171
 20
94.74311432340173
 30
0.0
 10
141.0859088563171
 20
95.21124468676096
 30
0.0
  0
ARC
  5
A8
330
1F
100
AcDbEntity
  8
0
  6
Continuous
 62
     7
370
    25
100
AcDbCircle
 10
141.0859088563
 20
101.5208289269
 30
0.0
 40
1.500000000000011
100
AcDbArc
 50
199.4712206345
 51
250.5287793655
  0
SPLINE
  5
A9
330
1F
100
AcDbEntity
  8
0
  6
Continuous
 62
     7
370
    25
100
AcDbSpline
210
0.0
220
0.0
230
1.0
 70
     8
 71
     3
 72
    12
 73
     8
 74
     0
 42
0.000000001
 43
0.00000001
 40
0.0
 40
0.0
 40
0.0
 40
0.0
 40
0.2499999999999999
 40
0.2499999999999999
 40
0.4999999999999999
 40
0.4999999999999999
 40
1.0
 40
1.0
 40
1.0
 40
1.0
 10
140.0859088563171
 20
101.5208289269375
 30
0.0
 10
140.0859088563171
 20
101.5208289269375
 30
0.0
 10
140.0678434284261
 20
101.5030016312412
 30
0.0
 10
140.0111821868909
 20
101.4437115319868
 30
0.0
 10
139.9736598273688
 20
101.4031140206237
 30
0.0
 10
139.8511330632758
 20
101.2618294769347
 30
0.0
 10
139.7581582547795
 20
101.1429909877485
 30
0.0
 10
139.671695293944
 20
101.0208289269375
 30
0.0
  0
ARC
  5
AA
330
1F
100
AcDbEntity
  8
0
  6
Continuous
 62
     7
370
    25
100
AcDbCircle
 10
141.0859088563
 20
101.5208289269
 30
0.0
 40
1.0
100
AcDbArc
 50
180.0
 51
270.0
  0
ARC
  5
AB
330
1F
100
AcDbEntity
  8
0
  6
Continuous
 62
     7
370
    25
100
AcDbCircle
 10
120.5859088563
 20
101.0208289269
 30
0.0
 40
0.5
100
AcDbArc
 50
90.0
 51
180.0
  0
LINE
  5
AC
330
1F
100
AcDbEntity
  8
0
  6
Continuous
 62
     7
370
    25
100
AcDbLine
 10
120.5859088563
 20
101.5208289269
 30
0.0
 11
120.5859088563
 21
101.0208289269
 31
0.0
  0
LINE
  5
AD
330
1F
100
AcDbEntity
  8
0
  6
Continuous
 62
     7
370
    25
100
AcDbLine
 10
120.5859088563
 20
101.0208289269
 30
0.0
 11
120.0859088563
 21
101.0208289269
 31
0.0
  0
LINE
  5
AE
330
1F
100
AcDbEntity
  8
0
  6
Continuous
 62
     7
370
    25
100
AcDbLine
 10
120.5859088563
 20
84.5208289269
 30
0.0
 11
120.0859088563
 21
84.5208289269
 31
0.0
  0
LINE
  5
AF
330
1F
100
AcDbEntity
  8
0
  6
Continuous
 62
     7
370
    25
100
AcDbLine
 10
120.0859088563
 20
84.5208289269
 30
0.0
 11
120.0859088563
 21
101.0208289269
 31
0.0
  0
LINE
  5
B0
330
1F
100
AcDbEntity
  8
0
  6
Continuous
 62
     7
370
    25
100
AcDbLine
 10
120.5859088563
 20
101.0208289269
 30
0.0
 11
120.5859088563
 21
84.5208289269
 31
0.0
  0
SPLINE
  5
B1
330
1F
100
AcDbEntity
  8
0
  6
Continuous
 62
     7
370
    25
100
AcDbSpline
210
0.0
220
0.0
230
1.0
 70
     8
 71
     3
 72
     8
 73
     4
 74
     0
 42
0.000000001
 43
0.00000001
 40
0.0
 40
0.0
 40
0.0
 40
0.0
 40
1.0
 40
1.0
 40
1.0
 40
1.0
 10
126.8071895941661
 20
101.4470860949155
 30
0.0
 10
126.3347486382123
 20
101.4901672797539
 30
0.0
 10
125.8636234598529
 20
101.5208289269375
 30
0.0
 10
125.3954930964937
 20
101.5208289269375
 30
0.0
  0
LINE
  5
B2
330
1F
100
AcDbEntity
  8
0
  6
Continuous
 62
     7
370
    25
100
AcDbLine
 10
126.8071895942
 20
101.0208289269
 30
0.0
 11
120.5859088563
 21
101.0208289269
 31
0.0
  0
LINE
  5
B3
330
1F
100
AcDbEntity
  8
0
  6
Continuous
 62
     7
370
    25
100
AcDbLine
 10
120.5859088563
 20
101.5208289269
 30
0.0
 11
125.3954930965
 21
101.5208289269
 31
0.0
  0
LINE
  5
B4
330
1F
100
AcDbEntity
  8
0
  6
Continuous
 62
     7
370
    25
100
AcDbLine
 10
139.6716952939
 20
101.0208289269
 30
0.0
 11
133.3646281185
 21
101.0208289269
 31
0.0
  0
SPLINE
  5
B5
330
1F
100
AcDbEntity
  8
0
  6
Continuous
 62
     7
370
    25
100
AcDbSpline
210
0.0
220
0.0
230
1.0
 70
     8
 71
     3
 72
     8
 73
     4
 74
     0
 42
0.000000001
 43
0.00000001
 40
0.0
 40
0.0
 40
0.0
 40
0.0
 40
1.0
 40
1.0
 40
1.0
 40
1.0
 10
134.7763246161405
 20
101.5208289269375
 30
0.0
 10
134.308100192367
 20
101.5208289269375
 30
0.0
 10
133.8371197079974
 20
101.490171896954
 30
0.0
 10
133.3646281184681
 20
101.4470860949155
 30
0.0
  0
LINE
  5
B6
330
1F
100
AcDbEntity
  8
0
  6
Continuous
 62
     7
370
    25
100
AcDbLine
 10
134.7763246161
 20
101.5208289269
 30
0.0
 11
140.0859088563
 21
101.5208289269
 31
0.0
  0
ARC
  5
B7
330
1F
100
AcDbEntity
  8
0
  6
Continuous
 62
     7
370
    25
100
AcDbCircle
 10
124.0859088563
 20
84.5208289269
 30
0.0
 40
3.5
100
AcDbArc
 50
180.0
 51
270.0
  0
LINE
  5
B8
330
1F
100
AcDbEntity
  8
0
  6
Continuous
 62
     7
370
    25
100
AcDbLine
 10
124.0859088563
 20
81.0208289269
 30
0.0
 11
124.0859088563
 21
80.5208289269
 31
0.0
  0
ARC
  5
B9
330
1F
100
AcDbEntity
  8
0
  6
Continuous
 62
     7
370
    25
100
AcDbCircle
 10
124.0859088563
 20
84.5208289269
 30
0.0
 40
4.0
100
AcDbArc
 50
180.0
 51
270.0
  0
SPLINE
  5
BA
330
1F
100
AcDbEntity
  8
0
  6
Continuous
 62
     7
370
    25
100
AcDbSpline
210
0.0
220
0.0
230
1.0
 70
     8
 71
     3
 72
     8
 73
     4
 74
     0
 42
0.000000001
 43
0.00000001
 40
0.0
 40
0.0
 40
0.0
 40
0.0
 40
1.0
 40
1.0
 40
1.0
 40
1.0
 10
141.438423192273
 20
87.3846626761844
 30
0.0
 10
141.5256143718315
 20
86.9273667812517
 30
0.0
 10
141.5859088563171
 20
86.47812658501782
 30
0.0
 10
141.5859088563171
 20
86.03434428710642
 30
0.0
  0
SPLINE
  5
BB
330
1F
100
AcDbEntity
  8
0
  6
Continuous
 62
     7
370
    25
100
AcDbSpline
210
0.0
220
0.0
230
1.0
 70
     8
 71
     3
 72
     8
 73
     4
 74
     0
 42
0.000000001
 43
0.00000001
 40
0.0
 40
0.0
 40
0.0
 40
0.0
 40
1.0
 40
1.0
 40
1.0
 40
1.0
 10
141.5859088563171
 20
95.00731356676864
 30
0.0
 10
141.5859088563171
 20
94.56353126885722
 30
0.0
 10
141.5256143718315
 20
94.11429107262329
 30
0.0
 10
141.438423192273
 20
93.65699517769056
 30
0.0
  0
LINE
  5
BC
330
1F
100
AcDbEntity
  8
0
  6
Continuous
 62
     7
370
    25
100
AcDbLine
 10
141.5859088563
 20
101.0425673248
 30
0.0
 11
141.5859088563
 21
95.0073135668
 31
0.0
  0
SPLINE
  5
BD
330
1F
100
AcDbEntity
  8
0
  6
Continuous
 62
     7
370
    25
100
AcDbSpline
210
0.0
220
0.0
230
1.0
 70
     8
 71
     3
 72
    14
 73
    10
 74
     0
 42
0.000000001
 43
0.00000001
 40
0.0
 40
0.0
 40
0.0
 40
0.0
 40
0.1250000000000012
 40
0.1250000000000012
 40
0.2500000000000024
 40
0.2500000000000024
 40
0.500000000000002
 40
0.500000000000002
 40
1.0
 40
1.0
 40
1.0
 40
1.0
 10
141.0442433052608
 20
100.5659706196807
 30
0.0
 10
141.1109273819467
 20
100.5606368131501
 30
0.0
 10
141.1801004278244
 20
100.5697727264745
 30
0.0
 10
141.288001015946
 20
100.6017895049296
 30
0.0
 10
141.3300317298616
 20
100.6232553215405
 30
0.0
 10
141.4346612250719
 20
100.6905509561238
 30
0.0
 10
141.4761958946779
 20
100.7385363550848
 30
0.0
 10
141.5696748208644
 20
100.8786027081347
 30
0.0
 10
141.5859087320035
 20
100.9649372379846
 30
0.0
 10
141.5859088563165
 20
101.042567324807
 30
0.0
  0
SPLINE
  5
BE
330
1F
100
AcDbEntity
  8
0
  6
Continuous
 62
     7
370
    25
100
AcDbSpline
210
0.0
220
0.0
230
1.0
 70
     8
 71
     3
 72
     8
 73
     4
 74
     0
 42
0.000000001
 43
0.00000001
 40
0.0
 40
0.0
 40
0.0
 40
0.0
 40
1.0
 40
1.0
 40
1.0
 40
1.0
 10
124.0859088563171
 20
80.47735066606796
 30
0.0
 10
123.9575107509868
 20
80.47735066606796
 30
0.0
 10
123.8303927233612
 20
80.48259523951138
 30
0.0
 10
123.7044676272114
 20
80.49284203581159
 30
0.0
  0
LINE
  5
BF
330
1F
100
AcDbEntity
  8
0
  6
Continuous
 62
     7
370
    25
100
AcDbLine
 10
140.5859088563
 20
80.4773506661
 30
0.0
 11
124.0859088563
 21
80.4773506661
 31
0.0
  0
SPLINE
  5
C0
330
1F
100
AcDbEntity
  8
0
  6
Continuous
 62
     7
370
    25
100
AcDbSpline
210
0.0
220
0.0
230
1.0
 70
     8
 71
     3
 72
    16
 73
    12
 74
     0
 42
0.000000001
 43
0.00000001
 40
0.0
 40
0.0
 40
0.0
 40
0.0
 40
0.1249999999999998
 40
0.1249999999999998
 40
0.2499999999999995
 40
0.2499999999999995
 40
0.4999999999999997
 40
0.4999999999999997
 40
0.7499999999999998
 40
0.7499999999999998
 40
1.0
 40
1.0
 40
1.0
 40
1.0
 10
140.5859088563171
 20
80.47735066606796
 30
0.0
 10
140.6860772028568
 20
80.47735066606796
 30
0.0
 10
140.7824257454158
 20
80.49241176644841
 30
0.0
 10
140.947366522605
 20
80.53824734360649
 30
0.0
 10
141.0178275743191
 20
80.56853596240565
 30
0.0
 10
141.2020082863468
 20
80.66844744907475
 30
0.0
 10
141.2933203626964
 20
80.74869729235252
 30
0.0
 10
141.4389173102946
 20
80.9224049709778
 30
0.0
 10
141.4928462672451
 20
81.01728535578742
 30
0.0
 10
141.5660659001903
 20
81.21678670980619
 30
0.0
 10
141.5859088563171
 20
81.32217743050724
 30
0.0
 10
141.5859088563171
 20
81.4338724051984
 30
0.0
  0
LINE
  5
C1
330
1F
100
AcDbEntity
  8
0
  6
Continuous
 62
     7
370
    25
100
AcDbLine
 10
141.5859088563
 20
86.0343442871
 30
0.0
 11
141.5859088563
 21
81.4338724052
 31
0.0
  0
ELLIPSE
  5
C2
330
1F
100
AcDbEntity
  8
0
  6
Continuous
 62
     7
370
    25
100
AcDbEllipse
 10
137.0862783058
 20
86.8740999758
 30
0.0
 11
0.6783923571545643
 21
9.379164112033324E-13
 31
0.0
210
0.0
220
0.0
230
1.0
 40
0.9531667975
 41
0.4357918987543226
 42
2.705800754832838
  0
LINE
  5
C3
330
1F
100
AcDbEntity
  8
0
  6
Continuous
 62
     7
370
    25
100
AcDbLine
 10
135.1607763281
 20
83.4829153152
 30
0.0
 11
136.4712911824
 21
87.1470571057
 31
0.0
  0
ELLIPSE
  5
C4
330
1F
100
AcDbEntity
  8
0
  6
Continuous
 62
     7
370
    25
100
AcDbEllipse
 10
134.49256921
 20
83.7000446921
 30
0.0
 11
-0.705969282241881
 21
8.526512829121202E-14
 31
0.0
210
0.0
220
0.0
230
1.0
 40
0.9531667975
 41
1.047197551197121
 42
2.813039483038422
  0
LINE
  5
C5
330
1F
100
AcDbEntity
  8
0
  6
Continuous
 62
     7
370
    25
100
AcDbLine
 10
134.0859088563
 20
83.1468289269
 30
0.0
 11
134.1395845688
 21
83.1172905862
 31
0.0
  0
LINE
  5
C6
330
1F
100
AcDbEntity
  8
0
  6
Continuous
 62
     7
370
    25
100
AcDbLine
 10
134.9145210103
 20
81.5672177406
 30
0.0
 11
134.0859088563
 21
83.1468289269
 31
0.0
  0
ELLIPSE
  5
C7
330
1F
100
AcDbEntity
  8
0
  6
Continuous
 62
     7
370
    25
100
AcDbEllipse
 10
134.9934507755
 20
81.6048343564
 30
0.0
 11
0.08824616028027776
 21
0.0
 31
0.0
210
0.0
220
0.0
230
1.0
 40
0.9531667975
 41
3.605240262590486
 42
5.462183310215041
  0
ELLIPSE
  5
C8
330
1F
100
AcDbEntity
  8
0
  6
Continuous
 62
     7
370
    25
100
AcDbEllipse
 10
137.0862783058
 20
79.4626659494
 30
0.0
 11
2.982720217472945
 21
-5.115907697472722E-13
 31
0.0
210
0.0
220
0.0
230
1.0
 40
0.9531667975
 41
0.8210019969646152
 42
2.320590656625472
  0
ELLIPSE
  5
C9
330
1F
100
AcDbEntity
  8
0
  6
Continuous
 62
     7
370
    25
100
AcDbEllipse
 10
139.1791058362
 20
81.6048343564
 30
0.0
 11
0.08824616028022091
 21
2.842170943040400E-14
 31
0.0
210
0.0
220
0.0
230
1.0
 40
0.9531667975
 41
3.962594650553657
 42
5.819537698178563
  0
LINE
  5
CA
330
1F
100
AcDbEntity
  8
0
  6
Continuous
 62
     7
370
    25
100
AcDbLine
 10
140.0866477554
 20
83.1468289269
 30
0.0
 11
139.2580356014
 21
81.5672177406
 31
0.0
  0
LINE
  5
CB
330
1F
100
AcDbEntity
  8
0
  6
Continuous
 62
     7
370
    25
100
AcDbLine
 10
140.0433056492
 20
83.1220606326
 30
0.0
 11
140.0866477554
 21
83.1468289269
 31
0.0
  0
ELLIPSE
  5
CC
330
1F
100
AcDbEntity
  8
0
  6
Continuous
 62
     7
370
    25
100
AcDbEllipse
 10
139.6802928709
 20
83.6991906138
 30
0.0
 11
-0.7059692822421368
 21
-1.847411112976260E-13
 31
0.0
210
0.0
220
0.0
230
1.0
 40
0.9531667975
 41
0.3285531705511965
 42
2.110876526947596
  0
LINE
  5
CD
330
1F
100
AcDbEntity
  8
0
  6
Continuous
 62
     7
370
    25
100
AcDbLine
 10
137.7012654293
 20
87.1470571057
 30
0.0
 11
139.0120857527
 21
83.4820612369
 31
0.0
  0
LINE
  5
CE
330
1F
100
AcDbEntity
  8
0
  6
Continuous
 62
     7
370
    25
100
AcDbLine
 10
140.5859088563
 20
81.0208289269
 30
0.0
 11
140.5859088563
 21
87.2421096648
 31
0.0
  0
LINE
  5
CF
330
1F
100
AcDbEntity
  8
0
  6
Continuous
 62
     7
370
    25
100
AcDbLine
 10
124.0859088563
 20
81.0208289269
 30
0.0
 11
140.5859088563
 21
81.0208289269
 31
0.0
  0
LINE
  5
D0
330
1F
100
AcDbEntity
  8
0
  6
Continuous
 62
     7
370
    25
100
AcDbLine
 10
140.5859088563
 20
80.5208289269
 30
0.0
 11
140.5859088563
 21
81.0208289269
 31
0.0
  0
LINE
  5
D1
330
1F
100
AcDbEntity
  8
0
  6
Continuous
 62
     7
370
    25
100
AcDbLine
 10
140.5859088563
 20
80.5208289269
 30
0.0
 11
124.0859088563
 21
80.5208289269
 31
0.0
  0
SPLINE
  5
D2
330
1F
100
AcDbEntity
  8
0
  6
Continuous
 62
     7
370
    25
100
AcDbSpline
210
0.0
220
0.0
230
1.0
 70
     8
 71
     3
 72
     8
 73
     4
 74
     0
 42
0.000000001
 43
0.00000001
 40
0.0
 40
0.0
 40
0.0
 40
0.0
 40
1.0
 40
1.0
 40
1.0
 40
1.0
 10
141.0859088563171
 20
85.83041316711409
 30
0.0
 10
141.0859088563171
 20
86.29863759088765
 30
0.0
 10
141.0552518263335
 20
86.76961807525727
 30
0.0
 10
141.0121660242951
 20
87.24210966478653
 30
0.0
  0
LINE
  5
D3
330
1F
100
AcDbEntity
  8
0
  6
Continuous
 62
     7
370
    25
100
AcDbLine
 10
141.0859088563
 20
85.8304131671
 30
0.0
 11
141.0859088563
 21
81.0208289269
 31
0.0
  0
LINE
  5
D4
330
1F
100
AcDbEntity
  8
0
  6
Continuous
 62
     7
370
    25
100
AcDbLine
 10
140.5859088563
 20
81.0208289269
 30
0.0
 11
141.0859088563
 21
81.0208289269
 31
0.0
  0
SPLINE
  5
D5
330
1F
100
AcDbEntity
  8
0
  6
Continuous
 62
     7
370
    25
100
AcDbSpline
210
0.0
220
0.0
230
1.0
 70
     8
 71
     3
 72
    14
 73
    10
 74
     0
 42
0.000000001
 43
0.00000001
 40
0.0
 40
0.0
 40
0.0
 40
0.0
 40
0.4999999999999986
 40
0.4999999999999986
 40
0.7499999999999978
 40
0.7499999999999978
 40
0.8749999999999989
 40
0.8749999999999989
 40
1.0
 40
1.0
 40
1.0
 40
1.0
 10
140.6076472520353
 20
102.0208289269369
 30
0.0
 10
140.5300171639521
 20
102.0208288022588
 30
0.0
 10
140.4436826327853
 20
102.004594890175
 30
0.0
 10
140.3036162787045
 20
101.9111159605311
 30
0.0
 10
140.255630878407
 20
101.8695812890627
 30
0.0
 10
140.1883352427657
 20
101.7649517856019
 30
0.0
 10
140.166869426399
 20
101.7229210687308
 30
0.0
 10
140.1348526506491
 20
101.6150204720804
 30
0.0
 10
140.1257167410917
 20
101.5458474214388
 30
0.0
 10
140.1310505514974
 20
101.479163345412
 30
0.0
  0
LINE
  5
D6
330
1F
100
AcDbEntity
  8
0
  6
Continuous
 62
     7
370
    25
100
AcDbLine
 10
134.5723934961
 20
102.0208289269
 30
0.0
 11
140.607647252
 21
102.0208289269
 31
0.0
  0
SPLINE
  5
D7
330
1F
100
AcDbEntity
  8
0
  6
Continuous
 62
     7
370
    25
100
AcDbSpline
210
0.0
220
0.0
230
1.0
 70
     8
 71
     3
 72
     8
 73
     4
 74
     0
 42
0.000000001
 43
0.00000001
 40
0.0
 40
0.0
 40
0.0
 40
0.0
 40
1.0
 40
1.0
 40
1.0
 40
1.0
 10
133.2220751070702
 20
101.8733432628934
 30
0.0
 10
133.6793710020029
 20
101.9605344424519
 30
0.0
 10
134.1286111982368
 20
102.0208289269375
 30
0.0
 10
134.5723934961482
 20
102.0208289269375
 30
0.0
  0
SPLINE
  5
D8
330
1F
100
AcDbEntity
  8
0
  6
Continuous
 62
     7
370
    25
100
AcDbSpline
210
0.0
220
0.0
230
1.0
 70
     8
 71
     3
 72
     8
 73
     4
 74
     0
 42
0.000000001
 43
0.00000001
 40
0.0
 40
0.0
 40
0.0
 40
0.0
 40
1.0
 40
1.0
 40
1.0
 40
1.0
 10
125.599424216486
 20
102.0208289269375
 30
0.0
 10
126.0432065143974
 20
102.0208289269375
 30
0.0
 10
126.4924467106313
 20
101.9605344424519
 30
0.0
 10
126.9497426055641
 20
101.8733432628934
 30
0.0
  0
LINE
  5
D9
330
1F
100
AcDbEntity
  8
0
  6
Continuous
 62
     7
370
    25
100
AcDbLine
 10
120.9989523346
 20
102.0208289269
 30
0.0
 11
125.5994242165
 21
102.0208289269
 31
0.0
  0
SPLINE
  5
DA
330
1F
100
AcDbEntity
  8
0
  6
Continuous
 62
     7
370
    25
100
AcDbSpline
210
0.0
220
0.0
230
1.0
 70
     8
 71
     3
 72
    18
 73
    14
 74
     0
 42
0.000000001
 43
0.00000001
 40
0.0
 40
0.0
 40
0.0
 40
0.0
 40
0.25
 40
0.25
 40
0.5
 40
0.5
 40
0.625
 40
0.625
 40
0.75
 40
0.75
 40
0.875
 40
0.875
 40
1.0
 40
1.0
 40
1.0
 40
1.0
 10
120.998952334578
 20
102.0208289269375
 30
0.0
 10
120.8871605620023
 20
102.0208289269375
 30
0.0
 10
120.7817845670302
 20
102.0009559574117
 30
0.0
 10
120.5824456891412
 20
101.9277957390189
 30
0.0
 10
120.4876146436951
 20
101.8739190051837
 30
0.0
 10
120.3573427158101
 20
101.7647693491957
 30
0.0
 10
120.3160145041672
 20
101.723760605873
 30
0.0
 10
120.2378443596036
 20
101.6297102918569
 30
0.0
 10
120.2006411981786
 20
101.5762397497598
 30
0.0
 10
120.1336231749207
 20
101.4528256064946
 30
0.0
 10
120.1034441085391
 20
101.382636541771
 30
0.0
 10
120.0574967572035
 20
101.2174343306253
 30
0.0
 10
120.0424305954476
 20
101.1214747491695
 30
0.0
 10
120.0424305954476
 20
101.0208289269375
 30
0.0
  0
LINE
  5
DB
330
1F
100
AcDbEntity
  8
0
  6
Continuous
 62
     7
370
    25
100
AcDbLine
 10
120.0424305954
 20
84.5208289269
 30
0.0
 11
120.0424305954
 21
101.0208289269
 31
0.0
  0
SPLINE
  5
DC
330
1F
100
AcDbEntity
  8
0
  6
Continuous
 62
     7
370
    25
100
AcDbSpline
210
0.0
220
0.0
230
1.0
 70
     8
 71
     3
 72
     8
 73
     4
 74
     0
 42
0.000000001
 43
0.00000001
 40
0.0
 40
0.0
 40
0.0
 40
0.0
 40
1.0
 40
1.0
 40
1.0
 40
1.0
 10
120.0579219659832
 20
84.139387688098
 30
0.0
 10
120.0476751691631
 20
84.26531278740052
 30
0.0
 10
120.0424305954476
 20
84.39243081826714
 30
0.0
 10
120.0424305954476
 20
84.52082892693754
 30
0.0
  0
ARC
  5
DD
330
1F
100
AcDbEntity
  8
0
  6
Continuous
 62
     7
370
    25
100
AcDbCircle
 10
140.5859088563
 20
81.0208289269
 30
0.0
 40
0.5
100
AcDbArc
 50
270.0
 51
0.0
  0
ELLIPSE
  5
DE
330
1F
100
AcDbEntity
  8
0
  6
Continuous
 62
     7
370
    25
100
AcDbEllipse
 10
136.7702692395
 20
83.5673954769
 30
0.0
 11
-0.08824616028027776
 21
0.0
 31
0.0
210
0.0
220
0.0
230
1.0
 40
0.9531667975
 41
5.940161364897907
 42
7.853981633974483
  0
LINE
  5
DF
330
1F
100
AcDbEntity
  8
0
  6
Continuous
 62
     7
370
    25
100
AcDbLine
 10
137.0031732003
 20
84.4390720247
 30
0.0
 11
136.6871641318
 21
83.5956858447
 31
0.0
  0
ELLIPSE
  5
E0
330
1F
100
AcDbEntity
  8
0
  6
Continuous
 62
     7
370
    25
100
AcDbEllipse
 10
137.086278308
 20
84.410781657
 30
0.0
 11
0.08824616028027776
 21
0.0
 31
0.0
210
0.0
220
0.0
230
1.0
 40
0.9531667975
 41
0.3430239394902863
 42
2.798568712238621
  0
LINE
  5
E1
330
1F
100
AcDbEntity
  8
0
  6
Continuous
 62
     7
370
    25
100
AcDbLine
 10
137.4853924805
 20
83.5956858444
 30
0.0
 11
137.1693834157
 21
84.4390720245
 31
0.0
  0
ELLIPSE
  5
E2
330
1F
100
AcDbEntity
  8
0
  6
Continuous
 62
     7
370
    25
100
AcDbEllipse
 10
137.4022873727
 20
83.5673954769
 30
0.0
 11
0.08824616028027776
 21
1.421085471520200E-14
 31
0.0
210
0.0
220
0.0
230
1.0
 40
0.9531667975
 41
4.712388980384549
 42
6.626209245739285
  0
LINE
  5
E3
330
1F
100
AcDbEntity
  8
0
  6
Continuous
 62
     7
370
    25
100
AcDbLine
 10
136.7702692395
 20
83.4832821669
 30
0.0
 11
137.4022873727
 21
83.4832821669
 31
0.0
  0
LWPOLYLINE
  5
E4
330
1F
100
AcDbEntity
  8
0
  6
Continuous
 62
     7
370
    25
100
AcDbPolyline
 90
        9
 70
   128
 43
0.0
 10
134.7763246161
 20
101.5208289269
 10
134.7365396283
 20
101.5304362867
 10
134.6982835552
 20
101.5588891607
 10
134.6630265563
 20
101.6050941208
 10
134.6321235383
 20
101.6672755363
 10
134.6067620869
 20
101.7430438104
 10
134.5879168283
 20
101.8294872108
 10
134.5763119754
 20
101.9232837659
 10
134.5723934961
 20
102.0208289269
  0
LWPOLYLINE
  5
E5
330
1F
100
AcDbEntity
  8
0
  6
Continuous
 62
     7
370
    25
100
AcDbPolyline
 90
        9
 70
   128
 43
0.0
 10
125.3954930965
 20
101.5208289269
 10
125.4352780844
 20
101.5304362867
 10
125.4735341575
 20
101.5588891607
 10
125.5087911563
 20
101.6050941208
 10
125.5396941743
 20
101.6672755363
 10
125.5650556258
 20
101.7430438104
 10
125.5839008843
 20
101.8294872108
 10
125.5955057372
 20
101.9232837659
 10
125.5994242165
 20
102.0208289269
  0
LWPOLYLINE
  5
E6
330
1F
100
AcDbEntity
  8
0
  6
Continuous
 62
     7
370
    25
100
AcDbPolyline
 90
        9
 70
   128
 43
0.0
 10
141.0859088563
 20
95.2112446868
 10
141.0955162161
 20
95.1714596989
 10
141.1239690901
 20
95.1332036258
 10
141.1701740502
 20
95.0979466269
 10
141.2323554657
 20
95.0670436089
 10
141.3081237398
 20
95.0416821575
 10
141.3945671401
 20
95.022836899
 10
141.4883636953
 20
95.0112320461
 10
141.5859088563
 20
95.0073135668
  0
LWPOLYLINE
  5
E7
330
1F
100
AcDbEntity
  8
0
  6
Continuous
 62
     7
370
    25
100
AcDbPolyline
 90
        9
 70
   128
 43
0.0
 10
141.5859088563
 20
86.0343442871
 10
141.4883636953
 20
86.0304258078
 10
141.3945671401
 20
86.0188209549
 10
141.3081237398
 20
85.9999756964
 10
141.2323554657
 20
85.974614245
 10
141.1701740502
 20
85.943711227
 10
141.1239690901
 20
85.9084542281
 10
141.0955162161
 20
85.870198155
 10
141.0859088563
 20
85.8304131671
  0
LINE
  5
E8
330
1F
100
AcDbEntity
  8
0
  6
Continuous
 62
     7
370
    25
100
AcDbLine
 10
159.3895175834
 20
90.5208289269
 30
0.0
 11
159.3895175834
 21
100.8275911542
 31
0.0
  0
LINE
  5
E9
330
1F
100
AcDbEntity
  8
0
  6
Continuous
 62
     7
370
    25
100
AcDbLine
 10
159.3895175834
 20
80.2140666997
 30
0.0
 11
159.3895175834
 21
90.5208289269
 31
0.0
  0
SPLINE
  5
EA
330
1F
100
AcDbEntity
  8
0
  6
Continuous
 62
     7
370
    25
100
AcDbSpline
210
0.0
220
0.0
230
1.0
 70
     8
 71
     3
 72
    10
 73
     6
 74
     0
 42
0.000000001
 43
0.00000001
 40
0.0
 40
0.0
 40
0.0
 40
0.0
 40
0.5
 40
0.5
 40
1.0
 40
1.0
 40
1.0
 40
1.0
 10
141.0859088563171
 20
100.5208289269375
 30
0.0
 10
141.0859088563171
 20
100.5208289269375
 30
0.0
 10
141.1087213089332
 20
100.5201157002745
 30
0.0
 10
141.1967819527693
 20
100.5260151119471
 30
0.0
 10
141.2635770149537
 20
100.5328858671959
 30
0.0
 10
141.347700569613
 20
100.5557045314062
 30
0.0
  0
SPLINE
  5
EB
330
1F
100
AcDbEntity
  8
0
  6
Continuous
 62
     7
370
    25
100
AcDbSpline
210
0.0
220
0.0
230
1.0
 70
     8
 71
     3
 72
    12
 73
     8
 74
     0
 42
0.000000001
 43
0.00000001
 40
0.0
 40
0.0
 40
0.0
 40
0.0
 40
0.2499999999999999
 40
0.2499999999999999
 40
0.4999999999999998
 40
0.4999999999999998
 40
1.0
 40
1.0
 40
1.0
 40
1.0
 10
141.347700569613
 20
100.5557045314062
 30
0.0
 10
141.4088067205428
 20
100.5722796838103
 30
0.0
 10
141.4519030891159
 20
100.6127287215708
 30
0.0
 10
141.5140565726945
 20
100.6991764204376
 30
0.0
 10
141.5339841332317
 20
100.7458164854429
 30
0.0
 10
141.5778208270185
 20
100.8815338965958
 30
0.0
 10
141.5846433297734
 20
100.9673461782633
 30
0.0
 10
141.5859088563166
 20
101.0425676904383
 30
0.0
  0
SPLINE
  5
EC
330
1F
100
AcDbEntity
  8
0
  6
Continuous
 62
     7
370
    25
100
AcDbSpline
210
0.0
220
0.0
230
1.0
 70
     8
 71
     3
 72
    10
 73
     6
 74
     0
 42
0.000000001
 43
0.00000001
 40
0.0
 40
0.0
 40
0.0
 40
0.0
 40
0.5
 40
0.5
 40
1.0
 40
1.0
 40
1.0
 40
1.0
 10
140.1207844607858
 20
101.7826206402334
 30
0.0
 10
140.09796540322
 20
101.6984956354248
 30
0.0
 10
140.091219356163
 20
101.6329529598465
 30
0.0
 10
140.0851923754711
 20
101.5441854128835
 30
0.0
 10
140.0859088563171
 20
101.5208289269375
 30
0.0
 10
140.0859088563171
 20
101.5208289269375
 30
0.0
  0
SPLINE
  5
ED
330
1F
100
AcDbEntity
  8
0
  6
Continuous
 62
     7
370
    25
100
AcDbSpline
210
0.0
220
0.0
230
1.0
 70
     8
 71
     3
 72
    12
 73
     8
 74
     0
 42
0.000000001
 43
0.00000001
 40
0.0
 40
0.0
 40
0.0
 40
0.0
 40
0.5
 40
0.5
 40
0.75
 40
0.75
 40
1.0
 40
1.0
 40
1.0
 40
1.0
 10
140.6076476127841
 20
102.0208289275596
 30
0.0
 10
140.5319105102288
 20
102.0195547248537
 30
0.0
 10
140.4463597135752
 20
102.012656323259
 30
0.0
 10
140.3110467153316
 20
101.9689539986354
 30
0.0
 10
140.2646323278778
 20
101.9491686134389
 30
0.0
 10
140.1781226106828
 20
101.8871266128039
 30
0.0
 10
140.1373820002862
 20
101.8438093236945
 30
0.0
 10
140.1207844607858
 20
101.7826206402334
 30
0.0
  0
ARC
  5
EE
330
1F
100
AcDbEntity
  8
0
  6
Continuous
 62
     7
370
    25
100
AcDbCircle
 10
141.5462113138
 20
80.972774007
 30
0.0
 40
0.4628040921140681
100
AcDbArc
 50
85.0793433281
 51
174.0399926099
  0
ARC
  5
EF
330
1F
100
AcDbEntity
  8
0
  6
Continuous
 62
     7
370
    25
100
AcDbCircle
 10
120.5378539364
 20
101.9811313844
 30
0.0
 40
0.4628040921140117
100
AcDbArc
 50
275.9600073901
 51
4.9206566719
  0
LINE
  5
F0
330
1F
100
AcDbEntity
  8
0
  6
Continuous
 62
     7
370
    25
100
AcDbLine
 10
162.0859088563
 20
99.2708289269
 30
0.0
 11
162.0859088563
 21
81.7708289269
 31
0.0
  0
LINE
  5
F1
330
1F
100
AcDbEntity
  8
0
  6
Continuous
 62
     7
370
    25
100
AcDbLine
 10
140.5859088563
 20
80.4773506661
 30
0.0
 11
140.5859088563
 21
80.5208289269
 31
0.0
  0
LINE
  5
F2
330
1F
100
AcDbEntity
  8
0
  6
Continuous
 62
     7
370
    25
100
AcDbLine
 10
120.0859088563
 20
101.0208289269
 30
0.0
 11
120.0424305954
 21
101.0208289269
 31
0.0
  0
SPLINE
  5
F3
330
1F
100
AcDbEntity
  8
0
  6
Continuous
 62
     7
370
    25
100
AcDbSpline
210
0.0
220
0.0
230
1.0
 70
     8
 71
     3
 72
    18
 73
    14
 74
     0
 42
0.000000001
 43
0.00000001
 40
0.0
 40
0.0
 40
0.0
 40
0.0
 40
0.2500000000000008
 40
0.2500000000000008
 40
0.3750000000000006
 40
0.3750000000000006
 40
0.5000000000000003
 40
0.5000000000000003
 40
0.7499999999999999
 40
0.7499999999999999
 40
0.8749999999999999
 40
0.8749999999999999
 40
1.0
 40
1.0
 40
1.0
 40
1.0
 10
123.7043584528917
 20
80.49289656247555
 30
0.0
 10
123.2379433723869
 20
80.5296814242284
 30
0.0
 10
122.7905736042888
 20
80.64495566797386
 30
0.0
 10
122.1490611226125
 20
80.93804347693276
 30
0.0
 10
121.9429332629008
 20
81.05551215173074
 30
0.0
 10
121.5586417363287
 20
81.32208016832077
 30
0.0
 10
121.3784372750337
 20
81.47205432339415
 30
0.0
 10
120.8751409275028
 20
81.97424710913168
 30
0.0
 10
120.6056156368316
 20
82.36182186771994
 30
0.0
 10
120.3100372414576
 20
83.00554709267735
 30
0.0
 10
120.2321124163821
 20
83.225358779931
 30
0.0
 10
120.1153016479314
 20
83.67501500131188
 30
0.0
 10
120.0763726605778
 20
83.90602358909372
 30
0.0
 10
120.0579764918551
 20
84.1392785235121
 30
0.0
  0
SPLINE
  5
F4
330
1F
100
AcDbEntity
  8
0
  6
Continuous
 62
     7
370
    25
100
AcDbSpline
210
0.0
220
0.0
230
1.0
 70
     8
 71
     3
 72
     8
 73
     4
 74
     0
 42
0.000000001
 43
0.00000001
 40
0.0
 40
0.0
 40
0.0
 40
0.0
 40
1.0
 40
1.0
 40
1.0
 40
1.0
 10
120.0579219659832
 20
84.139387688098
 30
0.0
 10
120.0868638506811
 20
84.15396318392308
 30
0.0
 10
120.1014311915709
 20
84.16853033523505
 30
0.0
 10
120.100304877421
 20
84.18177004796905
 30
0.0
  0
SPLINE
  5
F5
330
1F
100
AcDbEntity
  8
0
  6
Continuous
 62
     7
370
    25
100
AcDbSpline
210
0.0
220
0.0
230
1.0
 70
     8
 71
     3
 72
     8
 73
     4
 74
     0
 42
0.000000001
 43
0.00000001
 40
0.0
 40
0.0
 40
0.0
 40
0.0
 40
1.0
 40
1.0
 40
1.0
 40
1.0
 10
123.7043584528917
 20
80.49289656247555
 30
0.0
 10
123.7188960105436
 20
80.52181321712797
 30
0.0
 10
123.7334204782096
 20
80.53636818852861
 30
0.0
 10
123.7466178416923
 20
80.53524470283752
 30
0.0
  0
LINE
  5
F6
330
1F
100
AcDbEntity
  8
0
  6
Continuous
 62
     7
370
    25
100
AcDbLine
 10
124.0859088563
 20
80.4773506661
 30
0.0
 11
124.0859088563
 21
80.5208289269
 31
0.0
  0
LINE
  5
F7
330
1F
100
AcDbEntity
  8
0
  6
Continuous
 62
     7
370
    25
100
AcDbLine
 10
120.0424305954
 20
84.5208289269
 30
0.0
 11
120.0859088563
 21
84.5208289269
 31
0.0
  0
SPLINE
  5
F8
330
1F
100
AcDbEntity
  8
0
  6
Continuous
 62
     7
370
    25
100
AcDbSpline
210
0.0
220
0.0
230
1.0
 70
     8
 71
     3
 72
    10
 73
     6
 74
     0
 42
0.000000001
 43
0.00000001
 40
0.0
 40
0.0
 40
0.0
 40
0.0
 40
0.5
 40
0.5
 40
1.0
 40
1.0
 40
1.0
 40
1.0
 10
140.1310147729404
 20
101.4791262905266
 30
0.0
 10
140.1593648214962
 20
101.2535683427635
 30
0.0
 10
140.2680483223914
 20
101.0346989131702
 30
0.0
 10
140.6003335455707
 20
100.7026106642456
 30
0.0
 10
140.8186482726719
 20
100.5942848928177
 30
0.0
 10
141.0442062199061
 20
100.5659348435608
 30
0.0
  0
SPLINE
  5
F9
330
1F
100
AcDbEntity
  8
0
  6
Continuous
 62
     7
370
    25
100
AcDbSpline
210
0.0
220
0.0
230
1.0
 70
     8
 71
     3
 72
     8
 73
     4
 74
     0
 42
0.000000001
 43
0.00000001
 40
0.0
 40
0.0
 40
0.0
 40
0.0
 40
1.0
 40
1.0
 40
1.0
 40
1.0
 10
140.0859088563171
 20
101.5208289269375
 30
0.0
 10
140.0859088563171
 20
101.4929428184237
 30
0.0
 10
140.0870732579104
 20
101.4651661981974
 30
0.0
 10
140.0893869411438
 20
101.4374978248248
 30
0.0
  0
LINE
  5
FA
330
1F
100
AcDbEntity
  8
0
  6
Continuous
 62
     8
370
    25
100
AcDbLine
 10
130.0859088563
 20
109.5208289269
 30
0.0
 11
116.0859088563
 21
109.5208289269
 31
0.0
  0
LINE
  5
FB
330
1F
100
AcDbEntity
  8
0
  6
Continuous
 62
     8
370
    25
100
AcDbLine
 10
144.0859088563
 20
109.5208289269
 30
0.0
 11
130.0859088563
 21
109.5208289269
 31
0.0
  0
LINE
  5
FC
330
1F
100
AcDbEntity
  8
0
  6
Continuous
 62
     8
370
    25
100
AcDbLine
 10
116.8359088563
 20
108.5525830904
 30
0.0
 11
143.3359088563
 21
108.5525830904
 31
0.0
  0
LINE
  5
FD
330
1F
100
AcDbEntity
  8
0
  6
Continuous
 62
     8
370
    25
100
AcDbLine
 10
141.0859088563
 20
105.6478455807
 30
0.0
 11
119.0859088563
 21
105.6478455807
 31
0.0
  0
LINE
  5
FE
330
1F
100
AcDbEntity
  8
0
  6
Continuous
 62
     8
370
    25
100
AcDbLine
 10
145.2129255101
 20
90.5208289269
 30
0.0
 11
145.2129255101
 21
101.5208289269
 31
0.0
  0
LINE
  5
FF
330
1F
100
AcDbEntity
  8
0
  6
Continuous
 62
     8
370
    25
100
AcDbLine
 10
145.2129255101
 20
79.5208289269
 30
0.0
 11
145.2129255101
 21
90.5208289269
 31
0.0
  0
SPLINE
  5
100
330
1F
100
AcDbEntity
  8
0
  6
Continuous
 62
     8
370
    25
100
AcDbSpline
210
0.0
220
0.0
230
1.0
 70
    24
 71
     3
 72
    10
 73
     6
 74
     0
 42
0.000000001
 43
0.00000001
 40
0.0
 40
0.0
 40
0.0
 40
0.0
 40
0.2169967701183235
 40
0.2169967701183235
 40
0.4197141586735273
 40
0.4197141586735273
 40
0.4197141586735273
 40
0.4197141586735273
 10
141.0441224182826
 20
100.5658580254059
 30
0.0
 10
141.3976536556031
 20
100.889928326283
 30
0.0
 10
141.6654326202463
 20
101.1353923772059
 30
0.0
 10
142.00343987483
 20
101.4452323605743
 30
0.0
 10
142.0859088563167
 20
101.5208289269371
 30
0.0
 10
142.0859088563171
 20
101.5208289269375
 30
0.0
  0
SPLINE
  5
101
330
1F
100
AcDbEntity
  8
0
  6
Continuous
 62
     8
370
    25
100
AcDbSpline
210
0.0
220
0.0
230
1.0
 70
     8
 71
     3
 72
    10
 73
     6
 74
     0
 42
0.000000001
 43
0.00000001
 40
-0.4235250761411895
 40
-0.4235250761411895
 40
-0.4235250761411895
 40
-0.4235250761411895
 40
-0.2113930417852252
 40
-0.2113930417852252
 40
0.0
 40
0.0
 40
0.0
 40
0.0
 10
123.0857568412355
 20
79.52082892986344
 30
0.0
 10
123.0857568412355
 20
79.52082892986344
 30
0.0
 10
123.1384555183248
 20
79.6036393263343
 30
0.0
 10
123.3465305437566
 20
79.93060736707402
 30
0.0
 10
123.5017850123214
 20
80.1745735246777
 30
0.0
 10
123.7044167641917
 20
80.49298819260291
 30
0.0
  0
SPLINE
  5
102
330
1F
100
AcDbEntity
  8
0
  6
Continuous
 62
     8
370
    25
100
AcDbSpline
210
0.0
220
0.0
230
1.0
 70
    24
 71
     3
 72
    10
 73
     6
 74
     0
 42
0.000000001
 43
0.00000001
 40
0.0
 40
0.0
 40
0.0
 40
0.0
 40
0.2027173885552038
 40
0.2027173885552038
 40
0.4197141589608902
 40
0.4197141589608902
 40
0.4197141589608902
 40
0.4197141589608902
 10
141.0859088563171
 20
102.5208289269375
 30
0.0
 10
141.0859088563167
 20
102.5208289269371
 30
0.0
 10
141.0103122899539
 20
102.4383599454504
 30
0.0
 10
140.7004723063733
 20
102.1003526906352
 30
0.0
 10
140.4550082550125
 20
101.8325737255143
 30
0.0
 10
140.130937953498
 20
101.4790424874985
 30
0.0
  0
SPLINE
  5
103
330
1F
100
AcDbEntity
  8
0
  6
Continuous
 62
     8
370
    25
100
AcDbSpline
210
0.0
220
0.0
230
1.0
 70
     8
 71
     3
 72
    10
 73
     6
 74
     0
 42
0.000000001
 43
0.00000001
 40
-0.4235250761148888
 40
-0.4235250761148888
 40
-0.4235250761148888
 40
-0.4235250761148888
 40
-0.2121320343559643
 40
-0.2121320343559643
 40
0.0
 40
0.0
 40
0.0
 40
0.0
 10
120.0580681218636
 20
84.13933683473651
 30
0.0
 10
119.7396534539966
 20
83.93670508290319
 30
0.0
 10
119.4956872964333
 20
83.78145061436412
 30
0.0
 10
119.1687192557139
 20
83.57337558894525
 30
0.0
 10
119.085908859243
 20
83.52067691185592
 30
0.0
 10
119.085908859243
 20
83.52067691185592
 30
0.0
  0
LINE
  5
104
330
1F
100
AcDbEntity
  8
0
  6
Continuous
 62
     7
370
    18
100
AcDbLine
 10
161.2046828254
 20
81.2620528408
 30
0.0
 11
148.1522313411
 21
80.8541637319
 31
0.0
  0
LINE
  5
105
330
1F
100
AcDbEntity
  8
0
  6
Continuous
 62
     7
370
    18
100
AcDbLine
 10
161.2046828254
 20
99.7796050131
 30
0.0
 11
148.1522313411
 21
100.187494122
 31
0.0
  0
LINE
  5
106
330
1F
100
AcDbEntity
  8
0
  6
Continuous
 62
     7
370
    18
100
AcDbLine
 10
148.1522313411
 20
101.1787563493
 30
0.0
 11
148.1522313411
 21
79.8629015046
 31
0.0
  0
LINE
  5
107
330
1F
100
AcDbEntity
  8
0
  6
CENTERX2
 62
     7
370
    18
100
AcDbLine
 10
130.0859088563
 20
125.5208289269
 30
0.0
 11
130.0859088563
 21
76.7042768725
 31
0.0
  0
LINE
  5
108
330
1F
100
AcDbEntity
  8
0
  6
CENTERX2
 62
     7
370
    18
100
AcDbLine
 10
159.3895175834
 20
90.5208289269
 30
0.0
 11
115.9979533188
 21
90.5208289269
 31
0.0
  0
LINE
  5
109
330
1F
100
AcDbEntity
  8
0
  6
CENTERX2
 62
     7
370
    18
100
AcDbLine
 10
159.3895175834
 20
90.5208289269
 30
0.0
 11
164.0859088563
 21
90.5208289269
 31
0.0
  0
LINE
  5
10A
330
1F
100
AcDbEntity
  8
0
  6
Continuous
 62
     7
370
    25
100
AcDbLine
 10
217.1694157179
 20
109.5208289269
 30
0.0
 11
217.1694157179
 21
123.5208289269
 31
0.0
  0
LINE
  5
10B
330
1F
100
AcDbEntity
  8
0
  6
Continuous
 62
     7
370
    25
100
AcDbLine
 10
189.1694157179
 20
123.5208289269
 30
0.0
 11
189.1694157179
 21
109.5208289269
 31
0.0
  0
ARC
  5
10C
330
1F
100
AcDbEntity
  8
0
  6
Continuous
 62
     7
370
    25
100
AcDbCircle
 10
190.1694157179
 20
109.5208289269
 30
0.0
 40
1.000000000000004
100
AcDbArc
 50
180.0
 51
255.5224878141
  0
ARC
  5
10D
330
1F
100
AcDbEntity
  8
0
  6
Continuous
 62
     7
370
    25
100
AcDbCircle
 10
216.1694157179
 20
109.5208289269
 30
0.0
 40
1.000000000000004
100
AcDbArc
 50
284.4775121859
 51
0.0
  0
LINE
  5
10E
330
1F
100
AcDbEntity
  8
0
  6
Continuous
 62
     7
370
    25
100
AcDbLine
 10
217.1694157179
 20
123.5208289269
 30
0.0
 11
216.1694157179
 21
124.5208289269
 31
0.0
  0
LINE
  5
10F
330
1F
100
AcDbEntity
  8
0
  6
Continuous
 62
     7
370
    25
100
AcDbLine
 10
190.1694157179
 20
124.5208289269
 30
0.0
 11
189.1694157179
 21
123.5208289269
 31
0.0
  0
ARC
  5
110
330
1F
100
AcDbEntity
  8
0
  6
Continuous
 62
     7
370
    25
100
AcDbCircle
 10
189.1694157179
 20
105.6478455807
 30
0.0
 40
3.000000000000028
100
AcDbArc
 50
0.0
 51
75.5224878141
  0
ARC
  5
111
330
1F
100
AcDbEntity
  8
0
  6
Continuous
 62
     7
370
    25
100
AcDbCircle
 10
217.1694157179
 20
105.6478455807
 30
0.0
 40
3.0
100
AcDbArc
 50
104.4775121859
 51
180.0
  0
LINE
  5
112
330
1F
100
AcDbEntity
  8
0
  6
Continuous
 62
     7
370
    25
100
AcDbLine
 10
214.1694157179
 20
101.5208289269
 30
0.0
 11
214.1694157179
 21
105.6478455807
 31
0.0
  0
LINE
  5
113
330
1F
100
AcDbEntity
  8
0
  6
Continuous
 62
     7
370
    25
100
AcDbLine
 10
192.1694157179
 20
105.6478455807
 30
0.0
 11
192.1694157179
 21
101.5208289269
 31
0.0
  0
CIRCLE
  5
114
330
1F
100
AcDbEntity
  8
0
  6
Continuous
 62
     7
370
    25
100
AcDbCircle
 10
203.1694157179
 20
90.5208289269
 30
0.0
 40
6.999999999999972
  0
CIRCLE
  5
115
330
1F
100
AcDbEntity
  8
0
  6
Continuous
 62
     7
370
    25
100
AcDbCircle
 10
203.1694157179
 20
90.5208289269
 30
0.0
 40
7.775000000000006
  0
CIRCLE
  5
116
330
1F
100
AcDbEntity
  8
0
  6
Continuous
 62
     7
370
    25
100
AcDbCircle
 10
203.1694157179
 20
90.5208289269
 30
0.0
 40
7.899999999999977
  0
CIRCLE
  5
117
330
1F
100
AcDbEntity
  8
0
  6
Continuous
 62
     7
370
    25
100
AcDbCircle
 10
203.1694157179
 20
90.5208289269
 30
0.0
 40
8.025000000000006
  0
CIRCLE
  5
118
330
1F
100
AcDbEntity
  8
0
  6
Continuous
 62
     7
370
    25
100
AcDbCircle
 10
203.1694157179
 20
90.5208289269
 30
0.0
 40
8.75
  0
CIRCLE
  5
119
330
1F
100
AcDbEntity
  8
0
  6
Continuous
 62
     7
370
    25
100
AcDbCircle
 10
203.1694157179
 20
90.5208289269
 30
0.0
 40
10.30676222727979
  0
CIRCLE
  5
11A
330
1F
100
AcDbEntity
  8
0
  6
Continuous
 62
     7
370
    25
100
AcDbCircle
 10
203.1694157179
 20
90.5208289269
 30
0.0
 40
6.499999999999972
  0
CIRCLE
  5
11B
330
1F
100
AcDbEntity
  8
0
  6
Continuous
 62
     7
370
    25
100
AcDbCircle
 10
203.1694157179
 20
90.5208289269
 30
0.0
 40
10.65900768239226
  0
CIRCLE
  5
11C
330
1F
100
AcDbEntity
  8
0
  6
Continuous
 62
     7
370
    25
100
AcDbCircle
 10
203.1694157179
 20
90.5208289269
 30
0.0
 40
11.6717966647752
  0
LINE
  5
11D
330
1F
100
AcDbEntity
  8
0
  6
Continuous
 62
     7
370
    25
100
AcDbLine
 10
203.1694157179
 20
123.5208289269
 30
0.0
 11
189.1694157179
 21
123.5208289269
 31
0.0
  0
LINE
  5
11E
330
1F
100
AcDbEntity
  8
0
  6
Continuous
 62
     7
370
    25
100
AcDbLine
 10
217.1694157179
 20
123.5208289269
 30
0.0
 11
203.1694157179
 21
123.5208289269
 31
0.0
  0
LINE
  5
11F
330
1F
100
AcDbEntity
  8
0
  6
Continuous
 62
     7
370
    25
100
AcDbLine
 10
203.1694157179
 20
124.5208289269
 30
0.0
 11
216.1694157179
 21
124.5208289269
 31
0.0
  0
LINE
  5
120
330
1F
100
AcDbEntity
  8
0
  6
Continuous
 62
     7
370
    25
100
AcDbLine
 10
190.1694157179
 20
124.5208289269
 30
0.0
 11
203.1694157179
 21
124.5208289269
 31
0.0
  0
SPLINE
  5
121
330
1F
100
AcDbEntity
  8
0
  6
Continuous
 62
     7
370
    25
100
AcDbSpline
210
0.0
220
0.0
230
1.0
 70
     8
 71
     3
 72
    15
 73
    11
 74
     0
 42
0.000000001
 43
0.00000001
 40
-0.4197141586735239
 40
-0.4197141586735239
 40
-0.4197141586735239
 40
-0.4197141586735239
 40
-0.2027173885552038
 40
-0.2027173885552038
 40
0.0
 40
0.0
 40
0.0
 40
0.2027173885552038
 40
0.2027173885552038
 40
0.4197141589608902
 40
0.4197141589608902
 40
0.4197141589608902
 40
0.4197141589608902
 10
207.6518184014133
 20
101.479042488903
 30
0.0
 10
206.9251633526911
 20
101.8325737262236
 30
0.0
 10
206.1634279688432
 20
102.1003526908668
 30
0.0
 10
204.6559890208896
 20
102.4383599454512
 30
0.0
 10
203.9127128092675
 20
102.5208289269375
 30
0.0
 10
203.1694157178984
 20
102.5208289269375
 30
0.0
 10
202.4261186265293
 20
102.5208289269375
 30
0.0
 10
201.6828424149072
 20
102.4383599454512
 30
0.0
 10
200.1754034659215
 20
102.1003526906354
 30
0.0
 10
199.4136680810882
 20
101.8325737255144
 30
0.0
 10
198.6870130314965
 20
101.4790424874985
 30
0.0
  0
LINE
  5
122
330
1F
100
AcDbEntity
  8
0
  6
Continuous
 62
     7
370
    25
100
AcDbLine
 10
197.1502100075
 20
100.5208289269
 30
0.0
 11
192.6694157179
 21
100.5208289269
 31
0.0
  0
LINE
  5
123
330
1F
100
AcDbEntity
  8
0
  6
Continuous
 62
     7
370
    25
100
AcDbLine
 10
192.6694157179
 20
101.5208289269
 30
0.0
 11
192.6694157179
 21
100.5208289269
 31
0.0
  0
LINE
  5
124
330
1F
100
AcDbEntity
  8
0
  6
Continuous
 62
     7
370
    25
100
AcDbLine
 10
197.4905073721
 20
101.5208289269
 30
0.0
 11
192.6694157179
 21
101.5208289269
 31
0.0
  0
SPLINE
  5
125
330
1F
100
AcDbEntity
  8
0
  6
Continuous
 62
     7
370
    25
100
AcDbSpline
210
0.0
220
0.0
230
1.0
 70
     8
 71
     3
 72
    10
 73
     6
 74
     0
 42
0.000000001
 43
0.00000001
 40
0.0
 40
0.0
 40
0.0
 40
0.0
 40
0.5
 40
0.5
 40
1.0
 40
1.0
 40
1.0
 40
1.0
 10
198.5182328494087
 20
101.7826206402334
 30
0.0
 10
198.360602903968
 20
101.6984956354248
 30
0.0
 10
198.1955528141478
 20
101.6329529598465
 30
0.0
 10
197.8501131256701
 20
101.5441854128835
 30
0.0
 10
197.670470019359
 20
101.5208289269375
 30
0.0
 10
197.4905073720981
 20
101.5208289269375
 30
0.0
  0
SPLINE
  5
126
330
1F
100
AcDbEntity
  8
0
  6
Continuous
 62
     7
370
    25
100
AcDbSpline
210
0.0
220
0.0
230
1.0
 70
     8
 71
     3
 72
     8
 73
     4
 74
     0
 42
0.000000001
 43
0.00000001
 40
0.0
 40
0.0
 40
0.0
 40
0.0
 40
1.0
 40
1.0
 40
1.0
 40
1.0
 10
198.4828949368139
 20
101.4374977638864
 30
0.0
 10
198.471958454631
 20
101.554226122478
 30
0.0
 10
198.4848503705423
 20
101.6737703882058
 30
0.0
 10
198.5182328494084
 20
101.7826206402335
 30
0.0
  0
SPLINE
  5
127
330
1F
100
AcDbEntity
  8
0
  6
Continuous
 62
     7
370
    25
100
AcDbSpline
210
0.0
220
0.0
230
1.0
 70
     8
 71
     3
 72
     8
 73
     4
 74
     0
 42
0.000000001
 43
0.00000001
 40
0.0
 40
0.0
 40
0.0
 40
0.0
 40
1.0
 40
1.0
 40
1.0
 40
1.0
 10
198.4828949368139
 20
101.4374977638864
 30
0.0
 10
198.5529289957167
 20
101.4505298597953
 30
0.0
 10
198.6229244188324
 20
101.4648426524453
 30
0.0
 10
198.6866567099046
 20
101.479163345412
 30
0.0
  0
SPLINE
  5
128
330
1F
100
AcDbEntity
  8
0
  6
Continuous
 62
     7
370
    25
100
AcDbSpline
210
0.0
220
0.0
230
1.0
 70
     8
 71
     3
 72
    12
 73
     8
 74
     0
 42
0.000000001
 43
0.00000001
 40
0.0
 40
0.0
 40
0.0
 40
0.0
 40
0.25
 40
0.25
 40
0.5
 40
0.5
 40
1.0
 40
1.0
 40
1.0
 40
1.0
 10
213.7128715672695
 20
101.8733432628934
 30
0.0
 10
213.7877937084974
 20
101.8253180456817
 30
0.0
 10
213.8539571633668
 20
101.7886337756479
 30
0.0
 10
213.9679116907229
 20
101.7226598831504
 30
0.0
 10
214.015767496297
 20
101.6939082505191
 30
0.0
 10
214.1308227898286
 20
101.6133533517812
 30
0.0
 10
214.1694157178984
 20
101.5672218716501
 30
0.0
 10
214.1694157178984
 20
101.5208289269375
 30
0.0
  0
SPLINE
  5
129
330
1F
100
AcDbEntity
  8
0
  6
Continuous
 62
     7
370
    25
100
AcDbSpline
210
0.0
220
0.0
230
1.0
 70
     8
 71
     3
 72
     8
 73
     4
 74
     0
 42
0.000000001
 43
0.00000001
 40
0.0
 40
0.0
 40
0.0
 40
0.0
 40
1.0
 40
1.0
 40
1.0
 40
1.0
 10
213.212893978768
 20
102.0208289269375
 30
0.0
 10
213.4111343105827
 20
102.0208289269375
 30
0.0
 10
213.5768482393602
 20
101.9605344424519
 30
0.0
 10
213.7128715672695
 20
101.8733432628934
 30
0.0
  0
LINE
  5
12A
330
1F
100
AcDbEntity
  8
0
  6
Continuous
 62
     7
370
    25
100
AcDbLine
 10
206.3776895731
 20
102.0208289269
 30
0.0
 11
213.2128939788
 21
102.0208289269
 31
0.0
  0
SPLINE
  5
12B
330
1F
100
AcDbEntity
  8
0
  6
Continuous
 62
     7
370
    25
100
AcDbSpline
210
0.0
220
0.0
230
1.0
 70
     8
 71
     3
 72
    14
 73
    10
 74
     0
 42
0.000000001
 43
0.00000001
 40
0.0
 40
0.0
 40
0.0
 40
0.0
 40
0.125
 40
0.125
 40
0.25
 40
0.25
 40
0.4999999999999998
 40
0.4999999999999998
 40
1.0
 40
1.0
 40
1.0
 40
1.0
 10
207.6521747313534
 20
101.4791633758812
 30
0.0
 10
207.664126933549
 20
101.5458474522694
 30
0.0
 10
207.6438210204279
 20
101.6150204978653
 30
0.0
 10
207.5712117294935
 20
101.7229210857008
 30
0.0
 10
207.5219177972622
 20
101.7649517995808
 30
0.0
 10
207.3634504656708
 20
101.869581294692
 30
0.0
 10
207.245604759834
 20
101.9111159643692
 30
0.0
 10
206.8820927863186
 20
102.0045948908392
 30
0.0
 10
206.6322823853517
 20
102.0208288022767
 30
0.0
 10
206.3776895730825
 20
102.0208289269369
 30
0.0
  0
SPLINE
  5
12C
330
1F
100
AcDbEntity
  8
0
  6
Continuous
 62
     7
370
    25
100
AcDbSpline
210
0.0
220
0.0
230
1.0
 70
     8
 71
     3
 72
    14
 73
    10
 74
     0
 42
0.000000001
 43
0.00000001
 40
0.0
 40
0.0
 40
0.0
 40
0.0
 40
0.4999999999999986
 40
0.4999999999999986
 40
0.7499999999999978
 40
0.7499999999999978
 40
0.8749999999999989
 40
0.8749999999999989
 40
1.0
 40
1.0
 40
1.0
 40
1.0
 10
199.9611418623695
 20
102.0208289269369
 30
0.0
 10
199.7065490454126
 20
102.0208288022588
 30
0.0
 10
199.4567386406132
 20
102.004594890175
 30
0.0
 10
199.0932266641788
 20
101.9111159605311
 30
0.0
 10
198.9753809549523
 20
101.8695812890627
 30
0.0
 10
198.8169136206867
 20
101.7649517856019
 30
0.0
 10
198.7676196890001
 20
101.7229210687308
 30
0.0
 10
198.6950104039012
 20
101.6150204720804
 30
0.0
 10
198.6747044989548
 20
101.5458474214388
 30
0.0
 10
198.6866567099046
 20
101.479163345412
 30
0.0
  0
LINE
  5
12D
330
1F
100
AcDbEntity
  8
0
  6
Continuous
 62
     7
370
    25
100
AcDbLine
 10
193.125937457
 20
102.0208289269
 30
0.0
 11
199.9611418624
 21
102.0208289269
 31
0.0
  0
SPLINE
  5
12E
330
1F
100
AcDbEntity
  8
0
  6
Continuous
 62
     7
370
    25
100
AcDbSpline
210
0.0
220
0.0
230
1.0
 70
     8
 71
     3
 72
     8
 73
     4
 74
     0
 42
0.000000001
 43
0.00000001
 40
0.0
 40
0.0
 40
0.0
 40
0.0
 40
1.0
 40
1.0
 40
1.0
 40
1.0
 10
192.6259598685273
 20
101.8733432628934
 30
0.0
 10
192.7619831964366
 20
101.9605344424519
 30
0.0
 10
192.9276971252142
 20
102.0208289269375
 30
0.0
 10
193.1259374570288
 20
102.0208289269375
 30
0.0
  0
SPLINE
  5
12F
330
1F
100
AcDbEntity
  8
0
  6
Continuous
 62
     7
370
    25
100
AcDbSpline
210
0.0
220
0.0
230
1.0
 70
     8
 71
     3
 72
    12
 73
     8
 74
     0
 42
0.000000001
 43
0.00000001
 40
0.0
 40
0.0
 40
0.0
 40
0.0
 40
0.25
 40
0.25
 40
0.5
 40
0.5
 40
1.0
 40
1.0
 40
1.0
 40
1.0
 10
192.6259598685273
 20
101.8733432628934
 30
0.0
 10
192.5510115909895
 20
101.8253012922635
 30
0.0
 10
192.4848281358868
 20
101.7886076496199
 30
0.0
 10
192.370846630462
 20
101.7226169681952
 30
0.0
 10
192.3229651934852
 20
101.6938434800183
 30
0.0
 10
192.2080417275712
 20
101.6133677730075
 30
0.0
 10
192.1694157178984
 20
101.5672380697643
 30
0.0
 10
192.1694157178984
 20
101.5208289269375
 30
0.0
  0
LINE
  5
130
330
1F
100
AcDbEntity
  8
0
  6
Continuous
 62
     7
370
    25
100
AcDbLine
 10
213.6694157179
 20
100.1066153646
 30
0.0
 11
213.6694157179
 21
100.5780198854
 31
0.0
  0
SPLINE
  5
131
330
1F
100
AcDbEntity
  8
0
  6
Continuous
 62
     7
370
    25
100
AcDbSpline
210
0.0
220
0.0
230
1.0
 70
     8
 71
     3
 72
    12
 73
     8
 74
     0
 42
0.000000001
 43
0.00000001
 40
0.0
 40
0.0
 40
0.0
 40
0.0
 40
0.2499999999999999
 40
0.2499999999999999
 40
0.4999999999999999
 40
0.4999999999999999
 40
1.0
 40
1.0
 40
1.0
 40
1.0
 10
192.6694157178984
 20
101.5208289269375
 30
0.0
 10
192.5932298727601
 20
101.5208289269375
 30
0.0
 10
192.5198555279431
 20
101.5030016312412
 30
0.0
 10
192.3936820247419
 20
101.4437115319868
 30
0.0
 10
192.3409551018461
 20
101.4031140206237
 30
0.0
 10
192.2133106735179
 20
101.2618294769347
 30
0.0
 10
192.1694157178984
 20
101.1429909877485
 30
0.0
 10
192.1694157178984
 20
101.0208289269375
 30
0.0
  0
SPLINE
  5
132
330
1F
100
AcDbEntity
  8
0
  6
Continuous
 62
     7
370
    25
100
AcDbSpline
210
0.0
220
0.0
230
1.0
 70
     8
 71
     3
 72
    12
 73
     8
 74
     0
 42
0.000000001
 43
0.00000001
 40
0.0
 40
0.0
 40
0.0
 40
0.0
 40
0.2499999999999993
 40
0.2499999999999993
 40
0.4999999999999987
 40
0.4999999999999987
 40
1.0
 40
1.0
 40
1.0
 40
1.0
 10
192.6694157178984
 20
100.5208289269375
 30
0.0
 10
192.5932298727601
 20
100.5208289269375
 30
0.0
 10
192.5198555279431
 20
100.5027634990466
 30
0.0
 10
192.3936820247419
 20
100.4461022575114
 30
0.0
 10
192.3409551018461
 20
100.4085798979892
 30
0.0
 10
192.2133106735179
 20
100.2860531338962
 30
0.0
 10
192.1694157178984
 20
100.1930783253997
 30
0.0
 10
192.1694157178984
 20
100.1066153645644
 30
0.0
  0
LINE
  5
133
330
1F
100
AcDbEntity
  8
0
  6
Continuous
 62
     7
370
    25
100
AcDbLine
 10
192.1694157179
 20
100.1066153646
 30
0.0
 11
192.1694157179
 21
101.0208289269
 31
0.0
  0
LINE
  5
134
330
1F
100
AcDbEntity
  8
0
  6
Continuous
 62
     7
370
    25
100
AcDbLine
 10
214.1694157179
 20
100.1066153646
 30
0.0
 11
213.6694157179
 21
100.1066153646
 31
0.0
  0
LINE
  5
135
330
1F
100
AcDbEntity
  8
0
  6
Continuous
 62
     7
370
    25
100
AcDbLine
 10
214.1694157179
 20
100.1066153646
 30
0.0
 11
214.1694157179
 21
94.4234994721
 31
0.0
  0
LINE
  5
136
330
1F
100
AcDbEntity
  8
0
  6
Continuous
 62
     7
370
    25
100
AcDbLine
 10
192.1694157179
 20
94.4234994721
 30
0.0
 11
192.1694157179
 21
100.1066153646
 31
0.0
  0
ARC
  5
137
330
1F
100
AcDbEntity
  8
0
  6
Continuous
 62
     7
370
    25
100
AcDbCircle
 10
213.6833046068
 20
100.0918839733
 30
0.0
 40
0.4863342741721229
100
AcDbArc
 50
1.7357930888
 51
91.6364935946
  0
SPLINE
  5
138
330
1F
100
AcDbEntity
  8
0
  6
Continuous
 62
     7
370
    25
100
AcDbSpline
210
0.0
220
0.0
230
1.0
 70
     8
 71
     3
 72
    12
 73
     8
 74
     0
 42
0.000000001
 43
0.00000001
 40
0.0
 40
0.0
 40
0.0
 40
0.0
 40
0.5
 40
0.5
 40
0.75
 40
0.75
 40
1.0
 40
1.0
 40
1.0
 40
1.0
 10
199.9611430454683
 20
102.0208289275596
 30
0.0
 10
199.7127582949796
 20
102.0195547248537
 30
0.0
 10
199.4667169294524
 20
102.012656323259
 30
0.0
 10
199.1052111218171
 20
101.9689539986354
 30
0.0
 10
198.9860267752611
 20
101.9491686134389
 30
0.0
 10
198.7488883187651
 20
101.8871266128039
 30
0.0
 10
198.6328856670521
 20
101.8438093236945
 30
0.0
 10
198.5182328494087
 20
101.7826206402334
 30
0.0
  0
LINE
  5
139
330
1F
100
AcDbEntity
  8
0
  6
Continuous
 62
     7
370
    25
100
AcDbLine
 10
192.1694157179
 20
81.0208289269
 30
0.0
 11
192.6694157179
 21
81.0208289269
 31
0.0
  0
LINE
  5
13A
330
1F
100
AcDbEntity
  8
0
  6
Continuous
 62
     7
370
    25
100
AcDbLine
 10
192.1694157179
 20
81.0208289269
 30
0.0
 11
192.1694157179
 21
86.6181583818
 31
0.0
  0
SPLINE
  5
13B
330
1F
100
AcDbEntity
  8
0
  6
Continuous
 62
     7
370
    25
100
AcDbSpline
210
0.0
220
0.0
230
1.0
 70
     8
 71
     3
 72
     8
 73
     4
 74
     0
 42
0.000000001
 43
0.00000001
 40
0.0
 40
0.0
 40
0.0
 40
0.0
 40
1.0
 40
1.0
 40
1.0
 40
1.0
 10
207.8205985863881
 20
101.7826206402334
 30
0.0
 10
207.853981059413
 20
101.673770407252
 30
0.0
 10
207.8668729770179
 20
101.554226164329
 30
0.0
 10
207.8559365046929
 20
101.4374978248248
 30
0.0
  0
SPLINE
  5
13C
330
1F
100
AcDbEntity
  8
0
  6
Continuous
 62
     7
370
    25
100
AcDbSpline
210
0.0
220
0.0
230
1.0
 70
     8
 71
     3
 72
     8
 73
     4
 74
     0
 42
0.000000001
 43
0.00000001
 40
0.0
 40
0.0
 40
0.0
 40
0.0
 40
1.0
 40
1.0
 40
1.0
 40
1.0
 10
207.8553395199024
 20
101.4376238358296
 30
0.0
 10
207.7853243051476
 20
101.4505789608551
 30
0.0
 10
207.7153476452489
 20
101.4648116928255
 30
0.0
 10
207.6516268107276
 20
101.4790574851757
 30
0.0
  0
SPLINE
  5
13D
330
1F
100
AcDbEntity
  8
0
  6
Continuous
 62
     7
370
    25
100
AcDbSpline
210
0.0
220
0.0
230
1.0
 70
     8
 71
     3
 72
    12
 73
     8
 74
     0
 42
0.000000001
 43
0.00000001
 40
0.0
 40
0.0
 40
0.0
 40
0.0
 40
0.2500000000000003
 40
0.2500000000000003
 40
0.5000000000000006
 40
0.5000000000000006
 40
1.0
 40
1.0
 40
1.0
 40
1.0
 10
207.8205985863881
 20
101.7826206402334
 30
0.0
 10
207.7061004165237
 20
101.8437267902322
 30
0.0
 10
207.5908584314674
 20
101.8868231584313
 30
0.0
 10
207.3537810327396
 20
101.9489766417792
 30
0.0
 10
207.2340210961359
 20
101.9689042023873
 30
0.0
 10
206.8714371749957
 20
102.0127408965613
 30
0.0
 10
206.6243822261525
 20
102.0195633988242
 30
0.0
 10
206.3776883898167
 20
102.0208289277894
 30
0.0
  0
LINE
  5
13E
330
1F
100
AcDbEntity
  8
0
  6
Continuous
 62
     7
370
    25
100
AcDbLine
 10
213.6694157179
 20
81.0208289269
 30
0.0
 11
214.1694157179
 21
81.0208289269
 31
0.0
  0
LINE
  5
13F
330
1F
100
AcDbEntity
  8
0
  6
Continuous
 62
     7
370
    25
100
AcDbLine
 10
214.1694157179
 20
86.6181583818
 30
0.0
 11
214.1694157179
 21
81.0208289269
 31
0.0
  0
LINE
  5
140
330
1F
100
AcDbEntity
  8
0
  6
Continuous
 62
     7
370
    25
100
AcDbLine
 10
197.1502100075
 20
80.5208289269
 30
0.0
 11
192.6694157179
 21
80.5208289269
 31
0.0
  0
LINE
  5
141
330
1F
100
AcDbEntity
  8
0
  6
Continuous
 62
     7
370
    25
100
AcDbLine
 10
192.6694157179
 20
81.0208289269
 30
0.0
 11
192.6694157179
 21
80.5208289269
 31
0.0
  0
LINE
  5
142
330
1F
100
AcDbEntity
  8
0
  6
Continuous
 62
     7
370
    25
100
AcDbLine
 10
213.6694157179
 20
81.0208289269
 30
0.0
 11
213.6694157179
 21
80.5208289269
 31
0.0
  0
LINE
  5
143
330
1F
100
AcDbEntity
  8
0
  6
Continuous
 62
     7
370
    25
100
AcDbLine
 10
213.6694157179
 20
80.5208289269
 30
0.0
 11
209.1886214283
 21
80.5208289269
 31
0.0
  0
ARC
  5
144
330
1F
100
AcDbEntity
  8
0
  6
Continuous
 62
     7
370
    25
100
AcDbCircle
 10
192.6694157179
 20
81.0208289269
 30
0.0
 40
0.5
100
AcDbArc
 50
180.0
 51
270.0
  0
ARC
  5
145
330
1F
100
AcDbEntity
  8
0
  6
Continuous
 62
     7
370
    25
100
AcDbCircle
 10
213.6694157179
 20
81.0208289269
 30
0.0
 40
0.5
100
AcDbArc
 50
270.0
 51
0.0
  0
LINE
  5
146
330
1F
100
AcDbEntity
  8
0
  6
Continuous
 62
     7
370
    25
100
AcDbLine
 10
213.6694157179
 20
101.5208289269
 30
0.0
 11
208.8483240637
 21
101.5208289269
 31
0.0
  0
LINE
  5
147
330
1F
100
AcDbEntity
  8
0
  6
Continuous
 62
     7
370
    25
100
AcDbLine
 10
213.6694157179
 20
100.5780198854
 30
0.0
 11
213.6694157179
 21
101.5208289269
 31
0.0
  0
SPLINE
  5
148
330
1F
100
AcDbEntity
  8
0
  6
Continuous
 62
     7
370
    25
100
AcDbSpline
210
0.0
220
0.0
230
1.0
 70
     8
 71
     3
 72
    10
 73
     6
 74
     0
 42
0.000000001
 43
0.00000001
 40
0.0
 40
0.0
 40
0.0
 40
0.0
 40
0.5
 40
0.5
 40
1.0
 40
1.0
 40
1.0
 40
1.0
 10
208.8483240636987
 20
101.5208289269375
 30
0.0
 10
208.6682470885862
 20
101.5208289269375
 30
0.0
 10
208.4920490289357
 20
101.5436413795536
 30
0.0
 10
208.1469574519292
 20
101.6317020233897
 30
0.0
 10
207.9782258145993
 20
101.6984970855741
 30
0.0
 10
207.8205985863881
 20
101.7826206402334
 30
0.0
  0
SPLINE
  5
149
330
1F
100
AcDbEntity
  8
0
  6
Continuous
 62
     7
370
    25
100
AcDbSpline
210
0.0
220
0.0
230
1.0
 70
     8
 71
     3
 72
    12
 73
     8
 74
     0
 42
0.000000001
 43
0.00000001
 40
0.0
 40
0.0
 40
0.0
 40
0.0
 40
0.2499999999999999
 40
0.2499999999999999
 40
0.4999999999999999
 40
0.4999999999999999
 40
1.0
 40
1.0
 40
1.0
 40
1.0
 10
213.6694157178984
 20
101.5208289269375
 30
0.0
 10
213.7456015630366
 20
101.5208289269375
 30
0.0
 10
213.8189759078537
 20
101.5030016312412
 30
0.0
 10
213.9451494110549
 20
101.4437115319868
 30
0.0
 10
213.9978763339507
 20
101.4031140206237
 30
0.0
 10
214.1255207622789
 20
101.2618294769347
 30
0.0
 10
214.1694157178984
 20
101.1429909877485
 30
0.0
 10
214.1694157178984
 20
101.0208289269375
 30
0.0
  0
LINE
  5
14A
330
1F
100
AcDbEntity
  8
0
  6
Continuous
 62
     7
370
    25
100
AcDbLine
 10
214.1694157179
 20
101.0208289269
 30
0.0
 11
214.1694157179
 21
100.1066153646
 31
0.0
  0
ARC
  5
14B
330
1F
100
AcDbEntity
  8
0
  6
Continuous
 62
     7
370
    25
100
AcDbCircle
 10
192.6466413908
 20
102.0000349761
 30
0.0
 40
0.4797469202790149
100
AcDbArc
 50
272.7209417438
 51
2.4841826612
  0
ARC
  5
14C
330
1F
100
AcDbEntity
  8
0
  6
Continuous
 62
     7
370
    25
100
AcDbCircle
 10
213.692190045
 20
102.0000349761
 30
0.0
 40
0.4797469202789587
100
AcDbArc
 50
177.5158173388
 51
267.2790582562
  0
SPLINE
  5
14D
330
1F
100
AcDbEntity
  8
0
  6
Continuous
 62
     7
370
    25
100
AcDbSpline
210
0.0
220
0.0
230
1.0
 70
     8
 71
     3
 72
     8
 73
     4
 74
     0
 42
0.000000001
 43
0.00000001
 40
0.0
 40
0.0
 40
0.0
 40
0.0
 40
1.0
 40
1.0
 40
1.0
 40
1.0
 10
209.592032007231
 20
89.52082892693753
 30
0.0
 10
209.6008190215986
 20
90.1877747548497
 30
0.0
 10
209.6008116687749
 20
90.854441187919
 30
0.0
 10
209.592032007231
 20
91.52082892693751
 30
0.0
  0
LINE
  5
14E
330
1F
100
AcDbEntity
  8
0
  6
Continuous
 62
     7
370
    25
100
AcDbLine
 10
209.5920320072
 20
89.5208289269
 30
0.0
 11
196.7467994286
 21
89.5208289269
 31
0.0
  0
ARC
  5
14F
330
1F
100
AcDbEntity
  8
0
  6
Continuous
 62
     7
370
    25
100
AcDbCircle
 10
214.180069167
 20
101.8433463153
 30
0.0
 40
0.4681596031693517
100
AcDbArc
 50
176.3263026515
 51
237.8245286087
  0
ARC
  5
150
330
1F
100
AcDbEntity
  8
0
  6
Continuous
 62
     7
370
    25
100
AcDbCircle
 10
192.1587622688
 20
101.8433463153
 30
0.0
 40
0.4681596031697113
100
AcDbArc
 50
302.1754713914
 51
3.6736973484
  0
SPLINE
  5
151
330
1F
100
AcDbEntity
  8
0
  6
Continuous
 62
     7
370
    25
100
AcDbSpline
210
0.0
220
0.0
230
1.0
 70
     8
 71
     3
 72
    12
 73
     8
 74
     0
 42
0.000000001
 43
0.00000001
 40
0.0
 40
0.0
 40
0.0
 40
0.0
 40
0.2500000000000001
 40
0.2500000000000001
 40
0.5000000000000001
 40
0.5000000000000001
 40
1.0
 40
1.0
 40
1.0
 40
1.0
 10
192.4080637966362
 20
101.4470860949155
 30
0.0
 10
192.3710203855566
 20
101.4243735932074
 30
0.0
 10
192.3368074842698
 20
101.4168610733779
 30
0.0
 10
192.2772753294107
 20
101.4153049986774
 30
0.0
 10
192.2518745983889
 20
101.4217318405184
 30
0.0
 10
192.19051596666
 20
101.4519568408192
 30
0.0
 10
192.1694157178984
 20
101.4866523619363
 30
0.0
 10
192.1694157178984
 20
101.5208289269375
 30
0.0
  0
SPLINE
  5
152
330
1F
100
AcDbEntity
  8
0
  6
Continuous
 62
     7
370
    25
100
AcDbSpline
210
0.0
220
0.0
230
1.0
 70
    24
 71
     3
 72
    12
 73
     8
 74
     0
 42
0.000000001
 43
0.00000001
 40
0.0
 40
0.0
 40
0.0
 40
0.0
 40
0.2500000000000001
 40
0.2500000000000001
 40
0.5000000000000001
 40
0.5000000000000001
 40
1.0
 40
1.0
 40
1.0
 40
1.0
 10
192.1694157178984
 20
101.0208289269375
 30
0.0
 10
192.1694157178984
 20
101.0208289269375
 30
0.0
 10
192.1694157178984
 20
101.0405518723454
 30
0.0
 10
192.1694157178984
 20
101.1011883371067
 30
0.0
 10
192.1694157178984
 20
101.1424448827951
 30
0.0
 10
192.1694157178984
 20
101.2842181924672
 30
0.0
 10
192.1694157178984
 20
101.4027852376275
 30
0.0
 10
192.1694157178984
 20
101.5208289269375
 30
0.0
  0
SPLINE
  5
153
330
1F
100
AcDbEntity
  8
0
  6
Continuous
 62
     7
370
    25
100
AcDbSpline
210
0.0
220
0.0
230
1.0
 70
     8
 71
     3
 72
    12
 73
     8
 74
     0
 42
0.000000001
 43
0.00000001
 40
0.0
 40
0.0
 40
0.0
 40
0.0
 40
0.2499999999999999
 40
0.2499999999999999
 40
0.4999999999999998
 40
0.4999999999999998
 40
1.0
 40
1.0
 40
1.0
 40
1.0
 10
213.9307676391606
 20
101.4470860949155
 30
0.0
 10
213.9678110502402
 20
101.4243735932074
 30
0.0
 10
214.002023951527
 20
101.4168610733779
 30
0.0
 10
214.0615561063861
 20
101.4153049986774
 30
0.0
 10
214.0869568374079
 20
101.4217318405184
 30
0.0
 10
214.1483154691368
 20
101.4519568408193
 30
0.0
 10
214.1694157178984
 20
101.4866523619362
 30
0.0
 10
214.1694157178984
 20
101.5208289269375
 30
0.0
  0
SPLINE
  5
154
330
1F
100
AcDbEntity
  8
0
  6
Continuous
 62
     7
370
    25
100
AcDbSpline
210
0.0
220
0.0
230
1.0
 70
    24
 71
     3
 72
    12
 73
     8
 74
     0
 42
0.000000001
 43
0.00000001
 40
0.0
 40
0.0
 40
0.0
 40
0.0
 40
0.2500000000000001
 40
0.2500000000000001
 40
0.5000000000000001
 40
0.5000000000000001
 40
1.0
 40
1.0
 40
1.0
 40
1.0
 10
214.1694157178984
 20
101.0208289269375
 30
0.0
 10
214.1694157178984
 20
101.0208289269375
 30
0.0
 10
214.1694157178984
 20
101.0405518723454
 30
0.0
 10
214.1694157178984
 20
101.1011883371067
 30
0.0
 10
214.1694157178984
 20
101.1424448827951
 30
0.0
 10
214.1694157178984
 20
101.2842181924672
 30
0.0
 10
214.1694157178984
 20
101.4027852376275
 30
0.0
 10
214.1694157178984
 20
101.5208289269375
 30
0.0
  0
SPLINE
  5
155
330
1F
100
AcDbEntity
  8
0
  6
Continuous
 62
     7
370
    25
100
AcDbSpline
210
0.0
220
0.0
230
1.0
 70
     8
 71
     3
 72
    44
 73
    40
 74
     0
 42
0.000000001
 43
0.00000001
 40
0.0
 40
0.0
 40
0.0
 40
0.0
 40
0.1250000000000008
 40
0.1250000000000008
 40
0.2500000000000016
 40
0.2500000000000016
 40
0.3125000000000019
 40
0.3125000000000019
 40
0.3750000000000023
 40
0.3750000000000023
 40
0.4375000000000027
 40
0.4375000000000027
 40
0.4687500000000028
 40
0.4687500000000028
 40
0.4843750000000029
 40
0.4843750000000029
 40
0.4921875000000029
 40
0.4921875000000029
 40
0.4960937500000029
 40
0.4960937500000029
 40
0.5000000000000029
 40
0.5000000000000029
 40
0.5078125000000028
 40
0.5078125000000028
 40
0.5156250000000028
 40
0.5156250000000028
 40
0.5312500000000027
 40
0.5312500000000027
 40
0.5625000000000026
 40
0.5625000000000026
 40
0.6250000000000021
 40
0.6250000000000021
 40
0.6875000000000018
 40
0.6875000000000018
 40
0.7500000000000013
 40
0.7500000000000013
 40
0.8750000000000008
 40
0.8750000000000008
 40
1.0
 40
1.0
 40
1.0
 40
1.0
 10
196.7467994285659
 20
89.52082892693753
 30
0.0
 10
197.2455065085801
 20
89.20011326305614
 30
0.0
 10
197.7517769876712
 20
88.88137448432907
 30
0.0
 10
198.7905111180332
 20
88.24399865349191
 30
0.0
 10
199.3241788749122
 20
87.92521389049452
 30
0.0
 10
200.1546564370258
 20
87.43624054921176
 30
0.0
 10
200.432948958701
 20
87.27334172933958
 30
0.0
 10
200.9914803033766
 20
86.94497378031421
 30
0.0
 10
201.2724776963778
 20
86.7789804872373
 30
0.0
 10
201.8315126663014
 20
86.44363888209546
 30
0.0
 10
202.107155922854
 20
86.27565146362166
 30
0.0
 10
202.5144096114385
 20
86.02273384247536
 30
0.0
 10
202.6488519368392
 20
85.93840772651384
 30
0.0
 10
202.849063929184
 20
85.8122537589238
 30
0.0
 10
202.9154743405186
 20
85.77019647050452
 30
0.0
 10
203.0153744723479
 20
85.70798370493094
 30
0.0
 10
203.0485974544161
 20
85.6872282861554
 30
0.0
 10
203.0998176639614
 20
85.6579709673831
 30
0.0
 10
203.1170435822884
 20
85.6482462029847
 30
0.0
 10
203.1543420377252
 20
85.63380688467738
 30
0.0
 10
203.1759389543456
 20
85.63205023977824
 30
0.0
 10
203.2332199215495
 20
85.65035282257935
 30
0.0
 10
203.2655635923309
 20
85.67284634577389
 30
0.0
 10
203.332161483515
 20
85.71324692384576
 30
0.0
 10
203.3651591739233
 20
85.7339104510348
 30
0.0
 10
203.4642311281081
 20
85.79604620459395
 30
0.0
 10
203.530288537494
 20
85.83780876031722
 30
0.0
 10
203.7293695569693
 20
85.96315602486906
 30
0.0
 10
203.8631338797825
 20
86.0468942176844
 30
0.0
 10
204.2665672955438
 20
86.29702485114785
 30
0.0
 10
204.53896187872
 20
86.46277643877217
 30
0.0
 10
205.0910713545018
 20
86.79363450327784
 30
0.0
 10
205.372844484786
 20
86.96000233259021
 30
0.0
 10
205.9295482338492
 20
87.28721065925937
 30
0.0
 10
206.2046480473587
 20
87.44826201893667
 30
0.0
 10
207.020422419295
 20
87.92867952333233
 30
0.0
 10
207.5534803984446
 20
88.24711884786223
 30
0.0
 10
208.5910020349638
 20
88.88384323608376
 30
0.0
 10
209.0955394732345
 20
89.20153742490338
 30
0.0
 10
209.592032007231
 20
89.52082892693754
 30
0.0
  0
LINE
  5
156
330
1F
100
AcDbEntity
  8
0
  6
Continuous
 62
     8
370
    25
100
AcDbLine
 10
217.1694157179
 20
109.5208289269
 30
0.0
 11
189.1694157179
 21
109.5208289269
 31
0.0
  0
LINE
  5
157
330
1F
100
AcDbEntity
  8
0
  6
Continuous
 62
     8
370
    25
100
AcDbLine
 10
203.1694157179
 20
108.5525830904
 30
0.0
 11
216.4194157179
 21
108.5525830904
 31
0.0
  0
LINE
  5
158
330
1F
100
AcDbEntity
  8
0
  6
Continuous
 62
     8
370
    25
100
AcDbLine
 10
189.9194157179
 20
108.5525830904
 30
0.0
 11
203.1694157179
 21
108.5525830904
 31
0.0
  0
LINE
  5
159
330
1F
100
AcDbEntity
  8
0
  6
Continuous
 62
     8
370
    25
100
AcDbLine
 10
203.1694157179
 20
105.6478455807
 30
0.0
 11
192.1694157179
 21
105.6478455807
 31
0.0
  0
LINE
  5
15A
330
1F
100
AcDbEntity
  8
0
  6
Continuous
 62
     8
370
    25
100
AcDbLine
 10
214.1694157179
 20
105.6478455807
 30
0.0
 11
203.1694157179
 21
105.6478455807
 31
0.0
  0
LWPOLYLINE
  5
15B
330
1F
100
AcDbEntity
  8
0
  6
Continuous
 62
     8
370
    25
100
AcDbPolyline
 90
        4
 70
   128
 43
0.0
 10
207.6090072549
 20
101.2907567678
 10
207.6516301202
 20
101.4790692601
 10
207.65164615
 20
101.4791262905
 10
207.65164615
 20
101.4791262905
  0
SPLINE
  5
15C
330
1F
100
AcDbEntity
  8
0
  6
Continuous
 62
     8
370
    25
100
AcDbSpline
210
0.0
220
0.0
230
1.0
 70
     8
 71
     3
 72
    10
 73
     6
 74
     0
 42
0.000000001
 43
0.00000001
 40
0.0
 40
0.0
 40
0.0
 40
0.0
 40
0.0003005301743403
 40
0.4942885072124121
 40
1.0
 40
1.0
 40
1.0
 40
1.0
 10
198.6871852858447
 20
101.4791262905266
 30
0.0
 10
198.6871906290984
 20
101.4791072804261
 30
0.0
 10
198.6959787943392
 20
101.4478409552455
 30
0.0
 10
198.713802299403
 20
101.3837837942328
 30
0.0
 10
198.7244210134245
 20
101.3238595663975
 30
0.0
 10
198.7297926334777
 20
101.2935460855691
 30
0.0
  0
SPLINE
  5
15D
330
1F
100
AcDbEntity
  8
0
  6
Continuous
 62
     8
370
    25
100
AcDbSpline
210
0.0
220
0.0
230
1.0
 70
     8
 71
     3
 72
     9
 73
     5
 74
     0
 42
0.000000001
 43
0.00000001
 40
0.0
 40
0.0
 40
0.0
 40
0.0
 40
0.5966813162128373
 40
0.9999999999999999
 40
0.9999999999999999
 40
0.9999999999999999
 40
0.9999999999999999
 10
198.5008014133408
 20
101.2061047072966
 30
0.0
 10
198.4981581331081
 20
101.250550874986
 30
0.0
 10
198.4937281632718
 20
101.3250398299469
 30
0.0
 10
198.4864385120216
 20
101.4052167449794
 30
0.0
 10
198.4834984594742
 20
101.4375535928204
 30
0.0
  0
LINE
  5
15E
330
1F
100
AcDbEntity
  8
0
  6
Continuous
 62
     8
370
    25
100
AcDbLine
 10
213.6694157179
 20
100.1066153646
 30
0.0
 11
209.8285099323
 21
100.1066153646
 31
0.0
  0
LINE
  5
15F
330
1F
100
AcDbEntity
  8
0
  6
Continuous
 62
     8
370
    25
100
AcDbLine
 10
209.09256922
 20
100.5780198854
 30
0.0
 11
213.6694157179
 21
100.5780198854
 31
0.0
  0
LINE
  5
160
330
1F
100
AcDbEntity
  8
0
  6
Continuous
 62
     8
370
    25
100
AcDbLine
 10
192.6694157179
 20
100.5208289269
 30
0.0
 11
192.6694157179
 21
95.6179690451
 31
0.0
  0
LINE
  5
161
330
1F
100
AcDbEntity
  8
0
  6
Continuous
 62
     8
370
    25
100
AcDbLine
 10
213.6694157179
 20
95.6179690451
 30
0.0
 11
213.6694157179
 21
100.1066153646
 31
0.0
  0
LINE
  5
162
330
1F
100
AcDbEntity
  8
0
  6
Continuous
 62
     8
370
    25
100
AcDbLine
 10
192.6694157179
 20
85.4236888088
 30
0.0
 11
192.6694157179
 21
81.0208289269
 31
0.0
  0
LINE
  5
163
330
1F
100
AcDbEntity
  8
0
  6
Continuous
 62
     8
370
    25
100
AcDbLine
 10
209.9503328671
 20
81.0208289269
 30
0.0
 11
213.6694157179
 21
81.0208289269
 31
0.0
  0
LINE
  5
164
330
1F
100
AcDbEntity
  8
0
  6
Continuous
 62
     8
370
    25
100
AcDbLine
 10
213.6694157179
 20
81.0208289269
 30
0.0
 11
213.6694157179
 21
85.4236888088
 31
0.0
  0
LINE
  5
165
330
1F
100
AcDbEntity
  8
0
  6
Continuous
 62
     8
370
    25
100
AcDbLine
 10
192.6694157179
 20
81.0208289269
 30
0.0
 11
196.3884985687
 21
81.0208289269
 31
0.0
  0
LINE
  5
166
330
1F
100
AcDbEntity
  8
0
  6
Continuous
 62
     8
370
    25
100
AcDbLine
 10
207.855332982
 20
101.4375536538
 30
0.0
 11
207.8368191731
 21
101.1927034866
 31
0.0
  0
INSERT
  5
172
330
1F
100
AcDbEntity
  8
0
  6
Continuous
 62
     7
370
    18
100
AcDbBlockReference
  2
SW_CENTERMARKSYMBOL_0
 10
203.1694157179
 20
90.5208289269
 30
0.0
  0
ARC
  5
173
330
1F
100
AcDbEntity
  8
0
  6
Continuous
 62
     7
370
    18
100
AcDbCircle
 10
203.1694157179
 20
90.5208289269
 30
0.0
 40
9.315500000000014
100
AcDbArc
 50
75.0
 51
345.0
  0
ARC
  5
174
330
1F
100
AcDbEntity
  8
0
  6
Continuous
 62
     7
370
    25
100
AcDbCircle
 10
145.2129255101
 20
147.36587588
 30
0.0
 40
3.000000000000021
100
AcDbArc
 50
50.901941589
 51
90.0
  0
ARC
  5
175
330
1F
100
AcDbEntity
  8
0
  6
Continuous
 62
     7
370
    25
100
AcDbCircle
 10
145.2129255101
 20
175.36587588
 30
0.0
 40
3.000000000000021
100
AcDbArc
 50
270.0
 51
309.098058411
  0
LINE
  5
176
330
1F
100
AcDbEntity
  8
0
  6
Continuous
 62
     7
370
    25
100
AcDbLine
 10
147.1048740374
 20
149.6940792152
 30
0.0
 11
148.1176630198
 21
150.7068681976
 31
0.0
  0
LINE
  5
177
330
1F
100
AcDbEntity
  8
0
  6
Continuous
 62
     7
370
    25
100
AcDbLine
 10
148.1176630198
 20
172.0248835623
 30
0.0
 11
147.1048740374
 21
173.0376725447
 31
0.0
  0
LINE
  5
178
330
1F
100
AcDbEntity
  8
0
  6
Continuous
 62
     7
370
    25
100
AcDbLine
 10
145.2129255101
 20
172.36587588
 30
0.0
 11
141.0859088563
 21
172.36587588
 31
0.0
  0
LINE
  5
179
330
1F
100
AcDbEntity
  8
0
  6
Continuous
 62
     7
370
    25
100
AcDbLine
 10
141.0859088563
 20
150.36587588
 30
0.0
 11
145.2129255101
 21
150.36587588
 31
0.0
  0
LINE
  5
17A
330
1F
100
AcDbEntity
  8
0
  6
Continuous
 62
     7
370
    25
100
AcDbLine
 10
148.1176630198
 20
150.7068681976
 30
0.0
 11
159.3895175834
 21
151.0591136527
 31
0.0
  0
LINE
  5
17B
330
1F
100
AcDbEntity
  8
0
  6
Continuous
 62
     7
370
    25
100
AcDbLine
 10
159.3895175834
 20
171.6726381072
 30
0.0
 11
148.1176630198
 21
172.0248835623
 31
0.0
  0
LINE
  5
17C
330
1F
100
AcDbEntity
  8
0
  6
Continuous
 62
     7
370
    25
100
AcDbLine
 10
159.3895175834
 20
151.0591136527
 30
0.0
 11
162.0859088563
 21
152.61587588
 31
0.0
  0
LINE
  5
17D
330
1F
100
AcDbEntity
  8
0
  6
Continuous
 62
     7
370
    25
100
AcDbLine
 10
162.0859088563
 20
170.11587588
 30
0.0
 11
159.3895175834
 21
171.6726381072
 31
0.0
  0
CIRCLE
  5
17E
330
1F
100
AcDbEntity
  8
0
  6
Continuous
 62
     7
370
    25
100
AcDbCircle
 10
130.0859088563
 20
161.36587588
 30
0.0
 40
13.0
  0
CIRCLE
  5
17F
330
1F
100
AcDbEntity
  8
0
  6
Continuous
 62
     7
370
    25
100
AcDbCircle
 10
130.0859088563
 20
161.36587588
 30
0.0
 40
12.02500000000001
  0
CIRCLE
  5
180
330
1F
100
AcDbEntity
  8
0
  6
Continuous
 62
     7
370
    25
100
AcDbCircle
 10
130.0859088563
 20
161.36587588
 30
0.0
 40
11.90000000000001
  0
CIRCLE
  5
181
330
1F
100
AcDbEntity
  8
0
  6
Continuous
 62
     7
370
    25
100
AcDbCircle
 10
130.0859088563
 20
161.36587588
 30
0.0
 40
10.75
  0
CIRCLE
  5
182
330
1F
100
AcDbEntity
  8
0
  6
Continuous
 62
     7
370
    25
100
AcDbCircle
 10
130.0859088563
 20
161.36587588
 30
0.0
 40
11.77500000000001
  0
CIRCLE
  5
183
330
1F
100
AcDbEntity
  8
0
  6
Continuous
 62
     7
370
    25
100
AcDbCircle
 10
130.0859088563
 20
161.36587588
 30
0.0
 40
14.0
  0
CIRCLE
  5
184
330
1F
100
AcDbEntity
  8
0
  6
Continuous
 62
     7
370
    25
100
AcDbCircle
 10
130.0859088563
 20
161.36587588
 30
0.0
 40
9.798213046580429
  0
CIRCLE
  5
185
330
1F
100
AcDbEntity
  8
0
  6
Continuous
 62
     7
370
    25
100
AcDbCircle
 10
130.0859088563
 20
161.36587588
 30
0.0
 40
9.428250615618282
  0
CIRCLE
  5
186
330
1F
100
AcDbEntity
  8
0
  6
Continuous
 62
     7
370
    25
100
AcDbCircle
 10
130.0859088563
 20
161.36587588
 30
0.0
 40
9.315500000000014
  0
CIRCLE
  5
187
330
1F
100
AcDbEntity
  8
0
  6
Continuous
 62
     7
370
    25
100
AcDbCircle
 10
130.0859088563
 20
161.36587588
 30
0.0
 40
6.5
  0
LINE
  5
188
330
1F
100
AcDbEntity
  8
0
  6
Continuous
 62
     7
370
    25
100
AcDbLine
 10
147.1048740374
 20
173.0376725447
 30
0.0
 11
147.1048740374
 21
149.6940792152
 31
0.0
  0
LINE
  5
189
330
1F
100
AcDbEntity
  8
0
  6
Continuous
 62
     7
370
    25
100
AcDbLine
 10
148.1176630198
 20
172.0248835623
 30
0.0
 11
148.1176630198
 21
150.7068681976
 31
0.0
  0
LINE
  5
18A
330
1F
100
AcDbEntity
  8
0
  6
Continuous
 62
     7
370
    25
100
AcDbLine
 10
140.0859088563
 20
171.86587588
 30
0.0
 11
140.0859088563
 21
171.1638348511
 31
0.0
  0
LINE
  5
18B
330
1F
100
AcDbEntity
  8
0
  6
Continuous
 62
     7
370
    25
100
AcDbLine
 10
140.752575523
 20
171.86587588
 30
0.0
 11
140.0859088563
 21
171.86587588
 31
0.0
  0
LINE
  5
18C
330
1F
100
AcDbEntity
  8
0
  6
Continuous
 62
     7
370
    25
100
AcDbLine
 10
141.0859088563
 20
152.7056218421
 30
0.0
 11
141.0859088563
 21
150.86587588
 31
0.0
  0
LINE
  5
18D
330
1F
100
AcDbEntity
  8
0
  6
Continuous
 62
     7
370
    25
100
AcDbLine
 10
140.0859088563
 20
150.86587588
 30
0.0
 11
141.0859088563
 21
150.86587588
 31
0.0
  0
LINE
  5
18E
330
1F
100
AcDbEntity
  8
0
  6
Continuous
 62
     7
370
    25
100
AcDbLine
 10
140.0859088563
 20
151.5679169088
 30
0.0
 11
140.0859088563
 21
150.86587588
 31
0.0
  0
SPLINE
  5
18F
330
1F
100
AcDbEntity
  8
0
  6
Continuous
 62
     7
370
    25
100
AcDbSpline
210
0.0
220
0.0
230
1.0
 70
     8
 71
     3
 72
    12
 73
     8
 74
     0
 42
0.000000001
 43
0.00000001
 40
0.0
 40
0.0
 40
0.0
 40
0.0
 40
0.25
 40
0.25
 40
0.5
 40
0.5
 40
1.0
 40
1.0
 40
1.0
 40
1.0
 10
141.438423192273
 20
150.8224200305835
 30
0.0
 10
141.3903979746303
 20
150.7474978886834
 30
0.0
 10
141.3537137043554
 20
150.6813344332994
 30
0.0
 10
141.287739811426
 20
150.5673799052493
 30
0.0
 10
141.2589881788577
 20
150.5195240997885
 30
0.0
 10
141.1784332780678
 20
150.4044688041681
 30
0.0
 10
141.132301801448
 20
150.3658758799546
 30
0.0
 10
141.0859088563171
 20
150.3658758799546
 30
0.0
  0
SPLINE
  5
190
330
1F
100
AcDbEntity
  8
0
  6
Continuous
 62
     7
370
    25
100
AcDbSpline
210
0.0
220
0.0
230
1.0
 70
     8
 71
     3
 72
     8
 73
     4
 74
     0
 42
0.000000001
 43
0.00000001
 40
0.0
 40
0.0
 40
0.0
 40
0.0
 40
1.0
 40
1.0
 40
1.0
 40
1.0
 10
141.5859088563171
 20
151.3223976190851
 30
0.0
 10
141.5859088563171
 20
151.1241572872704
 30
0.0
 10
141.5256143718315
 20
150.9584433584928
 30
0.0
 10
141.438423192273
 20
150.8224200305835
 30
0.0
  0
SPLINE
  5
191
330
1F
100
AcDbEntity
  8
0
  6
Continuous
 62
     7
370
    25
100
AcDbSpline
210
0.0
220
0.0
230
1.0
 70
     8
 71
     3
 72
     8
 73
     4
 74
     0
 42
0.000000001
 43
0.00000001
 40
0.0
 40
0.0
 40
0.0
 40
0.0
 40
1.0
 40
1.0
 40
1.0
 40
1.0
 10
141.438423192273
 20
171.9093317293257
 30
0.0
 10
141.5256143718315
 20
171.7733084014164
 30
0.0
 10
141.5859088563171
 20
171.6075944726389
 30
0.0
 10
141.5859088563171
 20
171.4093541408242
 30
0.0
  0
SPLINE
  5
192
330
1F
100
AcDbEntity
  8
0
  6
Continuous
 62
     7
370
    25
100
AcDbSpline
210
0.0
220
0.0
230
1.0
 70
     8
 71
     3
 72
    12
 73
     8
 74
     0
 42
0.000000001
 43
0.00000001
 40
0.0
 40
0.0
 40
0.0
 40
0.0
 40
0.2499999999999999
 40
0.2499999999999999
 40
0.4999999999999999
 40
0.4999999999999999
 40
1.0
 40
1.0
 40
1.0
 40
1.0
 10
141.438423192273
 20
171.9093317293257
 30
0.0
 10
141.3903812216368
 20
171.9842800068734
 30
0.0
 10
141.3536875789896
 20
172.0504634619837
 30
0.0
 10
141.2876968975585
 20
172.1644449674187
 30
0.0
 10
141.258923409379
 20
172.2123264043981
 30
0.0
 10
141.178447702361
 20
172.3272498703122
 30
0.0
 10
141.1323179991651
 20
172.3658758799546
 30
0.0
 10
141.0859088563171
 20
172.3658758799546
 30
0.0
  0
LINE
  5
193
330
1F
100
AcDbEntity
  8
0
  6
Continuous
 62
     7
370
    25
100
AcDbLine
 10
120.5859088563
 20
172.36587588
 30
0.0
 11
120.5859088563
 21
171.86587588
 31
0.0
  0
LINE
  5
194
330
1F
100
AcDbEntity
  8
0
  6
Continuous
 62
     7
370
    25
100
AcDbLine
 10
120.5859088563
 20
172.36587588
 30
0.0
 11
121.4256548185
 21
172.36587588
 31
0.0
  0
LINE
  5
195
330
1F
100
AcDbEntity
  8
0
  6
Continuous
 62
     7
370
    25
100
AcDbLine
 10
120.5859088563
 20
171.86587588
 30
0.0
 11
120.0859088563
 21
171.86587588
 31
0.0
  0
ARC
  5
196
330
1F
100
AcDbEntity
  8
0
  6
Continuous
 62
     7
370
    25
100
AcDbCircle
 10
120.5859088563
 20
171.86587588
 30
0.0
 40
0.5
100
AcDbArc
 50
90.0
 51
180.0
  0
SPLINE
  5
197
330
1F
100
AcDbEntity
  8
0
  6
Continuous
 62
     7
370
    25
100
AcDbSpline
210
0.0
220
0.0
230
1.0
 70
     8
 71
     3
 72
    12
 73
     8
 74
     0
 42
0.000000001
 43
0.00000001
 40
0.0
 40
0.0
 40
0.0
 40
0.0
 40
0.2499999999999999
 40
0.2499999999999999
 40
0.4999999999999999
 40
0.4999999999999999
 40
1.0
 40
1.0
 40
1.0
 40
1.0
 10
140.0859088563171
 20
171.8658758799546
 30
0.0
 10
140.0859088563171
 20
171.9420617250929
 30
0.0
 10
140.0678434284261
 20
172.01543606991
 30
0.0
 10
140.0111821868909
 20
172.1416095731112
 30
0.0
 10
139.9736598273688
 20
172.1943364960069
 30
0.0
 10
139.8511330632758
 20
172.3219809243352
 30
0.0
 10
139.7581582547795
 20
172.3658758799546
 30
0.0
 10
139.671695293944
 20
172.3658758799546
 30
0.0
  0
LINE
  5
198
330
1F
100
AcDbEntity
  8
0
  6
Continuous
 62
     7
370
    25
100
AcDbLine
 10
138.7461628942
 20
172.36587588
 30
0.0
 11
139.6716952939
 21
172.36587588
 31
0.0
  0
LINE
  5
199
330
1F
100
AcDbEntity
  8
0
  6
Continuous
 62
     7
370
    25
100
AcDbLine
 10
120.0859088563
 20
171.1638348511
 30
0.0
 11
120.0859088563
 21
171.86587588
 31
0.0
  0
LWPOLYLINE
  5
19A
330
1F
100
AcDbEntity
  8
0
  6
Continuous
 62
     7
370
    25
100
AcDbPolyline
 90
        9
 70
   128
 43
0.0
 10
140.5859088563
 20
172.36587588
 10
140.61842391
 20
172.3562685202
 10
140.6496894284
 20
172.3278156462
 10
140.6785038952
 20
172.2816106861
 10
140.7037599865
 20
172.2194292705
 10
140.724487125
 20
172.1436609965
 10
140.7398887784
 20
172.0572175961
 10
140.7493730697
 20
171.963421041
 10
140.752575523
 20
171.86587588
  0
LINE
  5
19B
330
1F
100
AcDbEntity
  8
0
  6
Continuous
 62
     7
370
    25
100
AcDbLine
 10
139.6716952939
 20
172.36587588
 30
0.0
 11
140.5859088563
 21
172.36587588
 31
0.0
  0
LINE
  5
19C
330
1F
100
AcDbEntity
  8
0
  6
Continuous
 62
     7
370
    25
100
AcDbLine
 10
120.0859088563
 20
150.86587588
 30
0.0
 11
120.0859088563
 21
151.5679169088
 31
0.0
  0
LINE
  5
19D
330
1F
100
AcDbEntity
  8
0
  6
Continuous
 62
     7
370
    25
100
AcDbLine
 10
120.0859088563
 20
150.86587588
 30
0.0
 11
120.5859088563
 21
150.86587588
 31
0.0
  0
LINE
  5
19E
330
1F
100
AcDbEntity
  8
0
  6
Continuous
 62
     7
370
    25
100
AcDbLine
 10
120.5859088563
 20
150.86587588
 30
0.0
 11
120.5859088563
 21
150.36587588
 31
0.0
  0
LINE
  5
19F
330
1F
100
AcDbEntity
  8
0
  6
Continuous
 62
     7
370
    25
100
AcDbLine
 10
121.4256548185
 20
150.36587588
 30
0.0
 11
120.5859088563
 21
150.36587588
 31
0.0
  0
ARC
  5
1A0
330
1F
100
AcDbEntity
  8
0
  6
Continuous
 62
     7
370
    25
100
AcDbCircle
 10
120.5859088563
 20
150.86587588
 30
0.0
 40
0.5
100
AcDbArc
 50
180.0
 51
270.0
  0
SPLINE
  5
1A1
330
1F
100
AcDbEntity
  8
0
  6
Continuous
 62
     7
370
    25
100
AcDbSpline
210
0.0
220
0.0
230
1.0
 70
     8
 71
     3
 72
    12
 73
     8
 74
     0
 42
0.000000001
 43
0.00000001
 40
0.0
 40
0.0
 40
0.0
 40
0.0
 40
0.2499999999999999
 40
0.2499999999999999
 40
0.4999999999999999
 40
0.4999999999999999
 40
1.0
 40
1.0
 40
1.0
 40
1.0
 10
140.0859088563171
 20
150.8658758799546
 30
0.0
 10
140.0859088563171
 20
150.7896900348164
 30
0.0
 10
140.0678434284261
 20
150.7163156899993
 30
0.0
 10
140.0111821868909
 20
150.5901421867981
 30
0.0
 10
139.9736598273688
 20
150.5374152639024
 30
0.0
 10
139.8511330632758
 20
150.4097708355741
 30
0.0
 10
139.7581582547795
 20
150.3658758799546
 30
0.0
 10
139.671695293944
 20
150.3658758799546
 30
0.0
  0
LINE
  5
1A2
330
1F
100
AcDbEntity
  8
0
  6
Continuous
 62
     7
370
    25
100
AcDbLine
 10
139.6716952939
 20
150.36587588
 30
0.0
 11
138.7461628942
 21
150.36587588
 31
0.0
  0
SPLINE
  5
1A3
330
1F
100
AcDbEntity
  8
0
  6
Continuous
 62
     7
370
    25
100
AcDbSpline
210
0.0
220
0.0
230
1.0
 70
     8
 71
     3
 72
    12
 73
     8
 74
     0
 42
0.000000001
 43
0.00000001
 40
0.0
 40
0.0
 40
0.0
 40
0.0
 40
0.2499999999999993
 40
0.2499999999999993
 40
0.4999999999999987
 40
0.4999999999999987
 40
1.0
 40
1.0
 40
1.0
 40
1.0
 10
141.0859088563171
 20
150.8658758799546
 30
0.0
 10
141.0859088563171
 20
150.7896900348164
 30
0.0
 10
141.0680815606208
 20
150.7163156899993
 30
0.0
 10
141.0087914613664
 20
150.5901421867981
 30
0.0
 10
140.9681939500033
 20
150.5374152639024
 30
0.0
 10
140.8269094063143
 20
150.4097708355741
 30
0.0
 10
140.7080709171283
 20
150.3658758799546
 30
0.0
 10
140.5859088563171
 20
150.3658758799546
 30
0.0
  0
LINE
  5
1A4
330
1F
100
AcDbEntity
  8
0
  6
Continuous
 62
     7
370
    25
100
AcDbLine
 10
140.5859088563
 20
150.36587588
 30
0.0
 11
139.6716952939
 21
150.36587588
 31
0.0
  0
LINE
  5
1A5
330
1F
100
AcDbEntity
  8
0
  6
Continuous
 62
     7
370
    25
100
AcDbLine
 10
159.3895175834
 20
151.0591136527
 30
0.0
 11
159.3895175834
 21
171.6726381072
 31
0.0
  0
ARC
  5
1A6
330
1F
100
AcDbEntity
  8
0
  6
Continuous
 62
     7
370
    25
100
AcDbCircle
 10
141.5651149055
 20
150.8431015528
 30
0.0
 40
0.4797469202790408
100
AcDbArc
 50
87.5158173388
 51
177.2790582562
  0
LINE
  5
1A7
330
1F
100
AcDbEntity
  8
0
  6
Continuous
 62
     7
370
    25
100
AcDbLine
 10
162.0859088563
 20
170.11587588
 30
0.0
 11
162.0859088563
 21
152.61587588
 31
0.0
  0
LINE
  5
1A8
330
1F
100
AcDbEntity
  8
0
  6
Continuous
 62
     7
370
    25
100
AcDbLine
 10
141.0859088563
 20
171.86587588
 30
0.0
 11
140.752575523
 21
171.86587588
 31
0.0
  0
LINE
  5
1A9
330
1F
100
AcDbEntity
  8
0
  6
Continuous
 62
     7
370
    25
100
AcDbLine
 10
141.0859088563
 20
171.86587588
 30
0.0
 11
141.0859088563
 21
170.0261299178
 31
0.0
  0
ARC
  5
1AA
330
1F
100
AcDbEntity
  8
0
  6
Continuous
 62
     7
370
    25
100
AcDbCircle
 10
140.5859088563
 20
171.86587588
 30
0.0
 40
0.5
100
AcDbArc
 50
0.0
 51
90.0
  0
ARC
  5
1AB
330
1F
100
AcDbEntity
  8
0
  6
Continuous
 62
     7
370
    25
100
AcDbCircle
 10
141.5651149055
 20
171.8886502071
 30
0.0
 40
0.4797469202790408
100
AcDbArc
 50
182.7209417438
 51
272.4841826612
  0
LINE
  5
1AC
330
1F
100
AcDbEntity
  8
0
  6
Continuous
 62
     7
370
    25
100
AcDbLine
 10
131.0859088563
 20
154.9432595906
 30
0.0
 11
131.0859088563
 21
167.7884921693
 31
0.0
  0
ARC
  5
1AD
330
1F
100
AcDbEntity
  8
0
  6
Continuous
 62
     7
370
    25
100
AcDbCircle
 10
141.4084262447
 20
172.376529329
 30
0.0
 40
0.4681596031696024
100
AcDbArc
 50
212.1754713914
 51
273.6736973485
  0
ARC
  5
1AE
330
1F
100
AcDbEntity
  8
0
  6
Continuous
 62
     7
370
    25
100
AcDbCircle
 10
141.4084262447
 20
150.3552224309
 30
0.0
 40
0.4681596031695741
100
AcDbArc
 50
86.3263026515
 51
147.8245286086
  0
SPLINE
  5
1AF
330
1F
100
AcDbEntity
  8
0
  6
Continuous
 62
     7
370
    25
100
AcDbSpline
210
0.0
220
0.0
230
1.0
 70
     8
 71
     3
 72
    12
 73
     8
 74
     0
 42
0.000000001
 43
0.00000001
 40
0.0
 40
0.0
 40
0.0
 40
0.0
 40
0.25
 40
0.25
 40
0.5
 40
0.5
 40
1.0
 40
1.0
 40
1.0
 40
1.0
 10
141.0121660242951
 20
172.1272278012168
 30
0.0
 10
140.989453522586
 20
172.1642712122982
 30
0.0
 10
140.9819410027567
 20
172.1984841135864
 30
0.0
 10
140.9803849280576
 20
172.2580162684474
 30
0.0
 10
140.9868117698996
 20
172.2834169994698
 30
0.0
 10
141.017036770204
 20
172.3447756311988
 30
0.0
 10
141.0517322913287
 20
172.3658758799546
 30
0.0
 10
141.0859088563171
 20
172.3658758799546
 30
0.0
  0
SPLINE
  5
1B0
330
1F
100
AcDbEntity
  8
0
  6
Continuous
 62
     7
370
    25
100
AcDbSpline
210
0.0
220
0.0
230
1.0
 70
    24
 71
     3
 72
    12
 73
     8
 74
     0
 42
0.000000001
 43
0.00000001
 40
0.0
 40
0.0
 40
0.0
 40
0.0
 40
0.25
 40
0.25
 40
0.5
 40
0.5
 40
1.0
 40
1.0
 40
1.0
 40
1.0
 10
140.5859088563171
 20
172.3658758799546
 30
0.0
 10
140.5859088563171
 20
172.3658758799546
 30
0.0
 10
140.6056318017251
 20
172.3658758799546
 30
0.0
 10
140.6662682664863
 20
172.3658758799546
 30
0.0
 10
140.7075248121747
 20
172.3658758799546
 30
0.0
 10
140.8492981218467
 20
172.3658758799546
 30
0.0
 10
140.9678651670071
 20
172.3658758799546
 30
0.0
 10
141.0859088563171
 20
172.3658758799546
 30
0.0
  0
SPLINE
  5
1B1
330
1F
100
AcDbEntity
  8
0
  6
Continuous
 62
     7
370
    25
100
AcDbSpline
210
0.0
220
0.0
230
1.0
 70
     8
 71
     3
 72
    12
 73
     8
 74
     0
 42
0.000000001
 43
0.00000001
 40
0.0
 40
0.0
 40
0.0
 40
0.0
 40
0.25
 40
0.25
 40
0.5
 40
0.5
 40
1.0
 40
1.0
 40
1.0
 40
1.0
 10
141.0121660242951
 20
150.6045239586925
 30
0.0
 10
140.989453522586
 20
150.5674805476111
 30
0.0
 10
140.9819410027567
 20
150.5332676463229
 30
0.0
 10
140.9803849280576
 20
150.4737354914619
 30
0.0
 10
140.9868117698996
 20
150.4483347604395
 30
0.0
 10
141.017036770204
 20
150.3869761287105
 30
0.0
 10
141.0517322913282
 20
150.3658758799546
 30
0.0
 10
141.0859088563171
 20
150.3658758799546
 30
0.0
  0
SPLINE
  5
1B2
330
1F
100
AcDbEntity
  8
0
  6
Continuous
 62
     7
370
    25
100
AcDbSpline
210
0.0
220
0.0
230
1.0
 70
    24
 71
     3
 72
    12
 73
     8
 74
     0
 42
0.000000001
 43
0.00000001
 40
0.0
 40
0.0
 40
0.0
 40
0.0
 40
0.2499999999999999
 40
0.2499999999999999
 40
0.4999999999999999
 40
0.4999999999999999
 40
1.0
 40
1.0
 40
1.0
 40
1.0
 10
140.5859088563171
 20
150.3658758799546
 30
0.0
 10
140.5859088563171
 20
150.3658758799546
 30
0.0
 10
140.6056318017251
 20
150.3658758799546
 30
0.0
 10
140.6662682664863
 20
150.3658758799546
 30
0.0
 10
140.7075248121747
 20
150.3658758799546
 30
0.0
 10
140.8492981218467
 20
150.3658758799546
 30
0.0
 10
140.9678651670071
 20
150.3658758799546
 30
0.0
 10
141.0859088563171
 20
150.3658758799546
 30
0.0
  0
SPLINE
  5
1B3
330
1F
100
AcDbEntity
  8
0
  6
Continuous
 62
     7
370
    25
100
AcDbSpline
210
0.0
220
0.0
230
1.0
 70
     8
 71
     3
 72
    44
 73
    40
 74
     0
 42
0.000000001
 43
0.00000001
 40
0.0
 40
0.0
 40
0.0
 40
0.0
 40
0.1250000000000008
 40
0.1250000000000008
 40
0.2500000000000016
 40
0.2500000000000016
 40
0.3125000000000019
 40
0.3125000000000019
 40
0.3750000000000023
 40
0.3750000000000023
 40
0.4375000000000027
 40
0.4375000000000027
 40
0.4687500000000028
 40
0.4687500000000028
 40
0.4843750000000029
 40
0.4843750000000029
 40
0.4921875000000029
 40
0.4921875000000029
 40
0.4960937500000029
 40
0.4960937500000029
 40
0.5000000000000029
 40
0.5000000000000029
 40
0.5078125000000028
 40
0.5078125000000028
 40
0.5156250000000028
 40
0.5156250000000028
 40
0.5312500000000027
 40
0.5312500000000027
 40
0.5625000000000026
 40
0.5625000000000026
 40
0.6250000000000021
 40
0.6250000000000021
 40
0.6875000000000018
 40
0.6875000000000018
 40
0.7500000000000013
 40
0.7500000000000013
 40
0.8750000000000008
 40
0.8750000000000008
 40
1.0
 40
1.0
 40
1.0
 40
1.0
 10
131.0859088563171
 20
154.9432595906221
 30
0.0
 10
130.8194698280918
 20
155.4419666706363
 30
0.0
 10
130.5686458646564
 20
155.9482371497275
 30
0.0
 10
130.1312640098092
 20
156.9869712800894
 30
0.0
 10
129.9435776910395
 20
157.5206390369684
 30
0.0
 10
129.7654145082673
 20
158.3511165990821
 30
0.0
 10
129.7246156024223
 20
158.6294091207573
 30
0.0
 10
129.6885819996147
 20
159.1879404654328
 30
0.0
 10
129.6935986369974
 20
159.468937858434
 30
0.0
 10
129.7513756746485
 20
160.0279728283576
 30
0.0
 10
129.8036566999594
 20
160.3036160849103
 30
0.0
 10
129.9100903468998
 20
160.7108697734948
 30
0.0
 10
129.950144060973
 20
160.8453120988955
 30
0.0
 10
130.0157408531967
 20
161.0455240912402
 30
0.0
 10
130.0385645179581
 20
161.1119345025749
 30
0.0
 10
130.0735723359753
 20
161.2118346344041
 30
0.0
 10
130.085468324574
 20
161.2450576164723
 30
0.0
 10
130.1024955488057
 20
161.2962778260176
 30
0.0
 10
130.1082054589652
 20
161.3135037443447
 30
0.0
 10
130.1167263960751
 20
161.3508021997815
 30
0.0
 10
130.1177695574625
 20
161.3723991164019
 30
0.0
 10
130.1069529779471
 20
161.4296800836057
 30
0.0
 10
130.0937785657591
 20
161.4620237543872
 30
0.0
 10
130.0705847314521
 20
161.5286216455712
 30
0.0
 10
130.0589169320513
 20
161.5616193359796
 30
0.0
 10
130.0244788849779
 20
161.6606912901644
 30
0.0
 10
130.0021868293635
 20
161.7267486995502
 30
0.0
 10
129.938152521223
 20
161.9258297190256
 30
0.0
 10
129.8992041703307
 20
162.0595940418387
 30
0.0
 10
129.7964482188583
 20
162.4630274576
 30
0.0
 10
129.7466219827994
 20
162.7354220407762
 30
0.0
 10
129.6926868965309
 20
163.2875315165581
 30
0.0
 10
129.6889613857899
 20
163.5693046468422
 30
0.0
 10
129.727524673198
 20
164.1260083959055
 30
0.0
 10
129.7691362813835
 20
164.401108209415
 30
0.0
 10
129.946215485667
 20
165.2168825813512
 30
0.0
 10
130.1332100322057
 20
165.7499405605008
 30
0.0
 10
130.570536825752
 20
166.78746219702
 30
0.0
 10
130.8206529704865
 20
167.2919996352908
 30
0.0
 10
131.0859088563171
 20
167.7884921692872
 30
0.0
  0
LINE
  5
1B4
330
1F
100
AcDbEntity
  8
0
  6
Continuous
 62
     8
370
    25
100
AcDbLine
 10
145.2129255101
 20
150.36587588
 30
0.0
 11
145.2129255101
 21
172.36587588
 31
0.0
  0
LINE
  5
1B5
330
1F
100
AcDbEntity
  8
0
  6
Continuous
 62
     8
370
    25
100
AcDbLine
 10
140.752575523
 20
170.4335228858
 30
0.0
 11
140.752575523
 21
171.86587588
 31
0.0
  0
LINE
  5
1B6
330
1F
100
AcDbEntity
  8
0
  6
Continuous
 62
     8
370
    25
100
AcDbLine
 10
141.5859088563
 20
153.3815161686
 30
0.0
 11
141.5859088563
 21
151.3223976191
 31
0.0
  0
LINE
  5
1B7
330
1F
100
AcDbEntity
  8
0
  6
Continuous
 62
     8
370
    25
100
AcDbLine
 10
141.5859088563
 20
171.4093541408
 30
0.0
 11
141.5859088563
 21
169.3502355913
 31
0.0
  0
LINE
  5
1B8
330
1F
100
AcDbEntity
  8
0
  6
Continuous
 62
     8
370
    25
100
AcDbLine
 10
120.8257792676
 20
171.86587588
 30
0.0
 11
120.5859088563
 21
171.86587588
 31
0.0
  0
LINE
  5
1B9
330
1F
100
AcDbEntity
  8
0
  6
Continuous
 62
     8
370
    25
100
AcDbLine
 10
120.5859088563
 20
171.86587588
 30
0.0
 11
120.5859088563
 21
171.6493577806
 31
0.0
  0
LINE
  5
1BA
330
1F
100
AcDbEntity
  8
0
  6
Continuous
 62
     8
370
    25
100
AcDbLine
 10
140.0859088563
 20
171.86587588
 30
0.0
 11
139.346038445
 21
171.86587588
 31
0.0
  0
LINE
  5
1BB
330
1F
100
AcDbEntity
  8
0
  6
Continuous
 62
     8
370
    25
100
AcDbLine
 10
120.5859088563
 20
151.0823939794
 30
0.0
 11
120.5859088563
 21
150.86587588
 31
0.0
  0
LINE
  5
1BC
330
1F
100
AcDbEntity
  8
0
  6
Continuous
 62
     8
370
    25
100
AcDbLine
 10
139.346038445
 20
150.86587588
 30
0.0
 11
140.0859088563
 21
150.86587588
 31
0.0
  0
LINE
  5
1BD
330
1F
100
AcDbEntity
  8
0
  6
Continuous
 62
     8
370
    25
100
AcDbLine
 10
120.5859088563
 20
150.86587588
 30
0.0
 11
120.8257792676
 21
150.86587588
 31
0.0
  0
INSERT
  5
1C9
330
1F
100
AcDbEntity
  8
0
  6
Continuous
 62
     7
370
    18
100
AcDbBlockReference
  2
SW_CENTERMARKSYMBOL_1
 10
130.0859088563
 20
161.36587588
 30
0.0
  0
LINE
  5
1CA
330
1F
100
AcDbEntity
  8
0
  6
Continuous
 62
     7
370
    18
100
AcDbLine
 10
161.2046828254
 20
152.1070997938
 30
0.0
 11
148.1522313411
 21
151.6992106849
 31
0.0
  0
LINE
  5
1CB
330
1F
100
AcDbEntity
  8
0
  6
Continuous
 62
     7
370
    18
100
AcDbLine
 10
161.2046828254
 20
170.6246519661
 30
0.0
 11
148.1522313411
 21
171.032541075
 31
0.0
  0
LINE
  5
1CC
330
1F
100
AcDbEntity
  8
0
  6
Continuous
 62
     7
370
    18
100
AcDbLine
 10
148.1522313411
 20
172.0238033023
 30
0.0
 11
148.1522313411
 21
150.7079484576
 31
0.0
  0
ARC
  5
1CD
330
1F
100
AcDbEntity
  8
0
  6
Continuous
 62
     7
370
    18
100
AcDbCircle
 10
130.0859088563
 20
161.36587588
 30
0.0
 40
10.43039212103399
100
AcDbArc
 50
75.0
 51
345.0
  0
ENDSEC
  0
SECTION
  2
OBJECTS
  0
DICTIONARY
  5
C
330
0
100
AcDbDictionary
281
     1
  3
ACAD_GROUP
350
D
  3
ACAD_LAYOUT
350
1A
  3
ACAD_MLINESTYLE
350
17
  3
ACAD_PLOTSETTINGS
350
19
  3
ACAD_PLOTSTYLENAME
350
E
  3
ACAD_SCALELIST
350
47
  0
DICTIONARY
  5
D
102
{ACAD_REACTORS
330
C
102
}
330
C
100
AcDbDictionary
281
     1
  0
DICTIONARY
  5
1A
102
{ACAD_REACTORS
330
C
102
}
330
C
100
AcDbDictionary
281
     1
  3
Layout1
350
1E
  3
Layout2
350
26
  3
Model
350
22
  0
DICTIONARY
  5
17
102
{ACAD_REACTORS
330
C
102
}
330
C
100
AcDbDictionary
281
     1
  3
Standard
350
18
  0
DICTIONARY
  5
19
102
{ACAD_REACTORS
330
C
102
}
330
C
100
AcDbDictionary
281
     1
  0
ACDBDICTIONARYWDFLT
  5
E
102
{ACAD_REACTORS
330
C
102
}
330
C
100
AcDbDictionary
281
     1
  3
Normal
350
F
100
AcDbDictionaryWithDefault
340
F
  0
DICTIONARY
  5
47
102
{ACAD_REACTORS
330
C
102
}
330
C
100
AcDbDictionary
281
     1
  3
A0
350
48
  3
A1
350
49
  3
A2
350
4A
  3
A3
350
4B
  3
A4
350
4C
  3
A5
350
4D
  3
A6
350
4E
  3
A7
350
4F
  3
A8
350
50
  3
A9
350
51
  3
B0
350
52
  3
B1
350
53
  3
B2
350
54
  3
B3
350
55
  3
B4
350
56
  3
B5
350
57
  3
B6
350
58
  3
B7
350
59
  3
B8
350
5A
  3
B9
350
5B
  3
C0
350
5C
  3
C1
350
5D
  3
C2
350
5E
  3
C3
350
5F
  3
C4
350
60
  3
C5
350
61
  3
C6
350
62
  3
C7
350
63
  3
C8
350
64
  3
C9
350
65
  3
D0
350
66
  3
D1
350
67
  3
D2
350
68
  0
LAYOUT
  5
1E
102
{ACAD_REACTORS
330
1A
102
}
330
1A
100
AcDbPlotSettings
  1

  2
none_device
  4

  6

 40
0.0
 41
0.0
 42
0.0
 43
0.0
 44
0.0
 45
0.0
 46
0.0
 47
0.0
 48
0.0
 49
0.0
140
0.0
141
0.0
142
1.0
143
1.0
 70
   688
 72
     1
 73
     0
 74
     5
  7

 75
    16
147
1.0
148
0.0
149
0.0
100
AcDbLayout
  1
Layout1
 70
     1
 71
     1
 10
0.0
 20
0.0
 11
420.0
 21
297.0
 12
0.0
 22
0.0
 32
0.0
 14
1.0000000000E+20
 24
1.0000000000E+20
 34
1.0000000000E+20
 15
-1.0000000000E+20
 25
-1.0000000000E+20
 35
-1.0000000000E+20
146
0.0
 13
0.0
 23
0.0
 33
0.0
 16
1.0
 26
0.0
 36
0.0
 17
0.0
 27
1.0
 37
0.0
 76
     0
330
1B
  0
LAYOUT
  5
26
102
{ACAD_REACTORS
330
1A
102
}
330
1A
100
AcDbPlotSettings
  1

  2
none_device
  4

  6

 40
0.0
 41
0.0
 42
0.0
 43
0.0
 44
0.0
 45
0.0
 46
0.0
 47
0.0
 48
0.0
 49
0.0
140
0.0
141
0.0
142
1.0
143
1.0
 70
   688
 72
     1
 73
     0
 74
     5
  7

 75
    16
147
1.0
148
0.0
149
0.0
100
AcDbLayout
  1
Layout2
 70
     1
 71
     2
 10
0.0
 20
0.0
 11
0.0
 21
0.0
 12
0.0
 22
0.0
 32
0.0
 14
0.0
 24
0.0
 34
0.0
 15
0.0
 25
0.0
 35
0.0
146
0.0
 13
0.0
 23
0.0
 33
0.0
 16
1.0
 26
0.0
 36
0.0
 17
0.0
 27
1.0
 37
0.0
 76
     0
330
23
  0
LAYOUT
  5
22
102
{ACAD_REACTORS
330
1A
102
}
330
1A
100
AcDbPlotSettings
  1

  2
none_device
  4
Letter_(8.50_x_11.00_Inches)
  6

 40
6.35
 41
6.35
 42
6.35000508
 43
6.35000508
 44
215.9
 45
279.4
 46
0.0
 47
0.0
 48
0.0
 49
0.0
140
0.0
141
0.0
142
1.0
143
1.0
 70
  1712
 72
     1
 73
     0
 74
     0
  7

 75
     0
147
1.0
148
0.0
149
0.0
100
AcDbLayout
  1
Model
 70
     1
 71
     0
 10
0.0
 20
0.0
 11
431.8
 21
279.4
 12
0.0
 22
0.0
 32
0.0
 14
0.0
 24
0.0
 34
0.0
 15
431.8
 25
279.4
 35
0.0
146
0.0
 13
0.0
 23
0.0
 33
0.0
 16
1.0
 26
0.0
 36
0.0
 17
0.0
 27
1.0
 37
0.0
 76
     0
330
1F
331
29
  0
MLINESTYLE
  5
18
102
{ACAD_REACTORS
330
17
102
}
330
17
100
AcDbMlineStyle
  2
Standard
 70
     0
  3

 62
   256
 51
90.0
 52
90.0
 71
     2
 49
0.5
 62
   256
  6
BYLAYER
 49
-0.5
 62
   256
  6
BYLAYER
  0
ACDBPLACEHOLDER
  5
F
102
{ACAD_REACTORS
330
E
102
}
330
E
  0
SCALE
  5
48
102
{ACAD_REACTORS
330
47
102
}
330
47
100
AcDbScale
 70
     0
300
1:1
140
1.0
141
1.0
290
     1
  0
SCALE
  5
49
102
{ACAD_REACTORS
330
47
102
}
330
47
100
AcDbScale
 70
     0
300
1:2
140
1.0
141
2.0
290
     0
  0
SCALE
  5
4A
102
{ACAD_REACTORS
330
47
102
}
330
47
100
AcDbScale
 70
     0
300
1:4
140
1.0
141
4.0
290
     0
  0
SCALE
  5
4B
102
{ACAD_REACTORS
330
47
102
}
330
47
100
AcDbScale
 70
     0
300
1:5
140
1.0
141
5.0
290
     0
  0
SCALE
  5
4C
102
{ACAD_REACTORS
330
47
102
}
330
47
100
AcDbScale
 70
     0
300
1:8
140
1.0
141
8.0
290
     0
  0
SCALE
  5
4D
102
{ACAD_REACTORS
330
47
102
}
330
47
100
AcDbScale
 70
     0
300
1:10
140
1.0
141
10.0
290
     0
  0
SCALE
  5
4E
102
{ACAD_REACTORS
330
47
102
}
330
47
100
AcDbScale
 70
     0
300
1:16
140
1.0
141
16.0
290
     0
  0
SCALE
  5
4F
102
{ACAD_REACTORS
330
47
102
}
330
47
100
AcDbScale
 70
     0
300
1:20
140
1.0
141
20.0
290
     0
  0
SCALE
  5
50
102
{ACAD_REACTORS
330
47
102
}
330
47
100
AcDbScale
 70
     0
300
1:30
140
1.0
141
30.0
290
     0
  0
SCALE
  5
51
102
{ACAD_REACTORS
330
47
102
}
330
47
100
AcDbScale
 70
     0
300
1:40
140
1.0
141
40.0
290
     0
  0
SCALE
  5
52
102
{ACAD_REACTORS
330
47
102
}
330
47
100
AcDbScale
 70
     0
300
1:50
140
1.0
141
50.0
290
     0
  0
SCALE
  5
53
102
{ACAD_REACTORS
330
47
102
}
330
47
100
AcDbScale
 70
     0
300
1:100
140
1.0
141
100.0
290
     0
  0
SCALE
  5
54
102
{ACAD_REACTORS
330
47
102
}
330
47
100
AcDbScale
 70
     0
300
2:1
140
2.0
141
1.0
290
     0
  0
SCALE
  5
55
102
{ACAD_REACTORS
330
47
102
}
330
47
100
AcDbScale
 70
     0
300
4:1
140
4.0
141
1.0
290
     0
  0
SCALE
  5
56
102
{ACAD_REACTORS
330
47
102
}
330
47
100
AcDbScale
 70
     0
300
8:1
140
8.0
141
1.0
290
     0
  0
SCALE
  5
57
102
{ACAD_REACTORS
330
47
102
}
330
47
100
AcDbScale
 70
     0
300
10:1
140
10.0
141
1.0
290
     0
  0
SCALE
  5
58
102
{ACAD_REACTORS
330
47
102
}
330
47
100
AcDbScale
 70
     0
300
100:1
140
100.0
141
1.0
290
     0
  0
SCALE
  5
59
102
{ACAD_REACTORS
330
47
102
}
330
47
100
AcDbScale
 70
     0
300
1/128" = 1'-0"
140
0.0078125
141
12.0
290
     0
  0
SCALE
  5
5A
102
{ACAD_REACTORS
330
47
102
}
330
47
100
AcDbScale
 70
     0
300
1/64" = 1'-0"
140
0.015625
141
12.0
290
     0
  0
SCALE
  5
5B
102
{ACAD_REACTORS
330
47
102
}
330
47
100
AcDbScale
 70
     0
300
1/32" = 1'-0"
140
0.03125
141
12.0
290
     0
  0
SCALE
  5
5C
102
{ACAD_REACTORS
330
47
102
}
330
47
100
AcDbScale
 70
     0
300
1/16" = 1'-0"
140
0.0625
141
12.0
290
     0
  0
SCALE
  5
5D
102
{ACAD_REACTORS
330
47
102
}
330
47
100
AcDbScale
 70
     0
300
3/32" = 1'-0"
140
0.09375
141
12.0
290
     0
  0
SCALE
  5
5E
102
{ACAD_REACTORS
330
47
102
}
330
47
100
AcDbScale
 70
     0
300
1/8" = 1'-0"
140
0.125
141
12.0
290
     0
  0
SCALE
  5
5F
102
{ACAD_REACTORS
330
47
102
}
330
47
100
AcDbScale
 70
     0
300
3/16" = 1'-0"
140
0.1875
141
12.0
290
     0
  0
SCALE
  5
60
102
{ACAD_REACTORS
330
47
102
}
330
47
100
AcDbScale
 70
     0
300
1/4" = 1'-0"
140
0.25
141
12.0
290
     0
  0
SCALE
  5
61
102
{ACAD_REACTORS
330
47
102
}
330
47
100
AcDbScale
 70
     0
300
3/8" = 1'-0"
140
0.375
141
12.0
290
     0
  0
SCALE
  5
62
102
{ACAD_REACTORS
330
47
102
}
330
47
100
AcDbScale
 70
     0
300
1/2" = 1'-0"
140
0.5
141
12.0
290
     0
  0
SCALE
  5
63
102
{ACAD_REACTORS
330
47
102
}
330
47
100
AcDbScale
 70
     0
300
3/4" = 1'-0"
140
0.75
141
12.0
290
     0
  0
SCALE
  5
64
102
{ACAD_REACTORS
330
47
102
}
330
47
100
AcDbScale
 70
     0
300
1" = 1'-0"
140
1.0
141
12.0
290
     0
  0
SCALE
  5
65
102
{ACAD_REACTORS
330
47
102
}
330
47
100
AcDbScale
 70
     0
300
1-1/2" = 1'-0"
140
1.5
141
12.0
290
     0
  0
SCALE
  5
66
102
{ACAD_REACTORS
330
47
102
}
330
47
100
AcDbScale
 70
     0
300
3" = 1'-0"
140
3.0
141
12.0
290
     0
  0
SCALE
  5
67
102
{ACAD_REACTORS
330
47
102
}
330
47
100
AcDbScale
 70
     0
300
6" = 1'-0"
140
6.0
141
12.0
290
     0
  0
SCALE
  5
68
102
{ACAD_REACTORS
330
47
102
}
330
47
100
AcDbScale
 70
     0
300
1'-0" = 1'-0"
140
12.0
141
12.0
290
     0
  0
ENDSEC
  0
EOF
