  0
SECTION
  2
HEADER
  9
$ACADVER
  1
AC1015
  9
$ACADMAINTVER
 70
     6
  9
$DWGCODEPAGE
  3
DOS932
  9
$INSBASE
 10
0.0
 20
0.0
 30
0.0
  9
$EXTMIN
 10
0.0
 20
0.0
 30
0.0
  9
$EXTMAX
 10
431.8
 20
279.4
 30
0.0
  9
$LIMMIN
 10
0.0
 20
0.0
  9
$LIMMAX
 10
431.8
 20
279.4
  9
$ORTHOMODE
 70
     0
  9
$REGENMODE
 70
     1
  9
$FILLMODE
 70
     1
  9
$QTEXTMODE
 70
     0
  9
$MIRRTEXT
 70
     1
  9
$LTSCALE
 40
1.0
  9
$ATTMODE
 70
     1
  9
$TEXTSIZE
 40
3.5
  9
$TRACEWID
 40
1.0
  9
$TEXTSTYLE
  7
Standard
  9
$CLAYER
  8
0
  9
$CELTYPE
  6
ByLayer
  9
$CECOLOR
 62
   256
  9
$CELTSCALE
 40
1.0
  9
$DISPSILH
 70
     0
  9
$DIMSCALE
 40
1.0
  9
$DIMASZ
 40
3.302
  9
$DIMEXO
 40
1.0
  9
$DIMDLI
 40
3.75
  9
$DIMRND
 40
0.0
  9
$DIMDLE
 40
0.0
  9
$DIMEXE
 40
1.0
  9
$DIMTP
 40
0.0
  9
$DIMTM
 40
0.0
  9
$DIMTXT
 40
3.5
  9
$DIMCEN
 40
2.5
  9
$DIMTSZ
 40
0.0
  9
$DIMTOL
 70
     0
  9
$DIMLIM
 70
     0
  9
$DIMTIH
 70
     1
  9
$DIMTOH
 70
     1
  9
$DIMSE1
 70
     0
  9
$DIMSE2
 70
     0
  9
$DIMTAD
 70
     1
  9
$DIMZIN
 70
     1
  9
$DIMBLK
  1

  9
$DIMASO
 70
     1
  9
$DIMSHO
 70
     1
  9
$DIMPOST
  1

  9
$DIMAPOST
  1

  9
$DIMALT
 70
     0
  9
$DIMALTD
 70
     3
  9
$DIMALTF
 40
0.0393700787
  9
$DIMLFAC
 40
1.0
  9
$DIMTOFL
 70
     1
  9
$DIMTVP
 40
0.0
  9
$DIMTIX
 70
     0
  9
$DIMSOXD
 70
     0
  9
$DIMSAH
 70
     0
  9
$DIMBLK1
  1

  9
$DIMBLK2
  1

  9
$DIMSTYLE
  2
ISO-25
  9
$DIMCLRD
 70
     0
  9
$DIMCLRE
 70
     0
  9
$DIMCLRT
 70
     0
  9
$DIMTFAC
 40
1.0
  9
$DIMGAP
 40
1.524
  9
$DIMJUST
 70
     0
  9
$DIMSD1
 70
     0
  9
$DIMSD2
 70
     0
  9
$DIMTOLJ
 70
     0
  9
$DIMTZIN
 70
     1
  9
$DIMALTZ
 70
     0
  9
$DIMALTTZ
 70
     0
  9
$DIMUPT
 70
     0
  9
$DIMDEC
 70
     2
  9
$DIMTDEC
 70
     2
  9
$DIMALTU
 70
     2
  9
$DIMALTTD
 70
     3
  9
$DIMTXSTY
  7
Standard
  9
$DIMAUNIT
 70
     0
  9
$DIMADEC
 70
     2
  9
$DIMALTRND
 40
0.0
  9
$DIMAZIN
 70
     0
  9
$DIMDSEP
 70
    44
  9
$DIMATFIT
 70
     3
  9
$DIMFRAC
 70
     0
  9
$DIMLDRBLK
  1

  9
$DIMLUNIT
 70
     2
  9
$DIMLWD
 70
    -2
  9
$DIMLWE
 70
    -2
  9
$DIMTMOVE
 70
     0
  9
$LUNITS
 70
     2
  9
$LUPREC
 70
     2
  9
$SKETCHINC
 40
1.0
  9
$FILLETRAD
 40
10.0
  9
$AUNITS
 70
     0
  9
$AUPREC
 70
     2
  9
$MENU
  1
.
  9
$ELEVATION
 40
0.0
  9
$PELEVATION
 40
0.0
  9
$THICKNESS
 40
0.0
  9
$LIMCHECK
 70
     0
  9
$CHAMFERA
 40
0.0
  9
$CHAMFERB
 40
0.0
  9
$CHAMFERC
 40
0.0
  9
$CHAMFERD
 40
0.0
  9
$SKPOLY
 70
     0
  9
$TDCREATE
 40
2459235.59419397
  9
$TDUCREATE
 40
2459235.21919397
  9
$TDUPDATE
 40
2459235.594194398
  9
$TDUUPDATE
 40
2459235.219194398
  9
$TDINDWG
 40
0.0000000116
  9
$TDUSRTIMER
 40
0.0000000116
  9
$USRTIMER
 70
     1
  9
$ANGBASE
 50
0.0
  9
$ANGDIR
 70
     0
  9
$PDMODE
 70
     0
  9
$PDSIZE
 40
-1.0
  9
$PLINEWID
 40
0.0
  9
$SPLFRAME
 70
     0
  9
$SPLINETYPE
 70
     6
  9
$SPLINESEGS
 70
     8
  9
$HANDSEED
  5
174
  9
$SURFTAB1
 70
     6
  9
$SURFTAB2
 70
     6
  9
$SURFTYPE
 70
     6
  9
$SURFU
 70
     6
  9
$SURFV
 70
     6
  9
$UCSBASE
  2

  9
$UCSNAME
  2

  9
$UCSORG
 10
0.0
 20
0.0
 30
0.0
  9
$UCSXDIR
 10
1.0
 20
0.0
 30
0.0
  9
$UCSYDIR
 10
0.0
 20
1.0
 30
0.0
  9
$UCSORTHOREF
  2

  9
$UCSORTHOVIEW
 70
     0
  9
$UCSORGTOP
 10
0.0
 20
0.0
 30
0.0
  9
$UCSORGBOTTOM
 10
0.0
 20
0.0
 30
0.0
  9
$UCSORGLEFT
 10
0.0
 20
0.0
 30
0.0
  9
$UCSORGRIGHT
 10
0.0
 20
0.0
 30
0.0
  9
$UCSORGFRONT
 10
0.0
 20
0.0
 30
0.0
  9
$UCSORGBACK
 10
0.0
 20
0.0
 30
0.0
  9
$PUCSBASE
  2

  9
$PUCSNAME
  2

  9
$PUCSORG
 10
0.0
 20
0.0
 30
0.0
  9
$PUCSXDIR
 10
1.0
 20
0.0
 30
0.0
  9
$PUCSYDIR
 10
0.0
 20
1.0
 30
0.0
  9
$PUCSORTHOREF
  2

  9
$PUCSORTHOVIEW
 70
     0
  9
$PUCSORGTOP
 10
0.0
 20
0.0
 30
0.0
  9
$PUCSORGBOTTOM
 10
0.0
 20
0.0
 30
0.0
  9
$PUCSORGLEFT
 10
0.0
 20
0.0
 30
0.0
  9
$PUCSORGRIGHT
 10
0.0
 20
0.0
 30
0.0
  9
$PUCSORGFRONT
 10
0.0
 20
0.0
 30
0.0
  9
$PUCSORGBACK
 10
0.0
 20
0.0
 30
0.0
  9
$USERI1
 70
     0
  9
$USERI2
 70
     0
  9
$USERI3
 70
     0
  9
$USERI4
 70
     0
  9
$USERI5
 70
     0
  9
$USERR1
 40
0.0
  9
$USERR2
 40
0.0
  9
$USERR3
 40
0.0
  9
$USERR4
 40
0.0
  9
$USERR5
 40
0.0
  9
$WORLDVIEW
 70
     1
  9
$SHADEDGE
 70
     3
  9
$SHADEDIF
 70
    70
  9
$TILEMODE
 70
     1
  9
$MAXACTVP
 70
    64
  9
$PINSBASE
 10
0.0
 20
0.0
 30
0.0
  9
$PLIMCHECK
 70
     0
  9
$PEXTMIN
 10
1.0000000000E+20
 20
1.0000000000E+20
 30
1.0000000000E+20
  9
$PEXTMAX
 10
-1.0000000000E+20
 20
-1.0000000000E+20
 30
-1.0000000000E+20
  9
$PLIMMIN
 10
0.0
 20
0.0
  9
$PLIMMAX
 10
420.0
 20
297.0
  9
$UNITMODE
 70
     0
  9
$VISRETAIN
 70
     1
  9
$PLINEGEN
 70
     0
  9
$PSLTSCALE
 70
     1
  9
$TREEDEPTH
 70
  3020
  9
$CMLSTYLE
  2
Standard
  9
$CMLJUST
 70
     0
  9
$CMLSCALE
 40
20.0
  9
$PROXYGRAPHICS
 70
     1
  9
$MEASUREMENT
 70
     1
  9
$CELWEIGHT
370
    -1
  9
$ENDCAPS
280
     0
  9
$JOINSTYLE
280
     0
  9
$LWDISPLAY
290
     1
  9
$INSUNITS
 70
     4
  9
$HYPERLINKBASE
  1

  9
$STYLESHEET
  1

  9
$XEDIT
290
     1
  9
$CEPSNTYPE
380
     0
  9
$PSTYLEMODE
290
     1
  9
$FINGERPRINTGUID
  2
{5A90B38E-8943-4DAA-97C2-86B6141EF9BD}
  9
$VERSIONGUID
  2
{FAEB1C32-E019-11D5-929B-00C0DF256EC4}
  9
$EXTNAMES
290
     1
  9
$PSVPSCALE
 40
0.0
  9
$OLESTARTUP
290
     0
  0
ENDSEC
  0
SECTION
  2
CLASSES
  0
CLASS
  1
ACDBDICTIONARYWDFLT
  2
AcDbDictionaryWithDefault
  3
ObjectDBX Classes
 90
        0
280
     0
281
     0
  0
CLASS
  1
VISUALSTYLE
  2
AcDbVisualStyle
  3
ObjectDBX Classes
 90
     4095
280
     0
281
     0
  0
CLASS
  1
MATERIAL
  2
AcDbMaterial
  3
ObjectDBX Classes
 90
     1153
280
     0
281
     0
  0
CLASS
  1
SCALE
  2
AcDbScale
  3
ObjectDBX Classes
 90
     1153
280
     0
281
     0
  0
CLASS
  1
TABLESTYLE
  2
AcDbTableStyle
  3
ObjectDBX Classes
 90
     4095
280
     0
281
     0
  0
CLASS
  1
MLEADERSTYLE
  2
AcDbMLeaderStyle
  3
ACDB_MLEADERSTYLE_CLASS
 90
     4095
280
     0
281
     0
  0
CLASS
  1
SUN
  2
AcDbSun
  3
SCENEOE
 90
     1153
280
     0
281
     0
  0
CLASS
  1
ACDBPLACEHOLDER
  2
AcDbPlaceHolder
  3
ObjectDBX Classes
 90
        0
280
     0
281
     0
  0
CLASS
  1
LAYOUT
  2
AcDbLayout
  3
ObjectDBX Classes
 90
        0
280
     0
281
     0
  0
ENDSEC
  0
SECTION
  2
TABLES
  0
TABLE
  2
VPORT
  5
8
330
0
100
AcDbSymbolTable
 70
     1
  0
VPORT
  5
29
330
8
100
AcDbSymbolTableRecord
100
AcDbViewportTableRecord
  2
*Active
 70
     0
 10
0.0
 20
0.0
 11
1.0
 21
1.0
 12
215.9
 22
139.7
 13
0.0
 23
0.0
 14
10.0
 24
10.0
 15
10.0
 25
10.0
 16
0.0
 26
0.0
 36
1.0
 17
0.0
 27
0.0
 37
0.0
 40
279.4
 41
1.5454545455
 42
50.0
 43
0.0
 44
0.0
 50
0.0
 51
0.0
 71
     0
 72
  2000
 73
     1
 74
     3
 75
     0
 76
     0
 77
     0
 78
     0
281
     0
 65
     1
110
0.0
120
0.0
130
0.0
111
1.0
121
0.0
131
0.0
112
0.0
122
1.0
132
0.0
 79
     0
146
0.0
  0
ENDTAB
  0
TABLE
  2
LTYPE
  5
5
330
0
100
AcDbSymbolTable
 70
     6
  0
LTYPE
  5
14
330
5
100
AcDbSymbolTableRecord
100
AcDbLinetypeTableRecord
  2
ByBlock
 70
     0
  3

 72
    65
 73
     0
 40
0.0
  0
LTYPE
  5
15
330
5
100
AcDbSymbolTableRecord
100
AcDbLinetypeTableRecord
  2
ByLayer
 70
     0
  3

 72
    65
 73
     0
 40
0.0
  0
LTYPE
  5
16
330
5
100
AcDbSymbolTableRecord
100
AcDbLinetypeTableRecord
  2
Continuous
 70
     0
  3
Solid line
 72
    65
 73
     0
 40
0.0
  0
LTYPE
  5
6E
330
5
100
AcDbSymbolTableRecord
100
AcDbLinetypeTableRecord
  2
HIDDEN
 70
     0
  3
Hidden __ __ __ __ __ __ __ __ __ __ __ __ __ __
 72
    65
 73
     2
 40
1.905
 49
1.27
 74
     0
 49
-0.635
 74
     0
  0
LTYPE
  5
6F
330
5
100
AcDbSymbolTableRecord
100
AcDbLinetypeTableRecord
  2
PHANTOM
 70
     0
  3
Phantom ______  __  __  ______  __  __  ______
 72
    65
 73
     6
 40
12.7
 49
6.35
 74
     0
 49
-1.27
 74
     0
 49
1.27
 74
     0
 49
-1.27
 74
     0
 49
1.27
 74
     0
 49
-1.27
 74
     0
  0
LTYPE
  5
70
330
5
100
AcDbSymbolTableRecord
100
AcDbLinetypeTableRecord
  2
CENTER
 70
     0
  3
Center ____ _ ____ _ ____ _ ____ _ ____ _ ____
 72
    65
 73
     4
 40
10.16
 49
6.35
 74
     0
 49
-1.27
 74
     0
 49
1.27
 74
     0
 49
-1.27
 74
     0
  0
LTYPE
  5
71
330
5
100
AcDbSymbolTableRecord
100
AcDbLinetypeTableRecord
  2
CENTERX2
 70
     0
  3
Center (2x) ________  __  ________  __  _____
 72
    65
 73
     4
 40
20.32
 49
12.7
 74
     0
 49
-2.54
 74
     0
 49
2.54
 74
     0
 49
-2.54
 74
     0
  0
LTYPE
  5
72
330
5
100
AcDbSymbolTableRecord
100
AcDbLinetypeTableRecord
  2
DOT2
 70
     0
  3
Dot (.5x) ........................................
 72
    65
 73
     2
 40
0.635
 49
0.0
 74
     0
 49
-0.635
 74
     0
  0
ENDTAB
  0
TABLE
  2
LAYER
  5
2
330
0
100
AcDbSymbolTable
 70
     1
  0
LAYER
  5
10
330
2
100
AcDbSymbolTableRecord
100
AcDbLayerTableRecord
  2
0
 70
     0
 62
     7
  6
Continuous
370
    -3
390
F
  0
ENDTAB
  0
TABLE
  2
STYLE
  5
3
330
0
100
AcDbSymbolTable
 70
     2
  0
STYLE
  5
11
330
3
100
AcDbSymbolTableRecord
100
AcDbTextStyleTableRecord
  2
Standard
 70
     0
 40
0.0
 41
1.0
 50
0.0
 71
     0
 42
3.5
  3
txt
  4
bigfont
  0
STYLE
  5
73
330
3
100
AcDbSymbolTableRecord
100
AcDbTextStyleTableRecord
  2
SLDTEXTSTYLE0
 70
     0
 40
0.0
 41
0.7
 50
0.0
 71
     0
 42
3.5
  3
TXT
  4
bigfont
  0
ENDTAB
  0
TABLE
  2
VIEW
  5
6
330
0
100
AcDbSymbolTable
 70
     0
  0
ENDTAB
  0
TABLE
  2
UCS
  5
7
330
0
100
AcDbSymbolTable
 70
     0
  0
ENDTAB
  0
TABLE
  2
APPID
  5
9
330
0
100
AcDbSymbolTable
 70
     1
  0
APPID
  5
12
330
9
100
AcDbSymbolTableRecord
100
AcDbRegAppTableRecord
  2
ACAD
 70
     0
  0
ENDTAB
  0
TABLE
  2
DIMSTYLE
  5
A
330
0
100
AcDbSymbolTable
 70
     1
100
AcDbDimStyleTable
  0
DIMSTYLE
105
27
330
A
100
AcDbSymbolTableRecord
100
AcDbDimStyleTableRecord
  2
ISO-25
 70
     0
 41
2.5
 42
0.625
 43
3.75
 44
1.25
 73
     0
 74
     0
 77
     1
 78
     8
140
2.5
141
2.5
143
0.0393700787
147
0.625
171
     3
172
     1
178
     0
271
     2
272
     2
274
     3
278
    44
283
     0
284
     8
340
11
  0
ENDTAB
  0
TABLE
  2
BLOCK_RECORD
  5
1
330
0
100
AcDbSymbolTable
 70
     3
  0
BLOCK_RECORD
  5
1F
330
1
100
AcDbSymbolTableRecord
100
AcDbBlockTableRecord
  2
*Model_Space
340
22
  0
BLOCK_RECORD
  5
1B
330
1
100
AcDbSymbolTableRecord
100
AcDbBlockTableRecord
  2
*Paper_Space
340
1E
  0
BLOCK_RECORD
  5
23
330
1
100
AcDbSymbolTableRecord
100
AcDbBlockTableRecord
  2
*Paper_Space0
340
26
  0
BLOCK_RECORD
  5
126
330
1
100
AcDbSymbolTableRecord
100
AcDbBlockTableRecord
  2
SW_CENTERMARKSYMBOL_0
340
0
102
{BLKREFS
331
131
102
}
  0
BLOCK_RECORD
  5
164
330
1
100
AcDbSymbolTableRecord
100
AcDbBlockTableRecord
  2
SW_CENTERMARKSYMBOL_1
340
0
102
{BLKREFS
331
16F
102
}
  0
ENDTAB
  0
ENDSEC
  0
SECTION
  2
BLOCKS
  0
BLOCK
  5
20
330
1F
100
AcDbEntity
  8
0
100
AcDbBlockBegin
  2
*Model_Space
 70
     0
 10
0.0
 20
0.0
 30
0.0
  3
*Model_Space
  1

  0
ENDBLK
  5
21
330
1F
100
AcDbEntity
  8
0
100
AcDbBlockEnd
  0
BLOCK
  5
1C
330
1B
100
AcDbEntity
 67
     1
  8
0
100
AcDbBlockBegin
  2
*Paper_Space
 70
     0
 10
0.0
 20
0.0
 30
0.0
  3
*Paper_Space
  1

  0
ENDBLK
  5
1D
330
1B
100
AcDbEntity
 67
     1
  8
0
100
AcDbBlockEnd
  0
BLOCK
  5
24
330
23
100
AcDbEntity
  8
0
100
AcDbBlockBegin
  2
*Paper_Space0
 70
     0
 10
0.0
 20
0.0
 30
0.0
  3
*Paper_Space0
  1

  0
ENDBLK
  5
25
330
23
100
AcDbEntity
  8
0
100
AcDbBlockEnd
  0
BLOCK
  5
127
330
126
100
AcDbEntity
  8
0
100
AcDbBlockBegin
  2
SW_CENTERMARKSYMBOL_0
 70
     0
 10
0.0
 20
0.0
 30
0.0
  3
SW_CENTERMARKSYMBOL_0
  1

  0
LINE
  5
129
330
126
100
AcDbEntity
  8
0
  6
Continuous
 62
     0
370
    18
100
AcDbLine
 10
0.0
 20
0.0
 30
0.0
 11
0.0
 21
2.5
 31
0.0
  0
LINE
  5
12A
330
126
100
AcDbEntity
  8
0
  6
Continuous
 62
     0
370
    18
100
AcDbLine
 10
0.0
 20
0.0
 30
0.0
 11
-2.5
 21
0.0
 31
0.0
  0
LINE
  5
12B
330
126
100
AcDbEntity
  8
0
  6
Continuous
 62
     0
370
    18
100
AcDbLine
 10
0.0
 20
0.0
 30
0.0
 11
0.0
 21
-2.5
 31
0.0
  0
LINE
  5
12C
330
126
100
AcDbEntity
  8
0
  6
Continuous
 62
     0
370
    18
100
AcDbLine
 10
0.0
 20
0.0
 30
0.0
 11
2.5
 21
0.0
 31
0.0
  0
LINE
  5
12D
330
126
100
AcDbEntity
  8
0
  6
Continuous
 62
     0
370
    18
100
AcDbLine
 10
0.0
 20
5.0
 30
0.0
 11
0.0
 21
30.7831866397
 31
0.0
  0
LINE
  5
12E
330
126
100
AcDbEntity
  8
0
  6
Continuous
 62
     0
370
    18
100
AcDbLine
 10
-5.0
 20
0.0
 30
0.0
 11
-12.7425412316
 21
0.0
 31
0.0
  0
LINE
  5
12F
330
126
100
AcDbEntity
  8
0
  6
Continuous
 62
     0
370
    18
100
AcDbLine
 10
0.0
 20
-5.0
 30
0.0
 11
0.0
 21
-12.9073069474
 31
0.0
  0
LINE
  5
130
330
126
100
AcDbEntity
  8
0
  6
Continuous
 62
     0
370
    18
100
AcDbLine
 10
5.0
 20
0.0
 30
0.0
 11
13.2433078954
 21
0.0
 31
0.0
  0
ENDBLK
  5
128
330
126
100
AcDbEntity
  8
0
100
AcDbBlockEnd
  0
BLOCK
  5
165
330
164
100
AcDbEntity
  8
0
100
AcDbBlockBegin
  2
SW_CENTERMARKSYMBOL_1
 70
     0
 10
0.0
 20
0.0
 30
0.0
  3
SW_CENTERMARKSYMBOL_1
  1

  0
LINE
  5
167
330
164
100
AcDbEntity
  8
0
  6
Continuous
 62
     0
370
    18
100
AcDbLine
 10
0.0
 20
0.0
 30
0.0
 11
0.0
 21
2.5
 31
0.0
  0
LINE
  5
168
330
164
100
AcDbEntity
  8
0
  6
Continuous
 62
     0
370
    18
100
AcDbLine
 10
0.0
 20
0.0
 30
0.0
 11
-2.5
 21
0.0
 31
0.0
  0
LINE
  5
169
330
164
100
AcDbEntity
  8
0
  6
Continuous
 62
     0
370
    18
100
AcDbLine
 10
0.0
 20
0.0
 30
0.0
 11
0.0
 21
-2.5
 31
0.0
  0
LINE
  5
16A
330
164
100
AcDbEntity
  8
0
  6
Continuous
 62
     0
370
    18
100
AcDbLine
 10
0.0
 20
0.0
 30
0.0
 11
2.5
 21
0.0
 31
0.0
  0
LINE
  5
16B
330
164
100
AcDbEntity
  8
0
  6
Continuous
 62
     0
370
    18
100
AcDbLine
 10
0.0
 20
5.0
 30
0.0
 11
0.0
 21
13.75
 31
0.0
  0
LINE
  5
16C
330
164
100
AcDbEntity
  8
0
  6
Continuous
 62
     0
370
    18
100
AcDbLine
 10
-5.0
 20
0.0
 30
0.0
 11
-13.75
 21
0.0
 31
0.0
  0
LINE
  5
16D
330
164
100
AcDbEntity
  8
0
  6
Continuous
 62
     0
370
    18
100
AcDbLine
 10
0.0
 20
-5.0
 30
0.0
 11
0.0
 21
-13.75
 31
0.0
  0
LINE
  5
16E
330
164
100
AcDbEntity
  8
0
  6
Continuous
 62
     0
370
    18
100
AcDbLine
 10
5.0
 20
0.0
 30
0.0
 11
31.0525433293
 21
0.0
 31
0.0
  0
ENDBLK
  5
166
330
164
100
AcDbEntity
  8
0
100
AcDbBlockEnd
  0
ENDSEC
  0
SECTION
  2
ENTITIES
  0
MTEXT
  5
74
330
1F
100
AcDbEntity
  8
0
  6
Continuous
 62
     7
370
     0
100
AcDbMText
 10
188.9765810974
 20
138.4379079984
 30
0.0
 40
4.7625
 41
0.0
 71
     1
 72
     1
  1
5R-LK1043
  7
SLDTEXTSTYLE0
 73
     1
 44
1.0
  0
LINE
  5
75
330
1F
100
AcDbEntity
  8
0
  6
Continuous
 62
     7
370
    25
100
AcDbLine
 10
179.2272964303
 20
113.0515070015
 30
0.0
 11
179.2272964303
 21
124.5863642266
 31
0.0
  0
LINE
  5
76
330
1F
100
AcDbEntity
  8
0
  6
Continuous
 62
     7
370
    25
100
AcDbLine
 10
156.7272964303
 20
124.5863642266
 30
0.0
 11
156.7272964303
 21
113.0515070015
 31
0.0
  0
ARC
  5
77
330
1F
100
AcDbEntity
  8
0
  6
Continuous
 62
     7
370
    25
100
AcDbCircle
 10
176.7272964303
 20
113.0515070015
 30
0.0
 40
2.500000000000009
100
AcDbArc
 50
296.7436839504
 51
0.0
  0
ARC
  5
78
330
1F
100
AcDbEntity
  8
0
  6
Continuous
 62
     7
370
    25
100
AcDbCircle
 10
159.2272964303
 20
113.0515070015
 30
0.0
 40
2.500000000000028
100
AcDbArc
 50
180.0
 51
243.2563160496
  0
LINE
  5
79
330
1F
100
AcDbEntity
  8
0
  6
Continuous
 62
     7
370
    25
100
AcDbLine
 10
179.2272964303
 20
124.5863642266
 30
0.0
 11
178.7272964303
 21
125.0863642266
 31
0.0
  0
LINE
  5
7A
330
1F
100
AcDbEntity
  8
0
  6
Continuous
 62
     7
370
    25
100
AcDbLine
 10
157.2272964303
 20
125.0863642266
 30
0.0
 11
156.7272964303
 21
124.5863642266
 31
0.0
  0
LINE
  5
7B
330
1F
100
AcDbEntity
  8
0
  6
Continuous
 62
     7
370
    25
100
AcDbLine
 10
183.316914885
 20
85.4369773034
 30
0.0
 11
194.2809051574
 21
85.7796019994
 31
0.0
  0
LINE
  5
7C
330
1F
100
AcDbEntity
  8
0
  6
Continuous
 62
     7
370
    25
100
AcDbLine
 10
194.2809051574
 20
106.3931264539
 30
0.0
 11
183.316914885
 21
106.7357511499
 31
0.0
  0
ARC
  5
7D
330
1F
100
AcDbEntity
  8
0
  6
Continuous
 62
     7
370
    25
100
AcDbCircle
 10
184.9424392052
 20
87.3363642266
 30
0.0
 40
2.500000000000005
100
AcDbArc
 50
206.7436839504
 51
229.4425836614
  0
ARC
  5
7E
330
1F
100
AcDbEntity
  8
0
  6
Continuous
 62
     7
370
    25
100
AcDbCircle
 10
184.9424392052
 20
104.8363642266
 30
0.0
 40
2.500000000000016
100
AcDbArc
 50
130.5574163386
 51
153.2563160496
  0
LINE
  5
7F
330
1F
100
AcDbEntity
  8
0
  6
Continuous
 62
     7
370
    25
100
AcDbLine
 10
194.2809051574
 20
85.7796019994
 30
0.0
 11
196.9772964303
 21
87.3363642266
 31
0.0
  0
LINE
  5
80
330
1F
100
AcDbEntity
  8
0
  6
Continuous
 62
     7
370
    25
100
AcDbLine
 10
196.9772964303
 20
104.8363642266
 30
0.0
 11
194.2809051574
 21
106.3931264539
 31
0.0
  0
ARC
  5
81
330
1F
100
AcDbEntity
  8
0
  6
Continuous
 62
     7
370
    25
100
AcDbCircle
 10
178.9772964303
 20
108.5863642266
 30
0.0
 40
2.5
100
AcDbArc
 50
116.7436839504
 51
180.0
  0
ARC
  5
82
330
1F
100
AcDbEntity
  8
0
  6
Continuous
 62
     7
370
    25
100
AcDbCircle
 10
156.9772964303
 20
108.5863642266
 30
0.0
 40
2.500000000000028
100
AcDbArc
 50
0.0
 51
63.2563160496
  0
ARC
  5
83
330
1F
100
AcDbEntity
  8
0
  6
Continuous
 62
     7
370
    25
100
AcDbCircle
 10
180.4772964303
 20
85.0863642266
 30
0.0
 40
2.500000000000041
100
AcDbArc
 50
26.7436839504
 51
90.0
  0
ARC
  5
84
330
1F
100
AcDbEntity
  8
0
  6
Continuous
 62
     7
370
    25
100
AcDbCircle
 10
180.4772964303
 20
107.0863642266
 30
0.0
 40
2.500000000000035
100
AcDbArc
 50
270.0
 51
333.2563160496
  0
LINE
  5
85
330
1F
100
AcDbEntity
  8
0
  6
Continuous
 62
     7
370
    25
100
AcDbLine
 10
159.4772964303
 20
108.5863642266
 30
0.0
 11
159.4772964303
 21
90.5819635582
 31
0.0
  0
LINE
  5
86
330
1F
100
AcDbEntity
  8
0
  6
Continuous
 62
     7
370
    25
100
AcDbLine
 10
176.4772964303
 20
105.0863642266
 30
0.0
 11
176.4772964303
 21
108.5863642266
 31
0.0
  0
LINE
  5
87
330
1F
100
AcDbEntity
  8
0
  6
Continuous
 62
     7
370
    25
100
AcDbLine
 10
180.4772964303
 20
104.5863642266
 30
0.0
 11
176.9772964303
 21
104.5863642266
 31
0.0
  0
LINE
  5
88
330
1F
100
AcDbEntity
  8
0
  6
Continuous
 62
     7
370
    25
100
AcDbLine
 10
162.4728957619
 20
87.5863642266
 30
0.0
 11
180.4772964303
 21
87.5863642266
 31
0.0
  0
SPLINE
  5
89
330
1F
100
AcDbEntity
  8
0
  6
Continuous
 62
     7
370
    25
100
AcDbSpline
210
0.0
220
0.0
230
1.0
 70
     8
 71
     3
 72
    21
 73
    17
 74
     0
 42
0.000000001
 43
0.00000001
 40
0.0
 40
0.0
 40
0.0
 40
0.0
 40
0.082675667536071
 40
0.1577159023869824
 40
0.225107122878268
 40
0.2848508575649881
 40
0.3526127842311548
 40
0.4067896671894032
 40
0.4520101410146769
 40
0.5086861790580107
 40
0.5792250314326626
 40
0.6636251927364243
 40
0.7360318665421361
 40
0.8162246244150331
 40
0.9042198598363963
 40
1.0
 40
1.0
 40
1.0
 40
1.0
 10
159.4772964305724
 20
90.5863246036771
 30
0.0
 10
159.4821941541452
 20
90.45644749684995
 30
0.0
 10
159.4915372766859
 20
90.2086879599376
 30
0.0
 10
159.5605838732506
 20
89.86081881236888
 30
0.0
 10
159.6539719768547
 20
89.55704244487401
 30
0.0
 10
159.7736015806803
 20
89.27491937000026
 30
0.0
 10
159.9108971526292
 20
89.02430881892019
 30
0.0
 10
160.0584489805958
 20
88.80694205166493
 30
0.0
 10
160.2114595808252
 20
88.6153443524843
 30
0.0
 10
160.3970182995886
 20
88.41776018228335
 30
0.0
 10
160.6482020403598
 20
88.19932588206454
 30
0.0
 10
160.9447151359184
 20
87.9988281070555
 30
0.0
 10
161.2766982873849
 20
87.82900207659623
 30
0.0
 10
161.6322948534217
 20
87.69951342415737
 30
0.0
 10
162.0379961041045
 20
87.60558259488337
 30
0.0
 10
162.3267591446078
 20
87.59294874366685
 30
0.0
 10
162.4772568073411
 20
87.58636422690843
 30
0.0
  0
SPLINE
  5
8A
330
1F
100
AcDbEntity
  8
0
  6
Continuous
 62
     7
370
    25
100
AcDbSpline
210
0.0
220
0.0
230
1.0
 70
     8
 71
     3
 72
    11
 73
     7
 74
     0
 42
0.000000001
 43
0.00000001
 40
0.0
 40
0.0
 40
0.0
 40
0.0
 40
0.2500481156911711
 40
0.5000000000000012
 40
0.7499518843088333
 40
1.0
 40
1.0
 40
1.0
 40
1.0
 10
176.9821297614842
 20
104.5863642266434
 30
0.0
 10
176.9157286279974
 20
104.5934566509027
 30
0.0
 10
176.7829519155969
 20
104.6076387698915
 30
0.0
 10
176.6153536070119
 20
104.7244214033479
 30
0.0
 10
176.4985709735555
 20
104.8920197119329
 30
0.0
 10
176.4843888545667
 20
105.0247964243334
 30
0.0
 10
176.4772964303074
 20
105.0911975578202
 30
0.0
  0
LINE
  5
8B
330
1F
100
AcDbEntity
  8
0
  6
Continuous
 62
     7
370
    25
100
AcDbLine
 10
167.9772964303
 20
124.5863642266
 30
0.0
 11
156.7272964303
 21
124.5863642266
 31
0.0
  0
LINE
  5
8C
330
1F
100
AcDbEntity
  8
0
  6
Continuous
 62
     7
370
    25
100
AcDbLine
 10
179.2272964303
 20
124.5863642266
 30
0.0
 11
167.9772964303
 21
124.5863642266
 31
0.0
  0
LINE
  5
8D
330
1F
100
AcDbEntity
  8
0
  6
Continuous
 62
     7
370
    25
100
AcDbLine
 10
167.9772964303
 20
125.0863642266
 30
0.0
 11
178.7272964303
 21
125.0863642266
 31
0.0
  0
LINE
  5
8E
330
1F
100
AcDbEntity
  8
0
  6
Continuous
 62
     7
370
    25
100
AcDbLine
 10
157.2272964303
 20
125.0863642266
 30
0.0
 11
167.9772964303
 21
125.0863642266
 31
0.0
  0
LINE
  5
8F
330
1F
100
AcDbEntity
  8
0
  6
Continuous
 62
     7
370
    25
100
AcDbLine
 10
194.2809051574
 20
85.7796019994
 30
0.0
 11
194.2809051574
 21
106.3931264539
 31
0.0
  0
LINE
  5
90
330
1F
100
AcDbEntity
  8
0
  6
Continuous
 62
     7
370
    25
100
AcDbLine
 10
183.316914885
 20
85.4369773034
 30
0.0
 11
183.316914885
 21
106.7357511499
 31
0.0
  0
LINE
  5
91
330
1F
100
AcDbEntity
  8
0
  6
Continuous
 62
     7
370
    25
100
AcDbLine
 10
196.9772964303
 20
104.8363642266
 30
0.0
 11
196.9772964303
 21
87.3363642266
 31
0.0
  0
SPLINE
  5
92
330
1F
100
AcDbEntity
  8
0
  6
Continuous
 62
     7
370
    25
100
AcDbSpline
210
0.0
220
0.0
230
1.0
 70
    24
 71
     3
 72
     8
 73
     4
 74
     0
 42
0.000000001
 43
0.00000001
 40
0.0
 40
0.0
 40
0.0
 40
0.0
 40
1.0
 40
1.0
 40
1.0
 40
1.0
 10
167.9772964303074
 20
104.5863642266434
 30
0.0
 10
168.9539497730702
 20
104.5863642266434
 30
0.0
 10
169.9303746074467
 20
104.5863642266434
 30
0.0
 10
170.8495777535764
 20
104.5863642266434
 30
0.0
  0
SPLINE
  5
93
330
1F
100
AcDbEntity
  8
0
  6
Continuous
 62
     7
370
    25
100
AcDbSpline
210
0.0
220
0.0
230
1.0
 70
    24
 71
     3
 72
     8
 73
     4
 74
     0
 42
0.000000001
 43
0.00000001
 40
0.0
 40
0.0
 40
0.0
 40
0.0
 40
1.0
 40
1.0
 40
1.0
 40
1.0
 10
165.1050151070384
 20
104.5863642266434
 30
0.0
 10
166.0242182531681
 20
104.5863642266434
 30
0.0
 10
167.0006430875445
 20
104.5863642266434
 30
0.0
 10
167.9772964303074
 20
104.5863642266434
 30
0.0
  0
SPLINE
  5
94
330
1F
100
AcDbEntity
  8
0
  6
Continuous
 62
     7
370
    25
100
AcDbSpline
210
0.0
220
0.0
230
1.0
 70
     8
 71
     3
 72
     8
 73
     4
 74
     0
 42
0.000000001
 43
0.00000001
 40
0.0
 40
0.0
 40
0.0
 40
0.0
 40
1.0
 40
1.0
 40
1.0
 40
1.0
 10
161.0852720542623
 20
104.3967138497887
 30
0.0
 10
161.0132058079198
 20
104.3056819195096
 30
0.0
 10
160.9527128503536
 20
104.1957266893353
 30
0.0
 10
160.893963096974
 20
104.0863642266434
 30
0.0
  0
LINE
  5
95
330
1F
100
AcDbEntity
  8
0
  6
Continuous
 62
     7
370
    25
100
AcDbLine
 10
160.893963097
 20
104.0863642266
 30
0.0
 11
160.893963097
 21
92.0863642266
 31
0.0
  0
SPLINE
  5
96
330
1F
100
AcDbEntity
  8
0
  6
Continuous
 62
     7
370
    25
100
AcDbSpline
210
0.0
220
0.0
230
1.0
 70
     8
 71
     3
 72
    10
 73
     6
 74
     0
 42
0.000000001
 43
0.00000001
 40
0.0
 40
0.0
 40
0.0
 40
0.0
 40
0.0280934765544326
 40
0.0280934765544326
 40
0.0561869531088653
 40
0.0561869531088653
 40
0.0561869531088653
 40
0.0561869531088653
 10
160.893963096974
 20
92.08636422664337
 30
0.0
 10
160.893963096974
 20
91.99271930479526
 30
0.0
 10
160.8975405912186
 20
91.8986633995907
 30
0.0
 10
160.9117020692791
 20
91.71239268748467
 30
0.0
 10
160.9222813411254
 20
91.62021021820055
 30
0.0
 10
160.9359623469172
 20
91.5302068785674
 30
0.0
  0
ELLIPSE
  5
97
330
1F
100
AcDbEntity
  8
0
  6
Continuous
 62
     7
370
    25
100
AcDbEllipse
 10
172.9772964303
 20
94.5475133345
 30
0.0
 11
0.5653269642954513
 21
1.222133505507372E-12
 31
0.0
210
0.0
220
0.0
230
1.0
 40
0.9531667975
 41
0.4357918987532778
 42
2.705800754832199
  0
LINE
  5
98
330
1F
100
AcDbEntity
  8
0
  6
Continuous
 62
     7
370
    25
100
AcDbLine
 10
171.3727114489
 20
91.7215261173
 30
0.0
 11
172.4648071607
 21
94.7749776094
 31
0.0
  0
ELLIPSE
  5
99
330
1F
100
AcDbEntity
  8
0
  6
Continuous
 62
     7
370
    25
100
AcDbEllipse
 10
170.8158721837
 20
91.9024672648
 30
0.0
 11
-0.588307735200658
 21
2.842170943040401E-14
 31
0.0
210
0.0
220
0.0
230
1.0
 40
0.9531667975
 41
1.047197551197083
 42
2.813039483038303
  0
LINE
  5
9A
330
1F
100
AcDbEntity
  8
0
  6
Continuous
 62
     7
370
    25
100
AcDbLine
 10
170.4769885557
 20
91.4414541271
 30
0.0
 11
170.5217183161
 21
91.4168388431
 31
0.0
  0
LINE
  5
9B
330
1F
100
AcDbEntity
  8
0
  6
Continuous
 62
     7
370
    25
100
AcDbLine
 10
171.167498684
 20
90.1251114718
 30
0.0
 11
170.4769885557
 21
91.4414541271
 31
0.0
  0
ELLIPSE
  5
9C
330
1F
100
AcDbEntity
  8
0
  6
Continuous
 62
     7
370
    25
100
AcDbEllipse
 10
171.2332734884
 20
90.1564586516
 30
0.0
 11
0.07353846690023147
 21
0.0
 31
0.0
210
0.0
220
0.0
230
1.0
 40
0.9531667975
 41
3.605240262590734
 42
5.462183310215262
  0
ELLIPSE
  5
9D
330
1F
100
AcDbEntity
  8
0
  6
Continuous
 62
     7
370
    25
100
AcDbEllipse
 10
172.9772964303
 20
88.3713183125
 30
0.0
 11
2.485600181227454
 21
-1.563194018672220E-13
 31
0.0
210
0.0
220
0.0
230
1.0
 40
0.9531667975
 41
0.8210019969645121
 42
2.320590656625365
  0
ELLIPSE
  5
9E
330
1F
100
AcDbEntity
  8
0
  6
Continuous
 62
     7
370
    25
100
AcDbEllipse
 10
174.7213193722
 20
90.1564586516
 30
0.0
 11
0.07353846690017463
 21
2.842170943040401E-14
 31
0.0
210
0.0
220
0.0
230
1.0
 40
0.9531667975
 41
3.962594650553219
 42
5.819537698178436
  0
LINE
  5
9F
330
1F
100
AcDbEntity
  8
0
  6
Continuous
 62
     7
370
    25
100
AcDbLine
 10
175.4776043049
 20
91.4414541271
 30
0.0
 11
174.7870941766
 21
90.1251114718
 31
0.0
  0
LINE
  5
A0
330
1F
100
AcDbEntity
  8
0
  6
Continuous
 62
     7
370
    25
100
AcDbLine
 10
175.4414858831
 20
91.4208138818
 30
0.0
 11
175.4776043049
 21
91.4414541271
 31
0.0
  0
ELLIPSE
  5
A1
330
1F
100
AcDbEntity
  8
0
  6
Continuous
 62
     7
370
    25
100
AcDbEllipse
 10
175.1389752345
 20
91.9017555329
 30
0.0
 11
-0.588307735201596
 21
-1.563194018672220E-13
 31
0.0
210
0.0
220
0.0
230
1.0
 40
0.9531667975
 41
0.3285531705512161
 42
2.110876526947642
  0
LINE
  5
A2
330
1F
100
AcDbEntity
  8
0
  6
Continuous
 62
     7
370
    25
100
AcDbLine
 10
173.4897856999
 20
94.7749776094
 30
0.0
 11
174.5821359694
 21
91.7208143854
 31
0.0
  0
SPLINE
  5
A3
330
1F
100
AcDbEntity
  8
0
  6
Continuous
 62
     7
370
    25
100
AcDbSpline
210
0.0
220
0.0
230
1.0
 70
     8
 71
     3
 72
    10
 73
     6
 74
     0
 42
0.000000001
 43
0.00000001
 40
-0.2904940295525288
 40
-0.2904940295525288
 40
-0.2904940295525288
 40
-0.2904940295525288
 40
-0.1303072746110114
 40
-0.1303072746110114
 40
0.001056361752625
 40
0.001056361752625
 40
0.001056361752625
 40
0.001056361752625
 10
176.4772964303073
 20
96.08636422664338
 30
0.0
 10
176.3477931145331
 20
95.56835096354627
 30
0.0
 10
176.2160021363834
 20
95.04442515990216
 30
0.0
 10
176.0375781969427
 20
94.086022696307
 30
0.0
 10
175.9772964303073
 20
93.65196169125315
 30
0.0
 10
175.9772964303073
 20
93.21408290337436
 30
0.0
  0
LINE
  5
A4
330
1F
100
AcDbEntity
  8
0
  6
Continuous
 62
     7
370
    25
100
AcDbLine
 10
175.9772964303
 20
93.2140829034
 30
0.0
 11
175.9772964303
 21
89.5863642266
 31
0.0
  0
LINE
  5
A5
330
1F
100
AcDbEntity
  8
0
  6
Continuous
 62
     7
370
    25
100
AcDbLine
 10
175.9772964303
 20
89.5863642266
 30
0.0
 11
163.9772964303
 21
89.5863642266
 31
0.0
  0
ARC
  5
A6
330
1F
100
AcDbEntity
  8
0
  6
Continuous
 62
     7
370
    25
100
AcDbCircle
 10
163.9772964303
 20
92.0863642266
 30
0.0
 40
2.5
100
AcDbArc
 50
180.0
 51
270.0
  0
LINE
  5
A7
330
1F
100
AcDbEntity
  8
0
  6
Continuous
 62
     7
370
    25
100
AcDbLine
 10
161.4772964303
 20
92.0863642266
 30
0.0
 11
161.4772964303
 21
104.0863642266
 31
0.0
  0
LINE
  5
A8
330
1F
100
AcDbEntity
  8
0
  6
Continuous
 62
     7
370
    25
100
AcDbLine
 10
161.4772964303
 20
104.0863642266
 30
0.0
 11
165.105015107
 21
104.0863642266
 31
0.0
  0
SPLINE
  5
A9
330
1F
100
AcDbEntity
  8
0
  6
Continuous
 62
     7
370
    25
100
AcDbSpline
210
0.0
220
0.0
230
1.0
 70
     8
 71
     3
 72
    10
 73
     6
 74
     0
 42
0.000000001
 43
0.00000001
 40
-0.8711658249657241
 40
-0.8711658249657241
 40
-0.8711658249657241
 40
-0.8711658249657241
 40
-0.7398021886020881
 40
-0.7398021886020881
 40
-0.5796154507864705
 40
-0.5796154507864705
 40
-0.5796154507864705
 40
-0.5796154507864705
 10
165.1050151070384
 20
104.0863642266434
 30
0.0
 10
165.5428938949171
 20
104.0863642266434
 30
0.0
 10
165.9769548999715
 20
104.1466459932788
 30
0.0
 10
166.9353573072691
 20
104.3250699222387
 30
0.0
 10
167.4592832225767
 20
104.4568609247106
 30
0.0
 10
167.9772964303074
 20
104.5863642266434
 30
0.0
  0
SPLINE
  5
AA
330
1F
100
AcDbEntity
  8
0
  6
Continuous
 62
     7
370
    25
100
AcDbSpline
210
0.0
220
0.0
230
1.0
 70
     8
 71
     3
 72
    10
 73
     6
 74
     0
 42
0.000000001
 43
0.00000001
 40
-0.2904940295525327
 40
-0.2904940295525327
 40
-0.2904940295525327
 40
-0.2904940295525327
 40
-0.130307291676468
 40
-0.130307291676468
 40
0.0010563446871674
 40
0.0010563446871674
 40
0.0010563446871674
 40
0.0010563446871674
 10
167.9772964303074
 20
104.5863642266434
 30
0.0
 10
168.4953096382335
 20
104.4568609246618
 30
0.0
 10
169.0192355531469
 20
104.3250699222757
 30
0.0
 10
169.9776379606432
 20
104.1466459932788
 30
0.0
 10
170.4116989656976
 20
104.0863642266434
 30
0.0
 10
170.8495777535764
 20
104.0863642266434
 30
0.0
  0
LINE
  5
AB
330
1F
100
AcDbEntity
  8
0
  6
Continuous
 62
     7
370
    25
100
AcDbLine
 10
170.8495777536
 20
104.0863642266
 30
0.0
 11
174.4772964303
 21
104.0863642266
 31
0.0
  0
ARC
  5
AC
330
1F
100
AcDbEntity
  8
0
  6
Continuous
 62
     7
370
    25
100
AcDbCircle
 10
175.9772964303
 20
104.0863642266
 30
0.0
 40
1.5
100
AcDbArc
 50
180.0
 51
270.0
  0
LINE
  5
AD
330
1F
100
AcDbEntity
  8
0
  6
Continuous
 62
     7
370
    25
100
AcDbLine
 10
175.9772964303
 20
102.5863642266
 30
0.0
 11
175.9772964303
 21
98.9586455499
 31
0.0
  0
SPLINE
  5
AE
330
1F
100
AcDbEntity
  8
0
  6
Continuous
 62
     7
370
    25
100
AcDbSpline
210
0.0
220
0.0
230
1.0
 70
     8
 71
     3
 72
    10
 73
     6
 74
     0
 42
0.000000001
 43
0.00000001
 40
-0.8711658421011628
 40
-0.8711658421011628
 40
-0.8711658421011628
 40
-0.8711658421011628
 40
-0.739802205737527
 40
-0.739802205737527
 40
-0.579615450786466
 40
-0.579615450786466
 40
-0.579615450786466
 40
-0.579615450786466
 10
175.9772964303073
 20
98.95864554991239
 30
0.0
 10
175.9772964303073
 20
98.5207667620336
 30
0.0
 10
176.0375781969427
 20
98.08670575697975
 30
0.0
 10
176.2160021363892
 20
97.12830329335321
 30
0.0
 10
176.3477931145253
 20
96.60437748977131
 30
0.0
 10
176.4772964303073
 20
96.08636422664338
 30
0.0
  0
SPLINE
  5
AF
330
1F
100
AcDbEntity
  8
0
  6
Continuous
 62
     7
370
    25
100
AcDbSpline
210
0.0
220
0.0
230
1.0
 70
    24
 71
     3
 72
     8
 73
     4
 74
     0
 42
0.000000001
 43
0.00000001
 40
0.0
 40
0.0
 40
0.0
 40
0.0
 40
1.0
 40
1.0
 40
1.0
 40
1.0
 10
176.4772964303073
 20
96.08636422664338
 30
0.0
 10
176.4772964303073
 20
95.10971088388054
 30
0.0
 10
176.4772964303073
 20
94.13328604950408
 30
0.0
 10
176.4772964303073
 20
93.21408290337436
 30
0.0
  0
SPLINE
  5
B0
330
1F
100
AcDbEntity
  8
0
  6
Continuous
 62
     7
370
    25
100
AcDbSpline
210
0.0
220
0.0
230
1.0
 70
    24
 71
     3
 72
     8
 73
     4
 74
     0
 42
0.000000001
 43
0.00000001
 40
0.0
 40
0.0
 40
0.0
 40
0.0
 40
1.0
 40
1.0
 40
1.0
 40
1.0
 10
176.4772964303073
 20
98.95864554991239
 30
0.0
 10
176.4772964303073
 20
98.03944240378266
 30
0.0
 10
176.4772964303073
 20
97.0630175694062
 30
0.0
 10
176.4772964303073
 20
96.08636422664338
 30
0.0
  0
SPLINE
  5
B1
330
1F
100
AcDbEntity
  8
0
  6
Continuous
 62
     7
370
    25
100
AcDbSpline
210
0.0
220
0.0
230
1.0
 70
     8
 71
     3
 72
    10
 73
     6
 74
     0
 42
0.000000001
 43
0.00000001
 40
0.0
 40
0.0
 40
0.0
 40
0.0
 40
0.0280934765544328
 40
0.0280934765544328
 40
0.0561869531088657
 40
0.0561869531088657
 40
0.0561869531088657
 40
0.0561869531088657
 10
163.4211390822314
 20
89.04503014325323
 30
0.0
 10
163.5111424218645
 20
89.03134913746143
 30
0.0
 10
163.6033248911486
 20
89.02076986561514
 30
0.0
 10
163.7895956032547
 20
89.00660838755462
 30
0.0
 10
163.8836515084593
 20
89.00303089331005
 30
0.0
 10
163.9772964303074
 20
89.00303089331005
 30
0.0
  0
LINE
  5
B2
330
1F
100
AcDbEntity
  8
0
  6
Continuous
 62
     7
370
    25
100
AcDbLine
 10
163.9772929972
 20
89.0030308933
 30
0.0
 11
175.9772964303
 21
89.0030308933
 31
0.0
  0
SPLINE
  5
B3
330
1F
100
AcDbEntity
  8
0
  6
Continuous
 62
     7
370
    25
100
AcDbSpline
210
0.0
220
0.0
230
1.0
 70
     8
 71
     3
 72
     8
 73
     4
 74
     0
 42
0.000000001
 43
0.00000001
 40
0.0
 40
0.0
 40
0.0
 40
0.0
 40
1.0
 40
1.0
 40
1.0
 40
1.0
 10
176.2876460534527
 20
89.19433985059827
 30
0.0
 10
176.1966141231736
 20
89.12227360425584
 30
0.0
 10
176.0866588930021
 20
89.06178064668808
 30
0.0
 10
175.9772964303074
 20
89.00303089331005
 30
0.0
  0
SPLINE
  5
B4
330
1F
100
AcDbEntity
  8
0
  6
Continuous
 62
     7
370
    25
100
AcDbSpline
210
0.0
220
0.0
230
1.0
 70
    24
 71
     3
 72
    10
 73
     6
 74
     0
 42
0.000000001
 43
0.00000001
 40
0.0
 40
0.0
 40
0.0
 40
0.0
 40
0.5
 40
0.5
 40
1.0
 40
1.0
 40
1.0
 40
1.0
 10
176.4772964303073
 20
93.21408290337436
 30
0.0
 10
176.4772964303073
 20
93.21408290337436
 30
0.0
 10
176.4234098821123
 20
93.21408290337436
 30
0.0
 10
176.238289759689
 20
93.21408290337436
 30
0.0
 10
176.108196124207
 20
93.21408290337436
 30
0.0
 10
175.9772964303073
 20
93.21408290337436
 30
0.0
  0
LINE
  5
B5
330
1F
100
AcDbEntity
  8
0
  6
Continuous
 62
     7
370
    25
100
AcDbLine
 10
176.4772964303
 20
89.5863642266
 30
0.0
 11
176.4772964303
 21
93.2140829034
 31
0.0
  0
LINE
  5
B6
330
1F
100
AcDbEntity
  8
0
  6
Continuous
 62
     7
370
    25
100
AcDbLine
 10
175.9772964303
 20
89.5863642266
 30
0.0
 11
176.4772964303
 21
89.5863642266
 31
0.0
  0
SPLINE
  5
B7
330
1F
100
AcDbEntity
  8
0
  6
Continuous
 62
     7
370
    25
100
AcDbSpline
210
0.0
220
0.0
230
1.0
 70
    24
 71
     3
 72
    10
 73
     6
 74
     0
 42
0.000000001
 43
0.00000001
 40
0.0
 40
0.0
 40
0.0
 40
0.0
 40
0.5
 40
0.5
 40
1.0
 40
1.0
 40
1.0
 40
1.0
 10
165.1050151070384
 20
104.0863642266434
 30
0.0
 10
165.1050151070384
 20
104.2172639205429
 30
0.0
 10
165.1050151070384
 20
104.347357556025
 30
0.0
 10
165.1050151070384
 20
104.5324776784483
 30
0.0
 10
165.1050151070384
 20
104.5863642266434
 30
0.0
 10
165.1050151070384
 20
104.5863642266434
 30
0.0
  0
LINE
  5
B8
330
1F
100
AcDbEntity
  8
0
  6
Continuous
 62
     7
370
    25
100
AcDbLine
 10
161.4772964303
 20
104.5863642266
 30
0.0
 11
161.4772964303
 21
104.0863642266
 31
0.0
  0
LINE
  5
B9
330
1F
100
AcDbEntity
  8
0
  6
Continuous
 62
     7
370
    25
100
AcDbLine
 10
165.105015107
 20
104.5863642266
 30
0.0
 11
161.4772964303
 21
104.5863642266
 31
0.0
  0
LINE
  5
BA
330
1F
100
AcDbEntity
  8
0
  6
Continuous
 62
     7
370
    25
100
AcDbLine
 10
176.4772964303
 20
98.9586455499
 30
0.0
 11
176.4772964303
 21
102.5863642266
 31
0.0
  0
SPLINE
  5
BB
330
1F
100
AcDbEntity
  8
0
  6
Continuous
 62
     7
370
    25
100
AcDbSpline
210
0.0
220
0.0
230
1.0
 70
    24
 71
     3
 72
    10
 73
     6
 74
     0
 42
0.000000001
 43
0.00000001
 40
0.0
 40
0.0
 40
0.0
 40
0.0
 40
0.5
 40
0.5
 40
1.0
 40
1.0
 40
1.0
 40
1.0
 10
175.9772964303073
 20
98.95864554991239
 30
0.0
 10
176.108196124207
 20
98.95864554991239
 30
0.0
 10
176.238289759689
 20
98.95864554991239
 30
0.0
 10
176.4234098821123
 20
98.95864554991239
 30
0.0
 10
176.4772964303074
 20
98.95864554991239
 30
0.0
 10
176.4772964303073
 20
98.95864554991239
 30
0.0
  0
LINE
  5
BC
330
1F
100
AcDbEntity
  8
0
  6
Continuous
 62
     7
370
    25
100
AcDbLine
 10
175.9772964303
 20
102.5863642266
 30
0.0
 11
176.4772964303
 21
102.5863642266
 31
0.0
  0
LINE
  5
BD
330
1F
100
AcDbEntity
  8
0
  6
Continuous
 62
     7
370
    25
100
AcDbLine
 10
174.9772964303
 20
104.5863642266
 30
0.0
 11
170.8495777536
 21
104.5863642266
 31
0.0
  0
LINE
  5
BE
330
1F
100
AcDbEntity
  8
0
  6
Continuous
 62
     7
370
    25
100
AcDbLine
 10
174.4772964303
 20
104.0863642266
 30
0.0
 11
174.9772964303
 21
104.5863642266
 31
0.0
  0
SPLINE
  5
BF
330
1F
100
AcDbEntity
  8
0
  6
Continuous
 62
     7
370
    25
100
AcDbSpline
210
0.0
220
0.0
230
1.0
 70
    24
 71
     3
 72
    10
 73
     6
 74
     0
 42
0.000000001
 43
0.00000001
 40
0.0
 40
0.0
 40
0.0
 40
0.0
 40
0.5
 40
0.5
 40
1.0
 40
1.0
 40
1.0
 40
1.0
 10
170.8495777535764
 20
104.5863642266434
 30
0.0
 10
170.8495777535764
 20
104.5863642266434
 30
0.0
 10
170.8495777535764
 20
104.5324776784483
 30
0.0
 10
170.8495777535764
 20
104.347357556025
 30
0.0
 10
170.8495777535764
 20
104.2172639205429
 30
0.0
 10
170.8495777535764
 20
104.0863642266434
 30
0.0
  0
ELLIPSE
  5
C0
330
1F
100
AcDbEntity
  8
0
  6
Continuous
 62
     7
370
    25
100
AcDbEllipse
 10
172.7139555417
 20
91.7919262521
 30
0.0
 11
-0.07353846690023147
 21
0.0
 31
0.0
210
0.0
220
0.0
230
1.0
 40
0.9531667975
 41
5.940161364898313
 42
7.853981633974483
  0
LINE
  5
C1
330
1F
100
AcDbEntity
  8
0
  6
Continuous
 62
     7
370
    25
100
AcDbLine
 10
172.9080421757
 20
92.5183233752
 30
0.0
 11
172.6447012853
 21
91.8155015585
 31
0.0
  0
ELLIPSE
  5
C2
330
1F
100
AcDbEntity
  8
0
  6
Continuous
 62
     7
370
    25
100
AcDbEllipse
 10
173.2406373194
 20
91.7919262521
 30
0.0
 11
0.07353846690020305
 21
0.0
 31
0.0
210
0.0
220
0.0
230
1.0
 40
0.9531667975
 41
4.712388980384703
 42
6.626209245739087
  0
LINE
  5
C3
330
1F
100
AcDbEntity
  8
0
  6
Continuous
 62
     7
370
    25
100
AcDbLine
 10
172.7139555417
 20
91.7218318271
 30
0.0
 11
173.2406373194
 21
91.7218318271
 31
0.0
  0
ELLIPSE
  5
C4
330
1F
100
AcDbEntity
  8
0
  6
Continuous
 62
     7
370
    25
100
AcDbEllipse
 10
172.9772964321
 20
92.4947480688
 30
0.0
 11
0.07353846690023147
 21
0.0
 31
0.0
210
0.0
220
0.0
230
1.0
 40
0.9531667975
 41
0.3430239394904216
 42
2.798568712238601
  0
LINE
  5
C5
330
1F
100
AcDbEntity
  8
0
  6
Continuous
 62
     7
370
    25
100
AcDbLine
 10
173.3098915758
 20
91.8155015583
 30
0.0
 11
173.0465506885
 21
92.5183233751
 31
0.0
  0
ARC
  5
C6
330
1F
100
AcDbEntity
  8
0
  6
Continuous
 62
     7
370
    25
100
AcDbCircle
 10
175.9772964303
 20
89.5863642266
 30
0.0
 40
0.5
100
AcDbArc
 50
270.0
 51
0.0
  0
LINE
  5
C7
330
1F
100
AcDbEntity
  8
0
  6
Continuous
 62
     7
370
    25
100
AcDbLine
 10
175.9772964303
 20
89.0863642266
 30
0.0
 11
175.9772964303
 21
89.5863642266
 31
0.0
  0
LINE
  5
C8
330
1F
100
AcDbEntity
  8
0
  6
Continuous
 62
     7
370
    25
100
AcDbLine
 10
174.9772964303
 20
104.0863642266
 30
0.0
 11
174.9772964303
 21
104.5863642266
 31
0.0
  0
LINE
  5
C9
330
1F
100
AcDbEntity
  8
0
  6
Continuous
 62
     7
370
    25
100
AcDbLine
 10
174.4772964303
 20
104.0863642266
 30
0.0
 11
174.9772964303
 21
104.0863642266
 31
0.0
  0
LINE
  5
CA
330
1F
100
AcDbEntity
  8
0
  6
Continuous
 62
     7
370
    25
100
AcDbLine
 10
163.9772964303
 20
89.5863642266
 30
0.0
 11
163.9772964303
 21
89.0863642266
 31
0.0
  0
LINE
  5
CB
330
1F
100
AcDbEntity
  8
0
  6
Continuous
 62
     7
370
    25
100
AcDbLine
 10
163.9772964303
 20
89.0863642266
 30
0.0
 11
175.9772964303
 21
89.0863642266
 31
0.0
  0
LINE
  5
CC
330
1F
100
AcDbEntity
  8
0
  6
Continuous
 62
     7
370
    25
100
AcDbLine
 10
161.4772964303
 20
92.0863642266
 30
0.0
 11
160.9772964303
 21
92.0863642266
 31
0.0
  0
LINE
  5
CD
330
1F
100
AcDbEntity
  8
0
  6
Continuous
 62
     7
370
    25
100
AcDbLine
 10
160.9772964303
 20
104.0863642266
 30
0.0
 11
160.9772964303
 21
92.0863642266
 31
0.0
  0
LINE
  5
CE
330
1F
100
AcDbEntity
  8
0
  6
Continuous
 62
     7
370
    25
100
AcDbLine
 10
161.4772964303
 20
104.0863642266
 30
0.0
 11
160.9772964303
 21
104.0863642266
 31
0.0
  0
ARC
  5
CF
330
1F
100
AcDbEntity
  8
0
  6
Continuous
 62
     7
370
    25
100
AcDbCircle
 10
161.4772964303
 20
104.0863642266
 30
0.0
 40
0.5
100
AcDbArc
 50
90.0
 51
180.0
  0
ARC
  5
D0
330
1F
100
AcDbEntity
  8
0
  6
Continuous
 62
     7
370
    25
100
AcDbCircle
 10
163.9772964303
 20
92.0863642266
 30
0.0
 40
3.0
100
AcDbArc
 50
180.0
 51
270.0
  0
LINE
  5
D1
330
1F
100
AcDbEntity
  8
0
  6
Continuous
 62
     7
370
    25
100
AcDbLine
 10
175.9772964303
 20
102.5863642266
 30
0.0
 11
175.9772964303
 21
103.0863642266
 31
0.0
  0
ARC
  5
D2
330
1F
100
AcDbEntity
  8
0
  6
Continuous
 62
     7
370
    25
100
AcDbCircle
 10
175.9772964303
 20
102.5863642266
 30
0.0
 40
0.5
100
AcDbArc
 50
0.0
 51
90.0
  0
ARC
  5
D3
330
1F
100
AcDbEntity
  8
0
  6
Continuous
 62
     7
370
    25
100
AcDbCircle
 10
175.9772964303
 20
104.0863642266
 30
0.0
 40
1.0
100
AcDbArc
 50
180.0
 51
270.0
  0
LWPOLYLINE
  5
D4
330
1F
100
AcDbEntity
  8
0
  6
Continuous
 62
     7
370
    25
100
AcDbPolyline
 90
        9
 70
   128
 43
0.0
 10
163.500590132
 20
89.124481193
 10
163.4917107392
 20
89.1244237997
 10
163.4824170575
 20
89.1214688011
 10
163.472763645
 20
89.1156335445
 10
163.462807172
 20
89.1069522854
 10
163.4526060876
 20
89.0954759871
 10
163.442220277
 20
89.0812720207
 10
163.4317107099
 20
89.0644237704
 10
163.4211390822
 20
89.0450301433
  0
SPLINE
  5
D5
330
1F
100
AcDbEntity
  8
0
  6
Continuous
 62
     7
370
    25
100
AcDbSpline
210
0.0
220
0.0
230
1.0
 70
     8
 71
     3
 72
    14
 73
    10
 74
     0
 42
0.000000001
 43
0.00000001
 40
-0.4399100083495733
 40
-0.4399100083495733
 40
-0.4399100083495733
 40
-0.4399100083495733
 40
-0.2980125372576002
 40
-0.2980125372576002
 40
-0.1727985319285605
 40
-0.1727985319285605
 40
-0.0664609738186771
 40
-0.0664609738186771
 40
0.0
 40
0.0
 40
0.0
 40
0.0
 10
160.9359623469172
 20
91.53020687856738
 30
0.0
 10
160.993587134493
 20
91.13546206647585
 30
0.0
 10
161.133004521814
 20
90.74684121552548
 30
0.0
 10
161.5359088802952
 20
90.09671542912376
 30
0.0
 10
161.7822785727827
 20
89.82591369776196
 30
0.0
 10
162.3141467978402
 20
89.42409916650652
 30
0.0
 10
162.5844741963809
 20
89.2799593403483
 30
0.0
 10
163.0512477978631
 20
89.11695861192392
 30
0.0
 10
163.2362511880386
 20
89.07202004990138
 30
0.0
 10
163.4211390822314
 20
89.04503014325323
 30
0.0
  0
LWPOLYLINE
  5
D6
330
1F
100
AcDbEntity
  8
0
  6
Continuous
 62
     7
370
    25
100
AcDbPolyline
 90
        9
 70
   128
 43
0.0
 10
161.0154133966
 20
91.6096579283
 10
161.0153560034
 20
91.6007785355
 10
161.0124010048
 20
91.5914848538
 10
161.0065657481
 20
91.5818314414
 10
160.9978844891
 20
91.5718749684
 10
160.9864081907
 20
91.561673884
 10
160.9722042244
 20
91.5512880734
 10
160.955355974
 20
91.5407785062
 10
160.9359623469
 20
91.5302068786
  0
LINE
  5
D7
330
1F
100
AcDbEntity
  8
0
  6
Continuous
 62
     7
370
    25
100
AcDbLine
 10
160.9772964303
 20
92.0863642266
 30
0.0
 11
160.893963097
 21
92.0863642266
 31
0.0
  0
LWPOLYLINE
  5
D8
330
1F
100
AcDbEntity
  8
0
  6
Continuous
 62
     7
370
    25
100
AcDbPolyline
 90
        9
 70
   128
 43
0.0
 10
163.9772964303
 20
89.0863642266
 10
163.9772964303
 20
89.0850248736
 10
163.9772964303
 20
89.0810139901
 10
163.9772964303
 20
89.0743530639
 10
163.9772964303
 20
89.0650777805
 10
163.9772964303
 20
89.0532378314
 10
163.9772964303
 20
89.0388966479
 10
163.9772964303
 20
89.0221310619
 10
163.9772929972
 20
89.0030308933
  0
LINE
  5
D9
330
1F
100
AcDbEntity
  8
0
  6
Continuous
 62
     7
370
    25
100
AcDbLine
 10
160.9772964303
 20
104.0863642266
 30
0.0
 11
160.893963097
 21
104.0863642266
 31
0.0
  0
LINE
  5
DA
330
1F
100
AcDbEntity
  8
0
  6
Continuous
 62
     7
370
    25
100
AcDbLine
 10
175.9772964303
 20
89.0030308933
 30
0.0
 11
175.9772964303
 21
89.0863642266
 31
0.0
  0
LINE
  5
DB
330
1F
100
AcDbEntity
  8
0
  6
Continuous
 62
     8
370
    25
100
AcDbLine
 10
179.2272964303
 20
113.0515070015
 30
0.0
 11
156.7272964303
 21
113.0515070015
 31
0.0
  0
LINE
  5
DC
330
1F
100
AcDbEntity
  8
0
  6
Continuous
 62
     8
370
    25
100
AcDbLine
 10
158.1022964303
 20
110.8189356141
 30
0.0
 11
177.8522964303
 21
110.8189356141
 31
0.0
  0
LINE
  5
DD
330
1F
100
AcDbEntity
  8
0
  6
Continuous
 62
     8
370
    25
100
AcDbLine
 10
182.7098678177
 20
105.9613642266
 30
0.0
 11
182.7098678177
 21
86.2113642266
 31
0.0
  0
LINE
  5
DE
330
1F
100
AcDbEntity
  8
0
  6
Continuous
 62
     8
370
    25
100
AcDbLine
 10
159.4772964303
 20
108.5863642266
 30
0.0
 11
176.4772964303
 21
108.5863642266
 31
0.0
  0
LINE
  5
DF
330
1F
100
AcDbEntity
  8
0
  6
Continuous
 62
     8
370
    25
100
AcDbLine
 10
180.4772964303
 20
104.5863642266
 30
0.0
 11
180.4772964303
 21
87.5863642266
 31
0.0
  0
SPLINE
  5
E0
330
1F
100
AcDbEntity
  8
0
  6
Continuous
 62
     8
370
    25
100
AcDbSpline
210
0.0
220
0.0
230
1.0
 70
    24
 71
     3
 72
    12
 73
     8
 74
     0
 42
0.000000001
 43
0.00000001
 40
-0.5788447217180464
 40
-0.5788447217180464
 40
-0.5788447217180464
 40
-0.5788447217180464
 40
-0.3728576618289314
 40
-0.3728576618289314
 40
-0.0432783660063474
 40
-0.0432783660063474
 40
0.0
 40
0.0
 40
0.0
 40
0.0
 10
176.4772964303074
 20
105.0863642266434
 30
0.0
 10
176.4772964303075
 20
105.0863642266436
 30
0.0
 10
176.4169746741142
 20
105.0224941318506
 30
0.0
 10
176.1066078395529
 20
104.693870424668
 30
0.0
 10
175.7636727553108
 20
104.3307626884117
 30
0.0
 10
175.2245467393138
 20
103.7599233773561
 30
0.0
 10
175.1596575711636
 20
103.6912171993147
 30
0.0
 10
175.0925343202765
 20
103.6201455219048
 30
0.0
  0
SPLINE
  5
E1
330
1F
100
AcDbEntity
  8
0
  6
Continuous
 62
     8
370
    25
100
AcDbSpline
210
0.0
220
0.0
230
1.0
 70
     8
 71
     3
 72
    12
 73
     8
 74
     0
 42
0.000000001
 43
0.00000001
 40
0.0
 40
0.0
 40
0.0
 40
0.0
 40
0.0430206627346149
 40
0.0430206627346149
 40
0.3824319177041577
 40
0.3824319177041577
 40
0.594563952060122
 40
0.594563952060122
 40
0.594563952060122
 40
0.594563952060122
 10
160.9360135389969
 20
91.53020686531198
 30
0.0
 10
160.8677087303371
 20
91.48600933430713
 30
0.0
 10
160.8015830121431
 20
91.44322181296074
 30
0.0
 10
160.2337943953453
 20
91.0758266730389
 30
0.0
 10
159.8703070935432
 20
90.8406273973193
 30
0.0
 10
159.5412850473829
 20
90.6277292963443
 30
0.0
 10
159.4772964305724
 20
90.5863246036771
 30
0.0
 10
159.4772964305724
 20
90.5863246036771
 30
0.0
  0
SPLINE
  5
E2
330
1F
100
AcDbEntity
  8
0
  6
Continuous
 62
     8
370
    25
100
AcDbSpline
210
0.0
220
0.0
230
1.0
 70
    24
 71
     3
 72
    12
 73
     8
 74
     0
 42
0.000000001
 43
0.00000001
 40
-0.5788447217180465
 40
-0.5788447217180465
 40
-0.5788447217180465
 40
-0.5788447217180465
 40
-0.535566355711699
 40
-0.535566355711699
 40
-0.205987059889115
 40
-0.205987059889115
 40
0.0
 40
0.0
 40
0.0
 40
0.0
 10
175.5110777255688
 20
103.2016021166125
 30
0.0
 10
175.5821494029787
 20
103.2687253674996
 30
0.0
 10
175.6508555810201
 20
103.3336145356498
 30
0.0
 10
176.2216948920757
 20
103.8727405516468
 30
0.0
 10
176.584802628332
 20
104.2156756358889
 30
0.0
 10
176.9134263355146
 20
104.5260424704502
 30
0.0
 10
176.9772964303075
 20
104.5863642266436
 30
0.0
 10
176.9772964303074
 20
104.5863642266434
 30
0.0
  0
SPLINE
  5
E3
330
1F
100
AcDbEntity
  8
0
  6
Continuous
 62
     8
370
    25
100
AcDbSpline
210
0.0
220
0.0
230
1.0
 70
     8
 71
     3
 72
    12
 73
     8
 74
     0
 42
0.000000001
 43
0.00000001
 40
0.0
 40
0.0
 40
0.0
 40
0.0
 40
0.2121320343559643
 40
0.2121320343559643
 40
0.5515432893255071
 40
0.5515432893255071
 40
0.5945639520601226
 40
0.5945639520601226
 40
0.5945639520601226
 40
0.5945639520601226
 10
162.4772568073411
 20
87.58636422690843
 30
0.0
 10
162.4772568073411
 20
87.58636422690843
 30
0.0
 10
162.5186615000083
 20
87.6503528437189
 30
0.0
 10
162.7315596009833
 20
87.97937488987917
 30
0.0
 10
162.9667588767029
 20
88.34286219168133
 30
0.0
 10
163.3341540166248
 20
88.91065080847915
 30
0.0
 10
163.3769415379711
 20
88.97677652667312
 30
0.0
 10
163.4211390689759
 20
89.04508133533295
 30
0.0
  0
LINE
  5
E4
330
1F
100
AcDbEntity
  8
0
  6
Continuous
 62
     7
370
    18
100
AcDbLine
 10
195.9417723116
 20
86.7385040979
 30
0.0
 11
183.3172964303
 21
86.3439892266
 31
0.0
  0
LINE
  5
E5
330
1F
100
AcDbEntity
  8
0
  6
Continuous
 62
     7
370
    18
100
AcDbLine
 10
195.9417723116
 20
105.4342243554
 30
0.0
 11
183.3172964303
 21
105.8287392266
 31
0.0
  0
LINE
  5
E6
330
1F
100
AcDbEntity
  8
0
  6
Continuous
 62
     7
370
    18
100
AcDbLine
 10
183.3172964303
 20
106.7357392266
 30
0.0
 11
183.3172964303
 21
85.4369892266
 31
0.0
  0
LINE
  5
E7
330
1F
100
AcDbEntity
  8
0
  6
CENTERX2
 62
     7
370
    18
100
AcDbLine
 10
167.9772964303
 20
126.5863642266
 30
0.0
 11
167.9772964303
 21
111.0515070015
 31
0.0
  0
LINE
  5
E8
330
1F
100
AcDbEntity
  8
0
  6
CENTERX2
 62
     7
370
    18
100
AcDbLine
 10
167.9772964303
 20
85.3339575339
 30
0.0
 11
167.9772964303
 21
110.5863642266
 31
0.0
  0
LINE
  5
E9
330
1F
100
AcDbEntity
  8
0
  6
CENTERX2
 62
     7
370
    18
100
AcDbLine
 10
194.2809051574
 20
96.0863642266
 30
0.0
 11
157.383920204
 21
96.0863642266
 31
0.0
  0
LINE
  5
EA
330
1F
100
AcDbEntity
  8
0
  6
CENTERX2
 62
     7
370
    18
100
AcDbLine
 10
194.2809051574
 20
96.0863642266
 30
0.0
 11
198.9772964303
 21
96.0863642266
 31
0.0
  0
ARC
  5
EB
330
1F
100
AcDbEntity
  8
0
  6
Continuous
 62
     7
370
    25
100
AcDbCircle
 10
237.8692256748
 20
113.0515070015
 30
0.0
 40
2.5
100
AcDbArc
 50
296.7436839504
 51
0.0
  0
ARC
  5
EC
330
1F
100
AcDbEntity
  8
0
  6
Continuous
 62
     7
370
    25
100
AcDbCircle
 10
220.3692256748
 20
113.0515070015
 30
0.0
 40
2.5
100
AcDbArc
 50
180.0
 51
243.2563160496
  0
LINE
  5
ED
330
1F
100
AcDbEntity
  8
0
  6
Continuous
 62
     7
370
    25
100
AcDbLine
 10
240.3692256748
 20
124.5863642266
 30
0.0
 11
239.8692256748
 21
125.0863642266
 31
0.0
  0
LINE
  5
EE
330
1F
100
AcDbEntity
  8
0
  6
Continuous
 62
     7
370
    25
100
AcDbLine
 10
218.3692256748
 20
125.0863642266
 30
0.0
 11
217.8692256748
 21
124.5863642266
 31
0.0
  0
LINE
  5
EF
330
1F
100
AcDbEntity
  8
0
  6
Continuous
 62
     7
370
    25
100
AcDbLine
 10
240.3692256748
 20
113.0515070015
 30
0.0
 11
240.3692256748
 21
124.5863642266
 31
0.0
  0
LINE
  5
F0
330
1F
100
AcDbEntity
  8
0
  6
Continuous
 62
     7
370
    25
100
AcDbLine
 10
217.8692256748
 20
124.5863642266
 30
0.0
 11
217.8692256748
 21
113.0515070015
 31
0.0
  0
ARC
  5
F1
330
1F
100
AcDbEntity
  8
0
  6
Continuous
 62
     7
370
    25
100
AcDbCircle
 10
240.1192256748
 20
108.5863642266
 30
0.0
 40
2.500000000000009
100
AcDbArc
 50
116.7436839504
 51
180.0
  0
ARC
  5
F2
330
1F
100
AcDbEntity
  8
0
  6
Continuous
 62
     7
370
    25
100
AcDbCircle
 10
218.1192256748
 20
108.5863642266
 30
0.0
 40
2.500000000000009
100
AcDbArc
 50
0.0
 51
63.2563160496
  0
LINE
  5
F3
330
1F
100
AcDbEntity
  8
0
  6
Continuous
 62
     7
370
    25
100
AcDbLine
 10
220.6192256748
 20
108.5863642266
 30
0.0
 11
220.6192256748
 21
104.5863642266
 31
0.0
  0
LINE
  5
F4
330
1F
100
AcDbEntity
  8
0
  6
Continuous
 62
     7
370
    25
100
AcDbLine
 10
237.6192256748
 20
104.5863642266
 30
0.0
 11
237.6192256748
 21
108.5863642266
 31
0.0
  0
CIRCLE
  5
F5
330
1F
100
AcDbEntity
  8
0
  6
Continuous
 62
     7
370
    25
100
AcDbCircle
 10
229.1192256748
 20
96.0863642266
 30
0.0
 40
8.75
  0
CIRCLE
  5
F6
330
1F
100
AcDbEntity
  8
0
  6
Continuous
 62
     7
370
    25
100
AcDbCircle
 10
229.1192256748
 20
96.0863642266
 30
0.0
 40
10.30676222727978
  0
CIRCLE
  5
F7
330
1F
100
AcDbEntity
  8
0
  6
Continuous
 62
     7
370
    25
100
AcDbCircle
 10
229.1192256748
 20
96.0863642266
 30
0.0
 40
7.0
  0
CIRCLE
  5
F8
330
1F
100
AcDbEntity
  8
0
  6
Continuous
 62
     7
370
    25
100
AcDbCircle
 10
229.1192256748
 20
96.0863642266
 30
0.0
 40
6.5
  0
CIRCLE
  5
F9
330
1F
100
AcDbEntity
  8
0
  6
Continuous
 62
     7
370
    25
100
AcDbCircle
 10
229.1192256748
 20
96.0863642266
 30
0.0
 40
10.64938692329189
  0
LINE
  5
FA
330
1F
100
AcDbEntity
  8
0
  6
Continuous
 62
     7
370
    25
100
AcDbLine
 10
240.3692256748
 20
124.5863642266
 30
0.0
 11
217.8692256748
 21
124.5863642266
 31
0.0
  0
LINE
  5
FB
330
1F
100
AcDbEntity
  8
0
  6
Continuous
 62
     7
370
    25
100
AcDbLine
 10
218.3692256748
 20
125.0863642266
 30
0.0
 11
239.8692256748
 21
125.0863642266
 31
0.0
  0
SPLINE
  5
FC
330
1F
100
AcDbEntity
  8
0
  6
Continuous
 62
     7
370
    25
100
AcDbSpline
210
0.0
220
0.0
230
1.0
 70
    24
 71
     3
 72
     8
 73
     4
 74
     0
 42
0.000000001
 43
0.00000001
 40
0.0
 40
0.0
 40
0.0
 40
0.0
 40
1.0
 40
1.0
 40
1.0
 40
1.0
 10
237.1192256747987
 20
104.5863642266434
 30
0.0
 10
237.4492519284135
 20
104.5863642266434
 30
0.0
 10
237.6192256747987
 20
104.5863642266434
 30
0.0
 10
237.6192256747987
 20
104.5863642266434
 30
0.0
  0
SPLINE
  5
FD
330
1F
100
AcDbEntity
  8
0
  6
Continuous
 62
     7
370
    25
100
AcDbSpline
210
0.0
220
0.0
230
1.0
 70
    24
 71
     3
 72
     8
 73
     4
 74
     0
 42
0.000000001
 43
0.00000001
 40
0.0
 40
0.0
 40
0.0
 40
0.0
 40
1.0
 40
1.0
 40
1.0
 40
1.0
 10
220.6192256747987
 20
104.5863642266434
 30
0.0
 10
220.6192256747987
 20
104.5863642266434
 30
0.0
 10
220.7891994211839
 20
104.5863642266434
 30
0.0
 10
221.1192256747987
 20
104.5863642266434
 30
0.0
  0
LINE
  5
FE
330
1F
100
AcDbEntity
  8
0
  6
Continuous
 62
     7
370
    25
100
AcDbLine
 10
237.6192256748
 20
102.5019266994
 30
0.0
 11
237.6192256748
 21
102.5863642266
 31
0.0
  0
LINE
  5
FF
330
1F
100
AcDbEntity
  8
0
  6
Continuous
 62
     7
370
    25
100
AcDbLine
 10
220.6192256748
 20
89.6708017539
 30
0.0
 11
220.6192256748
 21
89.5863642266
 31
0.0
  0
LINE
  5
100
330
1F
100
AcDbEntity
  8
0
  6
Continuous
 62
     7
370
    25
100
AcDbLine
 10
237.6192256748
 20
89.5863642266
 30
0.0
 11
237.6192256748
 21
89.6708017539
 31
0.0
  0
LINE
  5
101
330
1F
100
AcDbEntity
  8
0
  6
Continuous
 62
     7
370
    25
100
AcDbLine
 10
220.6192256748
 20
102.5863642266
 30
0.0
 11
220.6192256748
 21
102.5019266994
 31
0.0
  0
ARC
  5
102
330
1F
100
AcDbEntity
  8
0
  6
Continuous
 62
     7
370
    25
100
AcDbCircle
 10
237.1192256748
 20
102.5863642266
 30
0.0
 40
0.5000000000000052
100
AcDbArc
 50
0.0
 51
87.0025302101
  0
ARC
  5
103
330
1F
100
AcDbEntity
  8
0
  6
Continuous
 62
     7
370
    25
100
AcDbCircle
 10
237.1192256748
 20
89.5863642266
 30
0.0
 40
0.5
100
AcDbArc
 50
272.9974697899
 51
0.0
  0
ARC
  5
104
330
1F
100
AcDbEntity
  8
0
  6
Continuous
 62
     7
370
    25
100
AcDbCircle
 10
221.1192256748
 20
89.5863642266
 30
0.0
 40
0.5
100
AcDbArc
 50
180.0
 51
267.0025302101
  0
ARC
  5
105
330
1F
100
AcDbEntity
  8
0
  6
Continuous
 62
     7
370
    25
100
AcDbCircle
 10
221.1192256748
 20
102.5863642266
 30
0.0
 40
0.5000000000000082
100
AcDbArc
 50
92.9974697899
 51
180.0
  0
LINE
  5
106
330
1F
100
AcDbEntity
  8
0
  6
Continuous
 62
     7
370
    25
100
AcDbLine
 10
237.6192256748
 20
104.0863642266
 30
0.0
 11
237.1192256748
 21
104.0863642266
 31
0.0
  0
LINE
  5
107
330
1F
100
AcDbEntity
  8
0
  6
Continuous
 62
     7
370
    25
100
AcDbLine
 10
237.6192256748
 20
102.5863642266
 30
0.0
 11
237.6192256748
 21
104.0863642266
 31
0.0
  0
LINE
  5
108
330
1F
100
AcDbEntity
  8
0
  6
Continuous
 62
     7
370
    25
100
AcDbLine
 10
220.6192256748
 20
104.0863642266
 30
0.0
 11
221.1192256748
 21
104.0863642266
 31
0.0
  0
LINE
  5
109
330
1F
100
AcDbEntity
  8
0
  6
Continuous
 62
     7
370
    25
100
AcDbLine
 10
220.6192256748
 20
104.0863642266
 30
0.0
 11
220.6192256748
 21
102.5863642266
 31
0.0
  0
LINE
  5
10A
330
1F
100
AcDbEntity
  8
0
  6
Continuous
 62
     7
370
    25
100
AcDbLine
 10
237.1192256748
 20
104.5863642266
 30
0.0
 11
237.1192256748
 21
104.0863642266
 31
0.0
  0
ARC
  5
10B
330
1F
100
AcDbEntity
  8
0
  6
Continuous
 62
     7
370
    25
100
AcDbCircle
 10
237.1192256748
 20
104.0863642266
 30
0.0
 40
0.5
100
AcDbArc
 50
0.0
 51
90.0
  0
LINE
  5
10C
330
1F
100
AcDbEntity
  8
0
  6
Continuous
 62
     7
370
    25
100
AcDbLine
 10
237.1192256748
 20
104.5863642266
 30
0.0
 11
235.5347881476
 21
104.5863642266
 31
0.0
  0
LINE
  5
10D
330
1F
100
AcDbEntity
  8
0
  6
Continuous
 62
     7
370
    25
100
AcDbLine
 10
221.1192256748
 20
104.0863642266
 30
0.0
 11
221.1192256748
 21
104.5863642266
 31
0.0
  0
LINE
  5
10E
330
1F
100
AcDbEntity
  8
0
  6
Continuous
 62
     7
370
    25
100
AcDbLine
 10
222.703663202
 20
104.5863642266
 30
0.0
 11
221.1192256748
 21
104.5863642266
 31
0.0
  0
ARC
  5
10F
330
1F
100
AcDbEntity
  8
0
  6
Continuous
 62
     7
370
    25
100
AcDbCircle
 10
221.1192256748
 20
104.0863642266
 30
0.0
 40
0.5
100
AcDbArc
 50
90.0
 51
180.0
  0
SPLINE
  5
110
330
1F
100
AcDbEntity
  8
0
  6
Continuous
 62
     7
370
    25
100
AcDbSpline
210
0.0
220
0.0
230
1.0
 70
     8
 71
     3
 72
    52
 73
    48
 74
     0
 42
0.000000001
 43
0.00000001
 40
0.0
 40
0.0
 40
0.0
 40
0.0
 40
0.1249999999999998
 40
0.1249999999999998
 40
0.1874999999999997
 40
0.1874999999999997
 40
0.2499999999999996
 40
0.2499999999999996
 40
0.2812499999999996
 40
0.2812499999999996
 40
0.3124999999999996
 40
0.3124999999999996
 40
0.3281249999999996
 40
0.3281249999999996
 40
0.3437499999999996
 40
0.3437499999999996
 40
0.3749999999999996
 40
0.3749999999999996
 40
0.4062499999999996
 40
0.4062499999999996
 40
0.4374999999999996
 40
0.4374999999999996
 40
0.4687499999999996
 40
0.4687499999999996
 40
0.4999999999999996
 40
0.4999999999999996
 40
0.5624999999999996
 40
0.5624999999999996
 40
0.5937499999999996
 40
0.5937499999999996
 40
0.6249999999999996
 40
0.6249999999999996
 40
0.6562499999999994
 40
0.6562499999999994
 40
0.6718749999999996
 40
0.6718749999999996
 40
0.6874999999999997
 40
0.6874999999999997
 40
0.7187499999999997
 40
0.7187499999999997
 40
0.7499999999999998
 40
0.7499999999999998
 40
0.8124999999999999
 40
0.8124999999999999
 40
0.875
 40
0.875
 40
1.0
 40
1.0
 40
1.0
 40
1.0
 10
224.5366499798428
 20
100.6961364552898
 30
0.0
 10
224.6668668992965
 20
100.1254091315286
 30
0.0
 10
224.8294305791823
 20
99.56254282794701
 30
0.0
 10
225.1417802203397
 20
98.73731922242429
 30
0.0
 10
225.2576271456301
 20
98.46504564512007
 30
0.0
 10
225.5193431819432
 20
97.93683237755047
 30
0.0
 10
225.6648621402443
 20
97.67802639153335
 30
0.0
 10
225.9238535786273
 20
97.32272428967418
 30
0.0
 10
226.0176603167484
 20
97.20887865687267
 30
0.0
 10
226.2292790461478
 20
97.0131897189684
 30
0.0
 10
226.3500984181576
 20
96.9296966154533
 30
0.0
 10
226.5558713663273
 20
96.87752694806534
 30
0.0
 10
226.628045124925
 20
96.87302521422085
 30
0.0
 10
226.7714077521271
 20
96.88679556359955
 30
0.0
 10
226.8439987433737
 20
96.90469390353779
 30
0.0
 10
227.0554658176548
 20
96.97387078706623
 30
0.0
 10
227.1925884339837
 20
97.0392599292423
 30
0.0
 10
227.4718048618941
 20
97.17007301680722
 30
0.0
 10
227.6140863896063
 20
97.23684779161043
 30
0.0
 10
227.90489402477
 20
97.35773711877897
 30
0.0
 10
228.0532847386377
 20
97.41214121896901
 30
0.0
 10
228.3581870045112
 20
97.50202071556782
 30
0.0
 10
228.5146709314428
 20
97.53759298254795
 30
0.0
 10
228.8376173792444
 20
97.58469041529132
 30
0.0
 10
229.0017467069865
 20
97.59559618191646
 30
0.0
 10
229.4884996965923
 20
97.58839081855788
 30
0.0
 10
229.8149508044212
 20
97.52790619385108
 30
0.0
 10
230.2698028534293
 20
97.38223469675728
 30
0.0
 10
230.4170714587316
 20
97.32479316806236
 30
0.0
 10
230.7055773903721
 20
97.19985337302538
 30
0.0
 10
230.8466086324227
 20
97.13201408432928
 30
0.0
 10
231.1253434700182
 20
97.00296495559125
 30
0.0
 10
231.2643757988224
 20
96.9398669611589
 30
0.0
 10
231.476393650662
 20
96.88581231327801
 30
0.0
 10
231.5488425068508
 20
96.87517584578977
 30
0.0
 10
231.6898372006642
 20
96.87866583098331
 30
0.0
 10
231.7593712663252
 20
96.89302688577823
 30
0.0
 10
231.95560044123
 20
96.9698338413266
 30
0.0
 10
232.0687664476401
 20
97.06173241633643
 30
0.0
 10
232.2685939886361
 20
97.26451354523705
 30
0.0
 10
232.3575062529002
 20
97.37796037184296
 30
0.0
 10
232.6071197432211
 20
97.73471279569596
 30
0.0
 10
232.7463438818813
 20
97.98783019645113
 30
0.0
 10
232.9983868984426
 20
98.50523579473841
 30
0.0
 10
233.1100222952166
 20
98.77046138878714
 30
0.0
 10
233.4134223342433
 20
99.57877922731122
 30
0.0
 10
233.5738059601613
 20
100.1351457800585
 30
0.0
 10
233.7018013697545
 20
100.6961364552898
 30
0.0
  0
SPLINE
  5
111
330
1F
100
AcDbEntity
  8
0
  6
Continuous
 62
     7
370
    25
100
AcDbSpline
210
0.0
220
0.0
230
1.0
 70
    24
 71
     3
 72
    10
 73
     6
 74
     0
 42
0.000000001
 43
0.00000001
 40
-0.2904940295525327
 40
-0.2904940295525327
 40
-0.2904940295525327
 40
-0.2904940295525327
 40
-0.130307291676468
 40
-0.130307291676468
 40
0.0010563446871674
 40
0.0010563446871674
 40
0.0010563446871674
 40
0.0010563446871674
 10
220.6192256747987
 20
104.5863642266434
 30
0.0
 10
220.6192256747987
 20
104.4568609246618
 30
0.0
 10
220.6192256747987
 20
104.3250699222757
 30
0.0
 10
220.6192256747987
 20
104.1466459932788
 30
0.0
 10
220.6192256747987
 20
104.0863642266434
 30
0.0
 10
220.6192256747987
 20
104.0863642266434
 30
0.0
  0
SPLINE
  5
112
330
1F
100
AcDbEntity
  8
0
  6
Continuous
 62
     7
370
    25
100
AcDbSpline
210
0.0
220
0.0
230
1.0
 70
    24
 71
     3
 72
    10
 73
     6
 74
     0
 42
0.000000001
 43
0.00000001
 40
-0.8711658249912583
 40
-0.8711658249912583
 40
-0.8711658249912583
 40
-0.8711658249912583
 40
-0.7398021886276228
 40
-0.7398021886276228
 40
-0.5796154507864709
 40
-0.5796154507864709
 40
-0.5796154507864709
 40
-0.5796154507864709
 10
237.6192256747987
 20
104.0863642266434
 30
0.0
 10
237.6192256747987
 20
104.0863642266434
 30
0.0
 10
237.6192256747987
 20
104.1466459932788
 30
0.0
 10
237.6192256747987
 20
104.3250699222543
 30
0.0
 10
237.6192256747987
 20
104.45686092469
 30
0.0
 10
237.6192256747987
 20
104.5863642266434
 30
0.0
  0
SPLINE
  5
113
330
1F
100
AcDbEntity
  8
0
  6
Continuous
 62
     7
370
    25
100
AcDbSpline
210
0.0
220
0.0
230
1.0
 70
     8
 71
     3
 72
     8
 73
     4
 74
     0
 42
0.000000001
 43
0.00000001
 40
0.0
 40
0.0
 40
0.0
 40
0.0
 40
1.0
 40
1.0
 40
1.0
 40
1.0
 10
230.9453848548044
 20
95.08636422664333
 30
0.0
 10
231.3260522231418
 20
95.05216653257226
 30
0.0
 10
231.7068214481078
 20
95.0522014395883
 30
0.0
 10
232.0876075203122
 20
95.08636422664337
 30
0.0
  0
SPLINE
  5
114
330
1F
100
AcDbEntity
  8
0
  6
Continuous
 62
     7
370
    25
100
AcDbSpline
210
0.0
220
0.0
230
1.0
 70
     8
 71
     3
 72
    14
 73
    10
 74
     0
 42
0.000000001
 43
0.00000001
 40
0.0
 40
0.0
 40
0.0
 40
0.0
 40
0.25
 40
0.25
 40
0.5
 40
0.5
 40
0.75
 40
0.75
 40
1.0
 40
1.0
 40
1.0
 40
1.0
 10
232.0876075203122
 20
95.08636422664337
 30
0.0
 10
232.0111045407309
 20
95.15350036797118
 30
0.0
 10
231.9288658587145
 20
95.21119253687992
 30
0.0
 10
231.7439280832517
 20
95.28765664949181
 30
0.0
 10
231.6437434712534
 20
95.30239506381149
 30
0.0
 10
231.4407973765876
 20
95.28390467279289
 30
0.0
 10
231.3412874742218
 20
95.25372190621317
 30
0.0
 10
231.1422200085858
 20
95.17771674217526
 30
0.0
 10
231.0441295693416
 20
95.13244673215692
 30
0.0
 10
230.9453848548045
 20
95.08636422664338
 30
0.0
  0
SPLINE
  5
115
330
1F
100
AcDbEntity
  8
0
  6
Continuous
 62
     7
370
    25
100
AcDbSpline
210
0.0
220
0.0
230
1.0
 70
     8
 71
     3
 72
     8
 73
     4
 74
     0
 42
0.000000001
 43
0.00000001
 40
0.0
 40
0.0
 40
0.0
 40
0.0
 40
1.0
 40
1.0
 40
1.0
 40
1.0
 10
226.1508438292854
 20
95.08636422664334
 30
0.0
 10
226.5316299014899
 20
95.05220143958829
 30
0.0
 10
226.9123991264559
 20
95.05216653257226
 30
0.0
 10
227.2930664947934
 20
95.08636422664337
 30
0.0
  0
SPLINE
  5
116
330
1F
100
AcDbEntity
  8
0
  6
Continuous
 62
     7
370
    25
100
AcDbSpline
210
0.0
220
0.0
230
1.0
 70
     8
 71
     3
 72
    14
 73
    10
 74
     0
 42
0.000000001
 43
0.00000001
 40
0.0
 40
0.0
 40
0.0
 40
0.0
 40
0.25
 40
0.25
 40
0.5
 40
0.5
 40
0.75
 40
0.75
 40
1.0
 40
1.0
 40
1.0
 40
1.0
 10
227.2930664947934
 20
95.08636422664337
 30
0.0
 10
227.194033823259
 20
95.13258111686775
 30
0.0
 10
227.0959001740562
 20
95.17782723081669
 30
0.0
 10
226.8980655065473
 20
95.25339356493531
 30
0.0
 10
226.7965191636545
 20
95.28406084161705
 30
0.0
 10
226.5950924765843
 20
95.30230704971248
 30
0.0
 10
226.4937748919955
 20
95.28732083948582
 30
0.0
 10
226.3106370640626
 20
95.21165366339598
 30
0.0
 10
226.2266306761464
 20
95.1528719167949
 30
0.0
 10
226.1508438292853
 20
95.0863642266435
 30
0.0
  0
LINE
  5
117
330
1F
100
AcDbEntity
  8
0
  6
Continuous
 62
     7
370
    25
100
AcDbLine
 10
227.2930664948
 20
95.0863642266
 30
0.0
 11
226.1508438293
 21
95.0863642266
 31
0.0
  0
LINE
  5
118
330
1F
100
AcDbEntity
  8
0
  6
Continuous
 62
     7
370
    25
100
AcDbLine
 10
232.0876075203
 20
95.0863642266
 30
0.0
 11
230.9453848548
 21
95.0863642266
 31
0.0
  0
LINE
  5
119
330
1F
100
AcDbEntity
  8
0
  6
Continuous
 62
     8
370
    25
100
AcDbLine
 10
240.3692256748
 20
113.0515070015
 30
0.0
 11
217.8692256748
 21
113.0515070015
 31
0.0
  0
LINE
  5
11A
330
1F
100
AcDbEntity
  8
0
  6
Continuous
 62
     8
370
    25
100
AcDbLine
 10
229.1192256748
 20
110.8189356141
 30
0.0
 11
238.9942256748
 21
110.8189356141
 31
0.0
  0
LINE
  5
11B
330
1F
100
AcDbEntity
  8
0
  6
Continuous
 62
     8
370
    25
100
AcDbLine
 10
219.2442256748
 20
110.8189356141
 30
0.0
 11
229.1192256748
 21
110.8189356141
 31
0.0
  0
LINE
  5
11C
330
1F
100
AcDbEntity
  8
0
  6
Continuous
 62
     8
370
    25
100
AcDbLine
 10
229.1192256748
 20
108.5863642266
 30
0.0
 11
237.6192256748
 21
108.5863642266
 31
0.0
  0
LINE
  5
11D
330
1F
100
AcDbEntity
  8
0
  6
Continuous
 62
     8
370
    25
100
AcDbLine
 10
220.6192256748
 20
108.5863642266
 30
0.0
 11
229.1192256748
 21
108.5863642266
 31
0.0
  0
LINE
  5
11E
330
1F
100
AcDbEntity
  8
0
  6
Continuous
 62
     8
370
    25
100
AcDbLine
 10
237.554831275
 20
102.5863642266
 30
0.0
 11
237.6192256748
 21
102.5863642266
 31
0.0
  0
LINE
  5
11F
330
1F
100
AcDbEntity
  8
0
  6
Continuous
 62
     8
370
    25
100
AcDbLine
 10
220.6192256748
 20
89.5863642266
 30
0.0
 11
220.6836200746
 21
89.5863642266
 31
0.0
  0
LINE
  5
120
330
1F
100
AcDbEntity
  8
0
  6
Continuous
 62
     8
370
    25
100
AcDbLine
 10
237.554831275
 20
89.5863642266
 30
0.0
 11
237.6192256748
 21
89.5863642266
 31
0.0
  0
LINE
  5
121
330
1F
100
AcDbEntity
  8
0
  6
Continuous
 62
     8
370
    25
100
AcDbLine
 10
220.6192256748
 20
102.5863642266
 30
0.0
 11
220.6836200746
 21
102.5863642266
 31
0.0
  0
LINE
  5
122
330
1F
100
AcDbEntity
  8
0
  6
Continuous
 62
     8
370
    25
100
AcDbLine
 10
237.1192256748
 20
104.0863642266
 30
0.0
 11
236.1484106803
 21
104.0863642266
 31
0.0
  0
LINE
  5
123
330
1F
100
AcDbEntity
  8
0
  6
Continuous
 62
     8
370
    25
100
AcDbLine
 10
237.1192256748
 20
104.0863642266
 30
0.0
 11
237.1192256748
 21
103.1155492322
 31
0.0
  0
LINE
  5
124
330
1F
100
AcDbEntity
  8
0
  6
Continuous
 62
     8
370
    25
100
AcDbLine
 10
222.0900406693
 20
104.0863642266
 30
0.0
 11
221.1192256748
 21
104.0863642266
 31
0.0
  0
LINE
  5
125
330
1F
100
AcDbEntity
  8
0
  6
Continuous
 62
     8
370
    25
100
AcDbLine
 10
221.1192256748
 20
103.1155492322
 30
0.0
 11
221.1192256748
 21
104.0863642266
 31
0.0
  0
INSERT
  5
131
330
1F
100
AcDbEntity
  8
0
  6
Continuous
 62
     7
370
    18
100
AcDbBlockReference
  2
SW_CENTERMARKSYMBOL_0
 10
229.1192256748
 20
96.0863642266
 30
0.0
  0
ARC
  5
132
330
1F
100
AcDbEntity
  8
0
  6
Continuous
 62
     7
370
    18
100
AcDbCircle
 10
229.1192256748
 20
96.0863642266
 30
0.0
 40
9.315499999999988
100
AcDbArc
 50
75.0
 51
345.0
  0
LINE
  5
133
330
1F
100
AcDbEntity
  8
0
  6
Continuous
 62
     7
370
    25
100
AcDbLine
 10
183.316914885
 20
148.1999863161
 30
0.0
 11
194.2809051574
 21
148.5426110121
 31
0.0
  0
LINE
  5
134
330
1F
100
AcDbEntity
  8
0
  6
Continuous
 62
     7
370
    25
100
AcDbLine
 10
194.2809051574
 20
169.1561354666
 30
0.0
 11
183.316914885
 21
169.4987601626
 31
0.0
  0
ARC
  5
135
330
1F
100
AcDbEntity
  8
0
  6
Continuous
 62
     7
370
    25
100
AcDbCircle
 10
184.9424392052
 20
150.0993732394
 30
0.0
 40
2.500000000000005
100
AcDbArc
 50
206.7436839504
 51
229.4425836614
  0
ARC
  5
136
330
1F
100
AcDbEntity
  8
0
  6
Continuous
 62
     7
370
    25
100
AcDbCircle
 10
184.9424392052
 20
167.5993732394
 30
0.0
 40
2.500000000000005
100
AcDbArc
 50
130.5574163386
 51
153.2563160496
  0
LINE
  5
137
330
1F
100
AcDbEntity
  8
0
  6
Continuous
 62
     7
370
    25
100
AcDbLine
 10
194.2809051574
 20
148.5426110121
 30
0.0
 11
196.9772964303
 21
150.0993732394
 31
0.0
  0
LINE
  5
138
330
1F
100
AcDbEntity
  8
0
  6
Continuous
 62
     7
370
    25
100
AcDbLine
 10
196.9772964303
 20
167.5993732394
 30
0.0
 11
194.2809051574
 21
169.1561354666
 31
0.0
  0
ARC
  5
139
330
1F
100
AcDbEntity
  8
0
  6
Continuous
 62
     7
370
    25
100
AcDbCircle
 10
180.4772964303
 20
147.8493732394
 30
0.0
 40
2.500000000000035
100
AcDbArc
 50
26.7436839504
 51
90.0
  0
ARC
  5
13A
330
1F
100
AcDbEntity
  8
0
  6
Continuous
 62
     7
370
    25
100
AcDbCircle
 10
180.4772964303
 20
169.8493732394
 30
0.0
 40
2.500000000000035
100
AcDbArc
 50
270.0
 51
333.2563160496
  0
LINE
  5
13B
330
1F
100
AcDbEntity
  8
0
  6
Continuous
 62
     7
370
    25
100
AcDbLine
 10
180.4772964303
 20
167.3493732394
 30
0.0
 11
178.0272964303
 21
167.3493732394
 31
0.0
  0
LINE
  5
13C
330
1F
100
AcDbEntity
  8
0
  6
Continuous
 62
     7
370
    25
100
AcDbLine
 10
176.9272964303
 20
167.3493732394
 30
0.0
 11
176.4772964303
 21
167.3493732394
 31
0.0
  0
LINE
  5
13D
330
1F
100
AcDbEntity
  8
0
  6
Continuous
 62
     7
370
    25
100
AcDbLine
 10
176.4772964303
 20
150.3493732394
 30
0.0
 11
180.4772964303
 21
150.3493732394
 31
0.0
  0
LINE
  5
13E
330
1F
100
AcDbEntity
  8
0
  6
Continuous
 62
     7
370
    25
100
AcDbLine
 10
178.0272964303
 20
167.3493732394
 30
0.0
 11
177.7272964303
 21
167.6493732394
 31
0.0
  0
LINE
  5
13F
330
1F
100
AcDbEntity
  8
0
  6
Continuous
 62
     7
370
    25
100
AcDbLine
 10
177.2272964303
 20
167.6493732394
 30
0.0
 11
176.9272964303
 21
167.3493732394
 31
0.0
  0
CIRCLE
  5
140
330
1F
100
AcDbEntity
  8
0
  6
Continuous
 62
     7
370
    25
100
AcDbCircle
 10
167.9772964303
 20
158.8493732394
 30
0.0
 40
8.5
  0
CIRCLE
  5
141
330
1F
100
AcDbEntity
  8
0
  6
Continuous
 62
     7
370
    25
100
AcDbCircle
 10
167.9772964303
 20
158.8493732394
 30
0.0
 40
10.75
  0
CIRCLE
  5
142
330
1F
100
AcDbEntity
  8
0
  6
Continuous
 62
     7
370
    25
100
AcDbCircle
 10
167.9772964303
 20
158.8493732394
 30
0.0
 40
11.24999999999997
  0
CIRCLE
  5
143
330
1F
100
AcDbEntity
  8
0
  6
Continuous
 62
     7
370
    25
100
AcDbCircle
 10
167.9772964303
 20
158.8493732394
 30
0.0
 40
7.872175816270357
  0
CIRCLE
  5
144
330
1F
100
AcDbEntity
  8
0
  6
Continuous
 62
     7
370
    25
100
AcDbCircle
 10
167.9772964303
 20
158.8493732394
 30
0.0
 40
7.547130357748898
  0
CIRCLE
  5
145
330
1F
100
AcDbEntity
  8
0
  6
Continuous
 62
     7
370
    25
100
AcDbCircle
 10
167.9772964303
 20
158.8493732394
 30
0.0
 40
7.475000000000023
  0
CIRCLE
  5
146
330
1F
100
AcDbEntity
  8
0
  6
Continuous
 62
     7
370
    25
100
AcDbCircle
 10
167.9772964303
 20
158.8493732394
 30
0.0
 40
5.0
  0
LINE
  5
147
330
1F
100
AcDbEntity
  8
0
  6
Continuous
 62
     7
370
    25
100
AcDbLine
 10
194.2809051574
 20
148.5426110121
 30
0.0
 11
194.2809051574
 21
169.1561354666
 31
0.0
  0
LINE
  5
148
330
1F
100
AcDbEntity
  8
0
  6
Continuous
 62
     7
370
    25
100
AcDbLine
 10
183.316914885
 20
158.8493732394
 30
0.0
 11
183.316914885
 21
169.4987601626
 31
0.0
  0
LINE
  5
149
330
1F
100
AcDbEntity
  8
0
  6
Continuous
 62
     7
370
    25
100
AcDbLine
 10
183.316914885
 20
148.1999863161
 30
0.0
 11
183.316914885
 21
158.8493732394
 31
0.0
  0
LINE
  5
14A
330
1F
100
AcDbEntity
  8
0
  6
Continuous
 62
     7
370
    25
100
AcDbLine
 10
196.9772964303
 20
167.5993732394
 30
0.0
 11
196.9772964303
 21
150.0993732394
 31
0.0
  0
SPLINE
  5
14B
330
1F
100
AcDbEntity
  8
0
  6
Continuous
 62
     7
370
    25
100
AcDbSpline
210
0.0
220
0.0
230
1.0
 70
    24
 71
     3
 72
     8
 73
     4
 74
     0
 42
0.000000001
 43
0.00000001
 40
0.0
 40
0.0
 40
0.0
 40
0.0
 40
1.0
 40
1.0
 40
1.0
 40
1.0
 10
176.4772964303073
 20
150.8493732393501
 30
0.0
 10
176.4772964303073
 20
150.5193469857352
 30
0.0
 10
176.4772964303073
 20
150.3493732393501
 30
0.0
 10
176.4772964303073
 20
150.3493732393501
 30
0.0
  0
SPLINE
  5
14C
330
1F
100
AcDbEntity
  8
0
  6
Continuous
 62
     7
370
    25
100
AcDbSpline
210
0.0
220
0.0
230
1.0
 70
    24
 71
     3
 72
     8
 73
     4
 74
     0
 42
0.000000001
 43
0.00000001
 40
0.0
 40
0.0
 40
0.0
 40
0.0
 40
1.0
 40
1.0
 40
1.0
 40
1.0
 10
176.4772964303073
 20
167.3493732393501
 30
0.0
 10
176.4772964303073
 20
167.3493732393501
 30
0.0
 10
176.4772964303073
 20
167.1793994929649
 30
0.0
 10
176.4772964303073
 20
166.8493732393501
 30
0.0
  0
LINE
  5
14D
330
1F
100
AcDbEntity
  8
0
  6
Continuous
 62
     7
370
    25
100
AcDbLine
 10
175.9772964303
 20
167.3493732394
 30
0.0
 11
175.9772964303
 21
166.8493732394
 31
0.0
  0
LINE
  5
14E
330
1F
100
AcDbEntity
  8
0
  6
Continuous
 62
     7
370
    25
100
AcDbLine
 10
175.9772964303
 20
167.3493732394
 30
0.0
 11
175.3469979168
 21
167.3493732394
 31
0.0
  0
LINE
  5
14F
330
1F
100
AcDbEntity
  8
0
  6
Continuous
 62
     7
370
    25
100
AcDbLine
 10
175.9772964303
 20
150.3493732394
 30
0.0
 11
175.9772964303
 21
150.8493732394
 31
0.0
  0
LINE
  5
150
330
1F
100
AcDbEntity
  8
0
  6
Continuous
 62
     7
370
    25
100
AcDbLine
 10
175.3469979168
 20
150.3493732394
 30
0.0
 11
175.9772964303
 21
150.3493732394
 31
0.0
  0
ARC
  5
151
330
1F
100
AcDbEntity
  8
0
  6
Continuous
 62
     7
370
    25
100
AcDbCircle
 10
175.9772964303
 20
166.8493732394
 30
0.0
 40
0.5
100
AcDbArc
 50
0.0
 51
90.0
  0
LINE
  5
152
330
1F
100
AcDbEntity
  8
0
  6
Continuous
 62
     7
370
    25
100
AcDbLine
 10
175.9772964303
 20
166.8493732394
 30
0.0
 11
176.4772964303
 21
166.8493732394
 31
0.0
  0
LINE
  5
153
330
1F
100
AcDbEntity
  8
0
  6
Continuous
 62
     7
370
    25
100
AcDbLine
 10
176.4772964303
 20
166.2190747258
 30
0.0
 11
176.4772964303
 21
166.8493732394
 31
0.0
  0
LINE
  5
154
330
1F
100
AcDbEntity
  8
0
  6
Continuous
 62
     7
370
    25
100
AcDbLine
 10
176.4772964303
 20
150.8493732394
 30
0.0
 11
176.4772964303
 21
151.4796717529
 31
0.0
  0
LINE
  5
155
330
1F
100
AcDbEntity
  8
0
  6
Continuous
 62
     7
370
    25
100
AcDbLine
 10
175.9772964303
 20
150.8493732394
 30
0.0
 11
176.4772964303
 21
150.8493732394
 31
0.0
  0
ARC
  5
156
330
1F
100
AcDbEntity
  8
0
  6
Continuous
 62
     7
370
    25
100
AcDbCircle
 10
175.9772964303
 20
150.8493732394
 30
0.0
 40
0.5
100
AcDbArc
 50
270.0
 51
0.0
  0
LINE
  5
157
330
1F
100
AcDbEntity
  8
0
  6
Continuous
 62
     7
370
    25
100
AcDbLine
 10
165.9772964303
 20
154.2667975444
 30
0.0
 11
165.9772964303
 21
163.4319489343
 31
0.0
  0
SPLINE
  5
158
330
1F
100
AcDbEntity
  8
0
  6
Continuous
 62
     7
370
    25
100
AcDbSpline
210
0.0
220
0.0
230
1.0
 70
    24
 71
     3
 72
    10
 73
     6
 74
     0
 42
0.000000001
 43
0.00000001
 40
-0.2904940295525288
 40
-0.2904940295525288
 40
-0.2904940295525288
 40
-0.2904940295525288
 40
-0.1303072746364131
 40
-0.1303072746364131
 40
0.0010563617272233
 40
0.0010563617272233
 40
0.0010563617272233
 40
0.0010563617272233
 10
176.4772964303073
 20
167.3493732393501
 30
0.0
 10
176.3477931145537
 20
167.3493732393501
 30
0.0
 10
176.2160021363679
 20
167.3493732393501
 30
0.0
 10
176.0375781969427
 20
167.3493732393501
 30
0.0
 10
175.9772964303073
 20
167.3493732393501
 30
0.0
 10
175.9772964303073
 20
167.3493732393501
 30
0.0
  0
SPLINE
  5
159
330
1F
100
AcDbEntity
  8
0
  6
Continuous
 62
     7
370
    25
100
AcDbSpline
210
0.0
220
0.0
230
1.0
 70
    24
 71
     3
 72
    10
 73
     6
 74
     0
 42
0.000000001
 43
0.00000001
 40
-0.8711658421011628
 40
-0.8711658421011628
 40
-0.8711658421011628
 40
-0.8711658421011628
 40
-0.739802205737527
 40
-0.739802205737527
 40
-0.579615450786466
 40
-0.579615450786466
 40
-0.579615450786466
 40
-0.579615450786466
 10
175.9772964303073
 20
150.3493732393501
 30
0.0
 10
175.9772964303073
 20
150.3493732393501
 30
0.0
 10
176.0375781969427
 20
150.3493732393501
 30
0.0
 10
176.2160021363892
 20
150.3493732393501
 30
0.0
 10
176.3477931145253
 20
150.3493732393501
 30
0.0
 10
176.4772964303073
 20
150.3493732393501
 30
0.0
  0
LINE
  5
15A
330
1F
100
AcDbEntity
  8
0
  6
Continuous
 62
     7
370
    25
100
AcDbLine
 10
177.2272964303
 20
167.6493732394
 30
0.0
 11
177.7272964303
 21
167.6493732394
 31
0.0
  0
LINE
  5
15B
330
1F
100
AcDbEntity
  8
0
  6
Continuous
 62
     7
370
    25
100
AcDbLine
 10
178.0272964303
 20
167.3493732394
 30
0.0
 11
176.9272964303
 21
167.3493732394
 31
0.0
  0
LINE
  5
15C
330
1F
100
AcDbEntity
  8
0
  6
Continuous
 62
     8
370
    25
100
AcDbLine
 10
182.7098678177
 20
158.8493732394
 30
0.0
 11
182.7098678177
 21
148.9743732394
 31
0.0
  0
LINE
  5
15D
330
1F
100
AcDbEntity
  8
0
  6
Continuous
 62
     8
370
    25
100
AcDbLine
 10
182.7098678177
 20
168.7243732394
 30
0.0
 11
182.7098678177
 21
158.8493732394
 31
0.0
  0
LINE
  5
15E
330
1F
100
AcDbEntity
  8
0
  6
Continuous
 62
     8
370
    25
100
AcDbLine
 10
180.4772964303
 20
158.8493732394
 30
0.0
 11
180.4772964303
 21
150.3493732394
 31
0.0
  0
LINE
  5
15F
330
1F
100
AcDbEntity
  8
0
  6
Continuous
 62
     8
370
    25
100
AcDbLine
 10
180.4772964303
 20
167.3493732394
 30
0.0
 11
180.4772964303
 21
158.8493732394
 31
0.0
  0
LINE
  5
160
330
1F
100
AcDbEntity
  8
0
  6
Continuous
 62
     8
370
    25
100
AcDbLine
 10
175.9772964303
 20
166.7590192491
 30
0.0
 11
175.9772964303
 21
166.8493732394
 31
0.0
  0
LINE
  5
161
330
1F
100
AcDbEntity
  8
0
  6
Continuous
 62
     8
370
    25
100
AcDbLine
 10
175.8869424401
 20
166.8493732394
 30
0.0
 11
175.9772964303
 21
166.8493732394
 31
0.0
  0
LINE
  5
162
330
1F
100
AcDbEntity
  8
0
  6
Continuous
 62
     8
370
    25
100
AcDbLine
 10
175.9772964303
 20
150.8493732394
 30
0.0
 11
175.9772964303
 21
150.9397272296
 31
0.0
  0
LINE
  5
163
330
1F
100
AcDbEntity
  8
0
  6
Continuous
 62
     8
370
    25
100
AcDbLine
 10
175.9772964303
 20
150.8493732394
 30
0.0
 11
175.8869424401
 21
150.8493732394
 31
0.0
  0
INSERT
  5
16F
330
1F
100
AcDbEntity
  8
0
  6
Continuous
 62
     7
370
    18
100
AcDbBlockReference
  2
SW_CENTERMARKSYMBOL_1
 10
167.9772964303
 20
158.8493732393
 30
0.0
  0
LINE
  5
170
330
1F
100
AcDbEntity
  8
0
  6
Continuous
 62
     7
370
    18
100
AcDbLine
 10
195.9417723116
 20
149.5015131106
 30
0.0
 11
183.3172964303
 21
149.1069982394
 31
0.0
  0
LINE
  5
171
330
1F
100
AcDbEntity
  8
0
  6
Continuous
 62
     7
370
    18
100
AcDbLine
 10
195.9417723116
 20
168.1972333681
 30
0.0
 11
183.3172964303
 21
168.5917482394
 31
0.0
  0
LINE
  5
172
330
1F
100
AcDbEntity
  8
0
  6
Continuous
 62
     7
370
    18
100
AcDbLine
 10
183.3172964303
 20
169.4987482394
 30
0.0
 11
183.3172964303
 21
148.1999982394
 31
0.0
  0
ARC
  5
173
330
1F
100
AcDbEntity
  8
0
  6
Continuous
 62
     7
370
    18
100
AcDbCircle
 10
167.9772964303
 20
158.8493732393
 30
0.0
 40
8.334121499999995
100
AcDbArc
 50
75.0
 51
345.0
  0
ENDSEC
  0
SECTION
  2
OBJECTS
  0
DICTIONARY
  5
C
330
0
100
AcDbDictionary
281
     1
  3
ACAD_GROUP
350
D
  3
ACAD_LAYOUT
350
1A
  3
ACAD_MLINESTYLE
350
17
  3
ACAD_PLOTSETTINGS
350
19
  3
ACAD_PLOTSTYLENAME
350
E
  3
ACAD_SCALELIST
350
47
  0
DICTIONARY
  5
D
102
{ACAD_REACTORS
330
C
102
}
330
C
100
AcDbDictionary
281
     1
  0
DICTIONARY
  5
1A
102
{ACAD_REACTORS
330
C
102
}
330
C
100
AcDbDictionary
281
     1
  3
Layout1
350
1E
  3
Layout2
350
26
  3
Model
350
22
  0
DICTIONARY
  5
17
102
{ACAD_REACTORS
330
C
102
}
330
C
100
AcDbDictionary
281
     1
  3
Standard
350
18
  0
DICTIONARY
  5
19
102
{ACAD_REACTORS
330
C
102
}
330
C
100
AcDbDictionary
281
     1
  0
ACDBDICTIONARYWDFLT
  5
E
102
{ACAD_REACTORS
330
C
102
}
330
C
100
AcDbDictionary
281
     1
  3
Normal
350
F
100
AcDbDictionaryWithDefault
340
F
  0
DICTIONARY
  5
47
102
{ACAD_REACTORS
330
C
102
}
330
C
100
AcDbDictionary
281
     1
  3
A0
350
48
  3
A1
350
49
  3
A2
350
4A
  3
A3
350
4B
  3
A4
350
4C
  3
A5
350
4D
  3
A6
350
4E
  3
A7
350
4F
  3
A8
350
50
  3
A9
350
51
  3
B0
350
52
  3
B1
350
53
  3
B2
350
54
  3
B3
350
55
  3
B4
350
56
  3
B5
350
57
  3
B6
350
58
  3
B7
350
59
  3
B8
350
5A
  3
B9
350
5B
  3
C0
350
5C
  3
C1
350
5D
  3
C2
350
5E
  3
C3
350
5F
  3
C4
350
60
  3
C5
350
61
  3
C6
350
62
  3
C7
350
63
  3
C8
350
64
  3
C9
350
65
  3
D0
350
66
  3
D1
350
67
  3
D2
350
68
  0
LAYOUT
  5
1E
102
{ACAD_REACTORS
330
1A
102
}
330
1A
100
AcDbPlotSettings
  1

  2
none_device
  4

  6

 40
0.0
 41
0.0
 42
0.0
 43
0.0
 44
0.0
 45
0.0
 46
0.0
 47
0.0
 48
0.0
 49
0.0
140
0.0
141
0.0
142
1.0
143
1.0
 70
   688
 72
     1
 73
     0
 74
     5
  7

 75
    16
147
1.0
148
0.0
149
0.0
100
AcDbLayout
  1
Layout1
 70
     1
 71
     1
 10
0.0
 20
0.0
 11
420.0
 21
297.0
 12
0.0
 22
0.0
 32
0.0
 14
1.0000000000E+20
 24
1.0000000000E+20
 34
1.0000000000E+20
 15
-1.0000000000E+20
 25
-1.0000000000E+20
 35
-1.0000000000E+20
146
0.0
 13
0.0
 23
0.0
 33
0.0
 16
1.0
 26
0.0
 36
0.0
 17
0.0
 27
1.0
 37
0.0
 76
     0
330
1B
  0
LAYOUT
  5
26
102
{ACAD_REACTORS
330
1A
102
}
330
1A
100
AcDbPlotSettings
  1

  2
none_device
  4

  6

 40
0.0
 41
0.0
 42
0.0
 43
0.0
 44
0.0
 45
0.0
 46
0.0
 47
0.0
 48
0.0
 49
0.0
140
0.0
141
0.0
142
1.0
143
1.0
 70
   688
 72
     1
 73
     0
 74
     5
  7

 75
    16
147
1.0
148
0.0
149
0.0
100
AcDbLayout
  1
Layout2
 70
     1
 71
     2
 10
0.0
 20
0.0
 11
0.0
 21
0.0
 12
0.0
 22
0.0
 32
0.0
 14
0.0
 24
0.0
 34
0.0
 15
0.0
 25
0.0
 35
0.0
146
0.0
 13
0.0
 23
0.0
 33
0.0
 16
1.0
 26
0.0
 36
0.0
 17
0.0
 27
1.0
 37
0.0
 76
     0
330
23
  0
LAYOUT
  5
22
102
{ACAD_REACTORS
330
1A
102
}
330
1A
100
AcDbPlotSettings
  1

  2
none_device
  4
Letter_(8.50_x_11.00_Inches)
  6

 40
6.35
 41
6.35
 42
6.35000508
 43
6.35000508
 44
215.9
 45
279.4
 46
0.0
 47
0.0
 48
0.0
 49
0.0
140
0.0
141
0.0
142
1.0
143
1.0
 70
  1712
 72
     1
 73
     0
 74
     0
  7

 75
     0
147
1.0
148
0.0
149
0.0
100
AcDbLayout
  1
Model
 70
     1
 71
     0
 10
0.0
 20
0.0
 11
431.8
 21
279.4
 12
0.0
 22
0.0
 32
0.0
 14
0.0
 24
0.0
 34
0.0
 15
431.8
 25
279.4
 35
0.0
146
0.0
 13
0.0
 23
0.0
 33
0.0
 16
1.0
 26
0.0
 36
0.0
 17
0.0
 27
1.0
 37
0.0
 76
     0
330
1F
331
29
  0
MLINESTYLE
  5
18
102
{ACAD_REACTORS
330
17
102
}
330
17
100
AcDbMlineStyle
  2
Standard
 70
     0
  3

 62
   256
 51
90.0
 52
90.0
 71
     2
 49
0.5
 62
   256
  6
BYLAYER
 49
-0.5
 62
   256
  6
BYLAYER
  0
ACDBPLACEHOLDER
  5
F
102
{ACAD_REACTORS
330
E
102
}
330
E
  0
SCALE
  5
48
102
{ACAD_REACTORS
330
47
102
}
330
47
100
AcDbScale
 70
     0
300
1:1
140
1.0
141
1.0
290
     1
  0
SCALE
  5
49
102
{ACAD_REACTORS
330
47
102
}
330
47
100
AcDbScale
 70
     0
300
1:2
140
1.0
141
2.0
290
     0
  0
SCALE
  5
4A
102
{ACAD_REACTORS
330
47
102
}
330
47
100
AcDbScale
 70
     0
300
1:4
140
1.0
141
4.0
290
     0
  0
SCALE
  5
4B
102
{ACAD_REACTORS
330
47
102
}
330
47
100
AcDbScale
 70
     0
300
1:5
140
1.0
141
5.0
290
     0
  0
SCALE
  5
4C
102
{ACAD_REACTORS
330
47
102
}
330
47
100
AcDbScale
 70
     0
300
1:8
140
1.0
141
8.0
290
     0
  0
SCALE
  5
4D
102
{ACAD_REACTORS
330
47
102
}
330
47
100
AcDbScale
 70
     0
300
1:10
140
1.0
141
10.0
290
     0
  0
SCALE
  5
4E
102
{ACAD_REACTORS
330
47
102
}
330
47
100
AcDbScale
 70
     0
300
1:16
140
1.0
141
16.0
290
     0
  0
SCALE
  5
4F
102
{ACAD_REACTORS
330
47
102
}
330
47
100
AcDbScale
 70
     0
300
1:20
140
1.0
141
20.0
290
     0
  0
SCALE
  5
50
102
{ACAD_REACTORS
330
47
102
}
330
47
100
AcDbScale
 70
     0
300
1:30
140
1.0
141
30.0
290
     0
  0
SCALE
  5
51
102
{ACAD_REACTORS
330
47
102
}
330
47
100
AcDbScale
 70
     0
300
1:40
140
1.0
141
40.0
290
     0
  0
SCALE
  5
52
102
{ACAD_REACTORS
330
47
102
}
330
47
100
AcDbScale
 70
     0
300
1:50
140
1.0
141
50.0
290
     0
  0
SCALE
  5
53
102
{ACAD_REACTORS
330
47
102
}
330
47
100
AcDbScale
 70
     0
300
1:100
140
1.0
141
100.0
290
     0
  0
SCALE
  5
54
102
{ACAD_REACTORS
330
47
102
}
330
47
100
AcDbScale
 70
     0
300
2:1
140
2.0
141
1.0
290
     0
  0
SCALE
  5
55
102
{ACAD_REACTORS
330
47
102
}
330
47
100
AcDbScale
 70
     0
300
4:1
140
4.0
141
1.0
290
     0
  0
SCALE
  5
56
102
{ACAD_REACTORS
330
47
102
}
330
47
100
AcDbScale
 70
     0
300
8:1
140
8.0
141
1.0
290
     0
  0
SCALE
  5
57
102
{ACAD_REACTORS
330
47
102
}
330
47
100
AcDbScale
 70
     0
300
10:1
140
10.0
141
1.0
290
     0
  0
SCALE
  5
58
102
{ACAD_REACTORS
330
47
102
}
330
47
100
AcDbScale
 70
     0
300
100:1
140
100.0
141
1.0
290
     0
  0
SCALE
  5
59
102
{ACAD_REACTORS
330
47
102
}
330
47
100
AcDbScale
 70
     0
300
1/128" = 1'-0"
140
0.0078125
141
12.0
290
     0
  0
SCALE
  5
5A
102
{ACAD_REACTORS
330
47
102
}
330
47
100
AcDbScale
 70
     0
300
1/64" = 1'-0"
140
0.015625
141
12.0
290
     0
  0
SCALE
  5
5B
102
{ACAD_REACTORS
330
47
102
}
330
47
100
AcDbScale
 70
     0
300
1/32" = 1'-0"
140
0.03125
141
12.0
290
     0
  0
SCALE
  5
5C
102
{ACAD_REACTORS
330
47
102
}
330
47
100
AcDbScale
 70
     0
300
1/16" = 1'-0"
140
0.0625
141
12.0
290
     0
  0
SCALE
  5
5D
102
{ACAD_REACTORS
330
47
102
}
330
47
100
AcDbScale
 70
     0
300
3/32" = 1'-0"
140
0.09375
141
12.0
290
     0
  0
SCALE
  5
5E
102
{ACAD_REACTORS
330
47
102
}
330
47
100
AcDbScale
 70
     0
300
1/8" = 1'-0"
140
0.125
141
12.0
290
     0
  0
SCALE
  5
5F
102
{ACAD_REACTORS
330
47
102
}
330
47
100
AcDbScale
 70
     0
300
3/16" = 1'-0"
140
0.1875
141
12.0
290
     0
  0
SCALE
  5
60
102
{ACAD_REACTORS
330
47
102
}
330
47
100
AcDbScale
 70
     0
300
1/4" = 1'-0"
140
0.25
141
12.0
290
     0
  0
SCALE
  5
61
102
{ACAD_REACTORS
330
47
102
}
330
47
100
AcDbScale
 70
     0
300
3/8" = 1'-0"
140
0.375
141
12.0
290
     0
  0
SCALE
  5
62
102
{ACAD_REACTORS
330
47
102
}
330
47
100
AcDbScale
 70
     0
300
1/2" = 1'-0"
140
0.5
141
12.0
290
     0
  0
SCALE
  5
63
102
{ACAD_REACTORS
330
47
102
}
330
47
100
AcDbScale
 70
     0
300
3/4" = 1'-0"
140
0.75
141
12.0
290
     0
  0
SCALE
  5
64
102
{ACAD_REACTORS
330
47
102
}
330
47
100
AcDbScale
 70
     0
300
1" = 1'-0"
140
1.0
141
12.0
290
     0
  0
SCALE
  5
65
102
{ACAD_REACTORS
330
47
102
}
330
47
100
AcDbScale
 70
     0
300
1-1/2" = 1'-0"
140
1.5
141
12.0
290
     0
  0
SCALE
  5
66
102
{ACAD_REACTORS
330
47
102
}
330
47
100
AcDbScale
 70
     0
300
3" = 1'-0"
140
3.0
141
12.0
290
     0
  0
SCALE
  5
67
102
{ACAD_REACTORS
330
47
102
}
330
47
100
AcDbScale
 70
     0
300
6" = 1'-0"
140
6.0
141
12.0
290
     0
  0
SCALE
  5
68
102
{ACAD_REACTORS
330
47
102
}
330
47
100
AcDbScale
 70
     0
300
1'-0" = 1'-0"
140
12.0
141
12.0
290
     0
  0
ENDSEC
  0
EOF
