  0
SECTION
  2
HEADER
  9
$ACADVER
  1
AC1015
  9
$ACADMAINTVER
 70
     6
  9
$DWGCODEPAGE
  3
DOS932
  9
$INSBASE
 10
0.0
 20
0.0
 30
0.0
  9
$EXTMIN
 10
0.0
 20
0.0
 30
0.0
  9
$EXTMAX
 10
431.8
 20
279.4
 30
0.0
  9
$LIMMIN
 10
0.0
 20
0.0
  9
$LIMMAX
 10
431.8
 20
279.4
  9
$ORTHOMODE
 70
     0
  9
$REGENMODE
 70
     1
  9
$FILLMODE
 70
     1
  9
$QTEXTMODE
 70
     0
  9
$MIRRTEXT
 70
     1
  9
$LTSCALE
 40
1.0
  9
$ATTMODE
 70
     1
  9
$TEXTSIZE
 40
3.5
  9
$TRACEWID
 40
1.0
  9
$TEXTSTYLE
  7
Standard
  9
$CLAYER
  8
0
  9
$CELTYPE
  6
ByLayer
  9
$CECOLOR
 62
   256
  9
$CELTSCALE
 40
1.0
  9
$DISPSILH
 70
     0
  9
$DIMSCALE
 40
1.0
  9
$DIMASZ
 40
3.302
  9
$DIMEXO
 40
1.0
  9
$DIMDLI
 40
3.75
  9
$DIMRND
 40
0.0
  9
$DIMDLE
 40
0.0
  9
$DIMEXE
 40
1.0
  9
$DIMTP
 40
0.0
  9
$DIMTM
 40
0.0
  9
$DIMTXT
 40
3.5
  9
$DIMCEN
 40
2.5
  9
$DIMTSZ
 40
0.0
  9
$DIMTOL
 70
     0
  9
$DIMLIM
 70
     0
  9
$DIMTIH
 70
     1
  9
$DIMTOH
 70
     1
  9
$DIMSE1
 70
     0
  9
$DIMSE2
 70
     0
  9
$DIMTAD
 70
     1
  9
$DIMZIN
 70
     1
  9
$DIMBLK
  1

  9
$DIMASO
 70
     1
  9
$DIMSHO
 70
     1
  9
$DIMPOST
  1

  9
$DIMAPOST
  1

  9
$DIMALT
 70
     0
  9
$DIMALTD
 70
     3
  9
$DIMALTF
 40
0.0393700787
  9
$DIMLFAC
 40
1.0
  9
$DIMTOFL
 70
     1
  9
$DIMTVP
 40
0.0
  9
$DIMTIX
 70
     0
  9
$DIMSOXD
 70
     0
  9
$DIMSAH
 70
     0
  9
$DIMBLK1
  1

  9
$DIMBLK2
  1

  9
$DIMSTYLE
  2
ISO-25
  9
$DIMCLRD
 70
     0
  9
$DIMCLRE
 70
     0
  9
$DIMCLRT
 70
     0
  9
$DIMTFAC
 40
1.0
  9
$DIMGAP
 40
1.524
  9
$DIMJUST
 70
     0
  9
$DIMSD1
 70
     0
  9
$DIMSD2
 70
     0
  9
$DIMTOLJ
 70
     0
  9
$DIMTZIN
 70
     1
  9
$DIMALTZ
 70
     0
  9
$DIMALTTZ
 70
     0
  9
$DIMUPT
 70
     0
  9
$DIMDEC
 70
     2
  9
$DIMTDEC
 70
     2
  9
$DIMALTU
 70
     2
  9
$DIMALTTD
 70
     3
  9
$DIMTXSTY
  7
Standard
  9
$DIMAUNIT
 70
     0
  9
$DIMADEC
 70
     2
  9
$DIMALTRND
 40
0.0
  9
$DIMAZIN
 70
     0
  9
$DIMDSEP
 70
    44
  9
$DIMATFIT
 70
     3
  9
$DIMFRAC
 70
     0
  9
$DIMLDRBLK
  1

  9
$DIMLUNIT
 70
     2
  9
$DIMLWD
 70
    -2
  9
$DIMLWE
 70
    -2
  9
$DIMTMOVE
 70
     0
  9
$LUNITS
 70
     2
  9
$LUPREC
 70
     2
  9
$SKETCHINC
 40
1.0
  9
$FILLETRAD
 40
10.0
  9
$AUNITS
 70
     0
  9
$AUPREC
 70
     2
  9
$MENU
  1
.
  9
$ELEVATION
 40
0.0
  9
$PELEVATION
 40
0.0
  9
$THICKNESS
 40
0.0
  9
$LIMCHECK
 70
     0
  9
$CHAMFERA
 40
0.0
  9
$CHAMFERB
 40
0.0
  9
$CHAMFERC
 40
0.0
  9
$CHAMFERD
 40
0.0
  9
$SKPOLY
 70
     0
  9
$TDCREATE
 40
2459235.592851829
  9
$TDUCREATE
 40
2459235.217851829
  9
$TDUPDATE
 40
2459235.592852292
  9
$TDUUPDATE
 40
2459235.217852292
  9
$TDINDWG
 40
0.0000000116
  9
$TDUSRTIMER
 40
0.0000000116
  9
$USRTIMER
 70
     1
  9
$ANGBASE
 50
0.0
  9
$ANGDIR
 70
     0
  9
$PDMODE
 70
     0
  9
$PDSIZE
 40
-1.0
  9
$PLINEWID
 40
0.0
  9
$SPLFRAME
 70
     0
  9
$SPLINETYPE
 70
     6
  9
$SPLINESEGS
 70
     8
  9
$HANDSEED
  5
1EC
  9
$SURFTAB1
 70
     6
  9
$SURFTAB2
 70
     6
  9
$SURFTYPE
 70
     6
  9
$SURFU
 70
     6
  9
$SURFV
 70
     6
  9
$UCSBASE
  2

  9
$UCSNAME
  2

  9
$UCSORG
 10
0.0
 20
0.0
 30
0.0
  9
$UCSXDIR
 10
1.0
 20
0.0
 30
0.0
  9
$UCSYDIR
 10
0.0
 20
1.0
 30
0.0
  9
$UCSORTHOREF
  2

  9
$UCSORTHOVIEW
 70
     0
  9
$UCSORGTOP
 10
0.0
 20
0.0
 30
0.0
  9
$UCSORGBOTTOM
 10
0.0
 20
0.0
 30
0.0
  9
$UCSORGLEFT
 10
0.0
 20
0.0
 30
0.0
  9
$UCSORGRIGHT
 10
0.0
 20
0.0
 30
0.0
  9
$UCSORGFRONT
 10
0.0
 20
0.0
 30
0.0
  9
$UCSORGBACK
 10
0.0
 20
0.0
 30
0.0
  9
$PUCSBASE
  2

  9
$PUCSNAME
  2

  9
$PUCSORG
 10
0.0
 20
0.0
 30
0.0
  9
$PUCSXDIR
 10
1.0
 20
0.0
 30
0.0
  9
$PUCSYDIR
 10
0.0
 20
1.0
 30
0.0
  9
$PUCSORTHOREF
  2

  9
$PUCSORTHOVIEW
 70
     0
  9
$PUCSORGTOP
 10
0.0
 20
0.0
 30
0.0
  9
$PUCSORGBOTTOM
 10
0.0
 20
0.0
 30
0.0
  9
$PUCSORGLEFT
 10
0.0
 20
0.0
 30
0.0
  9
$PUCSORGRIGHT
 10
0.0
 20
0.0
 30
0.0
  9
$PUCSORGFRONT
 10
0.0
 20
0.0
 30
0.0
  9
$PUCSORGBACK
 10
0.0
 20
0.0
 30
0.0
  9
$USERI1
 70
     0
  9
$USERI2
 70
     0
  9
$USERI3
 70
     0
  9
$USERI4
 70
     0
  9
$USERI5
 70
     0
  9
$USERR1
 40
0.0
  9
$USERR2
 40
0.0
  9
$USERR3
 40
0.0
  9
$USERR4
 40
0.0
  9
$USERR5
 40
0.0
  9
$WORLDVIEW
 70
     1
  9
$SHADEDGE
 70
     3
  9
$SHADEDIF
 70
    70
  9
$TILEMODE
 70
     1
  9
$MAXACTVP
 70
    64
  9
$PINSBASE
 10
0.0
 20
0.0
 30
0.0
  9
$PLIMCHECK
 70
     0
  9
$PEXTMIN
 10
1.0000000000E+20
 20
1.0000000000E+20
 30
1.0000000000E+20
  9
$PEXTMAX
 10
-1.0000000000E+20
 20
-1.0000000000E+20
 30
-1.0000000000E+20
  9
$PLIMMIN
 10
0.0
 20
0.0
  9
$PLIMMAX
 10
420.0
 20
297.0
  9
$UNITMODE
 70
     0
  9
$VISRETAIN
 70
     1
  9
$PLINEGEN
 70
     0
  9
$PSLTSCALE
 70
     1
  9
$TREEDEPTH
 70
  3020
  9
$CMLSTYLE
  2
Standard
  9
$CMLJUST
 70
     0
  9
$CMLSCALE
 40
20.0
  9
$PROXYGRAPHICS
 70
     1
  9
$MEASUREMENT
 70
     1
  9
$CELWEIGHT
370
    -1
  9
$ENDCAPS
280
     0
  9
$JOINSTYLE
280
     0
  9
$LWDISPLAY
290
     1
  9
$INSUNITS
 70
     4
  9
$HYPERLINKBASE
  1

  9
$STYLESHEET
  1

  9
$XEDIT
290
     1
  9
$CEPSNTYPE
380
     0
  9
$PSTYLEMODE
290
     1
  9
$FINGERPRINTGUID
  2
{68DFB428-F28E-469A-919C-28E7C1895682}
  9
$VERSIONGUID
  2
{FAEB1C32-E019-11D5-929B-00C0DF256EC4}
  9
$EXTNAMES
290
     1
  9
$PSVPSCALE
 40
0.0
  9
$OLESTARTUP
290
     0
  0
ENDSEC
  0
SECTION
  2
CLASSES
  0
CLASS
  1
ACDBDICTIONARYWDFLT
  2
AcDbDictionaryWithDefault
  3
ObjectDBX Classes
 90
        0
280
     0
281
     0
  0
CLASS
  1
VISUALSTYLE
  2
AcDbVisualStyle
  3
ObjectDBX Classes
 90
     4095
280
     0
281
     0
  0
CLASS
  1
MATERIAL
  2
AcDbMaterial
  3
ObjectDBX Classes
 90
     1153
280
     0
281
     0
  0
CLASS
  1
SCALE
  2
AcDbScale
  3
ObjectDBX Classes
 90
     1153
280
     0
281
     0
  0
CLASS
  1
TABLESTYLE
  2
AcDbTableStyle
  3
ObjectDBX Classes
 90
     4095
280
     0
281
     0
  0
CLASS
  1
MLEADERSTYLE
  2
AcDbMLeaderStyle
  3
ACDB_MLEADERSTYLE_CLASS
 90
     4095
280
     0
281
     0
  0
CLASS
  1
SUN
  2
AcDbSun
  3
SCENEOE
 90
     1153
280
     0
281
     0
  0
CLASS
  1
ACDBPLACEHOLDER
  2
AcDbPlaceHolder
  3
ObjectDBX Classes
 90
        0
280
     0
281
     0
  0
CLASS
  1
LAYOUT
  2
AcDbLayout
  3
ObjectDBX Classes
 90
        0
280
     0
281
     0
  0
ENDSEC
  0
SECTION
  2
TABLES
  0
TABLE
  2
VPORT
  5
8
330
0
100
AcDbSymbolTable
 70
     1
  0
VPORT
  5
29
330
8
100
AcDbSymbolTableRecord
100
AcDbViewportTableRecord
  2
*Active
 70
     0
 10
0.0
 20
0.0
 11
1.0
 21
1.0
 12
215.9
 22
139.7
 13
0.0
 23
0.0
 14
10.0
 24
10.0
 15
10.0
 25
10.0
 16
0.0
 26
0.0
 36
1.0
 17
0.0
 27
0.0
 37
0.0
 40
279.4
 41
1.5454545455
 42
50.0
 43
0.0
 44
0.0
 50
0.0
 51
0.0
 71
     0
 72
  2000
 73
     1
 74
     3
 75
     0
 76
     0
 77
     0
 78
     0
281
     0
 65
     1
110
0.0
120
0.0
130
0.0
111
1.0
121
0.0
131
0.0
112
0.0
122
1.0
132
0.0
 79
     0
146
0.0
  0
ENDTAB
  0
TABLE
  2
LTYPE
  5
5
330
0
100
AcDbSymbolTable
 70
     6
  0
LTYPE
  5
14
330
5
100
AcDbSymbolTableRecord
100
AcDbLinetypeTableRecord
  2
ByBlock
 70
     0
  3

 72
    65
 73
     0
 40
0.0
  0
LTYPE
  5
15
330
5
100
AcDbSymbolTableRecord
100
AcDbLinetypeTableRecord
  2
ByLayer
 70
     0
  3

 72
    65
 73
     0
 40
0.0
  0
LTYPE
  5
16
330
5
100
AcDbSymbolTableRecord
100
AcDbLinetypeTableRecord
  2
Continuous
 70
     0
  3
Solid line
 72
    65
 73
     0
 40
0.0
  0
LTYPE
  5
6E
330
5
100
AcDbSymbolTableRecord
100
AcDbLinetypeTableRecord
  2
HIDDEN
 70
     0
  3
Hidden __ __ __ __ __ __ __ __ __ __ __ __ __ __
 72
    65
 73
     2
 40
1.905
 49
1.27
 74
     0
 49
-0.635
 74
     0
  0
LTYPE
  5
6F
330
5
100
AcDbSymbolTableRecord
100
AcDbLinetypeTableRecord
  2
PHANTOM
 70
     0
  3
Phantom ______  __  __  ______  __  __  ______
 72
    65
 73
     6
 40
12.7
 49
6.35
 74
     0
 49
-1.27
 74
     0
 49
1.27
 74
     0
 49
-1.27
 74
     0
 49
1.27
 74
     0
 49
-1.27
 74
     0
  0
LTYPE
  5
70
330
5
100
AcDbSymbolTableRecord
100
AcDbLinetypeTableRecord
  2
CENTER
 70
     0
  3
Center ____ _ ____ _ ____ _ ____ _ ____ _ ____
 72
    65
 73
     4
 40
10.16
 49
6.35
 74
     0
 49
-1.27
 74
     0
 49
1.27
 74
     0
 49
-1.27
 74
     0
  0
LTYPE
  5
71
330
5
100
AcDbSymbolTableRecord
100
AcDbLinetypeTableRecord
  2
CENTERX2
 70
     0
  3
Center (2x) ________  __  ________  __  _____
 72
    65
 73
     4
 40
20.32
 49
12.7
 74
     0
 49
-2.54
 74
     0
 49
2.54
 74
     0
 49
-2.54
 74
     0
  0
LTYPE
  5
72
330
5
100
AcDbSymbolTableRecord
100
AcDbLinetypeTableRecord
  2
DOT2
 70
     0
  3
Dot (.5x) ........................................
 72
    65
 73
     2
 40
0.635
 49
0.0
 74
     0
 49
-0.635
 74
     0
  0
ENDTAB
  0
TABLE
  2
LAYER
  5
2
330
0
100
AcDbSymbolTable
 70
     1
  0
LAYER
  5
10
330
2
100
AcDbSymbolTableRecord
100
AcDbLayerTableRecord
  2
0
 70
     0
 62
     7
  6
Continuous
370
    -3
390
F
  0
ENDTAB
  0
TABLE
  2
STYLE
  5
3
330
0
100
AcDbSymbolTable
 70
     2
  0
STYLE
  5
11
330
3
100
AcDbSymbolTableRecord
100
AcDbTextStyleTableRecord
  2
Standard
 70
     0
 40
0.0
 41
1.0
 50
0.0
 71
     0
 42
3.5
  3
txt
  4
bigfont
  0
STYLE
  5
73
330
3
100
AcDbSymbolTableRecord
100
AcDbTextStyleTableRecord
  2
SLDTEXTSTYLE0
 70
     0
 40
0.0
 41
0.7
 50
0.0
 71
     0
 42
3.5
  3
TXT
  4
bigfont
  0
ENDTAB
  0
TABLE
  2
VIEW
  5
6
330
0
100
AcDbSymbolTable
 70
     0
  0
ENDTAB
  0
TABLE
  2
UCS
  5
7
330
0
100
AcDbSymbolTable
 70
     0
  0
ENDTAB
  0
TABLE
  2
APPID
  5
9
330
0
100
AcDbSymbolTable
 70
     1
  0
APPID
  5
12
330
9
100
AcDbSymbolTableRecord
100
AcDbRegAppTableRecord
  2
ACAD
 70
     0
  0
ENDTAB
  0
TABLE
  2
DIMSTYLE
  5
A
330
0
100
AcDbSymbolTable
 70
     1
100
AcDbDimStyleTable
  0
DIMSTYLE
105
27
330
A
100
AcDbSymbolTableRecord
100
AcDbDimStyleTableRecord
  2
ISO-25
 70
     0
 41
2.5
 42
0.625
 43
3.75
 44
1.25
 73
     0
 74
     0
 77
     1
 78
     8
140
2.5
141
2.5
143
0.0393700787
147
0.625
171
     3
172
     1
178
     0
271
     2
272
     2
274
     3
278
    44
283
     0
284
     8
340
11
  0
ENDTAB
  0
TABLE
  2
BLOCK_RECORD
  5
1
330
0
100
AcDbSymbolTable
 70
     3
  0
BLOCK_RECORD
  5
1F
330
1
100
AcDbSymbolTableRecord
100
AcDbBlockTableRecord
  2
*Model_Space
340
22
  0
BLOCK_RECORD
  5
1B
330
1
100
AcDbSymbolTableRecord
100
AcDbBlockTableRecord
  2
*Paper_Space
340
1E
  0
BLOCK_RECORD
  5
23
330
1
100
AcDbSymbolTableRecord
100
AcDbBlockTableRecord
  2
*Paper_Space0
340
26
  0
BLOCK_RECORD
  5
182
330
1
100
AcDbSymbolTableRecord
100
AcDbBlockTableRecord
  2
SW_CENTERMARKSYMBOL_0
340
0
102
{BLKREFS
331
18D
102
}
  0
BLOCK_RECORD
  5
1DC
330
1
100
AcDbSymbolTableRecord
100
AcDbBlockTableRecord
  2
SW_CENTERMARKSYMBOL_1
340
0
102
{BLKREFS
331
1E7
102
}
  0
ENDTAB
  0
ENDSEC
  0
SECTION
  2
BLOCKS
  0
BLOCK
  5
20
330
1F
100
AcDbEntity
  8
0
100
AcDbBlockBegin
  2
*Model_Space
 70
     0
 10
0.0
 20
0.0
 30
0.0
  3
*Model_Space
  1

  0
ENDBLK
  5
21
330
1F
100
AcDbEntity
  8
0
100
AcDbBlockEnd
  0
BLOCK
  5
1C
330
1B
100
AcDbEntity
 67
     1
  8
0
100
AcDbBlockBegin
  2
*Paper_Space
 70
     0
 10
0.0
 20
0.0
 30
0.0
  3
*Paper_Space
  1

  0
ENDBLK
  5
1D
330
1B
100
AcDbEntity
 67
     1
  8
0
100
AcDbBlockEnd
  0
BLOCK
  5
24
330
23
100
AcDbEntity
  8
0
100
AcDbBlockBegin
  2
*Paper_Space0
 70
     0
 10
0.0
 20
0.0
 30
0.0
  3
*Paper_Space0
  1

  0
ENDBLK
  5
25
330
23
100
AcDbEntity
  8
0
100
AcDbBlockEnd
  0
BLOCK
  5
183
330
182
100
AcDbEntity
  8
0
100
AcDbBlockBegin
  2
SW_CENTERMARKSYMBOL_0
 70
     0
 10
0.0
 20
0.0
 30
0.0
  3
SW_CENTERMARKSYMBOL_0
  1

  0
LINE
  5
185
330
182
100
AcDbEntity
  8
0
  6
Continuous
 62
     0
370
    18
100
AcDbLine
 10
0.0
 20
0.0
 30
0.0
 11
0.0
 21
2.5
 31
0.0
  0
LINE
  5
186
330
182
100
AcDbEntity
  8
0
  6
Continuous
 62
     0
370
    18
100
AcDbLine
 10
0.0
 20
0.0
 30
0.0
 11
-2.5
 21
0.0
 31
0.0
  0
LINE
  5
187
330
182
100
AcDbEntity
  8
0
  6
Continuous
 62
     0
370
    18
100
AcDbLine
 10
0.0
 20
0.0
 30
0.0
 11
0.0
 21
-2.5
 31
0.0
  0
LINE
  5
188
330
182
100
AcDbEntity
  8
0
  6
Continuous
 62
     0
370
    18
100
AcDbLine
 10
0.0
 20
0.0
 30
0.0
 11
2.5
 21
0.0
 31
0.0
  0
LINE
  5
189
330
182
100
AcDbEntity
  8
0
  6
Continuous
 62
     0
370
    18
100
AcDbLine
 10
0.0
 20
5.0
 30
0.0
 11
0.0
 21
36.982978369
 31
0.0
  0
LINE
  5
18A
330
182
100
AcDbEntity
  8
0
  6
Continuous
 62
     0
370
    18
100
AcDbLine
 10
-5.0
 20
0.0
 30
0.0
 11
-14.3949804004
 21
0.0
 31
0.0
  0
LINE
  5
18B
330
182
100
AcDbEntity
  8
0
  6
Continuous
 62
     0
370
    18
100
AcDbLine
 10
0.0
 20
-5.0
 30
0.0
 11
0.0
 21
-15.1754571078
 31
0.0
  0
LINE
  5
18C
330
182
100
AcDbEntity
  8
0
  6
Continuous
 62
     0
370
    18
100
AcDbLine
 10
5.0
 20
0.0
 30
0.0
 11
13.8341370082
 21
0.0
 31
0.0
  0
ENDBLK
  5
184
330
182
100
AcDbEntity
  8
0
100
AcDbBlockEnd
  0
BLOCK
  5
1DD
330
1DC
100
AcDbEntity
  8
0
100
AcDbBlockBegin
  2
SW_CENTERMARKSYMBOL_1
 70
     0
 10
0.0
 20
0.0
 30
0.0
  3
SW_CENTERMARKSYMBOL_1
  1

  0
LINE
  5
1DF
330
1DC
100
AcDbEntity
  8
0
  6
Continuous
 62
     0
370
    18
100
AcDbLine
 10
0.0
 20
0.0
 30
0.0
 11
0.0
 21
2.5
 31
0.0
  0
LINE
  5
1E0
330
1DC
100
AcDbEntity
  8
0
  6
Continuous
 62
     0
370
    18
100
AcDbLine
 10
0.0
 20
0.0
 30
0.0
 11
-2.5
 21
0.0
 31
0.0
  0
LINE
  5
1E1
330
1DC
100
AcDbEntity
  8
0
  6
Continuous
 62
     0
370
    18
100
AcDbLine
 10
0.0
 20
0.0
 30
0.0
 11
0.0
 21
-2.5
 31
0.0
  0
LINE
  5
1E2
330
1DC
100
AcDbEntity
  8
0
  6
Continuous
 62
     0
370
    18
100
AcDbLine
 10
0.0
 20
0.0
 30
0.0
 11
2.5
 21
0.0
 31
0.0
  0
LINE
  5
1E3
330
1DC
100
AcDbEntity
  8
0
  6
Continuous
 62
     0
370
    18
100
AcDbLine
 10
0.0
 20
5.0
 30
0.0
 11
0.0
 21
16.5
 31
0.0
  0
LINE
  5
1E4
330
1DC
100
AcDbEntity
  8
0
  6
Continuous
 62
     0
370
    18
100
AcDbLine
 10
-5.0
 20
0.0
 30
0.0
 11
-16.5
 21
0.0
 31
0.0
  0
LINE
  5
1E5
330
1DC
100
AcDbEntity
  8
0
  6
Continuous
 62
     0
370
    18
100
AcDbLine
 10
0.0
 20
-5.0
 30
0.0
 11
0.0
 21
-16.5
 31
0.0
  0
LINE
  5
1E6
330
1DC
100
AcDbEntity
  8
0
  6
Continuous
 62
     0
370
    18
100
AcDbLine
 10
5.0
 20
0.0
 30
0.0
 11
36.7335350293
 21
0.0
 31
0.0
  0
ENDBLK
  5
1DE
330
1DC
100
AcDbEntity
  8
0
100
AcDbBlockEnd
  0
ENDSEC
  0
SECTION
  2
ENTITIES
  0
MTEXT
  5
74
330
1F
100
AcDbEntity
  8
0
  6
Continuous
 62
     7
370
     0
100
AcDbMText
 10
188.9765810974
 20
138.4379079984
 30
0.0
 40
4.7625
 41
0.0
 71
     1
 72
     1
  1
5R-LK1034
  7
SLDTEXTSTYLE0
 73
     1
 44
1.0
  0
LINE
  5
75
330
1F
100
AcDbEntity
  8
0
  6
Continuous
 62
     7
370
    25
100
AcDbLine
 10
176.0169722846
 20
124.6752789191
 30
0.0
 11
175.0169722846
 21
125.6752789191
 31
0.0
  0
LINE
  5
76
330
1F
100
AcDbEntity
  8
0
  6
Continuous
 62
     7
370
    25
100
AcDbLine
 10
149.0169722846
 20
125.6752789191
 30
0.0
 11
148.0169722846
 21
124.6752789191
 31
0.0
  0
ARC
  5
77
330
1F
100
AcDbEntity
  8
0
  6
Continuous
 62
     7
370
    25
100
AcDbCircle
 10
149.0169722846
 20
110.6752789191
 30
0.0
 40
1.0
100
AcDbArc
 50
180.0
 51
255.5224878141
  0
ARC
  5
78
330
1F
100
AcDbEntity
  8
0
  6
Continuous
 62
     7
370
    25
100
AcDbCircle
 10
175.0169722846
 20
110.6752789191
 30
0.0
 40
1.000000000000028
100
AcDbArc
 50
284.4775121859
 51
0.0
  0
LINE
  5
79
330
1F
100
AcDbEntity
  8
0
  6
Continuous
 62
     7
370
    25
100
AcDbLine
 10
176.0169722846
 20
110.6752789191
 30
0.0
 11
176.0169722846
 21
124.6752789191
 31
0.0
  0
LINE
  5
7A
330
1F
100
AcDbEntity
  8
0
  6
Continuous
 62
     7
370
    25
100
AcDbLine
 10
148.0169722846
 20
124.6752789191
 30
0.0
 11
148.0169722846
 21
110.6752789191
 31
0.0
  0
ARC
  5
7B
330
1F
100
AcDbEntity
  8
0
  6
Continuous
 62
     7
370
    25
100
AcDbCircle
 10
148.0169722846
 20
106.8022955729
 30
0.0
 40
3.000000000000012
100
AcDbArc
 50
0.0
 51
75.5224878141
  0
ARC
  5
7C
330
1F
100
AcDbEntity
  8
0
  6
Continuous
 62
     7
370
    25
100
AcDbCircle
 10
176.0169722846
 20
106.8022955729
 30
0.0
 40
3.000000000000028
100
AcDbArc
 50
104.4775121859
 51
180.0
  0
ARC
  5
7D
330
1F
100
AcDbEntity
  8
0
  6
Continuous
 62
     7
370
    25
100
AcDbCircle
 10
177.1439889384
 20
77.6752789191
 30
0.0
 40
3.000000000000008
100
AcDbArc
 50
66.0763644823
 51
90.0
  0
ARC
  5
7E
330
1F
100
AcDbEntity
  8
0
  6
Continuous
 62
     7
370
    25
100
AcDbCircle
 10
177.1439889384
 20
105.6752789191
 30
0.0
 40
3.000000000000008
100
AcDbArc
 50
270.0
 51
293.9236355177
  0
LINE
  5
7F
330
1F
100
AcDbEntity
  8
0
  6
Continuous
 62
     7
370
    25
100
AcDbLine
 10
178.3605450328
 20
80.4175391674
 30
0.0
 11
181.0169722846
 21
83.0739664191
 31
0.0
  0
LINE
  5
80
330
1F
100
AcDbEntity
  8
0
  6
Continuous
 62
     7
370
    25
100
AcDbLine
 10
181.0169722846
 20
100.2765914191
 30
0.0
 11
178.3605450328
 21
102.9330186709
 31
0.0
  0
LINE
  5
81
330
1F
100
AcDbEntity
  8
0
  6
Continuous
 62
     7
370
    25
100
AcDbLine
 10
173.0169722846
 20
103.6752789191
 30
0.0
 11
173.0169722846
 21
106.8022955729
 31
0.0
  0
LINE
  5
82
330
1F
100
AcDbEntity
  8
0
  6
Continuous
 62
     7
370
    25
100
AcDbLine
 10
151.0169722846
 20
106.8022955729
 30
0.0
 11
151.0169722846
 21
84.6705170098
 31
0.0
  0
LINE
  5
83
330
1F
100
AcDbEntity
  8
0
  6
Continuous
 62
     7
370
    25
100
AcDbLine
 10
177.1439889384
 20
102.6752789191
 30
0.0
 11
174.0169722846
 21
102.6752789191
 31
0.0
  0
LINE
  5
84
330
1F
100
AcDbEntity
  8
0
  6
Continuous
 62
     7
370
    25
100
AcDbLine
 10
155.0122103752
 20
80.6752789191
 30
0.0
 11
177.1439889384
 21
80.6752789191
 31
0.0
  0
LINE
  5
85
330
1F
100
AcDbEntity
  8
0
  6
Continuous
 62
     7
370
    25
100
AcDbLine
 10
181.0169722846
 20
83.0739664191
 30
0.0
 11
193.9430628509
 21
83.4779067493
 31
0.0
  0
LINE
  5
86
330
1F
100
AcDbEntity
  8
0
  6
Continuous
 62
     7
370
    25
100
AcDbLine
 10
193.9430628509
 20
99.8726510889
 30
0.0
 11
181.0169722846
 21
100.2765914191
 31
0.0
  0
LINE
  5
87
330
1F
100
AcDbEntity
  8
0
  6
Continuous
 62
     7
370
    25
100
AcDbLine
 10
193.9430628509
 20
83.4779067493
 30
0.0
 11
196.0169722846
 21
84.6752789191
 31
0.0
  0
LINE
  5
88
330
1F
100
AcDbEntity
  8
0
  6
Continuous
 62
     7
370
    25
100
AcDbLine
 10
196.0169722846
 20
98.6752789191
 30
0.0
 11
193.9430628509
 21
99.8726510889
 31
0.0
  0
SPLINE
  5
89
330
1F
100
AcDbEntity
  8
0
  6
Continuous
 62
     7
370
    25
100
AcDbSpline
210
0.0
220
0.0
230
1.0
 70
     8
 71
     3
 72
    21
 73
    17
 74
     0
 42
0.000000001
 43
0.00000001
 40
0.0
 40
0.0
 40
0.0
 40
0.0
 40
0.082675685630924
 40
0.1577159325188836
 40
0.225107159227423
 40
0.2848508973562325
 40
0.3526128230463965
 40
0.4067896959711119
 40
0.4520101709879598
 40
0.5086862178782585
 40
0.5792250734246939
 40
0.6636252331326754
 40
0.7360319020681837
 40
0.8162246501067455
 40
0.904219872834077
 40
1.0
 40
1.0
 40
1.0
 40
1.0
 10
151.0169722874946
 20
84.67512690406559
 30
0.0
 10
151.0235064939265
 20
84.501963023283
 30
0.0
 10
151.0359714460198
 20
84.1716276565086
 30
0.0
 10
151.128039229956
 20
83.70781848799706
 30
0.0
 10
151.2525590114323
 20
83.30279800700954
 30
0.0
 10
151.4120647658543
 20
82.92664776520121
 30
0.0
 10
151.595122729603
 20
82.59251260424314
 30
0.0
 10
151.791854002968
 20
82.30270060213692
 30
0.0
 10
151.9958625985028
 20
82.04724579528428
 30
0.0
 10
152.2432666963359
 20
81.78380880528063
 30
0.0
 10
152.5781671447582
 20
81.49257156858424
 30
0.0
 10
152.9735038178359
 20
81.22524735700217
 30
0.0
 10
153.4161317370402
 20
80.99881549030677
 30
0.0
 10
153.8902430386337
 20
80.82616287113858
 30
0.0
 10
154.4311585622297
 20
80.7009163752436
 30
0.0
 10
154.8161633072719
 20
80.68406271894489
 30
0.0
 10
155.0168202694871
 20
80.67527892207312
 30
0.0
  0
SPLINE
  5
8A
330
1F
100
AcDbEntity
  8
0
  6
Continuous
 62
     7
370
    25
100
AcDbSpline
210
0.0
220
0.0
230
1.0
 70
     8
 71
     3
 72
    11
 73
     7
 74
     0
 42
0.000000001
 43
0.00000001
 40
0.0
 40
0.0
 40
0.0
 40
0.0
 40
0.250045322115713
 40
0.5
 40
0.7499546778842864
 40
1.0
 40
1.0
 40
1.0
 40
1.0
 10
174.0169722845327
 20
102.6752789191142
 30
0.0
 10
173.8859248864271
 20
102.6903443825304
 30
0.0
 10
173.6238775963663
 20
102.7204698479635
 30
0.0
 10
173.2935273228171
 20
102.9518339573956
 30
0.0
 10
173.062163213385
 20
103.2821842309448
 30
0.0
 10
173.0320377479519
 20
103.5442315210056
 30
0.0
 10
173.0169722845357
 20
103.6752789191112
 30
0.0
  0
LINE
  5
8B
330
1F
100
AcDbEntity
  8
0
  6
Continuous
 62
     7
370
    25
100
AcDbLine
 10
176.0169722846
 20
124.6752789191
 30
0.0
 11
148.0169722846
 21
124.6752789191
 31
0.0
  0
LINE
  5
8C
330
1F
100
AcDbEntity
  8
0
  6
Continuous
 62
     7
370
    25
100
AcDbLine
 10
149.0169722846
 20
125.6752789191
 30
0.0
 11
175.0169722846
 21
125.6752789191
 31
0.0
  0
LINE
  5
8D
330
1F
100
AcDbEntity
  8
0
  6
Continuous
 62
     7
370
    25
100
AcDbLine
 10
178.3605450328
 20
91.6752789191
 30
0.0
 11
178.3605450328
 21
80.4175391674
 31
0.0
  0
LINE
  5
8E
330
1F
100
AcDbEntity
  8
0
  6
Continuous
 62
     7
370
    25
100
AcDbLine
 10
178.3605450328
 20
102.9330186709
 30
0.0
 11
178.3605450328
 21
91.6752789191
 31
0.0
  0
LINE
  5
8F
330
1F
100
AcDbEntity
  8
0
  6
Continuous
 62
     7
370
    25
100
AcDbLine
 10
181.0169722846
 20
100.2765914191
 30
0.0
 11
181.0169722846
 21
83.0739664191
 31
0.0
  0
SPLINE
  5
90
330
1F
100
AcDbEntity
  8
0
  6
Continuous
 62
     7
370
    25
100
AcDbSpline
210
0.0
220
0.0
230
1.0
 70
     8
 71
     3
 72
    12
 73
     8
 74
     0
 42
0.000000001
 43
0.00000001
 40
0.0
 40
0.0
 40
0.0
 40
0.0
 40
0.2500000000000001
 40
0.2500000000000001
 40
0.5000000000000001
 40
0.5000000000000001
 40
1.0
 40
1.0
 40
1.0
 40
1.0
 10
172.5169722845687
 20
88.3965596569962
 30
0.0
 10
172.5169722845687
 20
88.674081662906
 30
0.0
 10
172.5366952299767
 20
88.95021798983878
 30
0.0
 10
172.5973316947379
 20
89.50100185325135
 30
0.0
 10
172.6385882404263
 20
89.77521024977673
 30
0.0
 10
172.7803615500983
 20
90.59336652742553
 30
0.0
 10
172.8989285952587
 20
91.13432944253054
 30
0.0
 10
173.0169722845687
 20
91.6752789191472
 30
0.0
  0
SPLINE
  5
91
330
1F
100
AcDbEntity
  8
0
  6
Continuous
 62
     7
370
    25
100
AcDbSpline
210
0.0
220
0.0
230
1.0
 70
     8
 71
     3
 72
    12
 73
     8
 74
     0
 42
0.000000001
 43
0.00000001
 40
0.0
 40
0.0
 40
0.0
 40
0.0
 40
0.2500000000000001
 40
0.2500000000000001
 40
0.5000000000000001
 40
0.5000000000000001
 40
1.0
 40
1.0
 40
1.0
 40
1.0
 10
172.9432294525467
 20
88.3965596569962
 30
0.0
 10
172.9205169508386
 20
88.66786409536867
 30
0.0
 10
172.9130044310091
 20
88.939976293929
 30
0.0
 10
172.9114483563087
 20
89.48568597840081
 30
0.0
 10
172.9178751981496
 20
89.75908193256326
 30
0.0
 10
172.9481001984504
 20
90.57930380963253
 30
0.0
 10
172.9827957195674
 20
91.12763920694829
 30
0.0
 10
173.0169722845687
 20
91.6752789191472
 30
0.0
  0
LINE
  5
92
330
1F
100
AcDbEntity
  8
0
  6
Continuous
 62
     7
370
    25
100
AcDbLine
 10
172.5169722846
 20
88.396559657
 30
0.0
 11
172.9432294525
 21
88.396559657
 31
0.0
  0
ARC
  5
93
330
1F
100
AcDbEntity
  8
0
  6
Continuous
 62
     7
370
    25
100
AcDbCircle
 10
173.5280100596
 20
87.3565349192
 30
0.0
 40
1.193155402138988
100
AcDbArc
 50
97.6349315662
 51
119.347988814
  0
SPLINE
  5
94
330
1F
100
AcDbEntity
  8
0
  6
Continuous
 62
     7
370
    25
100
AcDbSpline
210
0.0
220
0.0
230
1.0
 70
     8
 71
     3
 72
    12
 73
     8
 74
     0
 42
0.000000001
 43
0.00000001
 40
0.0
 40
0.0
 40
0.0
 40
0.0
 40
0.2500000000000001
 40
0.2500000000000001
 40
0.5000000000000001
 40
0.5000000000000001
 40
1.0
 40
1.0
 40
1.0
 40
1.0
 10
173.3694866205246
 20
88.53911266839408
 30
0.0
 10
173.3214446498947
 20
88.79108076958015
 30
0.0
 10
173.2847510072511
 20
89.04667928823773
 30
0.0
 10
173.2187603258264
 20
89.56320565309856
 30
0.0
 10
173.1899868376494
 20
89.824625812419
 30
0.0
 10
173.1095111306387
 20
90.61230956675742
 30
0.0
 10
173.0633814273955
 20
91.1443211393927
 30
0.0
 10
173.0169722845687
 20
91.6752789191472
 30
0.0
  0
LINE
  5
95
330
1F
100
AcDbEntity
  8
0
  6
Continuous
 62
     7
370
    25
100
AcDbLine
 10
172.5169722846
 20
94.9539981813
 30
0.0
 11
172.9432294525
 21
94.9539981813
 31
0.0
  0
SPLINE
  5
96
330
1F
100
AcDbEntity
  8
0
  6
Continuous
 62
     7
370
    25
100
AcDbSpline
210
0.0
220
0.0
230
1.0
 70
     8
 71
     3
 72
    12
 73
     8
 74
     0
 42
0.000000001
 43
0.00000001
 40
0.0
 40
0.0
 40
0.0
 40
0.0
 40
0.25
 40
0.25
 40
0.5
 40
0.5
 40
1.0
 40
1.0
 40
1.0
 40
1.0
 10
172.9432294525467
 20
94.95399818129819
 30
0.0
 10
172.9205169508376
 20
94.68269374291313
 30
0.0
 10
172.9130044310083
 20
94.41058154434012
 30
0.0
 10
172.9114483563092
 20
93.86487185984286
 30
0.0
 10
172.9178751981513
 20
93.59147590566774
 30
0.0
 10
172.9481001984556
 20
92.77125402856029
 30
0.0
 10
172.9827957195798
 20
92.22291863137377
 30
0.0
 10
173.0169722845687
 20
91.6752789191472
 30
0.0
  0
SPLINE
  5
97
330
1F
100
AcDbEntity
  8
0
  6
Continuous
 62
     7
370
    25
100
AcDbSpline
210
0.0
220
0.0
230
1.0
 70
     8
 71
     3
 72
    12
 73
     8
 74
     0
 42
0.000000001
 43
0.00000001
 40
0.0
 40
0.0
 40
0.0
 40
0.0
 40
0.2499999999999999
 40
0.2499999999999999
 40
0.4999999999999999
 40
0.4999999999999999
 40
1.0
 40
1.0
 40
1.0
 40
1.0
 10
172.5169722845687
 20
94.9539981812982
 30
0.0
 10
172.5169722845687
 20
94.67647617538839
 30
0.0
 10
172.5366952299767
 20
94.40033984845564
 30
0.0
 10
172.5973316947379
 20
93.84955598504307
 30
0.0
 10
172.6385882404263
 20
93.57534758851769
 30
0.0
 10
172.7803615500983
 20
92.75719131086889
 30
0.0
 10
172.8989285952587
 20
92.21622839576388
 30
0.0
 10
173.0169722845687
 20
91.6752789191472
 30
0.0
  0
ARC
  5
98
330
1F
100
AcDbEntity
  8
0
  6
Continuous
 62
     7
370
    25
100
AcDbCircle
 10
173.5280100596
 20
95.9940229191
 30
0.0
 40
1.19315540213901
100
AcDbArc
 50
240.652011186
 51
262.3650684338
  0
SPLINE
  5
99
330
1F
100
AcDbEntity
  8
0
  6
Continuous
 62
     7
370
    25
100
AcDbSpline
210
0.0
220
0.0
230
1.0
 70
     8
 71
     3
 72
    12
 73
     8
 74
     0
 42
0.000000001
 43
0.00000001
 40
0.0
 40
0.0
 40
0.0
 40
0.0
 40
0.25
 40
0.25
 40
0.5
 40
0.5
 40
1.0
 40
1.0
 40
1.0
 40
1.0
 10
173.3694866205246
 20
94.81144516990024
 30
0.0
 10
173.3214614028819
 20
94.55956493393533
 30
0.0
 10
173.284777132607
 20
94.30405674345167
 30
0.0
 10
173.2188032396776
 20
93.78771435227178
 30
0.0
 10
173.1900516071094
 20
93.52654530069951
 30
0.0
 10
173.1094967063194
 20
92.73814840182611
 30
0.0
 10
173.0633652296996
 20
92.20605154685067
 30
0.0
 10
173.0169722845687
 20
91.6752789191472
 30
0.0
  0
SPLINE
  5
9A
330
1F
100
AcDbEntity
  8
0
  6
Continuous
 62
     7
370
    25
100
AcDbSpline
210
0.0
220
0.0
230
1.0
 70
     8
 71
     3
 72
    12
 73
     8
 74
     0
 42
0.000000001
 43
0.00000001
 40
0.0
 40
0.0
 40
0.0
 40
0.0
 40
0.2500000000000001
 40
0.2500000000000001
 40
0.5000000000000001
 40
0.5000000000000001
 40
1.0
 40
1.0
 40
1.0
 40
1.0
 10
165.2956915467197
 20
102.1752789191472
 30
0.0
 10
165.0181695408099
 20
102.1752789191472
 30
0.0
 10
164.7420332138771
 20
102.1950018645551
 30
0.0
 10
164.1912493504646
 20
102.2556383293164
 30
0.0
 10
163.9170409539392
 20
102.2968948750048
 30
0.0
 10
163.0988846762904
 20
102.4386681846768
 30
0.0
 10
162.5579217611854
 20
102.5572352298372
 30
0.0
 10
162.0169722845687
 20
102.6752789191472
 30
0.0
  0
SPLINE
  5
9B
330
1F
100
AcDbEntity
  8
0
  6
Continuous
 62
     7
370
    25
100
AcDbSpline
210
0.0
220
0.0
230
1.0
 70
     8
 71
     3
 72
    12
 73
     8
 74
     0
 42
0.000000001
 43
0.00000001
 40
0.0
 40
0.0
 40
0.0
 40
0.0
 40
0.2500000000000001
 40
0.2500000000000001
 40
0.5000000000000001
 40
0.5000000000000001
 40
1.0
 40
1.0
 40
1.0
 40
1.0
 10
165.2956915467197
 20
102.6015360871252
 30
0.0
 10
165.0243871083472
 20
102.5788235854171
 30
0.0
 10
164.7522749097869
 20
102.5713110655876
 30
0.0
 10
164.2065652253151
 20
102.5697549908871
 30
0.0
 10
163.9331692711527
 20
102.5761818327281
 30
0.0
 10
163.1129473940834
 20
102.6064068330289
 30
0.0
 10
162.5646119967676
 20
102.641102354146
 30
0.0
 10
162.0169722845687
 20
102.6752789191472
 30
0.0
  0
LINE
  5
9C
330
1F
100
AcDbEntity
  8
0
  6
Continuous
 62
     7
370
    25
100
AcDbLine
 10
165.2956915467
 20
102.1752789191
 30
0.0
 11
165.2956915467
 21
102.6015360871
 31
0.0
  0
ARC
  5
9D
330
1F
100
AcDbEntity
  8
0
  6
Continuous
 62
     7
370
    25
100
AcDbCircle
 10
157.6982282846
 20
103.1863166942
 30
0.0
 40
1.19315540213834
100
AcDbArc
 50
330.652011186
 51
352.3650684338
  0
SPLINE
  5
9E
330
1F
100
AcDbEntity
  8
0
  6
Continuous
 62
     7
370
    25
100
AcDbSpline
210
0.0
220
0.0
230
1.0
 70
     8
 71
     3
 72
    12
 73
     8
 74
     0
 42
0.000000001
 43
0.00000001
 40
0.0
 40
0.0
 40
0.0
 40
0.0
 40
0.2499999999999999
 40
0.2499999999999999
 40
0.4999999999999999
 40
0.4999999999999999
 40
1.0
 40
1.0
 40
1.0
 40
1.0
 10
158.8808060338157
 20
103.0277932551031
 30
0.0
 10
159.1326862697806
 20
102.9797680374604
 30
0.0
 10
159.3881944602643
 20
102.9430837671855
 30
0.0
 10
159.9045368514442
 20
102.8771098742561
 30
0.0
 10
160.1657059030164
 20
102.8483582416878
 30
0.0
 10
160.9541028018898
 20
102.7678033408979
 30
0.0
 10
161.4861996568653
 20
102.7216718642781
 30
0.0
 10
162.0169722845687
 20
102.6752789191472
 30
0.0
  0
SPLINE
  5
9F
330
1F
100
AcDbEntity
  8
0
  6
Continuous
 62
     7
370
    25
100
AcDbSpline
210
0.0
220
0.0
230
1.0
 70
     8
 71
     3
 72
    12
 73
     8
 74
     0
 42
0.000000001
 43
0.00000001
 40
0.0
 40
0.0
 40
0.0
 40
0.0
 40
0.2499999999999999
 40
0.2499999999999999
 40
0.4999999999999999
 40
0.4999999999999999
 40
1.0
 40
1.0
 40
1.0
 40
1.0
 10
158.7382530224178
 20
102.6015360871252
 30
0.0
 10
159.0095574608028
 20
102.578823585416
 30
0.0
 10
159.2816696593758
 20
102.5713110655868
 30
0.0
 10
159.827379343873
 20
102.5697549908877
 30
0.0
 10
160.1007752980482
 20
102.5761818327297
 30
0.0
 10
160.9209971751556
 20
102.6064068330341
 30
0.0
 10
161.4693325723421
 20
102.6411023541583
 30
0.0
 10
162.0169722845687
 20
102.6752789191472
 30
0.0
  0
LINE
  5
A0
330
1F
100
AcDbEntity
  8
0
  6
Continuous
 62
     7
370
    25
100
AcDbLine
 10
158.7382530224
 20
102.1752789191
 30
0.0
 11
158.7382530224
 21
102.6015360871
 31
0.0
  0
SPLINE
  5
A1
330
1F
100
AcDbEntity
  8
0
  6
Continuous
 62
     7
370
    25
100
AcDbSpline
210
0.0
220
0.0
230
1.0
 70
     8
 71
     3
 72
    12
 73
     8
 74
     0
 42
0.000000001
 43
0.00000001
 40
0.0
 40
0.0
 40
0.0
 40
0.0
 40
0.2500000000000001
 40
0.2500000000000001
 40
0.5000000000000002
 40
0.5000000000000002
 40
1.0
 40
1.0
 40
1.0
 40
1.0
 10
158.7382530224177
 20
102.1752789191472
 30
0.0
 10
159.0157750283275
 20
102.1752789191472
 30
0.0
 10
159.2919113552603
 20
102.1950018645551
 30
0.0
 10
159.8426952186729
 20
102.2556383293164
 30
0.0
 10
160.1169036151983
 20
102.2968948750048
 30
0.0
 10
160.9350598928471
 20
102.4386681846768
 30
0.0
 10
161.4760228079521
 20
102.5572352298372
 30
0.0
 10
162.0169722845687
 20
102.6752789191472
 30
0.0
  0
ARC
  5
A2
330
1F
100
AcDbEntity
  8
0
  6
Continuous
 62
     7
370
    25
100
AcDbCircle
 10
166.3357162845
 20
103.1863166942
 30
0.0
 40
1.1931554021388
100
AcDbArc
 50
187.6349315662
 51
209.347988814
  0
SPLINE
  5
A3
330
1F
100
AcDbEntity
  8
0
  6
Continuous
 62
     7
370
    25
100
AcDbSpline
210
0.0
220
0.0
230
1.0
 70
     8
 71
     3
 72
    12
 73
     8
 74
     0
 42
0.000000001
 43
0.00000001
 40
0.0
 40
0.0
 40
0.0
 40
0.0
 40
0.25
 40
0.25
 40
0.5
 40
0.5
 40
1.0
 40
1.0
 40
1.0
 40
1.0
 10
165.1531385353219
 20
103.0277932551031
 30
0.0
 10
164.9011704341358
 20
102.9797512844732
 30
0.0
 10
164.6455719154782
 20
102.9430576418296
 30
0.0
 10
164.1290455506173
 20
102.8770669604049
 30
0.0
 10
163.8676253912969
 20
102.8482934722279
 30
0.0
 10
163.0799416369585
 20
102.7678177652172
 30
0.0
 10
162.5479300643232
 20
102.7216880619739
 30
0.0
 10
162.0169722845687
 20
102.6752789191472
 30
0.0
  0
LINE
  5
A4
330
1F
100
AcDbEntity
  8
0
  6
Continuous
 62
     7
370
    25
100
AcDbLine
 10
172.5169722846
 20
94.9539981813
 30
0.0
 11
172.5169722846
 21
101.2610653568
 31
0.0
  0
SPLINE
  5
A5
330
1F
100
AcDbEntity
  8
0
  6
Continuous
 62
     7
370
    25
100
AcDbSpline
210
0.0
220
0.0
230
1.0
 70
     8
 71
     3
 72
    12
 73
     8
 74
     0
 42
0.000000001
 43
0.00000001
 40
0.0
 40
0.0
 40
0.0
 40
0.0
 40
0.2499999999999993
 40
0.2499999999999993
 40
0.4999999999999987
 40
0.4999999999999987
 40
1.0
 40
1.0
 40
1.0
 40
1.0
 10
173.0169722845687
 20
101.6752789191472
 30
0.0
 10
173.0169722845687
 20
101.6752789191472
 30
0.0
 10
172.9991449888724
 20
101.6572134912562
 30
0.0
 10
172.939854889618
 20
101.600552249721
 30
0.0
 10
172.8992573782549
 20
101.5630298901989
 30
0.0
 10
172.7579728345659
 20
101.4405031261059
 30
0.0
 10
172.6391343453799
 20
101.3475283176094
 30
0.0
 10
172.5169722845687
 20
101.2610653567741
 30
0.0
  0
LINE
  5
A6
330
1F
100
AcDbEntity
  8
0
  6
Continuous
 62
     7
370
    25
100
AcDbLine
 10
173.0169722846
 20
101.6752789191
 30
0.0
 11
173.0169722846
 21
96.365694679
 31
0.0
  0
SPLINE
  5
A7
330
1F
100
AcDbEntity
  8
0
  6
Continuous
 62
     7
370
    25
100
AcDbSpline
210
0.0
220
0.0
230
1.0
 70
     8
 71
     3
 72
     8
 73
     4
 74
     0
 42
0.000000001
 43
0.00000001
 40
0.0
 40
0.0
 40
0.0
 40
0.0
 40
1.0
 40
1.0
 40
1.0
 40
1.0
 10
172.9432294525467
 20
94.95399818129819
 30
0.0
 10
172.9863106373851
 20
95.42643913725198
 30
0.0
 10
173.0169722845687
 20
95.8975643156114
 30
0.0
 10
173.0169722845687
 20
96.36569467897064
 30
0.0
  0
ARC
  5
A8
330
1F
100
AcDbEntity
  8
0
  6
Continuous
 62
     7
370
    25
100
AcDbCircle
 10
173.0169722846
 20
102.6752789191
 30
0.0
 40
1.500000000000011
100
AcDbArc
 50
199.4712206345
 51
250.5287793655
  0
SPLINE
  5
A9
330
1F
100
AcDbEntity
  8
0
  6
Continuous
 62
     7
370
    25
100
AcDbSpline
210
0.0
220
0.0
230
1.0
 70
     8
 71
     3
 72
    12
 73
     8
 74
     0
 42
0.000000001
 43
0.00000001
 40
0.0
 40
0.0
 40
0.0
 40
0.0
 40
0.2499999999999999
 40
0.2499999999999999
 40
0.4999999999999999
 40
0.4999999999999999
 40
1.0
 40
1.0
 40
1.0
 40
1.0
 10
172.0169722845687
 20
102.6752789191472
 30
0.0
 10
172.0169722845687
 20
102.6752789191472
 30
0.0
 10
171.9989068566777
 20
102.6574516234509
 30
0.0
 10
171.9422456151426
 20
102.5981615241965
 30
0.0
 10
171.9047232556204
 20
102.5575640128334
 30
0.0
 10
171.7821964915274
 20
102.4162794691444
 30
0.0
 10
171.6892216830311
 20
102.2974409799582
 30
0.0
 10
171.6027587221956
 20
102.1752789191472
 30
0.0
  0
ARC
  5
AA
330
1F
100
AcDbEntity
  8
0
  6
Continuous
 62
     7
370
    25
100
AcDbCircle
 10
173.0169722846
 20
102.6752789191
 30
0.0
 40
1.0
100
AcDbArc
 50
180.0
 51
270.0
  0
LINE
  5
AB
330
1F
100
AcDbEntity
  8
0
  6
Continuous
 62
     7
370
    25
100
AcDbLine
 10
152.5169722846
 20
85.6752789191
 30
0.0
 11
152.0169722846
 21
85.6752789191
 31
0.0
  0
LINE
  5
AC
330
1F
100
AcDbEntity
  8
0
  6
Continuous
 62
     7
370
    25
100
AcDbLine
 10
152.0169722846
 20
85.6752789191
 30
0.0
 11
152.0169722846
 21
102.1752789191
 31
0.0
  0
LINE
  5
AD
330
1F
100
AcDbEntity
  8
0
  6
Continuous
 62
     7
370
    25
100
AcDbLine
 10
152.5169722846
 20
102.1752789191
 30
0.0
 11
152.0169722846
 21
102.1752789191
 31
0.0
  0
LINE
  5
AE
330
1F
100
AcDbEntity
  8
0
  6
Continuous
 62
     7
370
    25
100
AcDbLine
 10
152.5169722846
 20
102.1752789191
 30
0.0
 11
152.5169722846
 21
85.6752789191
 31
0.0
  0
ARC
  5
AF
330
1F
100
AcDbEntity
  8
0
  6
Continuous
 62
     7
370
    25
100
AcDbCircle
 10
156.0169722846
 20
85.6752789191
 30
0.0
 40
3.5
100
AcDbArc
 50
180.0
 51
270.0
  0
LINE
  5
B0
330
1F
100
AcDbEntity
  8
0
  6
Continuous
 62
     7
370
    25
100
AcDbLine
 10
156.0169722846
 20
82.1752789191
 30
0.0
 11
156.0169722846
 21
81.6752789191
 31
0.0
  0
ARC
  5
B1
330
1F
100
AcDbEntity
  8
0
  6
Continuous
 62
     7
370
    25
100
AcDbCircle
 10
156.0169722846
 20
85.6752789191
 30
0.0
 40
4.0
100
AcDbArc
 50
180.0
 51
270.0
  0
LINE
  5
B2
330
1F
100
AcDbEntity
  8
0
  6
Continuous
 62
     7
370
    25
100
AcDbLine
 10
171.6027587222
 20
102.1752789191
 30
0.0
 11
165.2956915467
 21
102.1752789191
 31
0.0
  0
SPLINE
  5
B3
330
1F
100
AcDbEntity
  8
0
  6
Continuous
 62
     7
370
    25
100
AcDbSpline
210
0.0
220
0.0
230
1.0
 70
     8
 71
     3
 72
     8
 73
     4
 74
     0
 42
0.000000001
 43
0.00000001
 40
0.0
 40
0.0
 40
0.0
 40
0.0
 40
1.0
 40
1.0
 40
1.0
 40
1.0
 10
166.7073880443921
 20
102.6752789191472
 30
0.0
 10
166.2391636206186
 20
102.6752789191472
 30
0.0
 10
165.768183136249
 20
102.6446218891636
 30
0.0
 10
165.2956915467197
 20
102.6015360871252
 30
0.0
  0
LINE
  5
B4
330
1F
100
AcDbEntity
  8
0
  6
Continuous
 62
     7
370
    25
100
AcDbLine
 10
166.7073880444
 20
102.6752789191
 30
0.0
 11
172.0169722846
 21
102.6752789191
 31
0.0
  0
SPLINE
  5
B5
330
1F
100
AcDbEntity
  8
0
  6
Continuous
 62
     7
370
    25
100
AcDbSpline
210
0.0
220
0.0
230
1.0
 70
     8
 71
     3
 72
    14
 73
    10
 74
     0
 42
0.000000001
 43
0.00000001
 40
0.0
 40
0.0
 40
0.0
 40
0.0
 40
0.4999999999999986
 40
0.4999999999999986
 40
0.7499999999999978
 40
0.7499999999999978
 40
0.8749999999999989
 40
0.8749999999999989
 40
1.0
 40
1.0
 40
1.0
 40
1.0
 10
172.5387106802869
 20
103.1752789191466
 30
0.0
 10
172.4610805922037
 20
103.1752787944685
 30
0.0
 10
172.3747460610369
 20
103.1590448823847
 30
0.0
 10
172.2346797069561
 20
103.0655659527408
 30
0.0
 10
172.1866943066586
 20
103.0240312812724
 30
0.0
 10
172.1193986710173
 20
102.9194017778116
 30
0.0
 10
172.0979328546506
 20
102.8773710609405
 30
0.0
 10
172.0659160789007
 20
102.7694704642901
 30
0.0
 10
172.0567801693433
 20
102.7002974136484
 30
0.0
 10
172.0621139797491
 20
102.6336133376217
 30
0.0
  0
LINE
  5
B6
330
1F
100
AcDbEntity
  8
0
  6
Continuous
 62
     7
370
    25
100
AcDbLine
 10
166.5034569244
 20
103.1752789191
 30
0.0
 11
172.5387106803
 21
103.1752789191
 31
0.0
  0
SPLINE
  5
B7
330
1F
100
AcDbEntity
  8
0
  6
Continuous
 62
     7
370
    25
100
AcDbSpline
210
0.0
220
0.0
230
1.0
 70
     8
 71
     3
 72
     8
 73
     4
 74
     0
 42
0.000000001
 43
0.00000001
 40
0.0
 40
0.0
 40
0.0
 40
0.0
 40
1.0
 40
1.0
 40
1.0
 40
1.0
 10
165.1531385353219
 20
103.0277932551031
 30
0.0
 10
165.6104344302545
 20
103.1149844346616
 30
0.0
 10
166.0596746264884
 20
103.1752789191472
 30
0.0
 10
166.5034569243998
 20
103.1752789191472
 30
0.0
  0
SPLINE
  5
B8
330
1F
100
AcDbEntity
  8
0
  6
Continuous
 62
     7
370
    25
100
AcDbSpline
210
0.0
220
0.0
230
1.0
 70
     8
 71
     3
 72
     8
 73
     4
 74
     0
 42
0.000000001
 43
0.00000001
 40
0.0
 40
0.0
 40
0.0
 40
0.0
 40
1.0
 40
1.0
 40
1.0
 40
1.0
 10
157.5304876447376
 20
103.1752789191472
 30
0.0
 10
157.974269942649
 20
103.1752789191472
 30
0.0
 10
158.423510138883
 20
103.1149844346616
 30
0.0
 10
158.8808060338157
 20
103.0277932551031
 30
0.0
  0
LINE
  5
B9
330
1F
100
AcDbEntity
  8
0
  6
Continuous
 62
     7
370
    25
100
AcDbLine
 10
152.9300157628
 20
103.1752789191
 30
0.0
 11
157.5304876447
 21
103.1752789191
 31
0.0
  0
SPLINE
  5
BA
330
1F
100
AcDbEntity
  8
0
  6
Continuous
 62
     7
370
    25
100
AcDbSpline
210
0.0
220
0.0
230
1.0
 70
     8
 71
     3
 72
    18
 73
    14
 74
     0
 42
0.000000001
 43
0.00000001
 40
0.0
 40
0.0
 40
0.0
 40
0.0
 40
0.25
 40
0.25
 40
0.5
 40
0.5
 40
0.625
 40
0.625
 40
0.75
 40
0.75
 40
0.875
 40
0.875
 40
1.0
 40
1.0
 40
1.0
 40
1.0
 10
152.9300157628296
 20
103.1752789191472
 30
0.0
 10
152.8182239902539
 20
103.1752789191472
 30
0.0
 10
152.7128479952818
 20
103.1554059496214
 30
0.0
 10
152.5135091173928
 20
103.0822457312286
 30
0.0
 10
152.4186780719467
 20
103.0283689973934
 30
0.0
 10
152.2884061440617
 20
102.9192193414054
 30
0.0
 10
152.2470779324188
 20
102.8782105980826
 30
0.0
 10
152.1689077878552
 20
102.7841602840665
 30
0.0
 10
152.1317046264302
 20
102.7306897419694
 30
0.0
 10
152.0646866031723
 20
102.6072755987042
 30
0.0
 10
152.0345075367908
 20
102.5370865339807
 30
0.0
 10
151.9885601854551
 20
102.3718843228349
 30
0.0
 10
151.9734940236992
 20
102.2759247413792
 30
0.0
 10
151.9734940236992
 20
102.1752789191472
 30
0.0
  0
LINE
  5
BB
330
1F
100
AcDbEntity
  8
0
  6
Continuous
 62
     7
370
    25
100
AcDbLine
 10
151.9734940237
 20
85.6752789191
 30
0.0
 11
151.9734940237
 21
102.1752789191
 31
0.0
  0
SPLINE
  5
BC
330
1F
100
AcDbEntity
  8
0
  6
Continuous
 62
     7
370
    25
100
AcDbSpline
210
0.0
220
0.0
230
1.0
 70
     8
 71
     3
 72
     8
 73
     4
 74
     0
 42
0.000000001
 43
0.00000001
 40
0.0
 40
0.0
 40
0.0
 40
0.0
 40
1.0
 40
1.0
 40
1.0
 40
1.0
 10
151.9889853942348
 20
85.29383768030767
 30
0.0
 10
151.9787385974147
 20
85.4197627796102
 30
0.0
 10
151.9734940236992
 20
85.54688081047682
 30
0.0
 10
151.9734940236992
 20
85.6752789191472
 30
0.0
  0
SPLINE
  5
BD
330
1F
100
AcDbEntity
  8
0
  6
Continuous
 62
     7
370
    25
100
AcDbSpline
210
0.0
220
0.0
230
1.0
 70
     8
 71
     3
 72
     8
 73
     4
 74
     0
 42
0.000000001
 43
0.00000001
 40
0.0
 40
0.0
 40
0.0
 40
0.0
 40
1.0
 40
1.0
 40
1.0
 40
1.0
 10
156.0169722845687
 20
81.63180065827764
 30
0.0
 10
155.8885741792384
 20
81.63180065827764
 30
0.0
 10
155.7614561516128
 20
81.63704523172106
 30
0.0
 10
155.635531055463
 20
81.64729202802127
 30
0.0
  0
LINE
  5
BE
330
1F
100
AcDbEntity
  8
0
  6
Continuous
 62
     7
370
    25
100
AcDbLine
 10
172.5169722846
 20
81.6318006583
 30
0.0
 11
156.0169722846
 21
81.6318006583
 31
0.0
  0
SPLINE
  5
BF
330
1F
100
AcDbEntity
  8
0
  6
Continuous
 62
     7
370
    25
100
AcDbSpline
210
0.0
220
0.0
230
1.0
 70
     8
 71
     3
 72
    16
 73
    12
 74
     0
 42
0.000000001
 43
0.00000001
 40
0.0
 40
0.0
 40
0.0
 40
0.0
 40
0.1249999999999998
 40
0.1249999999999998
 40
0.2499999999999995
 40
0.2499999999999995
 40
0.4999999999999997
 40
0.4999999999999997
 40
0.7499999999999998
 40
0.7499999999999998
 40
1.0
 40
1.0
 40
1.0
 40
1.0
 10
172.5169722845687
 20
81.63180065827764
 30
0.0
 10
172.6171406311084
 20
81.63180065827764
 30
0.0
 10
172.7134891736674
 20
81.64686175865809
 30
0.0
 10
172.8784299508566
 20
81.69269733581616
 30
0.0
 10
172.9488910025707
 20
81.72298595461532
 30
0.0
 10
173.1330717145985
 20
81.82289744128443
 30
0.0
 10
173.224383790948
 20
81.9031472845622
 30
0.0
 10
173.3699807385462
 20
82.07685496318747
 30
0.0
 10
173.4239096954967
 20
82.1717353479971
 30
0.0
 10
173.4971293284419
 20
82.37123670201586
 30
0.0
 10
173.5169722845687
 20
82.47662742271692
 30
0.0
 10
173.5169722845687
 20
82.58832239740806
 30
0.0
  0
LINE
  5
C0
330
1F
100
AcDbEntity
  8
0
  6
Continuous
 62
     7
370
    25
100
AcDbLine
 10
173.5169722846
 20
87.1887942793
 30
0.0
 11
173.5169722846
 21
82.5883223974
 31
0.0
  0
SPLINE
  5
C1
330
1F
100
AcDbEntity
  8
0
  6
Continuous
 62
     7
370
    25
100
AcDbSpline
210
0.0
220
0.0
230
1.0
 70
     8
 71
     3
 72
     8
 73
     4
 74
     0
 42
0.000000001
 43
0.00000001
 40
0.0
 40
0.0
 40
0.0
 40
0.0
 40
1.0
 40
1.0
 40
1.0
 40
1.0
 10
173.3694866205246
 20
88.53911266839408
 30
0.0
 10
173.4566778000832
 20
88.08181677346138
 30
0.0
 10
173.5169722845687
 20
87.6325765772275
 30
0.0
 10
173.5169722845687
 20
87.1887942793161
 30
0.0
  0
SPLINE
  5
C2
330
1F
100
AcDbEntity
  8
0
  6
Continuous
 62
     7
370
    25
100
AcDbSpline
210
0.0
220
0.0
230
1.0
 70
     8
 71
     3
 72
     8
 73
     4
 74
     0
 42
0.000000001
 43
0.00000001
 40
0.0
 40
0.0
 40
0.0
 40
0.0
 40
1.0
 40
1.0
 40
1.0
 40
1.0
 10
173.5169722845687
 20
96.16176355897832
 30
0.0
 10
173.5169722845687
 20
95.7179812610669
 30
0.0
 10
173.4566778000831
 20
95.26874106483297
 30
0.0
 10
173.3694866205246
 20
94.81144516990024
 30
0.0
  0
LINE
  5
C3
330
1F
100
AcDbEntity
  8
0
  6
Continuous
 62
     7
370
    25
100
AcDbLine
 10
173.5169722846
 20
102.197017317
 30
0.0
 11
173.5169722846
 21
96.161763559
 31
0.0
  0
SPLINE
  5
C4
330
1F
100
AcDbEntity
  8
0
  6
Continuous
 62
     7
370
    25
100
AcDbSpline
210
0.0
220
0.0
230
1.0
 70
     8
 71
     3
 72
    14
 73
    10
 74
     0
 42
0.000000001
 43
0.00000001
 40
0.0
 40
0.0
 40
0.0
 40
0.0
 40
0.1250000000000012
 40
0.1250000000000012
 40
0.2500000000000024
 40
0.2500000000000024
 40
0.500000000000002
 40
0.500000000000002
 40
1.0
 40
1.0
 40
1.0
 40
1.0
 10
172.9753067335124
 20
101.7204206118904
 30
0.0
 10
173.0419908101983
 20
101.7150868053597
 30
0.0
 10
173.111163856076
 20
101.7242227186842
 30
0.0
 10
173.2190644441976
 20
101.7562394971393
 30
0.0
 10
173.2610951581132
 20
101.7777053137502
 30
0.0
 10
173.3657246533235
 20
101.8450009483335
 30
0.0
 10
173.4072593229295
 20
101.8929863472945
 30
0.0
 10
173.500738249116
 20
102.0330527003443
 30
0.0
 10
173.5169721602551
 20
102.1193872301943
 30
0.0
 10
173.5169722845681
 20
102.1970173170167
 30
0.0
  0
LINE
  5
C5
330
1F
100
AcDbEntity
  8
0
  6
Continuous
 62
     7
370
    25
100
AcDbLine
 10
156.0169722846
 20
82.1752789191
 30
0.0
 11
172.5169722846
 21
82.1752789191
 31
0.0
  0
LINE
  5
C6
330
1F
100
AcDbEntity
  8
0
  6
Continuous
 62
     7
370
    25
100
AcDbLine
 10
172.5169722846
 20
81.6752789191
 30
0.0
 11
172.5169722846
 21
82.1752789191
 31
0.0
  0
LINE
  5
C7
330
1F
100
AcDbEntity
  8
0
  6
Continuous
 62
     7
370
    25
100
AcDbLine
 10
172.5169722846
 20
81.6752789191
 30
0.0
 11
156.0169722846
 21
81.6752789191
 31
0.0
  0
SPLINE
  5
C8
330
1F
100
AcDbEntity
  8
0
  6
Continuous
 62
     7
370
    25
100
AcDbSpline
210
0.0
220
0.0
230
1.0
 70
     8
 71
     3
 72
     8
 73
     4
 74
     0
 42
0.000000001
 43
0.00000001
 40
0.0
 40
0.0
 40
0.0
 40
0.0
 40
1.0
 40
1.0
 40
1.0
 40
1.0
 10
173.0169722845687
 20
86.98486315932377
 30
0.0
 10
173.0169722845687
 20
87.45308758309733
 30
0.0
 10
172.9863152545852
 20
87.92406806746695
 30
0.0
 10
172.9432294525467
 20
88.3965596569962
 30
0.0
  0
LINE
  5
C9
330
1F
100
AcDbEntity
  8
0
  6
Continuous
 62
     7
370
    25
100
AcDbLine
 10
173.0169722846
 20
86.9848631593
 30
0.0
 11
173.0169722846
 21
82.1752789191
 31
0.0
  0
LINE
  5
CA
330
1F
100
AcDbEntity
  8
0
  6
Continuous
 62
     7
370
    25
100
AcDbLine
 10
172.5169722846
 20
82.1752789191
 30
0.0
 11
173.0169722846
 21
82.1752789191
 31
0.0
  0
LINE
  5
CB
330
1F
100
AcDbEntity
  8
0
  6
Continuous
 62
     7
370
    25
100
AcDbLine
 10
172.5169722846
 20
82.1752789191
 30
0.0
 11
172.5169722846
 21
88.396559657
 31
0.0
  0
SPLINE
  5
CC
330
1F
100
AcDbEntity
  8
0
  6
Continuous
 62
     7
370
    25
100
AcDbSpline
210
0.0
220
0.0
230
1.0
 70
     8
 71
     3
 72
     8
 73
     4
 74
     0
 42
0.000000001
 43
0.00000001
 40
0.0
 40
0.0
 40
0.0
 40
0.0
 40
1.0
 40
1.0
 40
1.0
 40
1.0
 10
158.7382530224178
 20
102.6015360871252
 30
0.0
 10
158.265812066464
 20
102.6446172719635
 30
0.0
 10
157.7946868881045
 20
102.6752789191472
 30
0.0
 10
157.3265565247453
 20
102.6752789191472
 30
0.0
  0
LINE
  5
CD
330
1F
100
AcDbEntity
  8
0
  6
Continuous
 62
     7
370
    25
100
AcDbLine
 10
158.7382530224
 20
102.1752789191
 30
0.0
 11
152.5169722846
 21
102.1752789191
 31
0.0
  0
LINE
  5
CE
330
1F
100
AcDbEntity
  8
0
  6
Continuous
 62
     7
370
    25
100
AcDbLine
 10
152.5169722846
 20
102.6752789191
 30
0.0
 11
152.5169722846
 21
102.1752789191
 31
0.0
  0
LINE
  5
CF
330
1F
100
AcDbEntity
  8
0
  6
Continuous
 62
     7
370
    25
100
AcDbLine
 10
152.5169722846
 20
102.6752789191
 30
0.0
 11
157.3265565247
 21
102.6752789191
 31
0.0
  0
ARC
  5
D0
330
1F
100
AcDbEntity
  8
0
  6
Continuous
 62
     7
370
    25
100
AcDbCircle
 10
152.5169722846
 20
102.1752789191
 30
0.0
 40
0.5
100
AcDbArc
 50
90.0
 51
180.0
  0
ARC
  5
D1
330
1F
100
AcDbEntity
  8
0
  6
Continuous
 62
     7
370
    25
100
AcDbCircle
 10
172.5169722846
 20
82.1752789191
 30
0.0
 40
0.5
100
AcDbArc
 50
270.0
 51
0.0
  0
ELLIPSE
  5
D2
330
1F
100
AcDbEntity
  8
0
  6
Continuous
 62
     7
370
    25
100
AcDbEllipse
 10
169.0173417341
 20
88.028549968
 30
0.0
 11
0.6783923571545358
 21
9.379164112033322E-13
 31
0.0
210
0.0
220
0.0
230
1.0
 40
0.9531667975
 41
0.4357918987543242
 42
2.705800754832854
  0
LINE
  5
D3
330
1F
100
AcDbEntity
  8
0
  6
Continuous
 62
     7
370
    25
100
AcDbLine
 10
167.0918397564
 20
84.6373653074
 30
0.0
 11
168.4023546106
 21
88.3015070979
 31
0.0
  0
ELLIPSE
  5
D4
330
1F
100
AcDbEntity
  8
0
  6
Continuous
 62
     7
370
    25
100
AcDbEllipse
 10
166.4236326382
 20
84.8544946843
 30
0.0
 11
-0.7059692822418526
 21
8.526512829121202E-14
 31
0.0
210
0.0
220
0.0
230
1.0
 40
0.9531667975
 41
1.047197551197103
 42
2.813039483038435
  0
LINE
  5
D5
330
1F
100
AcDbEntity
  8
0
  6
Continuous
 62
     7
370
    25
100
AcDbLine
 10
166.0169722846
 20
84.3012789191
 30
0.0
 11
166.0706479971
 21
84.2717405784
 31
0.0
  0
LINE
  5
D6
330
1F
100
AcDbEntity
  8
0
  6
Continuous
 62
     7
370
    25
100
AcDbLine
 10
166.8455844385
 20
82.7216677328
 30
0.0
 11
166.0169722846
 21
84.3012789191
 31
0.0
  0
ELLIPSE
  5
D7
330
1F
100
AcDbEntity
  8
0
  6
Continuous
 62
     7
370
    25
100
AcDbEllipse
 10
166.9245142038
 20
82.7592843486
 30
0.0
 11
0.08824616028027776
 21
0.0
 31
0.0
210
0.0
220
0.0
230
1.0
 40
0.9531667975
 41
3.60524026259063
 42
5.462183310215041
  0
ELLIPSE
  5
D8
330
1F
100
AcDbEntity
  8
0
  6
Continuous
 62
     7
370
    25
100
AcDbEllipse
 10
169.0173417341
 20
80.6171159416
 30
0.0
 11
2.982720217472917
 21
-5.115907697472721E-13
 31
0.0
210
0.0
220
0.0
230
1.0
 40
0.9531667975
 41
0.8210019969646105
 42
2.320590656625484
  0
ELLIPSE
  5
D9
330
1F
100
AcDbEntity
  8
0
  6
Continuous
 62
     7
370
    25
100
AcDbEllipse
 10
171.1101692644
 20
82.7592843486
 30
0.0
 11
0.08824616028022091
 21
2.842170943040400E-14
 31
0.0
210
0.0
220
0.0
230
1.0
 40
0.9531667975
 41
3.962594650553892
 42
5.819537698178563
  0
LINE
  5
DA
330
1F
100
AcDbEntity
  8
0
  6
Continuous
 62
     7
370
    25
100
AcDbLine
 10
172.0177111836
 20
84.3012789191
 30
0.0
 11
171.1890990297
 21
82.7216677328
 31
0.0
  0
LINE
  5
DB
330
1F
100
AcDbEntity
  8
0
  6
Continuous
 62
     7
370
    25
100
AcDbLine
 10
171.9743690775
 20
84.2765106248
 30
0.0
 11
172.0177111836
 21
84.3012789191
 31
0.0
  0
ELLIPSE
  5
DC
330
1F
100
AcDbEntity
  8
0
  6
Continuous
 62
     7
370
    25
100
AcDbEllipse
 10
171.6113562991
 20
84.853640606
 30
0.0
 11
-0.7059692822421083
 21
-1.847411112976260E-13
 31
0.0
210
0.0
220
0.0
230
1.0
 40
0.9531667975
 41
0.3285531705512102
 42
2.110876526947614
  0
LINE
  5
DD
330
1F
100
AcDbEntity
  8
0
  6
Continuous
 62
     7
370
    25
100
AcDbLine
 10
169.6323288576
 20
88.3015070979
 30
0.0
 11
170.943149181
 21
84.6365112291
 31
0.0
  0
ELLIPSE
  5
DE
330
1F
100
AcDbEntity
  8
0
  6
Continuous
 62
     7
370
    25
100
AcDbEllipse
 10
168.7013326677
 20
84.7218454691
 30
0.0
 11
-0.08824616028027776
 21
0.0
 31
0.0
210
0.0
220
0.0
230
1.0
 40
0.9531667975
 41
5.940161364898015
 42
7.853981633974483
  0
LINE
  5
DF
330
1F
100
AcDbEntity
  8
0
  6
Continuous
 62
     7
370
    25
100
AcDbLine
 10
168.9342366286
 20
85.5935220169
 30
0.0
 11
168.6182275601
 21
84.7501358369
 31
0.0
  0
ELLIPSE
  5
E0
330
1F
100
AcDbEntity
  8
0
  6
Continuous
 62
     7
370
    25
100
AcDbEllipse
 10
169.0173417362
 20
85.5652316492
 30
0.0
 11
0.08824616028027776
 21
0.0
 31
0.0
210
0.0
220
0.0
230
1.0
 40
0.9531667975
 41
0.3430239394902863
 42
2.798568712238621
  0
ELLIPSE
  5
E1
330
1F
100
AcDbEntity
  8
0
  6
Continuous
 62
     7
370
    25
100
AcDbEllipse
 10
169.333350801
 20
84.7218454691
 30
0.0
 11
0.08824616028024934
 21
1.421085471520200E-14
 31
0.0
210
0.0
220
0.0
230
1.0
 40
0.9531667975
 41
4.712388980384549
 42
6.626209245739291
  0
LINE
  5
E2
330
1F
100
AcDbEntity
  8
0
  6
Continuous
 62
     7
370
    25
100
AcDbLine
 10
168.7013326677
 20
84.6377321591
 30
0.0
 11
169.333350801
 21
84.6377321591
 31
0.0
  0
LINE
  5
E3
330
1F
100
AcDbEntity
  8
0
  6
Continuous
 62
     7
370
    25
100
AcDbLine
 10
169.4164559087
 20
84.7501358366
 30
0.0
 11
169.1004468439
 21
85.5935220167
 31
0.0
  0
LWPOLYLINE
  5
E4
330
1F
100
AcDbEntity
  8
0
  6
Continuous
 62
     7
370
    25
100
AcDbPolyline
 90
        9
 70
   128
 43
0.0
 10
157.3265565247
 20
102.6752789191
 10
157.3663415126
 20
102.6848862789
 10
157.4045975857
 20
102.7133391529
 10
157.4398545846
 20
102.759544113
 10
157.4707576026
 20
102.8217255286
 10
157.496119054
 20
102.8974938026
 10
157.5149643125
 20
102.983937203
 10
157.5265691654
 20
103.0777337581
 10
157.5304876447
 20
103.1752789191
  0
LWPOLYLINE
  5
E5
330
1F
100
AcDbEntity
  8
0
  6
Continuous
 62
     7
370
    25
100
AcDbPolyline
 90
        9
 70
   128
 43
0.0
 10
166.7073880444
 20
102.6752789191
 10
166.6676030565
 20
102.6848862789
 10
166.6293469834
 20
102.7133391529
 10
166.5940899845
 20
102.759544113
 10
166.5631869666
 20
102.8217255286
 10
166.5378255151
 20
102.8974938026
 10
166.5189802566
 20
102.983937203
 10
166.5073754037
 20
103.0777337581
 10
166.5034569244
 20
103.1752789191
  0
LWPOLYLINE
  5
E6
330
1F
100
AcDbEntity
  8
0
  6
Continuous
 62
     7
370
    25
100
AcDbPolyline
 90
        9
 70
   128
 43
0.0
 10
173.0169722846
 20
96.365694679
 10
173.0265796444
 20
96.3259096911
 10
173.0550325183
 20
96.287653618
 10
173.1012374784
 20
96.2523966191
 10
173.163418894
 20
96.2214936011
 10
173.2391871681
 20
96.1961321497
 10
173.3256305684
 20
96.1772868912
 10
173.4194271236
 20
96.1656820383
 10
173.5169722846
 20
96.161763559
  0
LWPOLYLINE
  5
E7
330
1F
100
AcDbEntity
  8
0
  6
Continuous
 62
     7
370
    25
100
AcDbPolyline
 90
        9
 70
   128
 43
0.0
 10
173.5169722846
 20
87.1887942793
 10
173.4194271236
 20
87.1848758
 10
173.3256305684
 20
87.1732709471
 10
173.2391871681
 20
87.1544256886
 10
173.163418894
 20
87.1290642372
 10
173.1012374784
 20
87.0981612192
 10
173.0550325183
 20
87.0629042203
 10
173.0265796444
 20
87.0246481472
 10
173.0169722846
 20
86.9848631593
  0
ARC
  5
E8
330
1F
100
AcDbEntity
  8
0
  6
Continuous
 62
     7
370
    25
100
AcDbCircle
 10
152.4689173647
 20
103.1355813766
 30
0.0
 40
0.4628040921140764
100
AcDbArc
 50
275.9600073901
 51
4.9206566719
  0
SPLINE
  5
E9
330
1F
100
AcDbEntity
  8
0
  6
Continuous
 62
     7
370
    25
100
AcDbSpline
210
0.0
220
0.0
230
1.0
 70
     8
 71
     3
 72
    10
 73
     6
 74
     0
 42
0.000000001
 43
0.00000001
 40
0.0
 40
0.0
 40
0.0
 40
0.0
 40
0.5
 40
0.5
 40
1.0
 40
1.0
 40
1.0
 40
1.0
 10
173.0169722845687
 20
101.6752789191472
 30
0.0
 10
173.0169722845687
 20
101.6752789191472
 30
0.0
 10
173.0397847371848
 20
101.6745656924842
 30
0.0
 10
173.1278453810209
 20
101.6804651041568
 30
0.0
 10
173.1946404432053
 20
101.6873358594056
 30
0.0
 10
173.2787639978646
 20
101.7101545236159
 30
0.0
  0
SPLINE
  5
EA
330
1F
100
AcDbEntity
  8
0
  6
Continuous
 62
     7
370
    25
100
AcDbSpline
210
0.0
220
0.0
230
1.0
 70
     8
 71
     3
 72
    12
 73
     8
 74
     0
 42
0.000000001
 43
0.00000001
 40
0.0
 40
0.0
 40
0.0
 40
0.0
 40
0.2499999999999999
 40
0.2499999999999999
 40
0.4999999999999998
 40
0.4999999999999998
 40
1.0
 40
1.0
 40
1.0
 40
1.0
 10
173.2787639978646
 20
101.7101545236159
 30
0.0
 10
173.3398701487944
 20
101.72672967602
 30
0.0
 10
173.3829665173676
 20
101.7671787137805
 30
0.0
 10
173.4451200009461
 20
101.8536264126473
 30
0.0
 10
173.4650475614833
 20
101.9002664776526
 30
0.0
 10
173.5088842552701
 20
102.0359838888055
 30
0.0
 10
173.5157067580251
 20
102.121796170473
 30
0.0
 10
173.5169722845682
 20
102.197017682648
 30
0.0
  0
ARC
  5
EB
330
1F
100
AcDbEntity
  8
0
  6
Continuous
 62
     7
370
    25
100
AcDbCircle
 10
173.477274742
 20
82.1272239992
 30
0.0
 40
0.4628040921140505
100
AcDbArc
 50
85.0793433281
 51
174.0399926099
  0
SPLINE
  5
EC
330
1F
100
AcDbEntity
  8
0
  6
Continuous
 62
     7
370
    25
100
AcDbSpline
210
0.0
220
0.0
230
1.0
 70
     8
 71
     3
 72
    12
 73
     8
 74
     0
 42
0.000000001
 43
0.00000001
 40
0.0
 40
0.0
 40
0.0
 40
0.0
 40
0.5
 40
0.5
 40
0.75
 40
0.75
 40
1.0
 40
1.0
 40
1.0
 40
1.0
 10
172.5387110410358
 20
103.1752789197693
 30
0.0
 10
172.4629739384804
 20
103.1740047170634
 30
0.0
 10
172.3774231418268
 20
103.1671063154687
 30
0.0
 10
172.2421101435832
 20
103.123403990845
 30
0.0
 10
172.1956957561294
 20
103.1036186056486
 30
0.0
 10
172.1091860389344
 20
103.0415766050136
 30
0.0
 10
172.0684454285378
 20
102.9982593159042
 30
0.0
 10
172.0518478890374
 20
102.9370706324431
 30
0.0
  0
SPLINE
  5
ED
330
1F
100
AcDbEntity
  8
0
  6
Continuous
 62
     7
370
    25
100
AcDbSpline
210
0.0
220
0.0
230
1.0
 70
     8
 71
     3
 72
    10
 73
     6
 74
     0
 42
0.000000001
 43
0.00000001
 40
0.0
 40
0.0
 40
0.0
 40
0.0
 40
0.5
 40
0.5
 40
1.0
 40
1.0
 40
1.0
 40
1.0
 10
172.0518478890374
 20
102.9370706324431
 30
0.0
 10
172.0290288314716
 20
102.8529456276345
 30
0.0
 10
172.0222827844146
 20
102.7874029520561
 30
0.0
 10
172.0162558037227
 20
102.6986354050932
 30
0.0
 10
172.0169722845687
 20
102.6752789191472
 30
0.0
 10
172.0169722845687
 20
102.6752789191472
 30
0.0
  0
LINE
  5
EE
330
1F
100
AcDbEntity
  8
0
  6
Continuous
 62
     7
370
    25
100
AcDbLine
 10
193.9430628509
 20
91.6752789191
 30
0.0
 11
193.9430628509
 21
99.8726510889
 31
0.0
  0
LINE
  5
EF
330
1F
100
AcDbEntity
  8
0
  6
Continuous
 62
     7
370
    25
100
AcDbLine
 10
193.9430628509
 20
83.4779067493
 30
0.0
 11
193.9430628509
 21
91.6752789191
 31
0.0
  0
LINE
  5
F0
330
1F
100
AcDbEntity
  8
0
  6
Continuous
 62
     7
370
    25
100
AcDbLine
 10
196.0169722846
 20
98.6752789191
 30
0.0
 11
196.0169722846
 21
84.6752789191
 31
0.0
  0
LINE
  5
F1
330
1F
100
AcDbEntity
  8
0
  6
Continuous
 62
     7
370
    25
100
AcDbLine
 10
172.5169722846
 20
81.6318006583
 30
0.0
 11
172.5169722846
 21
81.6752789191
 31
0.0
  0
LINE
  5
F2
330
1F
100
AcDbEntity
  8
0
  6
Continuous
 62
     7
370
    25
100
AcDbLine
 10
152.0169722846
 20
102.1752789191
 30
0.0
 11
151.9734940237
 21
102.1752789191
 31
0.0
  0
SPLINE
  5
F3
330
1F
100
AcDbEntity
  8
0
  6
Continuous
 62
     7
370
    25
100
AcDbSpline
210
0.0
220
0.0
230
1.0
 70
     8
 71
     3
 72
    18
 73
    14
 74
     0
 42
0.000000001
 43
0.00000001
 40
0.0
 40
0.0
 40
0.0
 40
0.0
 40
0.2500000000000008
 40
0.2500000000000008
 40
0.3750000000000006
 40
0.3750000000000006
 40
0.5000000000000003
 40
0.5000000000000003
 40
0.7499999999999999
 40
0.7499999999999999
 40
0.8749999999999999
 40
0.8749999999999999
 40
1.0
 40
1.0
 40
1.0
 40
1.0
 10
155.6354218811433
 20
81.64734655468523
 30
0.0
 10
155.1690068006385
 20
81.68413141643808
 30
0.0
 10
154.7216370325404
 20
81.79940566018354
 30
0.0
 10
154.0801245508641
 20
82.09249346914244
 30
0.0
 10
153.8739966911524
 20
82.20996214394042
 30
0.0
 10
153.4897051645803
 20
82.47653016053044
 30
0.0
 10
153.3095007032853
 20
82.62650431560382
 30
0.0
 10
152.8062043557544
 20
83.12869710134136
 30
0.0
 10
152.5366790650832
 20
83.51627185992962
 30
0.0
 10
152.2411006697092
 20
84.15999708488702
 30
0.0
 10
152.1631758446337
 20
84.37980877214068
 30
0.0
 10
152.046365076183
 20
84.82946499352155
 30
0.0
 10
152.0074360888294
 20
85.0604735813034
 30
0.0
 10
151.9890399201067
 20
85.29372851572178
 30
0.0
  0
SPLINE
  5
F4
330
1F
100
AcDbEntity
  8
0
  6
Continuous
 62
     7
370
    25
100
AcDbSpline
210
0.0
220
0.0
230
1.0
 70
     8
 71
     3
 72
     8
 73
     4
 74
     0
 42
0.000000001
 43
0.00000001
 40
0.0
 40
0.0
 40
0.0
 40
0.0
 40
1.0
 40
1.0
 40
1.0
 40
1.0
 10
151.9889853942349
 20
85.29383768030767
 30
0.0
 10
152.0179272789328
 20
85.30841317613276
 30
0.0
 10
152.0324946198226
 20
85.32298032744472
 30
0.0
 10
152.0313683056726
 20
85.33622004017873
 30
0.0
  0
SPLINE
  5
F5
330
1F
100
AcDbEntity
  8
0
  6
Continuous
 62
     7
370
    25
100
AcDbSpline
210
0.0
220
0.0
230
1.0
 70
     8
 71
     3
 72
     8
 73
     4
 74
     0
 42
0.000000001
 43
0.00000001
 40
0.0
 40
0.0
 40
0.0
 40
0.0
 40
1.0
 40
1.0
 40
1.0
 40
1.0
 10
155.6354218811433
 20
81.64734655468523
 30
0.0
 10
155.6499594387953
 20
81.67626320933765
 30
0.0
 10
155.6644839064613
 20
81.69081818073829
 30
0.0
 10
155.677681269944
 20
81.6896946950472
 30
0.0
  0
LINE
  5
F6
330
1F
100
AcDbEntity
  8
0
  6
Continuous
 62
     7
370
    25
100
AcDbLine
 10
156.0169722846
 20
81.6318006583
 30
0.0
 11
156.0169722846
 21
81.6752789191
 31
0.0
  0
LINE
  5
F7
330
1F
100
AcDbEntity
  8
0
  6
Continuous
 62
     7
370
    25
100
AcDbLine
 10
151.9734940237
 20
85.6752789191
 30
0.0
 11
152.0169722846
 21
85.6752789191
 31
0.0
  0
SPLINE
  5
F8
330
1F
100
AcDbEntity
  8
0
  6
Continuous
 62
     7
370
    25
100
AcDbSpline
210
0.0
220
0.0
230
1.0
 70
     8
 71
     3
 72
    10
 73
     6
 74
     0
 42
0.000000001
 43
0.00000001
 40
0.0
 40
0.0
 40
0.0
 40
0.0
 40
0.5
 40
0.5
 40
1.0
 40
1.0
 40
1.0
 40
1.0
 10
172.062078201192
 20
102.6335762827362
 30
0.0
 10
172.0904282497478
 20
102.4080183349732
 30
0.0
 10
172.199111750643
 20
102.1891489053798
 30
0.0
 10
172.5313969738223
 20
101.8570606564553
 30
0.0
 10
172.7497117009235
 20
101.7487348850274
 30
0.0
 10
172.9752696481577
 20
101.7203848357705
 30
0.0
  0
SPLINE
  5
F9
330
1F
100
AcDbEntity
  8
0
  6
Continuous
 62
     7
370
    25
100
AcDbSpline
210
0.0
220
0.0
230
1.0
 70
     8
 71
     3
 72
     8
 73
     4
 74
     0
 42
0.000000001
 43
0.00000001
 40
0.0
 40
0.0
 40
0.0
 40
0.0
 40
1.0
 40
1.0
 40
1.0
 40
1.0
 10
172.0169722845687
 20
102.6752789191472
 30
0.0
 10
172.0169722845687
 20
102.6473928106334
 30
0.0
 10
172.0181366861621
 20
102.6196161904071
 30
0.0
 10
172.0204503693954
 20
102.5919478170345
 30
0.0
  0
LINE
  5
FA
330
1F
100
AcDbEntity
  8
0
  6
Continuous
 62
     8
370
    25
100
AcDbLine
 10
162.0169722846
 20
110.6752789191
 30
0.0
 11
148.0169722846
 21
110.6752789191
 31
0.0
  0
LINE
  5
FB
330
1F
100
AcDbEntity
  8
0
  6
Continuous
 62
     8
370
    25
100
AcDbLine
 10
176.0169722846
 20
110.6752789191
 30
0.0
 11
162.0169722846
 21
110.6752789191
 31
0.0
  0
LINE
  5
FC
330
1F
100
AcDbEntity
  8
0
  6
Continuous
 62
     8
370
    25
100
AcDbLine
 10
148.7669722846
 20
109.7070330826
 30
0.0
 11
175.2669722846
 21
109.7070330826
 31
0.0
  0
LINE
  5
FD
330
1F
100
AcDbEntity
  8
0
  6
Continuous
 62
     8
370
    25
100
AcDbLine
 10
173.0169722846
 20
106.8022955729
 30
0.0
 11
151.0169722846
 21
106.8022955729
 31
0.0
  0
LINE
  5
FE
330
1F
100
AcDbEntity
  8
0
  6
Continuous
 62
     8
370
    25
100
AcDbLine
 10
177.1439889384
 20
91.6752789191
 30
0.0
 11
177.1439889384
 21
102.6752789191
 31
0.0
  0
LINE
  5
FF
330
1F
100
AcDbEntity
  8
0
  6
Continuous
 62
     8
370
    25
100
AcDbLine
 10
177.1439889384
 20
80.6752789191
 30
0.0
 11
177.1439889384
 21
91.6752789191
 31
0.0
  0
SPLINE
  5
100
330
1F
100
AcDbEntity
  8
0
  6
Continuous
 62
     8
370
    25
100
AcDbSpline
210
0.0
220
0.0
230
1.0
 70
    24
 71
     3
 72
    10
 73
     6
 74
     0
 42
0.000000001
 43
0.00000001
 40
0.0
 40
0.0
 40
0.0
 40
0.0
 40
0.2027173885552038
 40
0.2027173885552038
 40
0.4197141589608902
 40
0.4197141589608902
 40
0.4197141589608902
 40
0.4197141589608902
 10
173.0169722845687
 20
103.6752789191472
 30
0.0
 10
173.0169722845683
 20
103.6752789191468
 30
0.0
 10
172.9413757182055
 20
103.59280993766
 30
0.0
 10
172.6315357346249
 20
103.2548026828449
 30
0.0
 10
172.3860716832641
 20
102.987023717724
 30
0.0
 10
172.0620013817496
 20
102.6334924797082
 30
0.0
  0
SPLINE
  5
101
330
1F
100
AcDbEntity
  8
0
  6
Continuous
 62
     8
370
    25
100
AcDbSpline
210
0.0
220
0.0
230
1.0
 70
     8
 71
     3
 72
    10
 73
     6
 74
     0
 42
0.000000001
 43
0.00000001
 40
-0.4235250761148888
 40
-0.4235250761148888
 40
-0.4235250761148888
 40
-0.4235250761148888
 40
-0.2121320343559643
 40
-0.2121320343559643
 40
0.0
 40
0.0
 40
0.0
 40
0.0
 10
151.9891315501152
 20
85.29378682694619
 30
0.0
 10
151.6707168822482
 20
85.09115507511287
 30
0.0
 10
151.4267507246849
 20
84.9359006065738
 30
0.0
 10
151.0997826839655
 20
84.72782558115493
 30
0.0
 10
151.0169722874946
 20
84.67512690406559
 30
0.0
 10
151.0169722874946
 20
84.67512690406559
 30
0.0
  0
SPLINE
  5
102
330
1F
100
AcDbEntity
  8
0
  6
Continuous
 62
     8
370
    25
100
AcDbSpline
210
0.0
220
0.0
230
1.0
 70
     8
 71
     3
 72
    10
 73
     6
 74
     0
 42
0.000000001
 43
0.00000001
 40
-0.4235250761411895
 40
-0.4235250761411895
 40
-0.4235250761411895
 40
-0.4235250761411895
 40
-0.2113930417852252
 40
-0.2113930417852252
 40
0.0
 40
0.0
 40
0.0
 40
0.0
 10
155.0168202694871
 20
80.67527892207312
 30
0.0
 10
155.0168202694871
 20
80.67527892207312
 30
0.0
 10
155.0695189465764
 20
80.75808931854398
 30
0.0
 10
155.2775939720082
 20
81.0850573592837
 30
0.0
 10
155.432848440573
 20
81.32902351688737
 30
0.0
 10
155.6354801924433
 20
81.64743818481259
 30
0.0
  0
SPLINE
  5
103
330
1F
100
AcDbEntity
  8
0
  6
Continuous
 62
     8
370
    25
100
AcDbSpline
210
0.0
220
0.0
230
1.0
 70
    24
 71
     3
 72
    10
 73
     6
 74
     0
 42
0.000000001
 43
0.00000001
 40
0.0
 40
0.0
 40
0.0
 40
0.0
 40
0.2169967701183235
 40
0.2169967701183235
 40
0.4197141586735273
 40
0.4197141586735273
 40
0.4197141586735273
 40
0.4197141586735273
 10
172.9751858465342
 20
101.7203080176156
 30
0.0
 10
173.3287170838547
 20
102.0443783184927
 30
0.0
 10
173.5964960484979
 20
102.2898423694156
 30
0.0
 10
173.9345033030816
 20
102.599682352784
 30
0.0
 10
174.0169722845683
 20
102.6752789191468
 30
0.0
 10
174.0169722845687
 20
102.6752789191472
 30
0.0
  0
LINE
  5
104
330
1F
100
AcDbEntity
  8
0
  6
Continuous
 62
     7
370
    18
100
AcDbLine
 10
195.1471686481
 20
84.1730975555
 30
0.0
 11
183.0169722846
 21
83.7940289191
 31
0.0
  0
LINE
  5
105
330
1F
100
AcDbEntity
  8
0
  6
Continuous
 62
     7
370
    18
100
AcDbLine
 10
195.1471686481
 20
99.1774602828
 30
0.0
 11
183.0169722846
 21
99.5565289191
 31
0.0
  0
LINE
  5
106
330
1F
100
AcDbEntity
  8
0
  6
Continuous
 62
     7
370
    18
100
AcDbLine
 10
183.0169722846
 20
100.2140914191
 30
0.0
 11
183.0169722846
 21
83.1364664191
 31
0.0
  0
LINE
  5
107
330
1F
100
AcDbEntity
  8
0
  6
CENTERX2
 62
     7
370
    18
100
AcDbLine
 10
162.0169722846
 20
126.6752789191
 30
0.0
 11
162.0169722846
 21
78.4690578291
 31
0.0
  0
LINE
  5
108
330
1F
100
AcDbEntity
  8
0
  6
CENTERX2
 62
     7
370
    18
100
AcDbLine
 10
148.7488106161
 20
91.6752789191
 30
0.0
 11
181.0169722846
 21
91.6752789191
 31
0.0
  0
LINE
  5
109
330
1F
100
AcDbEntity
  8
0
  6
CENTERX2
 62
     7
370
    18
100
AcDbLine
 10
193.9430628509
 20
91.6752789191
 30
0.0
 11
181.0169722846
 21
91.6752789191
 31
0.0
  0
LINE
  5
10A
330
1F
100
AcDbEntity
  8
0
  6
CENTERX2
 62
     7
370
    18
100
AcDbLine
 10
193.9430628509
 20
91.6752789191
 30
0.0
 11
198.0169722846
 21
91.6752789191
 31
0.0
  0
ARC
  5
10B
330
1F
100
AcDbEntity
  8
0
  6
Continuous
 62
     7
370
    25
100
AcDbCircle
 10
218.840267455
 20
110.6752789191
 30
0.0
 40
1.0
100
AcDbArc
 50
180.0
 51
255.5224878141
  0
ARC
  5
10C
330
1F
100
AcDbEntity
  8
0
  6
Continuous
 62
     7
370
    25
100
AcDbCircle
 10
244.840267455
 20
110.6752789191
 30
0.0
 40
1.0
100
AcDbArc
 50
284.4775121859
 51
0.0
  0
LINE
  5
10D
330
1F
100
AcDbEntity
  8
0
  6
Continuous
 62
     7
370
    25
100
AcDbLine
 10
245.840267455
 20
110.6752789191
 30
0.0
 11
245.840267455
 21
124.6752789191
 31
0.0
  0
LINE
  5
10E
330
1F
100
AcDbEntity
  8
0
  6
Continuous
 62
     7
370
    25
100
AcDbLine
 10
217.840267455
 20
124.6752789191
 30
0.0
 11
217.840267455
 21
110.6752789191
 31
0.0
  0
LINE
  5
10F
330
1F
100
AcDbEntity
  8
0
  6
Continuous
 62
     7
370
    25
100
AcDbLine
 10
245.840267455
 20
124.6752789191
 30
0.0
 11
244.840267455
 21
125.6752789191
 31
0.0
  0
LINE
  5
110
330
1F
100
AcDbEntity
  8
0
  6
Continuous
 62
     7
370
    25
100
AcDbLine
 10
218.840267455
 20
125.6752789191
 30
0.0
 11
217.840267455
 21
124.6752789191
 31
0.0
  0
ARC
  5
111
330
1F
100
AcDbEntity
  8
0
  6
Continuous
 62
     7
370
    25
100
AcDbCircle
 10
217.840267455
 20
106.8022955729
 30
0.0
 40
3.0
100
AcDbArc
 50
0.0
 51
75.5224878141
  0
ARC
  5
112
330
1F
100
AcDbEntity
  8
0
  6
Continuous
 62
     7
370
    25
100
AcDbCircle
 10
245.840267455
 20
106.8022955729
 30
0.0
 40
3.0
100
AcDbArc
 50
104.4775121859
 51
180.0
  0
LINE
  5
113
330
1F
100
AcDbEntity
  8
0
  6
Continuous
 62
     7
370
    25
100
AcDbLine
 10
242.840267455
 20
102.6752789191
 30
0.0
 11
242.840267455
 21
106.8022955729
 31
0.0
  0
LINE
  5
114
330
1F
100
AcDbEntity
  8
0
  6
Continuous
 62
     7
370
    25
100
AcDbLine
 10
220.840267455
 20
106.8022955729
 30
0.0
 11
220.840267455
 21
102.6752789191
 31
0.0
  0
ARC
  5
115
330
1F
100
AcDbEntity
  8
0
  6
Continuous
 62
     7
370
    25
100
AcDbCircle
 10
242.640267455
 20
91.1335364886
 30
0.0
 40
0.5
100
AcDbArc
 50
329.1893365284
 51
0.0
  0
ARC
  5
116
330
1F
100
AcDbEntity
  8
0
  6
Continuous
 62
     7
370
    25
100
AcDbCircle
 10
242.640267455
 20
92.2170213497
 30
0.0
 40
0.500000000000001
100
AcDbArc
 50
0.0
 51
30.8106634716
  0
CIRCLE
  5
117
330
1F
100
AcDbEntity
  8
0
  6
Continuous
 62
     7
370
    25
100
AcDbCircle
 10
231.840267455
 20
91.6752789191
 30
0.0
 40
7.000000000000028
  0
CIRCLE
  5
118
330
1F
100
AcDbEntity
  8
0
  6
Continuous
 62
     7
370
    25
100
AcDbCircle
 10
231.840267455
 20
91.6752789191
 30
0.0
 40
5.5
  0
CIRCLE
  5
119
330
1F
100
AcDbEntity
  8
0
  6
Continuous
 62
     7
370
    25
100
AcDbCircle
 10
231.840267455
 20
91.6752789191
 30
0.0
 40
5.0
  0
CIRCLE
  5
11A
330
1F
100
AcDbEntity
  8
0
  6
Continuous
 62
     7
370
    25
100
AcDbCircle
 10
231.840267455
 20
91.6752789191
 30
0.0
 40
8.197372169802065
  0
CIRCLE
  5
11B
330
1F
100
AcDbEntity
  8
0
  6
Continuous
 62
     7
370
    25
100
AcDbCircle
 10
231.840267455
 20
91.6752789191
 30
0.0
 40
8.601312500000006
  0
CIRCLE
  5
11C
330
1F
100
AcDbEntity
  8
0
  6
Continuous
 62
     7
370
    25
100
AcDbCircle
 10
231.840267455
 20
91.6752789191
 30
0.0
 40
11.25773975176182
  0
LINE
  5
11D
330
1F
100
AcDbEntity
  8
0
  6
Continuous
 62
     7
370
    25
100
AcDbLine
 10
231.840267455
 20
124.6752789191
 30
0.0
 11
217.840267455
 21
124.6752789191
 31
0.0
  0
LINE
  5
11E
330
1F
100
AcDbEntity
  8
0
  6
Continuous
 62
     7
370
    25
100
AcDbLine
 10
245.840267455
 20
124.6752789191
 30
0.0
 11
231.840267455
 21
124.6752789191
 31
0.0
  0
LINE
  5
11F
330
1F
100
AcDbEntity
  8
0
  6
Continuous
 62
     7
370
    25
100
AcDbLine
 10
231.840267455
 20
125.6752789191
 30
0.0
 11
244.840267455
 21
125.6752789191
 31
0.0
  0
LINE
  5
120
330
1F
100
AcDbEntity
  8
0
  6
Continuous
 62
     7
370
    25
100
AcDbLine
 10
218.840267455
 20
125.6752789191
 30
0.0
 11
231.840267455
 21
125.6752789191
 31
0.0
  0
SPLINE
  5
121
330
1F
100
AcDbEntity
  8
0
  6
Continuous
 62
     7
370
    25
100
AcDbSpline
210
0.0
220
0.0
230
1.0
 70
     8
 71
     3
 72
    15
 73
    11
 74
     0
 42
0.000000001
 43
0.00000001
 40
-0.4197141586735239
 40
-0.4197141586735239
 40
-0.4197141586735239
 40
-0.4197141586735239
 40
-0.2027173885552038
 40
-0.2027173885552038
 40
0.0
 40
0.0
 40
0.0
 40
0.2027173885552038
 40
0.2027173885552038
 40
0.4197141589608902
 40
0.4197141589608902
 40
0.4197141589608902
 40
0.4197141589608902
 10
236.3226701385002
 20
102.6334924811127
 30
0.0
 10
235.5960150897779
 20
102.9870237184332
 30
0.0
 10
234.83427970593
 20
103.2548026830765
 30
0.0
 10
233.3268407579764
 20
103.5928099376609
 30
0.0
 10
232.5835645463543
 20
103.6752789191472
 30
0.0
 10
231.8402674549852
 20
103.6752789191472
 30
0.0
 10
231.0969703636162
 20
103.6752789191472
 30
0.0
 10
230.353694151994
 20
103.5928099376609
 30
0.0
 10
228.8462552030084
 20
103.2548026828451
 30
0.0
 10
228.084519818175
 20
102.987023717724
 30
0.0
 10
227.3578647685834
 20
102.6334924797082
 30
0.0
  0
SPLINE
  5
122
330
1F
100
AcDbEntity
  8
0
  6
Continuous
 62
     7
370
    25
100
AcDbSpline
210
0.0
220
0.0
230
1.0
 70
     8
 71
     3
 72
     8
 73
     4
 74
     0
 42
0.000000001
 43
0.00000001
 40
0.0
 40
0.0
 40
0.0
 40
0.0
 40
1.0
 40
1.0
 40
1.0
 40
1.0
 10
221.0789155337231
 20
94.95399818129818
 30
0.0
 10
221.1491796578728
 20
95.42643913725196
 30
0.0
 10
221.2357090724161
 20
95.89756431561139
 30
0.0
 10
221.3402674549852
 20
96.36569467897063
 30
0.0
  0
SPLINE
  5
123
330
1F
100
AcDbEntity
  8
0
  6
Continuous
 62
     7
370
    25
100
AcDbSpline
210
0.0
220
0.0
230
1.0
 70
     8
 71
     3
 72
     8
 73
     4
 74
     0
 42
0.000000001
 43
0.00000001
 40
0.0
 40
0.0
 40
0.0
 40
0.0
 40
1.0
 40
1.0
 40
1.0
 40
1.0
 10
242.6016193762474
 20
88.39655965699622
 30
0.0
 10
242.5313552520976
 20
87.92411870104243
 30
0.0
 10
242.4448258375544
 20
87.452993522683
 30
0.0
 10
242.3402674549853
 20
86.98486315932375
 30
0.0
  0
SPLINE
  5
124
330
1F
100
AcDbEntity
  8
0
  6
Continuous
 62
     7
370
    25
100
AcDbSpline
210
0.0
220
0.0
230
1.0
 70
     8
 71
     3
 72
     8
 73
     4
 74
     0
 42
0.000000001
 43
0.00000001
 40
0.0
 40
0.0
 40
0.0
 40
0.0
 40
1.0
 40
1.0
 40
1.0
 40
1.0
 10
221.3402674549852
 20
86.98486315932377
 30
0.0
 10
221.235688063728
 20
87.45308758309731
 30
0.0
 10
221.1491871883881
 20
87.92406806746693
 30
0.0
 10
221.0789155337231
 20
88.39655965699619
 30
0.0
  0
SPLINE
  5
125
330
1F
100
AcDbEntity
  8
0
  6
Continuous
 62
     7
370
    25
100
AcDbSpline
210
0.0
220
0.0
230
1.0
 70
     8
 71
     3
 72
     8
 73
     4
 74
     0
 42
0.000000001
 43
0.00000001
 40
0.0
 40
0.0
 40
0.0
 40
0.0
 40
1.0
 40
1.0
 40
1.0
 40
1.0
 10
242.3402674549853
 20
96.36569467897063
 30
0.0
 10
242.4448468462425
 20
95.89747025519706
 30
0.0
 10
242.5313477215823
 20
95.42648977082746
 30
0.0
 10
242.6016193762474
 20
94.9539981812982
 30
0.0
  0
ARC
  5
126
330
1F
100
AcDbEntity
  8
0
  6
Continuous
 62
     7
370
    25
100
AcDbCircle
 10
231.840267455
 20
91.6752789191
 30
0.0
 40
11.5
100
AcDbArc
 50
119.591845794
 51
155.9293853774
  0
SPLINE
  5
127
330
1F
100
AcDbEntity
  8
0
  6
Continuous
 62
     7
370
    25
100
AcDbSpline
210
0.0
220
0.0
230
1.0
 70
     8
 71
     3
 72
     9
 73
     5
 74
     0
 42
0.000000001
 43
0.00000001
 40
0.0
 40
0.0
 40
0.0
 40
0.0
 40
0.6195547616831237
 40
1.0
 40
1.0
 40
1.0
 40
1.0
 10
226.161359109185
 20
101.6752789191472
 30
0.0
 10
226.2800723458734
 20
101.6747872746741
 30
0.0
 10
226.4716829088622
 20
101.673993729852
 30
0.0
 10
226.6552829344834
 20
101.6781930928452
 30
0.0
 10
226.7251326899858
 20
101.6797907204999
 30
0.0
  0
ARC
  5
128
330
1F
100
AcDbEntity
  8
0
  6
Continuous
 62
     7
370
    25
100
AcDbCircle
 10
231.840267455
 20
91.6752789191
 30
0.0
 40
11.50000000000002
100
AcDbArc
 50
24.0706146226
 51
56.4648070287
  0
ARC
  5
129
330
1F
100
AcDbEntity
  8
0
  6
Continuous
 62
     7
370
    25
100
AcDbCircle
 10
231.840267455
 20
91.6752789191
 30
0.0
 40
11.50000000000001
100
AcDbArc
 50
204.0706146226
 51
235.6988472432
  0
ARC
  5
12A
330
1F
100
AcDbEntity
  8
0
  6
Continuous
 62
     7
370
    25
100
AcDbCircle
 10
231.840267455
 20
91.6752789191
 30
0.0
 40
11.50000000000003
100
AcDbArc
 50
304.3011527568
 51
335.9293853774
  0
LINE
  5
12B
330
1F
100
AcDbEntity
  8
0
  6
Continuous
 62
     7
370
    25
100
AcDbLine
 10
226.1613591092
 20
101.6752789191
 30
0.0
 11
221.340267455
 21
101.6752789191
 31
0.0
  0
LINE
  5
12C
330
1F
100
AcDbEntity
  8
0
  6
Continuous
 62
     7
370
    25
100
AcDbLine
 10
221.340267455
 20
102.6752789191
 30
0.0
 11
221.340267455
 21
101.6752789191
 31
0.0
  0
LINE
  5
12D
330
1F
100
AcDbEntity
  8
0
  6
Continuous
 62
     7
370
    25
100
AcDbLine
 10
226.1613591092
 20
102.6752789191
 30
0.0
 11
221.340267455
 21
102.6752789191
 31
0.0
  0
SPLINE
  5
12E
330
1F
100
AcDbEntity
  8
0
  6
Continuous
 62
     7
370
    25
100
AcDbSpline
210
0.0
220
0.0
230
1.0
 70
     8
 71
     3
 72
    10
 73
     6
 74
     0
 42
0.000000001
 43
0.00000001
 40
0.0
 40
0.0
 40
0.0
 40
0.0
 40
0.5
 40
0.5
 40
1.0
 40
1.0
 40
1.0
 40
1.0
 10
227.1890845864956
 20
102.9370706324431
 30
0.0
 10
227.0314546410548
 20
102.8529456276345
 30
0.0
 10
226.8664045512347
 20
102.7874029520561
 30
0.0
 10
226.520964862757
 20
102.6986354050932
 30
0.0
 10
226.3413217564458
 20
102.6752789191472
 30
0.0
 10
226.161359109185
 20
102.6752789191472
 30
0.0
  0
SPLINE
  5
12F
330
1F
100
AcDbEntity
  8
0
  6
Continuous
 62
     7
370
    25
100
AcDbSpline
210
0.0
220
0.0
230
1.0
 70
     8
 71
     3
 72
     8
 73
     4
 74
     0
 42
0.000000001
 43
0.00000001
 40
0.0
 40
0.0
 40
0.0
 40
0.0
 40
1.0
 40
1.0
 40
1.0
 40
1.0
 10
227.1537466739008
 20
102.5919477560961
 30
0.0
 10
227.1428101917179
 20
102.7086761146877
 30
0.0
 10
227.1557021076291
 20
102.8282203804155
 30
0.0
 10
227.1890845864952
 20
102.9370706324432
 30
0.0
  0
SPLINE
  5
130
330
1F
100
AcDbEntity
  8
0
  6
Continuous
 62
     7
370
    25
100
AcDbSpline
210
0.0
220
0.0
230
1.0
 70
    24
 71
     3
 72
     8
 73
     4
 74
     0
 42
0.000000001
 43
0.00000001
 40
0.0
 40
0.0
 40
0.0
 40
0.0
 40
1.0
 40
1.0
 40
1.0
 40
1.0
 10
220.8402674549852
 20
88.39655965699619
 30
0.0
 10
220.8402674549852
 20
88.73158475846846
 30
0.0
 10
220.8402674549852
 20
89.06461612394621
 30
0.0
 10
220.8402674549852
 20
89.39669766372464
 30
0.0
  0
LINE
  5
131
330
1F
100
AcDbEntity
  8
0
  6
Continuous
 62
     7
370
    25
100
AcDbLine
 10
220.840267455
 20
88.396559657
 30
0.0
 11
221.0789155337
 21
88.396559657
 31
0.0
  0
LINE
  5
132
330
1F
100
AcDbEntity
  8
0
  6
Continuous
 62
     7
370
    25
100
AcDbLine
 10
242.840267455
 20
88.396559657
 30
0.0
 11
242.6016193762
 21
88.396559657
 31
0.0
  0
LINE
  5
133
330
1F
100
AcDbEntity
  8
0
  6
Continuous
 62
     7
370
    25
100
AcDbLine
 10
242.840267455
 20
89.3701499996
 30
0.0
 11
242.840267455
 21
88.396559657
 31
0.0
  0
LINE
  5
134
330
1F
100
AcDbEntity
  8
0
  6
Continuous
 62
     7
370
    25
100
AcDbLine
 10
220.840267455
 20
94.9539981813
 30
0.0
 11
221.0789155337
 21
94.9539981813
 31
0.0
  0
LINE
  5
135
330
1F
100
AcDbEntity
  8
0
  6
Continuous
 62
     7
370
    25
100
AcDbLine
 10
220.840267455
 20
94.053876098
 30
0.0
 11
220.840267455
 21
94.9539981813
 31
0.0
  0
LINE
  5
136
330
1F
100
AcDbEntity
  8
0
  6
Continuous
 62
     7
370
    25
100
AcDbLine
 10
242.840267455
 20
94.9539981813
 30
0.0
 11
242.6016193762
 21
94.9539981813
 31
0.0
  0
LINE
  5
137
330
1F
100
AcDbEntity
  8
0
  6
Continuous
 62
     7
370
    25
100
AcDbLine
 10
242.840267455
 20
94.9539981813
 30
0.0
 11
242.840267455
 21
93.9597301599
 31
0.0
  0
SPLINE
  5
138
330
1F
100
AcDbEntity
  8
0
  6
Continuous
 62
     7
370
    25
100
AcDbSpline
210
0.0
220
0.0
230
1.0
 70
     8
 71
     3
 72
     8
 73
     4
 74
     0
 42
0.000000001
 43
0.00000001
 40
0.0
 40
0.0
 40
0.0
 40
0.0
 40
1.0
 40
1.0
 40
1.0
 40
1.0
 10
227.1537466739008
 20
102.5919477560961
 30
0.0
 10
227.2237807328035
 20
102.6049798520049
 30
0.0
 10
227.2937761559193
 20
102.6192926446549
 30
0.0
 10
227.3575084469914
 20
102.6336133376216
 30
0.0
  0
SPLINE
  5
139
330
1F
100
AcDbEntity
  8
0
  6
Continuous
 62
     7
370
    25
100
AcDbSpline
210
0.0
220
0.0
230
1.0
 70
     8
 71
     3
 72
    12
 73
     8
 74
     0
 42
0.000000001
 43
0.00000001
 40
0.0
 40
0.0
 40
0.0
 40
0.0
 40
0.25
 40
0.25
 40
0.5
 40
0.5
 40
1.0
 40
1.0
 40
1.0
 40
1.0
 10
242.3837233043564
 20
103.0277932551031
 30
0.0
 10
242.4586454455842
 20
102.9797680378913
 30
0.0
 10
242.5248089004537
 20
102.9430837678575
 30
0.0
 10
242.6387634278097
 20
102.87710987536
 30
0.0
 10
242.6866192333838
 20
102.8483582427288
 30
0.0
 10
242.8016745269154
 20
102.7678033439909
 30
0.0
 10
242.8402674549853
 20
102.7216718638598
 30
0.0
 10
242.8402674549853
 20
102.6752789191472
 30
0.0
  0
SPLINE
  5
13A
330
1F
100
AcDbEntity
  8
0
  6
Continuous
 62
     7
370
    25
100
AcDbSpline
210
0.0
220
0.0
230
1.0
 70
     8
 71
     3
 72
     8
 73
     4
 74
     0
 42
0.000000001
 43
0.00000001
 40
0.0
 40
0.0
 40
0.0
 40
0.0
 40
1.0
 40
1.0
 40
1.0
 40
1.0
 10
241.8837457158548
 20
103.1752789191472
 30
0.0
 10
242.0819860476695
 20
103.1752789191472
 30
0.0
 10
242.2476999764471
 20
103.1149844346616
 30
0.0
 10
242.3837233043564
 20
103.0277932551031
 30
0.0
  0
LINE
  5
13B
330
1F
100
AcDbEntity
  8
0
  6
Continuous
 62
     7
370
    25
100
AcDbLine
 10
235.0485413102
 20
103.1752789191
 30
0.0
 11
241.8837457159
 21
103.1752789191
 31
0.0
  0
SPLINE
  5
13C
330
1F
100
AcDbEntity
  8
0
  6
Continuous
 62
     7
370
    25
100
AcDbSpline
210
0.0
220
0.0
230
1.0
 70
     8
 71
     3
 72
    14
 73
    10
 74
     0
 42
0.000000001
 43
0.00000001
 40
0.0
 40
0.0
 40
0.0
 40
0.0
 40
0.125
 40
0.125
 40
0.25
 40
0.25
 40
0.4999999999999998
 40
0.4999999999999998
 40
1.0
 40
1.0
 40
1.0
 40
1.0
 10
236.3230264684402
 20
102.6336133680908
 30
0.0
 10
236.3349786706358
 20
102.700297444479
 30
0.0
 10
236.3146727575147
 20
102.7694704900749
 30
0.0
 10
236.2420634665803
 20
102.8773710779105
 30
0.0
 10
236.192769534349
 20
102.9194017917905
 30
0.0
 10
236.0343022027577
 20
103.0240312869017
 30
0.0
 10
235.9164564969208
 20
103.0655659565788
 30
0.0
 10
235.5529445234054
 20
103.1590448830488
 30
0.0
 10
235.3031341224385
 20
103.1752787944863
 30
0.0
 10
235.0485413101694
 20
103.1752789191466
 30
0.0
  0
SPLINE
  5
13D
330
1F
100
AcDbEntity
  8
0
  6
Continuous
 62
     7
370
    25
100
AcDbSpline
210
0.0
220
0.0
230
1.0
 70
     8
 71
     3
 72
    14
 73
    10
 74
     0
 42
0.000000001
 43
0.00000001
 40
0.0
 40
0.0
 40
0.0
 40
0.0
 40
0.4999999999999986
 40
0.4999999999999986
 40
0.7499999999999978
 40
0.7499999999999978
 40
0.8749999999999989
 40
0.8749999999999989
 40
1.0
 40
1.0
 40
1.0
 40
1.0
 10
228.6319935994563
 20
103.1752789191466
 30
0.0
 10
228.3774007824994
 20
103.1752787944685
 30
0.0
 10
228.1275903777
 20
103.1590448823846
 30
0.0
 10
227.7640784012656
 20
103.0655659527407
 30
0.0
 10
227.6462326920391
 20
103.0240312812724
 30
0.0
 10
227.4877653577735
 20
102.9194017778115
 30
0.0
 10
227.438471426087
 20
102.8773710609405
 30
0.0
 10
227.365862140988
 20
102.7694704642901
 30
0.0
 10
227.3455562360416
 20
102.7002974136484
 30
0.0
 10
227.3575084469914
 20
102.6336133376216
 30
0.0
  0
LINE
  5
13E
330
1F
100
AcDbEntity
  8
0
  6
Continuous
 62
     7
370
    25
100
AcDbLine
 10
221.7967891941
 20
103.1752789191
 30
0.0
 11
228.6319935995
 21
103.1752789191
 31
0.0
  0
SPLINE
  5
13F
330
1F
100
AcDbEntity
  8
0
  6
Continuous
 62
     7
370
    25
100
AcDbSpline
210
0.0
220
0.0
230
1.0
 70
     8
 71
     3
 72
     8
 73
     4
 74
     0
 42
0.000000001
 43
0.00000001
 40
0.0
 40
0.0
 40
0.0
 40
0.0
 40
1.0
 40
1.0
 40
1.0
 40
1.0
 10
221.2968116056142
 20
103.0277932551031
 30
0.0
 10
221.4328349335234
 20
103.1149844346616
 30
0.0
 10
221.598548862301
 20
103.1752789191472
 30
0.0
 10
221.7967891941157
 20
103.1752789191472
 30
0.0
  0
SPLINE
  5
140
330
1F
100
AcDbEntity
  8
0
  6
Continuous
 62
     7
370
    25
100
AcDbSpline
210
0.0
220
0.0
230
1.0
 70
     8
 71
     3
 72
    12
 73
     8
 74
     0
 42
0.000000001
 43
0.00000001
 40
0.0
 40
0.0
 40
0.0
 40
0.0
 40
0.25
 40
0.25
 40
0.5
 40
0.5
 40
1.0
 40
1.0
 40
1.0
 40
1.0
 10
221.2968116056142
 20
103.0277932551031
 30
0.0
 10
221.2218633280764
 20
102.9797512844732
 30
0.0
 10
221.1556798729736
 20
102.9430576418296
 30
0.0
 10
221.0416983675489
 20
102.8770669604049
 30
0.0
 10
220.9938169305721
 20
102.8482934722279
 30
0.0
 10
220.8788934646581
 20
102.7678177652172
 30
0.0
 10
220.8402674549852
 20
102.7216880619739
 30
0.0
 10
220.8402674549852
 20
102.6752789191472
 30
0.0
  0
LINE
  5
141
330
1F
100
AcDbEntity
  8
0
  6
Continuous
 62
     7
370
    25
100
AcDbLine
 10
242.340267455
 20
101.2610653568
 30
0.0
 11
242.340267455
 21
101.7324698776
 31
0.0
  0
LINE
  5
142
330
1F
100
AcDbEntity
  8
0
  6
Continuous
 62
     7
370
    25
100
AcDbLine
 10
242.340267455
 20
101.2610653568
 30
0.0
 11
238.1934318927
 21
101.2610653568
 31
0.0
  0
LINE
  5
143
330
1F
100
AcDbEntity
  8
0
  6
Continuous
 62
     7
370
    25
100
AcDbLine
 10
242.840267455
 20
101.2610653568
 30
0.0
 11
242.340267455
 21
101.2610653568
 31
0.0
  0
LINE
  5
144
330
1F
100
AcDbEntity
  8
0
  6
Continuous
 62
     7
370
    25
100
AcDbLine
 10
242.340267455
 20
96.365694679
 30
0.0
 11
242.340267455
 21
101.2610653568
 31
0.0
  0
LINE
  5
145
330
1F
100
AcDbEntity
  8
0
  6
Continuous
 62
     7
370
    25
100
AcDbLine
 10
242.840267455
 20
101.2610653568
 30
0.0
 11
242.840267455
 21
94.9539981813
 31
0.0
  0
ARC
  5
146
330
1F
100
AcDbEntity
  8
0
  6
Continuous
 62
     7
370
    25
100
AcDbCircle
 10
242.3541563439
 20
101.2463339655
 30
0.0
 40
0.4863342741722269
100
AcDbArc
 50
1.7357930889
 51
91.6364935946
  0
SPLINE
  5
147
330
1F
100
AcDbEntity
  8
0
  6
Continuous
 62
     7
370
    25
100
AcDbSpline
210
0.0
220
0.0
230
1.0
 70
     8
 71
     3
 72
    12
 73
     8
 74
     0
 42
0.000000001
 43
0.00000001
 40
0.0
 40
0.0
 40
0.0
 40
0.0
 40
0.2499999999999999
 40
0.2499999999999999
 40
0.4999999999999999
 40
0.4999999999999999
 40
1.0
 40
1.0
 40
1.0
 40
1.0
 10
221.3402674549852
 20
102.6752789191472
 30
0.0
 10
221.264081609847
 20
102.6752789191472
 30
0.0
 10
221.1907072650299
 20
102.6574516234509
 30
0.0
 10
221.0645337618287
 20
102.5981615241965
 30
0.0
 10
221.011806838933
 20
102.5575640128334
 30
0.0
 10
220.8841624106047
 20
102.4162794691444
 30
0.0
 10
220.8402674549852
 20
102.2974409799582
 30
0.0
 10
220.8402674549852
 20
102.1752789191472
 30
0.0
  0
SPLINE
  5
148
330
1F
100
AcDbEntity
  8
0
  6
Continuous
 62
     7
370
    25
100
AcDbSpline
210
0.0
220
0.0
230
1.0
 70
     8
 71
     3
 72
    12
 73
     8
 74
     0
 42
0.000000001
 43
0.00000001
 40
0.0
 40
0.0
 40
0.0
 40
0.0
 40
0.2499999999999993
 40
0.2499999999999993
 40
0.4999999999999987
 40
0.4999999999999987
 40
1.0
 40
1.0
 40
1.0
 40
1.0
 10
221.3402674549852
 20
101.6752789191472
 30
0.0
 10
221.264081609847
 20
101.6752789191472
 30
0.0
 10
221.1907072650299
 20
101.6572134912562
 30
0.0
 10
221.0645337618287
 20
101.600552249721
 30
0.0
 10
221.011806838933
 20
101.5630298901989
 30
0.0
 10
220.8841624106047
 20
101.4405031261059
 30
0.0
 10
220.8402674549852
 20
101.3475283176094
 30
0.0
 10
220.8402674549852
 20
101.2610653567741
 30
0.0
  0
LINE
  5
149
330
1F
100
AcDbEntity
  8
0
  6
Continuous
 62
     7
370
    25
100
AcDbLine
 10
220.840267455
 20
101.2610653568
 30
0.0
 11
220.840267455
 21
102.1752789191
 31
0.0
  0
LINE
  5
14A
330
1F
100
AcDbEntity
  8
0
  6
Continuous
 62
     7
370
    25
100
AcDbLine
 10
221.340267455
 20
101.6752789191
 30
0.0
 11
221.340267455
 21
96.365694679
 31
0.0
  0
LINE
  5
14B
330
1F
100
AcDbEntity
  8
0
  6
Continuous
 62
     7
370
    25
100
AcDbLine
 10
220.840267455
 20
94.9539981813
 30
0.0
 11
220.840267455
 21
101.2610653568
 31
0.0
  0
SPLINE
  5
14C
330
1F
100
AcDbEntity
  8
0
  6
Continuous
 62
     7
370
    25
100
AcDbSpline
210
0.0
220
0.0
230
1.0
 70
     8
 71
     3
 72
    12
 73
     8
 74
     0
 42
0.000000001
 43
0.00000001
 40
0.0
 40
0.0
 40
0.0
 40
0.0
 40
0.5
 40
0.5
 40
0.75
 40
0.75
 40
1.0
 40
1.0
 40
1.0
 40
1.0
 10
228.6319947825551
 20
103.1752789197693
 30
0.0
 10
228.3836100320665
 20
103.1740047170634
 30
0.0
 10
228.1375686665393
 20
103.1671063154686
 30
0.0
 10
227.7760628589039
 20
103.123403990845
 30
0.0
 10
227.6568785123479
 20
103.1036186056485
 30
0.0
 10
227.4197400558519
 20
103.0415766050136
 30
0.0
 10
227.303737404139
 20
102.9982593159042
 30
0.0
 10
227.1890845864956
 20
102.9370706324431
 30
0.0
  0
SPLINE
  5
14D
330
1F
100
AcDbEntity
  8
0
  6
Continuous
 62
     7
370
    25
100
AcDbSpline
210
0.0
220
0.0
230
1.0
 70
     8
 71
     3
 72
     8
 73
     4
 74
     0
 42
0.000000001
 43
0.00000001
 40
0.0
 40
0.0
 40
0.0
 40
0.0
 40
1.0
 40
1.0
 40
1.0
 40
1.0
 10
236.4914503234749
 20
102.9370706324431
 30
0.0
 10
236.5248327964998
 20
102.8282203994617
 30
0.0
 10
236.5377247141047
 20
102.7086761565386
 30
0.0
 10
236.5267882417797
 20
102.5919478170345
 30
0.0
  0
SPLINE
  5
14E
330
1F
100
AcDbEntity
  8
0
  6
Continuous
 62
     7
370
    25
100
AcDbSpline
210
0.0
220
0.0
230
1.0
 70
     8
 71
     3
 72
     8
 73
     4
 74
     0
 42
0.000000001
 43
0.00000001
 40
0.0
 40
0.0
 40
0.0
 40
0.0
 40
1.0
 40
1.0
 40
1.0
 40
1.0
 10
236.5261912569892
 20
102.5920738280392
 30
0.0
 10
236.4561760422345
 20
102.6050289530647
 30
0.0
 10
236.3861993823357
 20
102.6192616850352
 30
0.0
 10
236.3224785478144
 20
102.6335074773854
 30
0.0
  0
SPLINE
  5
14F
330
1F
100
AcDbEntity
  8
0
  6
Continuous
 62
     7
370
    25
100
AcDbSpline
210
0.0
220
0.0
230
1.0
 70
     8
 71
     3
 72
    12
 73
     8
 74
     0
 42
0.000000001
 43
0.00000001
 40
0.0
 40
0.0
 40
0.0
 40
0.0
 40
0.2500000000000003
 40
0.2500000000000003
 40
0.5000000000000006
 40
0.5000000000000006
 40
1.0
 40
1.0
 40
1.0
 40
1.0
 10
236.4914503234749
 20
102.9370706324431
 30
0.0
 10
236.3769521536106
 20
102.9981767824419
 30
0.0
 10
236.2617101685542
 20
103.0412731506409
 30
0.0
 10
236.0246327698264
 20
103.1034266339889
 30
0.0
 10
235.9048728332227
 20
103.1233541945969
 30
0.0
 10
235.5422889120825
 20
103.1671908887709
 30
0.0
 10
235.2952339632394
 20
103.1740133910338
 30
0.0
 10
235.0485401269035
 20
103.1752789199991
 30
0.0
  0
LINE
  5
150
330
1F
100
AcDbEntity
  8
0
  6
Continuous
 62
     7
370
    25
100
AcDbLine
 10
221.340267455
 20
86.9848631593
 30
0.0
 11
221.340267455
 21
82.1752789191
 31
0.0
  0
LINE
  5
151
330
1F
100
AcDbEntity
  8
0
  6
Continuous
 62
     7
370
    25
100
AcDbLine
 10
220.840267455
 20
82.1752789191
 30
0.0
 11
221.340267455
 21
82.1752789191
 31
0.0
  0
LINE
  5
152
330
1F
100
AcDbEntity
  8
0
  6
Continuous
 62
     7
370
    25
100
AcDbLine
 10
220.840267455
 20
82.1752789191
 30
0.0
 11
220.840267455
 21
88.396559657
 31
0.0
  0
LINE
  5
153
330
1F
100
AcDbEntity
  8
0
  6
Continuous
 62
     7
370
    25
100
AcDbLine
 10
238.3210081534
 20
82.1752789191
 30
0.0
 11
242.340267455
 21
82.1752789191
 31
0.0
  0
LINE
  5
154
330
1F
100
AcDbEntity
  8
0
  6
Continuous
 62
     7
370
    25
100
AcDbLine
 10
242.340267455
 20
82.1752789191
 30
0.0
 11
242.340267455
 21
86.9848631593
 31
0.0
  0
LINE
  5
155
330
1F
100
AcDbEntity
  8
0
  6
Continuous
 62
     7
370
    25
100
AcDbLine
 10
221.340267455
 20
82.1752789191
 30
0.0
 11
225.3595267566
 21
82.1752789191
 31
0.0
  0
LINE
  5
156
330
1F
100
AcDbEntity
  8
0
  6
Continuous
 62
     7
370
    25
100
AcDbLine
 10
242.340267455
 20
82.1752789191
 30
0.0
 11
242.840267455
 21
82.1752789191
 31
0.0
  0
LINE
  5
157
330
1F
100
AcDbEntity
  8
0
  6
Continuous
 62
     7
370
    25
100
AcDbLine
 10
242.840267455
 20
88.396559657
 30
0.0
 11
242.840267455
 21
82.1752789191
 31
0.0
  0
LINE
  5
158
330
1F
100
AcDbEntity
  8
0
  6
Continuous
 62
     7
370
    25
100
AcDbLine
 10
226.6695127404
 20
81.6752789191
 30
0.0
 11
221.340267455
 21
81.6752789191
 31
0.0
  0
LINE
  5
159
330
1F
100
AcDbEntity
  8
0
  6
Continuous
 62
     7
370
    25
100
AcDbLine
 10
221.340267455
 20
82.1752789191
 30
0.0
 11
221.340267455
 21
81.6752789191
 31
0.0
  0
LINE
  5
15A
330
1F
100
AcDbEntity
  8
0
  6
Continuous
 62
     7
370
    25
100
AcDbLine
 10
242.340267455
 20
82.1752789191
 30
0.0
 11
242.340267455
 21
81.6752789191
 31
0.0
  0
LINE
  5
15B
330
1F
100
AcDbEntity
  8
0
  6
Continuous
 62
     7
370
    25
100
AcDbLine
 10
242.340267455
 20
81.6752789191
 30
0.0
 11
237.0110221696
 21
81.6752789191
 31
0.0
  0
ARC
  5
15C
330
1F
100
AcDbEntity
  8
0
  6
Continuous
 62
     7
370
    25
100
AcDbCircle
 10
221.340267455
 20
82.1752789191
 30
0.0
 40
0.5
100
AcDbArc
 50
180.0
 51
270.0
  0
ARC
  5
15D
330
1F
100
AcDbEntity
  8
0
  6
Continuous
 62
     7
370
    25
100
AcDbCircle
 10
242.340267455
 20
82.1752789191
 30
0.0
 40
0.5
100
AcDbArc
 50
270.0
 51
0.0
  0
LINE
  5
15E
330
1F
100
AcDbEntity
  8
0
  6
Continuous
 62
     7
370
    25
100
AcDbLine
 10
242.340267455
 20
102.6752789191
 30
0.0
 11
237.5191758008
 21
102.6752789191
 31
0.0
  0
LINE
  5
15F
330
1F
100
AcDbEntity
  8
0
  6
Continuous
 62
     7
370
    25
100
AcDbLine
 10
242.340267455
 20
101.7324698776
 30
0.0
 11
242.340267455
 21
102.6752789191
 31
0.0
  0
SPLINE
  5
160
330
1F
100
AcDbEntity
  8
0
  6
Continuous
 62
     7
370
    25
100
AcDbSpline
210
0.0
220
0.0
230
1.0
 70
     8
 71
     3
 72
    10
 73
     6
 74
     0
 42
0.000000001
 43
0.00000001
 40
0.0
 40
0.0
 40
0.0
 40
0.0
 40
0.5
 40
0.5
 40
1.0
 40
1.0
 40
1.0
 40
1.0
 10
237.5191758007855
 20
102.6752789191472
 30
0.0
 10
237.339098825673
 20
102.6752789191472
 30
0.0
 10
237.1629007660225
 20
102.6980913717633
 30
0.0
 10
236.817809189016
 20
102.7861520155994
 30
0.0
 10
236.6490775516862
 20
102.8529470777837
 30
0.0
 10
236.4914503234749
 20
102.9370706324431
 30
0.0
  0
SPLINE
  5
161
330
1F
100
AcDbEntity
  8
0
  6
Continuous
 62
     7
370
    25
100
AcDbSpline
210
0.0
220
0.0
230
1.0
 70
     8
 71
     3
 72
    12
 73
     8
 74
     0
 42
0.000000001
 43
0.00000001
 40
0.0
 40
0.0
 40
0.0
 40
0.0
 40
0.2499999999999999
 40
0.2499999999999999
 40
0.4999999999999999
 40
0.4999999999999999
 40
1.0
 40
1.0
 40
1.0
 40
1.0
 10
242.3402674549853
 20
102.6752789191472
 30
0.0
 10
242.4164533001235
 20
102.6752789191472
 30
0.0
 10
242.4898276449406
 20
102.6574516234509
 30
0.0
 10
242.6160011481417
 20
102.5981615241965
 30
0.0
 10
242.6687280710375
 20
102.5575640128334
 30
0.0
 10
242.7963724993657
 20
102.4162794691444
 30
0.0
 10
242.8402674549853
 20
102.2974409799582
 30
0.0
 10
242.8402674549853
 20
102.1752789191472
 30
0.0
  0
LINE
  5
162
330
1F
100
AcDbEntity
  8
0
  6
Continuous
 62
     7
370
    25
100
AcDbLine
 10
242.840267455
 20
102.1752789191
 30
0.0
 11
242.840267455
 21
101.2610653568
 31
0.0
  0
ARC
  5
163
330
1F
100
AcDbEntity
  8
0
  6
Continuous
 62
     7
370
    25
100
AcDbCircle
 10
221.3174931279
 20
103.1544849683
 30
0.0
 40
0.4797469202789309
100
AcDbArc
 50
272.7209417438
 51
2.4841826612
  0
ARC
  5
164
330
1F
100
AcDbEntity
  8
0
  6
Continuous
 62
     7
370
    25
100
AcDbCircle
 10
242.3630417821
 20
103.1544849683
 30
0.0
 40
0.4797469202789115
100
AcDbArc
 50
177.5158173388
 51
267.2790582562
  0
LINE
  5
165
330
1F
100
AcDbEntity
  8
0
  6
Continuous
 62
     7
370
    25
100
AcDbLine
 10
236.7392469406
 20
90.6752789191
 30
0.0
 11
226.9412879694
 21
90.6752789191
 31
0.0
  0
ARC
  5
166
330
1F
100
AcDbEntity
  8
0
  6
Continuous
 62
     7
370
    25
100
AcDbCircle
 10
242.8509209041
 20
102.9977963075
 30
0.0
 40
0.4681596031693669
100
AcDbArc
 50
176.3263026515
 51
237.8245286087
  0
ARC
  5
167
330
1F
100
AcDbEntity
  8
0
  6
Continuous
 62
     7
370
    25
100
AcDbCircle
 10
220.8296140059
 20
102.9977963075
 30
0.0
 40
0.4681596031695842
100
AcDbArc
 50
302.1754713914
 51
3.6736973485
  0
SPLINE
  5
168
330
1F
100
AcDbEntity
  8
0
  6
Continuous
 62
     7
370
    25
100
AcDbSpline
210
0.0
220
0.0
230
1.0
 70
     8
 71
     3
 72
    26
 73
    22
 74
     0
 42
0.000000001
 43
0.00000001
 40
0.0
 40
0.0
 40
0.0
 40
0.0
 40
0.2500000000000001
 40
0.2500000000000001
 40
0.3750000000000001
 40
0.3750000000000001
 40
0.4375000000000001
 40
0.4375000000000001
 40
0.4687500000000001
 40
0.4687500000000001
 40
0.5000000000000001
 40
0.5000000000000001
 40
0.5625000000000001
 40
0.5625000000000001
 40
0.6250000000000001
 40
0.6250000000000001
 40
0.7500000000000001
 40
0.7500000000000001
 40
0.875
 40
0.875
 40
1.0
 40
1.0
 40
1.0
 40
1.0
 10
227.3114114318913
 20
89.55644359706919
 30
0.0
 10
228.0032298250202
 20
89.18713080355796
 30
0.0
 10
228.7137277676157
 20
88.83375718478221
 30
0.0
 10
229.8311961943311
 20
88.3333880343233
 30
0.0
 10
230.2118527553479
 20
88.1692364476217
 30
0.0
 10
230.8058307369259
 20
87.95528796239131
 30
0.0
 10
231.0052536003923
 20
87.8907985876449
 30
0.0
 10
231.3102770776949
 20
87.81870056226427
 30
0.0
 10
231.4129701139215
 20
87.79891705287827
 30
0.0
 10
231.6212998510736
 20
87.7713634459929
 30
0.0
 10
231.7278341145272
 20
87.76373458142126
 30
0.0
 10
232.0427175495761
 20
87.76273658858841
 30
0.0
 10
232.2479657563923
 20
87.79114377025783
 30
0.0
 10
232.652804231736
 20
87.88427234219708
 30
0.0
 10
232.8534506728082
 20
87.9482808120707
 30
0.0
 10
233.4435026274074
 20
88.15897533375345
 30
0.0
 10
233.8239663201869
 20
88.32244075419187
 30
0.0
 10
234.5736300691809
 20
88.65731507501887
 30
0.0
 10
234.9425550694712
 20
88.83150469272826
 30
0.0
 10
235.6681584169533
 20
89.1889943615864
 30
0.0
 10
236.021820404915
 20
89.3710431084161
 30
0.0
 10
236.3691234780792
 20
89.55644359706919
 30
0.0
  0
SPLINE
  5
169
330
1F
100
AcDbEntity
  8
0
  6
Continuous
 62
     7
370
    25
100
AcDbSpline
210
0.0
220
0.0
230
1.0
 70
     8
 71
     3
 72
    12
 73
     8
 74
     0
 42
0.000000001
 43
0.00000001
 40
0.0
 40
0.0
 40
0.0
 40
0.0
 40
0.2500000000000001
 40
0.2500000000000001
 40
0.5000000000000001
 40
0.5000000000000001
 40
1.0
 40
1.0
 40
1.0
 40
1.0
 10
221.0789155337231
 20
102.6015360871251
 30
0.0
 10
221.0418721226434
 20
102.5788235854171
 30
0.0
 10
221.0076592213566
 20
102.5713110655876
 30
0.0
 10
220.9481270664976
 20
102.5697549908871
 30
0.0
 10
220.9227263354757
 20
102.5761818327281
 30
0.0
 10
220.8613677037468
 20
102.6064068330289
 30
0.0
 10
220.8402674549852
 20
102.641102354146
 30
0.0
 10
220.8402674549852
 20
102.6752789191472
 30
0.0
  0
SPLINE
  5
16A
330
1F
100
AcDbEntity
  8
0
  6
Continuous
 62
     7
370
    25
100
AcDbSpline
210
0.0
220
0.0
230
1.0
 70
     8
 71
     3
 72
    12
 73
     8
 74
     0
 42
0.000000001
 43
0.00000001
 40
0.0
 40
0.0
 40
0.0
 40
0.0
 40
0.2499999999999999
 40
0.2499999999999999
 40
0.4999999999999998
 40
0.4999999999999998
 40
1.0
 40
1.0
 40
1.0
 40
1.0
 10
242.6016193762474
 20
102.6015360871251
 30
0.0
 10
242.638662787327
 20
102.5788235854171
 30
0.0
 10
242.6728756886139
 20
102.5713110655876
 30
0.0
 10
242.7324078434729
 20
102.5697549908871
 30
0.0
 10
242.7578085744948
 20
102.5761818327281
 30
0.0
 10
242.8191672062237
 20
102.6064068330289
 30
0.0
 10
242.8402674549853
 20
102.6411023541459
 30
0.0
 10
242.8402674549853
 20
102.6752789191472
 30
0.0
  0
SPLINE
  5
16B
330
1F
100
AcDbEntity
  8
0
  6
Continuous
 62
     7
370
    25
100
AcDbSpline
210
0.0
220
0.0
230
1.0
 70
    24
 71
     3
 72
    12
 73
     8
 74
     0
 42
0.000000001
 43
0.00000001
 40
0.0
 40
0.0
 40
0.0
 40
0.0
 40
0.2500000000000001
 40
0.2500000000000001
 40
0.5000000000000001
 40
0.5000000000000001
 40
1.0
 40
1.0
 40
1.0
 40
1.0
 10
242.8402674549853
 20
102.1752789191472
 30
0.0
 10
242.8402674549853
 20
102.1752789191472
 30
0.0
 10
242.8402674549853
 20
102.1950018645551
 30
0.0
 10
242.8402674549853
 20
102.2556383293164
 30
0.0
 10
242.8402674549853
 20
102.2968948750047
 30
0.0
 10
242.8402674549853
 20
102.4386681846768
 30
0.0
 10
242.8402674549853
 20
102.5572352298371
 30
0.0
 10
242.8402674549853
 20
102.6752789191472
 30
0.0
  0
SPLINE
  5
16C
330
1F
100
AcDbEntity
  8
0
  6
Continuous
 62
     7
370
    25
100
AcDbSpline
210
0.0
220
0.0
230
1.0
 70
    24
 71
     3
 72
    12
 73
     8
 74
     0
 42
0.000000001
 43
0.00000001
 40
0.0
 40
0.0
 40
0.0
 40
0.0
 40
0.2500000000000001
 40
0.2500000000000001
 40
0.5000000000000001
 40
0.5000000000000001
 40
1.0
 40
1.0
 40
1.0
 40
1.0
 10
220.8402674549852
 20
102.1752789191472
 30
0.0
 10
220.8402674549852
 20
102.1752789191472
 30
0.0
 10
220.8402674549852
 20
102.1950018645551
 30
0.0
 10
220.8402674549852
 20
102.2556383293164
 30
0.0
 10
220.8402674549852
 20
102.2968948750047
 30
0.0
 10
220.8402674549852
 20
102.4386681846768
 30
0.0
 10
220.8402674549852
 20
102.5572352298371
 30
0.0
 10
220.8402674549852
 20
102.6752789191472
 30
0.0
  0
LINE
  5
16D
330
1F
100
AcDbEntity
  8
0
  6
Continuous
 62
     7
370
    25
100
AcDbLine
 10
243.140267455
 20
92.2170213497
 30
0.0
 11
243.140267455
 21
91.1335364886
 31
0.0
  0
LINE
  5
16E
330
1F
100
AcDbEntity
  8
0
  6
Continuous
 62
     8
370
    25
100
AcDbLine
 10
245.840267455
 20
110.6752789191
 30
0.0
 11
217.840267455
 21
110.6752789191
 31
0.0
  0
LINE
  5
16F
330
1F
100
AcDbEntity
  8
0
  6
Continuous
 62
     8
370
    25
100
AcDbLine
 10
231.840267455
 20
109.7070330826
 30
0.0
 11
245.090267455
 21
109.7070330826
 31
0.0
  0
LINE
  5
170
330
1F
100
AcDbEntity
  8
0
  6
Continuous
 62
     8
370
    25
100
AcDbLine
 10
218.590267455
 20
109.7070330826
 30
0.0
 11
231.840267455
 21
109.7070330826
 31
0.0
  0
LINE
  5
171
330
1F
100
AcDbEntity
  8
0
  6
Continuous
 62
     8
370
    25
100
AcDbLine
 10
231.840267455
 20
106.8022955729
 30
0.0
 11
220.840267455
 21
106.8022955729
 31
0.0
  0
LINE
  5
172
330
1F
100
AcDbEntity
  8
0
  6
Continuous
 62
     8
370
    25
100
AcDbLine
 10
242.840267455
 20
106.8022955729
 30
0.0
 11
231.840267455
 21
106.8022955729
 31
0.0
  0
LWPOLYLINE
  5
173
330
1F
100
AcDbEntity
  8
0
  6
Continuous
 62
     8
370
    25
100
AcDbPolyline
 90
        6
 70
   128
 43
0.0
 10
236.2271135674
 20
102.0207081343
 10
236.2244930629
 20
102.0535469283
 10
236.2531122187
 20
102.3270365826
 10
236.3224818573
 20
102.6335192523
 10
236.322497887
 20
102.6335762827
 10
236.322497887
 20
102.6335762827
  0
SPLINE
  5
174
330
1F
100
AcDbEntity
  8
0
  6
Continuous
 62
     8
370
    25
100
AcDbSpline
210
0.0
220
0.0
230
1.0
 70
     8
 71
     3
 72
    11
 73
     7
 74
     0
 42
0.000000001
 43
0.00000001
 40
0.0
 40
0.0
 40
0.0
 40
0.0
 40
0.0000849661470901
 40
0.139745668137758
 40
0.5948518138201531
 40
1.0
 40
1.0
 40
1.0
 40
1.0
 10
227.3580370229316
 20
102.6335762827362
 30
0.0
 10
227.3580423662686
 20
102.6335572725742
 30
0.0
 10
227.3668306687035
 20
102.6022908461068
 30
0.0
 10
227.4014508422658
 20
102.4696398902436
 30
0.0
 10
227.44730204523
 20
102.2468284641983
 30
0.0
 10
227.4519271859321
 20
102.0961138009235
 30
0.0
 10
227.4541054572839
 20
102.0251327314944
 30
0.0
  0
SPLINE
  5
175
330
1F
100
AcDbEntity
  8
0
  6
Continuous
 62
     8
370
    25
100
AcDbSpline
210
0.0
220
0.0
230
1.0
 70
     8
 71
     3
 72
    10
 73
     6
 74
     0
 42
0.000000001
 43
0.00000001
 40
0.0
 40
0.0
 40
0.0
 40
0.0
 40
0.2870575284563115
 40
0.7925046124239513
 40
1.0
 40
1.0
 40
1.0
 40
1.0
 10
237.252159164816
 20
101.5399422315537
 30
0.0
 10
237.3420622232041
 20
101.5161870454325
 30
0.0
 10
237.590265392885
 20
101.4506040430593
 30
0.0
 10
237.9054773636312
 20
101.3550673312197
 30
0.0
 10
238.1285179650015
 20
101.2822563322726
 30
0.0
 10
238.1934318926657
 20
101.2610653567741
 30
0.0
  0
LINE
  5
176
330
1F
100
AcDbEntity
  8
0
  6
Continuous
 62
     8
370
    25
100
AcDbLine
 10
238.1934318927
 20
101.2610653568
 30
0.0
 11
238.059595441
 21
101.0591301392
 31
0.0
  0
LINE
  5
177
330
1F
100
AcDbEntity
  8
0
  6
Continuous
 62
     8
370
    25
100
AcDbLine
 10
221.340267455
 20
96.365694679
 30
0.0
 11
221.5614615947
 21
96.2668858715
 31
0.0
  0
LINE
  5
178
330
1F
100
AcDbEntity
  8
0
  6
Continuous
 62
     8
370
    25
100
AcDbLine
 10
242.1190733153
 20
87.0836719668
 30
0.0
 11
242.340267455
 21
86.9848631593
 31
0.0
  0
LINE
  5
179
330
1F
100
AcDbEntity
  8
0
  6
Continuous
 62
     8
370
    25
100
AcDbLine
 10
221.5614615947
 20
87.0836719668
 30
0.0
 11
221.340267455
 21
86.9848631593
 31
0.0
  0
LINE
  5
17A
330
1F
100
AcDbEntity
  8
0
  6
Continuous
 62
     8
370
    25
100
AcDbLine
 10
242.340267455
 20
96.365694679
 30
0.0
 11
242.1190733153
 21
96.2668858715
 31
0.0
  0
SPLINE
  5
17B
330
1F
100
AcDbEntity
  8
0
  6
Continuous
 62
     8
370
    25
100
AcDbSpline
210
0.0
220
0.0
230
1.0
 70
     8
 71
     3
 72
     9
 73
     5
 74
     0
 42
0.000000001
 43
0.00000001
 40
0.0
 40
0.0
 40
0.0
 40
0.0
 40
0.9388902750158157
 40
1.0
 40
1.0
 40
1.0
 40
1.0
 10
225.3595267565774
 20
82.17527891914719
 30
0.0
 10
225.6443293380405
 20
82.08114065551152
 30
0.0
 10
225.9476689177996
 20
81.98087519729907
 30
0.0
 10
226.2467290018673
 20
81.90175055482575
 30
0.0
 10
226.2650044813585
 20
81.89691526968474
 30
0.0
  0
LINE
  5
17C
330
1F
100
AcDbEntity
  8
0
  6
Continuous
 62
     8
370
    25
100
AcDbLine
 10
225.4960507436
 20
82.3754069503
 30
0.0
 11
225.3595267566
 21
82.1752789191
 31
0.0
  0
LINE
  5
17D
330
1F
100
AcDbEntity
  8
0
  6
Continuous
 62
     8
370
    25
100
AcDbLine
 10
238.1844841664
 20
82.3754069503
 30
0.0
 11
238.3210081534
 21
82.1752789191
 31
0.0
  0
SPLINE
  5
17E
330
1F
100
AcDbEntity
  8
0
  6
Continuous
 62
     8
370
    25
100
AcDbSpline
210
0.0
220
0.0
230
1.0
 70
     8
 71
     3
 72
     9
 73
     5
 74
     0
 42
0.000000001
 43
0.00000001
 40
0.0
 40
0.0
 40
0.0
 40
0.0
 40
0.8877559264255649
 40
1.0
 40
1.0
 40
1.0
 40
1.0
 10
238.3210081533931
 20
82.17527891914719
 30
0.0
 10
238.0362740574735
 20
82.08147897580953
 30
0.0
 10
237.7155393966912
 20
81.97581936763846
 30
0.0
 10
237.3993307286586
 20
81.89251827683975
 30
0.0
 10
237.3638381796592
 20
81.88316822307532
 30
0.0
  0
SPLINE
  5
17F
330
1F
100
AcDbEntity
  8
0
  6
Continuous
 62
     8
370
    25
100
AcDbSpline
210
0.0
220
0.0
230
1.0
 70
     8
 71
     3
 72
    11
 73
     7
 74
     0
 42
0.000000001
 43
0.00000001
 40
0.0
 40
0.0
 40
0.0
 40
0.0
 40
0.0378667500020382
 40
0.4572383470323216
 40
0.8738136150543381
 40
0.9999999999999999
 40
0.9999999999999999
 40
0.9999999999999999
 40
0.9999999999999999
 10
227.1872339514704
 20
101.9234537292267
 30
0.0
 10
227.187538613853
 20
101.9286729605266
 30
0.0
 10
227.1912173907272
 20
101.991694811945
 30
0.0
 10
227.1842384152293
 20
102.1906752062063
 30
0.0
 10
227.1694932479082
 20
102.4214262733009
 30
0.0
 10
227.1572066918316
 20
102.5598268940154
 30
0.0
 10
227.154350196561
 20
102.5920035850301
 30
0.0
  0
LINE
  5
180
330
1F
100
AcDbEntity
  8
0
  6
Continuous
 62
     8
370
    25
100
AcDbLine
 10
236.8988852844
 20
101.7324698776
 30
0.0
 11
242.340267455
 21
101.7324698776
 31
0.0
  0
SPLINE
  5
181
330
1F
100
AcDbEntity
  8
0
  6
Continuous
 62
     8
370
    25
100
AcDbSpline
210
0.0
220
0.0
230
1.0
 70
     8
 71
     3
 72
    10
 73
     6
 74
     0
 42
0.000000001
 43
0.00000001
 40
0.0
 40
0.0
 40
0.0
 40
0.0
 40
0.399547587244399
 40
0.8023384986467943
 40
1.0
 40
1.0
 40
1.0
 40
1.0
 10
236.5261847190868
 20
102.5920036459774
 30
0.0
 10
236.5173742714672
 20
102.4847895754943
 30
0.0
 10
236.4996818574939
 20
102.2694911252182
 30
0.0
 10
236.4901182223211
 20
102.0259792425327
 30
0.0
 10
236.493898009836
 20
101.9302388214
 30
0.0
 10
236.4951422690964
 20
101.8987222599218
 30
0.0
  0
INSERT
  5
18D
330
1F
100
AcDbEntity
  8
0
  6
Continuous
 62
     7
370
    18
100
AcDbBlockReference
  2
SW_CENTERMARKSYMBOL_0
 10
231.840267455
 20
91.6752789191
 30
0.0
  0
ARC
  5
18E
330
1F
100
AcDbEntity
  8
0
  6
Continuous
 62
     7
370
    18
100
AcDbCircle
 10
231.840267455
 20
91.6752789191
 30
0.0
 40
7.47500000000003
100
AcDbArc
 50
75.0
 51
345.0
  0
ARC
  5
18F
330
1F
100
AcDbEntity
  8
0
  6
Continuous
 62
     7
370
    25
100
AcDbCircle
 10
177.1439889384
 20
145.6915916578
 30
0.0
 40
3.000000000000028
100
AcDbArc
 50
66.0763644823
 51
90.0
  0
ARC
  5
190
330
1F
100
AcDbEntity
  8
0
  6
Continuous
 62
     7
370
    25
100
AcDbCircle
 10
177.1439889384
 20
173.6915916578
 30
0.0
 40
3.0
100
AcDbArc
 50
270.0
 51
293.9236355177
  0
LINE
  5
191
330
1F
100
AcDbEntity
  8
0
  6
Continuous
 62
     7
370
    25
100
AcDbLine
 10
178.3605450328
 20
148.433851906
 30
0.0
 11
181.0169722846
 21
151.0902791578
 31
0.0
  0
LINE
  5
192
330
1F
100
AcDbEntity
  8
0
  6
Continuous
 62
     7
370
    25
100
AcDbLine
 10
181.0169722846
 20
168.2929041578
 30
0.0
 11
178.3605450328
 21
170.9493314095
 31
0.0
  0
LINE
  5
193
330
1F
100
AcDbEntity
  8
0
  6
Continuous
 62
     7
370
    25
100
AcDbLine
 10
177.1439889384
 20
170.6915916578
 30
0.0
 11
175.0169722846
 21
170.6915916578
 31
0.0
  0
LINE
  5
194
330
1F
100
AcDbEntity
  8
0
  6
Continuous
 62
     7
370
    25
100
AcDbLine
 10
173.0169722846
 20
148.6915916578
 30
0.0
 11
177.1439889384
 21
148.6915916578
 31
0.0
  0
LINE
  5
195
330
1F
100
AcDbEntity
  8
0
  6
Continuous
 62
     7
370
    25
100
AcDbLine
 10
181.0169722846
 20
151.0902791578
 30
0.0
 11
193.9430628509
 21
151.494219488
 31
0.0
  0
LINE
  5
196
330
1F
100
AcDbEntity
  8
0
  6
Continuous
 62
     7
370
    25
100
AcDbLine
 10
193.9430628509
 20
167.8889638276
 30
0.0
 11
181.0169722846
 21
168.2929041578
 31
0.0
  0
LINE
  5
197
330
1F
100
AcDbEntity
  8
0
  6
Continuous
 62
     7
370
    25
100
AcDbLine
 10
193.9430628509
 20
151.494219488
 30
0.0
 11
196.0169722846
 21
152.6915916578
 31
0.0
  0
LINE
  5
198
330
1F
100
AcDbEntity
  8
0
  6
Continuous
 62
     7
370
    25
100
AcDbLine
 10
196.0169722846
 20
166.6915916578
 30
0.0
 11
193.9430628509
 21
167.8889638276
 31
0.0
  0
ARC
  5
199
330
1F
100
AcDbEntity
  8
0
  6
Continuous
 62
     7
370
    25
100
AcDbCircle
 10
174.5587147151
 20
170.4915916578
 30
0.0
 40
0.5
100
AcDbArc
 50
23.5781784782
 51
90.0
  0
ARC
  5
19A
330
1F
100
AcDbEntity
  8
0
  6
Continuous
 62
     7
370
    25
100
AcDbCircle
 10
173.4752298541
 20
170.4915916578
 30
0.0
 40
0.5000000000000107
100
AcDbArc
 50
90.0
 51
156.4218215218
  0
CIRCLE
  5
19B
330
1F
100
AcDbEntity
  8
0
  6
Continuous
 62
     7
370
    25
100
AcDbCircle
 10
162.0169722846
 20
159.6915916578
 30
0.0
 40
14.0
  0
CIRCLE
  5
19C
330
1F
100
AcDbEntity
  8
0
  6
Continuous
 62
     7
370
    25
100
AcDbCircle
 10
162.0169722846
 20
159.6915916578
 30
0.0
 40
13.0
  0
CIRCLE
  5
19D
330
1F
100
AcDbEntity
  8
0
  6
Continuous
 62
     7
370
    25
100
AcDbCircle
 10
162.0169722846
 20
159.6915916578
 30
0.0
 40
10.75
  0
CIRCLE
  5
19E
330
1F
100
AcDbEntity
  8
0
  6
Continuous
 62
     7
370
    25
100
AcDbCircle
 10
162.0169722846
 20
159.6915916578
 30
0.0
 40
9.798213046580429
  0
CIRCLE
  5
19F
330
1F
100
AcDbEntity
  8
0
  6
Continuous
 62
     7
370
    25
100
AcDbCircle
 10
162.0169722846
 20
159.6915916578
 30
0.0
 40
9.428250615618282
  0
CIRCLE
  5
1A0
330
1F
100
AcDbEntity
  8
0
  6
Continuous
 62
     7
370
    25
100
AcDbCircle
 10
162.0169722846
 20
159.6915916578
 30
0.0
 40
9.315500000000014
  0
CIRCLE
  5
1A1
330
1F
100
AcDbEntity
  8
0
  6
Continuous
 62
     7
370
    25
100
AcDbCircle
 10
162.0169722846
 20
159.6915916578
 30
0.0
 40
6.499999999999972
  0
LINE
  5
1A2
330
1F
100
AcDbEntity
  8
0
  6
Continuous
 62
     7
370
    25
100
AcDbLine
 10
172.0169722846
 20
170.1915916578
 30
0.0
 11
172.0169722846
 21
169.4895506289
 31
0.0
  0
LINE
  5
1A3
330
1F
100
AcDbEntity
  8
0
  6
Continuous
 62
     7
370
    25
100
AcDbLine
 10
172.6836389512
 20
170.1915916578
 30
0.0
 11
172.0169722846
 21
170.1915916578
 31
0.0
  0
LINE
  5
1A4
330
1F
100
AcDbEntity
  8
0
  6
Continuous
 62
     7
370
    25
100
AcDbLine
 10
173.0169722846
 20
151.0313376199
 30
0.0
 11
173.0169722846
 21
149.1915916578
 31
0.0
  0
LINE
  5
1A5
330
1F
100
AcDbEntity
  8
0
  6
Continuous
 62
     7
370
    25
100
AcDbLine
 10
172.0169722846
 20
149.1915916578
 30
0.0
 11
173.0169722846
 21
149.1915916578
 31
0.0
  0
LINE
  5
1A6
330
1F
100
AcDbEntity
  8
0
  6
Continuous
 62
     7
370
    25
100
AcDbLine
 10
172.0169722846
 20
149.8936326866
 30
0.0
 11
172.0169722846
 21
149.1915916578
 31
0.0
  0
LINE
  5
1A7
330
1F
100
AcDbEntity
  8
0
  6
Continuous
 62
     7
370
    25
100
AcDbLine
 10
178.3605450328
 20
170.9493314095
 30
0.0
 11
178.3605450328
 21
148.433851906
 31
0.0
  0
LINE
  5
1A8
330
1F
100
AcDbEntity
  8
0
  6
Continuous
 62
     7
370
    25
100
AcDbLine
 10
181.0169722846
 20
168.2929041578
 30
0.0
 11
181.0169722846
 21
151.0902791578
 31
0.0
  0
SPLINE
  5
1A9
330
1F
100
AcDbEntity
  8
0
  6
Continuous
 62
     7
370
    25
100
AcDbSpline
210
0.0
220
0.0
230
1.0
 70
     8
 71
     3
 72
    12
 73
     8
 74
     0
 42
0.000000001
 43
0.00000001
 40
0.0
 40
0.0
 40
0.0
 40
0.0
 40
0.25
 40
0.25
 40
0.5
 40
0.5
 40
1.0
 40
1.0
 40
1.0
 40
1.0
 10
173.3694866205246
 20
149.1481358083834
 30
0.0
 10
173.3214614028819
 20
149.0732136664832
 30
0.0
 10
173.284777132607
 20
149.0070502110993
 30
0.0
 10
173.2188032396777
 20
148.8930956830491
 30
0.0
 10
173.1900516071094
 20
148.8452398775883
 30
0.0
 10
173.1094967063194
 20
148.730184581968
 30
0.0
 10
173.0633652296996
 20
148.6915916577545
 30
0.0
 10
173.0169722845687
 20
148.6915916577545
 30
0.0
  0
SPLINE
  5
1AA
330
1F
100
AcDbEntity
  8
0
  6
Continuous
 62
     7
370
    25
100
AcDbSpline
210
0.0
220
0.0
230
1.0
 70
     8
 71
     3
 72
     8
 73
     4
 74
     0
 42
0.000000001
 43
0.00000001
 40
0.0
 40
0.0
 40
0.0
 40
0.0
 40
1.0
 40
1.0
 40
1.0
 40
1.0
 10
173.5169722845687
 20
149.6481133968849
 30
0.0
 10
173.5169722845687
 20
149.4498730650702
 30
0.0
 10
173.4566778000832
 20
149.2841591362926
 30
0.0
 10
173.3694866205246
 20
149.1481358083834
 30
0.0
  0
SPLINE
  5
1AB
330
1F
100
AcDbEntity
  8
0
  6
Continuous
 62
     7
370
    25
100
AcDbSpline
210
0.0
220
0.0
230
1.0
 70
     8
 71
     3
 72
     8
 73
     4
 74
     0
 42
0.000000001
 43
0.00000001
 40
0.0
 40
0.0
 40
0.0
 40
0.0
 40
1.0
 40
1.0
 40
1.0
 40
1.0
 10
173.3694866205246
 20
170.2350475071255
 30
0.0
 10
173.4566778000832
 20
170.0990241792163
 30
0.0
 10
173.5169722845687
 20
169.9333102504387
 30
0.0
 10
173.5169722845687
 20
169.735069918624
 30
0.0
  0
SPLINE
  5
1AC
330
1F
100
AcDbEntity
  8
0
  6
Continuous
 62
     7
370
    25
100
AcDbSpline
210
0.0
220
0.0
230
1.0
 70
     8
 71
     3
 72
    12
 73
     8
 74
     0
 42
0.000000001
 43
0.00000001
 40
0.0
 40
0.0
 40
0.0
 40
0.0
 40
0.2499999999999999
 40
0.2499999999999999
 40
0.4999999999999999
 40
0.4999999999999999
 40
1.0
 40
1.0
 40
1.0
 40
1.0
 10
173.3694866205246
 20
170.2350475071255
 30
0.0
 10
173.3214446498884
 20
170.3099957846732
 30
0.0
 10
173.2847510072413
 20
170.3761792397835
 30
0.0
 10
173.2187603258102
 20
170.4901607452185
 30
0.0
 10
173.1899868376306
 20
170.538042182198
 30
0.0
 10
173.1095111306126
 20
170.6529656481121
 30
0.0
 10
173.0633814274167
 20
170.6915916577545
 30
0.0
 10
173.0169722845687
 20
170.6915916577545
 30
0.0
  0
LINE
  5
1AD
330
1F
100
AcDbEntity
  8
0
  6
Continuous
 62
     7
370
    25
100
AcDbLine
 10
152.5169722846
 20
170.6915916578
 30
0.0
 11
152.5169722846
 21
170.1915916578
 31
0.0
  0
LINE
  5
1AE
330
1F
100
AcDbEntity
  8
0
  6
Continuous
 62
     7
370
    25
100
AcDbLine
 10
152.5169722846
 20
170.6915916578
 30
0.0
 11
153.3567182467
 21
170.6915916578
 31
0.0
  0
LINE
  5
1AF
330
1F
100
AcDbEntity
  8
0
  6
Continuous
 62
     7
370
    25
100
AcDbLine
 10
152.5169722846
 20
170.1915916578
 30
0.0
 11
152.0169722846
 21
170.1915916578
 31
0.0
  0
ARC
  5
1B0
330
1F
100
AcDbEntity
  8
0
  6
Continuous
 62
     7
370
    25
100
AcDbCircle
 10
152.5169722846
 20
170.1915916578
 30
0.0
 40
0.5
100
AcDbArc
 50
90.0
 51
180.0
  0
LINE
  5
1B1
330
1F
100
AcDbEntity
  8
0
  6
Continuous
 62
     7
370
    25
100
AcDbLine
 10
152.0169722846
 20
169.4895506289
 30
0.0
 11
152.0169722846
 21
170.1915916578
 31
0.0
  0
SPLINE
  5
1B2
330
1F
100
AcDbEntity
  8
0
  6
Continuous
 62
     7
370
    25
100
AcDbSpline
210
0.0
220
0.0
230
1.0
 70
     8
 71
     3
 72
    12
 73
     8
 74
     0
 42
0.000000001
 43
0.00000001
 40
0.0
 40
0.0
 40
0.0
 40
0.0
 40
0.2499999999999999
 40
0.2499999999999999
 40
0.4999999999999999
 40
0.4999999999999999
 40
1.0
 40
1.0
 40
1.0
 40
1.0
 10
172.0169722845687
 20
170.1915916577545
 30
0.0
 10
172.0169722845687
 20
170.2677775028927
 30
0.0
 10
171.9989068566778
 20
170.3411518477098
 30
0.0
 10
171.9422456151426
 20
170.467325350911
 30
0.0
 10
171.9047232556204
 20
170.5200522738067
 30
0.0
 10
171.7821964915275
 20
170.647696702135
 30
0.0
 10
171.6892216830311
 20
170.6915916577545
 30
0.0
 10
171.6027587221957
 20
170.6915916577545
 30
0.0
  0
LINE
  5
1B3
330
1F
100
AcDbEntity
  8
0
  6
Continuous
 62
     7
370
    25
100
AcDbLine
 10
170.6772263224
 20
170.6915916578
 30
0.0
 11
171.6027587222
 21
170.6915916578
 31
0.0
  0
LWPOLYLINE
  5
1B4
330
1F
100
AcDbEntity
  8
0
  6
Continuous
 62
     7
370
    25
100
AcDbPolyline
 90
        9
 70
   128
 43
0.0
 10
172.5169722846
 20
170.6915916578
 10
172.5494873382
 20
170.681984298
 10
172.5807528566
 20
170.653531424
 10
172.6095673234
 20
170.6073264639
 10
172.6348234148
 20
170.5451450483
 10
172.6555505533
 20
170.4693767743
 10
172.6709522067
 20
170.3829333739
 10
172.680436498
 20
170.2891368188
 10
172.6836389512
 20
170.1915916578
  0
LINE
  5
1B5
330
1F
100
AcDbEntity
  8
0
  6
Continuous
 62
     7
370
    25
100
AcDbLine
 10
171.6027587222
 20
170.6915916578
 30
0.0
 11
172.5169722846
 21
170.6915916578
 31
0.0
  0
LINE
  5
1B6
330
1F
100
AcDbEntity
  8
0
  6
Continuous
 62
     7
370
    25
100
AcDbLine
 10
152.0169722846
 20
149.1915916578
 30
0.0
 11
152.0169722846
 21
149.8936326866
 31
0.0
  0
LINE
  5
1B7
330
1F
100
AcDbEntity
  8
0
  6
Continuous
 62
     7
370
    25
100
AcDbLine
 10
152.0169722846
 20
149.1915916578
 30
0.0
 11
152.5169722846
 21
149.1915916578
 31
0.0
  0
LINE
  5
1B8
330
1F
100
AcDbEntity
  8
0
  6
Continuous
 62
     7
370
    25
100
AcDbLine
 10
152.5169722846
 20
149.1915916578
 30
0.0
 11
152.5169722846
 21
148.6915916578
 31
0.0
  0
LINE
  5
1B9
330
1F
100
AcDbEntity
  8
0
  6
Continuous
 62
     7
370
    25
100
AcDbLine
 10
153.3567182467
 20
148.6915916578
 30
0.0
 11
152.5169722846
 21
148.6915916578
 31
0.0
  0
ARC
  5
1BA
330
1F
100
AcDbEntity
  8
0
  6
Continuous
 62
     7
370
    25
100
AcDbCircle
 10
152.5169722846
 20
149.1915916578
 30
0.0
 40
0.5
100
AcDbArc
 50
180.0
 51
270.0
  0
SPLINE
  5
1BB
330
1F
100
AcDbEntity
  8
0
  6
Continuous
 62
     7
370
    25
100
AcDbSpline
210
0.0
220
0.0
230
1.0
 70
     8
 71
     3
 72
    12
 73
     8
 74
     0
 42
0.000000001
 43
0.00000001
 40
0.0
 40
0.0
 40
0.0
 40
0.0
 40
0.2499999999999999
 40
0.2499999999999999
 40
0.4999999999999999
 40
0.4999999999999999
 40
1.0
 40
1.0
 40
1.0
 40
1.0
 10
172.0169722845687
 20
149.1915916577545
 30
0.0
 10
172.0169722845687
 20
149.1154058126162
 30
0.0
 10
171.9989068566778
 20
149.0420314677991
 30
0.0
 10
171.9422456151426
 20
148.9158579645979
 30
0.0
 10
171.9047232556204
 20
148.8631310417022
 30
0.0
 10
171.7821964915275
 20
148.735486613374
 30
0.0
 10
171.6892216830311
 20
148.6915916577545
 30
0.0
 10
171.6027587221957
 20
148.6915916577545
 30
0.0
  0
LINE
  5
1BC
330
1F
100
AcDbEntity
  8
0
  6
Continuous
 62
     7
370
    25
100
AcDbLine
 10
171.6027587222
 20
148.6915916578
 30
0.0
 11
170.6772263224
 21
148.6915916578
 31
0.0
  0
SPLINE
  5
1BD
330
1F
100
AcDbEntity
  8
0
  6
Continuous
 62
     7
370
    25
100
AcDbSpline
210
0.0
220
0.0
230
1.0
 70
     8
 71
     3
 72
    12
 73
     8
 74
     0
 42
0.000000001
 43
0.00000001
 40
0.0
 40
0.0
 40
0.0
 40
0.0
 40
0.2499999999999993
 40
0.2499999999999993
 40
0.4999999999999987
 40
0.4999999999999987
 40
1.0
 40
1.0
 40
1.0
 40
1.0
 10
173.0169722845687
 20
149.1915916577545
 30
0.0
 10
173.0169722845687
 20
149.1154058126162
 30
0.0
 10
172.9991449888724
 20
149.0420314677991
 30
0.0
 10
172.939854889618
 20
148.9158579645979
 30
0.0
 10
172.8992573782549
 20
148.8631310417022
 30
0.0
 10
172.7579728345659
 20
148.735486613374
 30
0.0
 10
172.6391343453799
 20
148.6915916577545
 30
0.0
 10
172.5169722845687
 20
148.6915916577545
 30
0.0
  0
LINE
  5
1BE
330
1F
100
AcDbEntity
  8
0
  6
Continuous
 62
     7
370
    25
100
AcDbLine
 10
172.5169722846
 20
148.6915916578
 30
0.0
 11
171.6027587222
 21
148.6915916578
 31
0.0
  0
ARC
  5
1BF
330
1F
100
AcDbEntity
  8
0
  6
Continuous
 62
     7
370
    25
100
AcDbCircle
 10
173.4961783337
 20
149.1688173306
 30
0.0
 40
0.4797469202791339
100
AcDbArc
 50
87.5158173388
 51
177.2790582562
  0
LINE
  5
1C0
330
1F
100
AcDbEntity
  8
0
  6
Continuous
 62
     7
370
    25
100
AcDbLine
 10
173.0169722846
 20
170.1915916578
 30
0.0
 11
172.6836389512
 21
170.1915916578
 31
0.0
  0
LINE
  5
1C1
330
1F
100
AcDbEntity
  8
0
  6
Continuous
 62
     7
370
    25
100
AcDbLine
 10
173.0169722846
 20
170.1915916578
 30
0.0
 11
173.0169722846
 21
168.3518456956
 31
0.0
  0
ARC
  5
1C2
330
1F
100
AcDbEntity
  8
0
  6
Continuous
 62
     7
370
    25
100
AcDbCircle
 10
172.5169722846
 20
170.1915916578
 30
0.0
 40
0.5
100
AcDbArc
 50
0.0
 51
90.0
  0
ARC
  5
1C3
330
1F
100
AcDbEntity
  8
0
  6
Continuous
 62
     7
370
    25
100
AcDbCircle
 10
173.4961783337
 20
170.2143659849
 30
0.0
 40
0.4797469202790952
100
AcDbArc
 50
182.7209417438
 51
272.4841826612
  0
LINE
  5
1C4
330
1F
100
AcDbEntity
  8
0
  6
Continuous
 62
     7
370
    25
100
AcDbLine
 10
193.9430628509
 20
151.494219488
 30
0.0
 11
193.9430628509
 21
167.8889638276
 31
0.0
  0
LINE
  5
1C5
330
1F
100
AcDbEntity
  8
0
  6
Continuous
 62
     7
370
    25
100
AcDbLine
 10
196.0169722846
 20
166.6915916578
 30
0.0
 11
196.0169722846
 21
152.6915916578
 31
0.0
  0
SPLINE
  5
1C6
330
1F
100
AcDbEntity
  8
0
  6
Continuous
 62
     7
370
    25
100
AcDbSpline
210
0.0
220
0.0
230
1.0
 70
     8
 71
     3
 72
    16
 73
    12
 74
     0
 42
0.000000001
 43
0.00000001
 40
0.0
 40
0.0
 40
0.0
 40
0.0
 40
0.2499999999999999
 40
0.2499999999999999
 40
0.3749999999999998
 40
0.3749999999999998
 40
0.4999999999999999
 40
0.4999999999999999
 40
0.75
 40
0.75
 40
1.0
 40
1.0
 40
1.0
 40
1.0
 10
161.0169722845687
 20
164.2204476808484
 30
0.0
 10
161.4632149933054
 20
164.1831663294574
 30
0.0
 10
161.9159183899202
 20
164.1668701865391
 30
0.0
 10
162.6079531757039
 20
164.1899086326254
 30
0.0
 10
162.837198750229
 20
164.2048518441865
 30
0.0
 10
163.2861962706637
 20
164.2436450609781
 30
0.0
 10
163.5073796413346
 20
164.2674506064009
 30
0.0
 10
164.1644456749437
 20
164.3442984141434
 30
0.0
 10
164.5943452043755
 20
164.4020579587192
 30
0.0
 10
165.4475844811884
 20
164.5064280583017
 30
0.0
 10
165.8691829398058
 20
164.5532852763946
 30
0.0
 10
166.2889741572275
 20
164.5905711433208
 30
0.0
  0
SPLINE
  5
1C7
330
1F
100
AcDbEntity
  8
0
  6
Continuous
 62
     7
370
    25
100
AcDbSpline
210
0.0
220
0.0
230
1.0
 70
     8
 71
     3
 72
    16
 73
    12
 74
     0
 42
0.000000001
 43
0.00000001
 40
0.0
 40
0.0
 40
0.0
 40
0.0
 40
0.25
 40
0.25
 40
0.5
 40
0.5
 40
0.75
 40
0.75
 40
0.875
 40
0.875
 40
1.0
 40
1.0
 40
1.0
 40
1.0
 10
166.2889741572275
 20
154.7926121721881
 30
0.0
 10
165.8700698631303
 20
154.8298192625614
 30
0.0
 10
165.4495655565104
 20
154.876535862122
 30
0.0
 10
164.5992084290635
 20
154.9805077257903
 30
0.0
 10
164.1677664459933
 20
155.0384657158124
 30
0.0
 10
163.2897943050943
 20
155.1412112522141
 30
0.0
 10
162.8450602401508
 20
155.1849071209566
 30
0.0
 10
162.1606020189288
 20
155.2083955874463
 30
0.0
 10
161.9276037672981
 20
155.2090431660912
 30
0.0
 10
161.4683992440895
 20
155.1954636579106
 30
0.0
 10
161.241607737271
 20
155.1815028057159
 30
0.0
 10
161.0169722845687
 20
155.1627356346605
 30
0.0
  0
LINE
  5
1C8
330
1F
100
AcDbEntity
  8
0
  6
Continuous
 62
     7
370
    25
100
AcDbLine
 10
161.0169722846
 20
155.1627356347
 30
0.0
 11
161.0169722846
 21
164.2204476808
 31
0.0
  0
ARC
  5
1C9
330
1F
100
AcDbEntity
  8
0
  6
Continuous
 62
     7
370
    25
100
AcDbCircle
 10
173.3394896729
 20
170.7022451068
 30
0.0
 40
0.4681596031696006
100
AcDbArc
 50
212.1754713914
 51
273.6736973485
  0
ARC
  5
1CA
330
1F
100
AcDbEntity
  8
0
  6
Continuous
 62
     7
370
    25
100
AcDbCircle
 10
173.3394896729
 20
148.6809382087
 30
0.0
 40
0.4681596031697672
100
AcDbArc
 50
86.3263026516
 51
147.8245286086
  0
SPLINE
  5
1CB
330
1F
100
AcDbEntity
  8
0
  6
Continuous
 62
     7
370
    25
100
AcDbSpline
210
0.0
220
0.0
230
1.0
 70
     8
 71
     3
 72
    12
 73
     8
 74
     0
 42
0.000000001
 43
0.00000001
 40
0.0
 40
0.0
 40
0.0
 40
0.0
 40
0.25
 40
0.25
 40
0.5
 40
0.5
 40
1.0
 40
1.0
 40
1.0
 40
1.0
 10
172.9432294525467
 20
170.4529435790166
 30
0.0
 10
172.9205169508376
 20
170.489986990098
 30
0.0
 10
172.9130044310084
 20
170.5241998913862
 30
0.0
 10
172.9114483563092
 20
170.5837320462472
 30
0.0
 10
172.9178751981513
 20
170.6091327772696
 30
0.0
 10
172.9481001984556
 20
170.6704914089986
 30
0.0
 10
172.9827957195804
 20
170.6915916577545
 30
0.0
 10
173.0169722845687
 20
170.6915916577545
 30
0.0
  0
SPLINE
  5
1CC
330
1F
100
AcDbEntity
  8
0
  6
Continuous
 62
     7
370
    25
100
AcDbSpline
210
0.0
220
0.0
230
1.0
 70
    24
 71
     3
 72
    12
 73
     8
 74
     0
 42
0.000000001
 43
0.00000001
 40
0.0
 40
0.0
 40
0.0
 40
0.0
 40
0.25
 40
0.25
 40
0.5
 40
0.5
 40
1.0
 40
1.0
 40
1.0
 40
1.0
 10
172.5169722845687
 20
170.6915916577545
 30
0.0
 10
172.5169722845687
 20
170.6915916577545
 30
0.0
 10
172.5366952299767
 20
170.6915916577545
 30
0.0
 10
172.5973316947379
 20
170.6915916577545
 30
0.0
 10
172.6385882404263
 20
170.6915916577545
 30
0.0
 10
172.7803615500984
 20
170.6915916577545
 30
0.0
 10
172.8989285952587
 20
170.6915916577545
 30
0.0
 10
173.0169722845687
 20
170.6915916577545
 30
0.0
  0
SPLINE
  5
1CD
330
1F
100
AcDbEntity
  8
0
  6
Continuous
 62
     7
370
    25
100
AcDbSpline
210
0.0
220
0.0
230
1.0
 70
     8
 71
     3
 72
    12
 73
     8
 74
     0
 42
0.000000001
 43
0.00000001
 40
0.0
 40
0.0
 40
0.0
 40
0.0
 40
0.25
 40
0.25
 40
0.5
 40
0.5
 40
1.0
 40
1.0
 40
1.0
 40
1.0
 10
172.9432294525467
 20
148.9302397364923
 30
0.0
 10
172.9205169508376
 20
148.8931963254109
 30
0.0
 10
172.9130044310084
 20
148.8589834241227
 30
0.0
 10
172.9114483563092
 20
148.7994512692617
 30
0.0
 10
172.9178751981513
 20
148.7740505382393
 30
0.0
 10
172.9481001984556
 20
148.7126919065103
 30
0.0
 10
172.9827957195798
 20
148.6915916577545
 30
0.0
 10
173.0169722845687
 20
148.6915916577545
 30
0.0
  0
SPLINE
  5
1CE
330
1F
100
AcDbEntity
  8
0
  6
Continuous
 62
     7
370
    25
100
AcDbSpline
210
0.0
220
0.0
230
1.0
 70
    24
 71
     3
 72
    12
 73
     8
 74
     0
 42
0.000000001
 43
0.00000001
 40
0.0
 40
0.0
 40
0.0
 40
0.0
 40
0.2499999999999999
 40
0.2499999999999999
 40
0.4999999999999999
 40
0.4999999999999999
 40
1.0
 40
1.0
 40
1.0
 40
1.0
 10
172.5169722845687
 20
148.6915916577545
 30
0.0
 10
172.5169722845687
 20
148.6915916577545
 30
0.0
 10
172.5366952299767
 20
148.6915916577545
 30
0.0
 10
172.5973316947379
 20
148.6915916577545
 30
0.0
 10
172.6385882404263
 20
148.6915916577545
 30
0.0
 10
172.7803615500984
 20
148.6915916577545
 30
0.0
 10
172.8989285952587
 20
148.6915916577545
 30
0.0
 10
173.0169722845687
 20
148.6915916577545
 30
0.0
  0
SPLINE
  5
1CF
330
1F
100
AcDbEntity
  8
0
  6
Continuous
 62
     7
370
    25
100
AcDbSpline
210
0.0
220
0.0
230
1.0
 70
     8
 71
     3
 72
    26
 73
    22
 74
     0
 42
0.000000001
 43
0.00000001
 40
0.0
 40
0.0
 40
0.0
 40
0.0
 40
0.2500000000000001
 40
0.2500000000000001
 40
0.3750000000000001
 40
0.3750000000000001
 40
0.4375000000000001
 40
0.4375000000000001
 40
0.4687500000000001
 40
0.4687500000000001
 40
0.5000000000000001
 40
0.5000000000000001
 40
0.5625000000000001
 40
0.5625000000000001
 40
0.6250000000000001
 40
0.6250000000000001
 40
0.7500000000000001
 40
0.7500000000000001
 40
0.875
 40
0.875
 40
1.0
 40
1.0
 40
1.0
 40
1.0
 10
161.0169722845688
 20
155.1627356346605
 30
0.0
 10
160.7344917361091
 20
155.8545540277894
 30
0.0
 10
160.5057473869151
 20
156.565051970385
 30
0.0
 10
160.3433694510341
 20
157.6825203971003
 30
0.0
 10
160.3216469014349
 20
158.0631769581171
 30
0.0
 10
160.3292282706512
 20
158.6571549396952
 30
0.0
 10
160.3379364794531
 20
158.8565778031615
 30
0.0
 10
160.3508758601268
 20
159.1616012804641
 30
0.0
 10
160.3550817770108
 20
159.2642943166908
 30
0.0
 10
160.3612187413562
 20
159.4726240538428
 30
0.0
 10
160.3630868959274
 20
159.5791583172965
 30
0.0
 10
160.3633251513834
 20
159.8940417523454
 30
0.0
 10
160.3560089442215
 20
160.0992899591616
 30
0.0
 10
160.3389394575656
 20
160.5041284345052
 30
0.0
 10
160.3299559244732
 20
160.7047748755774
 30
0.0
 10
160.3211301453755
 20
161.2948268301766
 30
0.0
 10
160.3410238428552
 20
161.6752905229562
 30
0.0
 10
160.4473540301054
 20
162.4249542719501
 30
0.0
 10
160.5319572642117
 20
162.7938792722404
 30
0.0
 10
160.7465973584196
 20
163.5194826197225
 30
0.0
 10
160.8751628681619
 20
163.8731446076843
 30
0.0
 10
161.0169722845688
 20
164.2204476808484
 30
0.0
  0
LINE
  5
1D0
330
1F
100
AcDbEntity
  8
0
  6
Continuous
 62
     7
370
    25
100
AcDbLine
 10
173.4752298541
 20
170.9915916578
 30
0.0
 11
174.5587147151
 21
170.9915916578
 31
0.0
  0
LINE
  5
1D1
330
1F
100
AcDbEntity
  8
0
  6
Continuous
 62
     7
370
    25
100
AcDbLine
 10
173.0169722846
 20
170.6915916578
 30
0.0
 11
175.0169722846
 21
170.6915916578
 31
0.0
  0
LINE
  5
1D2
330
1F
100
AcDbEntity
  8
0
  6
Continuous
 62
     8
370
    25
100
AcDbLine
 10
172.6836389512
 20
168.7592386636
 30
0.0
 11
172.6836389512
 21
170.1915916578
 31
0.0
  0
LINE
  5
1D3
330
1F
100
AcDbEntity
  8
0
  6
Continuous
 62
     8
370
    25
100
AcDbLine
 10
177.1439889384
 20
148.6915916578
 30
0.0
 11
177.1439889384
 21
170.6915916578
 31
0.0
  0
LINE
  5
1D4
330
1F
100
AcDbEntity
  8
0
  6
Continuous
 62
     8
370
    25
100
AcDbLine
 10
173.5169722846
 20
151.7072319464
 30
0.0
 11
173.5169722846
 21
149.6481133969
 31
0.0
  0
LINE
  5
1D5
330
1F
100
AcDbEntity
  8
0
  6
Continuous
 62
     8
370
    25
100
AcDbLine
 10
173.5169722846
 20
169.7350699186
 30
0.0
 11
173.5169722846
 21
167.6759513691
 31
0.0
  0
LINE
  5
1D6
330
1F
100
AcDbEntity
  8
0
  6
Continuous
 62
     8
370
    25
100
AcDbLine
 10
152.7568426958
 20
170.1915916578
 30
0.0
 11
152.5169722846
 21
170.1915916578
 31
0.0
  0
LINE
  5
1D7
330
1F
100
AcDbEntity
  8
0
  6
Continuous
 62
     8
370
    25
100
AcDbLine
 10
152.5169722846
 20
170.1915916578
 30
0.0
 11
152.5169722846
 21
169.9750735584
 31
0.0
  0
LINE
  5
1D8
330
1F
100
AcDbEntity
  8
0
  6
Continuous
 62
     8
370
    25
100
AcDbLine
 10
172.0169722846
 20
170.1915916578
 30
0.0
 11
171.2771018733
 21
170.1915916578
 31
0.0
  0
LINE
  5
1D9
330
1F
100
AcDbEntity
  8
0
  6
Continuous
 62
     8
370
    25
100
AcDbLine
 10
152.5169722846
 20
149.4081097572
 30
0.0
 11
152.5169722846
 21
149.1915916578
 31
0.0
  0
LINE
  5
1DA
330
1F
100
AcDbEntity
  8
0
  6
Continuous
 62
     8
370
    25
100
AcDbLine
 10
171.2771018733
 20
149.1915916578
 30
0.0
 11
172.0169722846
 21
149.1915916578
 31
0.0
  0
LINE
  5
1DB
330
1F
100
AcDbEntity
  8
0
  6
Continuous
 62
     8
370
    25
100
AcDbLine
 10
152.5169722846
 20
149.1915916578
 30
0.0
 11
152.7568426958
 21
149.1915916578
 31
0.0
  0
INSERT
  5
1E7
330
1F
100
AcDbEntity
  8
0
  6
Continuous
 62
     7
370
    18
100
AcDbBlockReference
  2
SW_CENTERMARKSYMBOL_1
 10
162.0169722846
 20
159.6915916578
 30
0.0
  0
LINE
  5
1E8
330
1F
100
AcDbEntity
  8
0
  6
Continuous
 62
     7
370
    18
100
AcDbLine
 10
195.1471686481
 20
152.1894102941
 30
0.0
 11
183.0169722846
 21
151.8103416578
 31
0.0
  0
LINE
  5
1E9
330
1F
100
AcDbEntity
  8
0
  6
Continuous
 62
     7
370
    18
100
AcDbLine
 10
195.1471686481
 20
167.1937730214
 30
0.0
 11
183.0169722846
 21
167.5728416578
 31
0.0
  0
LINE
  5
1EA
330
1F
100
AcDbEntity
  8
0
  6
Continuous
 62
     7
370
    18
100
AcDbLine
 10
183.0169722846
 20
168.2304041578
 30
0.0
 11
183.0169722846
 21
151.1527791578
 31
0.0
  0
ARC
  5
1EB
330
1F
100
AcDbEntity
  8
0
  6
Continuous
 62
     7
370
    18
100
AcDbCircle
 10
162.0169722846
 20
159.6915916578
 30
0.0
 40
10.43067499999999
100
AcDbArc
 50
75.0
 51
345.0
  0
ENDSEC
  0
SECTION
  2
OBJECTS
  0
DICTIONARY
  5
C
330
0
100
AcDbDictionary
281
     1
  3
ACAD_GROUP
350
D
  3
ACAD_LAYOUT
350
1A
  3
ACAD_MLINESTYLE
350
17
  3
ACAD_PLOTSETTINGS
350
19
  3
ACAD_PLOTSTYLENAME
350
E
  3
ACAD_SCALELIST
350
47
  0
DICTIONARY
  5
D
102
{ACAD_REACTORS
330
C
102
}
330
C
100
AcDbDictionary
281
     1
  0
DICTIONARY
  5
1A
102
{ACAD_REACTORS
330
C
102
}
330
C
100
AcDbDictionary
281
     1
  3
Layout1
350
1E
  3
Layout2
350
26
  3
Model
350
22
  0
DICTIONARY
  5
17
102
{ACAD_REACTORS
330
C
102
}
330
C
100
AcDbDictionary
281
     1
  3
Standard
350
18
  0
DICTIONARY
  5
19
102
{ACAD_REACTORS
330
C
102
}
330
C
100
AcDbDictionary
281
     1
  0
ACDBDICTIONARYWDFLT
  5
E
102
{ACAD_REACTORS
330
C
102
}
330
C
100
AcDbDictionary
281
     1
  3
Normal
350
F
100
AcDbDictionaryWithDefault
340
F
  0
DICTIONARY
  5
47
102
{ACAD_REACTORS
330
C
102
}
330
C
100
AcDbDictionary
281
     1
  3
A0
350
48
  3
A1
350
49
  3
A2
350
4A
  3
A3
350
4B
  3
A4
350
4C
  3
A5
350
4D
  3
A6
350
4E
  3
A7
350
4F
  3
A8
350
50
  3
A9
350
51
  3
B0
350
52
  3
B1
350
53
  3
B2
350
54
  3
B3
350
55
  3
B4
350
56
  3
B5
350
57
  3
B6
350
58
  3
B7
350
59
  3
B8
350
5A
  3
B9
350
5B
  3
C0
350
5C
  3
C1
350
5D
  3
C2
350
5E
  3
C3
350
5F
  3
C4
350
60
  3
C5
350
61
  3
C6
350
62
  3
C7
350
63
  3
C8
350
64
  3
C9
350
65
  3
D0
350
66
  3
D1
350
67
  3
D2
350
68
  0
LAYOUT
  5
1E
102
{ACAD_REACTORS
330
1A
102
}
330
1A
100
AcDbPlotSettings
  1

  2
none_device
  4

  6

 40
0.0
 41
0.0
 42
0.0
 43
0.0
 44
0.0
 45
0.0
 46
0.0
 47
0.0
 48
0.0
 49
0.0
140
0.0
141
0.0
142
1.0
143
1.0
 70
   688
 72
     1
 73
     0
 74
     5
  7

 75
    16
147
1.0
148
0.0
149
0.0
100
AcDbLayout
  1
Layout1
 70
     1
 71
     1
 10
0.0
 20
0.0
 11
420.0
 21
297.0
 12
0.0
 22
0.0
 32
0.0
 14
1.0000000000E+20
 24
1.0000000000E+20
 34
1.0000000000E+20
 15
-1.0000000000E+20
 25
-1.0000000000E+20
 35
-1.0000000000E+20
146
0.0
 13
0.0
 23
0.0
 33
0.0
 16
1.0
 26
0.0
 36
0.0
 17
0.0
 27
1.0
 37
0.0
 76
     0
330
1B
  0
LAYOUT
  5
26
102
{ACAD_REACTORS
330
1A
102
}
330
1A
100
AcDbPlotSettings
  1

  2
none_device
  4

  6

 40
0.0
 41
0.0
 42
0.0
 43
0.0
 44
0.0
 45
0.0
 46
0.0
 47
0.0
 48
0.0
 49
0.0
140
0.0
141
0.0
142
1.0
143
1.0
 70
   688
 72
     1
 73
     0
 74
     5
  7

 75
    16
147
1.0
148
0.0
149
0.0
100
AcDbLayout
  1
Layout2
 70
     1
 71
     2
 10
0.0
 20
0.0
 11
0.0
 21
0.0
 12
0.0
 22
0.0
 32
0.0
 14
0.0
 24
0.0
 34
0.0
 15
0.0
 25
0.0
 35
0.0
146
0.0
 13
0.0
 23
0.0
 33
0.0
 16
1.0
 26
0.0
 36
0.0
 17
0.0
 27
1.0
 37
0.0
 76
     0
330
23
  0
LAYOUT
  5
22
102
{ACAD_REACTORS
330
1A
102
}
330
1A
100
AcDbPlotSettings
  1

  2
none_device
  4
Letter_(8.50_x_11.00_Inches)
  6

 40
6.35
 41
6.35
 42
6.35000508
 43
6.35000508
 44
215.9
 45
279.4
 46
0.0
 47
0.0
 48
0.0
 49
0.0
140
0.0
141
0.0
142
1.0
143
1.0
 70
  1712
 72
     1
 73
     0
 74
     0
  7

 75
     0
147
1.0
148
0.0
149
0.0
100
AcDbLayout
  1
Model
 70
     1
 71
     0
 10
0.0
 20
0.0
 11
431.8
 21
279.4
 12
0.0
 22
0.0
 32
0.0
 14
0.0
 24
0.0
 34
0.0
 15
431.8
 25
279.4
 35
0.0
146
0.0
 13
0.0
 23
0.0
 33
0.0
 16
1.0
 26
0.0
 36
0.0
 17
0.0
 27
1.0
 37
0.0
 76
     0
330
1F
331
29
  0
MLINESTYLE
  5
18
102
{ACAD_REACTORS
330
17
102
}
330
17
100
AcDbMlineStyle
  2
Standard
 70
     0
  3

 62
   256
 51
90.0
 52
90.0
 71
     2
 49
0.5
 62
   256
  6
BYLAYER
 49
-0.5
 62
   256
  6
BYLAYER
  0
ACDBPLACEHOLDER
  5
F
102
{ACAD_REACTORS
330
E
102
}
330
E
  0
SCALE
  5
48
102
{ACAD_REACTORS
330
47
102
}
330
47
100
AcDbScale
 70
     0
300
1:1
140
1.0
141
1.0
290
     1
  0
SCALE
  5
49
102
{ACAD_REACTORS
330
47
102
}
330
47
100
AcDbScale
 70
     0
300
1:2
140
1.0
141
2.0
290
     0
  0
SCALE
  5
4A
102
{ACAD_REACTORS
330
47
102
}
330
47
100
AcDbScale
 70
     0
300
1:4
140
1.0
141
4.0
290
     0
  0
SCALE
  5
4B
102
{ACAD_REACTORS
330
47
102
}
330
47
100
AcDbScale
 70
     0
300
1:5
140
1.0
141
5.0
290
     0
  0
SCALE
  5
4C
102
{ACAD_REACTORS
330
47
102
}
330
47
100
AcDbScale
 70
     0
300
1:8
140
1.0
141
8.0
290
     0
  0
SCALE
  5
4D
102
{ACAD_REACTORS
330
47
102
}
330
47
100
AcDbScale
 70
     0
300
1:10
140
1.0
141
10.0
290
     0
  0
SCALE
  5
4E
102
{ACAD_REACTORS
330
47
102
}
330
47
100
AcDbScale
 70
     0
300
1:16
140
1.0
141
16.0
290
     0
  0
SCALE
  5
4F
102
{ACAD_REACTORS
330
47
102
}
330
47
100
AcDbScale
 70
     0
300
1:20
140
1.0
141
20.0
290
     0
  0
SCALE
  5
50
102
{ACAD_REACTORS
330
47
102
}
330
47
100
AcDbScale
 70
     0
300
1:30
140
1.0
141
30.0
290
     0
  0
SCALE
  5
51
102
{ACAD_REACTORS
330
47
102
}
330
47
100
AcDbScale
 70
     0
300
1:40
140
1.0
141
40.0
290
     0
  0
SCALE
  5
52
102
{ACAD_REACTORS
330
47
102
}
330
47
100
AcDbScale
 70
     0
300
1:50
140
1.0
141
50.0
290
     0
  0
SCALE
  5
53
102
{ACAD_REACTORS
330
47
102
}
330
47
100
AcDbScale
 70
     0
300
1:100
140
1.0
141
100.0
290
     0
  0
SCALE
  5
54
102
{ACAD_REACTORS
330
47
102
}
330
47
100
AcDbScale
 70
     0
300
2:1
140
2.0
141
1.0
290
     0
  0
SCALE
  5
55
102
{ACAD_REACTORS
330
47
102
}
330
47
100
AcDbScale
 70
     0
300
4:1
140
4.0
141
1.0
290
     0
  0
SCALE
  5
56
102
{ACAD_REACTORS
330
47
102
}
330
47
100
AcDbScale
 70
     0
300
8:1
140
8.0
141
1.0
290
     0
  0
SCALE
  5
57
102
{ACAD_REACTORS
330
47
102
}
330
47
100
AcDbScale
 70
     0
300
10:1
140
10.0
141
1.0
290
     0
  0
SCALE
  5
58
102
{ACAD_REACTORS
330
47
102
}
330
47
100
AcDbScale
 70
     0
300
100:1
140
100.0
141
1.0
290
     0
  0
SCALE
  5
59
102
{ACAD_REACTORS
330
47
102
}
330
47
100
AcDbScale
 70
     0
300
1/128" = 1'-0"
140
0.0078125
141
12.0
290
     0
  0
SCALE
  5
5A
102
{ACAD_REACTORS
330
47
102
}
330
47
100
AcDbScale
 70
     0
300
1/64" = 1'-0"
140
0.015625
141
12.0
290
     0
  0
SCALE
  5
5B
102
{ACAD_REACTORS
330
47
102
}
330
47
100
AcDbScale
 70
     0
300
1/32" = 1'-0"
140
0.03125
141
12.0
290
     0
  0
SCALE
  5
5C
102
{ACAD_REACTORS
330
47
102
}
330
47
100
AcDbScale
 70
     0
300
1/16" = 1'-0"
140
0.0625
141
12.0
290
     0
  0
SCALE
  5
5D
102
{ACAD_REACTORS
330
47
102
}
330
47
100
AcDbScale
 70
     0
300
3/32" = 1'-0"
140
0.09375
141
12.0
290
     0
  0
SCALE
  5
5E
102
{ACAD_REACTORS
330
47
102
}
330
47
100
AcDbScale
 70
     0
300
1/8" = 1'-0"
140
0.125
141
12.0
290
     0
  0
SCALE
  5
5F
102
{ACAD_REACTORS
330
47
102
}
330
47
100
AcDbScale
 70
     0
300
3/16" = 1'-0"
140
0.1875
141
12.0
290
     0
  0
SCALE
  5
60
102
{ACAD_REACTORS
330
47
102
}
330
47
100
AcDbScale
 70
     0
300
1/4" = 1'-0"
140
0.25
141
12.0
290
     0
  0
SCALE
  5
61
102
{ACAD_REACTORS
330
47
102
}
330
47
100
AcDbScale
 70
     0
300
3/8" = 1'-0"
140
0.375
141
12.0
290
     0
  0
SCALE
  5
62
102
{ACAD_REACTORS
330
47
102
}
330
47
100
AcDbScale
 70
     0
300
1/2" = 1'-0"
140
0.5
141
12.0
290
     0
  0
SCALE
  5
63
102
{ACAD_REACTORS
330
47
102
}
330
47
100
AcDbScale
 70
     0
300
3/4" = 1'-0"
140
0.75
141
12.0
290
     0
  0
SCALE
  5
64
102
{ACAD_REACTORS
330
47
102
}
330
47
100
AcDbScale
 70
     0
300
1" = 1'-0"
140
1.0
141
12.0
290
     0
  0
SCALE
  5
65
102
{ACAD_REACTORS
330
47
102
}
330
47
100
AcDbScale
 70
     0
300
1-1/2" = 1'-0"
140
1.5
141
12.0
290
     0
  0
SCALE
  5
66
102
{ACAD_REACTORS
330
47
102
}
330
47
100
AcDbScale
 70
     0
300
3" = 1'-0"
140
3.0
141
12.0
290
     0
  0
SCALE
  5
67
102
{ACAD_REACTORS
330
47
102
}
330
47
100
AcDbScale
 70
     0
300
6" = 1'-0"
140
6.0
141
12.0
290
     0
  0
SCALE
  5
68
102
{ACAD_REACTORS
330
47
102
}
330
47
100
AcDbScale
 70
     0
300
1'-0" = 1'-0"
140
12.0
141
12.0
290
     0
  0
ENDSEC
  0
EOF
