  0
SECTION
  2
HEADER
  9
$ACADVER
  1
AC1015
  9
$ACADMAINTVER
 70
     6
  9
$DWGCODEPAGE
  3
DOS932
  9
$INSBASE
 10
0.0
 20
0.0
 30
0.0
  9
$EXTMIN
 10
0.0
 20
0.0
 30
0.0
  9
$EXTMAX
 10
431.8
 20
279.4
 30
0.0
  9
$LIMMIN
 10
0.0
 20
0.0
  9
$LIMMAX
 10
431.8
 20
279.4
  9
$ORTHOMODE
 70
     0
  9
$REGENMODE
 70
     1
  9
$FILLMODE
 70
     1
  9
$QTEXTMODE
 70
     0
  9
$MIRRTEXT
 70
     1
  9
$LTSCALE
 40
1.0
  9
$ATTMODE
 70
     1
  9
$TEXTSIZE
 40
3.5
  9
$TRACEWID
 40
1.0
  9
$TEXTSTYLE
  7
Standard
  9
$CLAYER
  8
0
  9
$CELTYPE
  6
ByLayer
  9
$CECOLOR
 62
   256
  9
$CELTSCALE
 40
1.0
  9
$DISPSILH
 70
     0
  9
$DIMSCALE
 40
1.0
  9
$DIMASZ
 40
3.302
  9
$DIMEXO
 40
1.0
  9
$DIMDLI
 40
3.75
  9
$DIMRND
 40
0.0
  9
$DIMDLE
 40
0.0
  9
$DIMEXE
 40
1.0
  9
$DIMTP
 40
0.0
  9
$DIMTM
 40
0.0
  9
$DIMTXT
 40
3.5
  9
$DIMCEN
 40
2.5
  9
$DIMTSZ
 40
0.0
  9
$DIMTOL
 70
     0
  9
$DIMLIM
 70
     0
  9
$DIMTIH
 70
     1
  9
$DIMTOH
 70
     1
  9
$DIMSE1
 70
     0
  9
$DIMSE2
 70
     0
  9
$DIMTAD
 70
     1
  9
$DIMZIN
 70
     1
  9
$DIMBLK
  1

  9
$DIMASO
 70
     1
  9
$DIMSHO
 70
     1
  9
$DIMPOST
  1

  9
$DIMAPOST
  1

  9
$DIMALT
 70
     0
  9
$DIMALTD
 70
     3
  9
$DIMALTF
 40
0.0393700787
  9
$DIMLFAC
 40
1.0
  9
$DIMTOFL
 70
     1
  9
$DIMTVP
 40
0.0
  9
$DIMTIX
 70
     0
  9
$DIMSOXD
 70
     0
  9
$DIMSAH
 70
     0
  9
$DIMBLK1
  1

  9
$DIMBLK2
  1

  9
$DIMSTYLE
  2
ISO-25
  9
$DIMCLRD
 70
     0
  9
$DIMCLRE
 70
     0
  9
$DIMCLRT
 70
     0
  9
$DIMTFAC
 40
1.0
  9
$DIMGAP
 40
1.524
  9
$DIMJUST
 70
     0
  9
$DIMSD1
 70
     0
  9
$DIMSD2
 70
     0
  9
$DIMTOLJ
 70
     0
  9
$DIMTZIN
 70
     1
  9
$DIMALTZ
 70
     0
  9
$DIMALTTZ
 70
     0
  9
$DIMUPT
 70
     0
  9
$DIMDEC
 70
     2
  9
$DIMTDEC
 70
     2
  9
$DIMALTU
 70
     2
  9
$DIMALTTD
 70
     3
  9
$DIMTXSTY
  7
Standard
  9
$DIMAUNIT
 70
     0
  9
$DIMADEC
 70
     2
  9
$DIMALTRND
 40
0.0
  9
$DIMAZIN
 70
     0
  9
$DIMDSEP
 70
    44
  9
$DIMATFIT
 70
     3
  9
$DIMFRAC
 70
     0
  9
$DIMLDRBLK
  1

  9
$DIMLUNIT
 70
     2
  9
$DIMLWD
 70
    -2
  9
$DIMLWE
 70
    -2
  9
$DIMTMOVE
 70
     0
  9
$LUNITS
 70
     2
  9
$LUPREC
 70
     2
  9
$SKETCHINC
 40
1.0
  9
$FILLETRAD
 40
10.0
  9
$AUNITS
 70
     0
  9
$AUPREC
 70
     2
  9
$MENU
  1
.
  9
$ELEVATION
 40
0.0
  9
$PELEVATION
 40
0.0
  9
$THICKNESS
 40
0.0
  9
$LIMCHECK
 70
     0
  9
$CHAMFERA
 40
0.0
  9
$CHAMFERB
 40
0.0
  9
$CHAMFERC
 40
0.0
  9
$CHAMFERD
 40
0.0
  9
$SKPOLY
 70
     0
  9
$TDCREATE
 40
2459230.773219699
  9
$TDUCREATE
 40
2459230.398219699
  9
$TDUPDATE
 40
2459230.773220127
  9
$TDUUPDATE
 40
2459230.398220127
  9
$TDINDWG
 40
0.0000000116
  9
$TDUSRTIMER
 40
0.0000000116
  9
$USRTIMER
 70
     1
  9
$ANGBASE
 50
0.0
  9
$ANGDIR
 70
     0
  9
$PDMODE
 70
     0
  9
$PDSIZE
 40
-1.0
  9
$PLINEWID
 40
0.0
  9
$SPLFRAME
 70
     0
  9
$SPLINETYPE
 70
     6
  9
$SPLINESEGS
 70
     8
  9
$HANDSEED
  5
192
  9
$SURFTAB1
 70
     6
  9
$SURFTAB2
 70
     6
  9
$SURFTYPE
 70
     6
  9
$SURFU
 70
     6
  9
$SURFV
 70
     6
  9
$UCSBASE
  2

  9
$UCSNAME
  2

  9
$UCSORG
 10
0.0
 20
0.0
 30
0.0
  9
$UCSXDIR
 10
1.0
 20
0.0
 30
0.0
  9
$UCSYDIR
 10
0.0
 20
1.0
 30
0.0
  9
$UCSORTHOREF
  2

  9
$UCSORTHOVIEW
 70
     0
  9
$UCSORGTOP
 10
0.0
 20
0.0
 30
0.0
  9
$UCSORGBOTTOM
 10
0.0
 20
0.0
 30
0.0
  9
$UCSORGLEFT
 10
0.0
 20
0.0
 30
0.0
  9
$UCSORGRIGHT
 10
0.0
 20
0.0
 30
0.0
  9
$UCSORGFRONT
 10
0.0
 20
0.0
 30
0.0
  9
$UCSORGBACK
 10
0.0
 20
0.0
 30
0.0
  9
$PUCSBASE
  2

  9
$PUCSNAME
  2

  9
$PUCSORG
 10
0.0
 20
0.0
 30
0.0
  9
$PUCSXDIR
 10
1.0
 20
0.0
 30
0.0
  9
$PUCSYDIR
 10
0.0
 20
1.0
 30
0.0
  9
$PUCSORTHOREF
  2

  9
$PUCSORTHOVIEW
 70
     0
  9
$PUCSORGTOP
 10
0.0
 20
0.0
 30
0.0
  9
$PUCSORGBOTTOM
 10
0.0
 20
0.0
 30
0.0
  9
$PUCSORGLEFT
 10
0.0
 20
0.0
 30
0.0
  9
$PUCSORGRIGHT
 10
0.0
 20
0.0
 30
0.0
  9
$PUCSORGFRONT
 10
0.0
 20
0.0
 30
0.0
  9
$PUCSORGBACK
 10
0.0
 20
0.0
 30
0.0
  9
$USERI1
 70
     0
  9
$USERI2
 70
     0
  9
$USERI3
 70
     0
  9
$USERI4
 70
     0
  9
$USERI5
 70
     0
  9
$USERR1
 40
0.0
  9
$USERR2
 40
0.0
  9
$USERR3
 40
0.0
  9
$USERR4
 40
0.0
  9
$USERR5
 40
0.0
  9
$WORLDVIEW
 70
     1
  9
$SHADEDGE
 70
     3
  9
$SHADEDIF
 70
    70
  9
$TILEMODE
 70
     1
  9
$MAXACTVP
 70
    64
  9
$PINSBASE
 10
0.0
 20
0.0
 30
0.0
  9
$PLIMCHECK
 70
     0
  9
$PEXTMIN
 10
1.0000000000E+20
 20
1.0000000000E+20
 30
1.0000000000E+20
  9
$PEXTMAX
 10
-1.0000000000E+20
 20
-1.0000000000E+20
 30
-1.0000000000E+20
  9
$PLIMMIN
 10
0.0
 20
0.0
  9
$PLIMMAX
 10
420.0
 20
297.0
  9
$UNITMODE
 70
     0
  9
$VISRETAIN
 70
     1
  9
$PLINEGEN
 70
     0
  9
$PSLTSCALE
 70
     1
  9
$TREEDEPTH
 70
  3020
  9
$CMLSTYLE
  2
Standard
  9
$CMLJUST
 70
     0
  9
$CMLSCALE
 40
20.0
  9
$PROXYGRAPHICS
 70
     1
  9
$MEASUREMENT
 70
     1
  9
$CELWEIGHT
370
    -1
  9
$ENDCAPS
280
     0
  9
$JOINSTYLE
280
     0
  9
$LWDISPLAY
290
     1
  9
$INSUNITS
 70
     4
  9
$HYPERLINKBASE
  1

  9
$STYLESHEET
  1

  9
$XEDIT
290
     1
  9
$CEPSNTYPE
380
     0
  9
$PSTYLEMODE
290
     1
  9
$FINGERPRINTGUID
  2
{81FD7D71-55D7-4981-9EE1-220FCF4B3DF0}
  9
$VERSIONGUID
  2
{FAEB1C32-E019-11D5-929B-00C0DF256EC4}
  9
$EXTNAMES
290
     1
  9
$PSVPSCALE
 40
0.0
  9
$OLESTARTUP
290
     0
  0
ENDSEC
  0
SECTION
  2
CLASSES
  0
CLASS
  1
ACDBDICTIONARYWDFLT
  2
AcDbDictionaryWithDefault
  3
ObjectDBX Classes
 90
        0
280
     0
281
     0
  0
CLASS
  1
VISUALSTYLE
  2
AcDbVisualStyle
  3
ObjectDBX Classes
 90
     4095
280
     0
281
     0
  0
CLASS
  1
MATERIAL
  2
AcDbMaterial
  3
ObjectDBX Classes
 90
     1153
280
     0
281
     0
  0
CLASS
  1
SCALE
  2
AcDbScale
  3
ObjectDBX Classes
 90
     1153
280
     0
281
     0
  0
CLASS
  1
TABLESTYLE
  2
AcDbTableStyle
  3
ObjectDBX Classes
 90
     4095
280
     0
281
     0
  0
CLASS
  1
MLEADERSTYLE
  2
AcDbMLeaderStyle
  3
ACDB_MLEADERSTYLE_CLASS
 90
     4095
280
     0
281
     0
  0
CLASS
  1
SUN
  2
AcDbSun
  3
SCENEOE
 90
     1153
280
     0
281
     0
  0
CLASS
  1
ACDBPLACEHOLDER
  2
AcDbPlaceHolder
  3
ObjectDBX Classes
 90
        0
280
     0
281
     0
  0
CLASS
  1
LAYOUT
  2
AcDbLayout
  3
ObjectDBX Classes
 90
        0
280
     0
281
     0
  0
ENDSEC
  0
SECTION
  2
TABLES
  0
TABLE
  2
VPORT
  5
8
330
0
100
AcDbSymbolTable
 70
     1
  0
VPORT
  5
29
330
8
100
AcDbSymbolTableRecord
100
AcDbViewportTableRecord
  2
*Active
 70
     0
 10
0.0
 20
0.0
 11
1.0
 21
1.0
 12
215.9
 22
139.7
 13
0.0
 23
0.0
 14
10.0
 24
10.0
 15
10.0
 25
10.0
 16
0.0
 26
0.0
 36
1.0
 17
0.0
 27
0.0
 37
0.0
 40
279.4
 41
1.5454545455
 42
50.0
 43
0.0
 44
0.0
 50
0.0
 51
0.0
 71
     0
 72
  2000
 73
     1
 74
     3
 75
     0
 76
     0
 77
     0
 78
     0
281
     0
 65
     1
110
0.0
120
0.0
130
0.0
111
1.0
121
0.0
131
0.0
112
0.0
122
1.0
132
0.0
 79
     0
146
0.0
  0
ENDTAB
  0
TABLE
  2
LTYPE
  5
5
330
0
100
AcDbSymbolTable
 70
     6
  0
LTYPE
  5
14
330
5
100
AcDbSymbolTableRecord
100
AcDbLinetypeTableRecord
  2
ByBlock
 70
     0
  3

 72
    65
 73
     0
 40
0.0
  0
LTYPE
  5
15
330
5
100
AcDbSymbolTableRecord
100
AcDbLinetypeTableRecord
  2
ByLayer
 70
     0
  3

 72
    65
 73
     0
 40
0.0
  0
LTYPE
  5
16
330
5
100
AcDbSymbolTableRecord
100
AcDbLinetypeTableRecord
  2
Continuous
 70
     0
  3
Solid line
 72
    65
 73
     0
 40
0.0
  0
LTYPE
  5
6E
330
5
100
AcDbSymbolTableRecord
100
AcDbLinetypeTableRecord
  2
HIDDEN
 70
     0
  3
Hidden __ __ __ __ __ __ __ __ __ __ __ __ __ __
 72
    65
 73
     2
 40
1.905
 49
1.27
 74
     0
 49
-0.635
 74
     0
  0
LTYPE
  5
6F
330
5
100
AcDbSymbolTableRecord
100
AcDbLinetypeTableRecord
  2
PHANTOM
 70
     0
  3
Phantom ______  __  __  ______  __  __  ______
 72
    65
 73
     6
 40
12.7
 49
6.35
 74
     0
 49
-1.27
 74
     0
 49
1.27
 74
     0
 49
-1.27
 74
     0
 49
1.27
 74
     0
 49
-1.27
 74
     0
  0
LTYPE
  5
70
330
5
100
AcDbSymbolTableRecord
100
AcDbLinetypeTableRecord
  2
CENTER
 70
     0
  3
Center ____ _ ____ _ ____ _ ____ _ ____ _ ____
 72
    65
 73
     4
 40
10.16
 49
6.35
 74
     0
 49
-1.27
 74
     0
 49
1.27
 74
     0
 49
-1.27
 74
     0
  0
LTYPE
  5
71
330
5
100
AcDbSymbolTableRecord
100
AcDbLinetypeTableRecord
  2
CENTERX2
 70
     0
  3
Center (2x) ________  __  ________  __  _____
 72
    65
 73
     4
 40
20.32
 49
12.7
 74
     0
 49
-2.54
 74
     0
 49
2.54
 74
     0
 49
-2.54
 74
     0
  0
LTYPE
  5
72
330
5
100
AcDbSymbolTableRecord
100
AcDbLinetypeTableRecord
  2
DOT2
 70
     0
  3
Dot (.5x) ........................................
 72
    65
 73
     2
 40
0.635
 49
0.0
 74
     0
 49
-0.635
 74
     0
  0
ENDTAB
  0
TABLE
  2
LAYER
  5
2
330
0
100
AcDbSymbolTable
 70
     1
  0
LAYER
  5
10
330
2
100
AcDbSymbolTableRecord
100
AcDbLayerTableRecord
  2
0
 70
     0
 62
     7
  6
Continuous
370
    -3
390
F
  0
ENDTAB
  0
TABLE
  2
STYLE
  5
3
330
0
100
AcDbSymbolTable
 70
     2
  0
STYLE
  5
11
330
3
100
AcDbSymbolTableRecord
100
AcDbTextStyleTableRecord
  2
Standard
 70
     0
 40
0.0
 41
1.0
 50
0.0
 71
     0
 42
3.5
  3
txt
  4
bigfont
  0
STYLE
  5
73
330
3
100
AcDbSymbolTableRecord
100
AcDbTextStyleTableRecord
  2
SLDTEXTSTYLE0
 70
     0
 40
0.0
 41
0.7
 50
0.0
 71
     0
 42
3.5
  3
TXT
  4
bigfont
  0
ENDTAB
  0
TABLE
  2
VIEW
  5
6
330
0
100
AcDbSymbolTable
 70
     0
  0
ENDTAB
  0
TABLE
  2
UCS
  5
7
330
0
100
AcDbSymbolTable
 70
     0
  0
ENDTAB
  0
TABLE
  2
APPID
  5
9
330
0
100
AcDbSymbolTable
 70
     1
  0
APPID
  5
12
330
9
100
AcDbSymbolTableRecord
100
AcDbRegAppTableRecord
  2
ACAD
 70
     0
  0
ENDTAB
  0
TABLE
  2
DIMSTYLE
  5
A
330
0
100
AcDbSymbolTable
 70
     1
100
AcDbDimStyleTable
  0
DIMSTYLE
105
27
330
A
100
AcDbSymbolTableRecord
100
AcDbDimStyleTableRecord
  2
ISO-25
 70
     0
 41
2.5
 42
0.625
 43
3.75
 44
1.25
 73
     0
 74
     0
 77
     1
 78
     8
140
2.5
141
2.5
143
0.0393700787
147
0.625
171
     3
172
     1
178
     0
271
     2
272
     2
274
     3
278
    44
283
     0
284
     8
340
11
  0
ENDTAB
  0
TABLE
  2
BLOCK_RECORD
  5
1
330
0
100
AcDbSymbolTable
 70
     3
  0
BLOCK_RECORD
  5
1F
330
1
100
AcDbSymbolTableRecord
100
AcDbBlockTableRecord
  2
*Model_Space
340
22
  0
BLOCK_RECORD
  5
1B
330
1
100
AcDbSymbolTableRecord
100
AcDbBlockTableRecord
  2
*Paper_Space
340
1E
  0
BLOCK_RECORD
  5
23
330
1
100
AcDbSymbolTableRecord
100
AcDbBlockTableRecord
  2
*Paper_Space0
340
26
  0
BLOCK_RECORD
  5
147
330
1
100
AcDbSymbolTableRecord
100
AcDbBlockTableRecord
  2
SW_CENTERMARKSYMBOL_0
340
0
102
{BLKREFS
331
152
102
}
  0
BLOCK_RECORD
  5
182
330
1
100
AcDbSymbolTableRecord
100
AcDbBlockTableRecord
  2
SW_CENTERMARKSYMBOL_1
340
0
102
{BLKREFS
331
18D
102
}
  0
ENDTAB
  0
ENDSEC
  0
SECTION
  2
BLOCKS
  0
BLOCK
  5
20
330
1F
100
AcDbEntity
  8
0
100
AcDbBlockBegin
  2
*Model_Space
 70
     0
 10
0.0
 20
0.0
 30
0.0
  3
*Model_Space
  1

  0
ENDBLK
  5
21
330
1F
100
AcDbEntity
  8
0
100
AcDbBlockEnd
  0
BLOCK
  5
1C
330
1B
100
AcDbEntity
 67
     1
  8
0
100
AcDbBlockBegin
  2
*Paper_Space
 70
     0
 10
0.0
 20
0.0
 30
0.0
  3
*Paper_Space
  1

  0
ENDBLK
  5
1D
330
1B
100
AcDbEntity
 67
     1
  8
0
100
AcDbBlockEnd
  0
BLOCK
  5
24
330
23
100
AcDbEntity
  8
0
100
AcDbBlockBegin
  2
*Paper_Space0
 70
     0
 10
0.0
 20
0.0
 30
0.0
  3
*Paper_Space0
  1

  0
ENDBLK
  5
25
330
23
100
AcDbEntity
  8
0
100
AcDbBlockEnd
  0
BLOCK
  5
148
330
147
100
AcDbEntity
  8
0
100
AcDbBlockBegin
  2
SW_CENTERMARKSYMBOL_0
 70
     0
 10
0.0
 20
0.0
 30
0.0
  3
SW_CENTERMARKSYMBOL_0
  1

  0
LINE
  5
14A
330
147
100
AcDbEntity
  8
0
  6
Continuous
 62
     0
370
    18
100
AcDbLine
 10
0.0
 20
0.0
 30
0.0
 11
0.0
 21
2.5
 31
0.0
  0
LINE
  5
14B
330
147
100
AcDbEntity
  8
0
  6
Continuous
 62
     0
370
    18
100
AcDbLine
 10
0.0
 20
0.0
 30
0.0
 11
-2.5
 21
0.0
 31
0.0
  0
LINE
  5
14C
330
147
100
AcDbEntity
  8
0
  6
Continuous
 62
     0
370
    18
100
AcDbLine
 10
0.0
 20
0.0
 30
0.0
 11
0.0
 21
-2.5
 31
0.0
  0
LINE
  5
14D
330
147
100
AcDbEntity
  8
0
  6
Continuous
 62
     0
370
    18
100
AcDbLine
 10
0.0
 20
0.0
 30
0.0
 11
2.5
 21
0.0
 31
0.0
  0
LINE
  5
14E
330
147
100
AcDbEntity
  8
0
  6
Continuous
 62
     0
370
    18
100
AcDbLine
 10
0.0
 20
5.0
 30
0.0
 11
0.0
 21
31.0811959809
 31
0.0
  0
LINE
  5
14F
330
147
100
AcDbEntity
  8
0
  6
Continuous
 62
     0
370
    18
100
AcDbLine
 10
-5.0
 20
0.0
 30
0.0
 11
-10.0711803304
 21
0.0
 31
0.0
  0
LINE
  5
150
330
147
100
AcDbEntity
  8
0
  6
Continuous
 62
     0
370
    18
100
AcDbLine
 10
0.0
 20
-5.0
 30
0.0
 11
0.0
 21
-10.3022521345
 31
0.0
  0
LINE
  5
151
330
147
100
AcDbEntity
  8
0
  6
Continuous
 62
     0
370
    18
100
AcDbLine
 10
5.0
 20
0.0
 30
0.0
 11
10.0217478542
 21
0.0
 31
0.0
  0
ENDBLK
  5
149
330
147
100
AcDbEntity
  8
0
100
AcDbBlockEnd
  0
BLOCK
  5
183
330
182
100
AcDbEntity
  8
0
100
AcDbBlockBegin
  2
SW_CENTERMARKSYMBOL_1
 70
     0
 10
0.0
 20
0.0
 30
0.0
  3
SW_CENTERMARKSYMBOL_1
  1

  0
LINE
  5
185
330
182
100
AcDbEntity
  8
0
  6
Continuous
 62
     0
370
    18
100
AcDbLine
 10
0.0
 20
0.0
 30
0.0
 11
0.0
 21
2.5
 31
0.0
  0
LINE
  5
186
330
182
100
AcDbEntity
  8
0
  6
Continuous
 62
     0
370
    18
100
AcDbLine
 10
0.0
 20
0.0
 30
0.0
 11
-2.5
 21
0.0
 31
0.0
  0
LINE
  5
187
330
182
100
AcDbEntity
  8
0
  6
Continuous
 62
     0
370
    18
100
AcDbLine
 10
0.0
 20
0.0
 30
0.0
 11
0.0
 21
-2.5
 31
0.0
  0
LINE
  5
188
330
182
100
AcDbEntity
  8
0
  6
Continuous
 62
     0
370
    18
100
AcDbLine
 10
0.0
 20
0.0
 30
0.0
 11
2.5
 21
0.0
 31
0.0
  0
LINE
  5
189
330
182
100
AcDbEntity
  8
0
  6
Continuous
 62
     0
370
    18
100
AcDbLine
 10
0.0
 20
5.0
 30
0.0
 11
0.0
 21
13.75
 31
0.0
  0
LINE
  5
18A
330
182
100
AcDbEntity
  8
0
  6
Continuous
 62
     0
370
    18
100
AcDbLine
 10
-5.0
 20
0.0
 30
0.0
 11
-13.75
 21
0.0
 31
0.0
  0
LINE
  5
18B
330
182
100
AcDbEntity
  8
0
  6
Continuous
 62
     0
370
    18
100
AcDbLine
 10
0.0
 20
-5.0
 30
0.0
 11
0.0
 21
-13.75
 31
0.0
  0
LINE
  5
18C
330
182
100
AcDbEntity
  8
0
  6
Continuous
 62
     0
370
    18
100
AcDbLine
 10
5.0
 20
0.0
 30
0.0
 11
30.9124136928
 21
0.0
 31
0.0
  0
ENDBLK
  5
184
330
182
100
AcDbEntity
  8
0
100
AcDbBlockEnd
  0
ENDSEC
  0
SECTION
  2
ENTITIES
  0
MTEXT
  5
74
330
1F
100
AcDbEntity
  8
0
  6
Continuous
 62
     7
370
     0
100
AcDbMText
 10
162.0502465544
 20
140.3335693554
 30
0.0
 40
5.2916666667
 41
0.0
 71
     1
 72
     1
  1
5R-LK1033
  7
SLDTEXTSTYLE0
 73
     1
 44
1.0
  0
ARC
  5
75
330
1F
100
AcDbEntity
  8
0
  6
Continuous
 62
     7
370
    25
100
AcDbCircle
 10
141.057584623
 20
112.2915273546
 30
0.0
 40
2.500000000000009
100
AcDbArc
 50
296.7436839504
 51
0.0
  0
ARC
  5
76
330
1F
100
AcDbEntity
  8
0
  6
Continuous
 62
     7
370
    25
100
AcDbCircle
 10
123.557584623
 20
112.2915273546
 30
0.0
 40
2.500000000000009
100
AcDbArc
 50
180.0
 51
243.2563160496
  0
LINE
  5
77
330
1F
100
AcDbEntity
  8
0
  6
Continuous
 62
     7
370
    25
100
AcDbLine
 10
143.557584623
 20
123.8263845797
 30
0.0
 11
143.057584623
 21
124.3263845797
 31
0.0
  0
LINE
  5
78
330
1F
100
AcDbEntity
  8
0
  6
Continuous
 62
     7
370
    25
100
AcDbLine
 10
121.557584623
 20
124.3263845797
 30
0.0
 11
121.057584623
 21
123.8263845797
 31
0.0
  0
LINE
  5
79
330
1F
100
AcDbEntity
  8
0
  6
Continuous
 62
     7
370
    25
100
AcDbLine
 10
143.557584623
 20
112.2915273546
 30
0.0
 11
143.557584623
 21
123.8263845797
 31
0.0
  0
LINE
  5
7A
330
1F
100
AcDbEntity
  8
0
  6
Continuous
 62
     7
370
    25
100
AcDbLine
 10
121.057584623
 20
123.8263845797
 30
0.0
 11
121.057584623
 21
112.2915273546
 31
0.0
  0
ARC
  5
7B
330
1F
100
AcDbEntity
  8
0
  6
Continuous
 62
     7
370
    25
100
AcDbCircle
 10
143.307584623
 20
107.8263845797
 30
0.0
 40
2.499999999999984
100
AcDbArc
 50
116.7436839504
 51
180.0
  0
ARC
  5
7C
330
1F
100
AcDbEntity
  8
0
  6
Continuous
 62
     7
370
    25
100
AcDbCircle
 10
121.307584623
 20
107.8263845797
 30
0.0
 40
2.5
100
AcDbArc
 50
0.0
 51
63.2563160496
  0
ARC
  5
7D
330
1F
100
AcDbEntity
  8
0
  6
Continuous
 62
     7
370
    25
100
AcDbCircle
 10
144.807584623
 20
84.3263845797
 30
0.0
 40
2.500000000000016
100
AcDbArc
 50
74.1084670401
 51
90.0
  0
ARC
  5
7E
330
1F
100
AcDbEntity
  8
0
  6
Continuous
 62
     7
370
    25
100
AcDbCircle
 10
144.807584623
 20
106.3263845797
 30
0.0
 40
2.500000000000003
100
AcDbArc
 50
270.0
 51
285.8915329599
  0
LINE
  5
7F
330
1F
100
AcDbEntity
  8
0
  6
Continuous
 62
     7
370
    25
100
AcDbLine
 10
145.4921273524
 20
86.73083904
 30
0.0
 11
158.2336751893
 21
87.1290124099
 31
0.0
  0
LINE
  5
80
330
1F
100
AcDbEntity
  8
0
  6
Continuous
 62
     7
370
    25
100
AcDbLine
 10
158.2336751893
 20
103.5237567495
 30
0.0
 11
145.4921273524
 21
103.9219301194
 31
0.0
  0
LINE
  5
81
330
1F
100
AcDbEntity
  8
0
  6
Continuous
 62
     7
370
    25
100
AcDbLine
 10
123.807584623
 20
107.8263845797
 30
0.0
 11
123.807584623
 21
89.8219839113
 31
0.0
  0
LINE
  5
82
330
1F
100
AcDbEntity
  8
0
  6
Continuous
 62
     7
370
    25
100
AcDbLine
 10
140.807584623
 20
104.3263845797
 30
0.0
 11
140.807584623
 21
107.8263845797
 31
0.0
  0
LINE
  5
83
330
1F
100
AcDbEntity
  8
0
  6
Continuous
 62
     7
370
    25
100
AcDbLine
 10
144.807584623
 20
103.8263845797
 30
0.0
 11
141.307584623
 21
103.8263845797
 31
0.0
  0
LINE
  5
84
330
1F
100
AcDbEntity
  8
0
  6
Continuous
 62
     7
370
    25
100
AcDbLine
 10
126.8031839545
 20
86.8263845797
 30
0.0
 11
144.807584623
 21
86.8263845797
 31
0.0
  0
LINE
  5
85
330
1F
100
AcDbEntity
  8
0
  6
Continuous
 62
     7
370
    25
100
AcDbLine
 10
158.2336751893
 20
87.1290124099
 30
0.0
 11
160.307584623
 21
88.3263845797
 31
0.0
  0
LINE
  5
86
330
1F
100
AcDbEntity
  8
0
  6
Continuous
 62
     7
370
    25
100
AcDbLine
 10
160.307584623
 20
102.3263845797
 30
0.0
 11
158.2336751893
 21
103.5237567495
 31
0.0
  0
SPLINE
  5
87
330
1F
100
AcDbEntity
  8
0
  6
Continuous
 62
     7
370
    25
100
AcDbSpline
210
0.0
220
0.0
230
1.0
 70
     8
 71
     3
 72
    21
 73
    17
 74
     0
 42
0.000000001
 43
0.00000001
 40
0.0
 40
0.0
 40
0.0
 40
0.0
 40
0.082675667536071
 40
0.1577159023869824
 40
0.225107122878268
 40
0.2848508575649881
 40
0.3526127842311548
 40
0.4067896671894032
 40
0.4520101410146769
 40
0.5086861790580107
 40
0.5792250314326626
 40
0.6636251927364243
 40
0.7360318665421361
 40
0.8162246244150331
 40
0.9042198598363963
 40
1.0
 40
1.0
 40
1.0
 40
1.0
 10
123.8075846232273
 20
89.82634495674347
 30
0.0
 10
123.8124823468001
 20
89.6964678499163
 30
0.0
 10
123.8218254693408
 20
89.44870831300398
 30
0.0
 10
123.8908720659055
 20
89.10083916543522
 30
0.0
 10
123.9842601695096
 20
88.79706279794036
 30
0.0
 10
124.1038897733352
 20
88.51493972306662
 30
0.0
 10
124.2411853452841
 20
88.26432917198653
 30
0.0
 10
124.3887371732507
 20
88.0469624047313
 30
0.0
 10
124.5417477734801
 20
87.85536470555067
 30
0.0
 10
124.7273064922435
 20
87.65778053534969
 30
0.0
 10
124.9784902330148
 20
87.4393462351309
 30
0.0
 10
125.2750033285733
 20
87.23884846012186
 30
0.0
 10
125.6069864800398
 20
87.06902242966258
 30
0.0
 10
125.9625830460765
 20
86.93953377722373
 30
0.0
 10
126.3682842967594
 20
86.84560294794974
 30
0.0
 10
126.6570473372627
 20
86.8329690967332
 30
0.0
 10
126.807544999996
 20
86.82638457997477
 30
0.0
  0
SPLINE
  5
88
330
1F
100
AcDbEntity
  8
0
  6
Continuous
 62
     7
370
    25
100
AcDbSpline
210
0.0
220
0.0
230
1.0
 70
     8
 71
     3
 72
    11
 73
     7
 74
     0
 42
0.000000001
 43
0.00000001
 40
0.0
 40
0.0
 40
0.0
 40
0.0
 40
0.2500481156911711
 40
0.5000000000000012
 40
0.7499518843088333
 40
1.0
 40
1.0
 40
1.0
 40
1.0
 10
141.3124179541391
 20
103.8263845797097
 30
0.0
 10
141.2460168206523
 20
103.8334770039691
 30
0.0
 10
141.1132401082518
 20
103.8476591229579
 30
0.0
 10
140.9456417996668
 20
103.9644417564143
 30
0.0
 10
140.8288591662104
 20
104.1320400649993
 30
0.0
 10
140.8146770472216
 20
104.2648167773998
 30
0.0
 10
140.8075846229623
 20
104.3312179108866
 30
0.0
  0
LINE
  5
89
330
1F
100
AcDbEntity
  8
0
  6
Continuous
 62
     7
370
    25
100
AcDbLine
 10
132.307584623
 20
123.8263845797
 30
0.0
 11
121.057584623
 21
123.8263845797
 31
0.0
  0
LINE
  5
8A
330
1F
100
AcDbEntity
  8
0
  6
Continuous
 62
     7
370
    25
100
AcDbLine
 10
143.557584623
 20
123.8263845797
 30
0.0
 11
132.307584623
 21
123.8263845797
 31
0.0
  0
LINE
  5
8B
330
1F
100
AcDbEntity
  8
0
  6
Continuous
 62
     7
370
    25
100
AcDbLine
 10
132.307584623
 20
124.3263845797
 30
0.0
 11
143.057584623
 21
124.3263845797
 31
0.0
  0
LINE
  5
8C
330
1F
100
AcDbEntity
  8
0
  6
Continuous
 62
     7
370
    25
100
AcDbLine
 10
121.557584623
 20
124.3263845797
 30
0.0
 11
132.307584623
 21
124.3263845797
 31
0.0
  0
LINE
  5
8D
330
1F
100
AcDbEntity
  8
0
  6
Continuous
 62
     7
370
    25
100
AcDbLine
 10
145.4921273524
 20
95.3263845797
 30
0.0
 11
145.4921273524
 21
103.9219301194
 31
0.0
  0
LINE
  5
8E
330
1F
100
AcDbEntity
  8
0
  6
Continuous
 62
     7
370
    25
100
AcDbLine
 10
145.4921273524
 20
86.73083904
 30
0.0
 11
145.4921273524
 21
95.3263845797
 31
0.0
  0
LINE
  5
8F
330
1F
100
AcDbEntity
  8
0
  6
Continuous
 62
     7
370
    25
100
AcDbLine
 10
158.2336751893
 20
95.3263845797
 30
0.0
 11
158.2336751893
 21
87.1290124099
 31
0.0
  0
LINE
  5
90
330
1F
100
AcDbEntity
  8
0
  6
Continuous
 62
     7
370
    25
100
AcDbLine
 10
158.2336751893
 20
103.5237567495
 30
0.0
 11
158.2336751893
 21
95.3263845797
 31
0.0
  0
SPLINE
  5
91
330
1F
100
AcDbEntity
  8
0
  6
Continuous
 62
     7
370
    25
100
AcDbSpline
210
0.0
220
0.0
230
1.0
 70
    24
 71
     3
 72
     8
 73
     4
 74
     0
 42
0.000000001
 43
0.00000001
 40
0.0
 40
0.0
 40
0.0
 40
0.0
 40
1.0
 40
1.0
 40
1.0
 40
1.0
 10
132.3075846229623
 20
103.8263845797097
 30
0.0
 10
133.2842379657251
 20
103.8263845797097
 30
0.0
 10
134.2606628001016
 20
103.8263845797097
 30
0.0
 10
135.1798659462313
 20
103.8263845797097
 30
0.0
  0
SPLINE
  5
92
330
1F
100
AcDbEntity
  8
0
  6
Continuous
 62
     7
370
    25
100
AcDbSpline
210
0.0
220
0.0
230
1.0
 70
    24
 71
     3
 72
     8
 73
     4
 74
     0
 42
0.000000001
 43
0.00000001
 40
0.0
 40
0.0
 40
0.0
 40
0.0
 40
1.0
 40
1.0
 40
1.0
 40
1.0
 10
129.4353032996932
 20
103.8263845797097
 30
0.0
 10
130.354506445823
 20
103.8263845797097
 30
0.0
 10
131.3309312801994
 20
103.8263845797097
 30
0.0
 10
132.3075846229623
 20
103.8263845797097
 30
0.0
  0
SPLINE
  5
93
330
1F
100
AcDbEntity
  8
0
  6
Continuous
 62
     7
370
    25
100
AcDbSpline
210
0.0
220
0.0
230
1.0
 70
     8
 71
     3
 72
     8
 73
     4
 74
     0
 42
0.000000001
 43
0.00000001
 40
0.0
 40
0.0
 40
0.0
 40
0.0
 40
1.0
 40
1.0
 40
1.0
 40
1.0
 10
125.4155602469172
 20
103.6367342028551
 30
0.0
 10
125.3434940005747
 20
103.545702272576
 30
0.0
 10
125.2830010430085
 20
103.4357470424017
 30
0.0
 10
125.2242512896289
 20
103.3263845797097
 30
0.0
  0
LINE
  5
94
330
1F
100
AcDbEntity
  8
0
  6
Continuous
 62
     7
370
    25
100
AcDbLine
 10
125.2242512896
 20
103.3263845797
 30
0.0
 11
125.2242512896
 21
91.3263845797
 31
0.0
  0
SPLINE
  5
95
330
1F
100
AcDbEntity
  8
0
  6
Continuous
 62
     7
370
    25
100
AcDbSpline
210
0.0
220
0.0
230
1.0
 70
     8
 71
     3
 72
    10
 73
     6
 74
     0
 42
0.000000001
 43
0.00000001
 40
0.0
 40
0.0
 40
0.0
 40
0.0
 40
0.0280934765544326
 40
0.0280934765544326
 40
0.0561869531088653
 40
0.0561869531088653
 40
0.0561869531088653
 40
0.0561869531088653
 10
125.2242512896289
 20
91.32638457970974
 30
0.0
 10
125.2242512896289
 20
91.23273965786161
 30
0.0
 10
125.2278287838735
 20
91.13868375265704
 30
0.0
 10
125.241990261934
 20
90.95241304055102
 30
0.0
 10
125.2525695337803
 20
90.8602305712669
 30
0.0
 10
125.2662505395721
 20
90.77022723163375
 30
0.0
  0
ELLIPSE
  5
96
330
1F
100
AcDbEntity
  8
0
  6
Continuous
 62
     7
370
    25
100
AcDbEllipse
 10
137.307584623
 20
93.7875336876
 30
0.0
 11
0.5653269642954513
 21
1.222133505507372E-12
 31
0.0
210
0.0
220
0.0
230
1.0
 40
0.9531667975
 41
0.4357918987532778
 42
2.705800754832199
  0
LINE
  5
97
330
1F
100
AcDbEntity
  8
0
  6
Continuous
 62
     7
370
    25
100
AcDbLine
 10
135.7029996415
 20
90.9615464704
 30
0.0
 11
136.7950953534
 21
94.0149979624
 31
0.0
  0
ELLIPSE
  5
98
330
1F
100
AcDbEntity
  8
0
  6
Continuous
 62
     7
370
    25
100
AcDbEllipse
 10
135.1461603764
 20
91.1424876178
 30
0.0
 11
-0.588307735200658
 21
1.421085471520200E-14
 31
0.0
210
0.0
220
0.0
230
1.0
 40
0.9531667975
 41
1.04719755119702
 42
2.813039483038261
  0
LINE
  5
99
330
1F
100
AcDbEntity
  8
0
  6
Continuous
 62
     7
370
    25
100
AcDbLine
 10
134.8072767484
 20
90.6814744802
 30
0.0
 11
134.8520065088
 21
90.6568591962
 31
0.0
  0
LINE
  5
9A
330
1F
100
AcDbEntity
  8
0
  6
Continuous
 62
     7
370
    25
100
AcDbLine
 10
135.4977868766
 20
89.3651318249
 30
0.0
 11
134.8072767484
 21
90.6814744802
 31
0.0
  0
ELLIPSE
  5
9B
330
1F
100
AcDbEntity
  8
0
  6
Continuous
 62
     7
370
    25
100
AcDbEllipse
 10
135.563561681
 20
89.3964790047
 30
0.0
 11
0.07353846690023147
 21
1.421085471520200E-14
 31
0.0
210
0.0
220
0.0
230
1.0
 40
0.9531667975
 41
3.605240262590516
 42
5.462183310215005
  0
ELLIPSE
  5
9C
330
1F
100
AcDbEntity
  8
0
  6
Continuous
 62
     7
370
    25
100
AcDbEllipse
 10
137.307584623
 20
87.6113386656
 30
0.0
 11
2.485600181227454
 21
-1.705302565824240E-13
 31
0.0
210
0.0
220
0.0
230
1.0
 40
0.9531667975
 41
0.8210019969645054
 42
2.320590656625375
  0
ELLIPSE
  5
9D
330
1F
100
AcDbEntity
  8
0
  6
Continuous
 62
     7
370
    25
100
AcDbEllipse
 10
139.0516075649
 20
89.3964790047
 30
0.0
 11
0.07353846690020305
 21
4.263256414560601E-14
 31
0.0
210
0.0
220
0.0
230
1.0
 40
0.9531667975
 41
3.962594650553848
 42
5.819537698178102
  0
LINE
  5
9E
330
1F
100
AcDbEntity
  8
0
  6
Continuous
 62
     7
370
    25
100
AcDbLine
 10
139.8078924976
 20
90.6814744802
 30
0.0
 11
139.1173823693
 21
89.3651318249
 31
0.0
  0
LINE
  5
9F
330
1F
100
AcDbEntity
  8
0
  6
Continuous
 62
     7
370
    25
100
AcDbLine
 10
139.7717740758
 20
90.6608342349
 30
0.0
 11
139.8078924976
 21
90.6814744802
 31
0.0
  0
ELLIPSE
  5
A0
330
1F
100
AcDbEntity
  8
0
  6
Continuous
 62
     7
370
    25
100
AcDbEllipse
 10
139.4692634272
 20
91.1417758859
 30
0.0
 11
-0.588307735201596
 21
-1.421085471520200E-13
 31
0.0
210
0.0
220
0.0
230
1.0
 40
0.9531667975
 41
0.328553170551225
 42
2.110876526947654
  0
LINE
  5
A1
330
1F
100
AcDbEntity
  8
0
  6
Continuous
 62
     7
370
    25
100
AcDbLine
 10
137.8200738925
 20
94.0149979624
 30
0.0
 11
138.912424162
 21
90.9608347385
 31
0.0
  0
SPLINE
  5
A2
330
1F
100
AcDbEntity
  8
0
  6
Continuous
 62
     7
370
    25
100
AcDbSpline
210
0.0
220
0.0
230
1.0
 70
     8
 71
     3
 72
    10
 73
     6
 74
     0
 42
0.000000001
 43
0.00000001
 40
-0.2904940295525288
 40
-0.2904940295525288
 40
-0.2904940295525288
 40
-0.2904940295525288
 40
-0.1303072746110114
 40
-0.1303072746110114
 40
0.001056361752625
 40
0.001056361752625
 40
0.001056361752625
 40
0.001056361752625
 10
140.8075846229623
 20
95.32638457970974
 30
0.0
 10
140.6780813071879
 20
94.80837131661262
 30
0.0
 10
140.5462903290383
 20
94.28444551296852
 30
0.0
 10
140.3678663895976
 20
93.32604304937335
 30
0.0
 10
140.3075846229623
 20
92.8919820443195
 30
0.0
 10
140.3075846229623
 20
92.45410325644072
 30
0.0
  0
LINE
  5
A3
330
1F
100
AcDbEntity
  8
0
  6
Continuous
 62
     7
370
    25
100
AcDbLine
 10
140.307584623
 20
92.4541032564
 30
0.0
 11
140.307584623
 21
88.8263845797
 31
0.0
  0
LINE
  5
A4
330
1F
100
AcDbEntity
  8
0
  6
Continuous
 62
     7
370
    25
100
AcDbLine
 10
140.307584623
 20
88.8263845797
 30
0.0
 11
128.307584623
 21
88.8263845797
 31
0.0
  0
ARC
  5
A5
330
1F
100
AcDbEntity
  8
0
  6
Continuous
 62
     7
370
    25
100
AcDbCircle
 10
128.307584623
 20
91.3263845797
 30
0.0
 40
2.500000000000014
100
AcDbArc
 50
180.0
 51
270.0
  0
LINE
  5
A6
330
1F
100
AcDbEntity
  8
0
  6
Continuous
 62
     7
370
    25
100
AcDbLine
 10
125.807584623
 20
91.3263845797
 30
0.0
 11
125.807584623
 21
103.3263845797
 31
0.0
  0
LINE
  5
A7
330
1F
100
AcDbEntity
  8
0
  6
Continuous
 62
     7
370
    25
100
AcDbLine
 10
125.807584623
 20
103.3263845797
 30
0.0
 11
129.4353032997
 21
103.3263845797
 31
0.0
  0
SPLINE
  5
A8
330
1F
100
AcDbEntity
  8
0
  6
Continuous
 62
     7
370
    25
100
AcDbSpline
210
0.0
220
0.0
230
1.0
 70
     8
 71
     3
 72
    10
 73
     6
 74
     0
 42
0.000000001
 43
0.00000001
 40
-0.8711658249657241
 40
-0.8711658249657241
 40
-0.8711658249657241
 40
-0.8711658249657241
 40
-0.7398021886020881
 40
-0.7398021886020881
 40
-0.5796154507864705
 40
-0.5796154507864705
 40
-0.5796154507864705
 40
-0.5796154507864705
 10
129.4353032996932
 20
103.3263845797097
 30
0.0
 10
129.873182087572
 20
103.3263845797097
 30
0.0
 10
130.3072430926264
 20
103.3866663463451
 30
0.0
 10
131.265645499924
 20
103.5650902753051
 30
0.0
 10
131.7895714152316
 20
103.696881277777
 30
0.0
 10
132.3075846229623
 20
103.8263845797097
 30
0.0
  0
SPLINE
  5
A9
330
1F
100
AcDbEntity
  8
0
  6
Continuous
 62
     7
370
    25
100
AcDbSpline
210
0.0
220
0.0
230
1.0
 70
     8
 71
     3
 72
    10
 73
     6
 74
     0
 42
0.000000001
 43
0.00000001
 40
-0.2904940295525327
 40
-0.2904940295525327
 40
-0.2904940295525327
 40
-0.2904940295525327
 40
-0.130307291676468
 40
-0.130307291676468
 40
0.0010563446871674
 40
0.0010563446871674
 40
0.0010563446871674
 40
0.0010563446871674
 10
132.3075846229623
 20
103.8263845797097
 30
0.0
 10
132.8255978308884
 20
103.6968812777282
 30
0.0
 10
133.3495237458018
 20
103.5650902753421
 30
0.0
 10
134.3079261532981
 20
103.3866663463451
 30
0.0
 10
134.7419871583525
 20
103.3263845797097
 30
0.0
 10
135.1798659462313
 20
103.3263845797097
 30
0.0
  0
LINE
  5
AA
330
1F
100
AcDbEntity
  8
0
  6
Continuous
 62
     7
370
    25
100
AcDbLine
 10
135.1798659462
 20
103.3263845797
 30
0.0
 11
138.807584623
 21
103.3263845797
 31
0.0
  0
ARC
  5
AB
330
1F
100
AcDbEntity
  8
0
  6
Continuous
 62
     7
370
    25
100
AcDbCircle
 10
140.307584623
 20
103.3263845797
 30
0.0
 40
1.500000000000014
100
AcDbArc
 50
180.0
 51
270.0
  0
LINE
  5
AC
330
1F
100
AcDbEntity
  8
0
  6
Continuous
 62
     7
370
    25
100
AcDbLine
 10
140.307584623
 20
101.8263845797
 30
0.0
 11
140.307584623
 21
98.198665903
 31
0.0
  0
SPLINE
  5
AD
330
1F
100
AcDbEntity
  8
0
  6
Continuous
 62
     7
370
    25
100
AcDbSpline
210
0.0
220
0.0
230
1.0
 70
     8
 71
     3
 72
    10
 73
     6
 74
     0
 42
0.000000001
 43
0.00000001
 40
-0.8711658421011628
 40
-0.8711658421011628
 40
-0.8711658421011628
 40
-0.8711658421011628
 40
-0.739802205737527
 40
-0.739802205737527
 40
-0.579615450786466
 40
-0.579615450786466
 40
-0.579615450786466
 40
-0.579615450786466
 10
140.3075846229623
 20
98.19866590297875
 30
0.0
 10
140.3075846229623
 20
97.76078711509996
 30
0.0
 10
140.3678663895976
 20
97.32672611004611
 30
0.0
 10
140.5462903290442
 20
96.36832364641958
 30
0.0
 10
140.6780813071802
 20
95.84439784283768
 30
0.0
 10
140.8075846229623
 20
95.32638457970974
 30
0.0
  0
SPLINE
  5
AE
330
1F
100
AcDbEntity
  8
0
  6
Continuous
 62
     7
370
    25
100
AcDbSpline
210
0.0
220
0.0
230
1.0
 70
    24
 71
     3
 72
     8
 73
     4
 74
     0
 42
0.000000001
 43
0.00000001
 40
0.0
 40
0.0
 40
0.0
 40
0.0
 40
1.0
 40
1.0
 40
1.0
 40
1.0
 10
140.8075846229623
 20
95.32638457970974
 30
0.0
 10
140.8075846229623
 20
94.3497312369469
 30
0.0
 10
140.8075846229623
 20
93.37330640257044
 30
0.0
 10
140.8075846229623
 20
92.45410325644072
 30
0.0
  0
SPLINE
  5
AF
330
1F
100
AcDbEntity
  8
0
  6
Continuous
 62
     7
370
    25
100
AcDbSpline
210
0.0
220
0.0
230
1.0
 70
    24
 71
     3
 72
     8
 73
     4
 74
     0
 42
0.000000001
 43
0.00000001
 40
0.0
 40
0.0
 40
0.0
 40
0.0
 40
1.0
 40
1.0
 40
1.0
 40
1.0
 10
140.8075846229623
 20
98.19866590297875
 30
0.0
 10
140.8075846229623
 20
97.27946275684903
 30
0.0
 10
140.8075846229623
 20
96.30303792247257
 30
0.0
 10
140.8075846229623
 20
95.32638457970974
 30
0.0
  0
SPLINE
  5
B0
330
1F
100
AcDbEntity
  8
0
  6
Continuous
 62
     7
370
    25
100
AcDbSpline
210
0.0
220
0.0
230
1.0
 70
     8
 71
     3
 72
    10
 73
     6
 74
     0
 42
0.000000001
 43
0.00000001
 40
0.0
 40
0.0
 40
0.0
 40
0.0
 40
0.0280934765544328
 40
0.0280934765544328
 40
0.0561869531088657
 40
0.0561869531088657
 40
0.0561869531088657
 40
0.0561869531088657
 10
127.7514272748863
 20
88.28505049631957
 30
0.0
 10
127.8414306145194
 20
88.27136949052779
 30
0.0
 10
127.9336130838036
 20
88.26079021868149
 30
0.0
 10
128.1198837959096
 20
88.24662874062098
 30
0.0
 10
128.2139397011142
 20
88.2430512463764
 30
0.0
 10
128.3075846229623
 20
88.2430512463764
 30
0.0
  0
LINE
  5
B1
330
1F
100
AcDbEntity
  8
0
  6
Continuous
 62
     7
370
    25
100
AcDbLine
 10
128.3075811899
 20
88.2430512464
 30
0.0
 11
140.307584623
 21
88.2430512464
 31
0.0
  0
SPLINE
  5
B2
330
1F
100
AcDbEntity
  8
0
  6
Continuous
 62
     7
370
    25
100
AcDbSpline
210
0.0
220
0.0
230
1.0
 70
     8
 71
     3
 72
     8
 73
     4
 74
     0
 42
0.000000001
 43
0.00000001
 40
0.0
 40
0.0
 40
0.0
 40
0.0
 40
1.0
 40
1.0
 40
1.0
 40
1.0
 10
140.6179342461076
 20
88.43436020366461
 30
0.0
 10
140.5269023158285
 20
88.3622939573222
 30
0.0
 10
140.416947085657
 20
88.30180099975443
 30
0.0
 10
140.3075846229623
 20
88.2430512463764
 30
0.0
  0
LINE
  5
B3
330
1F
100
AcDbEntity
  8
0
  6
Continuous
 62
     7
370
    25
100
AcDbLine
 10
139.307584623
 20
103.8263845797
 30
0.0
 11
135.1798659462
 21
103.8263845797
 31
0.0
  0
LINE
  5
B4
330
1F
100
AcDbEntity
  8
0
  6
Continuous
 62
     7
370
    25
100
AcDbLine
 10
138.807584623
 20
103.3263845797
 30
0.0
 11
139.307584623
 21
103.8263845797
 31
0.0
  0
SPLINE
  5
B5
330
1F
100
AcDbEntity
  8
0
  6
Continuous
 62
     7
370
    25
100
AcDbSpline
210
0.0
220
0.0
230
1.0
 70
    24
 71
     3
 72
    10
 73
     6
 74
     0
 42
0.000000001
 43
0.00000001
 40
0.0
 40
0.0
 40
0.0
 40
0.0
 40
0.5
 40
0.5
 40
1.0
 40
1.0
 40
1.0
 40
1.0
 10
135.1798659462313
 20
103.8263845797097
 30
0.0
 10
135.1798659462313
 20
103.8263845797097
 30
0.0
 10
135.1798659462313
 20
103.7724980315146
 30
0.0
 10
135.1798659462313
 20
103.5873779090914
 30
0.0
 10
135.1798659462313
 20
103.4572842736093
 30
0.0
 10
135.1798659462313
 20
103.3263845797097
 30
0.0
  0
SPLINE
  5
B6
330
1F
100
AcDbEntity
  8
0
  6
Continuous
 62
     7
370
    25
100
AcDbSpline
210
0.0
220
0.0
230
1.0
 70
    24
 71
     3
 72
    10
 73
     6
 74
     0
 42
0.000000001
 43
0.00000001
 40
0.0
 40
0.0
 40
0.0
 40
0.0
 40
0.5
 40
0.5
 40
1.0
 40
1.0
 40
1.0
 40
1.0
 10
129.4353032996932
 20
103.3263845797097
 30
0.0
 10
129.4353032996932
 20
103.4572842736093
 30
0.0
 10
129.4353032996932
 20
103.5873779090914
 30
0.0
 10
129.4353032996932
 20
103.7724980315146
 30
0.0
 10
129.4353032996932
 20
103.8263845797097
 30
0.0
 10
129.4353032996932
 20
103.8263845797097
 30
0.0
  0
LINE
  5
B7
330
1F
100
AcDbEntity
  8
0
  6
Continuous
 62
     7
370
    25
100
AcDbLine
 10
125.807584623
 20
103.8263845797
 30
0.0
 11
125.807584623
 21
103.3263845797
 31
0.0
  0
LINE
  5
B8
330
1F
100
AcDbEntity
  8
0
  6
Continuous
 62
     7
370
    25
100
AcDbLine
 10
129.4353032997
 20
103.8263845797
 30
0.0
 11
125.807584623
 21
103.8263845797
 31
0.0
  0
LINE
  5
B9
330
1F
100
AcDbEntity
  8
0
  6
Continuous
 62
     7
370
    25
100
AcDbLine
 10
140.807584623
 20
98.198665903
 30
0.0
 11
140.807584623
 21
101.8263845797
 31
0.0
  0
SPLINE
  5
BA
330
1F
100
AcDbEntity
  8
0
  6
Continuous
 62
     7
370
    25
100
AcDbSpline
210
0.0
220
0.0
230
1.0
 70
    24
 71
     3
 72
    10
 73
     6
 74
     0
 42
0.000000001
 43
0.00000001
 40
0.0
 40
0.0
 40
0.0
 40
0.0
 40
0.5
 40
0.5
 40
1.0
 40
1.0
 40
1.0
 40
1.0
 10
140.3075846229623
 20
98.19866590297875
 30
0.0
 10
140.4384843168618
 20
98.19866590297875
 30
0.0
 10
140.5685779523439
 20
98.19866590297875
 30
0.0
 10
140.7536980747672
 20
98.19866590297875
 30
0.0
 10
140.8075846229623
 20
98.19866590297875
 30
0.0
 10
140.8075846229623
 20
98.19866590297875
 30
0.0
  0
LINE
  5
BB
330
1F
100
AcDbEntity
  8
0
  6
Continuous
 62
     7
370
    25
100
AcDbLine
 10
140.307584623
 20
101.8263845797
 30
0.0
 11
140.807584623
 21
101.8263845797
 31
0.0
  0
SPLINE
  5
BC
330
1F
100
AcDbEntity
  8
0
  6
Continuous
 62
     7
370
    25
100
AcDbSpline
210
0.0
220
0.0
230
1.0
 70
    24
 71
     3
 72
    10
 73
     6
 74
     0
 42
0.000000001
 43
0.00000001
 40
0.0
 40
0.0
 40
0.0
 40
0.0
 40
0.5
 40
0.5
 40
1.0
 40
1.0
 40
1.0
 40
1.0
 10
140.8075846229623
 20
92.45410325644072
 30
0.0
 10
140.8075846229623
 20
92.45410325644072
 30
0.0
 10
140.7536980747672
 20
92.45410325644072
 30
0.0
 10
140.5685779523439
 20
92.45410325644072
 30
0.0
 10
140.4384843168618
 20
92.45410325644072
 30
0.0
 10
140.3075846229623
 20
92.45410325644072
 30
0.0
  0
LINE
  5
BD
330
1F
100
AcDbEntity
  8
0
  6
Continuous
 62
     7
370
    25
100
AcDbLine
 10
140.807584623
 20
88.8263845797
 30
0.0
 11
140.807584623
 21
92.4541032564
 31
0.0
  0
LINE
  5
BE
330
1F
100
AcDbEntity
  8
0
  6
Continuous
 62
     7
370
    25
100
AcDbLine
 10
140.307584623
 20
88.8263845797
 30
0.0
 11
140.807584623
 21
88.8263845797
 31
0.0
  0
ELLIPSE
  5
BF
330
1F
100
AcDbEntity
  8
0
  6
Continuous
 62
     7
370
    25
100
AcDbEllipse
 10
137.0442437343
 20
91.0319466051
 30
0.0
 11
-0.07353846690023147
 21
0.0
 31
0.0
210
0.0
220
0.0
230
1.0
 40
0.9531667975
 41
5.940161364897931
 42
7.853981633974483
  0
LINE
  5
C0
330
1F
100
AcDbEntity
  8
0
  6
Continuous
 62
     7
370
    25
100
AcDbLine
 10
137.2383303683
 20
91.7583437283
 30
0.0
 11
136.974989478
 21
91.0555219116
 31
0.0
  0
ELLIPSE
  5
C1
330
1F
100
AcDbEntity
  8
0
  6
Continuous
 62
     7
370
    25
100
AcDbEllipse
 10
137.570925512
 20
91.0319466051
 30
0.0
 11
0.07353846690023147
 21
1.421085471520200E-14
 31
0.0
210
0.0
220
0.0
230
1.0
 40
0.9531667975
 41
4.712388980384518
 42
6.626209245739136
  0
LINE
  5
C2
330
1F
100
AcDbEntity
  8
0
  6
Continuous
 62
     7
370
    25
100
AcDbLine
 10
137.0442437343
 20
90.9618521801
 30
0.0
 11
137.570925512
 21
90.9618521801
 31
0.0
  0
ELLIPSE
  5
C3
330
1F
100
AcDbEntity
  8
0
  6
Continuous
 62
     7
370
    25
100
AcDbEllipse
 10
137.3075846247
 20
91.7347684219
 30
0.0
 11
0.07353846690023147
 21
0.0
 31
0.0
210
0.0
220
0.0
230
1.0
 40
0.9531667975
 41
0.3430239394902306
 42
2.798568712238662
  0
LINE
  5
C4
330
1F
100
AcDbEntity
  8
0
  6
Continuous
 62
     7
370
    25
100
AcDbLine
 10
137.6401797685
 20
91.0555219114
 30
0.0
 11
137.3768388811
 21
91.7583437282
 31
0.0
  0
LINE
  5
C5
330
1F
100
AcDbEntity
  8
0
  6
Continuous
 62
     7
370
    25
100
AcDbLine
 10
138.807584623
 20
103.3263845797
 30
0.0
 11
139.307584623
 21
103.3263845797
 31
0.0
  0
ARC
  5
C6
330
1F
100
AcDbEntity
  8
0
  6
Continuous
 62
     7
370
    25
100
AcDbCircle
 10
140.307584623
 20
103.3263845797
 30
0.0
 40
1.000000000000014
100
AcDbArc
 50
180.0
 51
270.0
  0
LINE
  5
C7
330
1F
100
AcDbEntity
  8
0
  6
Continuous
 62
     7
370
    25
100
AcDbLine
 10
140.307584623
 20
101.8263845797
 30
0.0
 11
140.307584623
 21
102.3263845797
 31
0.0
  0
ARC
  5
C8
330
1F
100
AcDbEntity
  8
0
  6
Continuous
 62
     7
370
    25
100
AcDbCircle
 10
140.307584623
 20
101.8263845797
 30
0.0
 40
0.5000000000000284
100
AcDbArc
 50
0.0
 51
90.0
  0
LINE
  5
C9
330
1F
100
AcDbEntity
  8
0
  6
Continuous
 62
     7
370
    25
100
AcDbLine
 10
139.307584623
 20
103.3263845797
 30
0.0
 11
139.307584623
 21
103.8263845797
 31
0.0
  0
LINE
  5
CA
330
1F
100
AcDbEntity
  8
0
  6
Continuous
 62
     7
370
    25
100
AcDbLine
 10
125.807584623
 20
91.3263845797
 30
0.0
 11
125.307584623
 21
91.3263845797
 31
0.0
  0
LINE
  5
CB
330
1F
100
AcDbEntity
  8
0
  6
Continuous
 62
     7
370
    25
100
AcDbLine
 10
125.307584623
 20
103.3263845797
 30
0.0
 11
125.307584623
 21
91.3263845797
 31
0.0
  0
LINE
  5
CC
330
1F
100
AcDbEntity
  8
0
  6
Continuous
 62
     7
370
    25
100
AcDbLine
 10
125.807584623
 20
103.3263845797
 30
0.0
 11
125.307584623
 21
103.3263845797
 31
0.0
  0
LINE
  5
CD
330
1F
100
AcDbEntity
  8
0
  6
Continuous
 62
     7
370
    25
100
AcDbLine
 10
128.307584623
 20
88.8263845797
 30
0.0
 11
128.307584623
 21
88.3263845797
 31
0.0
  0
LINE
  5
CE
330
1F
100
AcDbEntity
  8
0
  6
Continuous
 62
     7
370
    25
100
AcDbLine
 10
140.307584623
 20
88.3263845797
 30
0.0
 11
140.307584623
 21
88.8263845797
 31
0.0
  0
LINE
  5
CF
330
1F
100
AcDbEntity
  8
0
  6
Continuous
 62
     7
370
    25
100
AcDbLine
 10
128.307584623
 20
88.3263845797
 30
0.0
 11
140.307584623
 21
88.3263845797
 31
0.0
  0
ARC
  5
D0
330
1F
100
AcDbEntity
  8
0
  6
Continuous
 62
     7
370
    25
100
AcDbCircle
 10
128.307584623
 20
91.3263845797
 30
0.0
 40
3.000000000000014
100
AcDbArc
 50
180.0
 51
270.0
  0
ARC
  5
D1
330
1F
100
AcDbEntity
  8
0
  6
Continuous
 62
     7
370
    25
100
AcDbCircle
 10
125.807584623
 20
103.3263845797
 30
0.0
 40
0.5
100
AcDbArc
 50
90.0
 51
180.0
  0
ARC
  5
D2
330
1F
100
AcDbEntity
  8
0
  6
Continuous
 62
     7
370
    25
100
AcDbCircle
 10
140.307584623
 20
88.8263845797
 30
0.0
 40
0.5
100
AcDbArc
 50
270.0
 51
0.0
  0
LINE
  5
D3
330
1F
100
AcDbEntity
  8
0
  6
Continuous
 62
     7
370
    25
100
AcDbLine
 10
160.307584623
 20
102.3263845797
 30
0.0
 11
160.307584623
 21
88.3263845797
 31
0.0
  0
LWPOLYLINE
  5
D4
330
1F
100
AcDbEntity
  8
0
  6
Continuous
 62
     7
370
    25
100
AcDbPolyline
 90
        9
 70
   128
 43
0.0
 10
127.8308783246
 20
88.364501546
 10
127.8219989319
 20
88.3644441528
 10
127.8127052501
 20
88.3614891542
 10
127.8030518377
 20
88.3556538975
 10
127.7930953647
 20
88.3469726385
 10
127.7828942803
 20
88.3354963401
 10
127.7725084697
 20
88.3212923738
 10
127.7619989025
 20
88.3044441235
 10
127.7514272749
 20
88.2850504963
  0
SPLINE
  5
D5
330
1F
100
AcDbEntity
  8
0
  6
Continuous
 62
     7
370
    25
100
AcDbSpline
210
0.0
220
0.0
230
1.0
 70
     8
 71
     3
 72
    14
 73
    10
 74
     0
 42
0.000000001
 43
0.00000001
 40
-0.4399100083495733
 40
-0.4399100083495733
 40
-0.4399100083495733
 40
-0.4399100083495733
 40
-0.2980125372576002
 40
-0.2980125372576002
 40
-0.1727985319285605
 40
-0.1727985319285605
 40
-0.0664609738186771
 40
-0.0664609738186771
 40
0.0
 40
0.0
 40
0.0
 40
0.0
 10
125.2662505395721
 20
90.77022723163375
 30
0.0
 10
125.3238753271479
 20
90.37548241954221
 30
0.0
 10
125.4632927144689
 20
89.98686156859185
 30
0.0
 10
125.8661970729501
 20
89.33673578219012
 30
0.0
 10
126.1125667654376
 20
89.06593405082833
 30
0.0
 10
126.644434990495
 20
88.66411951957288
 30
0.0
 10
126.9147623890358
 20
88.51997969341465
 30
0.0
 10
127.381535990518
 20
88.35697896499029
 30
0.0
 10
127.5665393806935
 20
88.31204040296774
 30
0.0
 10
127.7514272748863
 20
88.28505049631957
 30
0.0
  0
LWPOLYLINE
  5
D6
330
1F
100
AcDbEntity
  8
0
  6
Continuous
 62
     7
370
    25
100
AcDbPolyline
 90
        9
 70
   128
 43
0.0
 10
125.3457015893
 20
90.8496782814
 10
125.345644196
 20
90.8407988886
 10
125.3426891975
 20
90.8315052069
 10
125.3368539408
 20
90.8218517944
 10
125.3281726817
 20
90.8118953214
 10
125.3166963834
 20
90.801694237
 10
125.302492417
 20
90.7913084264
 10
125.2856441667
 20
90.7807988593
 10
125.2662505396
 20
90.7702272316
  0
LINE
  5
D7
330
1F
100
AcDbEntity
  8
0
  6
Continuous
 62
     7
370
    25
100
AcDbLine
 10
125.307584623
 20
91.3263845797
 30
0.0
 11
125.2242512896
 21
91.3263845797
 31
0.0
  0
LWPOLYLINE
  5
D8
330
1F
100
AcDbEntity
  8
0
  6
Continuous
 62
     7
370
    25
100
AcDbPolyline
 90
        9
 70
   128
 43
0.0
 10
128.307584623
 20
88.3263845797
 10
128.307584623
 20
88.3250452267
 10
128.307584623
 20
88.3210343431
 10
128.307584623
 20
88.314373417
 10
128.307584623
 20
88.3050981336
 10
128.307584623
 20
88.2932581844
 10
128.307584623
 20
88.278917001
 10
128.307584623
 20
88.2621514149
 10
128.3075811899
 20
88.2430512464
  0
LINE
  5
D9
330
1F
100
AcDbEntity
  8
0
  6
Continuous
 62
     7
370
    25
100
AcDbLine
 10
125.307584623
 20
103.3263845797
 30
0.0
 11
125.2242512896
 21
103.3263845797
 31
0.0
  0
LINE
  5
DA
330
1F
100
AcDbEntity
  8
0
  6
Continuous
 62
     7
370
    25
100
AcDbLine
 10
140.307584623
 20
88.2430512464
 30
0.0
 11
140.307584623
 21
88.3263845797
 31
0.0
  0
LINE
  5
DB
330
1F
100
AcDbEntity
  8
0
  6
Continuous
 62
     7
370
    25
100
AcDbLine
 10
127.8308783246
 20
88.364501546
 30
0.0
 11
128.067371149
 21
88.3371508328
 31
0.0
  0
LINE
  5
DC
330
1F
100
AcDbEntity
  8
0
  6
Continuous
 62
     8
370
    25
100
AcDbLine
 10
143.557584623
 20
112.2915273546
 30
0.0
 11
121.057584623
 21
112.2915273546
 31
0.0
  0
LINE
  5
DD
330
1F
100
AcDbEntity
  8
0
  6
Continuous
 62
     8
370
    25
100
AcDbLine
 10
122.432584623
 20
110.0589559671
 30
0.0
 11
142.182584623
 21
110.0589559671
 31
0.0
  0
LINE
  5
DE
330
1F
100
AcDbEntity
  8
0
  6
Continuous
 62
     8
370
    25
100
AcDbLine
 10
123.807584623
 20
107.8263845797
 30
0.0
 11
140.807584623
 21
107.8263845797
 31
0.0
  0
LINE
  5
DF
330
1F
100
AcDbEntity
  8
0
  6
Continuous
 62
     8
370
    25
100
AcDbLine
 10
144.807584623
 20
103.8263845797
 30
0.0
 11
144.807584623
 21
86.8263845797
 31
0.0
  0
SPLINE
  5
E0
330
1F
100
AcDbEntity
  8
0
  6
Continuous
 62
     8
370
    25
100
AcDbSpline
210
0.0
220
0.0
230
1.0
 70
    24
 71
     3
 72
    12
 73
     8
 74
     0
 42
0.000000001
 43
0.00000001
 40
-0.5788447217180464
 40
-0.5788447217180464
 40
-0.5788447217180464
 40
-0.5788447217180464
 40
-0.3728576618289314
 40
-0.3728576618289314
 40
-0.0432783660063474
 40
-0.0432783660063474
 40
0.0
 40
0.0
 40
0.0
 40
0.0
 10
140.8075846229623
 20
104.3263845797097
 30
0.0
 10
140.8075846229625
 20
104.3263845797099
 30
0.0
 10
140.7472628667691
 20
104.262514484917
 30
0.0
 10
140.4368960322078
 20
103.9338907777344
 30
0.0
 10
140.0939609479657
 20
103.5707830414781
 30
0.0
 10
139.5548349319687
 20
102.9999437304225
 30
0.0
 10
139.4899457638185
 20
102.931237552381
 30
0.0
 10
139.4228225129314
 20
102.8601658749711
 30
0.0
  0
SPLINE
  5
E1
330
1F
100
AcDbEntity
  8
0
  6
Continuous
 62
     8
370
    25
100
AcDbSpline
210
0.0
220
0.0
230
1.0
 70
     8
 71
     3
 72
    12
 73
     8
 74
     0
 42
0.000000001
 43
0.00000001
 40
0.0
 40
0.0
 40
0.0
 40
0.0
 40
0.0430206627346149
 40
0.0430206627346149
 40
0.3824319177041577
 40
0.3824319177041577
 40
0.594563952060122
 40
0.594563952060122
 40
0.594563952060122
 40
0.594563952060122
 10
125.2663017316519
 20
90.77022721837832
 30
0.0
 10
125.197996922992
 20
90.7260296873735
 30
0.0
 10
125.131871204798
 20
90.68324216602709
 30
0.0
 10
124.5640825880002
 20
90.31584702610526
 30
0.0
 10
124.2005952861981
 20
90.08064775038565
 30
0.0
 10
123.8715732400378
 20
89.86774964941065
 30
0.0
 10
123.8075846232273
 20
89.82634495674347
 30
0.0
 10
123.8075846232273
 20
89.82634495674347
 30
0.0
  0
SPLINE
  5
E2
330
1F
100
AcDbEntity
  8
0
  6
Continuous
 62
     8
370
    25
100
AcDbSpline
210
0.0
220
0.0
230
1.0
 70
    24
 71
     3
 72
    12
 73
     8
 74
     0
 42
0.000000001
 43
0.00000001
 40
-0.5788447217180465
 40
-0.5788447217180465
 40
-0.5788447217180465
 40
-0.5788447217180465
 40
-0.535566355711699
 40
-0.535566355711699
 40
-0.205987059889115
 40
-0.205987059889115
 40
0.0
 40
0.0
 40
0.0
 40
0.0
 10
139.8413659182237
 20
102.4416224696788
 30
0.0
 10
139.9124375956336
 20
102.508745720566
 30
0.0
 10
139.981143773675
 20
102.5736348887162
 30
0.0
 10
140.5519830847306
 20
103.1127609047132
 30
0.0
 10
140.9150908209869
 20
103.4556959889552
 30
0.0
 10
141.2437145281695
 20
103.7660628235166
 30
0.0
 10
141.3075846229625
 20
103.8263845797099
 30
0.0
 10
141.3075846229623
 20
103.8263845797097
 30
0.0
  0
SPLINE
  5
E3
330
1F
100
AcDbEntity
  8
0
  6
Continuous
 62
     8
370
    25
100
AcDbSpline
210
0.0
220
0.0
230
1.0
 70
     8
 71
     3
 72
    12
 73
     8
 74
     0
 42
0.000000001
 43
0.00000001
 40
0.0
 40
0.0
 40
0.0
 40
0.0
 40
0.2121320343559643
 40
0.2121320343559643
 40
0.5515432893255071
 40
0.5515432893255071
 40
0.5945639520601226
 40
0.5945639520601226
 40
0.5945639520601226
 40
0.5945639520601226
 10
126.807544999996
 20
86.82638457997477
 30
0.0
 10
126.807544999996
 20
86.82638457997477
 30
0.0
 10
126.8489496926632
 20
86.89037319678526
 30
0.0
 10
127.0618477936382
 20
87.21939524294552
 30
0.0
 10
127.2970470693578
 20
87.58288254474769
 30
0.0
 10
127.6644422092796
 20
88.15067116154552
 30
0.0
 10
127.707229730626
 20
88.21679687973946
 30
0.0
 10
127.7514272616309
 20
88.28510168839931
 30
0.0
  0
LINE
  5
E4
330
1F
100
AcDbEntity
  8
0
  6
Continuous
 62
     7
370
    18
100
AcDbLine
 10
159.6029054401
 20
87.9195378638
 30
0.0
 11
147.307584623
 21
87.5353090883
 31
0.0
  0
LINE
  5
E5
330
1F
100
AcDbEntity
  8
0
  6
Continuous
 62
     7
370
    18
100
AcDbLine
 10
159.6029054401
 20
102.7332312956
 30
0.0
 11
147.307584623
 21
103.1174600711
 31
0.0
  0
LINE
  5
E6
330
1F
100
AcDbEntity
  8
0
  6
Continuous
 62
     7
370
    18
100
AcDbLine
 10
147.307584623
 20
103.8651970797
 30
0.0
 11
147.307584623
 21
86.7875720797
 31
0.0
  0
LINE
  5
E7
330
1F
100
AcDbEntity
  8
0
  6
CENTERX2
 62
     7
370
    18
100
AcDbLine
 10
131.307584623
 20
95.3263845797
 30
0.0
 11
122.3838030833
 21
95.3263845797
 31
0.0
  0
LINE
  5
E8
330
1F
100
AcDbEntity
  8
0
  6
CENTERX2
 62
     7
370
    18
100
AcDbLine
 10
131.307584623
 20
95.3263845797
 30
0.0
 11
162.307584623
 21
95.3263845797
 31
0.0
  0
LINE
  5
E9
330
1F
100
AcDbEntity
  8
0
  6
CENTERX2
 62
     7
370
    18
100
AcDbLine
 10
132.307584623
 20
126.3263845797
 30
0.0
 11
132.307584623
 21
123.261825562
 31
0.0
  0
LINE
  5
EA
330
1F
100
AcDbEntity
  8
0
  6
CENTERX2
 62
     7
370
    18
100
AcDbLine
 10
132.307584623
 20
123.261825562
 30
0.0
 11
132.307584623
 21
112.4263845797
 31
0.0
  0
LINE
  5
EB
330
1F
100
AcDbEntity
  8
0
  6
CENTERX2
 62
     7
370
    18
100
AcDbLine
 10
132.307584623
 20
112.3263845797
 30
0.0
 11
132.307584623
 21
112.4263845797
 31
0.0
  0
LINE
  5
EC
330
1F
100
AcDbEntity
  8
0
  6
CENTERX2
 62
     7
370
    18
100
AcDbLine
 10
132.307584623
 20
85.4476865714
 30
0.0
 11
132.307584623
 21
112.3263845797
 31
0.0
  0
LINE
  5
ED
330
1F
100
AcDbEntity
  8
0
  6
Continuous
 62
     7
370
    25
100
AcDbLine
 10
208.0938163195
 20
123.8263845797
 30
0.0
 11
207.5938163195
 21
124.3263845797
 31
0.0
  0
LINE
  5
EE
330
1F
100
AcDbEntity
  8
0
  6
Continuous
 62
     7
370
    25
100
AcDbLine
 10
186.0938163195
 20
124.3263845797
 30
0.0
 11
185.5938163195
 21
123.8263845797
 31
0.0
  0
ARC
  5
EF
330
1F
100
AcDbEntity
  8
0
  6
Continuous
 62
     7
370
    25
100
AcDbCircle
 10
205.5938163195
 20
112.2915273546
 30
0.0
 40
2.5
100
AcDbArc
 50
296.7436839504
 51
0.0
  0
ARC
  5
F0
330
1F
100
AcDbEntity
  8
0
  6
Continuous
 62
     7
370
    25
100
AcDbCircle
 10
188.0938163195
 20
112.2915273546
 30
0.0
 40
2.5
100
AcDbArc
 50
180.0
 51
243.2563160496
  0
LINE
  5
F1
330
1F
100
AcDbEntity
  8
0
  6
Continuous
 62
     7
370
    25
100
AcDbLine
 10
208.0938163195
 20
112.2915273546
 30
0.0
 11
208.0938163195
 21
123.8263845797
 31
0.0
  0
LINE
  5
F2
330
1F
100
AcDbEntity
  8
0
  6
Continuous
 62
     7
370
    25
100
AcDbLine
 10
185.5938163195
 20
123.8263845797
 30
0.0
 11
185.5938163195
 21
112.2915273546
 31
0.0
  0
ARC
  5
F3
330
1F
100
AcDbEntity
  8
0
  6
Continuous
 62
     7
370
    25
100
AcDbCircle
 10
207.8438163195
 20
107.8263845797
 30
0.0
 40
2.5
100
AcDbArc
 50
116.7436839504
 51
180.0
  0
ARC
  5
F4
330
1F
100
AcDbEntity
  8
0
  6
Continuous
 62
     7
370
    25
100
AcDbCircle
 10
185.8438163195
 20
107.8263845797
 30
0.0
 40
2.5
100
AcDbArc
 50
0.0
 51
63.2563160496
  0
LINE
  5
F5
330
1F
100
AcDbEntity
  8
0
  6
Continuous
 62
     7
370
    25
100
AcDbLine
 10
188.3438163195
 20
107.8263845797
 30
0.0
 11
188.3438163195
 21
103.8263845797
 31
0.0
  0
LINE
  5
F6
330
1F
100
AcDbEntity
  8
0
  6
Continuous
 62
     7
370
    25
100
AcDbLine
 10
205.3438163195
 20
103.8263845797
 30
0.0
 11
205.3438163195
 21
107.8263845797
 31
0.0
  0
CIRCLE
  5
F7
330
1F
100
AcDbEntity
  8
0
  6
Continuous
 62
     7
370
    25
100
AcDbCircle
 10
196.8438163195
 20
95.3263845797
 30
0.0
 40
6.099999999999994
  0
CIRCLE
  5
F8
330
1F
100
AcDbEntity
  8
0
  6
Continuous
 62
     7
370
    25
100
AcDbCircle
 10
196.8438163195
 20
95.3263845797
 30
0.0
 40
7.000000000000028
  0
CIRCLE
  5
F9
330
1F
100
AcDbEntity
  8
0
  6
Continuous
 62
     7
370
    25
100
AcDbCircle
 10
196.8438163195
 20
95.3263845797
 30
0.0
 40
8.197372169802065
  0
CIRCLE
  5
FA
330
1F
100
AcDbEntity
  8
0
  6
Continuous
 62
     7
370
    25
100
AcDbCircle
 10
196.8438163195
 20
95.3263845797
 30
0.0
 40
6.0
  0
CIRCLE
  5
FB
330
1F
100
AcDbEntity
  8
0
  6
Continuous
 62
     7
370
    25
100
AcDbCircle
 10
196.8438163195
 20
95.3263845797
 30
0.0
 40
5.900000000000006
  0
CIRCLE
  5
FC
330
1F
100
AcDbEntity
  8
0
  6
Continuous
 62
     7
370
    25
100
AcDbCircle
 10
196.8438163195
 20
95.3263845797
 30
0.0
 40
5.500000000000028
  0
CIRCLE
  5
FD
330
1F
100
AcDbEntity
  8
0
  6
Continuous
 62
     7
370
    25
100
AcDbCircle
 10
196.8438163195
 20
95.3263845797
 30
0.0
 40
5.000000000000028
  0
CIRCLE
  5
FE
330
1F
100
AcDbEntity
  8
0
  6
Continuous
 62
     7
370
    25
100
AcDbCircle
 10
196.8438163195
 20
95.3263845797
 30
0.0
 40
8.595545539706563
  0
LINE
  5
FF
330
1F
100
AcDbEntity
  8
0
  6
Continuous
 62
     7
370
    25
100
AcDbLine
 10
208.0938163195
 20
123.8263845797
 30
0.0
 11
185.5938163195
 21
123.8263845797
 31
0.0
  0
LINE
  5
100
330
1F
100
AcDbEntity
  8
0
  6
Continuous
 62
     7
370
    25
100
AcDbLine
 10
186.0938163195
 20
124.3263845797
 30
0.0
 11
207.5938163195
 21
124.3263845797
 31
0.0
  0
SPLINE
  5
101
330
1F
100
AcDbEntity
  8
0
  6
Continuous
 62
     7
370
    25
100
AcDbSpline
210
0.0
220
0.0
230
1.0
 70
     8
 71
     3
 72
    10
 73
     6
 74
     0
 42
0.000000001
 43
0.00000001
 40
0.0
 40
0.0
 40
0.0
 40
0.0
 40
0.118795360765237
 40
0.549790710930723
 40
0.9999999999999999
 40
0.9999999999999999
 40
0.9999999999999999
 40
0.9999999999999999
 10
192.2817405918568
 20
102.5888680168068
 30
0.0
 10
192.2843727730557
 20
102.597939588525
 30
0.0
 10
192.296554635742
 20
102.639923263915
 30
0.0
 10
192.2735243891972
 20
102.7381190697121
 30
0.0
 10
192.2208409468849
 20
102.8189854752434
 30
0.0
 10
192.1939248662685
 20
102.8603002905802
 30
0.0
  0
SPLINE
  5
102
330
1F
100
AcDbEntity
  8
0
  6
Continuous
 62
     7
370
    25
100
AcDbSpline
210
0.0
220
0.0
230
1.0
 70
     8
 71
     3
 72
    19
 73
    15
 74
     0
 42
0.000000001
 43
0.00000001
 40
-0.5788447217180464
 40
-0.5788447217180464
 40
-0.5788447217180464
 40
-0.5788447217180464
 40
-0.535566355711699
 40
-0.535566355711699
 40
-0.205987059889115
 40
-0.205987059889115
 40
0.0
 40
0.0
 40
0.0
 40
0.2059870598891149
 40
0.2059870598891149
 40
0.535566355711699
 40
0.535566355711699
 40
0.5788447217180464
 40
0.5788447217180464
 40
0.5788447217180464
 40
0.5788447217180464
 10
201.4937410181484
 20
102.8601658749711
 30
0.0
 10
201.3911313337493
 20
102.931237552381
 30
0.0
 10
201.2870582803279
 20
102.9999437304225
 30
0.0
 10
200.3785498476782
 20
103.5707830414781
 30
0.0
 10
199.4964175713532
 20
103.9338907777344
 30
0.0
 10
198.011058848461
 20
104.2625144849166
 30
0.0
 10
197.4274463225072
 20
104.3263845797097
 30
0.0
 10
196.843816319488
 20
104.3263845797097
 30
0.0
 10
196.2601863164688
 20
104.3263845797097
 30
0.0
 10
195.676573790515
 20
104.2625144849166
 30
0.0
 10
194.1912150676228
 20
103.9338907777344
 30
0.0
 10
193.3090827912978
 20
103.5707830414781
 30
0.0
 10
192.4005743586481
 20
102.9999437304225
 30
0.0
 10
192.2965013052267
 20
102.931237552381
 30
0.0
 10
192.1938916208276
 20
102.8601658749711
 30
0.0
  0
SPLINE
  5
103
330
1F
100
AcDbEntity
  8
0
  6
Continuous
 62
     7
370
    25
100
AcDbSpline
210
0.0
220
0.0
230
1.0
 70
     8
 71
     3
 72
    10
 73
     6
 74
     0
 42
0.000000001
 43
0.00000001
 40
0.0
 40
0.0
 40
0.0
 40
0.0
 40
0.4288195766129385
 40
0.8576442804972702
 40
1.0
 40
1.0
 40
1.0
 40
1.0
 10
201.4937077727074
 20
102.8603002905802
 30
0.0
 10
201.4677276589031
 20
102.8208318521855
 30
0.0
 10
201.4157671206576
 20
102.7418945034836
 30
0.0
 10
201.3915079901216
 20
102.6432457609096
 30
0.0
 10
201.4035473684611
 20
102.5990828587136
 30
0.0
 10
201.4065479516319
 20
102.5880761059258
 30
0.0
  0
SPLINE
  5
104
330
1F
100
AcDbEntity
  8
0
  6
Continuous
 62
     7
370
    25
100
AcDbSpline
210
0.0
220
0.0
230
1.0
 70
    24
 71
     3
 72
     8
 73
     4
 74
     0
 42
0.000000001
 43
0.00000001
 40
0.0
 40
0.0
 40
0.0
 40
0.0
 40
1.0
 40
1.0
 40
1.0
 40
1.0
 10
204.843816319488
 20
103.8263845797097
 30
0.0
 10
205.1738425731028
 20
103.8263845797097
 30
0.0
 10
205.343816319488
 20
103.8263845797097
 30
0.0
 10
205.343816319488
 20
103.8263845797097
 30
0.0
  0
LINE
  5
105
330
1F
100
AcDbEntity
  8
0
  6
Continuous
 62
     7
370
    25
100
AcDbLine
 10
201.6656417
 20
103.3263845797
 30
0.0
 11
201.6656417
 21
103.8263845797
 31
0.0
  0
SPLINE
  5
106
330
1F
100
AcDbEntity
  8
0
  6
Continuous
 62
     7
370
    25
100
AcDbSpline
210
0.0
220
0.0
230
1.0
 70
     8
 71
     3
 72
    10
 73
     6
 74
     0
 42
0.000000001
 43
0.00000001
 40
0.0
 40
0.0
 40
0.0
 40
0.0
 40
0.5000000000000023
 40
0.5000000000000023
 40
1.0
 40
1.0
 40
1.0
 40
1.0
 10
201.4938210324436
 20
102.8602288170689
 30
0.0
 10
201.5447459695037
 20
102.923390998208
 30
0.0
 10
201.5877089039715
 20
102.994495083688
 30
0.0
 10
201.6486028791274
 20
103.1527358932564
 30
0.0
 10
201.6656416999845
 20
103.2382888642854
 30
0.0
 10
201.6656416999845
 20
103.3263845797097
 30
0.0
  0
SPLINE
  5
107
330
1F
100
AcDbEntity
  8
0
  6
Continuous
 62
     7
370
    25
100
AcDbSpline
210
0.0
220
0.0
230
1.0
 70
     8
 71
     3
 72
     8
 73
     4
 74
     0
 42
0.000000001
 43
0.00000001
 40
0.0
 40
0.0
 40
0.0
 40
0.0
 40
1.0
 40
1.0
 40
1.0
 40
1.0
 10
192.0219909389915
 20
103.3263845797097
 30
0.0
 10
192.0219909389915
 20
103.1501296720076
 30
0.0
 10
192.0918662679069
 20
102.9866715839384
 30
0.0
 10
192.1938116065322
 20
102.8602288170687
 30
0.0
  0
LINE
  5
108
330
1F
100
AcDbEntity
  8
0
  6
Continuous
 62
     7
370
    25
100
AcDbLine
 10
192.021990939
 20
103.8263845797
 30
0.0
 11
192.021990939
 21
103.3263845797
 31
0.0
  0
SPLINE
  5
109
330
1F
100
AcDbEntity
  8
0
  6
Continuous
 62
     7
370
    25
100
AcDbSpline
210
0.0
220
0.0
230
1.0
 70
    24
 71
     3
 72
     8
 73
     4
 74
     0
 42
0.000000001
 43
0.00000001
 40
0.0
 40
0.0
 40
0.0
 40
0.0
 40
1.0
 40
1.0
 40
1.0
 40
1.0
 10
188.343816319488
 20
103.8263845797097
 30
0.0
 10
188.343816319488
 20
103.8263845797097
 30
0.0
 10
188.5137900658732
 20
103.8263845797097
 30
0.0
 10
188.843816319488
 20
103.8263845797097
 30
0.0
  0
LINE
  5
10A
330
1F
100
AcDbEntity
  8
0
  6
Continuous
 62
     7
370
    25
100
AcDbLine
 10
205.3438163195
 20
98.198665903
 30
0.0
 11
205.3438163195
 21
101.8263845797
 31
0.0
  0
LINE
  5
10B
330
1F
100
AcDbEntity
  8
0
  6
Continuous
 62
     7
370
    25
100
AcDbLine
 10
204.8438163195
 20
101.8263845797
 30
0.0
 11
205.3438163195
 21
101.8263845797
 31
0.0
  0
LINE
  5
10C
330
1F
100
AcDbEntity
  8
0
  6
Continuous
 62
     7
370
    25
100
AcDbLine
 10
188.3438163195
 20
88.8263845797
 30
0.0
 11
188.8438163195
 21
88.8263845797
 31
0.0
  0
LINE
  5
10D
330
1F
100
AcDbEntity
  8
0
  6
Continuous
 62
     7
370
    25
100
AcDbLine
 10
188.3438163195
 20
92.4541032564
 30
0.0
 11
188.3438163195
 21
88.8263845797
 31
0.0
  0
LINE
  5
10E
330
1F
100
AcDbEntity
  8
0
  6
Continuous
 62
     7
370
    25
100
AcDbLine
 10
204.8438163195
 20
88.8263845797
 30
0.0
 11
205.3438163195
 21
88.8263845797
 31
0.0
  0
LINE
  5
10F
330
1F
100
AcDbEntity
  8
0
  6
Continuous
 62
     7
370
    25
100
AcDbLine
 10
205.3438163195
 20
88.8263845797
 30
0.0
 11
205.3438163195
 21
92.4541032564
 31
0.0
  0
LINE
  5
110
330
1F
100
AcDbEntity
  8
0
  6
Continuous
 62
     7
370
    25
100
AcDbLine
 10
188.3438163195
 20
101.8263845797
 30
0.0
 11
188.8438163195
 21
101.8263845797
 31
0.0
  0
LINE
  5
111
330
1F
100
AcDbEntity
  8
0
  6
Continuous
 62
     7
370
    25
100
AcDbLine
 10
188.3438163195
 20
101.8263845797
 30
0.0
 11
188.3438163195
 21
98.198665903
 31
0.0
  0
SPLINE
  5
112
330
1F
100
AcDbEntity
  8
0
  6
Continuous
 62
     7
370
    25
100
AcDbSpline
210
0.0
220
0.0
230
1.0
 70
    24
 71
     3
 72
    10
 73
     6
 74
     0
 42
0.000000001
 43
0.00000001
 40
0.0
 40
0.0
 40
0.0
 40
0.0
 40
0.4982295005088164
 40
0.9987777907806368
 40
1.0
 40
1.0
 40
1.0
 40
1.0
 10
205.343816319488
 20
92.45410325644072
 30
0.0
 10
205.343816319488
 20
92.72539804184045
 30
0.0
 10
205.3438163194879
 20
93.26925023472572
 30
0.0
 10
205.3438163194882
 20
93.80738521266366
 30
0.0
 10
205.343816319488
 20
94.07346094898892
 30
0.0
 10
205.343816319488
 20
94.074109054484
 30
0.0
  0
SPLINE
  5
113
330
1F
100
AcDbEntity
  8
0
  6
Continuous
 62
     7
370
    25
100
AcDbSpline
210
0.0
220
0.0
230
1.0
 70
    24
 71
     3
 72
    10
 73
     6
 74
     0
 42
0.000000001
 43
0.00000001
 40
0.0
 40
0.0
 40
0.0
 40
0.0
 40
0.2233221097525973
 40
0.6122071100821852
 40
1.0
 40
1.0
 40
1.0
 40
1.0
 10
205.343816319488
 20
96.56470893888898
 30
0.0
 10
205.343816319488
 20
96.68471123627245
 30
0.0
 10
205.343816319488
 20
97.0136811701753
 30
0.0
 10
205.343816319488
 20
97.5581032858155
 30
0.0
 10
205.343816319488
 20
97.98534528324812
 30
0.0
 10
205.343816319488
 20
98.19866590297875
 30
0.0
  0
SPLINE
  5
114
330
1F
100
AcDbEntity
  8
0
  6
Continuous
 62
     7
370
    25
100
AcDbSpline
210
0.0
220
0.0
230
1.0
 70
    24
 71
     3
 72
    10
 73
     6
 74
     0
 42
0.000000001
 43
0.00000001
 40
0.0
 40
0.0
 40
0.0
 40
0.0
 40
0.4960329076110917
 40
0.9943743818943409
 40
1.0
 40
1.0
 40
1.0
 40
1.0
 10
188.343816319488
 20
98.19866590297875
 30
0.0
 10
188.343816319488
 20
97.9273678739425
 30
0.0
 10
188.343816319488
 20
97.38350917869725
 30
0.0
 10
188.343816319488
 20
96.84302395316026
 30
0.0
 10
188.343816319488
 20
96.57461155160354
 30
0.0
 10
188.343816319488
 20
96.57161535266758
 30
0.0
  0
SPLINE
  5
115
330
1F
100
AcDbEntity
  8
0
  6
Continuous
 62
     7
370
    25
100
AcDbSpline
210
0.0
220
0.0
230
1.0
 70
    24
 71
     3
 72
    10
 73
     6
 74
     0
 42
0.000000001
 43
0.00000001
 40
0.0
 40
0.0
 40
0.0
 40
0.0
 40
0.2265614683355429
 40
0.6138245118934431
 40
0.9999999999999999
 40
0.9999999999999999
 40
0.9999999999999999
 40
0.9999999999999999
 10
188.343816319488
 20
94.09482271155441
 30
0.0
 10
188.343816319488
 20
93.97257205027668
 30
0.0
 10
188.343816319488
 20
93.64135751040476
 30
0.0
 10
188.343816319488
 20
93.09466908484798
 30
0.0
 10
188.343816319488
 20
92.66742494558208
 30
0.0
 10
188.343816319488
 20
92.45410325644072
 30
0.0
  0
ARC
  5
116
330
1F
100
AcDbEntity
  8
0
  6
Continuous
 62
     7
370
    25
100
AcDbCircle
 10
204.8438163195
 20
101.8263845797
 30
0.0
 40
0.5
100
AcDbArc
 50
0.0
 51
90.0
  0
LINE
  5
117
330
1F
100
AcDbEntity
  8
0
  6
Continuous
 62
     7
370
    25
100
AcDbLine
 10
204.8438163195
 20
102.3263845797
 30
0.0
 11
204.8438163195
 21
101.8263845797
 31
0.0
  0
LINE
  5
118
330
1F
100
AcDbEntity
  8
0
  6
Continuous
 62
     7
370
    25
100
AcDbLine
 10
204.8438163195
 20
88.3263845797
 30
0.0
 11
204.8438163195
 21
88.8263845797
 31
0.0
  0
LINE
  5
119
330
1F
100
AcDbEntity
  8
0
  6
Continuous
 62
     7
370
    25
100
AcDbLine
 10
204.8438163195
 20
88.3263845797
 30
0.0
 11
201.8321430054
 21
88.3263845797
 31
0.0
  0
ARC
  5
11A
330
1F
100
AcDbEntity
  8
0
  6
Continuous
 62
     7
370
    25
100
AcDbCircle
 10
204.8438163195
 20
88.8263845797
 30
0.0
 40
0.5
100
AcDbArc
 50
270.0
 51
0.0
  0
LINE
  5
11B
330
1F
100
AcDbEntity
  8
0
  6
Continuous
 62
     7
370
    25
100
AcDbLine
 10
201.8321430054
 20
102.3263845797
 30
0.0
 11
204.8438163195
 21
102.3263845797
 31
0.0
  0
LINE
  5
11C
330
1F
100
AcDbEntity
  8
0
  6
Continuous
 62
     7
370
    25
100
AcDbLine
 10
191.8554896336
 20
88.3263845797
 30
0.0
 11
188.8438163195
 21
88.3263845797
 31
0.0
  0
LINE
  5
11D
330
1F
100
AcDbEntity
  8
0
  6
Continuous
 62
     7
370
    25
100
AcDbLine
 10
188.8438163195
 20
88.8263845797
 30
0.0
 11
188.8438163195
 21
88.3263845797
 31
0.0
  0
LINE
  5
11E
330
1F
100
AcDbEntity
  8
0
  6
Continuous
 62
     7
370
    25
100
AcDbLine
 10
188.8438163195
 20
102.3263845797
 30
0.0
 11
188.8438163195
 21
101.8263845797
 31
0.0
  0
LINE
  5
11F
330
1F
100
AcDbEntity
  8
0
  6
Continuous
 62
     7
370
    25
100
AcDbLine
 10
188.8438163195
 20
102.3263845797
 30
0.0
 11
191.8554896336
 21
102.3263845797
 31
0.0
  0
ARC
  5
120
330
1F
100
AcDbEntity
  8
0
  6
Continuous
 62
     7
370
    25
100
AcDbCircle
 10
188.8438163195
 20
101.8263845797
 30
0.0
 40
0.5
100
AcDbArc
 50
90.0
 51
180.0
  0
ARC
  5
121
330
1F
100
AcDbEntity
  8
0
  6
Continuous
 62
     7
370
    25
100
AcDbCircle
 10
188.8438163195
 20
88.8263845797
 30
0.0
 40
0.5
100
AcDbArc
 50
180.0
 51
270.0
  0
LINE
  5
122
330
1F
100
AcDbEntity
  8
0
  6
Continuous
 62
     7
370
    25
100
AcDbLine
 10
204.8438163195
 20
103.3263845797
 30
0.0
 11
201.6656417
 21
103.3263845797
 31
0.0
  0
LINE
  5
123
330
1F
100
AcDbEntity
  8
0
  6
Continuous
 62
     7
370
    25
100
AcDbLine
 10
204.8438163195
 20
103.3263845797
 30
0.0
 11
204.8438163195
 21
102.3263845797
 31
0.0
  0
LINE
  5
124
330
1F
100
AcDbEntity
  8
0
  6
Continuous
 62
     7
370
    25
100
AcDbLine
 10
192.021990939
 20
103.3263845797
 30
0.0
 11
188.8438163195
 21
103.3263845797
 31
0.0
  0
LINE
  5
125
330
1F
100
AcDbEntity
  8
0
  6
Continuous
 62
     7
370
    25
100
AcDbLine
 10
188.8438163195
 20
102.3263845797
 30
0.0
 11
188.8438163195
 21
103.3263845797
 31
0.0
  0
LINE
  5
126
330
1F
100
AcDbEntity
  8
0
  6
Continuous
 62
     7
370
    25
100
AcDbLine
 10
205.3438163195
 20
103.3263845797
 30
0.0
 11
204.8438163195
 21
103.3263845797
 31
0.0
  0
LINE
  5
127
330
1F
100
AcDbEntity
  8
0
  6
Continuous
 62
     7
370
    25
100
AcDbLine
 10
205.3438163195
 20
101.8263845797
 30
0.0
 11
205.3438163195
 21
103.3263845797
 31
0.0
  0
LINE
  5
128
330
1F
100
AcDbEntity
  8
0
  6
Continuous
 62
     7
370
    25
100
AcDbLine
 10
188.3438163195
 20
103.3263845797
 30
0.0
 11
188.8438163195
 21
103.3263845797
 31
0.0
  0
LINE
  5
129
330
1F
100
AcDbEntity
  8
0
  6
Continuous
 62
     7
370
    25
100
AcDbLine
 10
188.3438163195
 20
103.3263845797
 30
0.0
 11
188.3438163195
 21
101.8263845797
 31
0.0
  0
LINE
  5
12A
330
1F
100
AcDbEntity
  8
0
  6
Continuous
 62
     7
370
    25
100
AcDbLine
 10
204.8438163195
 20
103.8263845797
 30
0.0
 11
204.8438163195
 21
103.3263845797
 31
0.0
  0
ARC
  5
12B
330
1F
100
AcDbEntity
  8
0
  6
Continuous
 62
     7
370
    25
100
AcDbCircle
 10
204.8438163195
 20
103.3263845797
 30
0.0
 40
0.5
100
AcDbArc
 50
0.0
 51
90.0
  0
LINE
  5
12C
330
1F
100
AcDbEntity
  8
0
  6
Continuous
 62
     7
370
    25
100
AcDbLine
 10
204.8438163195
 20
103.8263845797
 30
0.0
 11
201.6656417
 21
103.8263845797
 31
0.0
  0
LINE
  5
12D
330
1F
100
AcDbEntity
  8
0
  6
Continuous
 62
     7
370
    25
100
AcDbLine
 10
188.8438163195
 20
103.3263845797
 30
0.0
 11
188.8438163195
 21
103.8263845797
 31
0.0
  0
LINE
  5
12E
330
1F
100
AcDbEntity
  8
0
  6
Continuous
 62
     7
370
    25
100
AcDbLine
 10
192.021990939
 20
103.8263845797
 30
0.0
 11
188.8438163195
 21
103.8263845797
 31
0.0
  0
ARC
  5
12F
330
1F
100
AcDbEntity
  8
0
  6
Continuous
 62
     7
370
    25
100
AcDbCircle
 10
188.8438163195
 20
103.3263845797
 30
0.0
 40
0.5
100
AcDbArc
 50
90.0
 51
180.0
  0
LINE
  5
130
330
1F
100
AcDbEntity
  8
0
  6
Continuous
 62
     7
370
    25
100
AcDbLine
 10
201.7427958051
 20
94.3263845797
 30
0.0
 11
191.9448368339
 21
94.3263845797
 31
0.0
  0
SPLINE
  5
131
330
1F
100
AcDbEntity
  8
0
  6
Continuous
 62
     7
370
    25
100
AcDbSpline
210
0.0
220
0.0
230
1.0
 70
     8
 71
     3
 72
    10
 73
     6
 74
     0
 42
0.000000001
 43
0.00000001
 40
0.0
 40
0.0
 40
0.0
 40
0.0
 40
0.5
 40
0.5
 40
1.0
 40
1.0
 40
1.0
 40
1.0
 10
191.9448368339216
 20
96.32638457970972
 30
0.0
 10
191.9539942595198
 20
95.99793175510051
 30
0.0
 10
191.959475446964
 20
95.66702029631415
 30
0.0
 10
191.9596167174266
 20
94.9993918931255
 30
0.0
 10
191.9541602039263
 20
94.66078939469848
 30
0.0
 10
191.9448368339216
 20
94.32638457970974
 30
0.0
  0
SPLINE
  5
132
330
1F
100
AcDbEntity
  8
0
  6
Continuous
 62
     7
370
    25
100
AcDbSpline
210
0.0
220
0.0
230
1.0
 70
     8
 71
     3
 72
    10
 73
     6
 74
     0
 42
0.000000001
 43
0.00000001
 40
0.0
 40
0.0
 40
0.0
 40
0.0
 40
0.5
 40
0.5
 40
1.0
 40
1.0
 40
1.0
 40
1.0
 10
201.7427958050544
 20
94.32638457970974
 30
0.0
 10
201.7335498378758
 20
94.65801315845174
 30
0.0
 10
201.728113039015
 20
94.99043521301076
 30
0.0
 10
201.7280588441533
 20
95.65709253944544
 30
0.0
 10
201.7334542879103
 20
95.99132887445643
 30
0.0
 10
201.7427958050544
 20
96.32638457970972
 30
0.0
  0
SPLINE
  5
133
330
1F
100
AcDbEntity
  8
0
  6
Continuous
 62
     7
370
    25
100
AcDbSpline
210
0.0
220
0.0
230
1.0
 70
    24
 71
     3
 72
    10
 73
     6
 74
     0
 42
0.000000001
 43
0.00000001
 40
-0.2904940295525327
 40
-0.2904940295525327
 40
-0.2904940295525327
 40
-0.2904940295525327
 40
-0.130307291676468
 40
-0.130307291676468
 40
0.0010563446871674
 40
0.0010563446871674
 40
0.0010563446871674
 40
0.0010563446871674
 10
188.343816319488
 20
103.8263845797097
 30
0.0
 10
188.343816319488
 20
103.6968812777282
 30
0.0
 10
188.343816319488
 20
103.5650902753421
 30
0.0
 10
188.343816319488
 20
103.3866663463451
 30
0.0
 10
188.343816319488
 20
103.3263845797097
 30
0.0
 10
188.343816319488
 20
103.3263845797097
 30
0.0
  0
SPLINE
  5
134
330
1F
100
AcDbEntity
  8
0
  6
Continuous
 62
     7
370
    25
100
AcDbSpline
210
0.0
220
0.0
230
1.0
 70
    24
 71
     3
 72
    10
 73
     6
 74
     0
 42
0.000000001
 43
0.00000001
 40
-0.8711658249912583
 40
-0.8711658249912583
 40
-0.8711658249912583
 40
-0.8711658249912583
 40
-0.7398021886276228
 40
-0.7398021886276228
 40
-0.5796154507864709
 40
-0.5796154507864709
 40
-0.5796154507864709
 40
-0.5796154507864709
 10
205.343816319488
 20
103.3263845797097
 30
0.0
 10
205.343816319488
 20
103.3263845797097
 30
0.0
 10
205.343816319488
 20
103.3866663463451
 30
0.0
 10
205.343816319488
 20
103.5650902753207
 30
0.0
 10
205.343816319488
 20
103.6968812777564
 30
0.0
 10
205.343816319488
 20
103.8263845797097
 30
0.0
  0
SPLINE
  5
135
330
1F
100
AcDbEntity
  8
0
  6
Continuous
 62
     7
370
    25
100
AcDbSpline
210
0.0
220
0.0
230
1.0
 70
     8
 71
     3
 72
    24
 73
    20
 74
     0
 42
0.000000001
 43
0.00000001
 40
0.0
 40
0.0
 40
0.0
 40
0.0
 40
0.1249999999999999
 40
0.1249999999999999
 40
0.25
 40
0.25
 40
0.3750000000000001
 40
0.3750000000000001
 40
0.4375000000000001
 40
0.4375000000000001
 40
0.5000000000000001
 40
0.5000000000000001
 40
0.625
 40
0.625
 40
0.75
 40
0.75
 40
0.875
 40
0.875
 40
1.0
 40
1.0
 40
1.0
 40
1.0
 10
191.9448368339217
 20
94.32638457970974
 30
0.0
 10
192.3090235482983
 20
94.13498159968043
 30
0.0
 10
192.6795266009056
 20
93.9508785281073
 30
0.0
 10
193.4407317826396
 20
93.60601682981269
 30
0.0
 10
193.8312804833324
 20
93.44508088302364
 30
0.0
 10
194.6463105412883
 20
93.16242558576945
 30
0.0
 10
195.069904707627
 20
93.04163102560531
 30
0.0
 10
195.7229295955052
 20
92.91491282197434
 30
0.0
 10
195.9442225660756
 20
92.88158085423723
 30
0.0
 10
196.3955141470097
 20
92.83634995829682
 30
0.0
 10
196.6236188115896
 20
92.82487126691969
 30
0.0
 10
197.2994097811051
 20
92.82538499923491
 30
0.0
 10
197.7457938231775
 20
92.87223754208333
 30
0.0
 10
198.6255872330359
 20
93.04335396558206
 30
0.0
 10
199.043280070121
 20
93.16315158743645
 30
0.0
 10
199.8521810447007
 20
93.44358748544728
 30
0.0
 10
200.2440189326927
 20
93.60475748079325
 30
0.0
 10
201.0078150962401
 20
93.95070061196031
 30
0.0
 10
201.3787061985983
 20
94.13503263598858
 30
0.0
 10
201.7427958050544
 20
94.32638457970974
 30
0.0
  0
LINE
  5
136
330
1F
100
AcDbEntity
  8
0
  6
Continuous
 62
     8
370
    25
100
AcDbLine
 10
208.0938163195
 20
112.2915273546
 30
0.0
 11
185.5938163195
 21
112.2915273546
 31
0.0
  0
LINE
  5
137
330
1F
100
AcDbEntity
  8
0
  6
Continuous
 62
     8
370
    25
100
AcDbLine
 10
196.8438163195
 20
110.0589559671
 30
0.0
 11
206.7188163195
 21
110.0589559671
 31
0.0
  0
LINE
  5
138
330
1F
100
AcDbEntity
  8
0
  6
Continuous
 62
     8
370
    25
100
AcDbLine
 10
186.9688163195
 20
110.0589559671
 30
0.0
 11
196.8438163195
 21
110.0589559671
 31
0.0
  0
LINE
  5
139
330
1F
100
AcDbEntity
  8
0
  6
Continuous
 62
     8
370
    25
100
AcDbLine
 10
196.8438163195
 20
107.8263845797
 30
0.0
 11
205.3438163195
 21
107.8263845797
 31
0.0
  0
LINE
  5
13A
330
1F
100
AcDbEntity
  8
0
  6
Continuous
 62
     8
370
    25
100
AcDbLine
 10
188.3438163195
 20
107.8263845797
 30
0.0
 11
196.8438163195
 21
107.8263845797
 31
0.0
  0
SPLINE
  5
13B
330
1F
100
AcDbEntity
  8
0
  6
Continuous
 62
     8
370
    25
100
AcDbSpline
210
0.0
220
0.0
230
1.0
 70
    24
 71
     3
 72
    11
 73
     7
 74
     0
 42
0.000000001
 43
0.00000001
 40
0.0
 40
0.0
 40
0.0
 40
0.0
 40
0.1622444046375449
 40
0.4414962697583634
 40
0.7207481348791818
 40
1.0
 40
1.0
 40
1.0
 40
1.0
 10
204.9239891351122
 20
98.19866590297875
 30
0.0
 10
204.9618018913914
 20
98.19866590297875
 30
0.0
 10
205.06469721702
 20
98.19866590297875
 30
0.0
 10
205.2052419360037
 20
98.19866590297875
 30
0.0
 10
205.3213695647425
 20
98.19866590297875
 30
0.0
 10
205.3363340679062
 20
98.19866590297875
 30
0.0
 10
205.343816319488
 20
98.19866590297875
 30
0.0
  0
LINE
  5
13C
330
1F
100
AcDbEntity
  8
0
  6
Continuous
 62
     8
370
    25
100
AcDbLine
 10
204.8438163195
 20
101.8263845797
 30
0.0
 11
204.8438163195
 21
98.4701726014
 31
0.0
  0
LINE
  5
13D
330
1F
100
AcDbEntity
  8
0
  6
Continuous
 62
     8
370
    25
100
AcDbLine
 10
202.4681743384
 20
101.8263845797
 30
0.0
 11
204.8438163195
 21
101.8263845797
 31
0.0
  0
LINE
  5
13E
330
1F
100
AcDbEntity
  8
0
  6
Continuous
 62
     8
370
    25
100
AcDbLine
 10
188.8438163195
 20
88.8263845797
 30
0.0
 11
191.2194583006
 21
88.8263845797
 31
0.0
  0
LINE
  5
13F
330
1F
100
AcDbEntity
  8
0
  6
Continuous
 62
     8
370
    25
100
AcDbLine
 10
188.8438163195
 20
88.8263845797
 30
0.0
 11
188.8438163195
 21
92.182596558
 31
0.0
  0
SPLINE
  5
140
330
1F
100
AcDbEntity
  8
0
  6
Continuous
 62
     8
370
    25
100
AcDbSpline
210
0.0
220
0.0
230
1.0
 70
    24
 71
     3
 72
    11
 73
     7
 74
     0
 42
0.000000001
 43
0.00000001
 40
0.0
 40
0.0
 40
0.0
 40
0.0
 40
0.162123307367645
 40
0.4414155382450967
 40
0.7207077691225485
 40
1.0
 40
1.0
 40
1.0
 40
1.0
 10
188.7635444736254
 20
92.45410325644072
 30
0.0
 10
188.7257658044838
 20
92.45410325644072
 30
0.0
 10
188.6229052605923
 20
92.45410325644072
 30
0.0
 10
188.4823913441409
 20
92.45410325644072
 30
0.0
 10
188.3662629139413
 20
92.45410325644072
 30
0.0
 10
188.3512985176391
 20
92.45410325644072
 30
0.0
 10
188.343816319488
 20
92.45410325644072
 30
0.0
  0
SPLINE
  5
141
330
1F
100
AcDbEntity
  8
0
  6
Continuous
 62
     8
370
    25
100
AcDbSpline
210
0.0
220
0.0
230
1.0
 70
    24
 71
     3
 72
    11
 73
     7
 74
     0
 42
0.000000001
 43
0.00000001
 40
0.0
 40
0.0
 40
0.0
 40
0.0
 40
0.279256755951885
 40
0.5585135119037704
 40
0.8377702678556558
 40
1.0
 40
1.0
 40
1.0
 40
1.0
 10
205.343816319488
 20
92.45410325644072
 30
0.0
 10
205.3363340743788
 20
92.45410325644072
 30
0.0
 10
205.3213695841603
 20
92.45410325644072
 30
0.0
 10
205.2052418583325
 20
92.45410325644072
 30
0.0
 10
205.0647008719023
 20
92.45410325644072
 30
0.0
 10
204.9618097610608
 20
92.45410325644072
 30
0.0
 10
204.9240011354247
 20
92.45410325644072
 30
0.0
  0
LINE
  5
142
330
1F
100
AcDbEntity
  8
0
  6
Continuous
 62
     8
370
    25
100
AcDbLine
 10
204.8438163195
 20
92.182596558
 30
0.0
 11
204.8438163195
 21
88.8263845797
 31
0.0
  0
LINE
  5
143
330
1F
100
AcDbEntity
  8
0
  6
Continuous
 62
     8
370
    25
100
AcDbLine
 10
202.4681743384
 20
88.8263845797
 30
0.0
 11
204.8438163195
 21
88.8263845797
 31
0.0
  0
LINE
  5
144
330
1F
100
AcDbEntity
  8
0
  6
Continuous
 62
     8
370
    25
100
AcDbLine
 10
188.8438163195
 20
98.4701726014
 30
0.0
 11
188.8438163195
 21
101.8263845797
 31
0.0
  0
LINE
  5
145
330
1F
100
AcDbEntity
  8
0
  6
Continuous
 62
     8
370
    25
100
AcDbLine
 10
188.8438163195
 20
101.8263845797
 30
0.0
 11
191.2194583006
 21
101.8263845797
 31
0.0
  0
SPLINE
  5
146
330
1F
100
AcDbEntity
  8
0
  6
Continuous
 62
     8
370
    25
100
AcDbSpline
210
0.0
220
0.0
230
1.0
 70
    24
 71
     3
 72
    11
 73
     7
 74
     0
 42
0.000000001
 43
0.00000001
 40
0.0
 40
0.0
 40
0.0
 40
0.0
 40
0.2792400145534132
 40
0.5584800291068267
 40
0.8377200436602402
 40
1.0
 40
1.0
 40
1.0
 40
1.0
 10
188.343816319488
 20
98.19866590297875
 30
0.0
 10
188.3512985867517
 20
98.19866590297875
 30
0.0
 10
188.366263121279
 20
98.19866590297875
 30
0.0
 10
188.48239051479
 20
98.19866590297875
 30
0.0
 10
188.6229442783072
 20
98.19866590297875
 30
0.0
 10
188.7258498170452
 20
98.19866590297875
 30
0.0
 10
188.7636725825698
 20
98.19866590297875
 30
0.0
  0
INSERT
  5
152
330
1F
100
AcDbEntity
  8
0
  6
Continuous
 62
     7
370
    18
100
AcDbBlockReference
  2
SW_CENTERMARKSYMBOL_0
 10
196.8438163195
 20
95.3263845797
 30
0.0
  0
ARC
  5
153
330
1F
100
AcDbEntity
  8
0
  6
Continuous
 62
     7
370
    18
100
AcDbCircle
 10
196.8438163195
 20
95.3263845797
 30
0.0
 40
7.450000000000004
100
AcDbArc
 50
75.0
 51
345.0
  0
ARC
  5
154
330
1F
100
AcDbEntity
  8
0
  6
Continuous
 62
     7
370
    25
100
AcDbCircle
 10
144.807584623
 20
144.2377808412
 30
0.0
 40
2.5
100
AcDbArc
 50
74.1084670401
 51
90.0
  0
ARC
  5
155
330
1F
100
AcDbEntity
  8
0
  6
Continuous
 62
     7
370
    25
100
AcDbCircle
 10
144.807584623
 20
166.2377808412
 30
0.0
 40
2.500000000000016
100
AcDbArc
 50
270.0
 51
285.8915329599
  0
LINE
  5
156
330
1F
100
AcDbEntity
  8
0
  6
Continuous
 62
     7
370
    25
100
AcDbLine
 10
145.4921273524
 20
146.6422353015
 30
0.0
 11
158.2336751893
 21
147.0404086714
 31
0.0
  0
LINE
  5
157
330
1F
100
AcDbEntity
  8
0
  6
Continuous
 62
     7
370
    25
100
AcDbLine
 10
158.2336751893
 20
163.435153011
 30
0.0
 11
145.4921273524
 21
163.8333263809
 31
0.0
  0
LINE
  5
158
330
1F
100
AcDbEntity
  8
0
  6
Continuous
 62
     7
370
    25
100
AcDbLine
 10
144.807584623
 20
163.7377808412
 30
0.0
 11
140.807584623
 21
163.7377808412
 31
0.0
  0
LINE
  5
159
330
1F
100
AcDbEntity
  8
0
  6
Continuous
 62
     7
370
    25
100
AcDbLine
 10
140.807584623
 20
146.7377808412
 30
0.0
 11
144.807584623
 21
146.7377808412
 31
0.0
  0
LINE
  5
15A
330
1F
100
AcDbEntity
  8
0
  6
Continuous
 62
     7
370
    25
100
AcDbLine
 10
158.2336751893
 20
147.0404086714
 30
0.0
 11
160.307584623
 21
148.2377808412
 31
0.0
  0
LINE
  5
15B
330
1F
100
AcDbEntity
  8
0
  6
Continuous
 62
     7
370
    25
100
AcDbLine
 10
160.307584623
 20
162.2377808412
 30
0.0
 11
158.2336751893
 21
163.435153011
 31
0.0
  0
CIRCLE
  5
15C
330
1F
100
AcDbEntity
  8
0
  6
Continuous
 62
     7
370
    25
100
AcDbCircle
 10
132.307584623
 20
155.2377808412
 30
0.0
 40
9.499999999999972
  0
CIRCLE
  5
15D
330
1F
100
AcDbEntity
  8
0
  6
Continuous
 62
     7
370
    25
100
AcDbCircle
 10
132.307584623
 20
155.2377808412
 30
0.0
 40
9.400000000000006
  0
CIRCLE
  5
15E
330
1F
100
AcDbEntity
  8
0
  6
Continuous
 62
     7
370
    25
100
AcDbCircle
 10
132.307584623
 20
155.2377808412
 30
0.0
 40
9.599999999999994
  0
CIRCLE
  5
15F
330
1F
100
AcDbEntity
  8
0
  6
Continuous
 62
     7
370
    25
100
AcDbCircle
 10
132.307584623
 20
155.2377808412
 30
0.0
 40
10.75
  0
CIRCLE
  5
160
330
1F
100
AcDbEntity
  8
0
  6
Continuous
 62
     7
370
    25
100
AcDbCircle
 10
132.307584623
 20
155.2377808412
 30
0.0
 40
11.24999999999997
  0
CIRCLE
  5
161
330
1F
100
AcDbEntity
  8
0
  6
Continuous
 62
     7
370
    25
100
AcDbCircle
 10
132.307584623
 20
155.2377808412
 30
0.0
 40
8.499999999999972
  0
CIRCLE
  5
162
330
1F
100
AcDbEntity
  8
0
  6
Continuous
 62
     7
370
    25
100
AcDbCircle
 10
132.307584623
 20
155.2377808412
 30
0.0
 40
7.885376564541673
  0
CIRCLE
  5
163
330
1F
100
AcDbEntity
  8
0
  6
Continuous
 62
     7
370
    25
100
AcDbCircle
 10
132.307584623
 20
155.2377808412
 30
0.0
 40
7.547130709322744
  0
CIRCLE
  5
164
330
1F
100
AcDbEntity
  8
0
  6
Continuous
 62
     7
370
    25
100
AcDbCircle
 10
132.307584623
 20
155.2377808412
 30
0.0
 40
7.150000000000006
  0
CIRCLE
  5
165
330
1F
100
AcDbEntity
  8
0
  6
Continuous
 62
     7
370
    25
100
AcDbCircle
 10
132.307584623
 20
155.2377808412
 30
0.0
 40
5.0
  0
LINE
  5
166
330
1F
100
AcDbEntity
  8
0
  6
Continuous
 62
     7
370
    25
100
AcDbLine
 10
145.4921273524
 20
146.6422353015
 30
0.0
 11
145.4921273524
 21
163.8333263809
 31
0.0
  0
LINE
  5
167
330
1F
100
AcDbEntity
  8
0
  6
Continuous
 62
     7
370
    25
100
AcDbLine
 10
158.2336751893
 20
163.435153011
 30
0.0
 11
158.2336751893
 21
147.0404086714
 31
0.0
  0
SPLINE
  5
168
330
1F
100
AcDbEntity
  8
0
  6
Continuous
 62
     7
370
    25
100
AcDbSpline
210
0.0
220
0.0
230
1.0
 70
    24
 71
     3
 72
     8
 73
     4
 74
     0
 42
0.000000001
 43
0.00000001
 40
0.0
 40
0.0
 40
0.0
 40
0.0
 40
1.0
 40
1.0
 40
1.0
 40
1.0
 10
140.8075846229623
 20
147.2377808412249
 30
0.0
 10
140.8075846229623
 20
146.9077545876101
 30
0.0
 10
140.8075846229623
 20
146.7377808412249
 30
0.0
 10
140.8075846229623
 20
146.7377808412249
 30
0.0
  0
SPLINE
  5
169
330
1F
100
AcDbEntity
  8
0
  6
Continuous
 62
     7
370
    25
100
AcDbSpline
210
0.0
220
0.0
230
1.0
 70
    24
 71
     3
 72
     8
 73
     4
 74
     0
 42
0.000000001
 43
0.00000001
 40
0.0
 40
0.0
 40
0.0
 40
0.0
 40
1.0
 40
1.0
 40
1.0
 40
1.0
 10
140.8075846229623
 20
163.7377808412249
 30
0.0
 10
140.8075846229623
 20
163.7377808412249
 30
0.0
 10
140.8075846229623
 20
163.5678070948397
 30
0.0
 10
140.8075846229623
 20
163.2377808412249
 30
0.0
  0
LINE
  5
16A
330
1F
100
AcDbEntity
  8
0
  6
Continuous
 62
     7
370
    25
100
AcDbLine
 10
160.307584623
 20
162.2377808412
 30
0.0
 11
160.307584623
 21
148.2377808412
 31
0.0
  0
LINE
  5
16B
330
1F
100
AcDbEntity
  8
0
  6
Continuous
 62
     7
370
    25
100
AcDbLine
 10
140.307584623
 20
163.7377808412
 30
0.0
 11
140.307584623
 21
163.2377808412
 31
0.0
  0
LINE
  5
16C
330
1F
100
AcDbEntity
  8
0
  6
Continuous
 62
     7
370
    25
100
AcDbLine
 10
140.307584623
 20
163.7377808412
 30
0.0
 11
139.6772861095
 21
163.7377808412
 31
0.0
  0
LINE
  5
16D
330
1F
100
AcDbEntity
  8
0
  6
Continuous
 62
     7
370
    25
100
AcDbLine
 10
140.307584623
 20
146.7377808412
 30
0.0
 11
140.307584623
 21
147.2377808412
 31
0.0
  0
LINE
  5
16E
330
1F
100
AcDbEntity
  8
0
  6
Continuous
 62
     7
370
    25
100
AcDbLine
 10
139.6772861095
 20
146.7377808412
 30
0.0
 11
140.307584623
 21
146.7377808412
 31
0.0
  0
ARC
  5
16F
330
1F
100
AcDbEntity
  8
0
  6
Continuous
 62
     7
370
    25
100
AcDbCircle
 10
140.307584623
 20
163.2377808412
 30
0.0
 40
0.5
100
AcDbArc
 50
0.0
 51
90.0
  0
LINE
  5
170
330
1F
100
AcDbEntity
  8
0
  6
Continuous
 62
     7
370
    25
100
AcDbLine
 10
140.307584623
 20
163.2377808412
 30
0.0
 11
140.807584623
 21
163.2377808412
 31
0.0
  0
LINE
  5
171
330
1F
100
AcDbEntity
  8
0
  6
Continuous
 62
     7
370
    25
100
AcDbLine
 10
140.807584623
 20
162.6074823277
 30
0.0
 11
140.807584623
 21
163.2377808412
 31
0.0
  0
LINE
  5
172
330
1F
100
AcDbEntity
  8
0
  6
Continuous
 62
     7
370
    25
100
AcDbLine
 10
140.807584623
 20
147.2377808412
 30
0.0
 11
140.807584623
 21
147.8680793547
 31
0.0
  0
LINE
  5
173
330
1F
100
AcDbEntity
  8
0
  6
Continuous
 62
     7
370
    25
100
AcDbLine
 10
140.307584623
 20
147.2377808412
 30
0.0
 11
140.807584623
 21
147.2377808412
 31
0.0
  0
ARC
  5
174
330
1F
100
AcDbEntity
  8
0
  6
Continuous
 62
     7
370
    25
100
AcDbCircle
 10
140.307584623
 20
147.2377808412
 30
0.0
 40
0.5
100
AcDbArc
 50
270.0
 51
0.0
  0
SPLINE
  5
175
330
1F
100
AcDbEntity
  8
0
  6
Continuous
 62
     7
370
    25
100
AcDbSpline
210
0.0
220
0.0
230
1.0
 70
     8
 71
     3
 72
    10
 73
     6
 74
     0
 42
0.000000001
 43
0.00000001
 40
0.0
 40
0.0
 40
0.0
 40
0.0
 40
0.5
 40
0.5
 40
1.0
 40
1.0
 40
1.0
 40
1.0
 10
133.3075846229623
 20
150.3388013556585
 30
0.0
 10
132.979131798353
 20
150.3479587812566
 30
0.0
 10
132.6482203395667
 20
150.3534399687009
 30
0.0
 10
131.980591936378
 20
150.3535812391635
 30
0.0
 10
131.641989437951
 20
150.3481247256632
 30
0.0
 10
131.3075846229623
 20
150.3388013556585
 30
0.0
  0
LINE
  5
176
330
1F
100
AcDbEntity
  8
0
  6
Continuous
 62
     7
370
    25
100
AcDbLine
 10
131.307584623
 20
150.3388013557
 30
0.0
 11
131.307584623
 21
160.1367603268
 31
0.0
  0
SPLINE
  5
177
330
1F
100
AcDbEntity
  8
0
  6
Continuous
 62
     7
370
    25
100
AcDbSpline
210
0.0
220
0.0
230
1.0
 70
     8
 71
     3
 72
    10
 73
     6
 74
     0
 42
0.000000001
 43
0.00000001
 40
0.0
 40
0.0
 40
0.0
 40
0.0
 40
0.5
 40
0.5
 40
1.0
 40
1.0
 40
1.0
 40
1.0
 10
131.3075846229623
 20
160.1367603267913
 30
0.0
 10
131.6392132017043
 20
160.1275143596127
 30
0.0
 10
131.9716352562633
 20
160.1220775607519
 30
0.0
 10
132.638292582698
 20
160.1220233658902
 30
0.0
 10
132.972528917709
 20
160.1274188096473
 30
0.0
 10
133.3075846229623
 20
160.1367603267913
 30
0.0
  0
SPLINE
  5
178
330
1F
100
AcDbEntity
  8
0
  6
Continuous
 62
     7
370
    25
100
AcDbSpline
210
0.0
220
0.0
230
1.0
 70
    24
 71
     3
 72
    10
 73
     6
 74
     0
 42
0.000000001
 43
0.00000001
 40
-0.2904940295525288
 40
-0.2904940295525288
 40
-0.2904940295525288
 40
-0.2904940295525288
 40
-0.1303072746364131
 40
-0.1303072746364131
 40
0.0010563617272233
 40
0.0010563617272233
 40
0.0010563617272233
 40
0.0010563617272233
 10
140.8075846229623
 20
163.7377808412249
 30
0.0
 10
140.6780813072086
 20
163.7377808412249
 30
0.0
 10
140.5462903290228
 20
163.7377808412249
 30
0.0
 10
140.3678663895976
 20
163.7377808412249
 30
0.0
 10
140.3075846229623
 20
163.7377808412249
 30
0.0
 10
140.3075846229623
 20
163.7377808412249
 30
0.0
  0
SPLINE
  5
179
330
1F
100
AcDbEntity
  8
0
  6
Continuous
 62
     7
370
    25
100
AcDbSpline
210
0.0
220
0.0
230
1.0
 70
    24
 71
     3
 72
    10
 73
     6
 74
     0
 42
0.000000001
 43
0.00000001
 40
-0.8711658421011628
 40
-0.8711658421011628
 40
-0.8711658421011628
 40
-0.8711658421011628
 40
-0.739802205737527
 40
-0.739802205737527
 40
-0.579615450786466
 40
-0.579615450786466
 40
-0.579615450786466
 40
-0.579615450786466
 10
140.3075846229623
 20
146.7377808412249
 30
0.0
 10
140.3075846229623
 20
146.7377808412249
 30
0.0
 10
140.3678663895976
 20
146.7377808412249
 30
0.0
 10
140.5462903290442
 20
146.7377808412249
 30
0.0
 10
140.6780813071802
 20
146.7377808412249
 30
0.0
 10
140.8075846229623
 20
146.7377808412249
 30
0.0
  0
SPLINE
  5
17A
330
1F
100
AcDbEntity
  8
0
  6
Continuous
 62
     7
370
    25
100
AcDbSpline
210
0.0
220
0.0
230
1.0
 70
    24
 71
     3
 72
     9
 73
     5
 74
     0
 42
0.000000001
 43
0.00000001
 40
0.0
 40
0.0
 40
0.0
 40
0.0
 40
0.9901201711315762
 40
1.0
 40
1.0
 40
1.0
 40
1.0
 10
131.3075846229623
 20
160.1367603267913
 30
0.0
 10
131.2616836442164
 20
160.1270505176225
 30
0.0
 10
131.2153246465066
 20
160.1172438199592
 30
0.0
 10
131.2385049309361
 20
160.1221473349699
 30
0.0
 10
131.2387339481794
 20
160.122195780859
 30
0.0
  0
SPLINE
  5
17B
330
1F
100
AcDbEntity
  8
0
  6
Continuous
 62
     7
370
    25
100
AcDbSpline
210
0.0
220
0.0
230
1.0
 70
     8
 71
     3
 72
    24
 73
    20
 74
     0
 42
0.000000001
 43
0.00000001
 40
0.0
 40
0.0
 40
0.0
 40
0.0
 40
0.1249999999999999
 40
0.1249999999999999
 40
0.25
 40
0.25
 40
0.3750000000000001
 40
0.3750000000000001
 40
0.4375000000000001
 40
0.4375000000000001
 40
0.5000000000000001
 40
0.5000000000000001
 40
0.625
 40
0.625
 40
0.75
 40
0.75
 40
0.875
 40
0.875
 40
1.0
 40
1.0
 40
1.0
 40
1.0
 10
131.3075846229623
 20
150.3388013556585
 30
0.0
 10
131.116181642933
 20
150.7029880700352
 30
0.0
 10
130.9320785713598
 20
151.0734911226425
 30
0.0
 10
130.5872168730652
 20
151.8346963043765
 30
0.0
 10
130.4262809262762
 20
152.2252450050693
 30
0.0
 10
130.143625629022
 20
153.0402750630252
 30
0.0
 10
130.0228310688578
 20
153.4638692293639
 30
0.0
 10
129.8961128652269
 20
154.1168941172421
 30
0.0
 10
129.8627808974898
 20
154.3381870878125
 30
0.0
 10
129.8175500015493
 20
154.7894786687466
 30
0.0
 10
129.8060713101722
 20
155.0175833333265
 30
0.0
 10
129.8065850424874
 20
155.693374302842
 30
0.0
 10
129.8534375853359
 20
156.1397583449144
 30
0.0
 10
130.0245540088346
 20
157.0195517547728
 30
0.0
 10
130.144351630689
 20
157.4372445918579
 30
0.0
 10
130.4247875286998
 20
158.2461455664376
 30
0.0
 10
130.5859575240458
 20
158.6379834544295
 30
0.0
 10
130.9319006552128
 20
159.4017796179769
 30
0.0
 10
131.1162326792411
 20
159.7726707203352
 30
0.0
 10
131.3075846229623
 20
160.1367603267913
 30
0.0
  0
LINE
  5
17C
330
1F
100
AcDbEntity
  8
0
  6
Continuous
 62
     8
370
    25
100
AcDbLine
 10
144.807584623
 20
155.2377808412
 30
0.0
 11
144.807584623
 21
146.7377808412
 31
0.0
  0
LINE
  5
17D
330
1F
100
AcDbEntity
  8
0
  6
Continuous
 62
     8
370
    25
100
AcDbLine
 10
144.807584623
 20
163.7377808412
 30
0.0
 11
144.807584623
 21
155.2377808412
 31
0.0
  0
LINE
  5
17E
330
1F
100
AcDbEntity
  8
0
  6
Continuous
 62
     8
370
    25
100
AcDbLine
 10
140.307584623
 20
163.147426851
 30
0.0
 11
140.307584623
 21
163.2377808412
 31
0.0
  0
LINE
  5
17F
330
1F
100
AcDbEntity
  8
0
  6
Continuous
 62
     8
370
    25
100
AcDbLine
 10
140.2172306327
 20
163.2377808412
 30
0.0
 11
140.307584623
 21
163.2377808412
 31
0.0
  0
LINE
  5
180
330
1F
100
AcDbEntity
  8
0
  6
Continuous
 62
     8
370
    25
100
AcDbLine
 10
140.307584623
 20
147.2377808412
 30
0.0
 11
140.307584623
 21
147.3281348314
 31
0.0
  0
LINE
  5
181
330
1F
100
AcDbEntity
  8
0
  6
Continuous
 62
     8
370
    25
100
AcDbLine
 10
140.307584623
 20
147.2377808412
 30
0.0
 11
140.2172306327
 21
147.2377808412
 31
0.0
  0
INSERT
  5
18D
330
1F
100
AcDbEntity
  8
0
  6
Continuous
 62
     7
370
    18
100
AcDbBlockReference
  2
SW_CENTERMARKSYMBOL_1
 10
132.307584623
 20
155.2377808412
 30
0.0
  0
ARC
  5
18E
330
1F
100
AcDbEntity
  8
0
  6
Continuous
 62
     7
370
    18
100
AcDbCircle
 10
132.307584623
 20
155.2377808412
 30
0.0
 40
8.346191829695446
100
AcDbArc
 50
75.0
 51
345.0
  0
LINE
  5
18F
330
1F
100
AcDbEntity
  8
0
  6
Continuous
 62
     7
370
    18
100
AcDbLine
 10
159.6029054401
 20
147.8309341253
 30
0.0
 11
147.307584623
 21
147.4467053498
 31
0.0
  0
LINE
  5
190
330
1F
100
AcDbEntity
  8
0
  6
Continuous
 62
     7
370
    18
100
AcDbLine
 10
159.6029054401
 20
162.6446275571
 30
0.0
 11
147.307584623
 21
163.0288563327
 31
0.0
  0
LINE
  5
191
330
1F
100
AcDbEntity
  8
0
  6
Continuous
 62
     7
370
    18
100
AcDbLine
 10
147.307584623
 20
163.7765933412
 30
0.0
 11
147.307584623
 21
146.6989683412
 31
0.0
  0
ENDSEC
  0
SECTION
  2
OBJECTS
  0
DICTIONARY
  5
C
330
0
100
AcDbDictionary
281
     1
  3
ACAD_GROUP
350
D
  3
ACAD_LAYOUT
350
1A
  3
ACAD_MLINESTYLE
350
17
  3
ACAD_PLOTSETTINGS
350
19
  3
ACAD_PLOTSTYLENAME
350
E
  3
ACAD_SCALELIST
350
47
  0
DICTIONARY
  5
D
102
{ACAD_REACTORS
330
C
102
}
330
C
100
AcDbDictionary
281
     1
  0
DICTIONARY
  5
1A
102
{ACAD_REACTORS
330
C
102
}
330
C
100
AcDbDictionary
281
     1
  3
Layout1
350
1E
  3
Layout2
350
26
  3
Model
350
22
  0
DICTIONARY
  5
17
102
{ACAD_REACTORS
330
C
102
}
330
C
100
AcDbDictionary
281
     1
  3
Standard
350
18
  0
DICTIONARY
  5
19
102
{ACAD_REACTORS
330
C
102
}
330
C
100
AcDbDictionary
281
     1
  0
ACDBDICTIONARYWDFLT
  5
E
102
{ACAD_REACTORS
330
C
102
}
330
C
100
AcDbDictionary
281
     1
  3
Normal
350
F
100
AcDbDictionaryWithDefault
340
F
  0
DICTIONARY
  5
47
102
{ACAD_REACTORS
330
C
102
}
330
C
100
AcDbDictionary
281
     1
  3
A0
350
48
  3
A1
350
49
  3
A2
350
4A
  3
A3
350
4B
  3
A4
350
4C
  3
A5
350
4D
  3
A6
350
4E
  3
A7
350
4F
  3
A8
350
50
  3
A9
350
51
  3
B0
350
52
  3
B1
350
53
  3
B2
350
54
  3
B3
350
55
  3
B4
350
56
  3
B5
350
57
  3
B6
350
58
  3
B7
350
59
  3
B8
350
5A
  3
B9
350
5B
  3
C0
350
5C
  3
C1
350
5D
  3
C2
350
5E
  3
C3
350
5F
  3
C4
350
60
  3
C5
350
61
  3
C6
350
62
  3
C7
350
63
  3
C8
350
64
  3
C9
350
65
  3
D0
350
66
  3
D1
350
67
  3
D2
350
68
  0
LAYOUT
  5
1E
102
{ACAD_REACTORS
330
1A
102
}
330
1A
100
AcDbPlotSettings
  1

  2
none_device
  4

  6

 40
0.0
 41
0.0
 42
0.0
 43
0.0
 44
0.0
 45
0.0
 46
0.0
 47
0.0
 48
0.0
 49
0.0
140
0.0
141
0.0
142
1.0
143
1.0
 70
   688
 72
     1
 73
     0
 74
     5
  7

 75
    16
147
1.0
148
0.0
149
0.0
100
AcDbLayout
  1
Layout1
 70
     1
 71
     1
 10
0.0
 20
0.0
 11
420.0
 21
297.0
 12
0.0
 22
0.0
 32
0.0
 14
1.0000000000E+20
 24
1.0000000000E+20
 34
1.0000000000E+20
 15
-1.0000000000E+20
 25
-1.0000000000E+20
 35
-1.0000000000E+20
146
0.0
 13
0.0
 23
0.0
 33
0.0
 16
1.0
 26
0.0
 36
0.0
 17
0.0
 27
1.0
 37
0.0
 76
     0
330
1B
  0
LAYOUT
  5
26
102
{ACAD_REACTORS
330
1A
102
}
330
1A
100
AcDbPlotSettings
  1

  2
none_device
  4

  6

 40
0.0
 41
0.0
 42
0.0
 43
0.0
 44
0.0
 45
0.0
 46
0.0
 47
0.0
 48
0.0
 49
0.0
140
0.0
141
0.0
142
1.0
143
1.0
 70
   688
 72
     1
 73
     0
 74
     5
  7

 75
    16
147
1.0
148
0.0
149
0.0
100
AcDbLayout
  1
Layout2
 70
     1
 71
     2
 10
0.0
 20
0.0
 11
0.0
 21
0.0
 12
0.0
 22
0.0
 32
0.0
 14
0.0
 24
0.0
 34
0.0
 15
0.0
 25
0.0
 35
0.0
146
0.0
 13
0.0
 23
0.0
 33
0.0
 16
1.0
 26
0.0
 36
0.0
 17
0.0
 27
1.0
 37
0.0
 76
     0
330
23
  0
LAYOUT
  5
22
102
{ACAD_REACTORS
330
1A
102
}
330
1A
100
AcDbPlotSettings
  1

  2
none_device
  4
Letter_(8.50_x_11.00_Inches)
  6

 40
6.35
 41
6.35
 42
6.35000508
 43
6.35000508
 44
215.9
 45
279.4
 46
0.0
 47
0.0
 48
0.0
 49
0.0
140
0.0
141
0.0
142
1.0
143
1.0
 70
  1712
 72
     1
 73
     0
 74
     0
  7

 75
     0
147
1.0
148
0.0
149
0.0
100
AcDbLayout
  1
Model
 70
     1
 71
     0
 10
0.0
 20
0.0
 11
431.8
 21
279.4
 12
0.0
 22
0.0
 32
0.0
 14
0.0
 24
0.0
 34
0.0
 15
431.8
 25
279.4
 35
0.0
146
0.0
 13
0.0
 23
0.0
 33
0.0
 16
1.0
 26
0.0
 36
0.0
 17
0.0
 27
1.0
 37
0.0
 76
     0
330
1F
331
29
  0
MLINESTYLE
  5
18
102
{ACAD_REACTORS
330
17
102
}
330
17
100
AcDbMlineStyle
  2
Standard
 70
     0
  3

 62
   256
 51
90.0
 52
90.0
 71
     2
 49
0.5
 62
   256
  6
BYLAYER
 49
-0.5
 62
   256
  6
BYLAYER
  0
ACDBPLACEHOLDER
  5
F
102
{ACAD_REACTORS
330
E
102
}
330
E
  0
SCALE
  5
48
102
{ACAD_REACTORS
330
47
102
}
330
47
100
AcDbScale
 70
     0
300
1:1
140
1.0
141
1.0
290
     1
  0
SCALE
  5
49
102
{ACAD_REACTORS
330
47
102
}
330
47
100
AcDbScale
 70
     0
300
1:2
140
1.0
141
2.0
290
     0
  0
SCALE
  5
4A
102
{ACAD_REACTORS
330
47
102
}
330
47
100
AcDbScale
 70
     0
300
1:4
140
1.0
141
4.0
290
     0
  0
SCALE
  5
4B
102
{ACAD_REACTORS
330
47
102
}
330
47
100
AcDbScale
 70
     0
300
1:5
140
1.0
141
5.0
290
     0
  0
SCALE
  5
4C
102
{ACAD_REACTORS
330
47
102
}
330
47
100
AcDbScale
 70
     0
300
1:8
140
1.0
141
8.0
290
     0
  0
SCALE
  5
4D
102
{ACAD_REACTORS
330
47
102
}
330
47
100
AcDbScale
 70
     0
300
1:10
140
1.0
141
10.0
290
     0
  0
SCALE
  5
4E
102
{ACAD_REACTORS
330
47
102
}
330
47
100
AcDbScale
 70
     0
300
1:16
140
1.0
141
16.0
290
     0
  0
SCALE
  5
4F
102
{ACAD_REACTORS
330
47
102
}
330
47
100
AcDbScale
 70
     0
300
1:20
140
1.0
141
20.0
290
     0
  0
SCALE
  5
50
102
{ACAD_REACTORS
330
47
102
}
330
47
100
AcDbScale
 70
     0
300
1:30
140
1.0
141
30.0
290
     0
  0
SCALE
  5
51
102
{ACAD_REACTORS
330
47
102
}
330
47
100
AcDbScale
 70
     0
300
1:40
140
1.0
141
40.0
290
     0
  0
SCALE
  5
52
102
{ACAD_REACTORS
330
47
102
}
330
47
100
AcDbScale
 70
     0
300
1:50
140
1.0
141
50.0
290
     0
  0
SCALE
  5
53
102
{ACAD_REACTORS
330
47
102
}
330
47
100
AcDbScale
 70
     0
300
1:100
140
1.0
141
100.0
290
     0
  0
SCALE
  5
54
102
{ACAD_REACTORS
330
47
102
}
330
47
100
AcDbScale
 70
     0
300
2:1
140
2.0
141
1.0
290
     0
  0
SCALE
  5
55
102
{ACAD_REACTORS
330
47
102
}
330
47
100
AcDbScale
 70
     0
300
4:1
140
4.0
141
1.0
290
     0
  0
SCALE
  5
56
102
{ACAD_REACTORS
330
47
102
}
330
47
100
AcDbScale
 70
     0
300
8:1
140
8.0
141
1.0
290
     0
  0
SCALE
  5
57
102
{ACAD_REACTORS
330
47
102
}
330
47
100
AcDbScale
 70
     0
300
10:1
140
10.0
141
1.0
290
     0
  0
SCALE
  5
58
102
{ACAD_REACTORS
330
47
102
}
330
47
100
AcDbScale
 70
     0
300
100:1
140
100.0
141
1.0
290
     0
  0
SCALE
  5
59
102
{ACAD_REACTORS
330
47
102
}
330
47
100
AcDbScale
 70
     0
300
1/128" = 1'-0"
140
0.0078125
141
12.0
290
     0
  0
SCALE
  5
5A
102
{ACAD_REACTORS
330
47
102
}
330
47
100
AcDbScale
 70
     0
300
1/64" = 1'-0"
140
0.015625
141
12.0
290
     0
  0
SCALE
  5
5B
102
{ACAD_REACTORS
330
47
102
}
330
47
100
AcDbScale
 70
     0
300
1/32" = 1'-0"
140
0.03125
141
12.0
290
     0
  0
SCALE
  5
5C
102
{ACAD_REACTORS
330
47
102
}
330
47
100
AcDbScale
 70
     0
300
1/16" = 1'-0"
140
0.0625
141
12.0
290
     0
  0
SCALE
  5
5D
102
{ACAD_REACTORS
330
47
102
}
330
47
100
AcDbScale
 70
     0
300
3/32" = 1'-0"
140
0.09375
141
12.0
290
     0
  0
SCALE
  5
5E
102
{ACAD_REACTORS
330
47
102
}
330
47
100
AcDbScale
 70
     0
300
1/8" = 1'-0"
140
0.125
141
12.0
290
     0
  0
SCALE
  5
5F
102
{ACAD_REACTORS
330
47
102
}
330
47
100
AcDbScale
 70
     0
300
3/16" = 1'-0"
140
0.1875
141
12.0
290
     0
  0
SCALE
  5
60
102
{ACAD_REACTORS
330
47
102
}
330
47
100
AcDbScale
 70
     0
300
1/4" = 1'-0"
140
0.25
141
12.0
290
     0
  0
SCALE
  5
61
102
{ACAD_REACTORS
330
47
102
}
330
47
100
AcDbScale
 70
     0
300
3/8" = 1'-0"
140
0.375
141
12.0
290
     0
  0
SCALE
  5
62
102
{ACAD_REACTORS
330
47
102
}
330
47
100
AcDbScale
 70
     0
300
1/2" = 1'-0"
140
0.5
141
12.0
290
     0
  0
SCALE
  5
63
102
{ACAD_REACTORS
330
47
102
}
330
47
100
AcDbScale
 70
     0
300
3/4" = 1'-0"
140
0.75
141
12.0
290
     0
  0
SCALE
  5
64
102
{ACAD_REACTORS
330
47
102
}
330
47
100
AcDbScale
 70
     0
300
1" = 1'-0"
140
1.0
141
12.0
290
     0
  0
SCALE
  5
65
102
{ACAD_REACTORS
330
47
102
}
330
47
100
AcDbScale
 70
     0
300
1-1/2" = 1'-0"
140
1.5
141
12.0
290
     0
  0
SCALE
  5
66
102
{ACAD_REACTORS
330
47
102
}
330
47
100
AcDbScale
 70
     0
300
3" = 1'-0"
140
3.0
141
12.0
290
     0
  0
SCALE
  5
67
102
{ACAD_REACTORS
330
47
102
}
330
47
100
AcDbScale
 70
     0
300
6" = 1'-0"
140
6.0
141
12.0
290
     0
  0
SCALE
  5
68
102
{ACAD_REACTORS
330
47
102
}
330
47
100
AcDbScale
 70
     0
300
1'-0" = 1'-0"
140
12.0
141
12.0
290
     0
  0
ENDSEC
  0
EOF
